999
DXF file: RDHA-LAN.dxf
999
Pro/ENGINEER 2006240 by Parametric Technology Corporation
  0
SECTION
  2
HEADER
  9
$ACADVER
  1
AC1015
  9
$DWGCODEPAGE
  3
ANSI_1252
  9
$EXTMAX
 10
11.6929133858
 20
8.2677165354
 30
0.0
  9
$EXTMIN
 10
0.0
 20
0.0
 30
0.0
  9
$LIMMIN
 10
0.0
 20
0.0
  9
$LIMMAX
 10
11.6929133858
 20
8.2677165354
  9
$VIEWCTR
 10
5.8464566929
 20
4.1338582677
  9
$VIEWSIZE
 40
8.2677165354
  9
$CLAYER
  8
0
  9
$LTSCALE
 40
0.6431102362
  9
$CELTYPE
  6
BYLAYER
  9
$DIMSCALE
 40
1.0
  9
$DIMASZ
 40
0.1875
  9
$DIMEXO
 40
0.0730807087
  9
$DIMDLI
 40
0.4443307087
  9
$DIMEXE
 40
0.2104724409
  9
$DIMCEN
 40
0.1052362205
  9
$DIMLFAC
 40
1.0
  9
$DIMBLK
  1
_CLOSED
  9
$DIMTXT
 40
0.15625
  9
$DIMTOL
 70
0
  9
$DIMLIM
 70
0
  9
$DIMTFAC
 40
1.0
  9
$PDMODE
 70
3
  9
$PDSIZE
 40
0.3125
  9
$HANDSEED
  5
456
  9
$MEASUREMENT
 70
0
  9
$INSUNITS
 70
1
  0
ENDSEC
  0
SECTION
  2
CLASSES
  0
CLASS
  1
ACDBDICTIONARYWDFLT
  2
AcDbDictionaryWithDefault
  3
AutoCAD 2000
 90
0
280
0
281
0
  0
CLASS
  1
ACDBPLACEHOLDER
  2
AcDbPlaceHolder
  3
AutoCAD 2000
 90
0
280
0
281
0
  0
CLASS
  1
LAYOUT
  2
AcDbLayout
  3
AutoCAD 2000
 90
0
280
0
281
0
  0
ENDSEC
  0
SECTION
  2
TABLES
  0
TABLE
  2
VPORT
  5
8
100
AcDbSymbolTable
 70
2
  0
VPORT
  5
1F4
100
AcDbSymbolTableRecord
100
AcDbViewportTableRecord
  2
*ACTIVE
 70
0
 10
0.0
 20
0.0
 11
1.0
 21
1.0
 12
5.8464566929
 22
4.1338582677
 13
0.0
 23
0.0
 14
1.0
 24
1.0
 15
0.0
 25
0.0
 16
0.0
 26
0.0
 36
1.0
 17
0.0
 27
0.0
 37
0.0
 40
8.2677165354
 41
1.4142857143
 42
50.0
 43
0.0
 44
0.0
 50
0.0
 51
0.0
 71
0
 72
100
 73
1
 74
1
 75
0
 76
0
 77
0
 78
0
  0
ENDTAB
  0
TABLE
  2
LTYPE
  5
5
100
AcDbSymbolTable
 70
6
  0
LTYPE
  5
14
100
AcDbSymbolTableRecord
100
AcDbLinetypeTableRecord
  2
BYBLOCK
 70
0
  3

 72
65
 73
0
 40
0.0
  0
LTYPE
  5
15
100
AcDbSymbolTableRecord
100
AcDbLinetypeTableRecord
  2
BYLAYER
 70
0
  3

 72
65
 73
0
 40
0.0
  0
LTYPE
  5
16
100
AcDbSymbolTableRecord
100
AcDbLinetypeTableRecord
  2
CONTINUOUS
 70
64
  3
Solid line
 72
65
 73
0
 40
0.0
  0
LTYPE
  5
1F5
100
AcDbSymbolTableRecord
100
AcDbLinetypeTableRecord
  2
CENTER
 70
64
  3
____ _ ____ _ ____ _ ____ _ ____ _ ____ _ ____
 72
65
 73
4
 40
0.6
 49
0.375
 74
0
 49
-0.075
 74
0
 49
0.075
 74
0
 49
-0.075
 74
0
  0
LTYPE
  5
1F6
100
AcDbSymbolTableRecord
100
AcDbLinetypeTableRecord
  2
HIDDEN
 70
64
  3
- - - - - - - - - - - - - - - - - - - -
 72
65
 73
2
 40
0.2
 49
0.1
 74
0
 49
-0.1
 74
0
  0
LTYPE
  5
1F7
100
AcDbSymbolTableRecord
100
AcDbLinetypeTableRecord
  2
PHANTOM
 70
64
  3
_____ _ _ _____ _ _ _____ _ _ _____
 72
65
 73
6
 40
0.8
 49
0.45
 74
0
 49
-0.05
 74
0
 49
0.1
 74
0
 49
-0.05
 74
0
 49
0.1
 74
0
 49
-0.05
 74
0
  0
LTYPE
  5
1F8
100
AcDbSymbolTableRecord
100
AcDbLinetypeTableRecord
  2
DOT
 70
64
  3
. . . . . . . . . . . . . . . . . . . .
 72
65
 73
2
 40
0.2
 49
0.1
 74
0
 49
-0.1
 74
0
  0
LTYPE
  5
1F9
100
AcDbSymbolTableRecord
100
AcDbLinetypeTableRecord
  2
DASHED
 70
64
  3
- - - - - - - - - - - - - - - - - - - -
 72
65
 73
2
 40
0.2
 49
0.1
 74
0
 49
-0.1
 74
0
  0
ENDTAB
  0
TABLE
  2
LAYER
  5
2
100
AcDbSymbolTable
 70
36
  0
LAYER
  5
10
100
AcDbSymbolTableRecord
100
AcDbLayerTableRecord
  2
0
 70
0
 62
7
  6
CONTINUOUS
370
-3
390
F
  0
LAYER
  5
1FA
100
AcDbSymbolTableRecord
100
AcDbLayerTableRecord
  2
DEFAULT_1
 70
0
 62
7
  6
CENTER
370
-3
390
F
  0
LAYER
  5
1FB
100
AcDbSymbolTableRecord
100
AcDbLayerTableRecord
  2
DEFAULT_2
 70
0
 62
8
  6
HIDDEN
370
-3
390
F
  0
LAYER
  5
1FC
100
AcDbSymbolTableRecord
100
AcDbLayerTableRecord
  2
DEFAULT_3
 70
0
 62
7
  6
PHANTOM
370
-3
390
F
  0
LAYER
  5
1FD
100
AcDbSymbolTableRecord
100
AcDbLayerTableRecord
  2
_BLACK_HOLE
 70
0
 62
7
  6
CONTINUOUS
370
-3
390
F
  0
LAYER
  5
1FE
100
AcDbSymbolTableRecord
100
AcDbLayerTableRecord
  2
01_ALL_DTM_PLN
 70
0
 62
7
  6
CONTINUOUS
370
-3
390
F
  0
LAYER
  5
1FF
100
AcDbSymbolTableRecord
100
AcDbLayerTableRecord
  2
01__ASM_ALL_DTM_PLN
 70
0
 62
7
  6
CONTINUOUS
370
-3
390
F
  0
LAYER
  5
200
100
AcDbSymbolTableRecord
100
AcDbLayerTableRecord
  2
01__ASM_DEF_DTM_PLN
 70
0
 62
7
  6
CONTINUOUS
370
-3
390
F
  0
LAYER
  5
201
100
AcDbSymbolTableRecord
100
AcDbLayerTableRecord
  2
01___PRT_ALL_DTM_PLN
 70
0
 62
7
  6
CONTINUOUS
370
-3
390
F
  0
LAYER
  5
202
100
AcDbSymbolTableRecord
100
AcDbLayerTableRecord
  2
01___PRT_DEF_DTM_PLN
 70
0
 62
7
  6
CONTINUOUS
370
-3
390
F
  0
LAYER
  5
203
100
AcDbSymbolTableRecord
100
AcDbLayerTableRecord
  2
02_ALL_AXES
 70
0
 62
7
  6
CONTINUOUS
370
-3
390
F
  0
LAYER
  5
204
100
AcDbSymbolTableRecord
100
AcDbLayerTableRecord
  2
02__ASM_ALL_AXES
 70
0
 62
7
  6
CONTINUOUS
370
-3
390
F
  0
LAYER
  5
205
100
AcDbSymbolTableRecord
100
AcDbLayerTableRecord
  2
02___PRT_ALL_AXES
 70
0
 62
7
  6
CONTINUOUS
370
-3
390
F
  0
LAYER
  5
206
100
AcDbSymbolTableRecord
100
AcDbLayerTableRecord
  2
03_ALL_CURVES
 70
0
 62
7
  6
CONTINUOUS
370
-3
390
F
  0
LAYER
  5
207
100
AcDbSymbolTableRecord
100
AcDbLayerTableRecord
  2
03__ASM_ALL_CURVES
 70
0
 62
7
  6
CONTINUOUS
370
-3
390
F
  0
LAYER
  5
208
100
AcDbSymbolTableRecord
100
AcDbLayerTableRecord
  2
03___PRT_ALL_CURVES
 70
0
 62
7
  6
CONTINUOUS
370
-3
390
F
  0
LAYER
  5
209
100
AcDbSymbolTableRecord
100
AcDbLayerTableRecord
  2
04_ALL_DTM_PNT
 70
0
 62
7
  6
CONTINUOUS
370
-3
390
F
  0
LAYER
  5
20A
100
AcDbSymbolTableRecord
100
AcDbLayerTableRecord
  2
04__ASM_ALL_DTM_PNT
 70
0
 62
7
  6
CONTINUOUS
370
-3
390
F
  0
LAYER
  5
20B
100
AcDbSymbolTableRecord
100
AcDbLayerTableRecord
  2
04___PRT_ALL_DTM_PNT
 70
0
 62
7
  6
CONTINUOUS
370
-3
390
F
  0
LAYER
  5
20C
100
AcDbSymbolTableRecord
100
AcDbLayerTableRecord
  2
05_ALL_DTM_CSYS
 70
0
 62
7
  6
CONTINUOUS
370
-3
390
F
  0
LAYER
  5
20D
100
AcDbSymbolTableRecord
100
AcDbLayerTableRecord
  2
05__ASM_ALL_DTM_CSYS
 70
0
 62
7
  6
CONTINUOUS
370
-3
390
F
  0
LAYER
  5
20E
100
AcDbSymbolTableRecord
100
AcDbLayerTableRecord
  2
05__ASM_DEF_DTM_CSYS
 70
0
 62
7
  6
CONTINUOUS
370
-3
390
F
  0
LAYER
  5
20F
100
AcDbSymbolTableRecord
100
AcDbLayerTableRecord
  2
05___PRT_ALL_DTM_CSYS
 70
0
 62
7
  6
CONTINUOUS
370
-3
390
F
  0
LAYER
  5
210
100
AcDbSymbolTableRecord
100
AcDbLayerTableRecord
  2
05___PRT_DEF_DTM_CSYS
 70
0
 62
7
  6
CONTINUOUS
370
-3
390
F
  0
LAYER
  5
211
100
AcDbSymbolTableRecord
100
AcDbLayerTableRecord
  2
06_ALL_SURFS
 70
0
 62
7
  6
CONTINUOUS
370
-3
390
F
  0
LAYER
  5
212
100
AcDbSymbolTableRecord
100
AcDbLayerTableRecord
  2
06__ASM_ALL_SURFS
 70
0
 62
7
  6
CONTINUOUS
370
-3
390
F
  0
LAYER
  5
213
100
AcDbSymbolTableRecord
100
AcDbLayerTableRecord
  2
06___PRT_ALL_SURFS
 70
0
 62
7
  6
CONTINUOUS
370
-3
390
F
  0
LAYER
  5
214
100
AcDbSymbolTableRecord
100
AcDbLayerTableRecord
  2
07__ASM_ALL_SKELETONS
 70
0
 62
7
  6
CONTINUOUS
370
-3
390
F
  0
LAYER
  5
215
100
AcDbSymbolTableRecord
100
AcDbLayerTableRecord
  2
125-151_FEATURES
 70
0
 62
7
  6
CONTINUOUS
370
-3
390
F
  0
LAYER
  5
216
100
AcDbSymbolTableRecord
100
AcDbLayerTableRecord
  2
125-151_REF_GEOMETRY
 70
0
 62
7
  6
CONTINUOUS
370
-3
390
F
  0
LAYER
  5
217
100
AcDbSymbolTableRecord
100
AcDbLayerTableRecord
  2
128-015_FEATURES
 70
0
 62
7
  6
CONTINUOUS
370
-3
390
F
  0
LAYER
  5
218
100
AcDbSymbolTableRecord
100
AcDbLayerTableRecord
  2
128-015_REF_GEOMETRY
 70
0
 62
7
  6
CONTINUOUS
370
-3
390
F
  0
LAYER
  5
219
100
AcDbSymbolTableRecord
100
AcDbLayerTableRecord
  2
128-200_FEATURES
 70
0
 62
7
  6
CONTINUOUS
370
-3
390
F
  0
LAYER
  5
21A
100
AcDbSymbolTableRecord
100
AcDbLayerTableRecord
  2
128-200_REF_GEOMETRY
 70
0
 62
7
  6
CONTINUOUS
370
-3
390
F
  0
LAYER
  5
21B
100
AcDbSymbolTableRecord
100
AcDbLayerTableRecord
  2
128-201_FEATURES
 70
0
 62
7
  6
CONTINUOUS
370
-3
390
F
  0
LAYER
  5
21C
100
AcDbSymbolTableRecord
100
AcDbLayerTableRecord
  2
128-201_REF_GEOMETRY
 70
0
 62
7
  6
CONTINUOUS
370
-3
390
F
  0
LAYER
  5
21D
100
AcDbSymbolTableRecord
100
AcDbLayerTableRecord
  2
128-202_FEATURES
 70
0
 62
7
  6
CONTINUOUS
370
-3
390
F
  0
LAYER
  5
21E
100
AcDbSymbolTableRecord
100
AcDbLayerTableRecord
  2
128-202_REF_GEOMETRY
 70
0
 62
7
  6
CONTINUOUS
370
-3
390
F
  0
LAYER
  5
21F
100
AcDbSymbolTableRecord
100
AcDbLayerTableRecord
  2
COPY_GEO_FET
 70
0
 62
7
  6
CONTINUOUS
370
-3
390
F
  0
LAYER
  5
220
100
AcDbSymbolTableRecord
100
AcDbLayerTableRecord
  2
COSMETIC
 70
0
 62
7
  6
CONTINUOUS
370
-3
390
F
  0
LAYER
  5
221
100
AcDbSymbolTableRecord
100
AcDbLayerTableRecord
  2
CURVES
 70
0
 62
7
  6
CONTINUOUS
370
-3
390
F
  0
LAYER
  5
222
100
AcDbSymbolTableRecord
100
AcDbLayerTableRecord
  2
CUT_REF_SURF
 70
0
 62
7
  6
CONTINUOUS
370
-3
390
F
  0
LAYER
  5
223
100
AcDbSymbolTableRecord
100
AcDbLayerTableRecord
  2
DATUM
 70
0
 62
7
  6
CONTINUOUS
370
-3
390
F
  0
LAYER
  5
224
100
AcDbSymbolTableRecord
100
AcDbLayerTableRecord
  2
DATUMCURVES
 70
0
 62
7
  6
CONTINUOUS
370
-3
390
F
  0
LAYER
  5
225
100
AcDbSymbolTableRecord
100
AcDbLayerTableRecord
  2
DIMENSIONS
 70
0
 62
7
  6
CONTINUOUS
370
-3
390
F
  0
LAYER
  5
226
100
AcDbSymbolTableRecord
100
AcDbLayerTableRecord
  2
DRAWINGNOTES
 70
0
 62
7
  6
CONTINUOUS
370
-3
390
F
  0
LAYER
  5
227
100
AcDbSymbolTableRecord
100
AcDbLayerTableRecord
  2
DTM
 70
0
 62
7
  6
CONTINUOUS
370
-3
390
F
  0
LAYER
  5
228
100
AcDbSymbolTableRecord
100
AcDbLayerTableRecord
  2
DTM230
 70
0
 62
7
  6
CONTINUOUS
370
-3
390
F
  0
LAYER
  5
229
100
AcDbSymbolTableRecord
100
AcDbLayerTableRecord
  2
DTM_500001
 70
0
 62
7
  6
CONTINUOUS
370
-3
390
F
  0
LAYER
  5
22A
100
AcDbSymbolTableRecord
100
AcDbLayerTableRecord
  2
DTM_500002
 70
0
 62
7
  6
CONTINUOUS
370
-3
390
F
  0
LAYER
  5
22B
100
AcDbSymbolTableRecord
100
AcDbLayerTableRecord
  2
DTM_515002
 70
0
 62
7
  6
CONTINUOUS
370
-3
390
F
  0
LAYER
  5
22C
100
AcDbSymbolTableRecord
100
AcDbLayerTableRecord
  2
DTM_525001
 70
0
 62
7
  6
CONTINUOUS
370
-3
390
F
  0
LAYER
  5
22D
100
AcDbSymbolTableRecord
100
AcDbLayerTableRecord
  2
DTM_530-102
 70
0
 62
7
  6
CONTINUOUS
370
-3
390
F
  0
LAYER
  5
22E
100
AcDbSymbolTableRecord
100
AcDbLayerTableRecord
  2
DTM_530002
 70
0
 62
7
  6
CONTINUOUS
370
-3
390
F
  0
LAYER
  5
22F
100
AcDbSymbolTableRecord
100
AcDbLayerTableRecord
  2
DTM_800001
 70
0
 62
7
  6
CONTINUOUS
370
-3
390
F
  0
LAYER
  5
230
100
AcDbSymbolTableRecord
100
AcDbLayerTableRecord
  2
DTM_BALLHOLDER
 70
0
 62
7
  6
CONTINUOUS
370
-3
390
F
  0
LAYER
  5
231
100
AcDbSymbolTableRecord
100
AcDbLayerTableRecord
  2
DTM_PISTON
 70
0
 62
7
  6
CONTINUOUS
370
-3
390
F
  0
LAYER
  5
232
100
AcDbSymbolTableRecord
100
AcDbLayerTableRecord
  2
DTM_SPRING_RH
 70
0
 62
7
  6
CONTINUOUS
370
-3
390
F
  0
LAYER
  5
233
100
AcDbSymbolTableRecord
100
AcDbLayerTableRecord
  2
DTM_SP_RH_CONSTR
 70
0
 62
7
  6
CONTINUOUS
370
-3
390
F
  0
LAYER
  5
234
100
AcDbSymbolTableRecord
100
AcDbLayerTableRecord
  2
FACE1
 70
0
 62
7
  6
CONTINUOUS
370
-3
390
F
  0
LAYER
  5
235
100
AcDbSymbolTableRecord
100
AcDbLayerTableRecord
  2
FACE2
 70
0
 62
7
  6
CONTINUOUS
370
-3
390
F
  0
LAYER
  5
236
100
AcDbSymbolTableRecord
100
AcDbLayerTableRecord
  2
FACE3
 70
0
 62
7
  6
CONTINUOUS
370
-3
390
F
  0
LAYER
  5
237
100
AcDbSymbolTableRecord
100
AcDbLayerTableRecord
  2
FACE4
 70
0
 62
7
  6
CONTINUOUS
370
-3
390
F
  0
LAYER
  5
238
100
AcDbSymbolTableRecord
100
AcDbLayerTableRecord
  2
GEOMETRICTOLERANCES
 70
0
 62
7
  6
CONTINUOUS
370
-3
390
F
  0
LAYER
  5
239
100
AcDbSymbolTableRecord
100
AcDbLayerTableRecord
  2
LAY0001
 70
0
 62
7
  6
CONTINUOUS
370
-3
390
F
  0
LAYER
  5
23A
100
AcDbSymbolTableRecord
100
AcDbLayerTableRecord
  2
PARAMETERDIMENSIONS
 70
0
 62
7
  6
CONTINUOUS
370
-3
390
F
  0
LAYER
  5
23B
100
AcDbSymbolTableRecord
100
AcDbLayerTableRecord
  2
PART
 70
0
 62
7
  6
CONTINUOUS
370
-3
390
F
  0
LAYER
  5
23C
100
AcDbSymbolTableRecord
100
AcDbLayerTableRecord
  2
PLANE
 70
0
 62
7
  6
CONTINUOUS
370
-3
390
F
  0
LAYER
  5
23D
100
AcDbSymbolTableRecord
100
AcDbLayerTableRecord
  2
PROTRUSIONS
 70
0
 62
7
  6
CONTINUOUS
370
-3
390
F
  0
LAYER
  5
23E
100
AcDbSymbolTableRecord
100
AcDbLayerTableRecord
  2
SUN_STD_SAE-4_PORT
 70
0
 62
7
  6
CONTINUOUS
370
-3
390
F
  0
LAYER
  5
23F
100
AcDbSymbolTableRecord
100
AcDbLayerTableRecord
  2
TEXT
 70
0
 62
7
  6
CONTINUOUS
370
-3
390
F
  0
LAYER
  5
240
100
AcDbSymbolTableRecord
100
AcDbLayerTableRecord
  2
THREAD
 70
0
 62
7
  6
CONTINUOUS
370
-3
390
F
  0
LAYER
  5
241
100
AcDbSymbolTableRecord
100
AcDbLayerTableRecord
  2
WIRE_SLOT_REF
 70
0
 62
7
  6
CONTINUOUS
370
-3
390
F
  0
ENDTAB
  0
TABLE
  2
STYLE
  5
3
100
AcDbSymbolTable
 70
1
  0
STYLE
  5
11
100
AcDbSymbolTableRecord
100
AcDbTextStyleTableRecord
  2
STANDARD
 70
0
 40
0.0
 41
0.8
 50
0.0
 71
0
 42
0.2
  3
txt
  4

  0
ENDTAB
  0
TABLE
  2
VIEW
  5
6
100
AcDbSymbolTable
 70
0
  0
ENDTAB
  0
TABLE
  2
UCS
  5
7
100
AcDbSymbolTable
 70
0
  0
ENDTAB
  0
TABLE
  2
APPID
  5
9
100
AcDbSymbolTable
 70
1
  0
APPID
  5
242
100
AcDbSymbolTableRecord
100
AcDbRegAppTableRecord
  2
ACAD
 70
0
  0
ENDTAB
  0
TABLE
  2
BLOCK_RECORD
  5
1
100
AcDbSymbolTable
 70
0
  0
BLOCK_RECORD
  5
1F
100
AcDbSymbolTableRecord
100
AcDbBlockTableRecord
  2
*MODEL_SPACE
  0
BLOCK_RECORD
  5
1B
100
AcDbSymbolTableRecord
100
AcDbBlockTableRecord
  2
*PAPER_SPACE
  0
ENDTAB
  0
TABLE
  2
DIMSTYLE
  5
A
100
AcDbSymbolTable
 70
1
100
AcDbDimStyleTable
 71
0
  0
DIMSTYLE
105
243
100
AcDbSymbolTableRecord
100
AcDbDimStyleTableRecord
  2
STANDARD
 70
0
  3

  4

 40
1.0
 41
0.1875
 42
0.0625
 43
0.38
 44
0.18
 45
0.0
 46
0.0
 47
0.01
 48
0.01
140
0.15625
141
0.09
142
0.0
143
25.4
144
1.0
145
0.0
146
1.0
147
0.09
 71
0.0
 72
0.0
 73
1
 74
1
 75
0
 76
0
 77
0
 78
4
170
0
171
2
172
0
173
0
174
0
175
0
176
0
177
0
178
0
270
2
271
2
272
2
273
2
274
2
275
0
280
0
281
0
282
0
283
1
284
4
285
0
286
0
287
3
288
0
340
11
  0
ENDTAB
  0
ENDSEC
  0
SECTION
  2
BLOCKS
  0
BLOCK
  5
20
100
AcDbEntity
  8
0
100
AcDbBlockBegin
  2
*MODEL_SPACE
 70
0
 10
0.0
 20
0.0
 30
0.0
  3
*MODEL_SPACE
  1

  0
ENDBLK
  5
21
100
AcDbEntity
  8
0
100
AcDbBlockEnd
  0
BLOCK
  5
1C
100
AcDbEntity
  8
0
100
AcDbBlockBegin
  2
*PAPER_SPACE
 70
0
 10
0.0
 20
0.0
 30
0.0
  3
*PAPER_SPACE
  1

  0
ENDBLK
  5
1D
100
AcDbEntity
  8
0
100
AcDbBlockEnd
  0
ENDSEC
  0
SECTION
  2
ENTITIES
  0
LINE
  5
244
100
AcDbEntity
  8
0
100
AcDbLine
 62
7
  6
CONTINUOUS
 10
2.6103540427
 20
4.477679558
 11
2.6103540427
 21
4.1716933072
  0
LINE
  5
245
100
AcDbEntity
  8
03__ASM_ALL_CURVES
100
AcDbLine
 62
40
  6
CONTINUOUS
 10
2.6103540427
 20
4.477679558
 11
2.6103540427
 21
5.4016984326
  0
LINE
  5
246
100
AcDbEntity
  8
0
100
AcDbLine
 62
7
  6
CONTINUOUS
 10
2.6413540427
 20
4.5086864326
 11
2.6413540427
 21
4.1406864326
  0
LINE
  5
247
100
AcDbEntity
  8
03__ASM_ALL_CURVES
100
AcDbLine
 62
40
  6
CONTINUOUS
 10
2.7717540427
 20
5.3747984326
 11
2.7717540427
 21
5.3209984326
  0
LINE
  5
248
100
AcDbEntity
  8
0
100
AcDbLine
 62
7
  6
CONTINUOUS
 10
2.8403540427
 20
4.5086864326
 11
2.8403540427
 21
4.1406864326
  0
LINE
  5
249
100
AcDbEntity
  8
0
100
AcDbLine
 62
7
  6
CONTINUOUS
 10
2.8418540427
 20
4.1635434396
 11
2.8418540427
 21
4.4008100014
  0
LINE
  5
24A
100
AcDbEntity
  8
0
100
AcDbLine
 62
7
  6
CONTINUOUS
 10
2.8768540427
 20
4.1635434396
 11
2.8768540427
 21
4.4008100014
  0
LINE
  5
24B
100
AcDbEntity
  8
0
100
AcDbLine
 62
7
  6
CONTINUOUS
 10
2.8783540427
 20
4.5086864326
 11
2.8783540427
 21
4.1406864326
  0
LINE
  5
24C
100
AcDbEntity
  8
0
100
AcDbLine
 62
7
  6
CONTINUOUS
 10
3.1093540427
 20
4.0770352475
 11
3.1093540427
 21
4.5723376177
  0
LINE
  5
24D
100
AcDbEntity
  8
0
100
AcDbLine
 62
7
  6
CONTINUOUS
 10
3.1713540427
 20
4.0536864326
 11
3.1713540427
 21
4.5956864326
  0
LINE
  5
24E
100
AcDbEntity
  8
0
100
AcDbLine
 62
7
  6
CONTINUOUS
 10
3.1773540427
 20
4.0536864326
 11
3.1773540427
 21
4.5956864326
  0
LINE
  5
24F
100
AcDbEntity
  8
0
100
AcDbLine
 62
7
  6
CONTINUOUS
 10
3.1828540427
 20
4.0591864326
 11
3.1828540427
 21
4.5901864326
  0
LINE
  5
250
100
AcDbEntity
  8
0
100
AcDbLine
 62
7
  6
CONTINUOUS
 10
3.1988540427
 20
4.0591864326
 11
3.1988540427
 21
4.5901864326
  0
LINE
  5
251
100
AcDbEntity
  8
03__ASM_ALL_CURVES
100
AcDbLine
 62
40
  6
CONTINUOUS
 10
3.5959790427
 20
5.5025734326
 11
3.5875727927
 21
5.4913651019
  0
LINE
  5
252
100
AcDbEntity
  8
0
100
AcDbLine
 62
7
  6
CONTINUOUS
 10
3.3903540427
 20
4.0536864326
 11
3.3903540427
 21
4.5956864326
  0
LINE
  5
253
100
AcDbEntity
  8
0
100
AcDbLine
 62
7
  6
CONTINUOUS
 10
3.4213540427
 20
3.7926864326
 11
3.4213540427
 21
4.8566864326
  0
LINE
  5
254
100
AcDbEntity
  8
0
100
AcDbLine
 62
7
  6
CONTINUOUS
 10
3.4833540427
 20
3.7306864326
 11
3.4833540427
 21
4.9186864326
  0
LINE
  5
255
100
AcDbEntity
  8
03__ASM_ALL_CURVES
100
AcDbLine
 62
40
  6
CONTINUOUS
 10
3.6043852927
 20
5.4353234326
 11
3.5875727927
 21
5.4129067663
  0
LINE
  5
256
100
AcDbEntity
  8
03__ASM_ALL_CURVES
100
AcDbLine
 62
40
  6
CONTINUOUS
 10
3.7977290427
 20
5.5137817633
 11
3.8061352927
 21
5.5249901019
  0
LINE
  5
257
100
AcDbEntity
  8
03__ASM_ALL_CURVES
100
AcDbLine
 62
40
  6
CONTINUOUS
 10
3.8229477927
 20
5.4577400979
 11
3.8061352927
 21
5.4353234326
  0
LINE
  5
258
100
AcDbEntity
  8
03__ASM_ALL_CURVES
100
AcDbLine
 62
40
  6
CONTINUOUS
 10
3.8649790427
 20
5.4913651019
 11
3.8565727927
 21
5.4801567633
  0
LINE
  5
259
100
AcDbEntity
  8
0
100
AcDbLine
 62
7
  6
CONTINUOUS
 10
2.6103540427
 20
4.4776864326
 11
2.6413540427
 21
4.5086864326
  0
LINE
  5
25A
100
AcDbEntity
  8
03__ASM_ALL_CURVES
100
AcDbLine
 62
40
  6
CONTINUOUS
 10
3.5371352927
 20
5.5249901019
 11
3.5539477927
 21
5.5361984326
  0
LINE
  5
25B
100
AcDbEntity
  8
0
100
AcDbLine
 62
7
  6
CONTINUOUS
 10
2.6103540427
 20
4.1716864326
 11
2.6413540427
 21
4.1406864326
  0
LINE
  5
25C
100
AcDbEntity
  8
03__ASM_ALL_CURVES
100
AcDbLine
 62
40
  6
CONTINUOUS
 10
3.5959790427
 20
5.5137817633
 11
3.5959790427
 21
5.5025734326
  0
LINE
  5
25D
100
AcDbEntity
  8
03__ASM_ALL_CURVES
100
AcDbLine
 62
40
  6
CONTINUOUS
 10
3.6043852927
 20
5.4465317673
 11
3.6043852927
 21
5.4353234326
  0
LINE
  5
25E
100
AcDbEntity
  8
03__ASM_ALL_CURVES
100
AcDbLine
 62
40
  6
CONTINUOUS
 10
3.6884477927
 20
5.4016984326
 11
3.6884477927
 21
5.4129067663
  0
LINE
  5
25F
100
AcDbEntity
  8
03__ASM_ALL_CURVES
100
AcDbLine
 62
40
  6
CONTINUOUS
 10
3.8061352927
 20
5.4353234326
 11
3.7977290427
 21
5.4016984326
  0
LINE
  5
260
100
AcDbEntity
  8
03__ASM_ALL_CURVES
100
AcDbLine
 62
40
  6
CONTINUOUS
 10
3.9910727927
 20
5.5361984326
 11
3.9322290427
 21
5.4353234326
  0
LINE
  5
261
100
AcDbEntity
  8
03__ASM_ALL_CURVES
100
AcDbLine
 62
40
  6
CONTINUOUS
 10
4.1087602927
 20
5.5361984326
 11
4.0919477927
 21
5.5137817633
  0
LINE
  5
262
100
AcDbEntity
  8
0
100
AcDbLine
 62
7
  6
CONTINUOUS
 10
3.4833540427
 20
4.9186864326
 11
3.4213540427
 21
4.8566864326
  0
LINE
  5
263
100
AcDbEntity
  8
0
100
AcDbLine
 62
7
  6
CONTINUOUS
 10
3.2143548283
 20
4.6056872182
 11
3.1988540427
 21
4.5901864326
  0
LINE
  5
264
100
AcDbEntity
  8
03__ASM_ALL_CURVES
100
AcDbLine
 62
40
  6
CONTINUOUS
 10
3.5875727927
 20
5.4913651019
 11
3.5707602927
 21
5.4801567633
  0
LINE
  5
265
100
AcDbEntity
  8
03__ASM_ALL_CURVES
100
AcDbLine
 62
40
  6
CONTINUOUS
 10
3.5875727927
 20
5.4129067663
 11
3.5707602927
 21
5.4016984326
  0
LINE
  5
266
100
AcDbEntity
  8
03__ASM_ALL_CURVES
100
AcDbLine
 62
40
  6
CONTINUOUS
 10
3.8061352927
 20
5.5249901019
 11
3.8229477927
 21
5.5361984326
  0
LINE
  5
267
100
AcDbEntity
  8
03__ASM_ALL_CURVES
100
AcDbLine
 62
40
  6
CONTINUOUS
 10
3.8565727927
 20
5.4801567633
 11
3.8229477927
 21
5.4577400979
  0
LINE
  5
268
100
AcDbEntity
  8
0
100
AcDbLine
 62
7
  6
CONTINUOUS
 10
3.4833540427
 20
3.7306864326
 11
3.4213540427
 21
3.7926864326
  0
LINE
  5
269
100
AcDbEntity
  8
03__ASM_ALL_CURVES
100
AcDbLine
 62
40
  6
CONTINUOUS
 10
3.8649790427
 20
5.5137817633
 11
3.8649790427
 21
5.4913651019
  0
LINE
  5
26A
100
AcDbEntity
  8
03__ASM_ALL_CURVES
100
AcDbLine
 62
40
  6
CONTINUOUS
 10
3.9910727927
 20
5.4016984326
 11
3.9910727927
 21
5.5361984326
  0
LINE
  5
26B
100
AcDbEntity
  8
03__ASM_ALL_CURVES
100
AcDbLine
 62
40
  6
CONTINUOUS
 10
4.0919477927
 20
5.5137817633
 11
4.0835415427
 21
5.4801567633
  0
LINE
  5
26C
100
AcDbEntity
  8
0
100
AcDbLine
 62
7
  6
CONTINUOUS
 10
3.3903540427
 20
4.0536864326
 11
3.3842592706
 21
4.0431299776
  0
LINE
  5
26D
100
AcDbEntity
  8
0
100
AcDbLine
 62
7
  6
CONTINUOUS
 10
4.1287382167
 20
5.0336864326
 11
4.0773540427
 21
4.9446864326
  0
LINE
  5
26E
100
AcDbEntity
  8
03__ASM_ALL_CURVES
100
AcDbLine
 62
40
  6
CONTINUOUS
 10
4.2012290427
 20
5.5137817633
 11
4.2096352927
 21
5.5249901019
  0
LINE
  5
26F
100
AcDbEntity
  8
03__ASM_ALL_CURVES
100
AcDbLine
 62
40
  6
CONTINUOUS
 10
4.1928227927
 20
5.4465317673
 11
4.2096352927
 21
5.4689484326
  0
LINE
  5
270
100
AcDbEntity
  8
03__ASM_ALL_CURVES
100
AcDbLine
 62
40
  6
CONTINUOUS
 10
4.2684790427
 20
5.5025734326
 11
4.2600727927
 21
5.4913651019
  0
LINE
  5
271
100
AcDbEntity
  8
03__ASM_ALL_CURVES
100
AcDbLine
 62
40
  6
CONTINUOUS
 10
4.2768852927
 20
5.4353234326
 11
4.2600727927
 21
5.4129067663
  0
LINE
  5
272
100
AcDbEntity
  8
03__ASM_ALL_CURVES
100
AcDbLine
 62
40
  6
CONTINUOUS
 10
4.3357290427
 20
5.5137817633
 11
4.3441352927
 21
5.5249901019
  0
LINE
  5
273
100
AcDbEntity
  8
03__ASM_ALL_CURVES
100
AcDbLine
 62
40
  6
CONTINUOUS
 10
4.3609477927
 20
5.4577400979
 11
4.3441352927
 21
5.4353234326
  0
LINE
  5
274
100
AcDbEntity
  8
03__ASM_ALL_CURVES
100
AcDbLine
 62
40
  6
CONTINUOUS
 10
4.4029790427
 20
5.4913651019
 11
4.3945727927
 21
5.4801567633
  0
LINE
  5
275
100
AcDbEntity
  8
03__ASM_ALL_CURVES
100
AcDbLine
 62
40
  6
CONTINUOUS
 10
4.2096352927
 20
5.5249901019
 11
4.2264477927
 21
5.5361984326
  0
LINE
  5
276
100
AcDbEntity
  8
03__ASM_ALL_CURVES
100
AcDbLine
 62
40
  6
CONTINUOUS
 10
4.2096352927
 20
5.4689484326
 11
4.2264477927
 21
5.4801567633
  0
LINE
  5
277
100
AcDbEntity
  8
03__ASM_ALL_CURVES
100
AcDbLine
 62
40
  6
CONTINUOUS
 10
4.2600727927
 20
5.4913651019
 11
4.2432602927
 21
5.4801567633
  0
LINE
  5
278
100
AcDbEntity
  8
03__ASM_ALL_CURVES
100
AcDbLine
 62
40
  6
CONTINUOUS
 10
4.3441352927
 20
5.5249901019
 11
4.3609477927
 21
5.5361984326
  0
LINE
  5
279
100
AcDbEntity
  8
0
100
AcDbLine
 62
7
  6
CONTINUOUS
 10
3.2143548283
 20
4.043685647
 11
3.1988540427
 21
4.0591864326
  0
LINE
  5
27A
100
AcDbEntity
  8
0
100
AcDbLine
 62
7
  6
CONTINUOUS
 10
3.3903540427
 20
4.5956864326
 11
3.3842592706
 21
4.6062428876
  0
LINE
  5
27B
100
AcDbEntity
  8
0
100
AcDbLine
 62
7
  6
CONTINUOUS
 10
4.0773540427
 20
3.7046864326
 11
4.0773540427
 21
4.9446864326
  0
LINE
  5
27C
100
AcDbEntity
  8
03__ASM_ALL_CURVES
100
AcDbLine
 62
40
  6
CONTINUOUS
 10
4.0835415427
 20
5.4801567633
 11
4.0835415427
 21
5.4577400979
  0
LINE
  5
27D
100
AcDbEntity
  8
0
100
AcDbLine
 62
7
  6
CONTINUOUS
 10
4.1287382167
 20
3.6156864326
 11
4.1287382167
 21
3.6160474337
  0
LINE
  5
27E
100
AcDbEntity
  8
0
100
AcDbLine
 62
7
  6
CONTINUOUS
 10
4.1287382167
 20
3.9507754315
 11
4.1287382167
 21
3.9899584348
  0
LINE
  5
27F
100
AcDbEntity
  8
0
100
AcDbLine
 62
7
  6
CONTINUOUS
 10
4.1287382167
 20
4.6594144304
 11
4.1287382167
 21
4.6985974337
  0
LINE
  5
280
100
AcDbEntity
  8
0
100
AcDbLine
 62
7
  6
CONTINUOUS
 10
4.1287382167
 20
5.0333254315
 11
4.1287382167
 21
5.0336864326
  0
LINE
  5
281
100
AcDbEntity
  8
03__ASM_ALL_CURVES
100
AcDbLine
 62
40
  6
CONTINUOUS
 10
4.1928227927
 20
5.4353234326
 11
4.1928227927
 21
5.4465317673
  0
LINE
  5
282
100
AcDbEntity
  8
03__ASM_ALL_CURVES
100
AcDbLine
 62
40
  6
CONTINUOUS
 10
4.2012290427
 20
5.5025734326
 11
4.2012290427
 21
5.5137817633
  0
LINE
  5
283
100
AcDbEntity
  8
03__ASM_ALL_CURVES
100
AcDbLine
 62
40
  6
CONTINUOUS
 10
4.3441352927
 20
5.4353234326
 11
4.3357290427
 21
5.4016984326
  0
LINE
  5
284
100
AcDbEntity
  8
03__ASM_ALL_CURVES
100
AcDbLine
 62
40
  6
CONTINUOUS
 10
4.6047290427
 20
5.5137817633
 11
4.6131352927
 21
5.5249901019
  0
LINE
  5
285
100
AcDbEntity
  8
03__ASM_ALL_CURVES
100
AcDbLine
 62
40
  6
CONTINUOUS
 10
4.6299477927
 20
5.4577400979
 11
4.6131352927
 21
5.4353234326
  0
LINE
  5
286
100
AcDbEntity
  8
03__ASM_ALL_CURVES
100
AcDbLine
 62
40
  6
CONTINUOUS
 10
4.6719790427
 20
5.4913651019
 11
4.6635727927
 21
5.4801567633
  0
LINE
  5
287
100
AcDbEntity
  8
03__ASM_ALL_CURVES
100
AcDbLine
 62
40
  6
CONTINUOUS
 10
4.7476352927
 20
5.5137817633
 11
4.7560415427
 21
5.5249901019
  0
LINE
  5
288
100
AcDbEntity
  8
0
100
AcDbLine
 62
7
  6
CONTINUOUS
 10
3.1828540427
 20
4.0591864326
 11
3.1773540427
 21
4.0536864326
  0
LINE
  5
289
100
AcDbEntity
  8
03__ASM_ALL_CURVES
100
AcDbLine
 62
40
  6
CONTINUOUS
 10
4.2600727927
 20
5.4129067663
 11
4.2432602927
 21
5.4016984326
  0
LINE
  5
28A
100
AcDbEntity
  8
03__ASM_ALL_CURVES
100
AcDbLine
 62
40
  6
CONTINUOUS
 10
4.3945727927
 20
5.4801567633
 11
4.3609477927
 21
5.4577400979
  0
LINE
  5
28B
100
AcDbEntity
  8
03__ASM_ALL_CURVES
100
AcDbLine
 62
40
  6
CONTINUOUS
 10
4.6131352927
 20
5.5249901019
 11
4.6299477927
 21
5.5361984326
  0
LINE
  5
28C
100
AcDbEntity
  8
03__ASM_ALL_CURVES
100
AcDbLine
 62
40
  6
CONTINUOUS
 10
4.6635727927
 20
5.4801567633
 11
4.6299477927
 21
5.4577400979
  0
LINE
  5
28D
100
AcDbEntity
  8
03__ASM_ALL_CURVES
100
AcDbLine
 62
40
  6
CONTINUOUS
 10
4.7560415427
 20
5.5249901019
 11
4.7728540427
 21
5.5361984326
  0
LINE
  5
28E
100
AcDbEntity
  8
0
100
AcDbLine
 62
7
  6
CONTINUOUS
 10
3.1828540427
 20
4.5901864326
 11
3.1773540427
 21
4.5956864326
  0
LINE
  5
28F
100
AcDbEntity
  8
0
100
AcDbLine
 62
7
  6
CONTINUOUS
 10
4.1287382167
 20
3.6156864326
 11
4.0773540427
 21
3.7046864326
  0
LINE
  5
290
100
AcDbEntity
  8
03__ASM_ALL_CURVES
100
AcDbLine
 62
40
  6
CONTINUOUS
 10
4.2684790427
 20
5.5137817633
 11
4.2684790427
 21
5.5025734326
  0
LINE
  5
291
100
AcDbEntity
  8
03__ASM_ALL_CURVES
100
AcDbLine
 62
40
  6
CONTINUOUS
 10
4.2768852927
 20
5.4465317673
 11
4.2768852927
 21
5.4353234326
  0
LINE
  5
292
100
AcDbEntity
  8
03__ASM_ALL_CURVES
100
AcDbLine
 62
40
  6
CONTINUOUS
 10
4.4029790427
 20
5.5137817633
 11
4.4029790427
 21
5.4913651019
  0
LINE
  5
293
100
AcDbEntity
  8
03__ASM_ALL_CURVES
100
AcDbLine
 62
40
  6
CONTINUOUS
 10
4.6131352927
 20
5.4353234326
 11
4.6047290427
 21
5.4016984326
  0
LINE
  5
294
100
AcDbEntity
  8
03__ASM_ALL_CURVES
100
AcDbLine
 62
40
  6
CONTINUOUS
 10
4.7392290427
 20
5.4913651019
 11
4.7476352927
 21
5.5137817633
  0
LINE
  5
295
100
AcDbEntity
  8
03__ASM_ALL_CURVES
100
AcDbLine
 62
40
  6
CONTINUOUS
 10
4.8064790427
 20
5.4913651019
 11
4.7980727927
 21
5.4689484326
  0
LINE
  5
296
100
AcDbEntity
  8
03__ASM_ALL_CURVES
100
AcDbLine
 62
40
  6
CONTINUOUS
 10
4.7980727927
 20
5.4241150999
 11
4.7896665427
 21
5.4129067663
  0
LINE
  5
297
100
AcDbEntity
  8
03__ASM_ALL_CURVES
100
AcDbLine
 62
40
  6
CONTINUOUS
 10
4.9157602927
 20
5.4241150999
 11
4.8989477927
 21
5.4016984326
  0
LINE
  5
298
100
AcDbEntity
  8
03__ASM_ALL_CURVES
100
AcDbLine
 62
40
  6
CONTINUOUS
 10
4.7896665427
 20
5.4129067663
 11
4.7728540427
 21
5.4016984326
  0
LINE
  5
299
100
AcDbEntity
  8
03__ASM_ALL_CURVES
100
AcDbLine
 62
40
  6
CONTINUOUS
 10
4.7980727927
 20
5.4689484326
 11
4.7728540427
 21
5.4577400979
  0
LINE
  5
29A
100
AcDbEntity
  8
03__ASM_ALL_CURVES
100
AcDbLine
 62
40
  6
CONTINUOUS
 10
4.0835415427
 20
5.4577400979
 11
4.0919477927
 21
5.4241150999
  0
LINE
  5
29B
100
AcDbEntity
  8
03__ASM_ALL_CURVES
100
AcDbLine
 62
40
  6
CONTINUOUS
 10
4.4954477927
 20
5.4016984326
 11
4.4954477927
 21
5.4129067663
  0
LINE
  5
29C
100
AcDbEntity
  8
03__ASM_ALL_CURVES
100
AcDbLine
 62
40
  6
CONTINUOUS
 10
4.6719790427
 20
5.5137817633
 11
4.6719790427
 21
5.4913651019
  0
LINE
  5
29D
100
AcDbEntity
  8
03__ASM_ALL_CURVES
100
AcDbLine
 62
40
  6
CONTINUOUS
 10
4.9241665427
 20
5.4577400979
 11
4.9157602927
 21
5.4241150999
  0
LINE
  5
29E
100
AcDbEntity
  8
03__ASM_ALL_CURVES
100
AcDbLine
 62
40
  6
CONTINUOUS
 10
4.8064790427
 20
5.4465317673
 11
4.7980727927
 21
5.4241150999
  0
LINE
  5
29F
100
AcDbEntity
  8
0
100
AcDbLine
 62
7
  6
CONTINUOUS
 10
4.8683540427
 20
5.1041864326
 11
4.8276508488
 21
5.0336864326
  0
LINE
  5
2A0
100
AcDbEntity
  8
03__ASM_ALL_CURVES
100
AcDbLine
 62
40
  6
CONTINUOUS
 10
7.6010376506
 20
3.0381364326
 11
7.5506001506
 21
3.0381364326
  0
LINE
  5
2A1
100
AcDbEntity
  8
03__ASM_ALL_CURVES
100
AcDbLine
 62
40
  6
CONTINUOUS
 10
7.2794985881
 20
3.0381364326
 11
7.2668892131
 21
3.0381364326
  0
LINE
  5
2A2
100
AcDbEntity
  8
03__ASM_ALL_CURVES
100
AcDbLine
 62
40
  6
CONTINUOUS
 10
7.1786235881
 20
3.0381364326
 11
7.1660142131
 21
3.0381364326
  0
LINE
  5
2A3
100
AcDbEntity
  8
03__ASM_ALL_CURVES
100
AcDbLine
 62
40
  6
CONTINUOUS
 10
7.4497251506
 20
3.0381364326
 11
7.5001626506
 21
3.0381364326
  0
LINE
  5
2A4
100
AcDbEntity
  8
03__ASM_ALL_CURVES
100
AcDbLine
 62
40
  6
CONTINUOUS
 10
7.5506001506
 20
3.0885739326
 11
7.5821235881
 21
3.0885739326
  0
LINE
  5
2A5
100
AcDbEntity
  8
03__ASM_ALL_CURVES
100
AcDbLine
 62
40
  6
CONTINUOUS
 10
7.1660142131
 20
3.1390114326
 11
7.1786235881
 21
3.1390114326
  0
LINE
  5
2A6
100
AcDbEntity
  8
03__ASM_ALL_CURVES
100
AcDbLine
 62
40
  6
CONTINUOUS
 10
7.3425454631
 20
3.1390114326
 11
7.4055923381
 21
3.1390114326
  0
LINE
  5
2A7
100
AcDbEntity
  8
03__ASM_ALL_CURVES
100
AcDbLine
 62
40
  6
CONTINUOUS
 10
7.5506001506
 20
3.1390114326
 11
7.6010376506
 21
3.1390114326
  0
LINE
  5
2A8
100
AcDbEntity
  8
03__ASM_ALL_CURVES
100
AcDbLine
 62
40
  6
CONTINUOUS
 10
7.6451704631
 20
3.1390114326
 11
7.7082173381
 21
3.1390114326
  0
LINE
  5
2A9
100
AcDbEntity
  8
03__ASM_ALL_CURVES
100
AcDbLine
 62
40
  6
CONTINUOUS
 10
3.5371352927
 20
5.4129067663
 11
3.5287290427
 21
5.4241150999
  0
LINE
  5
2AA
100
AcDbEntity
  8
0
100
AcDbLine
 62
7
  6
CONTINUOUS
 10
4.8683540427
 20
3.5451864326
 11
4.8276508488
 21
3.6156864326
  0
LINE
  5
2AB
100
AcDbEntity
  8
03__ASM_ALL_CURVES
100
AcDbLine
 62
40
  6
CONTINUOUS
 10
4.8064790427
 20
5.4913651019
 11
4.8064790427
 21
5.4465317673
  0
LINE
  5
2AC
100
AcDbEntity
  8
0
100
AcDbLine
 62
7
  6
CONTINUOUS
 10
4.8276508488
 20
3.6156864326
 11
4.8276508488
 21
5.0336864326
  0
LINE
  5
2AD
100
AcDbEntity
  8
0
100
AcDbLine
 62
7
  6
CONTINUOUS
 10
4.8683540427
 20
3.5451864326
 11
4.8683540427
 21
5.1041864326
  0
LINE
  5
2AE
100
AcDbEntity
  8
03__ASM_ALL_CURVES
100
AcDbLine
 62
40
  6
CONTINUOUS
 10
7.3267837156
 20
3.1928114326
 11
7.3141743406
 21
3.1928114326
  0
LINE
  5
2AF
100
AcDbEntity
  8
03__ASM_ALL_CURVES
100
AcDbLine
 62
40
  6
CONTINUOUS
 10
7.5978852781
 20
3.1928114326
 11
7.6483227781
 21
3.1928114326
  0
LINE
  5
2B0
100
AcDbEntity
  8
03__ASM_ALL_CURVES
100
AcDbLine
 62
40
  6
CONTINUOUS
 10
7.4276587156
 20
3.2432489326
 11
7.3961352781
 21
3.2432489326
  0
LINE
  5
2B1
100
AcDbEntity
  8
03__ASM_ALL_CURVES
100
AcDbLine
 62
40
  6
CONTINUOUS
 10
7.2259087156
 20
3.2432489326
 11
7.1943852781
 21
3.2432489326
  0
LINE
  5
2B2
100
AcDbEntity
  8
03__ASM_ALL_CURVES
100
AcDbLine
 62
40
  6
CONTINUOUS
 10
7.1943852781
 20
3.2936864326
 11
7.2259087156
 21
3.2936864326
  0
LINE
  5
2B3
100
AcDbEntity
  8
03__ASM_ALL_CURVES
100
AcDbLine
 62
40
  6
CONTINUOUS
 10
7.3141743406
 20
3.2936864326
 11
7.3267837156
 21
3.2936864326
  0
LINE
  5
2B4
100
AcDbEntity
  8
03__ASM_ALL_CURVES
100
AcDbLine
 62
40
  6
CONTINUOUS
 10
7.3961352781
 20
3.2936864326
 11
7.4276587156
 21
3.2936864326
  0
LINE
  5
2B5
100
AcDbEntity
  8
03__ASM_ALL_CURVES
100
AcDbLine
 62
40
  6
CONTINUOUS
 10
7.4907055906
 20
3.2936864326
 11
7.5537524656
 21
3.2936864326
  0
LINE
  5
2B6
100
AcDbEntity
  8
03__ASM_ALL_CURVES
100
AcDbLine
 62
40
  6
CONTINUOUS
 10
7.6167993406
 20
3.2936864326
 11
7.6294087156
 21
3.2936864326
  0
LINE
  5
2B7
100
AcDbEntity
  8
03__ASM_ALL_CURVES
100
AcDbLine
 62
40
  6
CONTINUOUS
 10
3.5875727927
 20
5.4689484326
 11
3.6043852927
 21
5.4465317673
  0
LINE
  5
2B8
100
AcDbEntity
  8
03__ASM_ALL_CURVES
100
AcDbLine
 62
40
  6
CONTINUOUS
 10
3.5875727927
 20
5.5249901019
 11
3.5959790427
 21
5.5137817633
  0
LINE
  5
2B9
100
AcDbEntity
  8
03__ASM_ALL_CURVES
100
AcDbLine
 62
40
  6
CONTINUOUS
 10
3.6884477927
 20
5.4129067663
 11
3.6968540427
 21
5.4016984326
  0
LINE
  5
2BA
100
AcDbEntity
  8
03__ASM_ALL_CURVES
100
AcDbLine
 62
40
  6
CONTINUOUS
 10
4.9241665427
 20
5.4801567633
 11
4.9241665427
 21
5.4577400979
  0
LINE
  5
2BB
100
AcDbEntity
  8
03__ASM_ALL_CURVES
100
AcDbLine
 62
40
  6
CONTINUOUS
 10
6.2174602935
 20
5.5249901019
 11
6.2342727935
 21
5.5361984326
  0
LINE
  5
2BC
100
AcDbEntity
  8
03__ASM_ALL_CURVES
100
AcDbLine
 62
40
  6
CONTINUOUS
 10
6.3519602935
 20
5.5249901019
 11
6.3687727935
 21
5.5361984326
  0
LINE
  5
2BD
100
AcDbEntity
  8
03__ASM_ALL_CURVES
100
AcDbLine
 62
40
  6
CONTINUOUS
 10
6.2678977935
 20
5.4129067663
 11
6.2510852935
 21
5.4016984326
  0
LINE
  5
2BE
100
AcDbEntity
  8
0
100
AcDbLine
 62
7
  6
CONTINUOUS
 10
5.8593540427
 20
3.5451864326
 11
4.8683540427
 21
3.5451864326
  0
LINE
  5
2BF
100
AcDbEntity
  8
0
100
AcDbLine
 62
7
  6
CONTINUOUS
 10
6.0093540427
 20
3.6066864326
 11
6.0593540427
 21
3.6066864326
  0
LINE
  5
2C0
100
AcDbEntity
  8
THREAD
100
AcDbLine
 62
7
  6
CONTINUOUS
 10
5.9063540427
 20
3.6071864326
 11
5.8593540427
 21
3.6071864326
  0
LINE
  5
2C1
100
AcDbEntity
  8
0
100
AcDbLine
 62
7
  6
CONTINUOUS
 10
4.8276508488
 20
3.6156864326
 11
4.1287382167
 21
3.6156864326
  0
LINE
  5
2C2
100
AcDbEntity
  8
0
100
AcDbLine
 62
7
  6
CONTINUOUS
 10
4.8276508488
 20
3.6160474337
 11
4.1287382167
 21
3.6160474337
  0
LINE
  5
2C3
100
AcDbEntity
  8
THREAD
100
AcDbLine
 62
7
  6
CONTINUOUS
 10
6.4958540427
 20
3.6231864326
 11
6.1070668557
 21
3.6231864326
  0
LINE
  5
2C4
100
AcDbEntity
  8
03__ASM_ALL_CURVES
100
AcDbLine
 62
40
  6
CONTINUOUS
 10
3.8565727927
 20
5.5249901019
 11
3.8649790427
 21
5.5137817633
  0
LINE
  5
2C5
100
AcDbEntity
  8
03__ASM_ALL_CURVES
100
AcDbLine
 62
40
  6
CONTINUOUS
 10
4.0919477927
 20
5.4241150999
 11
4.1087602927
 21
5.4016984326
  0
LINE
  5
2C6
100
AcDbEntity
  8
03__ASM_ALL_CURVES
100
AcDbLine
 62
40
  6
CONTINUOUS
 10
6.4023977935
 20
5.4129067663
 11
6.3855852935
 21
5.4016984326
  0
LINE
  5
2C7
100
AcDbEntity
  8
THREAD
100
AcDbLine
 62
7
  6
CONTINUOUS
 10
6.8773540427
 20
3.6736864326
 11
6.5463540427
 21
3.6736864326
  0
LINE
  5
2C8
100
AcDbEntity
  8
0
100
AcDbLine
 62
7
  6
CONTINUOUS
 10
8.1063540427
 20
3.6996864326
 11
8.1543540427
 21
3.6996864326
  0
LINE
  5
2C9
100
AcDbEntity
  8
0
100
AcDbLine
 62
7
  6
CONTINUOUS
 10
8.2643540427
 20
3.7011864326
 11
8.1773540427
 21
3.7011864326
  0
LINE
  5
2CA
100
AcDbEntity
  8
0
100
AcDbLine
 62
7
  6
CONTINUOUS
 10
8.0953540427
 20
3.7011864326
 11
7.9903540427
 21
3.7011864326
  0
LINE
  5
2CB
100
AcDbEntity
  8
0
100
AcDbLine
 62
7
  6
CONTINUOUS
 10
4.0773540427
 20
3.7306864326
 11
3.4833540427
 21
3.7306864326
  0
LINE
  5
2CC
100
AcDbEntity
  8
0
100
AcDbLine
 62
7
  6
CONTINUOUS
 10
8.1673540427
 20
3.7861864326
 11
8.1773540427
 21
3.7861864326
  0
LINE
  5
2CD
100
AcDbEntity
  8
0
100
AcDbLine
 62
7
  6
CONTINUOUS
 10
6.8903540427
 20
3.7951864326
 11
7.5213540427
 21
3.7951864326
  0
LINE
  5
2CE
100
AcDbEntity
  8
0
100
AcDbLine
 62
7
  6
CONTINUOUS
 10
7.7713540427
 20
3.7951864326
 11
7.9903540427
 21
3.7951864326
  0
LINE
  5
2CF
100
AcDbEntity
  8
03__ASM_ALL_CURVES
100
AcDbLine
 62
40
  6
CONTINUOUS
 10
4.2096352927
 20
5.4129067663
 11
4.1928227927
 21
5.4353234326
  0
LINE
  5
2D0
100
AcDbEntity
  8
03__ASM_ALL_CURVES
100
AcDbLine
 62
40
  6
CONTINUOUS
 10
4.2096352927
 20
5.4913651019
 11
4.2012290427
 21
5.5025734326
  0
LINE
  5
2D1
100
AcDbEntity
  8
03__ASM_ALL_CURVES
100
AcDbLine
 62
40
  6
CONTINUOUS
 10
4.2600727927
 20
5.4689484326
 11
4.2768852927
 21
5.4465317673
  0
LINE
  5
2D2
100
AcDbEntity
  8
03__ASM_ALL_CURVES
100
AcDbLine
 62
40
  6
CONTINUOUS
 10
4.2600727927
 20
5.5249901019
 11
4.2684790427
 21
5.5137817633
  0
LINE
  5
2D3
100
AcDbEntity
  8
03__ASM_ALL_CURVES
100
AcDbLine
 62
40
  6
CONTINUOUS
 10
4.7476352927
 20
5.4689484326
 11
4.7392290427
 21
5.4913651019
  0
LINE
  5
2D4
100
AcDbEntity
  8
03__ASM_ALL_CURVES
100
AcDbLine
 62
40
  6
CONTINUOUS
 10
4.7980727927
 20
5.5137817633
 11
4.8064790427
 21
5.4913651019
  0
LINE
  5
2D5
100
AcDbEntity
  8
03__ASM_ALL_CURVES
100
AcDbLine
 62
40
  6
CONTINUOUS
 10
4.9157602927
 20
5.5137817633
 11
4.9241665427
 21
5.4801567633
  0
LINE
  5
2D6
100
AcDbEntity
  8
03__ASM_ALL_CURVES
100
AcDbLine
 62
40
  6
CONTINUOUS
 10
6.2006477935
 20
5.5025734326
 11
6.2174602935
 21
5.5249901019
  0
LINE
  5
2D7
100
AcDbEntity
  8
03__ASM_ALL_CURVES
100
AcDbLine
 62
40
  6
CONTINUOUS
 10
6.2847102935
 20
5.4353234326
 11
6.2678977935
 21
5.4129067663
  0
LINE
  5
2D8
100
AcDbEntity
  8
03__ASM_ALL_CURVES
100
AcDbLine
 62
40
  6
CONTINUOUS
 10
6.3351477935
 20
5.5025734326
 11
6.3519602935
 21
5.5249901019
  0
LINE
  5
2D9
100
AcDbEntity
  8
03__ASM_ALL_CURVES
100
AcDbLine
 62
40
  6
CONTINUOUS
 10
7.0244602935
 20
5.5249901019
 11
7.0412727935
 21
5.5361984326
  0
LINE
  5
2DA
100
AcDbEntity
  8
03__ASM_ALL_CURVES
100
AcDbLine
 62
40
  6
CONTINUOUS
 10
7.0748977935
 20
5.4129067663
 11
7.0580852935
 21
5.4016984326
  0
LINE
  5
2DB
100
AcDbEntity
  8
03__ASM_ALL_CURVES
100
AcDbLine
 62
40
  6
CONTINUOUS
 10
7.3102727935
 20
5.5361984326
 11
7.2934602935
 21
5.5249901019
  0
LINE
  5
2DC
100
AcDbEntity
  8
0
100
AcDbLine
 62
7
  6
CONTINUOUS
 10
4.8276508488
 20
3.9507754315
 11
4.1287382167
 21
3.9507754315
  0
LINE
  5
2DD
100
AcDbEntity
  8
0
100
AcDbLine
 62
7
  6
CONTINUOUS
 10
4.8276508488
 20
3.9899584348
 11
4.1287382167
 21
3.9899584348
  0
LINE
  5
2DE
100
AcDbEntity
  8
0
100
AcDbLine
 62
7
  6
CONTINUOUS
 10
3.2143540428
 20
4.0436864326
 11
3.3845777644
 21
4.0436864326
  0
LINE
  5
2DF
100
AcDbEntity
  8
0
100
AcDbLine
 62
7
  6
CONTINUOUS
 10
3.4213540427
 20
4.0536864326
 11
3.3903540427
 21
4.0536864326
  0
LINE
  5
2E0
100
AcDbEntity
  8
0
100
AcDbLine
 62
7
  6
CONTINUOUS
 10
3.1773540427
 20
4.0536864326
 11
3.1713540427
 21
4.0536864326
  0
LINE
  5
2E1
100
AcDbEntity
  8
0
100
AcDbLine
 62
7
  6
CONTINUOUS
 10
3.1988540427
 20
4.0591864326
 11
3.1828540427
 21
4.0591864326
  0
LINE
  5
2E2
100
AcDbEntity
  8
03__ASM_ALL_CURVES
100
AcDbLine
 62
40
  6
CONTINUOUS
 10
3.5539477927
 20
5.4016984326
 11
3.5371352927
 21
5.4129067663
  0
LINE
  5
2E3
100
AcDbEntity
  8
03__ASM_ALL_CURVES
100
AcDbLine
 62
40
  6
CONTINUOUS
 10
7.1660142131
 20
3.0381364326
 11
7.1534048381
 21
3.0465426828
  0
LINE
  5
2E4
100
AcDbEntity
  8
03__ASM_ALL_CURVES
100
AcDbLine
 62
40
  6
CONTINUOUS
 10
3.5707602927
 20
5.4801567633
 11
3.5875727927
 21
5.4689484326
  0
LINE
  5
2E5
100
AcDbEntity
  8
03__ASM_ALL_CURVES
100
AcDbLine
 62
40
  6
CONTINUOUS
 10
7.2668892131
 20
3.0381364326
 11
7.2542798381
 21
3.0465426828
  0
LINE
  5
2E6
100
AcDbEntity
  8
03__ASM_ALL_CURVES
100
AcDbLine
 62
40
  6
CONTINUOUS
 10
3.5707602927
 20
5.5361984326
 11
3.5875727927
 21
5.5249901019
  0
LINE
  5
2E7
100
AcDbEntity
  8
03__ASM_ALL_CURVES
100
AcDbLine
 62
40
  6
CONTINUOUS
 10
4.3945727927
 20
5.5249901019
 11
4.4029790427
 21
5.5137817633
  0
LINE
  5
2E8
100
AcDbEntity
  8
03__ASM_ALL_CURVES
100
AcDbLine
 62
40
  6
CONTINUOUS
 10
4.4954477927
 20
5.4129067663
 11
4.5038540427
 21
5.4016984326
  0
LINE
  5
2E9
100
AcDbEntity
  8
03__ASM_ALL_CURVES
100
AcDbLine
 62
40
  6
CONTINUOUS
 10
5.6979540427
 20
5.3747984326
 11
5.6979540427
 21
5.3209984326
  0
LINE
  5
2EA
100
AcDbEntity
  8
THREAD
100
AcDbLine
 62
7
  6
CONTINUOUS
 10
6.1070668557
 20
5.0261864326
 11
6.0793540427
 21
4.9781864326
  0
LINE
  5
2EB
100
AcDbEntity
  8
03__ASM_ALL_CURVES
100
AcDbLine
 62
40
  6
CONTINUOUS
 10
6.4108040435
 20
5.4241150999
 11
6.4023977935
 21
5.4129067663
  0
LINE
  5
2EC
100
AcDbEntity
  8
03__ASM_ALL_CURVES
100
AcDbLine
 62
40
  6
CONTINUOUS
 10
7.3438977935
 20
5.4129067663
 11
7.3270852935
 21
5.4016984326
  0
LINE
  5
2ED
100
AcDbEntity
  8
03__ASM_ALL_CURVES
100
AcDbLine
 62
40
  6
CONTINUOUS
 10
7.5624602935
 20
5.5249901019
 11
7.5792727935
 21
5.5361984326
  0
LINE
  5
2EE
100
AcDbEntity
  8
0
100
AcDbLine
 62
7
  6
CONTINUOUS
 10
2.6413540427
 20
4.1406864326
 11
2.8403540427
 21
4.1406864326
  0
LINE
  5
2EF
100
AcDbEntity
  8
0
100
AcDbLine
 62
7
  6
CONTINUOUS
 10
2.8783540427
 20
4.1406864326
 11
3.1093540427
 21
4.1406864326
  0
LINE
  5
2F0
100
AcDbEntity
  8
0
100
AcDbLine
 62
7
  6
CONTINUOUS
 10
2.8403540427
 20
4.1736864326
 11
2.8418540427
 21
4.1736864326
  0
LINE
  5
2F1
100
AcDbEntity
  8
0
100
AcDbLine
 62
7
  6
CONTINUOUS
 10
2.8768540427
 20
4.1736864326
 11
2.8783540427
 21
4.1736864326
  0
LINE
  5
2F2
100
AcDbEntity
  8
03__ASM_ALL_CURVES
100
AcDbLine
 62
40
  6
CONTINUOUS
 10
8.8851977939
 20
4.1969114326
 11
8.8347602939
 21
4.1969114326
  0
LINE
  5
2F3
100
AcDbEntity
  8
03__ASM_ALL_CURVES
100
AcDbLine
 62
40
  6
CONTINUOUS
 10
8.7338852939
 20
4.1969114326
 11
8.7843227939
 21
4.1969114326
  0
LINE
  5
2F4
100
AcDbEntity
  8
03__ASM_ALL_CURVES
100
AcDbLine
 62
40
  6
CONTINUOUS
 10
8.8347602939
 20
4.2473489326
 11
8.8662837314
 21
4.2473489326
  0
LINE
  5
2F5
100
AcDbEntity
  8
03__ASM_ALL_CURVES
100
AcDbLine
 62
40
  6
CONTINUOUS
 10
8.8347602939
 20
4.2977864326
 11
8.8851977939
 21
4.2977864326
  0
LINE
  5
2F6
100
AcDbEntity
  8
03__ASM_ALL_CURVES
100
AcDbLine
 62
40
  6
CONTINUOUS
 10
8.9293306064
 20
4.2977864326
 11
8.9923774814
 21
4.2977864326
  0
LINE
  5
2F7
100
AcDbEntity
  8
03__ASM_ALL_CURVES
100
AcDbLine
 62
40
  6
CONTINUOUS
 10
7.1786235881
 20
3.1390114326
 11
7.1912329631
 21
3.1306051846
  0
LINE
  5
2F8
100
AcDbEntity
  8
03__ASM_ALL_CURVES
100
AcDbLine
 62
40
  6
CONTINUOUS
 10
7.3141743406
 20
3.1928114326
 11
7.3015649656
 21
3.2012176828
  0
LINE
  5
2F9
100
AcDbEntity
  8
03__ASM_ALL_CURVES
100
AcDbLine
 62
40
  6
CONTINUOUS
 10
3.8397602927
 20
5.5361984326
 11
3.8565727927
 21
5.5249901019
  0
LINE
  5
2FA
100
AcDbEntity
  8
03__ASM_ALL_CURVES
100
AcDbLine
 62
40
  6
CONTINUOUS
 10
7.2259087156
 20
3.2936864326
 11
7.2385180906
 21
3.2852801846
  0
LINE
  5
2FB
100
AcDbEntity
  8
03__ASM_ALL_CURVES
100
AcDbLine
 62
40
  6
CONTINUOUS
 10
7.3267837156
 20
3.2936864326
 11
7.3393930906
 21
3.2852801846
  0
LINE
  5
2FC
100
AcDbEntity
  8
03__ASM_ALL_CURVES
100
AcDbLine
 62
40
  6
CONTINUOUS
 10
4.6635727927
 20
5.5249901019
 11
4.6719790427
 21
5.5137817633
  0
LINE
  5
2FD
100
AcDbEntity
  8
03__ASM_ALL_CURVES
100
AcDbLine
 62
40
  6
CONTINUOUS
 10
4.7560415427
 20
5.4129067663
 11
4.7476352927
 21
5.4241150999
  0
LINE
  5
2FE
100
AcDbEntity
  8
03__ASM_ALL_CURVES
100
AcDbLine
 62
40
  6
CONTINUOUS
 10
4.7896665427
 20
5.5249901019
 11
4.7980727927
 21
5.5137817633
  0
LINE
  5
2FF
100
AcDbEntity
  8
03__ASM_ALL_CURVES
100
AcDbLine
 62
40
  6
CONTINUOUS
 10
4.8989477927
 20
5.5361984326
 11
4.9157602927
 21
5.5137817633
  0
LINE
  5
300
100
AcDbEntity
  8
THREAD
100
AcDbLine
 62
7
  6
CONTINUOUS
 10
6.1070668557
 20
3.6231864326
 11
6.0793540427
 21
3.6711864326
  0
LINE
  5
301
100
AcDbEntity
  8
0
100
AcDbLine
 62
7
  6
CONTINUOUS
 10
5.8593540427
 20
3.5451864326
 11
5.8593540427
 21
5.1041864326
  0
LINE
  5
302
100
AcDbEntity
  8
03__ASM_ALL_CURVES
100
AcDbLine
 62
40
  6
CONTINUOUS
 10
5.8593540427
 20
5.1310864326
 11
5.8593540427
 21
5.4016984326
  0
LINE
  5
303
100
AcDbEntity
  8
THREAD
100
AcDbLine
 62
7
  6
CONTINUOUS
 10
5.9063540427
 20
3.6071864326
 11
5.9063540427
 21
5.0421864326
  0
LINE
  5
304
100
AcDbEntity
  8
0
100
AcDbLine
 62
7
  6
CONTINUOUS
 10
6.0093540427
 20
3.6066864326
 11
6.0093540427
 21
5.0426864326
  0
LINE
  5
305
100
AcDbEntity
  8
03__ASM_ALL_CURVES
100
AcDbLine
 62
40
  6
CONTINUOUS
 10
6.0207540427
 20
5.3747984326
 11
6.0207540427
 21
5.3209984326
  0
LINE
  5
306
100
AcDbEntity
  8
0
100
AcDbLine
 62
7
  6
CONTINUOUS
 10
6.0593540427
 20
3.6066864326
 11
6.0593540427
 21
5.0426864326
  0
LINE
  5
307
100
AcDbEntity
  8
03__ASM_ALL_CURVES
100
AcDbLine
 62
40
  6
CONTINUOUS
 10
6.1922415435
 20
5.4689484326
 11
6.2006477935
 21
5.5025734326
  0
LINE
  5
308
100
AcDbEntity
  8
03__ASM_ALL_CURVES
100
AcDbLine
 62
40
  6
CONTINUOUS
 10
6.2931165435
 20
5.4689484326
 11
6.2847102935
 21
5.4353234326
  0
LINE
  5
309
100
AcDbEntity
  8
03__ASM_ALL_CURVES
100
AcDbLine
 62
40
  6
CONTINUOUS
 10
6.3267415435
 20
5.4689484326
 11
6.3351477935
 21
5.5025734326
  0
LINE
  5
30A
100
AcDbEntity
  8
03__ASM_ALL_CURVES
100
AcDbLine
 62
40
  6
CONTINUOUS
 10
7.0076477935
 20
5.5025734326
 11
7.0244602935
 21
5.5249901019
  0
LINE
  5
30B
100
AcDbEntity
  8
03__ASM_ALL_CURVES
100
AcDbLine
 62
40
  6
CONTINUOUS
 10
7.6128977935
 20
5.4129067663
 11
7.5960852935
 21
5.4016984326
  0
LINE
  5
30C
100
AcDbEntity
  8
03__ASM_ALL_CURVES
100
AcDbLine
 62
40
  6
CONTINUOUS
 10
7.7473977935
 20
5.4129067663
 11
7.7305852935
 21
5.4016984326
  0
LINE
  5
30D
100
AcDbEntity
  8
0
100
AcDbLine
 62
7
  6
CONTINUOUS
 10
3.3594826324
 20
4.3246864326
 11
3.257824894
 21
4.3246864326
  0
LINE
  5
30E
100
AcDbEntity
  8
03__ASM_ALL_CURVES
100
AcDbLine
 62
40
  6
CONTINUOUS
 10
8.6897524808
 20
4.3515864326
 11
8.6771431058
 21
4.3515864326
  0
LINE
  5
30F
100
AcDbEntity
  8
03__ASM_ALL_CURVES
100
AcDbLine
 62
40
  6
CONTINUOUS
 10
8.7906274808
 20
4.4020239326
 11
8.7591040433
 21
4.4020239326
  0
LINE
  5
310
100
AcDbEntity
  8
03__ASM_ALL_CURVES
100
AcDbLine
 62
40
  6
CONTINUOUS
 10
8.5888774808
 20
4.4020239326
 11
8.5573540433
 21
4.4020239326
  0
LINE
  5
311
100
AcDbEntity
  8
03__ASM_ALL_CURVES
100
AcDbLine
 62
40
  6
CONTINUOUS
 10
8.5573540433
 20
4.4524614326
 11
8.5888774808
 21
4.4524614326
  0
LINE
  5
312
100
AcDbEntity
  8
03__ASM_ALL_CURVES
100
AcDbLine
 62
40
  6
CONTINUOUS
 10
8.6771431058
 20
4.4524614326
 11
8.6897524808
 21
4.4524614326
  0
LINE
  5
313
100
AcDbEntity
  8
03__ASM_ALL_CURVES
100
AcDbLine
 62
40
  6
CONTINUOUS
 10
8.7591040433
 20
4.4524614326
 11
8.7906274808
 21
4.4524614326
  0
LINE
  5
314
100
AcDbEntity
  8
03__ASM_ALL_CURVES
100
AcDbLine
 62
40
  6
CONTINUOUS
 10
8.8536743558
 20
4.4524614326
 11
8.9167212308
 21
4.4524614326
  0
LINE
  5
315
100
AcDbEntity
  8
0
100
AcDbLine
 62
7
  6
CONTINUOUS
 10
2.8403540427
 20
4.4756864326
 11
2.8783540427
 21
4.4756864326
  0
LINE
  5
316
100
AcDbEntity
  8
0
100
AcDbLine
 62
7
  6
CONTINUOUS
 10
2.6413540427
 20
4.5086864326
 11
2.8403540427
 21
4.5086864326
  0
LINE
  5
317
100
AcDbEntity
  8
0
100
AcDbLine
 62
7
  6
CONTINUOUS
 10
2.8783540427
 20
4.5086864326
 11
3.1093540427
 21
4.5086864326
  0
LINE
  5
318
100
AcDbEntity
  8
03__ASM_ALL_CURVES
100
AcDbLine
 62
40
  6
CONTINUOUS
 10
4.2264477927
 20
5.4016984326
 11
4.2096352927
 21
5.4129067663
  0
LINE
  5
319
100
AcDbEntity
  8
03__ASM_ALL_CURVES
100
AcDbLine
 62
40
  6
CONTINUOUS
 10
7.4276587156
 20
3.2936864326
 11
7.4402680906
 21
3.2852801846
  0
LINE
  5
31A
100
AcDbEntity
  8
03__ASM_ALL_CURVES
100
AcDbLine
 62
40
  6
CONTINUOUS
 10
4.2264477927
 20
5.4801567633
 11
4.2096352927
 21
5.4913651019
  0
LINE
  5
31B
100
AcDbEntity
  8
03__ASM_ALL_CURVES
100
AcDbLine
 62
40
  6
CONTINUOUS
 10
4.2432602927
 20
5.4801567633
 11
4.2600727927
 21
5.4689484326
  0
LINE
  5
31C
100
AcDbEntity
  8
03__ASM_ALL_CURVES
100
AcDbLine
 62
40
  6
CONTINUOUS
 10
4.2432602927
 20
5.5361984326
 11
4.2600727927
 21
5.5249901019
  0
LINE
  5
31D
100
AcDbEntity
  8
03__ASM_ALL_CURVES
100
AcDbLine
 62
40
  6
CONTINUOUS
 10
7.6294087156
 20
3.2936864326
 11
7.6420180906
 21
3.2852801846
  0
LINE
  5
31E
100
AcDbEntity
  8
03__ASM_ALL_CURVES
100
AcDbLine
 62
40
  6
CONTINUOUS
 10
4.3777602927
 20
5.5361984326
 11
4.3945727927
 21
5.5249901019
  0
LINE
  5
31F
100
AcDbEntity
  8
03__ASM_ALL_CURVES
100
AcDbLine
 62
40
  6
CONTINUOUS
 10
6.0745540435
 20
5.5361984326
 11
6.0745540435
 21
5.4016984326
  0
LINE
  5
320
100
AcDbEntity
  8
0
100
AcDbLine
 62
7
  6
CONTINUOUS
 10
6.0793540427
 20
3.6711864326
 11
6.0793540427
 21
4.9781864326
  0
LINE
  5
321
100
AcDbEntity
  8
THREAD
100
AcDbLine
 62
7
  6
CONTINUOUS
 10
6.1070668557
 20
3.6231864326
 11
6.1070668557
 21
5.0261864326
  0
LINE
  5
322
100
AcDbEntity
  8
03__ASM_ALL_CURVES
100
AcDbLine
 62
40
  6
CONTINUOUS
 10
6.4696477935
 20
5.4016984326
 11
6.5116790435
 21
5.5361984326
  0
LINE
  5
323
100
AcDbEntity
  8
03__ASM_ALL_CURVES
100
AcDbLine
 62
40
  6
CONTINUOUS
 10
7.0833040435
 20
5.4241150999
 11
7.0748977935
 21
5.4129067663
  0
LINE
  5
324
100
AcDbEntity
  8
03__ASM_ALL_CURVES
100
AcDbLine
 62
40
  6
CONTINUOUS
 10
7.2934602935
 20
5.5249901019
 11
7.2850540435
 21
5.5137817633
  0
LINE
  5
325
100
AcDbEntity
  8
03__ASM_ALL_CURVES
100
AcDbLine
 62
40
  6
CONTINUOUS
 10
8.0079915435
 20
5.4129067663
 11
7.9911790435
 21
5.4016984326
  0
LINE
  5
326
100
AcDbEntity
  8
03__ASM_ALL_CURVES
100
AcDbLine
 62
40
  6
CONTINUOUS
 10
8.2853977935
 20
5.4801567633
 11
8.2685852935
 21
5.4689484326
  0
LINE
  5
327
100
AcDbEntity
  8
0
100
AcDbLine
 62
7
  6
CONTINUOUS
 10
3.1988540427
 20
4.5901864326
 11
3.1828540427
 21
4.5901864326
  0
LINE
  5
328
100
AcDbEntity
  8
0
100
AcDbLine
 62
7
  6
CONTINUOUS
 10
3.4213540427
 20
4.5956864326
 11
3.3903540427
 21
4.5956864326
  0
LINE
  5
329
100
AcDbEntity
  8
0
100
AcDbLine
 62
7
  6
CONTINUOUS
 10
3.1773540427
 20
4.5956864326
 11
3.1713540427
 21
4.5956864326
  0
LINE
  5
32A
100
AcDbEntity
  8
0
100
AcDbLine
 62
7
  6
CONTINUOUS
 10
3.2143540428
 20
4.6056864326
 11
3.3845777644
 21
4.6056864326
  0
LINE
  5
32B
100
AcDbEntity
  8
0
100
AcDbLine
 62
7
  6
CONTINUOUS
 10
4.8276508488
 20
4.6594144304
 11
4.1287382167
 21
4.6594144304
  0
LINE
  5
32C
100
AcDbEntity
  8
0
100
AcDbLine
 62
7
  6
CONTINUOUS
 10
4.8276508488
 20
4.6985974337
 11
4.1287382167
 21
4.6985974337
  0
LINE
  5
32D
100
AcDbEntity
  8
03__ASM_ALL_CURVES
100
AcDbLine
 62
40
  6
CONTINUOUS
 10
4.7728540427
 20
5.4016984326
 11
4.7560415427
 21
5.4129067663
  0
LINE
  5
32E
100
AcDbEntity
  8
03__ASM_ALL_CURVES
100
AcDbLine
 62
40
  6
CONTINUOUS
 10
4.6467602927
 20
5.5361984326
 11
4.6635727927
 21
5.5249901019
  0
LINE
  5
32F
100
AcDbEntity
  8
03__ASM_ALL_CURVES
100
AcDbLine
 62
40
  6
CONTINUOUS
 10
4.7728540427
 20
5.5361984326
 11
4.7896665427
 21
5.5249901019
  0
LINE
  5
330
100
AcDbEntity
  8
03__ASM_ALL_CURVES
100
AcDbLine
 62
40
  6
CONTINUOUS
 10
7.1534048381
 20
3.0465426828
 11
7.1407954631
 21
3.0633551826
  0
LINE
  5
331
100
AcDbEntity
  8
03__ASM_ALL_CURVES
100
AcDbLine
 62
40
  6
CONTINUOUS
 10
7.2542798381
 20
3.0465426828
 11
7.2479751506
 21
3.0549489331
  0
LINE
  5
332
100
AcDbEntity
  8
03__ASM_ALL_CURVES
100
AcDbLine
 62
40
  6
CONTINUOUS
 10
7.1912329631
 20
3.1306051846
 11
7.2038423381
 21
3.1137926826
  0
LINE
  5
333
100
AcDbEntity
  8
THREAD
100
AcDbLine
 62
7
  6
CONTINUOUS
 10
6.4958540427
 20
3.6231864326
 11
6.4958540427
 21
5.0261864326
  0
LINE
  5
334
100
AcDbEntity
  8
03__ASM_ALL_CURVES
100
AcDbLine
 62
40
  6
CONTINUOUS
 10
7.3523040435
 20
5.4241150999
 11
7.3438977935
 21
5.4129067663
  0
LINE
  5
335
100
AcDbEntity
  8
03__ASM_ALL_CURVES
100
AcDbLine
 62
40
  6
CONTINUOUS
 10
7.5456477935
 20
5.5025734326
 11
7.5624602935
 21
5.5249901019
  0
LINE
  5
336
100
AcDbEntity
  8
0
100
AcDbLine
 62
7
  6
CONTINUOUS
 10
6.8903540427
 20
4.8541864326
 11
7.5213540427
 21
4.8541864326
  0
LINE
  5
337
100
AcDbEntity
  8
0
100
AcDbLine
 62
7
  6
CONTINUOUS
 10
7.7713540427
 20
4.8541864326
 11
7.9903540427
 21
4.8541864326
  0
LINE
  5
338
100
AcDbEntity
  8
0
100
AcDbLine
 62
7
  6
CONTINUOUS
 10
8.1673540427
 20
4.8631864326
 11
8.1773540427
 21
4.8631864326
  0
LINE
  5
339
100
AcDbEntity
  8
0
100
AcDbLine
 62
7
  6
CONTINUOUS
 10
4.0773540427
 20
4.9186864326
 11
3.4833540427
 21
4.9186864326
  0
LINE
  5
33A
100
AcDbEntity
  8
0
100
AcDbLine
 62
7
  6
CONTINUOUS
 10
8.2643540427
 20
4.9481864326
 11
8.1773540427
 21
4.9481864326
  0
LINE
  5
33B
100
AcDbEntity
  8
0
100
AcDbLine
 62
7
  6
CONTINUOUS
 10
8.0953540427
 20
4.9481864326
 11
7.9903540427
 21
4.9481864326
  0
LINE
  5
33C
100
AcDbEntity
  8
0
100
AcDbLine
 62
7
  6
CONTINUOUS
 10
8.1063540427
 20
4.9496864326
 11
8.1543540427
 21
4.9496864326
  0
LINE
  5
33D
100
AcDbEntity
  8
THREAD
100
AcDbLine
 62
7
  6
CONTINUOUS
 10
6.8773540427
 20
4.9756864326
 11
6.5463540427
 21
4.9756864326
  0
LINE
  5
33E
100
AcDbEntity
  8
03__ASM_ALL_CURVES
100
AcDbLine
 62
40
  6
CONTINUOUS
 10
2.7717540427
 20
5.3299650993
 11
2.6103540427
 21
5.3478984326
  0
LINE
  5
33F
100
AcDbEntity
  8
03__ASM_ALL_CURVES
100
AcDbLine
 62
40
  6
CONTINUOUS
 10
2.7717540427
 20
5.3254817659
 11
2.6103540427
 21
5.3478984326
  0
LINE
  5
340
100
AcDbEntity
  8
03__ASM_ALL_CURVES
100
AcDbLine
 62
40
  6
CONTINUOUS
 10
2.7717540427
 20
5.3209984326
 11
2.6103540427
 21
5.3478984326
  0
LINE
  5
341
100
AcDbEntity
  8
03__ASM_ALL_CURVES
100
AcDbLine
 62
40
  6
CONTINUOUS
 10
4.7728540427
 20
5.4577400979
 11
4.7476352927
 21
5.4689484326
  0
LINE
  5
342
100
AcDbEntity
  8
03__ASM_ALL_CURVES
100
AcDbLine
 62
40
  6
CONTINUOUS
 10
7.3015649656
 20
3.2012176828
 11
7.2889555906
 21
3.2180301826
  0
LINE
  5
343
100
AcDbEntity
  8
03__ASM_ALL_CURVES
100
AcDbLine
 62
40
  6
CONTINUOUS
 10
7.2385180906
 20
3.2852801846
 11
7.2448227781
 21
3.2768739306
  0
LINE
  5
344
100
AcDbEntity
  8
03__ASM_ALL_CURVES
100
AcDbLine
 62
40
  6
CONTINUOUS
 10
7.3393930906
 20
3.2852801846
 11
7.3520024656
 21
3.2684676826
  0
LINE
  5
345
100
AcDbEntity
  8
03__ASM_ALL_CURVES
100
AcDbLine
 62
40
  6
CONTINUOUS
 10
7.4402680906
 20
3.2852801846
 11
7.4465727781
 21
3.2768739306
  0
LINE
  5
346
100
AcDbEntity
  8
03__ASM_ALL_CURVES
100
AcDbLine
 62
40
  6
CONTINUOUS
 10
6.2006477935
 20
5.4353234326
 11
6.1922415435
 21
5.4689484326
  0
LINE
  5
347
100
AcDbEntity
  8
THREAD
100
AcDbLine
 62
7
  6
CONTINUOUS
 10
6.5463540427
 20
3.6736864326
 11
6.5463540427
 21
4.9756864326
  0
LINE
  5
348
100
AcDbEntity
  8
03__ASM_ALL_CURVES
100
AcDbLine
 62
40
  6
CONTINUOUS
 10
6.6461790435
 20
5.5361984326
 11
6.6461790435
 21
5.4016984326
  0
LINE
  5
349
100
AcDbEntity
  8
03__ASM_ALL_CURVES
100
AcDbLine
 62
40
  6
CONTINUOUS
 10
6.9992415435
 20
5.4689484326
 11
7.0076477935
 21
5.5025734326
  0
LINE
  5
34A
100
AcDbEntity
  8
03__ASM_ALL_CURVES
100
AcDbLine
 62
40
  6
CONTINUOUS
 10
7.6297102935
 20
5.4353234326
 11
7.6128977935
 21
5.4129067663
  0
LINE
  5
34B
100
AcDbEntity
  8
03__ASM_ALL_CURVES
100
AcDbLine
 62
40
  6
CONTINUOUS
 10
7.7558040435
 20
5.4241150999
 11
7.7473977935
 21
5.4129067663
  0
LINE
  5
34C
100
AcDbEntity
  8
0
100
AcDbLine
 62
7
  6
CONTINUOUS
 10
8.0953540427
 20
4.9412248941
 11
8.1063540427
 21
4.9496864326
  0
LINE
  5
34D
100
AcDbEntity
  8
THREAD
100
AcDbLine
 62
7
  6
CONTINUOUS
 10
6.4958540427
 20
5.0261864326
 11
6.1070668557
 21
5.0261864326
  0
LINE
  5
34E
100
AcDbEntity
  8
0
100
AcDbLine
 62
7
  6
CONTINUOUS
 10
4.8276508488
 20
5.0333254315
 11
4.1287382167
 21
5.0333254315
  0
LINE
  5
34F
100
AcDbEntity
  8
0
100
AcDbLine
 62
7
  6
CONTINUOUS
 10
4.8276508488
 20
5.0336864326
 11
4.1287382167
 21
5.0336864326
  0
LINE
  5
350
100
AcDbEntity
  8
THREAD
100
AcDbLine
 62
7
  6
CONTINUOUS
 10
5.9063540427
 20
5.0421864326
 11
5.8593540427
 21
5.0421864326
  0
LINE
  5
351
100
AcDbEntity
  8
0
100
AcDbLine
 62
7
  6
CONTINUOUS
 10
6.0093540427
 20
5.0426864326
 11
6.0593540427
 21
5.0426864326
  0
LINE
  5
352
100
AcDbEntity
  8
0
100
AcDbLine
 62
7
  6
CONTINUOUS
 10
5.8593540427
 20
5.1041864326
 11
4.8683540427
 21
5.1041864326
  0
LINE
  5
353
100
AcDbEntity
  8
03__ASM_ALL_CURVES
100
AcDbLine
 62
40
  6
CONTINUOUS
 10
2.7717540427
 20
5.3389317659
 11
2.6103540427
 21
5.3478984326
  0
LINE
  5
354
100
AcDbEntity
  8
03__ASM_ALL_CURVES
100
AcDbLine
 62
40
  6
CONTINUOUS
 10
2.7717540427
 20
5.3344484326
 11
2.6103540427
 21
5.3478984326
  0
LINE
  5
355
100
AcDbEntity
  8
0
100
AcDbLine
 62
7
  6
CONTINUOUS
 10
8.0953540427
 20
3.7081479711
 11
8.1063540427
 21
3.6996864326
  0
LINE
  5
356
100
AcDbEntity
  8
03__ASM_ALL_CURVES
100
AcDbLine
 62
40
  6
CONTINUOUS
 10
7.6420180906
 20
3.2852801846
 11
7.6483227781
 21
3.2768739306
  0
LINE
  5
357
100
AcDbEntity
  8
03__ASM_ALL_CURVES
100
AcDbLine
 62
40
  6
CONTINUOUS
 10
6.2847102935
 20
5.5025734326
 11
6.2931165435
 21
5.4689484326
  0
LINE
  5
358
100
AcDbEntity
  8
03__ASM_ALL_CURVES
100
AcDbLine
 62
40
  6
CONTINUOUS
 10
6.3351477935
 20
5.4353234326
 11
6.3267415435
 21
5.4689484326
  0
LINE
  5
359
100
AcDbEntity
  8
03__ASM_ALL_CURVES
100
AcDbLine
 62
40
  6
CONTINUOUS
 10
6.7806790435
 20
5.5361984326
 11
6.7806790435
 21
5.4016984326
  0
LINE
  5
35A
100
AcDbEntity
  8
0
100
AcDbLine
 62
7
  6
CONTINUOUS
 10
6.8773540427
 20
3.6736864326
 11
6.8773540427
 21
4.9756864326
  0
LINE
  5
35B
100
AcDbEntity
  8
03__ASM_ALL_CURVES
100
AcDbLine
 62
40
  6
CONTINUOUS
 10
6.8815540435
 20
5.4016984326
 11
6.8815540435
 21
5.5361984326
  0
LINE
  5
35C
100
AcDbEntity
  8
0
100
AcDbLine
 62
7
  6
CONTINUOUS
 10
6.8903540427
 20
3.6866864326
 11
6.8903540427
 21
4.9626864326
  0
LINE
  5
35D
100
AcDbEntity
  8
03__ASM_ALL_CURVES
100
AcDbLine
 62
40
  6
CONTINUOUS
 10
6.9488040435
 20
5.4016984326
 11
6.9488040435
 21
5.5361984326
  0
LINE
  5
35E
100
AcDbEntity
  8
03__ASM_ALL_CURVES
100
AcDbLine
 62
40
  6
CONTINUOUS
 10
8.0248040435
 20
5.4353234326
 11
8.0079915435
 21
5.4129067663
  0
LINE
  5
35F
100
AcDbEntity
  8
THREAD
100
AcDbLine
 62
7
  6
CONTINUOUS
 10
6.5463540427
 20
3.6736864326
 11
6.4958540427
 21
3.6231864326
  0
LINE
  5
360
100
AcDbEntity
  8
03__ASM_ALL_CURVES
100
AcDbLine
 62
40
  6
CONTINUOUS
 10
5.6979540427
 20
5.3209984326
 11
6.0207540427
 21
5.3747984326
  0
LINE
  5
361
100
AcDbEntity
  8
03__ASM_ALL_CURVES
100
AcDbLine
 62
40
  6
CONTINUOUS
 10
5.6979540427
 20
5.3254817659
 11
6.0207540427
 21
5.3703150993
  0
LINE
  5
362
100
AcDbEntity
  8
03__ASM_ALL_CURVES
100
AcDbLine
 62
40
  6
CONTINUOUS
 10
5.6979540427
 20
5.3299650993
 11
6.0207540427
 21
5.3658317659
  0
LINE
  5
363
100
AcDbEntity
  8
03__ASM_ALL_CURVES
100
AcDbLine
 62
40
  6
CONTINUOUS
 10
5.6979540427
 20
5.3344484326
 11
6.0207540427
 21
5.3613484326
  0
LINE
  5
364
100
AcDbEntity
  8
03__ASM_ALL_CURVES
100
AcDbLine
 62
40
  6
CONTINUOUS
 10
5.6979540427
 20
5.3389317659
 11
6.0207540427
 21
5.3568650993
  0
LINE
  5
365
100
AcDbEntity
  8
03__ASM_ALL_CURVES
100
AcDbLine
 62
40
  6
CONTINUOUS
 10
5.6979540427
 20
5.3434150993
 11
6.0207540427
 21
5.3523817659
  0
LINE
  5
366
100
AcDbEntity
  8
03__ASM_ALL_CURVES
100
AcDbLine
 62
40
  6
CONTINUOUS
 10
2.7717540427
 20
5.3523817659
 11
2.6103540427
 21
5.3478984326
  0
LINE
  5
367
100
AcDbEntity
  8
03__ASM_ALL_CURVES
100
AcDbLine
 62
40
  6
CONTINUOUS
 10
2.6103540427
 20
5.3478984326
 11
8.4417540427
 21
5.3478984326
  0
LINE
  5
368
100
AcDbEntity
  8
03__ASM_ALL_CURVES
100
AcDbLine
 62
40
  6
CONTINUOUS
 10
8.1593040435
 20
5.4016984326
 11
8.0920540435
 21
5.4016984326
  0
LINE
  5
369
100
AcDbEntity
  8
03__ASM_ALL_CURVES
100
AcDbLine
 62
40
  6
CONTINUOUS
 10
7.9911790435
 20
5.4016984326
 11
7.9575540435
 21
5.4016984326
  0
LINE
  5
36A
100
AcDbEntity
  8
03__ASM_ALL_CURVES
100
AcDbLine
 62
40
  6
CONTINUOUS
 10
7.7305852935
 20
5.4016984326
 11
7.7137727935
 21
5.4016984326
  0
LINE
  5
36B
100
AcDbEntity
  8
03__ASM_ALL_CURVES
100
AcDbLine
 62
40
  6
CONTINUOUS
 10
7.5960852935
 20
5.4016984326
 11
7.5792727935
 21
5.4016984326
  0
LINE
  5
36C
100
AcDbEntity
  8
03__ASM_ALL_CURVES
100
AcDbLine
 62
40
  6
CONTINUOUS
 10
7.3270852935
 20
5.4016984326
 11
7.3102727935
 21
5.4016984326
  0
LINE
  5
36D
100
AcDbEntity
  8
03__ASM_ALL_CURVES
100
AcDbLine
 62
40
  6
CONTINUOUS
 10
7.0580852935
 20
5.4016984326
 11
7.0412727935
 21
5.4016984326
  0
LINE
  5
36E
100
AcDbEntity
  8
03__ASM_ALL_CURVES
100
AcDbLine
 62
40
  6
CONTINUOUS
 10
6.3855852935
 20
5.4016984326
 11
6.3687727935
 21
5.4016984326
  0
LINE
  5
36F
100
AcDbEntity
  8
03__ASM_ALL_CURVES
100
AcDbLine
 62
40
  6
CONTINUOUS
 10
6.2510852935
 20
5.4016984326
 11
6.2342727935
 21
5.4016984326
  0
LINE
  5
370
100
AcDbEntity
  8
03__ASM_ALL_CURVES
100
AcDbLine
 62
40
  6
CONTINUOUS
 10
4.5038540427
 20
5.4016984326
 11
4.4954477927
 21
5.4016984326
  0
LINE
  5
371
100
AcDbEntity
  8
03__ASM_ALL_CURVES
100
AcDbLine
 62
40
  6
CONTINUOUS
 10
4.2432602927
 20
5.4016984326
 11
4.2264477927
 21
5.4016984326
  0
LINE
  5
372
100
AcDbEntity
  8
03__ASM_ALL_CURVES
100
AcDbLine
 62
40
  6
CONTINUOUS
 10
3.6968540427
 20
5.4016984326
 11
3.6884477927
 21
5.4016984326
  0
LINE
  5
373
100
AcDbEntity
  8
03__ASM_ALL_CURVES
100
AcDbLine
 62
40
  6
CONTINUOUS
 10
3.5707602927
 20
5.4016984326
 11
3.5539477927
 21
5.4016984326
  0
LINE
  5
374
100
AcDbEntity
  8
03__ASM_ALL_CURVES
100
AcDbLine
 62
40
  6
CONTINUOUS
 10
3.7977290427
 20
5.4016984326
 11
3.8649790427
 21
5.4016984326
  0
LINE
  5
375
100
AcDbEntity
  8
03__ASM_ALL_CURVES
100
AcDbLine
 62
40
  6
CONTINUOUS
 10
4.3357290427
 20
5.4016984326
 11
4.4029790427
 21
5.4016984326
  0
LINE
  5
376
100
AcDbEntity
  8
03__ASM_ALL_CURVES
100
AcDbLine
 62
40
  6
CONTINUOUS
 10
4.6047290427
 20
5.4016984326
 11
4.6719790427
 21
5.4016984326
  0
LINE
  5
377
100
AcDbEntity
  8
03__ASM_ALL_CURVES
100
AcDbLine
 62
40
  6
CONTINUOUS
 10
6.0745540435
 20
5.4016984326
 11
6.1418040435
 21
5.4016984326
  0
LINE
  5
378
100
AcDbEntity
  8
03__ASM_ALL_CURVES
100
AcDbLine
 62
40
  6
CONTINUOUS
 10
7.8230540435
 20
5.4016984326
 11
7.8903040435
 21
5.4016984326
  0
LINE
  5
379
100
AcDbEntity
  8
03__ASM_ALL_CURVES
100
AcDbLine
 62
40
  6
CONTINUOUS
 10
3.9322290427
 20
5.4353234326
 11
4.0078852927
 21
5.4353234326
  0
LINE
  5
37A
100
AcDbEntity
  8
03__ASM_ALL_CURVES
100
AcDbLine
 62
40
  6
CONTINUOUS
 10
6.4864602935
 20
5.4465317673
 11
6.5368977935
 21
5.4465317673
  0
LINE
  5
37B
100
AcDbEntity
  8
03__ASM_ALL_CURVES
100
AcDbLine
 62
40
  6
CONTINUOUS
 10
2.7717540427
 20
5.3434150993
 11
2.6103540427
 21
5.3478984326
  0
LINE
  5
37C
100
AcDbEntity
  8
03__ASM_ALL_CURVES
100
AcDbLine
 62
40
  6
CONTINUOUS
 10
5.6979540427
 20
5.3523817659
 11
6.0207540427
 21
5.3434150993
  0
LINE
  5
37D
100
AcDbEntity
  8
03__ASM_ALL_CURVES
100
AcDbLine
 62
40
  6
CONTINUOUS
 10
5.6979540427
 20
5.3568650993
 11
6.0207540427
 21
5.3389317659
  0
LINE
  5
37E
100
AcDbEntity
  8
03__ASM_ALL_CURVES
100
AcDbLine
 62
40
  6
CONTINUOUS
 10
5.6979540427
 20
5.3613484326
 11
6.0207540427
 21
5.3344484326
  0
LINE
  5
37F
100
AcDbEntity
  8
03__ASM_ALL_CURVES
100
AcDbLine
 62
40
  6
CONTINUOUS
 10
5.6979540427
 20
5.3658317659
 11
6.0207540427
 21
5.3299650993
  0
LINE
  5
380
100
AcDbEntity
  8
03__ASM_ALL_CURVES
100
AcDbLine
 62
40
  6
CONTINUOUS
 10
5.6979540427
 20
5.3703150993
 11
6.0207540427
 21
5.3254817659
  0
LINE
  5
381
100
AcDbEntity
  8
03__ASM_ALL_CURVES
100
AcDbLine
 62
40
  6
CONTINUOUS
 10
6.0207540427
 20
5.3209984326
 11
5.6979540427
 21
5.3747984326
  0
LINE
  5
382
100
AcDbEntity
  8
03__ASM_ALL_CURVES
100
AcDbLine
 62
40
  6
CONTINUOUS
 10
6.2342727935
 20
5.4016984326
 11
6.2174602935
 21
5.4129067663
  0
LINE
  5
383
100
AcDbEntity
  8
THREAD
100
AcDbLine
 62
7
  6
CONTINUOUS
 10
6.5463540427
 20
4.9756864326
 11
6.4958540427
 21
5.0261864326
  0
LINE
  5
384
100
AcDbEntity
  8
03__ASM_ALL_CURVES
100
AcDbLine
 62
40
  6
CONTINUOUS
 10
6.2174602935
 20
5.4129067663
 11
6.2006477935
 21
5.4353234326
  0
LINE
  5
385
100
AcDbEntity
  8
03__ASM_ALL_CURVES
100
AcDbLine
 62
40
  6
CONTINUOUS
 10
6.3519602935
 20
5.4129067663
 11
6.3351477935
 21
5.4353234326
  0
LINE
  5
386
100
AcDbEntity
  8
03__ASM_ALL_CURVES
100
AcDbLine
 62
40
  6
CONTINUOUS
 10
6.2678977935
 20
5.5249901019
 11
6.2847102935
 21
5.5025734326
  0
LINE
  5
387
100
AcDbEntity
  8
03__ASM_ALL_CURVES
100
AcDbLine
 62
40
  6
CONTINUOUS
 10
7.4276587156
 20
3.2432489326
 11
7.4465727781
 21
3.1928114326
  0
LINE
  5
388
100
AcDbEntity
  8
03__ASM_ALL_CURVES
100
AcDbLine
 62
40
  6
CONTINUOUS
 10
6.5116790435
 20
5.5361984326
 11
6.5537102935
 21
5.4016984326
  0
LINE
  5
389
100
AcDbEntity
  8
03__ASM_ALL_CURVES
100
AcDbLine
 62
40
  6
CONTINUOUS
 10
7.1407954631
 20
3.0633551826
 11
7.1344907756
 21
3.0885739326
  0
LINE
  5
38A
100
AcDbEntity
  8
03__ASM_ALL_CURVES
100
AcDbLine
 62
40
  6
CONTINUOUS
 10
7.2038423381
 20
3.1137926826
 11
7.2101470256
 21
3.0885739326
  0
LINE
  5
38B
100
AcDbEntity
  8
03__ASM_ALL_CURVES
100
AcDbLine
 62
40
  6
CONTINUOUS
 10
7.0833040435
 20
5.4689484326
 11
7.0833040435
 21
5.4241150999
  0
LINE
  5
38C
100
AcDbEntity
  8
03__ASM_ALL_CURVES
100
AcDbLine
 62
40
  6
CONTINUOUS
 10
7.1943852781
 20
3.1928114326
 11
7.1943852781
 21
3.2936864326
  0
LINE
  5
38D
100
AcDbEntity
  8
03__ASM_ALL_CURVES
100
AcDbLine
 62
40
  6
CONTINUOUS
 10
7.5372415435
 20
5.4689484326
 11
7.5456477935
 21
5.5025734326
  0
LINE
  5
38E
100
AcDbEntity
  8
03__ASM_ALL_CURVES
100
AcDbLine
 62
40
  6
CONTINUOUS
 10
8.2938040435
 20
5.4913651019
 11
8.2853977935
 21
5.4801567633
  0
LINE
  5
38F
100
AcDbEntity
  8
0
100
AcDbLine
 62
7
  6
CONTINUOUS
 10
6.8903540427
 20
3.6866864326
 11
6.8773540427
 21
3.6736864326
  0
LINE
  5
390
100
AcDbEntity
  8
03__ASM_ALL_CURVES
100
AcDbLine
 62
40
  6
CONTINUOUS
 10
2.7717540427
 20
5.3613484326
 11
2.6103540427
 21
5.3478984326
  0
LINE
  5
391
100
AcDbEntity
  8
03__ASM_ALL_CURVES
100
AcDbLine
 62
40
  6
CONTINUOUS
 10
2.7717540427
 20
5.3568650993
 11
2.6103540427
 21
5.3478984326
  0
LINE
  5
392
100
AcDbEntity
  8
03__ASM_ALL_CURVES
100
AcDbLine
 62
40
  6
CONTINUOUS
 10
8.2685852935
 20
5.4689484326
 11
8.2265540435
 21
5.4689484326
  0
LINE
  5
393
100
AcDbEntity
  8
03__ASM_ALL_CURVES
100
AcDbLine
 62
40
  6
CONTINUOUS
 10
7.0496790435
 20
5.4689484326
 11
7.0833040435
 21
5.4689484326
  0
LINE
  5
394
100
AcDbEntity
  8
03__ASM_ALL_CURVES
100
AcDbLine
 62
40
  6
CONTINUOUS
 10
7.4195540435
 20
5.4689484326
 11
7.4868040435
 21
5.4689484326
  0
LINE
  5
395
100
AcDbEntity
  8
03__ASM_ALL_CURVES
100
AcDbLine
 62
40
  6
CONTINUOUS
 10
8.0920540435
 20
5.4689484326
 11
8.1340852935
 21
5.4689484326
  0
LINE
  5
396
100
AcDbEntity
  8
03__ASM_ALL_CURVES
100
AcDbLine
 62
40
  6
CONTINUOUS
 10
3.5539477927
 20
5.4801567633
 11
3.5707602927
 21
5.4801567633
  0
LINE
  5
397
100
AcDbEntity
  8
03__ASM_ALL_CURVES
100
AcDbLine
 62
40
  6
CONTINUOUS
 10
4.2264477927
 20
5.4801567633
 11
4.2432602927
 21
5.4801567633
  0
LINE
  5
398
100
AcDbEntity
  8
03__ASM_ALL_CURVES
100
AcDbLine
 62
40
  6
CONTINUOUS
 10
7.3270852935
 20
5.5361984326
 11
7.3102727935
 21
5.5361984326
  0
LINE
  5
399
100
AcDbEntity
  8
03__ASM_ALL_CURVES
100
AcDbLine
 62
40
  6
CONTINUOUS
 10
3.5539477927
 20
5.5361984326
 11
3.5707602927
 21
5.5361984326
  0
LINE
  5
39A
100
AcDbEntity
  8
03__ASM_ALL_CURVES
100
AcDbLine
 62
40
  6
CONTINUOUS
 10
3.8229477927
 20
5.5361984326
 11
3.8397602927
 21
5.5361984326
  0
LINE
  5
39B
100
AcDbEntity
  8
03__ASM_ALL_CURVES
100
AcDbLine
 62
40
  6
CONTINUOUS
 10
4.2264477927
 20
5.5361984326
 11
4.2432602927
 21
5.5361984326
  0
LINE
  5
39C
100
AcDbEntity
  8
03__ASM_ALL_CURVES
100
AcDbLine
 62
40
  6
CONTINUOUS
 10
4.3609477927
 20
5.5361984326
 11
4.3777602927
 21
5.5361984326
  0
LINE
  5
39D
100
AcDbEntity
  8
03__ASM_ALL_CURVES
100
AcDbLine
 62
40
  6
CONTINUOUS
 10
4.6299477927
 20
5.5361984326
 11
4.6467602927
 21
5.5361984326
  0
LINE
  5
39E
100
AcDbEntity
  8
03__ASM_ALL_CURVES
100
AcDbLine
 62
40
  6
CONTINUOUS
 10
6.2342727935
 20
5.5361984326
 11
6.2510852935
 21
5.5361984326
  0
LINE
  5
39F
100
AcDbEntity
  8
03__ASM_ALL_CURVES
100
AcDbLine
 62
40
  6
CONTINUOUS
 10
6.3687727935
 20
5.5361984326
 11
6.3855852935
 21
5.5361984326
  0
LINE
  5
3A0
100
AcDbEntity
  8
03__ASM_ALL_CURVES
100
AcDbLine
 62
40
  6
CONTINUOUS
 10
6.6041477935
 20
5.5361984326
 11
6.6882102935
 21
5.5361984326
  0
LINE
  5
3A1
100
AcDbEntity
  8
03__ASM_ALL_CURVES
100
AcDbLine
 62
40
  6
CONTINUOUS
 10
7.0412727935
 20
5.5361984326
 11
7.0580852935
 21
5.5361984326
  0
LINE
  5
3A2
100
AcDbEntity
  8
03__ASM_ALL_CURVES
100
AcDbLine
 62
40
  6
CONTINUOUS
 10
7.5792727935
 20
5.5361984326
 11
7.5960852935
 21
5.5361984326
  0
LINE
  5
3A3
100
AcDbEntity
  8
03__ASM_ALL_CURVES
100
AcDbLine
 62
40
  6
CONTINUOUS
 10
7.9575540435
 20
5.5361984326
 11
7.9911790435
 21
5.5361984326
  0
LINE
  5
3A4
100
AcDbEntity
  8
03__ASM_ALL_CURVES
100
AcDbLine
 62
40
  6
CONTINUOUS
 10
8.0920540435
 20
5.5361984326
 11
8.1593040435
 21
5.5361984326
  0
LINE
  5
3A5
100
AcDbEntity
  8
03__ASM_ALL_CURVES
100
AcDbLine
 62
40
  6
CONTINUOUS
 10
8.2265540435
 20
5.5361984326
 11
8.2685852935
 21
5.5361984326
  0
LINE
  5
3A6
100
AcDbEntity
  8
03__ASM_ALL_CURVES
100
AcDbLine
 62
40
  6
CONTINUOUS
 10
6.3687727935
 20
5.4016984326
 11
6.3519602935
 21
5.4129067663
  0
LINE
  5
3A7
100
AcDbEntity
  8
03__ASM_ALL_CURVES
100
AcDbLine
 62
40
  6
CONTINUOUS
 10
6.2510852935
 20
5.5361984326
 11
6.2678977935
 21
5.5249901019
  0
LINE
  5
3A8
100
AcDbEntity
  8
03__ASM_ALL_CURVES
100
AcDbLine
 62
40
  6
CONTINUOUS
 10
6.3855852935
 20
5.5361984326
 11
6.4023977935
 21
5.5249901019
  0
LINE
  5
3A9
100
AcDbEntity
  8
0
100
AcDbLine
 62
7
  6
CONTINUOUS
 10
6.8903540427
 20
4.9626864326
 11
6.8773540427
 21
4.9756864326
  0
LINE
  5
3AA
100
AcDbEntity
  8
03__ASM_ALL_CURVES
100
AcDbLine
 62
40
  6
CONTINUOUS
 10
6.4023977935
 20
5.5249901019
 11
6.4108040435
 21
5.5137817633
  0
LINE
  5
3AB
100
AcDbEntity
  8
03__ASM_ALL_CURVES
100
AcDbLine
 62
40
  6
CONTINUOUS
 10
7.2889555906
 20
3.2180301826
 11
7.2826509031
 21
3.2432489326
  0
LINE
  5
3AC
100
AcDbEntity
  8
03__ASM_ALL_CURVES
100
AcDbLine
 62
40
  6
CONTINUOUS
 10
7.3520024656
 20
3.2684676826
 11
7.3583071531
 21
3.2432489326
  0
LINE
  5
3AD
100
AcDbEntity
  8
03__ASM_ALL_CURVES
100
AcDbLine
 62
40
  6
CONTINUOUS
 10
7.2448227781
 20
3.2768739306
 11
7.2448227781
 21
3.2600614346
  0
LINE
  5
3AE
100
AcDbEntity
  8
03__ASM_ALL_CURVES
100
AcDbLine
 62
40
  6
CONTINUOUS
 10
7.2479751506
 20
3.0549489331
 11
7.2479751506
 21
3.1390114326
  0
LINE
  5
3AF
100
AcDbEntity
  8
03__ASM_ALL_CURVES
100
AcDbLine
 62
40
  6
CONTINUOUS
 10
7.2850540435
 20
5.5137817633
 11
7.2850540435
 21
5.5025734326
  0
LINE
  5
3B0
100
AcDbEntity
  8
0
100
AcDbLine
 62
7
  6
CONTINUOUS
 10
7.2893864872
 20
4.2624960633
 11
7.2893864872
 21
4.3868123096
  0
LINE
  5
3B1
100
AcDbEntity
  8
03__ASM_ALL_CURVES
100
AcDbLine
 62
40
  6
CONTINUOUS
 10
7.2984126506
 20
3.1390114326
 11
7.2984126506
 21
3.0549489331
  0
LINE
  5
3B2
100
AcDbEntity
  8
03__ASM_ALL_CURVES
100
AcDbLine
 62
40
  6
CONTINUOUS
 10
7.3523040435
 20
5.4465317673
 11
7.3523040435
 21
5.4241150999
  0
LINE
  5
3B3
100
AcDbEntity
  8
03__ASM_ALL_CURVES
100
AcDbLine
 62
40
  6
CONTINUOUS
 10
7.3740689006
 20
3.1390114326
 11
7.3740689006
 21
3.0381364326
  0
LINE
  5
3B4
100
AcDbEntity
  8
03__ASM_ALL_CURVES
100
AcDbLine
 62
40
  6
CONTINUOUS
 10
7.3961352781
 20
3.1928114326
 11
7.3961352781
 21
3.2936864326
  0
LINE
  5
3B5
100
AcDbEntity
  8
03__ASM_ALL_CURVES
100
AcDbLine
 62
40
  6
CONTINUOUS
 10
7.4195540435
 20
5.5361984326
 11
7.4195540435
 21
5.4016984326
  0
LINE
  5
3B6
100
AcDbEntity
  8
03__ASM_ALL_CURVES
100
AcDbLine
 62
40
  6
CONTINUOUS
 10
7.6381165435
 20
5.4689484326
 11
7.6297102935
 21
5.4353234326
  0
LINE
  5
3B7
100
AcDbEntity
  8
03__ASM_ALL_CURVES
100
AcDbLine
 62
40
  6
CONTINUOUS
 10
7.1344907756
 20
3.0885739326
 11
7.1407954631
 21
3.1137926826
  0
LINE
  5
3B8
100
AcDbEntity
  8
03__ASM_ALL_CURVES
100
AcDbLine
 62
40
  6
CONTINUOUS
 10
8.6014868558
 20
4.4104301806
 11
8.5888774808
 21
4.4020239326
  0
LINE
  5
3B9
100
AcDbEntity
  8
03__ASM_ALL_CURVES
100
AcDbLine
 62
40
  6
CONTINUOUS
 10
8.6645337308
 20
4.4440551846
 11
8.6771431058
 21
4.4524614326
  0
LINE
  5
3BA
100
AcDbEntity
  8
03__ASM_ALL_CURVES
100
AcDbLine
 62
40
  6
CONTINUOUS
 10
8.7023618558
 20
4.3599926828
 11
8.6897524808
 21
4.3515864326
  0
LINE
  5
3BB
100
AcDbEntity
  8
03__ASM_ALL_CURVES
100
AcDbLine
 62
40
  6
CONTINUOUS
 10
8.8032368558
 20
4.4104301806
 11
8.7906274808
 21
4.4020239326
  0
LINE
  5
3BC
100
AcDbEntity
  8
03__ASM_ALL_CURVES
100
AcDbLine
 62
40
  6
CONTINUOUS
 10
2.6103540427
 20
5.3478984326
 11
2.7717540427
 21
5.3747984326
  0
LINE
  5
3BD
100
AcDbEntity
  8
03__ASM_ALL_CURVES
100
AcDbLine
 62
40
  6
CONTINUOUS
 10
2.7717540427
 20
5.3703150993
 11
2.6103540427
 21
5.3478984326
  0
LINE
  5
3BE
100
AcDbEntity
  8
03__ASM_ALL_CURVES
100
AcDbLine
 62
40
  6
CONTINUOUS
 10
2.7717540427
 20
5.3658317659
 11
2.6103540427
 21
5.3478984326
  0
LINE
  5
3BF
100
AcDbEntity
  8
03__ASM_ALL_CURVES
100
AcDbLine
 62
40
  6
CONTINUOUS
 10
7.0412727935
 20
5.4016984326
 11
7.0244602935
 21
5.4129067663
  0
LINE
  5
3C0
100
AcDbEntity
  8
03__ASM_ALL_CURVES
100
AcDbLine
 62
40
  6
CONTINUOUS
 10
6.8815540435
 20
5.5361984326
 11
6.9488040435
 21
5.4016984326
  0
LINE
  5
3C1
100
AcDbEntity
  8
03__ASM_ALL_CURVES
100
AcDbLine
 62
40
  6
CONTINUOUS
 10
7.0076477935
 20
5.4353234326
 11
6.9992415435
 21
5.4689484326
  0
LINE
  5
3C2
100
AcDbEntity
  8
03__ASM_ALL_CURVES
100
AcDbLine
 62
40
  6
CONTINUOUS
 10
7.4465727781
 20
3.2768739306
 11
7.4465727781
 21
3.2600614346
  0
LINE
  5
3C3
100
AcDbEntity
  8
03__ASM_ALL_CURVES
100
AcDbLine
 62
40
  6
CONTINUOUS
 10
7.4497251506
 20
3.1390114326
 11
7.4497251506
 21
3.0381364326
  0
LINE
  5
3C4
100
AcDbEntity
  8
03__ASM_ALL_CURVES
100
AcDbLine
 62
40
  6
CONTINUOUS
 10
7.4868040435
 20
5.5361984326
 11
7.4868040435
 21
5.4016984326
  0
LINE
  5
3C5
100
AcDbEntity
  8
03__ASM_ALL_CURVES
100
AcDbLine
 62
40
  6
CONTINUOUS
 10
7.5222290281
 20
3.2936864326
 11
7.5222290281
 21
3.1928114326
  0
LINE
  5
3C6
100
AcDbEntity
  8
03__ASM_ALL_CURVES
100
AcDbLine
 62
40
  6
CONTINUOUS
 10
7.5506001506
 20
3.0381364326
 11
7.5506001506
 21
3.1390114326
  0
LINE
  5
3C7
100
AcDbEntity
  8
0
100
AcDbLine
 62
7
  6
CONTINUOUS
 10
7.6183864872
 20
4.6280615
 11
7.6183864872
 21
4.4770477193
  0
LINE
  5
3C8
100
AcDbEntity
  8
0
100
AcDbLine
 62
7
  6
CONTINUOUS
 10
7.6183864872
 20
4.0213101415
 11
7.6183864872
 21
4.1723251354
  0
LINE
  5
3C9
100
AcDbEntity
  8
0
100
AcDbLine
 62
7
  6
CONTINUOUS
 10
7.6433864872
 20
4.6303330607
 11
7.6433864872
 21
4.4740045796
  0
LINE
  5
3CA
100
AcDbEntity
  8
0
100
AcDbLine
 62
7
  6
CONTINUOUS
 10
7.6433864872
 20
4.0190400379
 11
7.6433864872
 21
4.1753682871
  0
LINE
  5
3CB
100
AcDbEntity
  8
03__ASM_ALL_CURVES
100
AcDbLine
 62
40
  6
CONTINUOUS
 10
7.6483227781
 20
3.2768739306
 11
7.6483227781
 21
3.2600614346
  0
LINE
  5
3CC
100
AcDbEntity
  8
03__ASM_ALL_CURVES
100
AcDbLine
 62
40
  6
CONTINUOUS
 10
7.2101470256
 20
3.0885739326
 11
7.2038423381
 21
3.0633551826
  0
LINE
  5
3CD
100
AcDbEntity
  8
03__ASM_ALL_CURVES
100
AcDbLine
 62
40
  6
CONTINUOUS
 10
7.2826509031
 20
3.2432489326
 11
7.2889555906
 21
3.2684676826
  0
LINE
  5
3CE
100
AcDbEntity
  8
03__ASM_ALL_CURVES
100
AcDbLine
 62
40
  6
CONTINUOUS
 10
7.3583071531
 20
3.2432489326
 11
7.3520024656
 21
3.2180301826
  0
LINE
  5
3CF
100
AcDbEntity
  8
03__ASM_ALL_CURVES
100
AcDbLine
 62
40
  6
CONTINUOUS
 10
7.2448227781
 20
3.2600614346
 11
7.2385180906
 21
3.2516551806
  0
LINE
  5
3D0
100
AcDbEntity
  8
03__ASM_ALL_CURVES
100
AcDbLine
 62
40
  6
CONTINUOUS
 10
7.1407954631
 20
3.1137926826
 11
7.1534048381
 21
3.1306051846
  0
LINE
  5
3D1
100
AcDbEntity
  8
03__ASM_ALL_CURVES
100
AcDbLine
 62
40
  6
CONTINUOUS
 10
7.2889555906
 20
3.2684676826
 11
7.3015649656
 21
3.2852801846
  0
LINE
  5
3D2
100
AcDbEntity
  8
03__ASM_ALL_CURVES
100
AcDbLine
 62
40
  6
CONTINUOUS
 10
7.2038423381
 20
3.0633551826
 11
7.1912329631
 21
3.0465426828
  0
LINE
  5
3D3
100
AcDbEntity
  8
03__ASM_ALL_CURVES
100
AcDbLine
 62
40
  6
CONTINUOUS
 10
7.2385180906
 20
3.2516551806
 11
7.2259087156
 21
3.2432489326
  0
LINE
  5
3D4
100
AcDbEntity
  8
03__ASM_ALL_CURVES
100
AcDbLine
 62
40
  6
CONTINUOUS
 10
7.3015649656
 20
3.2852801846
 11
7.3141743406
 21
3.2936864326
  0
LINE
  5
3D5
100
AcDbEntity
  8
03__ASM_ALL_CURVES
100
AcDbLine
 62
40
  6
CONTINUOUS
 10
7.1534048381
 20
3.1306051846
 11
7.1660142131
 21
3.1390114326
  0
LINE
  5
3D6
100
AcDbEntity
  8
03__ASM_ALL_CURVES
100
AcDbLine
 62
40
  6
CONTINUOUS
 10
7.3393930906
 20
3.2012176828
 11
7.3267837156
 21
3.1928114326
  0
LINE
  5
3D7
100
AcDbEntity
  8
03__ASM_ALL_CURVES
100
AcDbLine
 62
40
  6
CONTINUOUS
 10
7.4402680906
 20
3.2516551806
 11
7.4276587156
 21
3.2432489326
  0
LINE
  5
3D8
100
AcDbEntity
  8
03__ASM_ALL_CURVES
100
AcDbLine
 62
40
  6
CONTINUOUS
 10
7.1912329631
 20
3.0465426828
 11
7.1786235881
 21
3.0381364326
  0
LINE
  5
3D9
100
AcDbEntity
  8
03__ASM_ALL_CURVES
100
AcDbLine
 62
40
  6
CONTINUOUS
 10
7.6041899656
 20
3.2852801846
 11
7.6167993406
 21
3.2936864326
  0
LINE
  5
3DA
100
AcDbEntity
  8
03__ASM_ALL_CURVES
100
AcDbLine
 62
40
  6
CONTINUOUS
 10
8.6771431058
 20
4.3515864326
 11
8.6645337308
 21
4.3599926828
  0
LINE
  5
3DB
100
AcDbEntity
  8
03__ASM_ALL_CURVES
100
AcDbLine
 62
40
  6
CONTINUOUS
 10
8.5888774808
 20
4.4524614326
 11
8.6014868558
 21
4.4440551846
  0
LINE
  5
3DC
100
AcDbEntity
  8
03__ASM_ALL_CURVES
100
AcDbLine
 62
40
  6
CONTINUOUS
 10
7.0580852935
 20
5.5361984326
 11
7.0748977935
 21
5.5249901019
  0
LINE
  5
3DD
100
AcDbEntity
  8
03__ASM_ALL_CURVES
100
AcDbLine
 62
40
  6
CONTINUOUS
 10
8.6897524808
 20
4.4524614326
 11
8.7023618558
 21
4.4440551846
  0
LINE
  5
3DE
100
AcDbEntity
  8
03__ASM_ALL_CURVES
100
AcDbLine
 62
40
  6
CONTINUOUS
 10
7.3102727935
 20
5.4016984326
 11
7.2934602935
 21
5.4129067663
  0
LINE
  5
3DF
100
AcDbEntity
  8
03__ASM_ALL_CURVES
100
AcDbLine
 62
40
  6
CONTINUOUS
 10
8.7906274808
 20
4.4524614326
 11
8.8032368558
 21
4.4440551846
  0
LINE
  5
3E0
100
AcDbEntity
  8
03__ASM_ALL_CURVES
100
AcDbLine
 62
40
  6
CONTINUOUS
 10
7.2934602935
 20
5.4913651019
 11
7.3438977935
 21
5.4577400979
  0
LINE
  5
3E1
100
AcDbEntity
  8
03__ASM_ALL_CURVES
100
AcDbLine
 62
40
  6
CONTINUOUS
 10
7.0244602935
 20
5.4129067663
 11
7.0076477935
 21
5.4353234326
  0
LINE
  5
3E2
100
AcDbEntity
  8
03__ASM_ALL_CURVES
100
AcDbLine
 62
40
  6
CONTINUOUS
 10
7.0748977935
 20
5.5249901019
 11
7.0833040435
 21
5.5137817633
  0
LINE
  5
3E3
100
AcDbEntity
  8
03__ASM_ALL_CURVES
100
AcDbLine
 62
40
  6
CONTINUOUS
 10
7.6766939006
 20
3.1390114326
 11
7.6766939006
 21
3.0381364326
  0
LINE
  5
3E4
100
AcDbEntity
  8
03__ASM_ALL_CURVES
100
AcDbLine
 62
40
  6
CONTINUOUS
 10
7.6885540435
 20
5.4241150999
 11
7.6885540435
 21
5.5361984326
  0
LINE
  5
3E5
100
AcDbEntity
  8
0
100
AcDbLine
 62
7
  6
CONTINUOUS
 10
7.6944912362
 20
4.6236399061
 11
7.6944912362
 21
4.4834179519
  0
LINE
  5
3E6
100
AcDbEntity
  8
0
100
AcDbLine
 62
7
  6
CONTINUOUS
 10
7.6944912362
 20
4.1659548972
 11
7.6944912362
 21
4.0257368613
  0
LINE
  5
3E7
100
AcDbEntity
  8
03__ASM_ALL_CURVES
100
AcDbLine
 62
40
  6
CONTINUOUS
 10
7.7558040435
 20
5.5361984326
 11
7.7558040435
 21
5.4241150999
  0
LINE
  5
3E8
100
AcDbEntity
  8
03__ASM_ALL_CURVES
100
AcDbLine
 62
40
  6
CONTINUOUS
 10
7.8230540435
 20
5.5361984326
 11
7.8230540435
 21
5.4016984326
  0
LINE
  5
3E9
100
AcDbEntity
  8
03__ASM_ALL_CURVES
100
AcDbLine
 62
40
  6
CONTINUOUS
 10
8.0332102935
 20
5.4689484326
 11
8.0248040435
 21
5.4353234326
  0
LINE
  5
3EA
100
AcDbEntity
  8
03__ASM_ALL_CURVES
100
AcDbLine
 62
40
  6
CONTINUOUS
 10
7.6041899656
 20
3.2180301826
 11
7.5978852781
 21
3.1928114326
  0
LINE
  5
3EB
100
AcDbEntity
  8
03__ASM_ALL_CURVES
100
AcDbLine
 62
40
  6
CONTINUOUS
 10
7.3520024656
 20
3.2180301826
 11
7.3393930906
 21
3.2012176828
  0
LINE
  5
3EC
100
AcDbEntity
  8
03__ASM_ALL_CURVES
100
AcDbLine
 62
40
  6
CONTINUOUS
 10
7.4465727781
 20
3.2600614346
 11
7.4402680906
 21
3.2516551806
  0
LINE
  5
3ED
100
AcDbEntity
  8
03__ASM_ALL_CURVES
100
AcDbLine
 62
40
  6
CONTINUOUS
 10
7.2984126506
 20
3.0549489331
 11
7.2921079631
 21
3.0465426828
  0
LINE
  5
3EE
100
AcDbEntity
  8
03__ASM_ALL_CURVES
100
AcDbLine
 62
40
  6
CONTINUOUS
 10
7.5978852781
 20
3.2768739306
 11
7.6041899656
 21
3.2852801846
  0
LINE
  5
3EF
100
AcDbEntity
  8
03__ASM_ALL_CURVES
100
AcDbLine
 62
40
  6
CONTINUOUS
 10
7.6167993406
 20
3.2348426816
 11
7.6041899656
 21
3.2180301826
  0
LINE
  5
3F0
100
AcDbEntity
  8
0
100
AcDbLine
 62
7
  6
CONTINUOUS
 10
8.1543540427
 20
3.6996864326
 11
8.1673540427
 21
3.7096864326
  0
LINE
  5
3F1
100
AcDbEntity
  8
03__ASM_ALL_CURVES
100
AcDbLine
 62
40
  6
CONTINUOUS
 10
7.2921079631
 20
3.0465426828
 11
7.2794985881
 21
3.0381364326
  0
LINE
  5
3F2
100
AcDbEntity
  8
03__ASM_ALL_CURVES
100
AcDbLine
 62
40
  6
CONTINUOUS
 10
7.6420180906
 20
3.2516551806
 11
7.6167993406
 21
3.2348426816
  0
LINE
  5
3F3
100
AcDbEntity
  8
03__ASM_ALL_CURVES
100
AcDbLine
 62
40
  6
CONTINUOUS
 10
7.3438977935
 20
5.5249901019
 11
7.3270852935
 21
5.5361984326
  0
LINE
  5
3F4
100
AcDbEntity
  8
03__ASM_ALL_CURVES
100
AcDbLine
 62
40
  6
CONTINUOUS
 10
7.5792727935
 20
5.4016984326
 11
7.5624602935
 21
5.4129067663
  0
LINE
  5
3F5
100
AcDbEntity
  8
03__ASM_ALL_CURVES
100
AcDbLine
 62
40
  6
CONTINUOUS
 10
7.7137727935
 20
5.4016984326
 11
7.6969602935
 21
5.4129067663
  0
LINE
  5
3F6
100
AcDbEntity
  8
03__ASM_ALL_CURVES
100
AcDbLine
 62
40
  6
CONTINUOUS
 10
7.5960852935
 20
5.5361984326
 11
7.6128977935
 21
5.5249901019
  0
LINE
  5
3F7
100
AcDbEntity
  8
0
100
AcDbLine
 62
7
  6
CONTINUOUS
 10
8.1543540427
 20
4.9496864326
 11
8.1673540427
 21
4.9396864326
  0
LINE
  5
3F8
100
AcDbEntity
  8
03__ASM_ALL_CURVES
100
AcDbLine
 62
40
  6
CONTINUOUS
 10
7.2934602935
 20
5.4129067663
 11
7.2766477935
 21
5.4353234326
  0
LINE
  5
3F9
100
AcDbEntity
  8
03__ASM_ALL_CURVES
100
AcDbLine
 62
40
  6
CONTINUOUS
 10
7.2850540435
 20
5.5025734326
 11
7.2934602935
 21
5.4913651019
  0
LINE
  5
3FA
100
AcDbEntity
  8
03__ASM_ALL_CURVES
100
AcDbLine
 62
40
  6
CONTINUOUS
 10
7.3438977935
 20
5.4577400979
 11
7.3523040435
 21
5.4465317673
  0
LINE
  5
3FB
100
AcDbEntity
  8
03__ASM_ALL_CURVES
100
AcDbLine
 62
40
  6
CONTINUOUS
 10
7.3523040435
 20
5.5137817633
 11
7.3438977935
 21
5.5249901019
  0
LINE
  5
3FC
100
AcDbEntity
  8
03__ASM_ALL_CURVES
100
AcDbLine
 62
40
  6
CONTINUOUS
 10
7.5624602935
 20
5.4129067663
 11
7.5456477935
 21
5.4353234326
  0
LINE
  5
3FD
100
AcDbEntity
  8
03__ASM_ALL_CURVES
100
AcDbLine
 62
40
  6
CONTINUOUS
 10
7.5456477935
 20
5.4353234326
 11
7.5372415435
 21
5.4689484326
  0
LINE
  5
3FE
100
AcDbEntity
  8
03__ASM_ALL_CURVES
100
AcDbLine
 62
40
  6
CONTINUOUS
 10
7.6297102935
 20
5.5025734326
 11
7.6381165435
 21
5.4689484326
  0
LINE
  5
3FF
100
AcDbEntity
  8
03__ASM_ALL_CURVES
100
AcDbLine
 62
40
  6
CONTINUOUS
 10
7.9575540435
 20
5.4016984326
 11
7.9575540435
 21
5.5361984326
  0
LINE
  5
400
100
AcDbEntity
  8
0
100
AcDbLine
 62
7
  6
CONTINUOUS
 10
7.9903540427
 20
3.7011915114
 11
7.9903540427
 21
4.9481813538
  0
LINE
  5
401
100
AcDbEntity
  8
03__ASM_ALL_CURVES
100
AcDbLine
 62
40
  6
CONTINUOUS
 10
8.0920540435
 20
5.4016984326
 11
8.0920540435
 21
5.5361984326
  0
LINE
  5
402
100
AcDbEntity
  8
0
100
AcDbLine
 62
7
  6
CONTINUOUS
 10
8.0953540427
 20
3.7011915114
 11
8.0953540427
 21
4.9481813538
  0
LINE
  5
403
100
AcDbEntity
  8
0
100
AcDbLine
 62
7
  6
CONTINUOUS
 10
8.1063540427
 20
3.6996864326
 11
8.1063540427
 21
4.9496864326
  0
LINE
  5
404
100
AcDbEntity
  8
03__ASM_ALL_CURVES
100
AcDbLine
 62
40
  6
CONTINUOUS
 10
7.6483227781
 20
3.2600614346
 11
7.6420180906
 21
3.2516551806
  0
LINE
  5
405
100
AcDbEntity
  8
03__ASM_ALL_CURVES
100
AcDbLine
 62
40
  6
CONTINUOUS
 10
8.6077915433
 20
4.4188364346
 11
8.6014868558
 21
4.4104301806
  0
LINE
  5
406
100
AcDbEntity
  8
03__ASM_ALL_CURVES
100
AcDbLine
 62
40
  6
CONTINUOUS
 10
8.6519243558
 20
4.4272426826
 11
8.6645337308
 21
4.4440551846
  0
LINE
  5
407
100
AcDbEntity
  8
03__ASM_ALL_CURVES
100
AcDbLine
 62
40
  6
CONTINUOUS
 10
8.7149712308
 20
4.3768051826
 11
8.7023618558
 21
4.3599926828
  0
LINE
  5
408
100
AcDbEntity
  8
0
100
AcDbLine
 62
7
  6
CONTINUOUS
 10
8.2953540427
 20
3.7321864326
 11
8.2643540427
 21
3.7011864326
  0
LINE
  5
409
100
AcDbEntity
  8
03__ASM_ALL_CURVES
100
AcDbLine
 62
40
  6
CONTINUOUS
 10
7.9911790435
 20
5.5361984326
 11
8.0079915435
 21
5.5249901019
  0
LINE
  5
40A
100
AcDbEntity
  8
0
100
AcDbLine
 62
7
  6
CONTINUOUS
 10
8.2953540427
 20
4.9171864326
 11
8.2643540427
 21
4.9481864326
  0
LINE
  5
40B
100
AcDbEntity
  8
03__ASM_ALL_CURVES
100
AcDbLine
 62
40
  6
CONTINUOUS
 10
7.6128977935
 20
5.5249901019
 11
7.6297102935
 21
5.5025734326
  0
LINE
  5
40C
100
AcDbEntity
  8
03__ASM_ALL_CURVES
100
AcDbLine
 62
40
  6
CONTINUOUS
 10
7.6969602935
 20
5.4129067663
 11
7.6885540435
 21
5.4241150999
  0
LINE
  5
40D
100
AcDbEntity
  8
0
100
AcDbLine
 62
7
  6
CONTINUOUS
 10
8.1543540427
 20
3.6996864326
 11
8.1543540427
 21
4.9496864326
  0
LINE
  5
40E
100
AcDbEntity
  8
0
100
AcDbLine
 62
7
  6
CONTINUOUS
 10
8.1673540427
 20
3.7096873676
 11
8.1673540427
 21
4.9396854976
  0
LINE
  5
40F
100
AcDbEntity
  8
0
100
AcDbLine
 62
7
  6
CONTINUOUS
 10
8.1773540427
 20
3.7011915114
 11
8.1773540427
 21
4.9481813538
  0
LINE
  5
410
100
AcDbEntity
  8
03__ASM_ALL_CURVES
100
AcDbLine
 62
40
  6
CONTINUOUS
 10
8.2265540435
 20
5.4016984326
 11
8.2265540435
 21
5.5361984326
  0
LINE
  5
411
100
AcDbEntity
  8
0
100
AcDbLine
 62
7
  6
CONTINUOUS
 10
8.2643540427
 20
3.7011864326
 11
8.2643540427
 21
4.9481864326
  0
LINE
  5
412
100
AcDbEntity
  8
03__ASM_ALL_CURVES
100
AcDbLine
 62
40
  6
CONTINUOUS
 10
8.2938040435
 20
5.5137817633
 11
8.2938040435
 21
5.4913651019
  0
LINE
  5
413
100
AcDbEntity
  8
0
100
AcDbLine
 62
7
  6
CONTINUOUS
 10
8.2953540427
 20
3.732193375
 11
8.2953540427
 21
4.9171794902
  0
LINE
  5
414
100
AcDbEntity
  8
03__ASM_ALL_CURVES
100
AcDbLine
 62
40
  6
CONTINUOUS
 10
8.8095415433
 20
4.4188364346
 11
8.8032368558
 21
4.4104301806
  0
LINE
  5
415
100
AcDbEntity
  8
03__ASM_ALL_CURVES
100
AcDbLine
 62
40
  6
CONTINUOUS
 10
8.2685852935
 20
5.5361984326
 11
8.2853977935
 21
5.5249901019
  0
LINE
  5
416
100
AcDbEntity
  8
03__ASM_ALL_CURVES
100
AcDbLine
 62
40
  6
CONTINUOUS
 10
8.6645337308
 20
4.3599926828
 11
8.6519243558
 21
4.3768051826
  0
LINE
  5
417
100
AcDbEntity
  8
03__ASM_ALL_CURVES
100
AcDbLine
 62
40
  6
CONTINUOUS
 10
8.6014868558
 20
4.4440551846
 11
8.6077915433
 21
4.4356489306
  0
LINE
  5
418
100
AcDbEntity
  8
03__ASM_ALL_CURVES
100
AcDbLine
 62
40
  6
CONTINUOUS
 10
8.7023618558
 20
4.4440551846
 11
8.7149712308
 21
4.4272426826
  0
LINE
  5
419
100
AcDbEntity
  8
03__ASM_ALL_CURVES
100
AcDbLine
 62
40
  6
CONTINUOUS
 10
8.8032368558
 20
4.4440551846
 11
8.8095415433
 21
4.4356489306
  0
LINE
  5
41A
100
AcDbEntity
  8
03__ASM_ALL_CURVES
100
AcDbLine
 62
40
  6
CONTINUOUS
 10
8.0079915435
 20
5.5249901019
 11
8.0248040435
 21
5.5025734326
  0
LINE
  5
41B
100
AcDbEntity
  8
03__ASM_ALL_CURVES
100
AcDbLine
 62
40
  6
CONTINUOUS
 10
8.6330102939
 20
4.2977864326
 11
8.6834477939
 21
4.1969114326
  0
LINE
  5
41C
100
AcDbEntity
  8
03__ASM_ALL_CURVES
100
AcDbLine
 62
40
  6
CONTINUOUS
 10
8.0248040435
 20
5.5025734326
 11
8.0332102935
 21
5.4689484326
  0
LINE
  5
41D
100
AcDbEntity
  8
03__ASM_ALL_CURVES
100
AcDbLine
 62
40
  6
CONTINUOUS
 10
8.5573540439
 20
4.2977864326
 11
8.5573540439
 21
4.1969114326
  0
LINE
  5
41E
100
AcDbEntity
  8
03__ASM_ALL_CURVES
100
AcDbLine
 62
40
  6
CONTINUOUS
 10
8.5573540433
 20
4.3515864326
 11
8.5573540433
 21
4.4524614326
  0
LINE
  5
41F
100
AcDbEntity
  8
03__ASM_ALL_CURVES
100
AcDbLine
 62
40
  6
CONTINUOUS
 10
8.6456196683
 20
4.4020239326
 11
8.6519243558
 21
4.4272426826
  0
LINE
  5
420
100
AcDbEntity
  8
03__ASM_ALL_CURVES
100
AcDbLine
 62
40
  6
CONTINUOUS
 10
8.2853977935
 20
5.5249901019
 11
8.2938040435
 21
5.5137817633
  0
LINE
  5
421
100
AcDbEntity
  8
03__ASM_ALL_CURVES
100
AcDbLine
 62
40
  6
CONTINUOUS
 10
8.2685852935
 20
5.4689484326
 11
8.2938040435
 21
5.4016984326
  0
LINE
  5
422
100
AcDbEntity
  8
03__ASM_ALL_CURVES
100
AcDbLine
 62
40
  6
CONTINUOUS
 10
8.6077915433
 20
4.4356489306
 11
8.6077915433
 21
4.4188364346
  0
LINE
  5
423
100
AcDbEntity
  8
03__ASM_ALL_CURVES
100
AcDbLine
 62
40
  6
CONTINUOUS
 10
8.6330102939
 20
4.1969114326
 11
8.6330102939
 21
4.2977864326
  0
LINE
  5
424
100
AcDbEntity
  8
03__ASM_ALL_CURVES
100
AcDbLine
 62
40
  6
CONTINUOUS
 10
8.6834477939
 20
4.1969114326
 11
8.6834477939
 21
4.2977864326
  0
LINE
  5
425
100
AcDbEntity
  8
03__ASM_ALL_CURVES
100
AcDbLine
 62
40
  6
CONTINUOUS
 10
8.7338852939
 20
4.2977864326
 11
8.7338852939
 21
4.1969114326
  0
LINE
  5
426
100
AcDbEntity
  8
03__ASM_ALL_CURVES
100
AcDbLine
 62
40
  6
CONTINUOUS
 10
8.7591040433
 20
4.3515864326
 11
8.7591040433
 21
4.4524614326
  0
LINE
  5
427
100
AcDbEntity
  8
03__ASM_ALL_CURVES
100
AcDbLine
 62
40
  6
CONTINUOUS
 10
8.7212759183
 20
4.4020239326
 11
8.7149712308
 21
4.3768051826
  0
LINE
  5
428
100
AcDbEntity
  8
03__ASM_ALL_CURVES
100
AcDbLine
 62
40
  6
CONTINUOUS
 10
8.7906274808
 20
4.4020239326
 11
8.8095415433
 21
4.3515864326
  0
LINE
  5
429
100
AcDbEntity
  8
03__ASM_ALL_CURVES
100
AcDbLine
 62
40
  6
CONTINUOUS
 10
8.6519243558
 20
4.3768051826
 11
8.6456196683
 21
4.4020239326
  0
LINE
  5
42A
100
AcDbEntity
  8
03__ASM_ALL_CURVES
100
AcDbLine
 62
40
  6
CONTINUOUS
 10
8.7149712308
 20
4.4272426826
 11
8.7212759183
 21
4.4020239326
  0
LINE
  5
42B
100
AcDbEntity
  8
03__ASM_ALL_CURVES
100
AcDbLine
 62
40
  6
CONTINUOUS
 10
8.8095415433
 20
4.4356489306
 11
8.8095415433
 21
4.4188364346
  0
LINE
  5
42C
100
AcDbEntity
  8
03__ASM_ALL_CURVES
100
AcDbLine
 62
40
  6
CONTINUOUS
 10
8.8347602939
 20
4.1969114326
 11
8.8347602939
 21
4.2977864326
  0
LINE
  5
42D
100
AcDbEntity
  8
03__ASM_ALL_CURVES
100
AcDbLine
 62
40
  6
CONTINUOUS
 10
8.8851977933
 20
4.4524614326
 11
8.8851977933
 21
4.3515864326
  0
LINE
  5
42E
100
AcDbEntity
  8
03__ASM_ALL_CURVES
100
AcDbLine
 62
40
  6
CONTINUOUS
 10
8.9608540439
 20
4.2977864326
 11
8.9608540439
 21
4.1969114326
  0
LINE
  5
42F
100
AcDbEntity
  8
03__ASM_ALL_CURVES
100
AcDbLine
 62
40
  6
CONTINUOUS
 10
8.9860727933
 20
4.4524614326
 11
8.9860727933
 21
4.3515864326
  0
ARC
  5
430
100
AcDbEntity
  8
0
100
AcDbCircle
 62
7
  6
CONTINUOUS
 10
3.1713540427
 20
4.5016864326
 40
0.094
100
AcDbArc
 50
90.0
 51
131.267427381
  0
ARC
  5
431
100
AcDbEntity
  8
0
100
AcDbCircle
 62
7
  6
CONTINUOUS
 10
3.1713540427
 20
4.1476864326
 40
0.094
100
AcDbArc
 50
228.732572619
 51
270.0
  0
CIRCLE
  5
432
100
AcDbEntity
  8
0
100
AcDbCircle
 62
7
  6
CONTINUOUS
 10
7.2873540427
 20
4.3246864326
 40
0.0625
  0
ARC
  5
433
100
AcDbEntity
  8
0
100
AcDbCircle
 62
7
  6
CONTINUOUS
 10
6.0517180155
 20
3.6666864326
 40
0.028
100
AcDbArc
 50
9.2483583379
 51
74.0465125094
  0
ARC
  5
434
100
AcDbEntity
  8
0
100
AcDbCircle
 62
7
  6
CONTINUOUS
 10
6.0517180155
 20
4.9826864326
 40
0.028
100
AcDbArc
 50
285.9534874906
 51
350.7516416621
  0
ARC
  5
435
100
AcDbEntity
  8
0
100
AcDbCircle
 62
7
  6
CONTINUOUS
 10
2.8593540427
 20
4.1631864326
 40
0.0175
100
AcDbArc
 50
180.0
 51
360.0
  0
SPLINE
  5
436
100
AcDbEntity
  8
0
100
AcDbSpline
 62
7
  6
CONTINUOUS
 70
0
 71
3
 72
20
 73
16
 74
14
 42
0.0000001
 43
0.0000001
 44
0.0000000001
 12
0.0
 22
0.0416605862
 32
0.0
 13
0.0
 23
-0.0416605862
 33
0.0
 40
0.0
 40
0.0
 40
0.0
 40
0.0
 40
0.0489307848
 40
0.1062135912
 40
0.175871992
 40
0.2580136346
 40
0.3503828832
 40
0.4493672053
 40
0.5506327947
 40
0.6496171168
 40
0.7419863654
 40
0.824128008
 40
0.8937864088
 40
0.9510692152
 40
1.0
 40
1.0
 40
1.0
 40
1.0
 10
2.8768540427
 20
4.4008100014
 30
0.0
 10
2.8768540427
 20
4.4014894965
 30
0.0
 10
2.8764325088
 20
4.4029755075
 30
0.0
 10
2.874797241
 20
4.4048539348
 30
0.0
 10
2.8723453205
 20
4.4064529351
 30
0.0
 10
2.8691860881
 20
4.4077276862
 30
0.0
 10
2.8654829945
 20
4.408619674
 30
0.0
 10
2.8614360855
 20
4.4090789117
 30
0.0
 10
2.8572719999
 20
4.4090789117
 30
0.0
 10
2.853225091
 20
4.408619674
 30
0.0
 10
2.8495219974
 20
4.4077276862
 30
0.0
 10
2.846362765
 20
4.4064529351
 30
0.0
 10
2.8439108445
 20
4.4048539348
 30
0.0
 10
2.8422755767
 20
4.4029755075
 30
0.0
 10
2.8418540427
 20
4.4014894965
 30
0.0
 10
2.8418540427
 20
4.4008100014
 30
0.0
 11
2.8768540427
 21
4.4008100014
 31
0.0
 11
2.8763455245
 21
4.4027840407
 31
0.0
 11
2.8748495232
 21
4.404643356
 31
0.0
 11
2.8724529808
 21
4.4062798906
 31
0.0
 11
2.8692951758
 21
4.4075985352
 31
0.0
 11
2.8655596283
 21
4.4085226549
 31
0.0
 11
2.8614634346
 21
4.4089985432
 31
0.0
 11
2.8572446508
 21
4.4089985432
 31
0.0
 11
2.8531484572
 21
4.4085226549
 31
0.0
 11
2.8494129097
 21
4.4075985352
 31
0.0
 11
2.8462551046
 21
4.4062798906
 31
0.0
 11
2.8438585623
 21
4.404643356
 31
0.0
 11
2.8423625609
 21
4.4027840407
 31
0.0
 11
2.8418540427
 21
4.4008100014
 31
0.0
  0
SPLINE
  5
437
100
AcDbEntity
  8
0
100
AcDbSpline
 62
7
  6
CONTINUOUS
 70
0
 71
3
 72
16
 73
12
 74
10
 42
0.0000001
 43
0.0000001
 44
0.0000000001
 12
0.0906480335
 22
0.2719441006
 32
0.0
 13
-0.0906480335
 23
0.2719441006
 33
0.0
 40
0.0
 40
0.0
 40
0.0
 40
0.0
 40
0.1184548733
 40
0.230565332
 40
0.3393089466
 40
0.4465959239
 40
0.5535015371
 40
0.6607803311
 40
0.769505023
 40
0.8815660643
 40
1.0
 40
1.0
 40
1.0
 40
1.0
 10
3.3594826324
 20
4.0436864326
 30
0.0
 10
3.3630618661
 20
4.0544241339
 30
0.0
 10
3.3694929528
 20
4.0755101808
 30
0.0
 10
3.3770123824
 20
4.1070712356
 30
0.0
 10
3.3821006099
 20
4.1380400537
 30
0.0
 10
3.3846874721
 20
4.1688231233
 30
0.0
 10
3.3846862838
 20
4.1995769243
 30
0.0
 10
3.3820974432
 20
4.2303572157
 30
0.0
 10
3.3770087084
 20
4.2613185175
 30
0.0
 10
3.3694904517
 20
4.2928710491
 30
0.0
 10
3.3630612335
 20
4.3139506292
 30
0.0
 10
3.3594826324
 20
4.3246864326
 30
0.0
 11
3.3594826324
 21
4.0436864326
 31
0.0
 11
3.3693211019
 21
4.0761854605
 31
0.0
 11
3.3767082724
 21
4.1074618509
 31
0.0
 11
3.3817128898
 21
4.1382293034
 31
0.0
 11
3.3842598551
 21
4.1688779246
 31
0.0
 11
3.384258685
 21
4.1995228731
 31
0.0
 11
3.3817097449
 21
4.2301689762
 31
0.0
 11
3.3767043058
 21
4.2609307994
 31
0.0
 11
3.3693195344
 21
4.292193201
 31
0.0
 11
3.3594826324
 21
4.3246864326
 31
0.0
  0
SPLINE
  5
438
100
AcDbEntity
  8
0
100
AcDbSpline
 62
7
  6
CONTINUOUS
 70
0
 71
3
 72
17
 73
13
 74
11
 42
0.0000001
 43
0.0000001
 44
0.0000000001
 12
-0.1487434696
 22
0.2576312467
 32
0.0
 13
0.1487434696
 23
0.2576312467
 33
0.0
 40
0.0
 40
0.0
 40
0.0
 40
0.0
 40
0.1169386465
 40
0.2216811606
 40
0.3184580982
 40
0.4103908543
 40
0.5000417254
 40
0.5896883004
 40
0.6816074548
 40
0.7783545182
 40
0.8830694657
 40
1.0
 40
1.0
 40
1.0
 40
1.0
 10
3.257824894
 20
4.0436864326
 30
0.0
 10
3.2520269407
 20
4.0537287824
 30
0.0
 10
3.2416871131
 20
4.0731586298
 30
0.0
 10
3.2293134897
 20
4.1022607074
 30
0.0
 10
3.2206600429
 20
4.1301022701
 30
0.0
 10
3.2155029383
 20
4.1572855897
 30
0.0
 10
3.213786058
 20
4.1841984746
 30
0.0
 10
3.2155059436
 20
4.2111097994
 30
0.0
 10
3.2206646953
 20
4.23828794
 30
0.0
 10
3.2293175471
 20
4.266122246
 30
0.0
 10
3.2416891345
 20
4.2952180857
 30
0.0
 10
3.2520273429
 20
4.3146447795
 30
0.0
 10
3.257824894
 20
4.3246864326
 30
0.0
 11
3.257824894
 21
4.0436864326
 31
0.0
 11
3.2415986626
 21
4.0744580896
 31
0.0
 11
3.2295139061
 21
4.1031787262
 31
0.0
 11
3.2210612328
 21
4.1306997948
 31
0.0
 11
3.2160283474
 21
4.15758151
 31
0.0
 11
3.2143540431
 21
4.1841988661
 31
0.0
 11
3.2160312854
 21
4.2108147566
 31
0.0
 11
3.2210659321
 21
4.2376920253
 31
0.0
 11
3.2295175471
 21
4.2652041219
 31
0.0
 11
3.2415996983
 21
4.2939169576
 31
0.0
 11
3.257824894
 21
4.3246864326
 31
0.0
  0
SPLINE
  5
439
100
AcDbEntity
  8
0
100
AcDbSpline
 62
7
  6
CONTINUOUS
 70
0
 71
3
 72
16
 73
12
 74
10
 42
0.0000001
 43
0.0000001
 44
0.0000000001
 12
0.0906480335
 22
0.2719441006
 32
0.0
 13
-0.0906480335
 23
0.2719441006
 33
0.0
 40
0.0
 40
0.0
 40
0.0
 40
0.0
 40
0.1184548733
 40
0.230565332
 40
0.3393089466
 40
0.4465959239
 40
0.5535015371
 40
0.6607803311
 40
0.769505023
 40
0.8815660643
 40
1.0
 40
1.0
 40
1.0
 40
1.0
 10
3.3594826324
 20
4.3246864326
 30
0.0
 10
3.3630618661
 20
4.3354241339
 30
0.0
 10
3.3694929528
 20
4.3565101808
 30
0.0
 10
3.3770123824
 20
4.3880712356
 30
0.0
 10
3.3821006099
 20
4.4190400537
 30
0.0
 10
3.3846874721
 20
4.4498231233
 30
0.0
 10
3.3846862838
 20
4.4805769243
 30
0.0
 10
3.3820974432
 20
4.5113572157
 30
0.0
 10
3.3770087084
 20
4.5423185175
 30
0.0
 10
3.3694904517
 20
4.5738710491
 30
0.0
 10
3.3630612335
 20
4.5949506292
 30
0.0
 10
3.3594826324
 20
4.6056864326
 30
0.0
 11
3.3594826324
 21
4.3246864326
 31
0.0
 11
3.3693211019
 21
4.3571854605
 31
0.0
 11
3.3767082724
 21
4.3884618509
 31
0.0
 11
3.3817128898
 21
4.4192293034
 31
0.0
 11
3.3842598551
 21
4.4498779246
 31
0.0
 11
3.384258685
 21
4.4805228731
 31
0.0
 11
3.3817097449
 21
4.5111689762
 31
0.0
 11
3.3767043058
 21
4.5419307994
 31
0.0
 11
3.3693195344
 21
4.573193201
 31
0.0
 11
3.3594826324
 21
4.6056864326
 31
0.0
  0
SPLINE
  5
43A
100
AcDbEntity
  8
0
100
AcDbSpline
 62
7
  6
CONTINUOUS
 70
0
 71
3
 72
17
 73
13
 74
11
 42
0.0000001
 43
0.0000001
 44
0.0000000001
 12
-0.1487434696
 22
0.2576312467
 32
0.0
 13
0.1487434696
 23
0.2576312467
 33
0.0
 40
0.0
 40
0.0
 40
0.0
 40
0.0
 40
0.1169386465
 40
0.2216811606
 40
0.3184580982
 40
0.4103908543
 40
0.5000417254
 40
0.5896883004
 40
0.6816074548
 40
0.7783545182
 40
0.8830694657
 40
1.0
 40
1.0
 40
1.0
 40
1.0
 10
3.257824894
 20
4.3246864326
 30
0.0
 10
3.2520269407
 20
4.3347287824
 30
0.0
 10
3.2416871131
 20
4.3541586298
 30
0.0
 10
3.2293134897
 20
4.3832607074
 30
0.0
 10
3.2206600429
 20
4.4111022701
 30
0.0
 10
3.2155029383
 20
4.4382855897
 30
0.0
 10
3.213786058
 20
4.4651984746
 30
0.0
 10
3.2155059436
 20
4.4921097994
 30
0.0
 10
3.2206646953
 20
4.51928794
 30
0.0
 10
3.2293175471
 20
4.547122246
 30
0.0
 10
3.2416891345
 20
4.5762180857
 30
0.0
 10
3.2520273429
 20
4.5956447795
 30
0.0
 10
3.257824894
 20
4.6056864326
 30
0.0
 11
3.257824894
 21
4.3246864326
 31
0.0
 11
3.2415986626
 21
4.3554580896
 31
0.0
 11
3.2295139061
 21
4.3841787262
 31
0.0
 11
3.2210612328
 21
4.4116997948
 31
0.0
 11
3.2160283474
 21
4.43858151
 31
0.0
 11
3.2143540431
 21
4.4651988661
 31
0.0
 11
3.2160312854
 21
4.4918147566
 31
0.0
 11
3.2210659321
 21
4.5186920253
 31
0.0
 11
3.2295175471
 21
4.5462041219
 31
0.0
 11
3.2415996983
 21
4.5749169576
 31
0.0
 11
3.257824894
 21
4.6056864326
 31
0.0
  0
SPLINE
  5
43B
100
AcDbEntity
  8
0
100
AcDbSpline
 62
7
  6
CONTINUOUS
 70
0
 71
3
 72
15
 73
11
 74
9
 42
0.0000001
 43
0.0000001
 44
0.0000000001
 12
0.0
 22
0.1617702498
 32
0.0
 13
0.0
 23
-0.1617702498
 33
0.0
 40
0.0
 40
0.0
 40
0.0
 40
0.0
 40
0.125
 40
0.25
 40
0.375
 40
0.5
 40
0.625
 40
0.75
 40
0.875
 40
1.0
 40
1.0
 40
1.0
 40
1.0
 10
6.0093540427
 20
5.0061864326
 30
0.0
 10
6.0093540427
 20
5.0129268597
 30
0.0
 10
6.0066725341
 20
5.0264077138
 30
0.0
 10
5.9952180984
 20
5.0435504883
 30
0.0
 10
5.978075324
 20
5.055004924
 30
0.0
 10
5.9578540427
 20
5.0590271869
 30
0.0
 10
5.9376327615
 20
5.055004924
 30
0.0
 10
5.920489987
 20
5.0435504883
 30
0.0
 10
5.9090355513
 20
5.0264077138
 30
0.0
 10
5.9063540427
 20
5.0129268597
 30
0.0
 10
5.9063540427
 20
5.0061864326
 30
0.0
 11
6.0093540427
 21
5.0061864326
 31
0.0
 11
6.0054338387
 21
5.0258946294
 31
0.0
 11
5.994270042
 21
5.0426024318
 31
0.0
 11
5.9775622395
 21
5.0537662285
 31
0.0
 11
5.9578540427
 21
5.0576864326
 31
0.0
 11
5.938145846
 21
5.0537662285
 31
0.0
 11
5.9214380435
 21
5.0426024318
 31
0.0
 11
5.9102742468
 21
5.0258946294
 31
0.0
 11
5.9063540427
 21
5.0061864326
 31
0.0
  0
SPLINE
  5
43C
100
AcDbEntity
  8
0
100
AcDbSpline
 62
7
  6
CONTINUOUS
 70
0
 71
3
 72
15
 73
11
 74
9
 42
0.0000001
 43
0.0000001
 44
0.0000000001
 12
0.0
 22
-0.1617702498
 32
0.0
 13
0.0
 23
0.1617702498
 33
0.0
 40
0.0
 40
0.0
 40
0.0
 40
0.0
 40
0.125
 40
0.25
 40
0.375
 40
0.5
 40
0.625
 40
0.75
 40
0.875
 40
1.0
 40
1.0
 40
1.0
 40
1.0
 10
6.0093540427
 20
3.6431864326
 30
0.0
 10
6.0093540427
 20
3.6364460055
 30
0.0
 10
6.0066725341
 20
3.6229651514
 30
0.0
 10
5.9952180984
 20
3.6058223769
 30
0.0
 10
5.978075324
 20
3.5943679412
 30
0.0
 10
5.9578540427
 20
3.5903456783
 30
0.0
 10
5.9376327615
 20
3.5943679412
 30
0.0
 10
5.920489987
 20
3.6058223769
 30
0.0
 10
5.9090355513
 20
3.6229651514
 30
0.0
 10
5.9063540427
 20
3.6364460055
 30
0.0
 10
5.9063540427
 20
3.6431864326
 30
0.0
 11
6.0093540427
 21
3.6431864326
 31
0.0
 11
6.0054338387
 21
3.6234782358
 31
0.0
 11
5.994270042
 21
3.6067704334
 31
0.0
 11
5.9775622395
 21
3.5956066367
 31
0.0
 11
5.9578540427
 21
3.5916864326
 31
0.0
 11
5.938145846
 21
3.5956066367
 31
0.0
 11
5.9214380435
 21
3.6067704334
 31
0.0
 11
5.9102742468
 21
3.6234782358
 31
0.0
 11
5.9063540427
 21
3.6431864326
 31
0.0
  0
SPLINE
  5
43D
100
AcDbEntity
  8
0
100
AcDbSpline
 62
7
  6
CONTINUOUS
 70
0
 71
3
 72
15
 73
11
 74
9
 42
0.0000001
 43
0.0000001
 44
0.0000000001
 12
0.1878703292
 22
0.0
 32
0.0
 13
0.0000105045
 23
0.1883237632
 33
0.0
 40
0.0
 40
0.0
 40
0.0
 40
0.0
 40
0.1376183672
 40
0.2759518831
 40
0.4147899991
 40
0.552589429
 40
0.6870508695
 40
0.8163246395
 40
0.9399738528
 40
1.0
 40
1.0
 40
1.0
 40
1.0
 10
7.6463540427
 20
4.4737002634
 30
0.0
 10
7.6549721787
 20
4.4737002634
 30
0.0
 10
7.6723046459
 20
4.4754795073
 30
0.0
 10
7.6972324145
 20
4.4833687155
 30
0.0
 10
7.7200890944
 20
4.4961034883
 30
0.0
 10
7.7397657453
 20
4.5129715904
 30
0.0
 10
7.7553075787
 20
4.5329600786
 30
0.0
 10
7.7660299858
 20
4.5549232766
 30
0.0
 10
7.7706593867
 20
4.5741368768
 30
0.0
 10
7.7713525765
 20
4.585668302
 30
0.0
 10
7.7713527866
 20
4.5894364187
 30
0.0
 11
7.6463540427
 21
4.4737002634
 31
0.0
 11
7.6720735718
 21
4.4763377306
 31
0.0
 11
7.6968557015
 21
4.4841647263
 31
0.0
 11
7.7196434519
 21
4.4968560882
 31
0.0
 11
7.7392868319
 21
4.5137187135
 31
0.0
 11
7.7547524307
 21
4.5336924286
 31
0.0
 11
7.7653342238
 21
4.5555526603
 31
0.0
 11
7.7706833447
 21
4.5781584264
 31
0.0
 11
7.7713527866
 21
4.5894364187
 31
0.0
  0
SPLINE
  5
43E
100
AcDbEntity
  8
0
100
AcDbSpline
 62
7
  6
CONTINUOUS
 70
0
 71
3
 72
14
 73
10
 74
8
 42
0.0000001
 43
0.0000001
 44
0.0000000001
 12
0.0770732886
 22
0.0
 32
0.0
 13
0.0000591232
 23
0.0778943062
 33
0.0
 40
0.0
 40
0.0
 40
0.0
 40
0.0
 40
0.1940905348
 40
0.3814631656
 40
0.5553300623
 40
0.7096663491
 40
0.840959193
 40
0.9507259767
 40
1.0
 40
1.0
 40
1.0
 40
1.0
 10
7.2873540427
 20
4.7487912393
 30
0.0
 10
7.2923404413
 20
4.7487912393
 30
0.0
 10
7.3021560991
 20
4.7494961201
 30
0.0
 10
7.3161349501
 20
4.7525997133
 30
0.0
 10
7.3285125711
 20
4.7574871047
 30
0.0
 10
7.3385995177
 20
4.7637726521
 30
0.0
 10
7.3458676772
 20
4.7710249304
 30
0.0
 10
7.3493527228
 20
4.7778307944
 30
0.0
 10
7.3498380409
 20
4.7819675043
 30
0.0
 10
7.349839012
 20
4.7832468929
 30
0.0
 11
7.2873540427
 21
4.7487912393
 31
0.0
 11
7.3022737133
 21
4.7498779639
 31
0.0
 11
7.3163617151
 21
4.7530533309
 31
0.0
 11
7.3287921542
 21
4.7580590687
 31
0.0
 11
7.3388076381
 21
4.7644766997
 31
0.0
 11
7.3458072597
 21
4.7717844301
 31
0.0
 11
7.3494006556
 21
4.7794434495
 31
0.0
 11
7.349839012
 21
4.7832468929
 31
0.0
  0
SPLINE
  5
43F
100
AcDbEntity
  8
0
100
AcDbSpline
 62
7
  6
CONTINUOUS
 70
0
 71
3
 72
15
 73
11
 74
9
 42
0.0000001
 43
0.0000001
 44
0.0000000001
 12
-0.18787033
 22
0.0
 32
0.0
 13
-0.0000105029
 23
-0.1883237639
 33
0.0
 40
0.0
 40
0.0
 40
0.0
 40
0.0
 40
0.1376183695
 40
0.2759518888
 40
0.414790008
 40
0.5525894401
 40
0.6870508826
 40
0.8163246563
 40
0.9399738716
 40
1.0
 40
1.0
 40
1.0
 40
1.0
 10
7.6463540427
 20
4.1756726018
 30
0.0
 10
7.6377359066
 20
4.1756726018
 30
0.0
 10
7.6204034389
 20
4.1738933578
 30
0.0
 10
7.5954756698
 20
4.1660041492
 30
0.0
 10
7.5726189894
 20
4.1532693758
 30
0.0
 10
7.5529423384
 20
4.1364012729
 30
0.0
 10
7.537400505
 20
4.1164127839
 30
0.0
 10
7.5266780984
 20
4.0944495851
 30
0.0
 10
7.5220486984
 20
4.0752359854
 30
0.0
 10
7.521355509
 20
4.0637045612
 30
0.0
 10
7.5213552988
 20
4.0599364457
 30
0.0
 11
7.6463540427
 21
4.1756726018
 31
0.0
 11
7.6206345131
 21
4.1730351345
 31
0.0
 11
7.5958523828
 21
4.1652081384
 31
0.0
 11
7.5730646319
 21
4.1525167759
 31
0.0
 11
7.5534212518
 21
4.1356541499
 31
0.0
 11
7.5379556532
 21
4.115680434
 31
0.0
 11
7.5273738604
 21
4.0938202013
 31
0.0
 11
7.5220247403
 21
4.0712144345
 31
0.0
 11
7.5213552988
 21
4.0599364457
 31
0.0
  0
SPLINE
  5
440
100
AcDbEntity
  8
0
100
AcDbSpline
 62
7
  6
CONTINUOUS
 70
0
 71
3
 72
14
 73
10
 74
8
 42
0.0000001
 43
0.0000001
 44
0.0000000001
 12
-0.0770732886
 22
0.0
 32
0.0
 13
-0.0000591232
 23
-0.0778943062
 33
0.0
 40
0.0
 40
0.0
 40
0.0
 40
0.0
 40
0.1940905348
 40
0.3814631656
 40
0.5553300623
 40
0.7096663491
 40
0.840959193
 40
0.9507259767
 40
1.0
 40
1.0
 40
1.0
 40
1.0
 10
7.2873540427
 20
3.9005816259
 30
0.0
 10
7.2823676441
 20
3.9005816259
 30
0.0
 10
7.2725519864
 20
3.8998767451
 30
0.0
 10
7.2585731353
 20
3.8967731518
 30
0.0
 10
7.2461955144
 20
3.8918857605
 30
0.0
 10
7.2361085677
 20
3.8856002131
 30
0.0
 10
7.2288404083
 20
3.8783479348
 30
0.0
 10
7.2253553626
 20
3.8715420708
 30
0.0
 10
7.2248700446
 20
3.8674053609
 30
0.0
 10
7.2248690735
 20
3.8661259722
 30
0.0
 11
7.2873540427
 21
3.9005816259
 31
0.0
 11
7.2724343722
 21
3.8994949013
 31
0.0
 11
7.2583463704
 21
3.8963195343
 31
0.0
 11
7.2459159313
 21
3.8913137965
 31
0.0
 11
7.2359004474
 21
3.8848961655
 31
0.0
 11
7.2289008258
 21
3.8775884351
 31
0.0
 11
7.2253074299
 21
3.8699294157
 31
0.0
 11
7.2248690735
 21
3.8661259722
 31
0.0
  0
SPLINE
  5
441
100
AcDbEntity
  8
0
100
AcDbSpline
 62
7
  6
CONTINUOUS
 70
0
 71
3
 72
14
 73
10
 74
8
 42
0.0000001
 43
0.0000001
 44
0.0000000001
 12
-0.0000591323
 22
0.0778943044
 32
0.0
 13
-0.0770732871
 23
-0.0
 33
0.0
 40
0.0
 40
0.0
 40
0.0
 40
0.0
 40
0.0492740613
 40
0.1590406315
 40
0.2903335129
 40
0.4446695457
 40
0.6185364153
 40
0.8059090312
 40
1.0
 40
1.0
 40
1.0
 40
1.0
 10
7.349839012
 20
3.8661259739
 30
0.0
 10
7.3498380408
 20
3.8674053635
 30
0.0
 10
7.3493527224
 20
3.8715420687
 30
0.0
 10
7.3458676806
 20
3.8783479295
 30
0.0
 10
7.3385995309
 20
3.8856002021
 30
0.0
 10
7.3285125922
 20
3.8918857494
 30
0.0
 10
7.3161349804
 20
3.8967731427
 30
0.0
 10
7.3021561208
 20
3.8998767428
 30
0.0
 10
7.2923404524
 20
3.9005816259
 30
0.0
 10
7.2873540427
 20
3.9005816259
 30
0.0
 11
7.349839012
 21
3.8661259739
 31
0.0
 11
7.3494006546
 21
3.8699294201
 31
0.0
 11
7.3458072668
 21
3.877588425
 31
0.0
 11
7.3388076456
 21
3.8848961595
 31
0.0
 11
7.3287921804
 21
3.8913137831
 31
0.0
 11
7.3163617455
 21
3.8963195249
 31
0.0
 11
7.3022737462
 21
3.8994948965
 31
0.0
 11
7.2873540427
 21
3.9005816259
 31
0.0
  0
SPLINE
  5
442
100
AcDbEntity
  8
0
100
AcDbSpline
 62
7
  6
CONTINUOUS
 70
0
 71
3
 72
14
 73
10
 74
8
 42
0.0000001
 43
0.0000001
 44
0.0000000001
 12
0.0000591323
 22
-0.0778943044
 32
0.0
 13
0.0770732871
 23
0.0
 33
0.0
 40
0.0
 40
0.0
 40
0.0
 40
0.0
 40
0.0492740613
 40
0.1590406315
 40
0.2903335129
 40
0.4446695457
 40
0.6185364153
 40
0.8059090312
 40
1.0
 40
1.0
 40
1.0
 40
1.0
 10
7.2248690735
 20
4.7832468913
 30
0.0
 10
7.2248700447
 20
4.7819675017
 30
0.0
 10
7.2253553631
 20
4.7778307965
 30
0.0
 10
7.2288404049
 20
4.7710249357
 30
0.0
 10
7.2361085546
 20
4.7637726631
 30
0.0
 10
7.2461954932
 20
4.7574871158
 30
0.0
 10
7.2585731051
 20
4.7525997225
 30
0.0
 10
7.2725519646
 20
4.7494961224
 30
0.0
 10
7.2823676331
 20
4.7487912393
 30
0.0
 10
7.2873540427
 20
4.7487912393
 30
0.0
 11
7.2248690735
 21
4.7832468913
 31
0.0
 11
7.2253074309
 21
4.7794434451
 31
0.0
 11
7.2289008187
 21
4.7717844402
 31
0.0
 11
7.2359004399
 21
4.7644767057
 31
0.0
 11
7.245915905
 21
4.7580590821
 31
0.0
 11
7.25834634
 21
4.7530533403
 31
0.0
 11
7.2724343393
 21
4.7498779687
 31
0.0
 11
7.2873540427
 21
4.7487912393
 31
0.0
  0
SPLINE
  5
443
100
AcDbEntity
  8
0
100
AcDbSpline
 62
7
  6
CONTINUOUS
 70
0
 71
3
 72
15
 73
11
 74
9
 42
0.0000001
 43
0.0000001
 44
0.0000000001
 12
0.0000105068
 22
-0.1883237609
 32
0.0
 13
0.1878703277
 23
0.0
 33
0.0
 40
0.0
 40
0.0
 40
0.0
 40
0.0
 40
0.0600257882
 40
0.1836747298
 40
0.3129482837
 40
0.4474096038
 40
0.5852089791
 40
0.7240471646
 40
0.862380959
 40
1.0
 40
1.0
 40
1.0
 40
1.0
 10
7.5213552988
 20
4.5894364173
 30
0.0
 10
7.5213555091
 20
4.5856683233
 30
0.0
 10
7.5220486924
 20
4.5741369378
 30
0.0
 10
7.5266780633
 20
4.5549233861
 30
0.0
 10
7.5374004266
 20
4.5329602102
 30
0.0
 10
7.5529422173
 20
4.5129717205
 30
0.0
 10
7.5726188385
 20
4.4961035944
 30
0.0
 10
7.5954755163
 20
4.4833687799
 30
0.0
 10
7.6204033371
 20
4.4754795223
 30
0.0
 10
7.6377358646
 20
4.4737002634
 30
0.0
 10
7.6463540427
 20
4.4737002634
 30
0.0
 11
7.5213552988
 21
4.5894364173
 31
0.0
 11
7.522024733
 21
4.5781584923
 31
0.0
 11
7.527373822
 21
4.5555527714
 31
0.0
 11
7.537955571
 21
4.5336925636
 31
0.0
 11
7.5534211283
 21
4.5137188453
 31
0.0
 11
7.5730644758
 21
4.4968561982
 31
0.0
 11
7.5958522193
 21
4.4841647973
 31
0.0
 11
7.6206343892
 21
4.4763377564
 31
0.0
 11
7.6463540427
 21
4.4737002634
 31
0.0
  0
SPLINE
  5
444
100
AcDbEntity
  8
0
100
AcDbSpline
 62
7
  6
CONTINUOUS
 70
0
 71
3
 72
14
 73
10
 74
8
 42
0.0000001
 43
0.0000001
 44
0.0000000001
 12
-0.0471697484
 22
0.1415590525
 32
0.0
 13
-0.1488451818
 23
-0.0
 33
0.0
 40
0.0
 40
0.0
 40
0.0
 40
0.0
 40
0.0879579892
 40
0.2270412021
 40
0.3694930805
 40
0.517931504
 40
0.6734138276
 40
0.8351466516
 40
1.0
 40
1.0
 40
1.0
 40
1.0
 10
7.7668770141
 20
4.5599789155
 30
0.0
 10
7.7654940287
 20
4.564129332
 30
0.0
 10
7.761107064
 20
4.5745710062
 30
0.0
 10
7.7507131143
 20
4.5898805274
 30
0.0
 10
7.7349393868
 20
4.6044872619
 30
0.0
 10
7.7158838234
 20
4.6160293276
 30
0.0
 10
7.6942262683
 20
4.624374616
 30
0.0
 10
7.670760549
 20
4.6294197801
 30
0.0
 10
7.6545332516
 20
4.6305410061
 30
0.0
 10
7.6463540427
 20
4.6305410061
 30
0.0
 11
7.7668770141
 21
4.5599789155
 31
0.0
 11
7.761794784
 21
4.5720644843
 31
0.0
 11
7.7502200624
 21
4.5892281984
 31
0.0
 11
7.7347401332
 21
4.6037178738
 31
0.0
 11
7.715907565
 21
4.6152718522
 31
0.0
 11
7.6943518236
 21
4.6236943792
 31
0.0
 11
7.6708315128
 21
4.6288238635
 31
0.0
 11
7.6463540427
 21
4.6305410061
 31
0.0
  0
SPLINE
  5
445
100
AcDbEntity
  8
0
100
AcDbSpline
 62
7
  6
CONTINUOUS
 70
0
 71
3
 72
14
 73
10
 74
8
 42
0.0000001
 43
0.0000001
 44
0.0000000001
 12
0.0471695195
 22
-0.1415595304
 32
0.0
 13
0.1488454196
 23
0.0
 33
0.0
 40
0.0
 40
0.0
 40
0.0
 40
0.0
 40
0.0879813733
 40
0.227053996
 40
0.3695054417
 40
0.5179442964
 40
0.6734212226
 40
0.8351477427
 40
1.0
 40
1.0
 40
1.0
 40
1.0
 10
7.5258309986
 20
4.0893941748
 30
0.0
 10
7.5272143449
 20
4.0852426409
 30
0.0
 10
7.5316017598
 20
4.074800413
 30
0.0
 10
7.5419964885
 20
4.0594906825
 30
0.0
 10
7.5577701029
 20
4.044884555
 30
0.0
 10
7.5768256366
 20
4.0333428975
 30
0.0
 10
7.5984827746
 20
4.0249980136
 30
0.0
 10
7.6219479187
 20
4.019953056
 30
0.0
 10
7.6381748749
 20
4.0188318591
 30
0.0
 10
7.6463540427
 20
4.0188318591
 30
0.0
 11
7.5258309986
 21
4.0893941748
 31
0.0
 11
7.5309148026
 21
4.0773054612
 31
0.0
 11
7.542489148
 21
4.0601433548
 31
0.0
 11
7.5579693051
 21
4.0456539675
 31
0.0
 11
7.5768021309
 21
4.0341002186
 31
0.0
 11
7.5983572447
 21
4.0256781913
 31
0.0
 11
7.6218766949
 21
4.0205489843
 31
0.0
 11
7.6463540427
 21
4.0188318591
 31
0.0
  0
SPLINE
  5
446
100
AcDbEntity
  8
0
100
AcDbSpline
 62
7
  6
CONTINUOUS
 70
0
 71
3
 72
15
 73
11
 74
9
 42
0.0000001
 43
0.0000001
 44
0.0000000001
 12
-0.0000105051
 22
0.1883237616
 32
0.0
 13
-0.1878703285
 23
-0.0
 33
0.0
 40
0.0
 40
0.0
 40
0.0
 40
0.0
 40
0.0600257701
 40
0.1836747142
 40
0.3129482716
 40
0.4474095936
 40
0.5852089711
 40
0.7240471597
 40
0.862380957
 40
1.0
 40
1.0
 40
1.0
 40
1.0
 10
7.7713527866
 20
4.0599364471
 30
0.0
 10
7.7713525764
 20
4.06370454
 30
0.0
 10
7.7706593934
 20
4.0752359246
 30
0.0
 10
7.7660300235
 20
4.0944494757
 30
0.0
 10
7.7553076604
 20
4.1164126525
 30
0.0
 10
7.7397658698
 20
4.136401143
 30
0.0
 10
7.7200892485
 20
4.1532692698
 30
0.0
 10
7.6972325702
 20
4.1660040848
 30
0.0
 10
7.6723047489
 20
4.1738933428
 30
0.0
 10
7.654972221
 20
4.1756726018
 30
0.0
 10
7.6463540427
 20
4.1756726018
 30
0.0
 11
7.7713527866
 21
4.0599364471
 31
0.0
 11
7.770683353
 21
4.0712143687
 31
0.0
 11
7.7653342647
 21
4.0938200904
 31
0.0
 11
7.754752516
 21
4.1156802992
 31
0.0
 11
7.7392869588
 21
4.1356540182
 31
0.0
 11
7.7196436112
 21
4.152516666
 31
0.0
 11
7.6968558673
 21
4.1652080674
 31
0.0
 11
7.6720736967
 21
4.1730351087
 31
0.0
 11
7.6463540427
 21
4.1756726018
 31
0.0
  0
SPLINE
  5
447
100
AcDbEntity
  8
0
100
AcDbSpline
 62
7
  6
CONTINUOUS
 70
0
 71
3
 72
23
 73
19
 74
17
 42
0.0000001
 43
0.0000001
 44
0.0000000001
 12
0.2455900987
 22
0.0579769283
 32
0.0
 13
0.2455900994
 23
-0.0579769283
 33
0.0
 40
0.0
 40
0.0
 40
0.0
 40
0.0
 40
0.0098042545
 40
0.0387796668
 40
0.0854969235
 40
0.1479251806
 40
0.2235883579
 40
0.3096508096
 40
0.4029867801
 40
0.5000546532
 40
0.5971400527
 40
0.6905077727
 40
0.7765890387
 40
0.8522352198
 40
0.914616919
 40
0.9612785073
 40
0.9902137163
 40
1.0
 40
1.0
 40
1.0
 40
1.0
 10
7.5213540427
 20
3.7951864326
 30
0.0
 10
7.522156652
 20
3.7953759061
 30
0.0
 10
7.5253328156
 20
3.7961188925
 30
0.0
 10
7.5323484334
 20
3.7977002559
 30
0.0
 10
7.5437222989
 20
3.8000725584
 30
0.0
 10
7.5590129137
 20
3.8028838746
 30
0.0
 10
7.5776572153
 20
3.8057159265
 30
0.0
 10
7.5989800753
 20
3.8081388006
 30
0.0
 10
7.6221852366
 20
3.8097712746
 30
0.0
 10
7.6463693129
 20
3.8103470933
 30
0.0
 10
7.67055603
 20
3.8097698103
 30
0.0
 10
7.6937667986
 20
3.8081353292
 30
0.0
 10
7.7150922743
 20
3.8057104422
 30
0.0
 10
7.7337326334
 20
3.802877515
 30
0.0
 10
7.7490132104
 20
3.8000670866
 30
0.0
 10
7.7603752579
 20
3.7976968119
 30
0.0
 10
7.7673815084
 20
3.7961174425
 30
0.0
 10
7.7705529046
 20
3.7953755588
 30
0.0
 10
7.7713540427
 20
3.7951864326
 30
0.0
 11
7.5213540427
 21
3.7951864326
 31
0.0
 11
7.523763026
 21
3.7957499455
 31
0.0
 11
7.5308958103
 21
3.7973574523
 31
0.0
 11
7.5424363487
 21
3.7997634505
 31
0.0
 11
7.5579302736
 21
3.8026097975
 31
0.0
 11
7.5768071983
 21
3.8054735537
 31
0.0
 11
7.5983858897
 21
3.8079213083
 31
0.0
 11
7.621880547
 21
3.8095707155
 31
0.0
 11
7.6463678334
 21
3.8101524199
 31
0.0
 11
7.6708595077
 21
3.8095691956
 31
0.0
 11
7.6943620432
 21
3.807917608
 31
0.0
 11
7.715945258
 21
3.8054676086
 31
0.0
 11
7.734817721
 21
3.8026030366
 31
0.0
 11
7.7502999177
 21
3.7997578709
 31
0.0
 11
7.7618266153
 21
3.7973543124
 31
0.0
 11
7.7689494771
 21
3.7957489216
 31
0.0
 11
7.7713540427
 21
3.7951864326
 31
0.0
  0
SPLINE
  5
448
100
AcDbEntity
  8
0
100
AcDbSpline
 62
7
  6
CONTINUOUS
 70
0
 71
3
 72
14
 73
10
 74
8
 42
0.0000001
 43
0.0000001
 44
0.0000000001
 12
-0.1488424366
 22
0.0
 32
0.0
 13
-0.0471737543
 23
-0.1415544589
 33
0.0
 40
0.0
 40
0.0
 40
0.0
 40
0.0
 40
0.1646742413
 40
0.3262928316
 40
0.4816744607
 40
0.6300690911
 40
0.7725789622
 40
0.9117708222
 40
1.0
 40
1.0
 40
1.0
 40
1.0
 10
7.6463540427
 20
4.6305410061
 30
0.0
 10
7.638183871
 20
4.6305410061
 30
0.0
 10
7.6219715094
 20
4.6294220352
 30
0.0
 10
7.5985244451
 20
4.624386223
 30
0.0
 10
7.5768764618
 20
4.6160537847
 30
0.0
 10
7.5578189181
 20
4.6045245799
 30
0.0
 10
7.542031621
 20
4.5899240983
 30
0.0
 10
7.5316164526
 20
4.5746026151
 30
0.0
 10
7.5272193154
 20
4.5641446702
 30
0.0
 10
7.5258319483
 20
4.5599815924
 30
0.0
 11
7.6463540427
 21
4.6305410061
 31
0.0
 11
7.6219034827
 21
4.6288276832
 31
0.0
 11
7.5983990648
 21
4.6237072073
 31
0.0
 11
7.5768544907
 21
4.6152984593
 31
0.0
 11
7.5580215187
 21
4.6037583893
 31
0.0
 11
7.5425263825
 21
4.5892729074
 31
0.0
 11
7.530932985
 21
4.5721027476
 31
0.0
 11
7.5258319483
 21
4.5599815924
 31
0.0
  0
SPLINE
  5
449
100
AcDbEntity
  8
0
100
AcDbSpline
 62
7
  6
CONTINUOUS
 70
0
 71
3
 72
14
 73
10
 74
8
 42
0.0000001
 43
0.0000001
 44
0.0000000001
 12
0.1488426346
 22
0.0
 32
0.0
 13
0.0471735693
 23
0.1415548607
 33
0.0
 40
0.0
 40
0.0
 40
0.0
 40
0.0
 40
0.16467315
 40
0.3262856518
 40
0.4816624547
 40
0.6300579167
 40
0.772567179
 40
0.9117494813
 40
1.0
 40
1.0
 40
1.0
 40
1.0
 10
7.6463540427
 20
4.0188318591
 30
0.0
 10
7.6545241712
 20
4.0188318591
 30
0.0
 10
7.6707361979
 20
4.019950801
 30
0.0
 10
7.694182719
 20
4.0249864148
 30
0.0
 10
7.7158303319
 20
4.0333184766
 30
0.0
 10
7.7348878633
 20
4.0448473117
 30
0.0
 10
7.7506750682
 20
4.0594472461
 30
0.0
 10
7.7610909481
 20
4.074768911
 30
0.0
 10
7.7654885003
 20
4.0852273629
 30
0.0
 10
7.7668761976
 20
4.0893914596
 30
0.0
 11
7.6463540427
 21
4.0188318591
 31
0.0
 11
7.6708044739
 21
4.0205451637
 31
0.0
 11
7.694308056
 21
4.0256653689
 31
0.0
 11
7.7158520721
 21
4.0340736557
 31
0.0
 11
7.7346853347
 21
4.0456135446
 31
0.0
 11
7.7501806555
 21
4.0600987376
 31
0.0
 11
7.7617737212
 21
4.0772674381
 31
0.0
 11
7.7668761976
 21
4.0893914596
 31
0.0
  0
SPLINE
  5
44A
100
AcDbEntity
  8
0
100
AcDbSpline
 62
7
  6
CONTINUOUS
 70
0
 71
3
 72
23
 73
19
 74
17
 42
0.0000001
 43
0.0000001
 44
0.0000000001
 12
-0.2455900987
 22
-0.0579769283
 32
0.0
 13
-0.2455900994
 23
0.0579769283
 33
0.0
 40
0.0
 40
0.0
 40
0.0
 40
0.0
 40
0.0098042545
 40
0.0387796668
 40
0.0854969235
 40
0.1479251806
 40
0.2235883579
 40
0.3096508096
 40
0.4029867801
 40
0.5000546532
 40
0.5971400527
 40
0.6905077727
 40
0.7765890387
 40
0.8522352198
 40
0.914616919
 40
0.9612785073
 40
0.9902137163
 40
1.0
 40
1.0
 40
1.0
 40
1.0
 10
7.7713540427
 20
4.8541864326
 30
0.0
 10
7.7705514335
 20
4.8539969591
 30
0.0
 10
7.7673752699
 20
4.8532539727
 30
0.0
 10
7.7603596521
 20
4.8516726092
 30
0.0
 10
7.7489857866
 20
4.8493003067
 30
0.0
 10
7.7336951718
 20
4.8464889906
 30
0.0
 10
7.7150508701
 20
4.8436569387
 30
0.0
 10
7.6937280102
 20
4.8412340646
 30
0.0
 10
7.6705228489
 20
4.8396015905
 30
0.0
 10
7.6463387726
 20
4.8390257718
 30
0.0
 10
7.6221520555
 20
4.8396030549
 30
0.0
 10
7.5989412869
 20
4.841237536
 30
0.0
 10
7.5776158112
 20
4.843662423
 30
0.0
 10
7.5589754521
 20
4.8464953502
 30
0.0
 10
7.5436948751
 20
4.8493057786
 30
0.0
 10
7.5323328275
 20
4.8516760533
 30
0.0
 10
7.525326577
 20
4.8532554227
 30
0.0
 10
7.5221551809
 20
4.8539973064
 30
0.0
 10
7.5213540427
 20
4.8541864326
 30
0.0
 11
7.7713540427
 21
4.8541864326
 31
0.0
 11
7.7689450594
 21
4.8536229197
 31
0.0
 11
7.7618122751
 21
4.8520154129
 31
0.0
 11
7.7502717368
 21
4.8496094147
 31
0.0
 11
7.7347778119
 21
4.8467630677
 31
0.0
 11
7.7159008872
 21
4.8438993115
 31
0.0
 11
7.6943221958
 21
4.8414515569
 31
0.0
 11
7.6708275385
 21
4.8398021497
 31
0.0
 11
7.646340252
 21
4.8392204453
 31
0.0
 11
7.6218485778
 21
4.8398036696
 31
0.0
 11
7.5983460423
 21
4.8414552572
 31
0.0
 11
7.5767628275
 21
4.8439052566
 31
0.0
 11
7.5578903645
 21
4.8467698286
 31
0.0
 11
7.5424081677
 21
4.8496149943
 31
0.0
 11
7.5308814702
 21
4.8520185528
 31
0.0
 11
7.5237586084
 21
4.8536239436
 31
0.0
 11
7.5213540427
 21
4.8541864326
 31
0.0
  0
SPLINE
  5
44B
100
AcDbEntity
  8
0
100
AcDbSpline
 62
7
  6
CONTINUOUS
 70
0
 71
3
 72
14
 73
10
 74
8
 42
0.0000001
 43
0.0000001
 44
0.0000000001
 12
0.0000568108
 22
0.0748477031
 32
0.0
 13
-0.0740587972
 23
-0.0
 33
0.0
 40
0.0
 40
0.0
 40
0.0
 40
0.0
 40
0.050187167
 40
0.1558384492
 40
0.2807426978
 40
0.4312452482
 40
0.60586377
 40
0.7983078976
 40
1.0
 40
1.0
 40
1.0
 40
1.0
 10
7.349839012
 20
4.7832468929
 30
0.0
 10
7.3498399624
 20
4.7844990243
 30
0.0
 10
7.3493985905
 20
4.7883803916
 30
0.0
 10
7.3459107128
 20
4.794660135
 30
0.0
 10
7.3384797004
 20
4.8006568095
 30
0.0
 10
7.3283433137
 20
4.805371232
 30
0.0
 10
7.3159849489
 20
4.8087772556
 30
0.0
 10
7.3020698818
 20
4.8108362401
 30
0.0
 10
7.2923330676
 20
4.8112912393
 30
0.0
 10
7.2873540427
 20
4.8112912393
 30
0.0
 11
7.349839012
 21
4.7832468929
 31
0.0
 11
7.3494006546
 21
4.7869579617
 31
0.0
 11
7.3458072668
 21
4.7939084227
 31
0.0
 11
7.3388076456
 21
4.7999559497
 31
0.0
 11
7.3287921804
 21
4.8048472296
 31
0.0
 11
7.3163617455
 21
4.8084140049
 31
0.0
 11
7.3022737462
 21
4.8105710693
 31
0.0
 11
7.2873540427
 21
4.8112912393
 31
0.0
  0
SPLINE
  5
44C
100
AcDbEntity
  8
0
100
AcDbSpline
 62
7
  6
CONTINUOUS
 70
0
 71
3
 72
15
 73
11
 74
9
 42
0.0000001
 43
0.0000001
 44
0.0000000001
 12
0.1785291206
 22
0.0
 32
0.0
 13
-0.0000099828
 23
0.1789600083
 33
0.0
 40
0.0
 40
0.0
 40
0.0
 40
0.0
 40
0.1444959284
 40
0.2873148233
 40
0.426639265
 40
0.5608841392
 40
0.6896342798
 40
0.8142870928
 40
0.9377085724
 40
1.0
 40
1.0
 40
1.0
 40
1.0
 10
7.6463540427
 20
3.9591662509
 30
0.0
 10
7.6549529531
 20
3.9591662509
 30
0.0
 10
7.6720813751
 20
3.9604762414
 30
0.0
 10
7.6968825727
 20
3.9663985229
 30
0.0
 10
7.7197623634
 20
3.9762748119
 30
0.0
 10
7.7396115612
 20
3.9899752543
 30
0.0
 10
7.7553657441
 20
4.0071192919
 30
0.0
 10
7.7661874478
 20
4.0270304506
 30
0.0
 10
7.7706974217
 20
4.0451433741
 30
0.0
 10
7.7713529939
 20
4.0562205556
 30
0.0
 10
7.7713527866
 20
4.0599364471
 30
0.0
 11
7.6463540427
 21
3.9591662509
 31
0.0
 11
7.6720735122
 21
3.9611613008
 31
0.0
 11
7.696855576
 21
3.9671582362
 31
0.0
 11
7.7196433221
 21
3.9771285994
 31
0.0
 11
7.7392867313
 21
3.9908594158
 31
0.0
 11
7.754752353
 21
4.0078639629
 31
0.0
 11
7.7653341959
 21
4.0274412995
 31
0.0
 11
7.7706833588
 21
4.0488164738
 31
0.0
 11
7.7713527866
 21
4.0599364471
 31
0.0
  0
SPLINE
  5
44D
100
AcDbEntity
  8
0
100
AcDbSpline
 62
7
  6
CONTINUOUS
 70
0
 71
3
 72
15
 73
11
 74
9
 42
0.0000001
 43
0.0000001
 44
0.0000000001
 12
-0.1785291214
 22
0.0
 32
0.0
 13
0.0000099844
 23
-0.1789600091
 33
0.0
 40
0.0
 40
0.0
 40
0.0
 40
0.0
 40
0.144495893
 40
0.2873147483
 40
0.4266391765
 40
0.5608840531
 40
0.6896341914
 40
0.8142870277
 40
0.9377085776
 40
1.0
 40
1.0
 40
1.0
 40
1.0
 10
7.6463540427
 20
4.6902066143
 30
0.0
 10
7.6377551345
 20
4.6902066143
 30
0.0
 10
7.6206267168
 20
4.6888966244
 30
0.0
 10
7.595825524
 20
4.6829743457
 30
0.0
 10
7.572945735
 20
4.6730980603
 30
0.0
 10
7.553096536
 20
4.6593976209
 30
0.0
 10
7.5373423495
 20
4.6422535848
 30
0.0
 10
7.52652064
 20
4.6223424227
 30
0.0
 10
7.5220106638
 20
4.6042294939
 30
0.0
 10
7.5213550915
 20
4.5931523085
 30
0.0
 10
7.5213552988
 20
4.5894364173
 30
0.0
 11
7.6463540427
 21
4.6902066143
 31
0.0
 11
7.6206345795
 21
4.6882115654
 31
0.0
 11
7.595852522
 21
4.6822146332
 31
0.0
 11
7.573064777
 21
4.6722442733
 31
0.0
 11
7.5534213655
 21
4.6585134593
 31
0.0
 11
7.5379557414
 21
4.6415089148
 31
0.0
 11
7.5273738936
 21
4.621931576
 31
0.0
 11
7.5220247265
 21
4.6005563898
 31
0.0
 11
7.5213552988
 21
4.5894364173
 31
0.0
  0
SPLINE
  5
44E
100
AcDbEntity
  8
0
100
AcDbSpline
 62
7
  6
CONTINUOUS
 70
0
 71
3
 72
14
 73
10
 74
8
 42
0.0000001
 43
0.0000001
 44
0.0000000001
 12
0.0740587986
 22
0.0
 32
0.0
 13
-0.0000568195
 23
0.0748477044
 33
0.0
 40
0.0
 40
0.0
 40
0.0
 40
0.0
 40
0.2016916528
 40
0.3941358032
 40
0.568754363
 40
0.7192571686
 40
0.8441613835
 40
0.9498128697
 40
1.0
 40
1.0
 40
1.0
 40
1.0
 10
7.2873540427
 20
3.8380816259
 30
0.0
 10
7.2923330566
 20
3.8380816259
 30
0.0
 10
7.3020698604
 20
3.8385366236
 30
0.0
 10
7.3159849187
 20
3.8405956034
 30
0.0
 10
7.3283432923
 20
3.8440016251
 30
0.0
 10
7.338479687
 20
3.8487160469
 30
0.0
 10
7.3459107094
 20
3.8547127254
 30
0.0
 10
7.3493985909
 20
3.8609924719
 30
0.0
 10
7.3498399625
 20
3.8648738434
 30
0.0
 10
7.349839012
 20
3.8661259739
 30
0.0
 11
7.2873540427
 21
3.8380816259
 31
0.0
 11
7.3022737133
 21
3.8388017927
 31
0.0
 11
7.3163617151
 21
3.8409588538
 31
0.0
 11
7.3287921542
 21
3.8445256258
 31
0.0
 11
7.3388076381
 21
3.8494169107
 31
0.0
 11
7.3458072597
 21
3.8554644338
 31
0.0
 11
7.3494006556
 21
3.8624149077
 31
0.0
 11
7.349839012
 21
3.8661259739
 31
0.0
  0
SPLINE
  5
44F
100
AcDbEntity
  8
0
100
AcDbSpline
 62
7
  6
CONTINUOUS
 70
0
 71
3
 72
15
 73
11
 74
9
 42
0.0000001
 43
0.0000001
 44
0.0000000001
 12
0.0000099822
 22
0.1789600085
 32
0.0
 13
-0.1785291199
 23
-0.0
 33
0.0
 40
0.0
 40
0.0
 40
0.0
 40
0.0
 40
0.0622912134
 40
0.1857129074
 40
0.310365609
 40
0.4391155937
 40
0.5733603795
 40
0.7126847371
 40
0.8555036224
 40
1.0
 40
1.0
 40
1.0
 40
1.0
 10
7.7713527866
 20
4.5894364187
 30
0.0
 10
7.7713529939
 20
4.5931522974
 30
0.0
 10
7.7706974239
 20
4.6042294789
 30
0.0
 10
7.7661874553
 20
4.6223423975
 30
0.0
 10
7.7553657555
 20
4.6422535541
 30
0.0
 10
7.7396115934
 20
4.6593975811
 30
0.0
 10
7.7197624187
 20
4.6730980219
 30
0.0
 10
7.6968826434
 20
4.6829743187
 30
0.0
 10
7.6720814282
 20
4.6888966178
 30
0.0
 10
7.6549529798
 20
4.6902066143
 30
0.0
 10
7.6463540427
 20
4.6902066143
 30
0.0
 11
7.7713527866
 21
4.5894364187
 31
0.0
 11
7.7706833634
 21
4.6005563539
 31
0.0
 11
7.7653341956
 21
4.6219315664
 31
0.0
 11
7.7547523642
 21
4.6415088865
 31
0.0
 11
7.739286767
 21
4.6585134182
 31
0.0
 11
7.7196433775
 21
4.6722442349
 31
0.0
 11
7.6968556506
 21
4.6822146042
 31
0.0
 11
7.6720735915
 21
4.6882115519
 31
0.0
 11
7.6463540427
 21
4.6902066143
 31
0.0
  0
SPLINE
  5
450
100
AcDbEntity
  8
0
100
AcDbSpline
 62
7
  6
CONTINUOUS
 70
0
 71
3
 72
14
 73
10
 74
8
 42
0.0000001
 43
0.0000001
 44
0.0000000001
 12
-0.0000568108
 22
-0.0748477031
 32
0.0
 13
0.0740587972
 23
0.0
 33
0.0
 40
0.0
 40
0.0
 40
0.0
 40
0.0
 40
0.050187167
 40
0.1558384492
 40
0.2807426978
 40
0.4312452482
 40
0.60586377
 40
0.7983078976
 40
1.0
 40
1.0
 40
1.0
 40
1.0
 10
7.2248690735
 20
3.8661259722
 30
0.0
 10
7.2248681231
 20
3.8648738409
 30
0.0
 10
7.225309495
 20
3.8609924736
 30
0.0
 10
7.2287973727
 20
3.8547127302
 30
0.0
 10
7.2362283851
 20
3.8487160557
 30
0.0
 10
7.2463647718
 20
3.8440016332
 30
0.0
 10
7.2587231366
 20
3.8405956096
 30
0.0
 10
7.2726382037
 20
3.8385366251
 30
0.0
 10
7.2823750179
 20
3.8380816259
 30
0.0
 10
7.2873540427
 20
3.8380816259
 30
0.0
 11
7.2248690735
 21
3.8661259722
 31
0.0
 11
7.2253074309
 21
3.8624149035
 31
0.0
 11
7.2289008187
 21
3.8554644425
 31
0.0
 11
7.2359004399
 21
3.8494169155
 31
0.0
 11
7.245915905
 21
3.8445256356
 31
0.0
 11
7.25834634
 21
3.8409588603
 31
0.0
 11
7.2724343393
 21
3.8388017959
 31
0.0
 11
7.2873540427
 21
3.8380816259
 31
0.0
  0
SPLINE
  5
451
100
AcDbEntity
  8
0
100
AcDbSpline
 62
7
  6
CONTINUOUS
 70
0
 71
3
 72
15
 73
11
 74
9
 42
0.0000001
 43
0.0000001
 44
0.0000000001
 12
-0.0000099806
 22
-0.1789600077
 32
0.0
 13
0.1785291192
 23
-0.0
 33
0.0
 40
0.0
 40
0.0
 40
0.0
 40
0.0
 40
0.0622912172
 40
0.1857128418
 40
0.3103655173
 40
0.4391155035
 40
0.5733602868
 40
0.7126846592
 40
0.8555035857
 40
1.0
 40
1.0
 40
1.0
 40
1.0
 10
7.5213552988
 20
4.0599364457
 30
0.0
 10
7.5213550916
 20
4.0562205668
 30
0.0
 10
7.5220106615
 20
4.0451433893
 30
0.0
 10
7.5265206277
 20
4.027030476
 30
0.0
 10
7.5373423217
 20
4.0071193229
 30
0.0
 10
7.5530964798
 20
3.9899752946
 30
0.0
 10
7.5729456532
 20
3.9762748506
 30
0.0
 10
7.5958254304
 20
3.9663985501
 30
0.0
 10
7.6206266505
 20
3.9604762481
 30
0.0
 10
7.6377551035
 20
3.9591662509
 30
0.0
 10
7.6463540427
 20
3.9591662509
 30
0.0
 11
7.5213552988
 21
4.0599364457
 31
0.0
 11
7.5220247223
 21
4.0488165098
 31
0.0
 11
7.5273738858
 21
4.0274413092
 31
0.0
 11
7.537955712
 21
4.0078639917
 31
0.0
 11
7.5534213066
 21
3.9908594574
 31
0.0
 11
7.5730646937
 21
3.9771286382
 31
0.0
 11
7.5958524219
 21
3.9671582654
 31
0.0
 11
7.6206344875
 21
3.9611613143
 31
0.0
 11
7.6463540427
 21
3.9591662509
 31
0.0
  0
SPLINE
  5
452
100
AcDbEntity
  8
0
100
AcDbSpline
 62
7
  6
CONTINUOUS
 70
0
 71
3
 72
14
 73
10
 74
8
 42
0.0000001
 43
0.0000001
 44
0.0000000001
 12
-0.0740587986
 22
0.0
 32
0.0
 13
0.0000568195
 23
-0.0748477044
 33
0.0
 40
0.0
 40
0.0
 40
0.0
 40
0.0
 40
0.2016916528
 40
0.3941358032
 40
0.568754363
 40
0.7192571686
 40
0.8441613835
 40
0.9498128697
 40
1.0
 40
1.0
 40
1.0
 40
1.0
 10
7.2873540427
 20
4.8112912393
 30
0.0
 10
7.2823750289
 20
4.8112912393
 30
0.0
 10
7.2726382251
 20
4.8108362416
 30
0.0
 10
7.2587231667
 20
4.8087772618
 30
0.0
 10
7.2463647932
 20
4.8053712401
 30
0.0
 10
7.2362283985
 20
4.8006568183
 30
0.0
 10
7.2287973761
 20
4.7946601398
 30
0.0
 10
7.2253094945
 20
4.7883803933
 30
0.0
 10
7.2248681229
 20
4.7844990218
 30
0.0
 10
7.2248690735
 20
4.7832468913
 30
0.0
 11
7.2873540427
 21
4.8112912393
 31
0.0
 11
7.2724343722
 21
4.8105710725
 31
0.0
 11
7.2583463704
 21
4.8084140114
 31
0.0
 11
7.2459159313
 21
4.8048472394
 31
0.0
 11
7.2359004474
 21
4.7999559545
 31
0.0
 11
7.2289008258
 21
4.7939084314
 31
0.0
 11
7.2253074299
 21
4.7869579575
 31
0.0
 11
7.2248690735
 21
4.7832468913
 31
0.0
  0
SPLINE
  5
453
100
AcDbEntity
  8
0
100
AcDbSpline
 62
7
  6
CONTINUOUS
 70
0
 71
3
 72
14
 73
10
 74
8
 42
0.0000001
 43
0.0000001
 44
0.0000000001
 12
-0.1684527097
 22
0.3090030944
 32
0.0
 13
0.1684527097
 23
0.3090030944
 33
0.0
 40
0.0
 40
0.0
 40
0.0
 40
0.0
 40
0.1546757524
 40
0.2971498922
 40
0.4331013552
 40
0.5670155335
 40
0.7029600408
 40
0.8453689352
 40
1.0
 40
1.0
 40
1.0
 40
1.0
 10
4.1287382167
 20
3.6160474337
 30
0.0
 10
4.1200530335
 20
3.6319791957
 30
0.0
 10
4.1047615499
 20
3.6633959309
 30
0.0
 10
4.0883397024
 20
3.7116444552
 30
0.0
 10
4.0799104732
 20
3.7595033635
 30
0.0
 10
4.0799141987
 20
3.8073599836
 30
0.0
 10
4.0883485604
 20
3.8552092654
 30
0.0
 10
4.1047693297
 20
3.9034433946
 30
0.0
 10
4.1200555427
 20
3.9348482723
 30
0.0
 10
4.1287382167
 20
3.9507754315
 30
0.0
 11
4.1287382167
 21
3.6160474337
 31
0.0
 11
4.1052240948
 21
3.6651429234
 31
0.0
 11
4.089366373
 21
3.7127111515
 31
0.0
 11
4.0812695347
 21
3.7598673449
 31
0.0
 11
4.081273103
 21
3.8069966183
 31
0.0
 11
4.0893759512
 21
3.8541492956
 31
0.0
 11
4.1052300554
 21
3.901694525
 31
0.0
 11
4.1287382167
 21
3.9507754315
 31
0.0
  0
SPLINE
  5
454
100
AcDbEntity
  8
0
100
AcDbSpline
 62
7
  6
CONTINUOUS
 70
0
 71
3
 72
14
 73
10
 74
8
 42
0.0000001
 43
0.0000001
 44
0.0000000001
 12
-0.1783866806
 22
0.6544511679
 32
0.0
 13
0.1783866806
 23
0.6544511679
 33
0.0
 40
0.0
 40
0.0
 40
0.0
 40
0.0
 40
0.1488473348
 40
0.2910338478
 40
0.4305819521
 40
0.5695392444
 40
0.7090777779
 40
0.8511965268
 40
1.0
 40
1.0
 40
1.0
 40
1.0
 10
4.1287382167
 20
3.9899584348
 30
0.0
 10
4.1198874227
 20
4.0224295388
 30
0.0
 10
4.1043940559
 20
4.0864394397
 30
0.0
 10
4.0881721575
 20
4.1825272286
 30
0.0
 10
4.0799067653
 20
4.2774037905
 30
0.0
 10
4.0799104042
 20
4.3720492069
 30
0.0
 10
4.088180949
 20
4.4669077161
 30
0.0
 10
4.1044020779
 20
4.5629677023
 30
0.0
 10
4.1198900308
 20
4.6269528948
 30
0.0
 10
4.1287382167
 20
4.6594144304
 30
0.0
 11
4.1287382167
 21
3.9899584348
 31
0.0
 11
4.1052240948
 21
4.0881494142
 31
0.0
 11
4.089366373
 21
4.1832858704
 31
0.0
 11
4.0812695347
 21
4.2775982573
 31
0.0
 11
4.081273103
 21
4.371856804
 31
0.0
 11
4.0893759512
 21
4.4661621586
 31
0.0
 11
4.1052300554
 21
4.5612526173
 31
0.0
 11
4.1287382167
 21
4.6594144304
 31
0.0
  0
SPLINE
  5
455
100
AcDbEntity
  8
0
100
AcDbSpline
 62
7
  6
CONTINUOUS
 70
0
 71
3
 72
14
 73
10
 74
8
 42
0.0000001
 43
0.0000001
 44
0.0000000001
 12
-0.1684527097
 22
0.3090030944
 32
0.0
 13
0.1684527097
 23
0.3090030944
 33
0.0
 40
0.0
 40
0.0
 40
0.0
 40
0.0
 40
0.1546757524
 40
0.2971498922
 40
0.4331013552
 40
0.5670155335
 40
0.7029600408
 40
0.8453689352
 40
1.0
 40
1.0
 40
1.0
 40
1.0
 10
4.1287382167
 20
4.6985974337
 30
0.0
 10
4.1200530335
 20
4.7145291957
 30
0.0
 10
4.1047615499
 20
4.7459459309
 30
0.0
 10
4.0883397024
 20
4.7941944552
 30
0.0
 10
4.0799104732
 20
4.8420533635
 30
0.0
 10
4.0799141987
 20
4.8899099836
 30
0.0
 10
4.0883485604
 20
4.9377592654
 30
0.0
 10
4.1047693297
 20
4.9859933946
 30
0.0
 10
4.1200555427
 20
5.0173982723
 30
0.0
 10
4.1287382167
 20
5.0333254315
 30
0.0
 11
4.1287382167
 21
4.6985974337
 31
0.0
 11
4.1052240948
 21
4.7476929234
 31
0.0
 11
4.089366373
 21
4.7952611515
 31
0.0
 11
4.0812695347
 21
4.8424173449
 31
0.0
 11
4.081273103
 21
4.8895466183
 31
0.0
 11
4.0893759512
 21
4.9366992956
 31
0.0
 11
4.1052300554
 21
4.984244525
 31
0.0
 11
4.1287382167
 21
5.0333254315
 31
0.0
  0
ENDSEC
  0
SECTION
  2
OBJECTS
  0
DICTIONARY
  5
C
100
AcDbDictionary
280
0
281
1
  3
ACAD_GROUP
350
D
  3
ACAD_MLINESTYLE
350
17
  3
ACAD_LAYOUT
350
1A
  3
ACAD_PLOTSETTINGS
350
19
  3
ACAD_PLOTSTYLENAME
350
E
  0
DICTIONARY
  5
D
102
{ACAD_REACTORS
330
C
102
}
100
AcDbDictionary
280
0
281
1
  0
ACDBDICTIONARYWDFLT
  5
E
102
{ACAD_REACTORS
330
C
102
}
100
AcDbDictionary
281
1
  3
Normal
350
F
100
AcDbDictionaryWithDefault
340
F
  0
DICTIONARY
  5
17
102
{ACAD_REACTORS
330
C
102
}
100
AcDbDictionary
280
0
281
1
  3
Standard
350
18
  0
DICTIONARY
  5
19
102
{ACAD_REACTORS
330
C
102
}
100
AcDbDictionary
281
1
  0
DICTIONARY
  5
1A
102
{ACAD_REACTORS
330
C
102
}
100
AcDbDictionary
281
1
  3
Layout1
350
1E
  3
Model
350
22
  0
ACDBPLACEHOLDER
  5
F
102
{ACAD_REACTORS
330
E
102
}
  0
MLINESTYLE
  5
18
102
{ACAD_REACTORS
330
17
102
}
100
AcDbMlineStyle
  2
STANDARD
 70
0
  3

 62
256
 51
90.0
 52
90.0
 71
2
 49
0.5
 62
256
  6
BYLAYER
 49
-0.5
 62
256
  6
BYLAYER
  0
LAYOUT
  5
1E
102
{ACAD_REACTORS
330
1A
102
}
100
AcDbPlotSettings
  1

  2

  4

  6

 40
0.0
 41
0.0
 42
0.0
 43
0.0
 44
0.0
 45
0.0
 46
0.0
 47
0.0
 48
0.0
 49
0.0
140
0.0
141
0.0
142
1.0
143
1.0
 70
0
 72
0
 73
0
 74
0
  7

 75
0
147
1.0
148
0.0
149
0.0
100
AcDbLayout
  1
Layout1
 70
0
 71
0
 10
0.0
 20
0.0
 11
0.0
 21
0.0
 12
0.0
 22
0.0
 32
0.0
 14
0.0
 24
0.0
 34
0.0
 15
0.0
 25
0.0
 35
0.0
146
0.0
 13
0.0
 23
0.0
 33
0.0
 16
0.0
 26
0.0
 36
0.0
 17
0.0
 27
0.0
 37
0.0
 76
0
330
1B
331
0
345
0
346
0
  0
LAYOUT
  5
22
102
{ACAD_REACTORS
330
1A
102
}
100
AcDbPlotSettings
  1

  2

  4

  6

 40
0.0
 41
0.0
 42
0.0
 43
0.0
 44
0.0
 45
0.0
 46
0.0
 47
0.0
 48
0.0
 49
0.0
140
0.0
141
0.0
142
1.0
143
1.0
 70
0
 72
0
 73
0
 74
0
  7

 75
0
147
1.0
148
0.0
149
0.0
100
AcDbLayout
  1
Model
 70
0
 71
0
 10
0.0
 20
0.0
 11
0.0
 21
0.0
 12
0.0
 22
0.0
 32
0.0
 14
0.0
 24
0.0
 34
0.0
 15
0.0
 25
0.0
 35
0.0
146
0.0
 13
0.0
 23
0.0
 33
0.0
 16
0.0
 26
0.0
 36
0.0
 17
0.0
 27
0.0
 37
0.0
 76
0
330
1F
331
0
345
0
346
0
  0
ENDSEC
  0
EOF
