999
DXF file: RDDA-LAN.dxf
999
Pro/ENGINEER 2006240 by Parametric Technology Corporation
  0
SECTION
  2
HEADER
  9
$ACADVER
  1
AC1015
  9
$DWGCODEPAGE
  3
ANSI_1252
  9
$EXTMAX
 10
11.6929133858
 20
8.2677165354
 30
0.0
  9
$EXTMIN
 10
0.0
 20
0.0
 30
0.0
  9
$LIMMIN
 10
0.0
 20
0.0
  9
$LIMMAX
 10
11.6929133858
 20
8.2677165354
  9
$VIEWCTR
 10
5.8464566929
 20
4.1338582677
  9
$VIEWSIZE
 40
8.2677165354
  9
$CLAYER
  8
0
  9
$LTSCALE
 40
0.6431102362
  9
$CELTYPE
  6
BYLAYER
  9
$DIMSCALE
 40
1.0
  9
$DIMASZ
 40
0.1875
  9
$DIMEXO
 40
0.0730807087
  9
$DIMDLI
 40
0.4443307087
  9
$DIMEXE
 40
0.2104724409
  9
$DIMCEN
 40
0.1052362205
  9
$DIMLFAC
 40
1.0
  9
$DIMBLK
  1
_CLOSED
  9
$DIMTXT
 40
0.15625
  9
$DIMTOL
 70
0
  9
$DIMLIM
 70
0
  9
$DIMTFAC
 40
1.0
  9
$PDMODE
 70
3
  9
$PDSIZE
 40
0.3125
  9
$HANDSEED
  5
4AF
  9
$MEASUREMENT
 70
0
  9
$INSUNITS
 70
1
  0
ENDSEC
  0
SECTION
  2
CLASSES
  0
CLASS
  1
ACDBDICTIONARYWDFLT
  2
AcDbDictionaryWithDefault
  3
AutoCAD 2000
 90
0
280
0
281
0
  0
CLASS
  1
ACDBPLACEHOLDER
  2
AcDbPlaceHolder
  3
AutoCAD 2000
 90
0
280
0
281
0
  0
CLASS
  1
LAYOUT
  2
AcDbLayout
  3
AutoCAD 2000
 90
0
280
0
281
0
  0
ENDSEC
  0
SECTION
  2
TABLES
  0
TABLE
  2
VPORT
  5
8
100
AcDbSymbolTable
 70
2
  0
VPORT
  5
1F4
100
AcDbSymbolTableRecord
100
AcDbViewportTableRecord
  2
*ACTIVE
 70
0
 10
0.0
 20
0.0
 11
1.0
 21
1.0
 12
5.8464566929
 22
4.1338582677
 13
0.0
 23
0.0
 14
1.0
 24
1.0
 15
0.0
 25
0.0
 16
0.0
 26
0.0
 36
1.0
 17
0.0
 27
0.0
 37
0.0
 40
8.2677165354
 41
1.4142857143
 42
50.0
 43
0.0
 44
0.0
 50
0.0
 51
0.0
 71
0
 72
100
 73
1
 74
1
 75
0
 76
0
 77
0
 78
0
  0
ENDTAB
  0
TABLE
  2
LTYPE
  5
5
100
AcDbSymbolTable
 70
6
  0
LTYPE
  5
14
100
AcDbSymbolTableRecord
100
AcDbLinetypeTableRecord
  2
BYBLOCK
 70
0
  3

 72
65
 73
0
 40
0.0
  0
LTYPE
  5
15
100
AcDbSymbolTableRecord
100
AcDbLinetypeTableRecord
  2
BYLAYER
 70
0
  3

 72
65
 73
0
 40
0.0
  0
LTYPE
  5
16
100
AcDbSymbolTableRecord
100
AcDbLinetypeTableRecord
  2
CONTINUOUS
 70
64
  3
Solid line
 72
65
 73
0
 40
0.0
  0
LTYPE
  5
1F5
100
AcDbSymbolTableRecord
100
AcDbLinetypeTableRecord
  2
CENTER
 70
64
  3
____ _ ____ _ ____ _ ____ _ ____ _ ____ _ ____
 72
65
 73
4
 40
0.6
 49
0.375
 74
0
 49
-0.075
 74
0
 49
0.075
 74
0
 49
-0.075
 74
0
  0
LTYPE
  5
1F6
100
AcDbSymbolTableRecord
100
AcDbLinetypeTableRecord
  2
HIDDEN
 70
64
  3
- - - - - - - - - - - - - - - - - - - -
 72
65
 73
2
 40
0.2
 49
0.1
 74
0
 49
-0.1
 74
0
  0
LTYPE
  5
1F7
100
AcDbSymbolTableRecord
100
AcDbLinetypeTableRecord
  2
PHANTOM
 70
64
  3
_____ _ _ _____ _ _ _____ _ _ _____
 72
65
 73
6
 40
0.8
 49
0.45
 74
0
 49
-0.05
 74
0
 49
0.1
 74
0
 49
-0.05
 74
0
 49
0.1
 74
0
 49
-0.05
 74
0
  0
LTYPE
  5
1F8
100
AcDbSymbolTableRecord
100
AcDbLinetypeTableRecord
  2
DOT
 70
64
  3
. . . . . . . . . . . . . . . . . . . .
 72
65
 73
2
 40
0.2
 49
0.1
 74
0
 49
-0.1
 74
0
  0
LTYPE
  5
1F9
100
AcDbSymbolTableRecord
100
AcDbLinetypeTableRecord
  2
DASHED
 70
64
  3
- - - - - - - - - - - - - - - - - - - -
 72
65
 73
2
 40
0.2
 49
0.1
 74
0
 49
-0.1
 74
0
  0
ENDTAB
  0
TABLE
  2
LAYER
  5
2
100
AcDbSymbolTable
 70
36
  0
LAYER
  5
10
100
AcDbSymbolTableRecord
100
AcDbLayerTableRecord
  2
0
 70
0
 62
7
  6
CONTINUOUS
370
-3
390
F
  0
LAYER
  5
1FA
100
AcDbSymbolTableRecord
100
AcDbLayerTableRecord
  2
DEFAULT_1
 70
0
 62
7
  6
CENTER
370
-3
390
F
  0
LAYER
  5
1FB
100
AcDbSymbolTableRecord
100
AcDbLayerTableRecord
  2
DEFAULT_2
 70
0
 62
8
  6
HIDDEN
370
-3
390
F
  0
LAYER
  5
1FC
100
AcDbSymbolTableRecord
100
AcDbLayerTableRecord
  2
DEFAULT_3
 70
0
 62
7
  6
PHANTOM
370
-3
390
F
  0
LAYER
  5
1FD
100
AcDbSymbolTableRecord
100
AcDbLayerTableRecord
  2
_BLACK_HOLE
 70
0
 62
7
  6
CONTINUOUS
370
-3
390
F
  0
LAYER
  5
1FE
100
AcDbSymbolTableRecord
100
AcDbLayerTableRecord
  2
01_ALL_DTM_PLN
 70
0
 62
7
  6
CONTINUOUS
370
-3
390
F
  0
LAYER
  5
1FF
100
AcDbSymbolTableRecord
100
AcDbLayerTableRecord
  2
01__ASM_ALL_DTM_PLN
 70
0
 62
7
  6
CONTINUOUS
370
-3
390
F
  0
LAYER
  5
200
100
AcDbSymbolTableRecord
100
AcDbLayerTableRecord
  2
01__ASM_DEF_DTM_PLN
 70
0
 62
7
  6
CONTINUOUS
370
-3
390
F
  0
LAYER
  5
201
100
AcDbSymbolTableRecord
100
AcDbLayerTableRecord
  2
01___PRT_ALL_DTM_PLN
 70
0
 62
7
  6
CONTINUOUS
370
-3
390
F
  0
LAYER
  5
202
100
AcDbSymbolTableRecord
100
AcDbLayerTableRecord
  2
01___PRT_DEF_DTM_PLN
 70
0
 62
7
  6
CONTINUOUS
370
-3
390
F
  0
LAYER
  5
203
100
AcDbSymbolTableRecord
100
AcDbLayerTableRecord
  2
02_ALL_AXES
 70
0
 62
7
  6
CONTINUOUS
370
-3
390
F
  0
LAYER
  5
204
100
AcDbSymbolTableRecord
100
AcDbLayerTableRecord
  2
02__ASM_ALL_AXES
 70
0
 62
7
  6
CONTINUOUS
370
-3
390
F
  0
LAYER
  5
205
100
AcDbSymbolTableRecord
100
AcDbLayerTableRecord
  2
02___PRT_ALL_AXES
 70
0
 62
7
  6
CONTINUOUS
370
-3
390
F
  0
LAYER
  5
206
100
AcDbSymbolTableRecord
100
AcDbLayerTableRecord
  2
03_ALL_CURVES
 70
0
 62
7
  6
CONTINUOUS
370
-3
390
F
  0
LAYER
  5
207
100
AcDbSymbolTableRecord
100
AcDbLayerTableRecord
  2
03__ASM_ALL_CURVES
 70
0
 62
7
  6
CONTINUOUS
370
-3
390
F
  0
LAYER
  5
208
100
AcDbSymbolTableRecord
100
AcDbLayerTableRecord
  2
03___PRT_ALL_CURVES
 70
0
 62
7
  6
CONTINUOUS
370
-3
390
F
  0
LAYER
  5
209
100
AcDbSymbolTableRecord
100
AcDbLayerTableRecord
  2
04_ALL_DTM_PNT
 70
0
 62
7
  6
CONTINUOUS
370
-3
390
F
  0
LAYER
  5
20A
100
AcDbSymbolTableRecord
100
AcDbLayerTableRecord
  2
04__ASM_ALL_DTM_PNT
 70
0
 62
7
  6
CONTINUOUS
370
-3
390
F
  0
LAYER
  5
20B
100
AcDbSymbolTableRecord
100
AcDbLayerTableRecord
  2
04___PRT_ALL_DTM_PNT
 70
0
 62
7
  6
CONTINUOUS
370
-3
390
F
  0
LAYER
  5
20C
100
AcDbSymbolTableRecord
100
AcDbLayerTableRecord
  2
05_ALL_DTM_CSYS
 70
0
 62
7
  6
CONTINUOUS
370
-3
390
F
  0
LAYER
  5
20D
100
AcDbSymbolTableRecord
100
AcDbLayerTableRecord
  2
05__ASM_ALL_DTM_CSYS
 70
0
 62
7
  6
CONTINUOUS
370
-3
390
F
  0
LAYER
  5
20E
100
AcDbSymbolTableRecord
100
AcDbLayerTableRecord
  2
05__ASM_DEF_DTM_CSYS
 70
0
 62
7
  6
CONTINUOUS
370
-3
390
F
  0
LAYER
  5
20F
100
AcDbSymbolTableRecord
100
AcDbLayerTableRecord
  2
05___PRT_ALL_DTM_CSYS
 70
0
 62
7
  6
CONTINUOUS
370
-3
390
F
  0
LAYER
  5
210
100
AcDbSymbolTableRecord
100
AcDbLayerTableRecord
  2
05___PRT_DEF_DTM_CSYS
 70
0
 62
7
  6
CONTINUOUS
370
-3
390
F
  0
LAYER
  5
211
100
AcDbSymbolTableRecord
100
AcDbLayerTableRecord
  2
06_ALL_SURFS
 70
0
 62
7
  6
CONTINUOUS
370
-3
390
F
  0
LAYER
  5
212
100
AcDbSymbolTableRecord
100
AcDbLayerTableRecord
  2
06__ASM_ALL_SURFS
 70
0
 62
7
  6
CONTINUOUS
370
-3
390
F
  0
LAYER
  5
213
100
AcDbSymbolTableRecord
100
AcDbLayerTableRecord
  2
06___PRT_ALL_SURFS
 70
0
 62
7
  6
CONTINUOUS
370
-3
390
F
  0
LAYER
  5
214
100
AcDbSymbolTableRecord
100
AcDbLayerTableRecord
  2
07__ASM_ALL_SKELETONS
 70
0
 62
7
  6
CONTINUOUS
370
-3
390
F
  0
LAYER
  5
215
100
AcDbSymbolTableRecord
100
AcDbLayerTableRecord
  2
125-104_HEX_FEATURES
 70
0
 62
7
  6
CONTINUOUS
370
-3
390
F
  0
LAYER
  5
216
100
AcDbSymbolTableRecord
100
AcDbLayerTableRecord
  2
125-104_REF_GEOMETRY
 70
0
 62
7
  6
CONTINUOUS
370
-3
390
F
  0
LAYER
  5
217
100
AcDbSymbolTableRecord
100
AcDbLayerTableRecord
  2
125-105_HEX_FEATURES
 70
0
 62
7
  6
CONTINUOUS
370
-3
390
F
  0
LAYER
  5
218
100
AcDbSymbolTableRecord
100
AcDbLayerTableRecord
  2
125-105_REF_GEOMETRY
 70
0
 62
7
  6
CONTINUOUS
370
-3
390
F
  0
LAYER
  5
219
100
AcDbSymbolTableRecord
100
AcDbLayerTableRecord
  2
125-132_HEX_FEATURES
 70
0
 62
7
  6
CONTINUOUS
370
-3
390
F
  0
LAYER
  5
21A
100
AcDbSymbolTableRecord
100
AcDbLayerTableRecord
  2
125-132_REF_GEOMETRY
 70
0
 62
7
  6
CONTINUOUS
370
-3
390
F
  0
LAYER
  5
21B
100
AcDbSymbolTableRecord
100
AcDbLayerTableRecord
  2
125-150_HEX_FEATURES
 70
0
 62
7
  6
CONTINUOUS
370
-3
390
F
  0
LAYER
  5
21C
100
AcDbSymbolTableRecord
100
AcDbLayerTableRecord
  2
125-150_REF_GEOMETRY
 70
0
 62
7
  6
CONTINUOUS
370
-3
390
F
  0
LAYER
  5
21D
100
AcDbSymbolTableRecord
100
AcDbLayerTableRecord
  2
125-158_HEX_FEATURES
 70
0
 62
7
  6
CONTINUOUS
370
-3
390
F
  0
LAYER
  5
21E
100
AcDbSymbolTableRecord
100
AcDbLayerTableRecord
  2
125-158_REF_GEOMETRY
 70
0
 62
7
  6
CONTINUOUS
370
-3
390
F
  0
LAYER
  5
21F
100
AcDbSymbolTableRecord
100
AcDbLayerTableRecord
  2
126-003_HEX_FEATURES
 70
0
 62
7
  6
CONTINUOUS
370
-3
390
F
  0
LAYER
  5
220
100
AcDbSymbolTableRecord
100
AcDbLayerTableRecord
  2
126-003_REF_GEOMETRY
 70
0
 62
7
  6
CONTINUOUS
370
-3
390
F
  0
LAYER
  5
221
100
AcDbSymbolTableRecord
100
AcDbLayerTableRecord
  2
126-005_HEX_FEATURES
 70
0
 62
7
  6
CONTINUOUS
370
-3
390
F
  0
LAYER
  5
222
100
AcDbSymbolTableRecord
100
AcDbLayerTableRecord
  2
126-005_REF_GEOMETRY
 70
0
 62
7
  6
CONTINUOUS
370
-3
390
F
  0
LAYER
  5
223
100
AcDbSymbolTableRecord
100
AcDbLayerTableRecord
  2
126-007_HEX_FEATURES
 70
0
 62
7
  6
CONTINUOUS
370
-3
390
F
  0
LAYER
  5
224
100
AcDbSymbolTableRecord
100
AcDbLayerTableRecord
  2
126-007_REF_GEOMETRY
 70
0
 62
7
  6
CONTINUOUS
370
-3
390
F
  0
LAYER
  5
225
100
AcDbSymbolTableRecord
100
AcDbLayerTableRecord
  2
126-200_HEX_FEATURES
 70
0
 62
7
  6
CONTINUOUS
370
-3
390
F
  0
LAYER
  5
226
100
AcDbSymbolTableRecord
100
AcDbLayerTableRecord
  2
126-200_REF_GEOMETRY
 70
0
 62
7
  6
CONTINUOUS
370
-3
390
F
  0
LAYER
  5
227
100
AcDbSymbolTableRecord
100
AcDbLayerTableRecord
  2
126-202_HEX_FEATURES
 70
0
 62
7
  6
CONTINUOUS
370
-3
390
F
  0
LAYER
  5
228
100
AcDbSymbolTableRecord
100
AcDbLayerTableRecord
  2
126-202_REF_GEOMETRY
 70
0
 62
7
  6
CONTINUOUS
370
-3
390
F
  0
LAYER
  5
229
100
AcDbSymbolTableRecord
100
AcDbLayerTableRecord
  2
126-220_HEX_FEATURES
 70
0
 62
7
  6
CONTINUOUS
370
-3
390
F
  0
LAYER
  5
22A
100
AcDbSymbolTableRecord
100
AcDbLayerTableRecord
  2
126-220_REF_GEOMETRY
 70
0
 62
7
  6
CONTINUOUS
370
-3
390
F
  0
LAYER
  5
22B
100
AcDbSymbolTableRecord
100
AcDbLayerTableRecord
  2
230224001
 70
0
 62
7
  6
CONTINUOUS
370
-3
390
F
  0
LAYER
  5
22C
100
AcDbSymbolTableRecord
100
AcDbLayerTableRecord
  2
COPY_GEO_FET
 70
0
 62
7
  6
CONTINUOUS
370
-3
390
F
  0
LAYER
  5
22D
100
AcDbSymbolTableRecord
100
AcDbLayerTableRecord
  2
COSMETIC
 70
0
 62
7
  6
CONTINUOUS
370
-3
390
F
  0
LAYER
  5
22E
100
AcDbSymbolTableRecord
100
AcDbLayerTableRecord
  2
CURVES
 70
0
 62
7
  6
CONTINUOUS
370
-3
390
F
  0
LAYER
  5
22F
100
AcDbSymbolTableRecord
100
AcDbLayerTableRecord
  2
CURVES_SEAT_RELIEF
 70
0
 62
7
  6
CONTINUOUS
370
-3
390
F
  0
LAYER
  5
230
100
AcDbSymbolTableRecord
100
AcDbLayerTableRecord
  2
CUT_REF_SURF
 70
0
 62
7
  6
CONTINUOUS
370
-3
390
F
  0
LAYER
  5
231
100
AcDbSymbolTableRecord
100
AcDbLayerTableRecord
  2
DATUM
 70
0
 62
7
  6
CONTINUOUS
370
-3
390
F
  0
LAYER
  5
232
100
AcDbSymbolTableRecord
100
AcDbLayerTableRecord
  2
DATUMCURVES
 70
0
 62
7
  6
CONTINUOUS
370
-3
390
F
  0
LAYER
  5
233
100
AcDbSymbolTableRecord
100
AcDbLayerTableRecord
  2
DIMENSIONS
 70
0
 62
7
  6
CONTINUOUS
370
-3
390
F
  0
LAYER
  5
234
100
AcDbSymbolTableRecord
100
AcDbLayerTableRecord
  2
DRAWINGNOTES
 70
0
 62
7
  6
CONTINUOUS
370
-3
390
F
  0
LAYER
  5
235
100
AcDbSymbolTableRecord
100
AcDbLayerTableRecord
  2
DTM
 70
0
 62
7
  6
CONTINUOUS
370
-3
390
F
  0
LAYER
  5
236
100
AcDbSymbolTableRecord
100
AcDbLayerTableRecord
  2
DTM230
 70
0
 62
7
  6
CONTINUOUS
370
-3
390
F
  0
LAYER
  5
237
100
AcDbSymbolTableRecord
100
AcDbLayerTableRecord
  2
DTM325
 70
0
 62
7
  6
CONTINUOUS
370
-3
390
F
  0
LAYER
  5
238
100
AcDbSymbolTableRecord
100
AcDbLayerTableRecord
  2
DTM_500001
 70
0
 62
7
  6
CONTINUOUS
370
-3
390
F
  0
LAYER
  5
239
100
AcDbSymbolTableRecord
100
AcDbLayerTableRecord
  2
DTM_500002
 70
0
 62
7
  6
CONTINUOUS
370
-3
390
F
  0
LAYER
  5
23A
100
AcDbSymbolTableRecord
100
AcDbLayerTableRecord
  2
DTM_500051
 70
0
 62
7
  6
CONTINUOUS
370
-3
390
F
  0
LAYER
  5
23B
100
AcDbSymbolTableRecord
100
AcDbLayerTableRecord
  2
DTM_515002
 70
0
 62
7
  6
CONTINUOUS
370
-3
390
F
  0
LAYER
  5
23C
100
AcDbSymbolTableRecord
100
AcDbLayerTableRecord
  2
DTM_530-102
 70
0
 62
7
  6
CONTINUOUS
370
-3
390
F
  0
LAYER
  5
23D
100
AcDbSymbolTableRecord
100
AcDbLayerTableRecord
  2
DTM_530002
 70
0
 62
7
  6
CONTINUOUS
370
-3
390
F
  0
LAYER
  5
23E
100
AcDbSymbolTableRecord
100
AcDbLayerTableRecord
  2
DTM_800001
 70
0
 62
7
  6
CONTINUOUS
370
-3
390
F
  0
LAYER
  5
23F
100
AcDbSymbolTableRecord
100
AcDbLayerTableRecord
  2
DTM_BALLHOLDER
 70
0
 62
7
  6
CONTINUOUS
370
-3
390
F
  0
LAYER
  5
240
100
AcDbSymbolTableRecord
100
AcDbLayerTableRecord
  2
DTM_PISTON
 70
0
 62
7
  6
CONTINUOUS
370
-3
390
F
  0
LAYER
  5
241
100
AcDbSymbolTableRecord
100
AcDbLayerTableRecord
  2
DTM_SPRING_RH
 70
0
 62
7
  6
CONTINUOUS
370
-3
390
F
  0
LAYER
  5
242
100
AcDbSymbolTableRecord
100
AcDbLayerTableRecord
  2
DTM_SP_RH_CONSTR
 70
0
 62
7
  6
CONTINUOUS
370
-3
390
F
  0
LAYER
  5
243
100
AcDbSymbolTableRecord
100
AcDbLayerTableRecord
  2
FACE1
 70
0
 62
7
  6
CONTINUOUS
370
-3
390
F
  0
LAYER
  5
244
100
AcDbSymbolTableRecord
100
AcDbLayerTableRecord
  2
FACE2
 70
0
 62
7
  6
CONTINUOUS
370
-3
390
F
  0
LAYER
  5
245
100
AcDbSymbolTableRecord
100
AcDbLayerTableRecord
  2
FACE3
 70
0
 62
7
  6
CONTINUOUS
370
-3
390
F
  0
LAYER
  5
246
100
AcDbSymbolTableRecord
100
AcDbLayerTableRecord
  2
FACE4
 70
0
 62
7
  6
CONTINUOUS
370
-3
390
F
  0
LAYER
  5
247
100
AcDbSymbolTableRecord
100
AcDbLayerTableRecord
  2
GEOMETRICTOLERANCES
 70
0
 62
7
  6
CONTINUOUS
370
-3
390
F
  0
LAYER
  5
248
100
AcDbSymbolTableRecord
100
AcDbLayerTableRecord
  2
LAY0001
 70
0
 62
7
  6
CONTINUOUS
370
-3
390
F
  0
LAYER
  5
249
100
AcDbSymbolTableRecord
100
AcDbLayerTableRecord
  2
PARAMETERDIMENSIONS
 70
0
 62
7
  6
CONTINUOUS
370
-3
390
F
  0
LAYER
  5
24A
100
AcDbSymbolTableRecord
100
AcDbLayerTableRecord
  2
PART
 70
0
 62
7
  6
CONTINUOUS
370
-3
390
F
  0
LAYER
  5
24B
100
AcDbSymbolTableRecord
100
AcDbLayerTableRecord
  2
PLANE
 70
0
 62
7
  6
CONTINUOUS
370
-3
390
F
  0
LAYER
  5
24C
100
AcDbSymbolTableRecord
100
AcDbLayerTableRecord
  2
PROTRUSIONS
 70
0
 62
7
  6
CONTINUOUS
370
-3
390
F
  0
LAYER
  5
24D
100
AcDbSymbolTableRecord
100
AcDbLayerTableRecord
  2
SEAT_DATUM_PLANES
 70
0
 62
7
  6
CONTINUOUS
370
-3
390
F
  0
LAYER
  5
24E
100
AcDbSymbolTableRecord
100
AcDbLayerTableRecord
  2
TEXT
 70
0
 62
7
  6
CONTINUOUS
370
-3
390
F
  0
LAYER
  5
24F
100
AcDbSymbolTableRecord
100
AcDbLayerTableRecord
  2
THREAD
 70
0
 62
7
  6
CONTINUOUS
370
-3
390
F
  0
LAYER
  5
250
100
AcDbSymbolTableRecord
100
AcDbLayerTableRecord
  2
WIRE_GRV_RAD_DRW_REF
 70
0
 62
7
  6
CONTINUOUS
370
-3
390
F
  0
LAYER
  5
251
100
AcDbSymbolTableRecord
100
AcDbLayerTableRecord
  2
WIRE_SLOT_DRW_REF
 70
0
 62
7
  6
CONTINUOUS
370
-3
390
F
  0
LAYER
  5
252
100
AcDbSymbolTableRecord
100
AcDbLayerTableRecord
  2
X_PLANE
 70
0
 62
7
  6
CONTINUOUS
370
-3
390
F
  0
ENDTAB
  0
TABLE
  2
STYLE
  5
3
100
AcDbSymbolTable
 70
1
  0
STYLE
  5
11
100
AcDbSymbolTableRecord
100
AcDbTextStyleTableRecord
  2
STANDARD
 70
0
 40
0.0
 41
0.8
 50
0.0
 71
0
 42
0.2
  3
txt
  4

  0
ENDTAB
  0
TABLE
  2
VIEW
  5
6
100
AcDbSymbolTable
 70
0
  0
ENDTAB
  0
TABLE
  2
UCS
  5
7
100
AcDbSymbolTable
 70
0
  0
ENDTAB
  0
TABLE
  2
APPID
  5
9
100
AcDbSymbolTable
 70
1
  0
APPID
  5
253
100
AcDbSymbolTableRecord
100
AcDbRegAppTableRecord
  2
ACAD
 70
0
  0
ENDTAB
  0
TABLE
  2
BLOCK_RECORD
  5
1
100
AcDbSymbolTable
 70
0
  0
BLOCK_RECORD
  5
1F
100
AcDbSymbolTableRecord
100
AcDbBlockTableRecord
  2
*MODEL_SPACE
  0
BLOCK_RECORD
  5
1B
100
AcDbSymbolTableRecord
100
AcDbBlockTableRecord
  2
*PAPER_SPACE
  0
ENDTAB
  0
TABLE
  2
DIMSTYLE
  5
A
100
AcDbSymbolTable
 70
1
100
AcDbDimStyleTable
 71
0
  0
DIMSTYLE
105
254
100
AcDbSymbolTableRecord
100
AcDbDimStyleTableRecord
  2
STANDARD
 70
0
  3

  4

 40
1.0
 41
0.1875
 42
0.0625
 43
0.38
 44
0.18
 45
0.0
 46
0.0
 47
0.01
 48
0.01
140
0.15625
141
0.09
142
0.0
143
25.4
144
1.0
145
0.0
146
1.0
147
0.09
 71
0.0
 72
0.0
 73
1
 74
1
 75
0
 76
0
 77
0
 78
4
170
0
171
2
172
0
173
0
174
0
175
0
176
0
177
0
178
0
270
2
271
2
272
2
273
2
274
2
275
0
280
0
281
0
282
0
283
1
284
4
285
0
286
0
287
3
288
0
340
11
  0
ENDTAB
  0
ENDSEC
  0
SECTION
  2
BLOCKS
  0
BLOCK
  5
20
100
AcDbEntity
  8
0
100
AcDbBlockBegin
  2
*MODEL_SPACE
 70
0
 10
0.0
 20
0.0
 30
0.0
  3
*MODEL_SPACE
  1

  0
ENDBLK
  5
21
100
AcDbEntity
  8
0
100
AcDbBlockEnd
  0
BLOCK
  5
1C
100
AcDbEntity
  8
0
100
AcDbBlockBegin
  2
*PAPER_SPACE
 70
0
 10
0.0
 20
0.0
 30
0.0
  3
*PAPER_SPACE
  1

  0
ENDBLK
  5
1D
100
AcDbEntity
  8
0
100
AcDbBlockEnd
  0
ENDSEC
  0
SECTION
  2
ENTITIES
  0
LINE
  5
255
100
AcDbEntity
  8
0
100
AcDbLine
 62
7
  6
CONTINUOUS
 10
3.5730440827
 20
4.2560276826
 11
3.5730440827
 21
3.9500276826
  0
LINE
  5
256
100
AcDbEntity
  8
03__ASM_ALL_CURVES
100
AcDbLine
 62
40
  6
CONTINUOUS
 10
3.5730440827
 20
4.2560276826
 11
3.5730440827
 21
5.1161296826
  0
LINE
  5
257
100
AcDbEntity
  8
0
100
AcDbLine
 62
7
  6
CONTINUOUS
 10
3.6040440827
 20
4.2870276826
 11
3.6040440827
 21
3.9190276826
  0
LINE
  5
258
100
AcDbEntity
  8
03__ASM_ALL_CURVES
100
AcDbLine
 62
40
  6
CONTINUOUS
 10
3.6834740827
 20
5.0977246826
 11
3.6834740827
 21
5.0609146826
  0
LINE
  5
259
100
AcDbEntity
  8
0
100
AcDbLine
 62
7
  6
CONTINUOUS
 10
3.8030440827
 20
4.2870276826
 11
3.8030440827
 21
3.9190276826
  0
LINE
  5
25A
100
AcDbEntity
  8
0
100
AcDbLine
 62
7
  6
CONTINUOUS
 10
3.8045440827
 20
3.9418846896
 11
3.8045440827
 21
4.1791512514
  0
LINE
  5
25B
100
AcDbEntity
  8
0
100
AcDbLine
 62
7
  6
CONTINUOUS
 10
3.8395440827
 20
3.9418846896
 11
3.8395440827
 21
4.1791512514
  0
LINE
  5
25C
100
AcDbEntity
  8
0
100
AcDbLine
 62
7
  6
CONTINUOUS
 10
3.8410440827
 20
4.2870276826
 11
3.8410440827
 21
3.9190276826
  0
LINE
  5
25D
100
AcDbEntity
  8
03__ASM_ALL_CURVES
100
AcDbLine
 62
40
  6
CONTINUOUS
 10
4.2584128327
 20
5.1928171808
 11
4.2641643952
 21
5.2004859344
  0
LINE
  5
25E
100
AcDbEntity
  8
0
100
AcDbLine
 62
7
  6
CONTINUOUS
 10
3.5730440827
 20
3.9500276826
 11
3.6040440827
 21
3.9190276826
  0
LINE
  5
25F
100
AcDbEntity
  8
0
100
AcDbLine
 62
7
  6
CONTINUOUS
 10
4.0720440827
 20
3.8553764975
 11
4.0720440827
 21
4.3506788677
  0
LINE
  5
260
100
AcDbEntity
  8
0
100
AcDbLine
 62
7
  6
CONTINUOUS
 10
4.1340440827
 20
3.8320276826
 11
4.1340440827
 21
4.3740276826
  0
LINE
  5
261
100
AcDbEntity
  8
0
100
AcDbLine
 62
7
  6
CONTINUOUS
 10
4.1400440827
 20
3.8320276826
 11
4.1400440827
 21
4.3740276826
  0
LINE
  5
262
100
AcDbEntity
  8
0
100
AcDbLine
 62
7
  6
CONTINUOUS
 10
4.1455440827
 20
3.8375276826
 11
4.1455440827
 21
4.3685276826
  0
LINE
  5
263
100
AcDbEntity
  8
0
100
AcDbLine
 62
7
  6
CONTINUOUS
 10
4.1615440827
 20
3.8375276826
 11
4.1615440827
 21
4.3685276826
  0
LINE
  5
264
100
AcDbEntity
  8
03__ASM_ALL_CURVES
100
AcDbLine
 62
40
  6
CONTINUOUS
 10
4.2641643952
 20
5.1391359326
 11
4.2584128327
 21
5.1161296826
  0
LINE
  5
265
100
AcDbEntity
  8
03__ASM_ALL_CURVES
100
AcDbLine
 62
40
  6
CONTINUOUS
 10
4.2756675202
 20
5.1544734317
 11
4.2641643952
 21
5.1391359326
  0
LINE
  5
266
100
AcDbEntity
  8
03__ASM_ALL_CURVES
100
AcDbLine
 62
40
  6
CONTINUOUS
 10
4.3044253327
 20
5.1774796844
 11
4.2986737702
 21
5.1698109308
  0
LINE
  5
267
100
AcDbEntity
  8
03__ASM_ALL_CURVES
100
AcDbLine
 62
40
  6
CONTINUOUS
 10
4.4884753327
 20
5.1851484326
 11
4.4827237702
 21
5.1774796844
  0
LINE
  5
268
100
AcDbEntity
  8
03__ASM_ALL_CURVES
100
AcDbLine
 62
40
  6
CONTINUOUS
 10
4.2641643952
 20
5.2004859344
 11
4.2756675202
 21
5.2081546826
  0
LINE
  5
269
100
AcDbEntity
  8
03__ASM_ALL_CURVES
100
AcDbLine
 62
40
  6
CONTINUOUS
 10
4.3044253327
 20
5.1928171808
 11
4.3044253327
 21
5.1774796844
  0
LINE
  5
26A
100
AcDbEntity
  8
0
100
AcDbLine
 62
7
  6
CONTINUOUS
 10
4.3530440827
 20
3.8320276826
 11
4.3530440827
 21
4.3740276826
  0
LINE
  5
26B
100
AcDbEntity
  8
03__ASM_ALL_CURVES
100
AcDbLine
 62
40
  6
CONTINUOUS
 10
4.3676925202
 20
5.1161296826
 11
4.3676925202
 21
5.1237984328
  0
LINE
  5
26C
100
AcDbEntity
  8
03__ASM_ALL_CURVES
100
AcDbLine
 62
40
  6
CONTINUOUS
 10
4.4942268952
 20
5.1391359326
 11
4.4827237702
 21
5.1237984328
  0
LINE
  5
26D
100
AcDbEntity
  8
03__ASM_ALL_CURVES
100
AcDbLine
 62
40
  6
CONTINUOUS
 10
4.5805003327
 20
5.1851484326
 11
4.5747487702
 21
5.1774796844
  0
LINE
  5
26E
100
AcDbEntity
  8
03__ASM_ALL_CURVES
100
AcDbLine
 62
40
  6
CONTINUOUS
 10
4.5862518952
 20
5.1391359326
 11
4.5747487702
 21
5.1237984328
  0
LINE
  5
26F
100
AcDbEntity
  8
03__ASM_ALL_CURVES
100
AcDbLine
 62
40
  6
CONTINUOUS
 10
4.6552706452
 20
5.2081546826
 11
4.6437675202
 21
5.1928171808
  0
LINE
  5
270
100
AcDbEntity
  8
0
100
AcDbLine
 62
7
  6
CONTINUOUS
 10
3.5730440827
 20
4.2560276826
 11
3.6040440827
 21
4.2870276826
  0
LINE
  5
271
100
AcDbEntity
  8
03__ASM_ALL_CURVES
100
AcDbLine
 62
40
  6
CONTINUOUS
 10
4.2986737702
 20
5.1698109308
 11
4.2756675202
 21
5.1544734317
  0
LINE
  5
272
100
AcDbEntity
  8
03__ASM_ALL_CURVES
100
AcDbLine
 62
40
  6
CONTINUOUS
 10
4.4482143952
 20
5.2004859344
 11
4.4597175202
 21
5.2081546826
  0
LINE
  5
273
100
AcDbEntity
  8
03__ASM_ALL_CURVES
100
AcDbLine
 62
40
  6
CONTINUOUS
 10
4.4827237702
 20
5.1774796844
 11
4.4712206452
 21
5.1698109308
  0
LINE
  5
274
100
AcDbEntity
  8
03__ASM_ALL_CURVES
100
AcDbLine
 62
40
  6
CONTINUOUS
 10
4.5402393952
 20
5.2004859344
 11
4.5517425202
 21
5.2081546826
  0
LINE
  5
275
100
AcDbEntity
  8
03__ASM_ALL_CURVES
100
AcDbLine
 62
40
  6
CONTINUOUS
 10
4.4827237702
 20
5.1237984328
 11
4.4712206452
 21
5.1161296826
  0
LINE
  5
276
100
AcDbEntity
  8
0
100
AcDbLine
 62
7
  6
CONTINUOUS
 10
4.1770448683
 20
3.822026897
 11
4.1615440827
 21
3.8375276826
  0
LINE
  5
277
100
AcDbEntity
  8
0
100
AcDbLine
 62
7
  6
CONTINUOUS
 10
4.3840440827
 20
3.7795276826
 11
4.3840440827
 21
4.4265276826
  0
LINE
  5
278
100
AcDbEntity
  8
0
100
AcDbLine
 62
7
  6
CONTINUOUS
 10
4.4340440827
 20
3.7295276826
 11
4.4340440827
 21
4.4765276826
  0
LINE
  5
279
100
AcDbEntity
  8
0
100
AcDbLine
 62
7
  6
CONTINUOUS
 10
4.4850440827
 20
3.7295276826
 11
4.4850440827
 21
4.4765276826
  0
LINE
  5
27A
100
AcDbEntity
  8
03__ASM_ALL_CURVES
100
AcDbLine
 62
40
  6
CONTINUOUS
 10
4.4884753327
 20
5.1928171808
 11
4.4884753327
 21
5.1851484326
  0
LINE
  5
27B
100
AcDbEntity
  8
0
100
AcDbLine
 62
7
  6
CONTINUOUS
 10
4.4900440827
 20
3.7345276826
 11
4.4900440827
 21
4.4715276826
  0
LINE
  5
27C
100
AcDbEntity
  8
03__ASM_ALL_CURVES
100
AcDbLine
 62
40
  6
CONTINUOUS
 10
4.4942268952
 20
5.1468046835
 11
4.4942268952
 21
5.1391359326
  0
LINE
  5
27D
100
AcDbEntity
  8
0
100
AcDbLine
 62
7
  6
CONTINUOUS
 10
4.4980440827
 20
3.7530276826
 11
4.4980440827
 21
4.4530276826
  0
LINE
  5
27E
100
AcDbEntity
  8
0
100
AcDbLine
 62
7
  6
CONTINUOUS
 10
4.5200440827
 20
3.7530276826
 11
4.5200440827
 21
4.4530276826
  0
LINE
  5
27F
100
AcDbEntity
  8
0
100
AcDbLine
 62
7
  6
CONTINUOUS
 10
4.5280440827
 20
3.7345276826
 11
4.5280440827
 21
4.4715276826
  0
LINE
  5
280
100
AcDbEntity
  8
0
100
AcDbLine
 62
7
  6
CONTINUOUS
 10
4.5330440827
 20
3.7295276826
 11
4.5330440827
 21
4.4765276826
  0
LINE
  5
281
100
AcDbEntity
  8
03__ASM_ALL_CURVES
100
AcDbLine
 62
40
  6
CONTINUOUS
 10
4.6437675202
 20
5.1928171808
 11
4.6380159577
 21
5.1698109308
  0
LINE
  5
282
100
AcDbEntity
  8
03__ASM_ALL_CURVES
100
AcDbLine
 62
40
  6
CONTINUOUS
 10
4.7703018952
 20
5.1468046835
 11
4.7645503327
 21
5.1314671831
  0
LINE
  5
283
100
AcDbEntity
  8
03__ASM_ALL_CURVES
100
AcDbLine
 62
40
  6
CONTINUOUS
 10
4.7645503327
 20
5.1314671831
 11
4.7587987702
 21
5.1237984328
  0
LINE
  5
284
100
AcDbEntity
  8
03__ASM_ALL_CURVES
100
AcDbLine
 62
40
  6
CONTINUOUS
 10
4.8163143952
 20
5.1928171808
 11
4.8220659577
 21
5.2004859344
  0
LINE
  5
285
100
AcDbEntity
  8
03__ASM_ALL_CURVES
100
AcDbLine
 62
40
  6
CONTINUOUS
 10
4.8508237702
 20
5.1314671831
 11
4.8450722077
 21
5.1237984328
  0
LINE
  5
286
100
AcDbEntity
  8
03__ASM_ALL_CURVES
100
AcDbLine
 62
40
  6
CONTINUOUS
 10
4.5747487702
 20
5.1774796844
 11
4.5632456452
 21
5.1698109308
  0
LINE
  5
287
100
AcDbEntity
  8
03__ASM_ALL_CURVES
100
AcDbLine
 62
40
  6
CONTINUOUS
 10
4.5747487702
 20
5.1237984328
 11
4.5632456452
 21
5.1161296826
  0
LINE
  5
288
100
AcDbEntity
  8
03__ASM_ALL_CURVES
100
AcDbLine
 62
40
  6
CONTINUOUS
 10
4.7242893952
 20
5.1698109308
 11
4.7357925202
 21
5.1774796844
  0
LINE
  5
289
100
AcDbEntity
  8
03__ASM_ALL_CURVES
100
AcDbLine
 62
40
  6
CONTINUOUS
 10
4.8220659577
 20
5.2004859344
 11
4.8335690827
 21
5.2081546826
  0
LINE
  5
28A
100
AcDbEntity
  8
03__ASM_ALL_CURVES
100
AcDbLine
 62
40
  6
CONTINUOUS
 10
4.7587987702
 20
5.1237984328
 11
4.7472956452
 21
5.1161296826
  0
LINE
  5
28B
100
AcDbEntity
  8
0
100
AcDbLine
 62
7
  6
CONTINUOUS
 10
4.4340440827
 20
3.7295276826
 11
4.3840440827
 21
3.7795276826
  0
LINE
  5
28C
100
AcDbEntity
  8
03__ASM_ALL_CURVES
100
AcDbLine
 62
40
  6
CONTINUOUS
 10
4.5805003327
 20
5.1928171808
 11
4.5805003327
 21
5.1851484326
  0
LINE
  5
28D
100
AcDbEntity
  8
03__ASM_ALL_CURVES
100
AcDbLine
 62
40
  6
CONTINUOUS
 10
4.5862518952
 20
5.1468046835
 11
4.5862518952
 21
5.1391359326
  0
LINE
  5
28E
100
AcDbEntity
  8
03__ASM_ALL_CURVES
100
AcDbLine
 62
40
  6
CONTINUOUS
 10
4.6380159577
 20
5.1698109308
 11
4.6380159577
 21
5.1544734317
  0
LINE
  5
28F
100
AcDbEntity
  8
03__ASM_ALL_CURVES
100
AcDbLine
 62
40
  6
CONTINUOUS
 10
4.7300409577
 20
5.2081546826
 11
4.7242893952
 21
5.1698109308
  0
LINE
  5
290
100
AcDbEntity
  8
03__ASM_ALL_CURVES
100
AcDbLine
 62
40
  6
CONTINUOUS
 10
4.8105628327
 20
5.1774796844
 11
4.8163143952
 21
5.1928171808
  0
LINE
  5
291
100
AcDbEntity
  8
03__ASM_ALL_CURVES
100
AcDbLine
 62
40
  6
CONTINUOUS
 10
4.8565753327
 20
5.1774796844
 11
4.8508237702
 21
5.1621421826
  0
LINE
  5
292
100
AcDbEntity
  8
03__ASM_ALL_CURVES
100
AcDbLine
 62
40
  6
CONTINUOUS
 10
4.8565753327
 20
5.1468046835
 11
4.8508237702
 21
5.1314671831
  0
LINE
  5
293
100
AcDbEntity
  8
03__ASM_ALL_CURVES
100
AcDbLine
 62
40
  6
CONTINUOUS
 10
5.0866378327
 20
5.1928171808
 11
5.0923893952
 21
5.2004859344
  0
LINE
  5
294
100
AcDbEntity
  8
0
100
AcDbLine
 62
7
  6
CONTINUOUS
 10
4.1770448683
 20
4.3840284682
 11
4.1615440827
 21
4.3685276826
  0
LINE
  5
295
100
AcDbEntity
  8
03__ASM_ALL_CURVES
100
AcDbLine
 62
40
  6
CONTINUOUS
 10
4.8450722077
 20
5.1237984328
 11
4.8335690827
 21
5.1161296826
  0
LINE
  5
296
100
AcDbEntity
  8
03__ASM_ALL_CURVES
100
AcDbLine
 62
40
  6
CONTINUOUS
 10
5.0923893952
 20
5.2004859344
 11
5.1038925202
 21
5.2081546826
  0
LINE
  5
297
100
AcDbEntity
  8
03__ASM_ALL_CURVES
100
AcDbLine
 62
40
  6
CONTINUOUS
 10
5.0923893952
 20
5.1621421826
 11
5.1038925202
 21
5.1698109308
  0
LINE
  5
298
100
AcDbEntity
  8
03__ASM_ALL_CURVES
100
AcDbLine
 62
40
  6
CONTINUOUS
 10
5.1268987702
 20
5.1774796844
 11
5.1153956452
 21
5.1698109308
  0
LINE
  5
299
100
AcDbEntity
  8
03__ASM_ALL_CURVES
100
AcDbLine
 62
40
  6
CONTINUOUS
 10
4.8508237702
 20
5.1621421826
 11
4.8335690827
 21
5.1544734317
  0
LINE
  5
29A
100
AcDbEntity
  8
0
100
AcDbLine
 62
7
  6
CONTINUOUS
 10
4.1455440827
 20
4.3685276826
 11
4.1400440827
 21
4.3740276826
  0
LINE
  5
29B
100
AcDbEntity
  8
0
100
AcDbLine
 62
7
  6
CONTINUOUS
 10
4.3530440827
 20
4.3740276826
 11
4.3469493106
 21
4.3845841376
  0
LINE
  5
29C
100
AcDbEntity
  8
03__ASM_ALL_CURVES
100
AcDbLine
 62
40
  6
CONTINUOUS
 10
4.8565753327
 20
5.1774796844
 11
4.8565753327
 21
5.1468046835
  0
LINE
  5
29D
100
AcDbEntity
  8
0
100
AcDbLine
 62
7
  6
CONTINUOUS
 10
4.3530440827
 20
3.8320276826
 11
4.3469493106
 21
3.8214712276
  0
LINE
  5
29E
100
AcDbEntity
  8
03__ASM_ALL_CURVES
100
AcDbLine
 62
40
  6
CONTINUOUS
 10
5.0808862702
 20
5.1468046835
 11
5.0923893952
 21
5.1621421826
  0
LINE
  5
29F
100
AcDbEntity
  8
03__ASM_ALL_CURVES
100
AcDbLine
 62
40
  6
CONTINUOUS
 10
5.1326503327
 20
5.1851484326
 11
5.1268987702
 21
5.1774796844
  0
LINE
  5
2A0
100
AcDbEntity
  8
03__ASM_ALL_CURVES
100
AcDbLine
 62
40
  6
CONTINUOUS
 10
5.1384018952
 20
5.1391359326
 11
5.1268987702
 21
5.1237984328
  0
LINE
  5
2A1
100
AcDbEntity
  8
03__ASM_ALL_CURVES
100
AcDbLine
 62
40
  6
CONTINUOUS
 10
5.2074206452
 20
5.1314671831
 11
5.1959175202
 21
5.1161296826
  0
LINE
  5
2A2
100
AcDbEntity
  8
0
100
AcDbLine
 62
7
  6
CONTINUOUS
 10
4.4340440827
 20
4.4765276826
 11
4.3840440827
 21
4.4265276826
  0
LINE
  5
2A3
100
AcDbEntity
  8
03__ASM_ALL_CURVES
100
AcDbLine
 62
40
  6
CONTINUOUS
 10
5.1268987702
 20
5.1237984328
 11
5.1153956452
 21
5.1161296826
  0
LINE
  5
2A4
100
AcDbEntity
  8
0
100
AcDbLine
 62
7
  6
CONTINUOUS
 10
4.9181077486
 20
3.6140276826
 11
4.8840440827
 21
3.6730276826
  0
LINE
  5
2A5
100
AcDbEntity
  8
0
100
AcDbLine
 62
7
  6
CONTINUOUS
 10
4.8840440827
 20
3.6730276826
 11
4.8840440827
 21
4.5330276826
  0
LINE
  5
2A6
100
AcDbEntity
  8
0
100
AcDbLine
 62
7
  6
CONTINUOUS
 10
4.9181077486
 20
3.6140276826
 11
4.9181077486
 21
3.6149252101
  0
LINE
  5
2A7
100
AcDbEntity
  8
0
100
AcDbLine
 62
7
  6
CONTINUOUS
 10
4.9181077486
 20
3.8333301551
 11
4.9181077486
 21
3.8846227376
  0
LINE
  5
2A8
100
AcDbEntity
  8
0
100
AcDbLine
 62
7
  6
CONTINUOUS
 10
4.9181077486
 20
4.3214326276
 11
4.9181077486
 21
4.3727252101
  0
LINE
  5
2A9
100
AcDbEntity
  8
0
100
AcDbLine
 62
7
  6
CONTINUOUS
 10
4.9181077486
 20
4.5911301551
 11
4.9181077486
 21
4.5920276826
  0
LINE
  5
2AA
100
AcDbEntity
  8
03__ASM_ALL_CURVES
100
AcDbLine
 62
40
  6
CONTINUOUS
 10
4.9198425202
 20
5.1161296826
 11
4.9198425202
 21
5.1237984328
  0
LINE
  5
2AB
100
AcDbEntity
  8
03__ASM_ALL_CURVES
100
AcDbLine
 62
40
  6
CONTINUOUS
 10
5.0176190827
 20
5.2081546826
 11
5.0176190827
 21
5.1161296826
  0
LINE
  5
2AC
100
AcDbEntity
  8
0
100
AcDbLine
 62
7
  6
CONTINUOUS
 10
4.9177191078
 20
4.591354537
 11
4.8840440827
 21
4.5330276826
  0
LINE
  5
2AD
100
AcDbEntity
  8
0
100
AcDbLine
 62
7
  6
CONTINUOUS
 10
4.1455440827
 20
3.8375276826
 11
4.1400440827
 21
3.8320276826
  0
LINE
  5
2AE
100
AcDbEntity
  8
03__ASM_ALL_CURVES
100
AcDbLine
 62
40
  6
CONTINUOUS
 10
7.0949837261
 20
3.3661801826
 11
7.0604743511
 21
3.3661801826
  0
LINE
  5
2AF
100
AcDbEntity
  8
03__ASM_ALL_CURVES
100
AcDbLine
 62
40
  6
CONTINUOUS
 10
6.8749864605
 20
3.3661801826
 11
6.8663591168
 21
3.3661801826
  0
LINE
  5
2B0
100
AcDbEntity
  8
03__ASM_ALL_CURVES
100
AcDbLine
 62
40
  6
CONTINUOUS
 10
6.8059677105
 20
3.3661801826
 11
6.7973403668
 21
3.3661801826
  0
LINE
  5
2B1
100
AcDbEntity
  8
03__ASM_ALL_CURVES
100
AcDbLine
 62
40
  6
CONTINUOUS
 10
6.9914556011
 20
3.3661801826
 11
7.0259649761
 21
3.3661801826
  0
LINE
  5
2B2
100
AcDbEntity
  8
03__ASM_ALL_CURVES
100
AcDbLine
 62
40
  6
CONTINUOUS
 10
7.0604743511
 20
3.4006895576
 11
7.0820427105
 21
3.4006895576
  0
LINE
  5
2B3
100
AcDbEntity
  8
03__ASM_ALL_CURVES
100
AcDbLine
 62
40
  6
CONTINUOUS
 10
6.7973403668
 20
3.4351989326
 11
6.8059677105
 21
3.4351989326
  0
LINE
  5
2B4
100
AcDbEntity
  8
03__ASM_ALL_CURVES
100
AcDbLine
 62
40
  6
CONTINUOUS
 10
6.9181231793
 20
3.4351989326
 11
6.961259898
 21
3.4351989326
  0
LINE
  5
2B5
100
AcDbEntity
  8
03__ASM_ALL_CURVES
100
AcDbLine
 62
40
  6
CONTINUOUS
 10
7.0604743511
 20
3.4351989326
 11
7.0949837261
 21
3.4351989326
  0
LINE
  5
2B6
100
AcDbEntity
  8
03__ASM_ALL_CURVES
100
AcDbLine
 62
40
  6
CONTINUOUS
 10
7.1251794293
 20
3.4351989326
 11
7.168316148
 21
3.4351989326
  0
LINE
  5
2B7
100
AcDbEntity
  8
03__ASM_ALL_CURVES
100
AcDbLine
 62
40
  6
CONTINUOUS
 10
6.9073390384
 20
3.4720089326
 11
6.8987116946
 21
3.4720089326
  0
LINE
  5
2B8
100
AcDbEntity
  8
03__ASM_ALL_CURVES
100
AcDbLine
 62
40
  6
CONTINUOUS
 10
7.092826929
 20
3.4720089326
 11
7.127336304
 21
3.4720089326
  0
LINE
  5
2B9
100
AcDbEntity
  8
03__ASM_ALL_CURVES
100
AcDbLine
 62
40
  6
CONTINUOUS
 10
4.6380159577
 20
5.1544734317
 11
4.6437675202
 21
5.1314671831
  0
LINE
  5
2BA
100
AcDbEntity
  8
03__ASM_ALL_CURVES
100
AcDbLine
 62
40
  6
CONTINUOUS
 10
5.0808862702
 20
5.1391359326
 11
5.0808862702
 21
5.1468046835
  0
LINE
  5
2BB
100
AcDbEntity
  8
03__ASM_ALL_CURVES
100
AcDbLine
 62
40
  6
CONTINUOUS
 10
5.0866378327
 20
5.1851484326
 11
5.0866378327
 21
5.1928171808
  0
LINE
  5
2BC
100
AcDbEntity
  8
03__ASM_ALL_CURVES
100
AcDbLine
 62
40
  6
CONTINUOUS
 10
5.1326503327
 20
5.1928171808
 11
5.1326503327
 21
5.1851484326
  0
LINE
  5
2BD
100
AcDbEntity
  8
03__ASM_ALL_CURVES
100
AcDbLine
 62
40
  6
CONTINUOUS
 10
5.1384018952
 20
5.1468046835
 11
5.1384018952
 21
5.1391359326
  0
LINE
  5
2BE
100
AcDbEntity
  8
03__ASM_ALL_CURVES
100
AcDbLine
 62
40
  6
CONTINUOUS
 10
5.2131722077
 20
5.1544734317
 11
5.2074206452
 21
5.1314671831
  0
LINE
  5
2BF
100
AcDbEntity
  8
03__ASM_ALL_CURVES
100
AcDbLine
 62
40
  6
CONTINUOUS
 10
6.9763577884
 20
3.5065183076
 11
6.954789429
 21
3.5065183076
  0
LINE
  5
2C0
100
AcDbEntity
  8
03__ASM_ALL_CURVES
100
AcDbLine
 62
40
  6
CONTINUOUS
 10
6.8383202884
 20
3.5065183076
 11
6.816751929
 21
3.5065183076
  0
LINE
  5
2C1
100
AcDbEntity
  8
03__ASM_ALL_CURVES
100
AcDbLine
 62
40
  6
CONTINUOUS
 10
6.816751929
 20
3.5410276826
 11
6.8383202884
 21
3.5410276826
  0
LINE
  5
2C2
100
AcDbEntity
  8
03__ASM_ALL_CURVES
100
AcDbLine
 62
40
  6
CONTINUOUS
 10
6.8987116946
 20
3.5410276826
 11
6.9073390384
 21
3.5410276826
  0
LINE
  5
2C3
100
AcDbEntity
  8
03__ASM_ALL_CURVES
100
AcDbLine
 62
40
  6
CONTINUOUS
 10
6.954789429
 20
3.5410276826
 11
6.9763577884
 21
3.5410276826
  0
LINE
  5
2C4
100
AcDbEntity
  8
03__ASM_ALL_CURVES
100
AcDbLine
 62
40
  6
CONTINUOUS
 10
7.0194945071
 20
3.5410276826
 11
7.0626312259
 21
3.5410276826
  0
LINE
  5
2C5
100
AcDbEntity
  8
03__ASM_ALL_CURVES
100
AcDbLine
 62
40
  6
CONTINUOUS
 10
7.1057679446
 20
3.5410276826
 11
7.1143952884
 21
3.5410276826
  0
LINE
  5
2C6
100
AcDbEntity
  8
0
100
AcDbLine
 62
7
  6
CONTINUOUS
 10
5.6295440827
 20
3.6140276826
 11
4.9181077486
 21
3.6140276826
  0
LINE
  5
2C7
100
AcDbEntity
  8
0
100
AcDbLine
 62
7
  6
CONTINUOUS
 10
5.6295440827
 20
3.6149252101
 11
4.9181077486
 21
3.6149252101
  0
LINE
  5
2C8
100
AcDbEntity
  8
03__ASM_ALL_CURVES
100
AcDbLine
 62
40
  6
CONTINUOUS
 10
4.2986737702
 20
5.2004859344
 11
4.3044253327
 21
5.1928171808
  0
LINE
  5
2C9
100
AcDbEntity
  8
03__ASM_ALL_CURVES
100
AcDbLine
 62
40
  6
CONTINUOUS
 10
4.3676925202
 20
5.1237984328
 11
4.3734440827
 21
5.1161296826
  0
LINE
  5
2CA
100
AcDbEntity
  8
03__ASM_ALL_CURVES
100
AcDbLine
 62
40
  6
CONTINUOUS
 10
4.7645503327
 20
5.1621421826
 11
4.7703018952
 21
5.1468046835
  0
LINE
  5
2CB
100
AcDbEntity
  8
03__ASM_ALL_CURVES
100
AcDbLine
 62
40
  6
CONTINUOUS
 10
5.2131722077
 20
5.1698109308
 11
5.2131722077
 21
5.1544734317
  0
LINE
  5
2CC
100
AcDbEntity
  8
03__ASM_ALL_CURVES
100
AcDbLine
 62
40
  6
CONTINUOUS
 10
6.155060646
 20
5.2004859344
 11
6.166563771
 21
5.2081546826
  0
LINE
  5
2CD
100
AcDbEntity
  8
03__ASM_ALL_CURVES
100
AcDbLine
 62
40
  6
CONTINUOUS
 10
6.247085646
 20
5.2004859344
 11
6.258588771
 21
5.2081546826
  0
LINE
  5
2CE
100
AcDbEntity
  8
03__ASM_ALL_CURVES
100
AcDbLine
 62
40
  6
CONTINUOUS
 10
6.189570021
 20
5.1237984328
 11
6.178066896
 21
5.1161296826
  0
LINE
  5
2CF
100
AcDbEntity
  8
0
100
AcDbLine
 62
7
  6
CONTINUOUS
 10
5.9070440827
 20
3.6755276826
 11
5.6910440827
 21
3.6755276826
  0
LINE
  5
2D0
100
AcDbEntity
  8
THREAD
100
AcDbLine
 62
7
  6
CONTINUOUS
 10
5.9570440827
 20
3.6980276826
 11
5.9347665146
 21
3.6980276826
  0
LINE
  5
2D1
100
AcDbEntity
  8
0
100
AcDbLine
 62
7
  6
CONTINUOUS
 10
6.0270440827
 20
3.6985276826
 11
6.0770440827
 21
3.6985276826
  0
LINE
  5
2D2
100
AcDbEntity
  8
THREAD
100
AcDbLine
 62
7
  6
CONTINUOUS
 10
6.3655440827
 20
3.7155276826
 11
6.1184060427
 21
3.7155276826
  0
LINE
  5
2D3
100
AcDbEntity
  8
0
100
AcDbLine
 62
7
  6
CONTINUOUS
 10
4.8840440827
 20
3.7295276826
 11
4.5330440827
 21
3.7295276826
  0
LINE
  5
2D4
100
AcDbEntity
  8
0
100
AcDbLine
 62
7
  6
CONTINUOUS
 10
4.4850440827
 20
3.7295276826
 11
4.4340440827
 21
3.7295276826
  0
LINE
  5
2D5
100
AcDbEntity
  8
THREAD
100
AcDbLine
 62
7
  6
CONTINUOUS
 10
6.0924252806
 20
3.7525276826
 11
6.0770440827
 21
3.7525276826
  0
LINE
  5
2D6
100
AcDbEntity
  8
0
100
AcDbLine
 62
7
  6
CONTINUOUS
 10
4.5200440827
 20
3.7530276826
 11
4.4980440827
 21
3.7530276826
  0
LINE
  5
2D7
100
AcDbEntity
  8
0
100
AcDbLine
 62
7
  6
CONTINUOUS
 10
7.3290440827
 20
3.7595276826
 11
7.3770440827
 21
3.7595276826
  0
LINE
  5
2D8
100
AcDbEntity
  8
THREAD
100
AcDbLine
 62
7
  6
CONTINUOUS
 10
6.5880440827
 20
3.7600276826
 11
6.4100440827
 21
3.7600276826
  0
LINE
  5
2D9
100
AcDbEntity
  8
0
100
AcDbLine
 62
7
  6
CONTINUOUS
 10
7.4530440827
 20
3.7605276826
 11
7.3990440827
 21
3.7605276826
  0
LINE
  5
2DA
100
AcDbEntity
  8
0
100
AcDbLine
 62
7
  6
CONTINUOUS
 10
7.3180440827
 20
3.7605276826
 11
7.2540440827
 21
3.7605276826
  0
LINE
  5
2DB
100
AcDbEntity
  8
0
100
AcDbLine
 62
7
  6
CONTINUOUS
 10
4.1770440828
 20
3.8220276826
 11
4.3472678044
 21
3.8220276826
  0
LINE
  5
2DC
100
AcDbEntity
  8
0
100
AcDbLine
 62
7
  6
CONTINUOUS
 10
6.5980440827
 20
3.8225276826
 11
6.6105440827
 21
3.8225276826
  0
LINE
  5
2DD
100
AcDbEntity
  8
0
100
AcDbLine
 62
7
  6
CONTINUOUS
 10
6.6455440827
 20
3.8225276826
 11
6.6895440827
 21
3.8225276826
  0
LINE
  5
2DE
100
AcDbEntity
  8
0
100
AcDbLine
 62
7
  6
CONTINUOUS
 10
6.7245440827
 20
3.8225276826
 11
6.9575440827
 21
3.8225276826
  0
LINE
  5
2DF
100
AcDbEntity
  8
0
100
AcDbLine
 62
7
  6
CONTINUOUS
 10
7.0825440827
 20
3.8225276826
 11
7.2540440827
 21
3.8225276826
  0
LINE
  5
2E0
100
AcDbEntity
  8
03__ASM_ALL_CURVES
100
AcDbLine
 62
40
  6
CONTINUOUS
 10
4.4482143952
 20
5.1237984328
 11
4.4424628327
 21
5.1314671831
  0
LINE
  5
2E1
100
AcDbEntity
  8
03__ASM_ALL_CURVES
100
AcDbLine
 62
40
  6
CONTINUOUS
 10
4.4827237702
 20
5.1621421826
 11
4.4942268952
 21
5.1468046835
  0
LINE
  5
2E2
100
AcDbEntity
  8
03__ASM_ALL_CURVES
100
AcDbLine
 62
40
  6
CONTINUOUS
 10
4.4827237702
 20
5.2004859344
 11
4.4884753327
 21
5.1928171808
  0
LINE
  5
2E3
100
AcDbEntity
  8
03__ASM_ALL_CURVES
100
AcDbLine
 62
40
  6
CONTINUOUS
 10
4.5402393952
 20
5.1237984328
 11
4.5344878327
 21
5.1314671831
  0
LINE
  5
2E4
100
AcDbEntity
  8
03__ASM_ALL_CURVES
100
AcDbLine
 62
40
  6
CONTINUOUS
 10
4.8163143952
 20
5.1621421826
 11
4.8105628327
 21
5.1774796844
  0
LINE
  5
2E5
100
AcDbEntity
  8
03__ASM_ALL_CURVES
100
AcDbLine
 62
40
  6
CONTINUOUS
 10
4.8508237702
 20
5.1928171808
 11
4.8565753327
 21
5.1774796844
  0
LINE
  5
2E6
100
AcDbEntity
  8
03__ASM_ALL_CURVES
100
AcDbLine
 62
40
  6
CONTINUOUS
 10
6.281595021
 20
5.1237984328
 11
6.270091896
 21
5.1161296826
  0
LINE
  5
2E7
100
AcDbEntity
  8
0
100
AcDbLine
 62
7
  6
CONTINUOUS
 10
4.3840440827
 20
3.8320276826
 11
4.3530440827
 21
3.8320276826
  0
LINE
  5
2E8
100
AcDbEntity
  8
0
100
AcDbLine
 62
7
  6
CONTINUOUS
 10
4.1400440827
 20
3.8320276826
 11
4.1340440827
 21
3.8320276826
  0
LINE
  5
2E9
100
AcDbEntity
  8
0
100
AcDbLine
 62
7
  6
CONTINUOUS
 10
5.6295440827
 20
3.8333301551
 11
4.9181077486
 21
3.8333301551
  0
LINE
  5
2EA
100
AcDbEntity
  8
0
100
AcDbLine
 62
7
  6
CONTINUOUS
 10
4.1615440827
 20
3.8375276826
 11
4.1455440827
 21
3.8375276826
  0
LINE
  5
2EB
100
AcDbEntity
  8
0
100
AcDbLine
 62
7
  6
CONTINUOUS
 10
5.6295440827
 20
3.8846227376
 11
4.9181077486
 21
3.8846227376
  0
LINE
  5
2EC
100
AcDbEntity
  8
0
100
AcDbLine
 62
7
  6
CONTINUOUS
 10
3.6040440827
 20
3.9190276826
 11
3.8030440827
 21
3.9190276826
  0
LINE
  5
2ED
100
AcDbEntity
  8
0
100
AcDbLine
 62
7
  6
CONTINUOUS
 10
3.8410440827
 20
3.9190276826
 11
4.0720440827
 21
3.9190276826
  0
LINE
  5
2EE
100
AcDbEntity
  8
0
100
AcDbLine
 62
7
  6
CONTINUOUS
 10
3.8030440827
 20
3.9520276826
 11
3.8045440827
 21
3.9520276826
  0
LINE
  5
2EF
100
AcDbEntity
  8
0
100
AcDbLine
 62
7
  6
CONTINUOUS
 10
3.8395440827
 20
3.9520276826
 11
3.8410440827
 21
3.9520276826
  0
LINE
  5
2F0
100
AcDbEntity
  8
03__ASM_ALL_CURVES
100
AcDbLine
 62
40
  6
CONTINUOUS
 10
4.5747487702
 20
5.1621421826
 11
4.5862518952
 21
5.1468046835
  0
LINE
  5
2F1
100
AcDbEntity
  8
03__ASM_ALL_CURVES
100
AcDbLine
 62
40
  6
CONTINUOUS
 10
4.5747487702
 20
5.2004859344
 11
4.5805003327
 21
5.1928171808
  0
LINE
  5
2F2
100
AcDbEntity
  8
03__ASM_ALL_CURVES
100
AcDbLine
 62
40
  6
CONTINUOUS
 10
4.6437675202
 20
5.1314671831
 11
4.6552706452
 21
5.1161296826
  0
LINE
  5
2F3
100
AcDbEntity
  8
03__ASM_ALL_CURVES
100
AcDbLine
 62
40
  6
CONTINUOUS
 10
4.7242893952
 20
5.1237984328
 11
4.7185378327
 21
5.1314671831
  0
LINE
  5
2F4
100
AcDbEntity
  8
03__ASM_ALL_CURVES
100
AcDbLine
 62
40
  6
CONTINUOUS
 10
4.7587987702
 20
5.1698109308
 11
4.7645503327
 21
5.1621421826
  0
LINE
  5
2F5
100
AcDbEntity
  8
03__ASM_ALL_CURVES
100
AcDbLine
 62
40
  6
CONTINUOUS
 10
5.2074206452
 20
5.1928171808
 11
5.2131722077
 21
5.1698109308
  0
LINE
  5
2F6
100
AcDbEntity
  8
0
100
AcDbLine
 62
7
  6
CONTINUOUS
 10
5.6295440827
 20
3.6140276826
 11
5.6295440827
 21
3.6149252101
  0
LINE
  5
2F7
100
AcDbEntity
  8
0
100
AcDbLine
 62
7
  6
CONTINUOUS
 10
5.6295440827
 20
3.8333301551
 11
5.6295440827
 21
3.8846227376
  0
LINE
  5
2F8
100
AcDbEntity
  8
0
100
AcDbLine
 62
7
  6
CONTINUOUS
 10
5.6295440827
 20
4.3214326276
 11
5.6295440827
 21
4.3727252101
  0
LINE
  5
2F9
100
AcDbEntity
  8
0
100
AcDbLine
 62
7
  6
CONTINUOUS
 10
5.6295440827
 20
4.5911301551
 11
5.6295440827
 21
4.5920276826
  0
LINE
  5
2FA
100
AcDbEntity
  8
03__ASM_ALL_CURVES
100
AcDbLine
 62
40
  6
CONTINUOUS
 10
6.143557521
 20
5.1851484326
 11
6.155060646
 21
5.2004859344
  0
LINE
  5
2FB
100
AcDbEntity
  8
03__ASM_ALL_CURVES
100
AcDbLine
 62
40
  6
CONTINUOUS
 10
6.201073146
 20
5.1391359326
 11
6.189570021
 21
5.1237984328
  0
LINE
  5
2FC
100
AcDbEntity
  8
03__ASM_ALL_CURVES
100
AcDbLine
 62
40
  6
CONTINUOUS
 10
6.235582521
 20
5.1851484326
 11
6.247085646
 21
5.2004859344
  0
LINE
  5
2FD
100
AcDbEntity
  8
03__ASM_ALL_CURVES
100
AcDbLine
 62
40
  6
CONTINUOUS
 10
6.707210646
 20
5.2004859344
 11
6.718713771
 21
5.2081546826
  0
LINE
  5
2FE
100
AcDbEntity
  8
03__ASM_ALL_CURVES
100
AcDbLine
 62
40
  6
CONTINUOUS
 10
6.741720021
 20
5.1237984328
 11
6.730216896
 21
5.1161296826
  0
LINE
  5
2FF
100
AcDbEntity
  8
03__ASM_ALL_CURVES
100
AcDbLine
 62
40
  6
CONTINUOUS
 10
6.902763771
 20
5.2081546826
 11
6.891260646
 21
5.2004859344
  0
LINE
  5
300
100
AcDbEntity
  8
03__ASM_ALL_CURVES
100
AcDbLine
 62
40
  6
CONTINUOUS
 10
7.9563550195
 20
4.0156039326
 11
7.9218456445
 21
4.0156039326
  0
LINE
  5
301
100
AcDbEntity
  8
03__ASM_ALL_CURVES
100
AcDbLine
 62
40
  6
CONTINUOUS
 10
7.8528268945
 20
4.0156039326
 11
7.8873362695
 21
4.0156039326
  0
LINE
  5
302
100
AcDbEntity
  8
03__ASM_ALL_CURVES
100
AcDbLine
 62
40
  6
CONTINUOUS
 10
7.9218456445
 20
4.0501133076
 11
7.9434140039
 21
4.0501133076
  0
LINE
  5
303
100
AcDbEntity
  8
03__ASM_ALL_CURVES
100
AcDbLine
 62
40
  6
CONTINUOUS
 10
7.9218456445
 20
4.0846226826
 11
7.9563550195
 21
4.0846226826
  0
LINE
  5
304
100
AcDbEntity
  8
03__ASM_ALL_CURVES
100
AcDbLine
 62
40
  6
CONTINUOUS
 10
7.9865507227
 20
4.0846226826
 11
8.0296874414
 21
4.0846226826
  0
LINE
  5
305
100
AcDbEntity
  8
0
100
AcDbLine
 62
7
  6
CONTINUOUS
 10
4.3221726723
 20
4.1030276826
 11
4.220514934
 21
4.1030276826
  0
LINE
  5
306
100
AcDbEntity
  8
03__ASM_ALL_CURVES
100
AcDbLine
 62
40
  6
CONTINUOUS
 10
7.8226311918
 20
4.1214326826
 11
7.814003848
 21
4.1214326826
  0
LINE
  5
307
100
AcDbEntity
  8
03__ASM_ALL_CURVES
100
AcDbLine
 62
40
  6
CONTINUOUS
 10
6.7973403668
 20
3.3661801826
 11
6.788713023
 21
3.3719317453
  0
LINE
  5
308
100
AcDbEntity
  8
03__ASM_ALL_CURVES
100
AcDbLine
 62
40
  6
CONTINUOUS
 10
6.8663591168
 20
3.3661801826
 11
6.857731773
 21
3.3719317453
  0
LINE
  5
309
100
AcDbEntity
  8
03__ASM_ALL_CURVES
100
AcDbLine
 62
40
  6
CONTINUOUS
 10
6.8059677105
 20
3.4351989326
 11
6.8145950543
 21
3.4294473715
  0
LINE
  5
30A
100
AcDbEntity
  8
03__ASM_ALL_CURVES
100
AcDbLine
 62
40
  6
CONTINUOUS
 10
4.8220659577
 20
5.1237984328
 11
4.8163143952
 21
5.1314671831
  0
LINE
  5
30B
100
AcDbEntity
  8
03__ASM_ALL_CURVES
100
AcDbLine
 62
40
  6
CONTINUOUS
 10
4.8450722077
 20
5.2004859344
 11
4.8508237702
 21
5.1928171808
  0
LINE
  5
30C
100
AcDbEntity
  8
03__ASM_ALL_CURVES
100
AcDbLine
 62
40
  6
CONTINUOUS
 10
4.9198425202
 20
5.1237984328
 11
4.9255940827
 21
5.1161296826
  0
LINE
  5
30D
100
AcDbEntity
  8
0
100
AcDbLine
 62
7
  6
CONTINUOUS
 10
5.6910440827
 20
3.6755276826
 11
5.6910440827
 21
4.5305276826
  0
LINE
  5
30E
100
AcDbEntity
  8
03__ASM_ALL_CURVES
100
AcDbLine
 62
40
  6
CONTINUOUS
 10
5.7996140827
 20
5.0977246826
 11
5.7996140827
 21
5.0609146826
  0
LINE
  5
30F
100
AcDbEntity
  8
03__ASM_ALL_CURVES
100
AcDbLine
 62
40
  6
CONTINUOUS
 10
6.2873465835
 20
5.1314671831
 11
6.281595021
 21
5.1237984328
  0
LINE
  5
310
100
AcDbEntity
  8
03__ASM_ALL_CURVES
100
AcDbLine
 62
40
  6
CONTINUOUS
 10
6.925770021
 20
5.1237984328
 11
6.914266896
 21
5.1161296826
  0
LINE
  5
311
100
AcDbEntity
  8
03__ASM_ALL_CURVES
100
AcDbLine
 62
40
  6
CONTINUOUS
 10
7.075310646
 20
5.2004859344
 11
7.086813771
 21
5.2081546826
  0
LINE
  5
312
100
AcDbEntity
  8
03__ASM_ALL_CURVES
100
AcDbLine
 62
40
  6
CONTINUOUS
 10
7.8916499418
 20
4.1559420576
 11
7.8700815824
 21
4.1559420576
  0
LINE
  5
313
100
AcDbEntity
  8
03__ASM_ALL_CURVES
100
AcDbLine
 62
40
  6
CONTINUOUS
 10
7.7536124418
 20
4.1559420576
 11
7.7320440824
 21
4.1559420576
  0
LINE
  5
314
100
AcDbEntity
  8
03__ASM_ALL_CURVES
100
AcDbLine
 62
40
  6
CONTINUOUS
 10
7.7320440824
 20
4.1904514326
 11
7.7536124418
 21
4.1904514326
  0
LINE
  5
315
100
AcDbEntity
  8
03__ASM_ALL_CURVES
100
AcDbLine
 62
40
  6
CONTINUOUS
 10
7.814003848
 20
4.1904514326
 11
7.8226311918
 21
4.1904514326
  0
LINE
  5
316
100
AcDbEntity
  8
03__ASM_ALL_CURVES
100
AcDbLine
 62
40
  6
CONTINUOUS
 10
7.8700815824
 20
4.1904514326
 11
7.8916499418
 21
4.1904514326
  0
LINE
  5
317
100
AcDbEntity
  8
03__ASM_ALL_CURVES
100
AcDbLine
 62
40
  6
CONTINUOUS
 10
7.9347866605
 20
4.1904514326
 11
7.9779233793
 21
4.1904514326
  0
LINE
  5
318
100
AcDbEntity
  8
0
100
AcDbLine
 62
7
  6
CONTINUOUS
 10
3.8030440827
 20
4.2540276826
 11
3.8410440827
 21
4.2540276826
  0
LINE
  5
319
100
AcDbEntity
  8
0
100
AcDbLine
 62
7
  6
CONTINUOUS
 10
3.6040440827
 20
4.2870276826
 11
3.8030440827
 21
4.2870276826
  0
LINE
  5
31A
100
AcDbEntity
  8
0
100
AcDbLine
 62
7
  6
CONTINUOUS
 10
3.8410440827
 20
4.2870276826
 11
4.0720440827
 21
4.2870276826
  0
LINE
  5
31B
100
AcDbEntity
  8
03__ASM_ALL_CURVES
100
AcDbLine
 62
40
  6
CONTINUOUS
 10
4.2871706452
 20
5.2081546826
 11
4.2986737702
 21
5.2004859344
  0
LINE
  5
31C
100
AcDbEntity
  8
03__ASM_ALL_CURVES
100
AcDbLine
 62
40
  6
CONTINUOUS
 10
6.8987116946
 20
3.4720089326
 11
6.8900843509
 21
3.4777604953
  0
LINE
  5
31D
100
AcDbEntity
  8
03__ASM_ALL_CURVES
100
AcDbLine
 62
40
  6
CONTINUOUS
 10
4.4597175202
 20
5.1161296826
 11
4.4482143952
 21
5.1237984328
  0
LINE
  5
31E
100
AcDbEntity
  8
03__ASM_ALL_CURVES
100
AcDbLine
 62
40
  6
CONTINUOUS
 10
6.8383202884
 20
3.5410276826
 11
6.8469476321
 21
3.5352761215
  0
LINE
  5
31F
100
AcDbEntity
  8
03__ASM_ALL_CURVES
100
AcDbLine
 62
40
  6
CONTINUOUS
 10
6.9073390384
 20
3.5410276826
 11
6.9159663821
 21
3.5352761215
  0
LINE
  5
320
100
AcDbEntity
  8
03__ASM_ALL_CURVES
100
AcDbLine
 62
40
  6
CONTINUOUS
 10
4.5517425202
 20
5.1161296826
 11
4.5402393952
 21
5.1237984328
  0
LINE
  5
321
100
AcDbEntity
  8
03__ASM_ALL_CURVES
100
AcDbLine
 62
40
  6
CONTINUOUS
 10
4.4712206452
 20
5.1698109308
 11
4.4827237702
 21
5.1621421826
  0
LINE
  5
322
100
AcDbEntity
  8
03__ASM_ALL_CURVES
100
AcDbLine
 62
40
  6
CONTINUOUS
 10
5.0923893952
 20
5.1237984328
 11
5.0808862702
 21
5.1391359326
  0
LINE
  5
323
100
AcDbEntity
  8
03__ASM_ALL_CURVES
100
AcDbLine
 62
40
  6
CONTINUOUS
 10
5.0923893952
 20
5.1774796844
 11
5.0866378327
 21
5.1851484326
  0
LINE
  5
324
100
AcDbEntity
  8
03__ASM_ALL_CURVES
100
AcDbLine
 62
40
  6
CONTINUOUS
 10
5.1268987702
 20
5.1621421826
 11
5.1384018952
 21
5.1468046835
  0
LINE
  5
325
100
AcDbEntity
  8
03__ASM_ALL_CURVES
100
AcDbLine
 62
40
  6
CONTINUOUS
 10
5.1268987702
 20
5.2004859344
 11
5.1326503327
 21
5.1928171808
  0
LINE
  5
326
100
AcDbEntity
  8
THREAD
100
AcDbLine
 62
7
  6
CONTINUOUS
 10
6.1184060427
 20
3.7155276826
 11
6.0993534838
 21
3.7485276826
  0
LINE
  5
327
100
AcDbEntity
  8
0
100
AcDbLine
 62
7
  6
CONTINUOUS
 10
5.9070440827
 20
4.5305276826
 11
5.9070440827
 21
3.6755276826
  0
LINE
  5
328
100
AcDbEntity
  8
0
100
AcDbLine
 62
7
  6
CONTINUOUS
 10
5.9100440827
 20
4.5275276826
 11
5.9100440827
 21
3.6785276826
  0
LINE
  5
329
100
AcDbEntity
  8
03__ASM_ALL_CURVES
100
AcDbLine
 62
40
  6
CONTINUOUS
 10
5.9100440827
 20
4.5489326826
 11
5.9100440827
 21
5.1161296826
  0
LINE
  5
32A
100
AcDbEntity
  8
0
100
AcDbLine
 62
7
  6
CONTINUOUS
 10
5.9125440827
 20
3.6859710583
 11
5.9125440827
 21
4.5200843069
  0
LINE
  5
32B
100
AcDbEntity
  8
0
100
AcDbLine
 62
7
  6
CONTINUOUS
 10
5.9322665071
 20
4.5080277107
 11
5.9322665146
 21
4.5086975556
  0
LINE
  5
32C
100
AcDbEntity
  8
0
100
AcDbLine
 62
7
  6
CONTINUOUS
 10
5.9322665146
 20
3.6973578096
 11
5.9322665071
 21
4.5080277107
  0
LINE
  5
32D
100
AcDbEntity
  8
0
100
AcDbLine
 62
7
  6
CONTINUOUS
 10
5.9347665146
 20
3.6980276826
 11
5.9347665146
 21
4.5080276826
  0
LINE
  5
32E
100
AcDbEntity
  8
THREAD
100
AcDbLine
 62
7
  6
CONTINUOUS
 10
5.9570440827
 20
3.6980276826
 11
5.9570440827
 21
4.5080276826
  0
LINE
  5
32F
100
AcDbEntity
  8
03__ASM_ALL_CURVES
100
AcDbLine
 62
40
  6
CONTINUOUS
 10
6.1378059585
 20
5.1621421826
 11
6.143557521
 21
5.1851484326
  0
LINE
  5
330
100
AcDbEntity
  8
03__ASM_ALL_CURVES
100
AcDbLine
 62
40
  6
CONTINUOUS
 10
6.2068247085
 20
5.1621421826
 11
6.201073146
 21
5.1391359326
  0
LINE
  5
331
100
AcDbEntity
  8
THREAD
100
AcDbLine
 62
7
  6
CONTINUOUS
 10
6.1184060427
 20
4.4905276826
 11
6.0993534838
 21
4.4575276826
  0
LINE
  5
332
100
AcDbEntity
  8
03__ASM_ALL_CURVES
100
AcDbLine
 62
40
  6
CONTINUOUS
 10
6.695707521
 20
5.1851484326
 11
6.707210646
 21
5.2004859344
  0
LINE
  5
333
100
AcDbEntity
  8
03__ASM_ALL_CURVES
100
AcDbLine
 62
40
  6
CONTINUOUS
 10
7.109820021
 20
5.1237984328
 11
7.098316896
 21
5.1161296826
  0
LINE
  5
334
100
AcDbEntity
  8
03__ASM_ALL_CURVES
100
AcDbLine
 62
40
  6
CONTINUOUS
 10
7.201845021
 20
5.1237984328
 11
7.190341896
 21
5.1161296826
  0
LINE
  5
335
100
AcDbEntity
  8
03__ASM_ALL_CURVES
100
AcDbLine
 62
40
  6
CONTINUOUS
 10
7.3801434585
 20
5.1237984328
 11
7.3686403335
 21
5.1161296826
  0
LINE
  5
336
100
AcDbEntity
  8
0
100
AcDbLine
 62
7
  6
CONTINUOUS
 10
5.6295440827
 20
4.3214326276
 11
4.9181077486
 21
4.3214326276
  0
LINE
  5
337
100
AcDbEntity
  8
0
100
AcDbLine
 62
7
  6
CONTINUOUS
 10
4.1615440827
 20
4.3685276826
 11
4.1455440827
 21
4.3685276826
  0
LINE
  5
338
100
AcDbEntity
  8
0
100
AcDbLine
 62
7
  6
CONTINUOUS
 10
5.6295440827
 20
4.3727252101
 11
4.9181077486
 21
4.3727252101
  0
LINE
  5
339
100
AcDbEntity
  8
0
100
AcDbLine
 62
7
  6
CONTINUOUS
 10
4.3840440827
 20
4.3740276826
 11
4.3530440827
 21
4.3740276826
  0
LINE
  5
33A
100
AcDbEntity
  8
0
100
AcDbLine
 62
7
  6
CONTINUOUS
 10
4.1400440827
 20
4.3740276826
 11
4.1340440827
 21
4.3740276826
  0
LINE
  5
33B
100
AcDbEntity
  8
0
100
AcDbLine
 62
7
  6
CONTINUOUS
 10
6.5980440827
 20
4.3835276826
 11
6.6120518971
 21
4.3835276826
  0
LINE
  5
33C
100
AcDbEntity
  8
0
100
AcDbLine
 62
7
  6
CONTINUOUS
 10
6.6440362683
 20
4.3835276826
 11
6.6910518971
 21
4.3835276826
  0
LINE
  5
33D
100
AcDbEntity
  8
0
100
AcDbLine
 62
7
  6
CONTINUOUS
 10
6.7230362683
 20
4.3835276826
 11
6.9575440827
 21
4.3835276826
  0
LINE
  5
33E
100
AcDbEntity
  8
0
100
AcDbLine
 62
7
  6
CONTINUOUS
 10
7.0825440827
 20
4.3835276826
 11
7.2540440827
 21
4.3835276826
  0
LINE
  5
33F
100
AcDbEntity
  8
0
100
AcDbLine
 62
7
  6
CONTINUOUS
 10
4.1770440828
 20
4.3840276826
 11
4.3472678044
 21
4.3840276826
  0
LINE
  5
340
100
AcDbEntity
  8
0
100
AcDbLine
 62
7
  6
CONTINUOUS
 10
7.4530440827
 20
4.4455276826
 11
7.3990440827
 21
4.4455276826
  0
LINE
  5
341
100
AcDbEntity
  8
0
100
AcDbLine
 62
7
  6
CONTINUOUS
 10
7.3180440827
 20
4.4455276826
 11
7.2540440827
 21
4.4455276826
  0
LINE
  5
342
100
AcDbEntity
  8
THREAD
100
AcDbLine
 62
7
  6
CONTINUOUS
 10
6.5880440827
 20
4.4460276826
 11
6.4100440827
 21
4.4460276826
  0
LINE
  5
343
100
AcDbEntity
  8
0
100
AcDbLine
 62
7
  6
CONTINUOUS
 10
7.3290440827
 20
4.4465276826
 11
7.3770440827
 21
4.4465276826
  0
LINE
  5
344
100
AcDbEntity
  8
0
100
AcDbLine
 62
7
  6
CONTINUOUS
 10
4.5200440827
 20
4.4530276826
 11
4.4980440827
 21
4.4530276826
  0
LINE
  5
345
100
AcDbEntity
  8
THREAD
100
AcDbLine
 62
7
  6
CONTINUOUS
 10
6.0924252806
 20
4.4535276826
 11
6.0770440827
 21
4.4535276826
  0
LINE
  5
346
100
AcDbEntity
  8
03__ASM_ALL_CURVES
100
AcDbLine
 62
40
  6
CONTINUOUS
 10
4.4712206452
 20
5.2081546826
 11
4.4827237702
 21
5.2004859344
  0
LINE
  5
347
100
AcDbEntity
  8
03__ASM_ALL_CURVES
100
AcDbLine
 62
40
  6
CONTINUOUS
 10
6.9763577884
 20
3.5410276826
 11
6.9849851321
 21
3.5352761215
  0
LINE
  5
348
100
AcDbEntity
  8
03__ASM_ALL_CURVES
100
AcDbLine
 62
40
  6
CONTINUOUS
 10
4.5632456452
 20
5.1698109308
 11
4.5747487702
 21
5.1621421826
  0
LINE
  5
349
100
AcDbEntity
  8
03__ASM_ALL_CURVES
100
AcDbLine
 62
40
  6
CONTINUOUS
 10
4.5632456452
 20
5.2081546826
 11
4.5747487702
 21
5.2004859344
  0
LINE
  5
34A
100
AcDbEntity
  8
03__ASM_ALL_CURVES
100
AcDbLine
 62
40
  6
CONTINUOUS
 10
4.7357925202
 20
5.1161296826
 11
4.7242893952
 21
5.1237984328
  0
LINE
  5
34B
100
AcDbEntity
  8
03__ASM_ALL_CURVES
100
AcDbLine
 62
40
  6
CONTINUOUS
 10
7.1143952884
 20
3.5410276826
 11
7.1230226321
 21
3.5352761215
  0
LINE
  5
34C
100
AcDbEntity
  8
03__ASM_ALL_CURVES
100
AcDbLine
 62
40
  6
CONTINUOUS
 10
4.8335690827
 20
5.1161296826
 11
4.8220659577
 21
5.1237984328
  0
LINE
  5
34D
100
AcDbEntity
  8
03__ASM_ALL_CURVES
100
AcDbLine
 62
40
  6
CONTINUOUS
 10
4.7472956452
 20
5.1774796844
 11
4.7587987702
 21
5.1698109308
  0
LINE
  5
34E
100
AcDbEntity
  8
0
100
AcDbLine
 62
7
  6
CONTINUOUS
 10
5.6910440827
 20
4.5305276826
 11
5.6299928465
 21
4.5915789188
  0
LINE
  5
34F
100
AcDbEntity
  8
03__ASM_ALL_CURVES
100
AcDbLine
 62
40
  6
CONTINUOUS
 10
5.1959175202
 20
5.2081546826
 11
5.2074206452
 21
5.1928171808
  0
LINE
  5
350
100
AcDbEntity
  8
03__ASM_ALL_CURVES
100
AcDbLine
 62
40
  6
CONTINUOUS
 10
6.0204740827
 20
5.0977246826
 11
6.0204740827
 21
5.0609146826
  0
LINE
  5
351
100
AcDbEntity
  8
0
100
AcDbLine
 62
7
  6
CONTINUOUS
 10
6.0270440827
 20
3.6985282976
 11
6.0270440827
 21
4.5075270676
  0
LINE
  5
352
100
AcDbEntity
  8
03__ASM_ALL_CURVES
100
AcDbLine
 62
40
  6
CONTINUOUS
 10
6.0572840835
 20
5.2081546826
 11
6.0572840835
 21
5.1161296826
  0
LINE
  5
353
100
AcDbEntity
  8
0
100
AcDbLine
 62
7
  6
CONTINUOUS
 10
6.0770440827
 20
3.6985282976
 11
6.0770440827
 21
4.5075270676
  0
LINE
  5
354
100
AcDbEntity
  8
0
100
AcDbLine
 62
7
  6
CONTINUOUS
 10
6.0924252806
 20
3.7525276826
 11
6.0924252806
 21
4.4535276826
  0
LINE
  5
355
100
AcDbEntity
  8
0
100
AcDbLine
 62
7
  6
CONTINUOUS
 10
6.0993534838
 20
3.7485276826
 11
6.0993534838
 21
4.4575276826
  0
LINE
  5
356
100
AcDbEntity
  8
THREAD
100
AcDbLine
 62
7
  6
CONTINUOUS
 10
6.1184060427
 20
3.7155276826
 11
6.1184060427
 21
4.4905276826
  0
LINE
  5
357
100
AcDbEntity
  8
03__ASM_ALL_CURVES
100
AcDbLine
 62
40
  6
CONTINUOUS
 10
6.2298309585
 20
5.1621421826
 11
6.235582521
 21
5.1851484326
  0
LINE
  5
358
100
AcDbEntity
  8
03__ASM_ALL_CURVES
100
AcDbLine
 62
40
  6
CONTINUOUS
 10
6.327607521
 20
5.1161296826
 11
6.3563653335
 21
5.2081546826
  0
LINE
  5
359
100
AcDbEntity
  8
03__ASM_ALL_CURVES
100
AcDbLine
 62
40
  6
CONTINUOUS
 10
6.7474715835
 20
5.1314671831
 11
6.741720021
 21
5.1237984328
  0
LINE
  5
35A
100
AcDbEntity
  8
03__ASM_ALL_CURVES
100
AcDbLine
 62
40
  6
CONTINUOUS
 10
6.891260646
 20
5.2004859344
 11
6.8855090835
 21
5.1928171808
  0
LINE
  5
35B
100
AcDbEntity
  8
03__ASM_ALL_CURVES
100
AcDbLine
 62
40
  6
CONTINUOUS
 10
7.569945021
 20
5.1698109308
 11
7.558441896
 21
5.1621421826
  0
LINE
  5
35C
100
AcDbEntity
  8
0
100
AcDbLine
 62
7
  6
CONTINUOUS
 10
4.8840440827
 20
4.4765276826
 11
4.5330440827
 21
4.4765276826
  0
LINE
  5
35D
100
AcDbEntity
  8
0
100
AcDbLine
 62
7
  6
CONTINUOUS
 10
4.4850440827
 20
4.4765276826
 11
4.4340440827
 21
4.4765276826
  0
LINE
  5
35E
100
AcDbEntity
  8
THREAD
100
AcDbLine
 62
7
  6
CONTINUOUS
 10
6.3655440827
 20
4.4905276826
 11
6.1184060427
 21
4.4905276826
  0
LINE
  5
35F
100
AcDbEntity
  8
0
100
AcDbLine
 62
7
  6
CONTINUOUS
 10
6.0270440827
 20
4.5075276826
 11
6.0770440827
 21
4.5075276826
  0
LINE
  5
360
100
AcDbEntity
  8
THREAD
100
AcDbLine
 62
7
  6
CONTINUOUS
 10
5.9570440827
 20
4.5080276826
 11
5.9347665146
 21
4.5080276826
  0
LINE
  5
361
100
AcDbEntity
  8
0
100
AcDbLine
 62
7
  6
CONTINUOUS
 10
5.9070440827
 20
4.5305276826
 11
5.6910440827
 21
4.5305276826
  0
LINE
  5
362
100
AcDbEntity
  8
0
100
AcDbLine
 62
7
  6
CONTINUOUS
 10
5.6295440827
 20
4.5911301551
 11
4.9181077486
 21
4.5911301551
  0
LINE
  5
363
100
AcDbEntity
  8
0
100
AcDbLine
 62
7
  6
CONTINUOUS
 10
5.6295440827
 20
4.5920276826
 11
4.9181077486
 21
4.5920276826
  0
LINE
  5
364
100
AcDbEntity
  8
THREAD
100
AcDbLine
 62
7
  6
CONTINUOUS
 10
5.9322665146
 20
4.5086975556
 11
5.9125440827
 21
4.5200843069
  0
LINE
  5
365
100
AcDbEntity
  8
03__ASM_ALL_CURVES
100
AcDbLine
 62
40
  6
CONTINUOUS
 10
4.8335690827
 20
5.2081546826
 11
4.8450722077
 21
5.2004859344
  0
LINE
  5
366
100
AcDbEntity
  8
03__ASM_ALL_CURVES
100
AcDbLine
 62
40
  6
CONTINUOUS
 10
5.1038925202
 20
5.1161296826
 11
5.0923893952
 21
5.1237984328
  0
LINE
  5
367
100
AcDbEntity
  8
03__ASM_ALL_CURVES
100
AcDbLine
 62
40
  6
CONTINUOUS
 10
6.788713023
 20
3.3719317453
 11
6.7800856793
 21
3.3834348701
  0
LINE
  5
368
100
AcDbEntity
  8
03__ASM_ALL_CURVES
100
AcDbLine
 62
40
  6
CONTINUOUS
 10
6.857731773
 20
3.3719317453
 11
6.8534181011
 21
3.3776833079
  0
LINE
  5
369
100
AcDbEntity
  8
03__ASM_ALL_CURVES
100
AcDbLine
 62
40
  6
CONTINUOUS
 10
6.8145950543
 20
3.4294473715
 11
6.823222398
 21
3.4179442451
  0
LINE
  5
36A
100
AcDbEntity
  8
03__ASM_ALL_CURVES
100
AcDbLine
 62
40
  6
CONTINUOUS
 10
6.9315215835
 20
5.1314671831
 11
6.925770021
 21
5.1237984328
  0
LINE
  5
36B
100
AcDbEntity
  8
03__ASM_ALL_CURVES
100
AcDbLine
 62
40
  6
CONTINUOUS
 10
7.063807521
 20
5.1851484326
 11
7.075310646
 21
5.2004859344
  0
LINE
  5
36C
100
AcDbEntity
  8
0
100
AcDbLine
 62
7
  6
CONTINUOUS
 10
5.6910440827
 20
3.6755276826
 11
5.6299928465
 21
3.6144764463
  0
LINE
  5
36D
100
AcDbEntity
  8
03__ASM_ALL_CURVES
100
AcDbLine
 62
40
  6
CONTINUOUS
 10
3.6834740827
 20
5.0639821826
 11
3.5730440827
 21
5.0793196826
  0
LINE
  5
36E
100
AcDbEntity
  8
03__ASM_ALL_CURVES
100
AcDbLine
 62
40
  6
CONTINUOUS
 10
3.6834740827
 20
5.0609146826
 11
3.5730440827
 21
5.0793196826
  0
LINE
  5
36F
100
AcDbEntity
  8
03__ASM_ALL_CURVES
100
AcDbLine
 62
40
  6
CONTINUOUS
 10
4.8335690827
 20
5.1544734317
 11
4.8163143952
 21
5.1621421826
  0
LINE
  5
370
100
AcDbEntity
  8
03__ASM_ALL_CURVES
100
AcDbLine
 62
40
  6
CONTINUOUS
 10
5.1038925202
 20
5.1698109308
 11
5.0923893952
 21
5.1774796844
  0
LINE
  5
371
100
AcDbEntity
  8
03__ASM_ALL_CURVES
100
AcDbLine
 62
40
  6
CONTINUOUS
 10
5.1153956452
 20
5.1698109308
 11
5.1268987702
 21
5.1621421826
  0
LINE
  5
372
100
AcDbEntity
  8
03__ASM_ALL_CURVES
100
AcDbLine
 62
40
  6
CONTINUOUS
 10
5.1153956452
 20
5.2081546826
 11
5.1268987702
 21
5.2004859344
  0
LINE
  5
373
100
AcDbEntity
  8
03__ASM_ALL_CURVES
100
AcDbLine
 62
40
  6
CONTINUOUS
 10
6.8900843509
 20
3.4777604953
 11
6.8814570071
 21
3.4892636201
  0
LINE
  5
374
100
AcDbEntity
  8
03__ASM_ALL_CURVES
100
AcDbLine
 62
40
  6
CONTINUOUS
 10
6.8469476321
 20
3.5352761215
 11
6.851261304
 21
3.5295245562
  0
LINE
  5
375
100
AcDbEntity
  8
03__ASM_ALL_CURVES
100
AcDbLine
 62
40
  6
CONTINUOUS
 10
6.9159663821
 20
3.5352761215
 11
6.9245937259
 21
3.5237729951
  0
LINE
  5
376
100
AcDbEntity
  8
03__ASM_ALL_CURVES
100
AcDbLine
 62
40
  6
CONTINUOUS
 10
6.9849851321
 20
3.5352761215
 11
6.989298804
 21
3.5295245562
  0
LINE
  5
377
100
AcDbEntity
  8
THREAD
100
AcDbLine
 62
7
  6
CONTINUOUS
 10
6.3655440827
 20
3.7155276826
 11
6.3655440827
 21
4.4905276826
  0
LINE
  5
378
100
AcDbEntity
  8
THREAD
100
AcDbLine
 62
7
  6
CONTINUOUS
 10
6.4100440827
 20
3.7600276826
 11
6.4100440827
 21
4.4460276826
  0
LINE
  5
379
100
AcDbEntity
  8
03__ASM_ALL_CURVES
100
AcDbLine
 62
40
  6
CONTINUOUS
 10
6.4483903335
 20
5.2081546826
 11
6.4483903335
 21
5.1161296826
  0
LINE
  5
37A
100
AcDbEntity
  8
03__ASM_ALL_CURVES
100
AcDbLine
 62
40
  6
CONTINUOUS
 10
6.6899559585
 20
5.1621421826
 11
6.695707521
 21
5.1851484326
  0
LINE
  5
37B
100
AcDbEntity
  8
03__ASM_ALL_CURVES
100
AcDbLine
 62
40
  6
CONTINUOUS
 10
7.121323146
 20
5.1391359326
 11
7.109820021
 21
5.1237984328
  0
LINE
  5
37C
100
AcDbEntity
  8
03__ASM_ALL_CURVES
100
AcDbLine
 62
40
  6
CONTINUOUS
 10
7.2075965835
 20
5.1314671831
 11
7.201845021
 21
5.1237984328
  0
LINE
  5
37D
100
AcDbEntity
  8
THREAD
100
AcDbLine
 62
7
  6
CONTINUOUS
 10
5.9322665146
 20
3.6973578096
 11
5.9125440827
 21
3.6859710583
  0
LINE
  5
37E
100
AcDbEntity
  8
03__ASM_ALL_CURVES
100
AcDbLine
 62
40
  6
CONTINUOUS
 10
3.6834740827
 20
5.0701171826
 11
3.5730440827
 21
5.0793196826
  0
LINE
  5
37F
100
AcDbEntity
  8
03__ASM_ALL_CURVES
100
AcDbLine
 62
40
  6
CONTINUOUS
 10
3.6834740827
 20
5.0670496826
 11
3.5730440827
 21
5.0793196826
  0
LINE
  5
380
100
AcDbEntity
  8
0
100
AcDbLine
 62
7
  6
CONTINUOUS
 10
7.3180440827
 20
3.7679892211
 11
7.3290440827
 21
3.7595276826
  0
LINE
  5
381
100
AcDbEntity
  8
THREAD
100
AcDbLine
 62
7
  6
CONTINUOUS
 10
6.4100440827
 20
4.4460276826
 11
6.3655440827
 21
4.4905276826
  0
LINE
  5
382
100
AcDbEntity
  8
03__ASM_ALL_CURVES
100
AcDbLine
 62
40
  6
CONTINUOUS
 10
7.1230226321
 20
3.5352761215
 11
7.127336304
 21
3.5295245562
  0
LINE
  5
383
100
AcDbEntity
  8
03__ASM_ALL_CURVES
100
AcDbLine
 62
40
  6
CONTINUOUS
 10
6.143557521
 20
5.1391359326
 11
6.1378059585
 21
5.1621421826
  0
LINE
  5
384
100
AcDbEntity
  8
03__ASM_ALL_CURVES
100
AcDbLine
 62
40
  6
CONTINUOUS
 10
6.201073146
 20
5.1851484326
 11
6.2068247085
 21
5.1621421826
  0
LINE
  5
385
100
AcDbEntity
  8
03__ASM_ALL_CURVES
100
AcDbLine
 62
40
  6
CONTINUOUS
 10
6.235582521
 20
5.1391359326
 11
6.2298309585
 21
5.1621421826
  0
LINE
  5
386
100
AcDbEntity
  8
03__ASM_ALL_CURVES
100
AcDbLine
 62
40
  6
CONTINUOUS
 10
6.5404153335
 20
5.2081546826
 11
6.5404153335
 21
5.1161296826
  0
LINE
  5
387
100
AcDbEntity
  8
0
100
AcDbLine
 62
7
  6
CONTINUOUS
 10
6.5880440827
 20
3.7600276826
 11
6.5880440827
 21
4.4460276826
  0
LINE
  5
388
100
AcDbEntity
  8
0
100
AcDbLine
 62
7
  6
CONTINUOUS
 10
6.5980440827
 20
3.7700276826
 11
6.5980440827
 21
4.4360276826
  0
LINE
  5
389
100
AcDbEntity
  8
03__ASM_ALL_CURVES
100
AcDbLine
 62
40
  6
CONTINUOUS
 10
6.6094340835
 20
5.1161296826
 11
6.6094340835
 21
5.2081546826
  0
LINE
  5
38A
100
AcDbEntity
  8
0
100
AcDbLine
 62
7
  6
CONTINUOUS
 10
6.6120518971
 20
4.3835276826
 11
6.6120518971
 21
3.8226177149
  0
LINE
  5
38B
100
AcDbEntity
  8
03__ASM_ALL_CURVES
100
AcDbLine
 62
40
  6
CONTINUOUS
 10
7.3916465835
 20
5.1391359326
 11
7.3801434585
 21
5.1237984328
  0
LINE
  5
38C
100
AcDbEntity
  8
THREAD
100
AcDbLine
 62
7
  6
CONTINUOUS
 10
6.4100440827
 20
3.7600276826
 11
6.3655440827
 21
3.7155276826
  0
LINE
  5
38D
100
AcDbEntity
  8
0
100
AcDbLine
 62
7
  6
CONTINUOUS
 10
7.3180440827
 20
4.4380661441
 11
7.3290440827
 21
4.4465276826
  0
LINE
  5
38E
100
AcDbEntity
  8
03__ASM_ALL_CURVES
100
AcDbLine
 62
40
  6
CONTINUOUS
 10
5.7996140827
 20
5.0609146826
 11
6.0204740827
 21
5.0977246826
  0
LINE
  5
38F
100
AcDbEntity
  8
03__ASM_ALL_CURVES
100
AcDbLine
 62
40
  6
CONTINUOUS
 10
5.7996140827
 20
5.0639821826
 11
6.0204740827
 21
5.0946571826
  0
LINE
  5
390
100
AcDbEntity
  8
03__ASM_ALL_CURVES
100
AcDbLine
 62
40
  6
CONTINUOUS
 10
5.7996140827
 20
5.0670496826
 11
6.0204740827
 21
5.0915896826
  0
LINE
  5
391
100
AcDbEntity
  8
03__ASM_ALL_CURVES
100
AcDbLine
 62
40
  6
CONTINUOUS
 10
5.7996140827
 20
5.0701171826
 11
6.0204740827
 21
5.0885221826
  0
LINE
  5
392
100
AcDbEntity
  8
03__ASM_ALL_CURVES
100
AcDbLine
 62
40
  6
CONTINUOUS
 10
5.7996140827
 20
5.0731846826
 11
6.0204740827
 21
5.0854546826
  0
LINE
  5
393
100
AcDbEntity
  8
03__ASM_ALL_CURVES
100
AcDbLine
 62
40
  6
CONTINUOUS
 10
5.7996140827
 20
5.0762521826
 11
6.0204740827
 21
5.0823871826
  0
LINE
  5
394
100
AcDbEntity
  8
03__ASM_ALL_CURVES
100
AcDbLine
 62
40
  6
CONTINUOUS
 10
3.5730440827
 20
5.0793196826
 11
7.6769240827
 21
5.0793196826
  0
LINE
  5
395
100
AcDbEntity
  8
03__ASM_ALL_CURVES
100
AcDbLine
 62
40
  6
CONTINUOUS
 10
3.6834740827
 20
5.0762521826
 11
3.5730440827
 21
5.0793196826
  0
LINE
  5
396
100
AcDbEntity
  8
03__ASM_ALL_CURVES
100
AcDbLine
 62
40
  6
CONTINUOUS
 10
5.7996140827
 20
5.0823871826
 11
6.0204740827
 21
5.0762521826
  0
LINE
  5
397
100
AcDbEntity
  8
03__ASM_ALL_CURVES
100
AcDbLine
 62
40
  6
CONTINUOUS
 10
3.6834740827
 20
5.0731846826
 11
3.5730440827
 21
5.0793196826
  0
LINE
  5
398
100
AcDbEntity
  8
03__ASM_ALL_CURVES
100
AcDbLine
 62
40
  6
CONTINUOUS
 10
5.7996140827
 20
5.0854546826
 11
6.0204740827
 21
5.0731846826
  0
LINE
  5
399
100
AcDbEntity
  8
03__ASM_ALL_CURVES
100
AcDbLine
 62
40
  6
CONTINUOUS
 10
5.7996140827
 20
5.0885221826
 11
6.0204740827
 21
5.0701171826
  0
LINE
  5
39A
100
AcDbEntity
  8
03__ASM_ALL_CURVES
100
AcDbLine
 62
40
  6
CONTINUOUS
 10
5.7996140827
 20
5.0915896826
 11
6.0204740827
 21
5.0670496826
  0
LINE
  5
39B
100
AcDbEntity
  8
03__ASM_ALL_CURVES
100
AcDbLine
 62
40
  6
CONTINUOUS
 10
5.7996140827
 20
5.0946571826
 11
6.0204740827
 21
5.0639821826
  0
LINE
  5
39C
100
AcDbEntity
  8
03__ASM_ALL_CURVES
100
AcDbLine
 62
40
  6
CONTINUOUS
 10
6.0204740827
 20
5.0609146826
 11
5.7996140827
 21
5.0977246826
  0
LINE
  5
39D
100
AcDbEntity
  8
0
100
AcDbLine
 62
7
  6
CONTINUOUS
 10
6.5980440827
 20
4.4360276826
 11
6.5880440827
 21
4.4460276826
  0
LINE
  5
39E
100
AcDbEntity
  8
03__ASM_ALL_CURVES
100
AcDbLine
 62
40
  6
CONTINUOUS
 10
6.155060646
 20
5.1237984328
 11
6.143557521
 21
5.1391359326
  0
LINE
  5
39F
100
AcDbEntity
  8
03__ASM_ALL_CURVES
100
AcDbLine
 62
40
  6
CONTINUOUS
 10
6.3563653335
 20
5.2081546826
 11
6.385123146
 21
5.1161296826
  0
LINE
  5
3A0
100
AcDbEntity
  8
03__ASM_ALL_CURVES
100
AcDbLine
 62
40
  6
CONTINUOUS
 10
6.7800856793
 20
3.3834348701
 11
6.7757720074
 21
3.4006895576
  0
LINE
  5
3A1
100
AcDbEntity
  8
03__ASM_ALL_CURVES
100
AcDbLine
 62
40
  6
CONTINUOUS
 10
6.823222398
 20
3.4179442451
 11
6.8275360699
 21
3.4006895576
  0
LINE
  5
3A2
100
AcDbEntity
  8
0
100
AcDbLine
 62
7
  6
CONTINUOUS
 10
6.6440362683
 20
4.3835276826
 11
6.6440362683
 21
3.8226177149
  0
LINE
  5
3A3
100
AcDbEntity
  8
03__ASM_ALL_CURVES
100
AcDbLine
 62
40
  6
CONTINUOUS
 10
6.6554465835
 20
5.1161296826
 11
6.6554465835
 21
5.2081546826
  0
LINE
  5
3A4
100
AcDbEntity
  8
0
100
AcDbLine
 62
7
  6
CONTINUOUS
 10
6.6910518971
 20
4.3835276826
 11
6.6910518971
 21
3.8226177149
  0
LINE
  5
3A5
100
AcDbEntity
  8
0
100
AcDbLine
 62
7
  6
CONTINUOUS
 10
6.7230362683
 20
4.3835276826
 11
6.7230362683
 21
3.8226177149
  0
LINE
  5
3A6
100
AcDbEntity
  8
03__ASM_ALL_CURVES
100
AcDbLine
 62
40
  6
CONTINUOUS
 10
6.7474715835
 20
5.1621421826
 11
6.7474715835
 21
5.1314671831
  0
LINE
  5
3A7
100
AcDbEntity
  8
0
100
AcDbLine
 62
7
  6
CONTINUOUS
 10
6.7540440827
 20
4.1390986697
 11
6.7540440827
 21
4.066963246
  0
LINE
  5
3A8
100
AcDbEntity
  8
03__ASM_ALL_CURVES
100
AcDbLine
 62
40
  6
CONTINUOUS
 10
7.5756965835
 20
5.1774796844
 11
7.569945021
 21
5.1698109308
  0
LINE
  5
3A9
100
AcDbEntity
  8
0
100
AcDbLine
 62
7
  6
CONTINUOUS
 10
6.5980440827
 20
3.7700276826
 11
6.5880440827
 21
3.7600276826
  0
LINE
  5
3AA
100
AcDbEntity
  8
03__ASM_ALL_CURVES
100
AcDbLine
 62
40
  6
CONTINUOUS
 10
3.6834740827
 20
5.0885221826
 11
3.5730440827
 21
5.0793196826
  0
LINE
  5
3AB
100
AcDbEntity
  8
03__ASM_ALL_CURVES
100
AcDbLine
 62
40
  6
CONTINUOUS
 10
3.6834740827
 20
5.0854546826
 11
3.5730440827
 21
5.0793196826
  0
LINE
  5
3AC
100
AcDbEntity
  8
03__ASM_ALL_CURVES
100
AcDbLine
 62
40
  6
CONTINUOUS
 10
3.6834740827
 20
5.0823871826
 11
3.5730440827
 21
5.0793196826
  0
LINE
  5
3AD
100
AcDbEntity
  8
03__ASM_ALL_CURVES
100
AcDbLine
 62
40
  6
CONTINUOUS
 10
7.4836715835
 20
5.1161296826
 11
7.4376590835
 21
5.1161296826
  0
LINE
  5
3AE
100
AcDbEntity
  8
03__ASM_ALL_CURVES
100
AcDbLine
 62
40
  6
CONTINUOUS
 10
7.3686403335
 20
5.1161296826
 11
7.3456340835
 21
5.1161296826
  0
LINE
  5
3AF
100
AcDbEntity
  8
03__ASM_ALL_CURVES
100
AcDbLine
 62
40
  6
CONTINUOUS
 10
7.190341896
 20
5.1161296826
 11
7.178838771
 21
5.1161296826
  0
LINE
  5
3B0
100
AcDbEntity
  8
03__ASM_ALL_CURVES
100
AcDbLine
 62
40
  6
CONTINUOUS
 10
7.098316896
 20
5.1161296826
 11
7.086813771
 21
5.1161296826
  0
LINE
  5
3B1
100
AcDbEntity
  8
03__ASM_ALL_CURVES
100
AcDbLine
 62
40
  6
CONTINUOUS
 10
6.914266896
 20
5.1161296826
 11
6.902763771
 21
5.1161296826
  0
LINE
  5
3B2
100
AcDbEntity
  8
03__ASM_ALL_CURVES
100
AcDbLine
 62
40
  6
CONTINUOUS
 10
6.730216896
 20
5.1161296826
 11
6.718713771
 21
5.1161296826
  0
LINE
  5
3B3
100
AcDbEntity
  8
03__ASM_ALL_CURVES
100
AcDbLine
 62
40
  6
CONTINUOUS
 10
6.270091896
 20
5.1161296826
 11
6.258588771
 21
5.1161296826
  0
LINE
  5
3B4
100
AcDbEntity
  8
03__ASM_ALL_CURVES
100
AcDbLine
 62
40
  6
CONTINUOUS
 10
6.178066896
 20
5.1161296826
 11
6.166563771
 21
5.1161296826
  0
LINE
  5
3B5
100
AcDbEntity
  8
03__ASM_ALL_CURVES
100
AcDbLine
 62
40
  6
CONTINUOUS
 10
5.1153956452
 20
5.1161296826
 11
5.1038925202
 21
5.1161296826
  0
LINE
  5
3B6
100
AcDbEntity
  8
03__ASM_ALL_CURVES
100
AcDbLine
 62
40
  6
CONTINUOUS
 10
4.9255940827
 20
5.1161296826
 11
4.9198425202
 21
5.1161296826
  0
LINE
  5
3B7
100
AcDbEntity
  8
03__ASM_ALL_CURVES
100
AcDbLine
 62
40
  6
CONTINUOUS
 10
4.7472956452
 20
5.1161296826
 11
4.7357925202
 21
5.1161296826
  0
LINE
  5
3B8
100
AcDbEntity
  8
03__ASM_ALL_CURVES
100
AcDbLine
 62
40
  6
CONTINUOUS
 10
4.5632456452
 20
5.1161296826
 11
4.5517425202
 21
5.1161296826
  0
LINE
  5
3B9
100
AcDbEntity
  8
03__ASM_ALL_CURVES
100
AcDbLine
 62
40
  6
CONTINUOUS
 10
4.4712206452
 20
5.1161296826
 11
4.4597175202
 21
5.1161296826
  0
LINE
  5
3BA
100
AcDbEntity
  8
03__ASM_ALL_CURVES
100
AcDbLine
 62
40
  6
CONTINUOUS
 10
4.3734440827
 20
5.1161296826
 11
4.3676925202
 21
5.1161296826
  0
LINE
  5
3BB
100
AcDbEntity
  8
03__ASM_ALL_CURVES
100
AcDbLine
 62
40
  6
CONTINUOUS
 10
4.2584128327
 20
5.1161296826
 11
4.3044253327
 21
5.1161296826
  0
LINE
  5
3BC
100
AcDbEntity
  8
03__ASM_ALL_CURVES
100
AcDbLine
 62
40
  6
CONTINUOUS
 10
6.0572840835
 20
5.1161296826
 11
6.1032965835
 21
5.1161296826
  0
LINE
  5
3BD
100
AcDbEntity
  8
03__ASM_ALL_CURVES
100
AcDbLine
 62
40
  6
CONTINUOUS
 10
7.2536090835
 20
5.1161296826
 11
7.2996215835
 21
5.1161296826
  0
LINE
  5
3BE
100
AcDbEntity
  8
03__ASM_ALL_CURVES
100
AcDbLine
 62
40
  6
CONTINUOUS
 10
6.339110646
 20
5.1468046835
 11
6.373620021
 21
5.1468046835
  0
LINE
  5
3BF
100
AcDbEntity
  8
03__ASM_ALL_CURVES
100
AcDbLine
 62
40
  6
CONTINUOUS
 10
7.558441896
 20
5.1621421826
 11
7.5296840835
 21
5.1621421826
  0
LINE
  5
3C0
100
AcDbEntity
  8
03__ASM_ALL_CURVES
100
AcDbLine
 62
40
  6
CONTINUOUS
 10
6.7244653335
 20
5.1621421826
 11
6.7474715835
 21
5.1621421826
  0
LINE
  5
3C1
100
AcDbEntity
  8
03__ASM_ALL_CURVES
100
AcDbLine
 62
40
  6
CONTINUOUS
 10
6.9775340835
 20
5.1621421826
 11
7.0235465835
 21
5.1621421826
  0
LINE
  5
3C2
100
AcDbEntity
  8
03__ASM_ALL_CURVES
100
AcDbLine
 62
40
  6
CONTINUOUS
 10
7.4376590835
 20
5.1621421826
 11
7.466416896
 21
5.1621421826
  0
LINE
  5
3C3
100
AcDbEntity
  8
03__ASM_ALL_CURVES
100
AcDbLine
 62
40
  6
CONTINUOUS
 10
4.4597175202
 20
5.1698109308
 11
4.4712206452
 21
5.1698109308
  0
LINE
  5
3C4
100
AcDbEntity
  8
03__ASM_ALL_CURVES
100
AcDbLine
 62
40
  6
CONTINUOUS
 10
4.5517425202
 20
5.1698109308
 11
4.5632456452
 21
5.1698109308
  0
LINE
  5
3C5
100
AcDbEntity
  8
03__ASM_ALL_CURVES
100
AcDbLine
 62
40
  6
CONTINUOUS
 10
5.1038925202
 20
5.1698109308
 11
5.1153956452
 21
5.1698109308
  0
LINE
  5
3C6
100
AcDbEntity
  8
03__ASM_ALL_CURVES
100
AcDbLine
 62
40
  6
CONTINUOUS
 10
4.7357925202
 20
5.1774796844
 11
4.7472956452
 21
5.1774796844
  0
LINE
  5
3C7
100
AcDbEntity
  8
03__ASM_ALL_CURVES
100
AcDbLine
 62
40
  6
CONTINUOUS
 10
6.914266896
 20
5.2081546826
 11
6.902763771
 21
5.2081546826
  0
LINE
  5
3C8
100
AcDbEntity
  8
03__ASM_ALL_CURVES
100
AcDbLine
 62
40
  6
CONTINUOUS
 10
4.7645503327
 20
5.2081546826
 11
4.7300409577
 21
5.2081546826
  0
LINE
  5
3C9
100
AcDbEntity
  8
03__ASM_ALL_CURVES
100
AcDbLine
 62
40
  6
CONTINUOUS
 10
4.2756675202
 20
5.2081546826
 11
4.2871706452
 21
5.2081546826
  0
LINE
  5
3CA
100
AcDbEntity
  8
03__ASM_ALL_CURVES
100
AcDbLine
 62
40
  6
CONTINUOUS
 10
4.4597175202
 20
5.2081546826
 11
4.4712206452
 21
5.2081546826
  0
LINE
  5
3CB
100
AcDbEntity
  8
03__ASM_ALL_CURVES
100
AcDbLine
 62
40
  6
CONTINUOUS
 10
4.5517425202
 20
5.2081546826
 11
4.5632456452
 21
5.2081546826
  0
LINE
  5
3CC
100
AcDbEntity
  8
03__ASM_ALL_CURVES
100
AcDbLine
 62
40
  6
CONTINUOUS
 10
5.1038925202
 20
5.2081546826
 11
5.1153956452
 21
5.2081546826
  0
LINE
  5
3CD
100
AcDbEntity
  8
03__ASM_ALL_CURVES
100
AcDbLine
 62
40
  6
CONTINUOUS
 10
6.166563771
 20
5.2081546826
 11
6.178066896
 21
5.2081546826
  0
LINE
  5
3CE
100
AcDbEntity
  8
03__ASM_ALL_CURVES
100
AcDbLine
 62
40
  6
CONTINUOUS
 10
6.258588771
 20
5.2081546826
 11
6.270091896
 21
5.2081546826
  0
LINE
  5
3CF
100
AcDbEntity
  8
03__ASM_ALL_CURVES
100
AcDbLine
 62
40
  6
CONTINUOUS
 10
6.419632521
 20
5.2081546826
 11
6.477148146
 21
5.2081546826
  0
LINE
  5
3D0
100
AcDbEntity
  8
03__ASM_ALL_CURVES
100
AcDbLine
 62
40
  6
CONTINUOUS
 10
6.718713771
 20
5.2081546826
 11
6.730216896
 21
5.2081546826
  0
LINE
  5
3D1
100
AcDbEntity
  8
03__ASM_ALL_CURVES
100
AcDbLine
 62
40
  6
CONTINUOUS
 10
7.086813771
 20
5.2081546826
 11
7.098316896
 21
5.2081546826
  0
LINE
  5
3D2
100
AcDbEntity
  8
03__ASM_ALL_CURVES
100
AcDbLine
 62
40
  6
CONTINUOUS
 10
7.3456340835
 20
5.2081546826
 11
7.3686403335
 21
5.2081546826
  0
LINE
  5
3D3
100
AcDbEntity
  8
03__ASM_ALL_CURVES
100
AcDbLine
 62
40
  6
CONTINUOUS
 10
7.4376590835
 20
5.2081546826
 11
7.4836715835
 21
5.2081546826
  0
LINE
  5
3D4
100
AcDbEntity
  8
03__ASM_ALL_CURVES
100
AcDbLine
 62
40
  6
CONTINUOUS
 10
7.5296840835
 20
5.2081546826
 11
7.558441896
 21
5.2081546826
  0
LINE
  5
3D5
100
AcDbEntity
  8
03__ASM_ALL_CURVES
100
AcDbLine
 62
40
  6
CONTINUOUS
 10
6.166563771
 20
5.1161296826
 11
6.155060646
 21
5.1237984328
  0
LINE
  5
3D6
100
AcDbEntity
  8
03__ASM_ALL_CURVES
100
AcDbLine
 62
40
  6
CONTINUOUS
 10
6.258588771
 20
5.1161296826
 11
6.247085646
 21
5.1237984328
  0
LINE
  5
3D7
100
AcDbEntity
  8
03__ASM_ALL_CURVES
100
AcDbLine
 62
40
  6
CONTINUOUS
 10
6.178066896
 20
5.2081546826
 11
6.189570021
 21
5.2004859344
  0
LINE
  5
3D8
100
AcDbEntity
  8
03__ASM_ALL_CURVES
100
AcDbLine
 62
40
  6
CONTINUOUS
 10
7.814003848
 20
4.1214326826
 11
7.8053765043
 21
4.1271842453
  0
LINE
  5
3D9
100
AcDbEntity
  8
03__ASM_ALL_CURVES
100
AcDbLine
 62
40
  6
CONTINUOUS
 10
6.189570021
 20
5.2004859344
 11
6.201073146
 21
5.1851484326
  0
LINE
  5
3DA
100
AcDbEntity
  8
03__ASM_ALL_CURVES
100
AcDbLine
 62
40
  6
CONTINUOUS
 10
6.247085646
 20
5.1237984328
 11
6.235582521
 21
5.1391359326
  0
LINE
  5
3DB
100
AcDbEntity
  8
03__ASM_ALL_CURVES
100
AcDbLine
 62
40
  6
CONTINUOUS
 10
6.281595021
 20
5.2004859344
 11
6.2873465835
 21
5.1928171808
  0
LINE
  5
3DC
100
AcDbEntity
  8
03__ASM_ALL_CURVES
100
AcDbLine
 62
40
  6
CONTINUOUS
 10
6.9763577884
 20
3.5065183076
 11
6.989298804
 21
3.4720089326
  0
LINE
  5
3DD
100
AcDbEntity
  8
03__ASM_ALL_CURVES
100
AcDbLine
 62
40
  6
CONTINUOUS
 10
6.8814570071
 20
3.4892636201
 11
6.8771433353
 21
3.5065183076
  0
LINE
  5
3DE
100
AcDbEntity
  8
03__ASM_ALL_CURVES
100
AcDbLine
 62
40
  6
CONTINUOUS
 10
6.9245937259
 20
3.5237729951
 11
6.9289073978
 21
3.5065183076
  0
LINE
  5
3DF
100
AcDbEntity
  8
0
100
AcDbLine
 62
7
  6
CONTINUOUS
 10
6.7903923735
 20
4.0567373547
 11
6.7903923735
 21
4.1493179243
  0
LINE
  5
3E0
100
AcDbEntity
  8
03__ASM_ALL_CURVES
100
AcDbLine
 62
40
  6
CONTINUOUS
 10
6.816751929
 20
3.4720089326
 11
6.816751929
 21
3.5410276826
  0
LINE
  5
3E1
100
AcDbEntity
  8
03__ASM_ALL_CURVES
100
AcDbLine
 62
40
  6
CONTINUOUS
 10
6.851261304
 20
3.5295245562
 11
6.851261304
 21
3.518021434
  0
LINE
  5
3E2
100
AcDbEntity
  8
03__ASM_ALL_CURVES
100
AcDbLine
 62
40
  6
CONTINUOUS
 10
6.8534181011
 20
3.3776833079
 11
6.8534181011
 21
3.4351989326
  0
LINE
  5
3E3
100
AcDbEntity
  8
03__ASM_ALL_CURVES
100
AcDbLine
 62
40
  6
CONTINUOUS
 10
6.8855090835
 20
5.1928171808
 11
6.8855090835
 21
5.1851484326
  0
LINE
  5
3E4
100
AcDbEntity
  8
03__ASM_ALL_CURVES
100
AcDbLine
 62
40
  6
CONTINUOUS
 10
6.8879274761
 20
3.4351989326
 11
6.8879274761
 21
3.3776833079
  0
LINE
  5
3E5
100
AcDbEntity
  8
03__ASM_ALL_CURVES
100
AcDbLine
 62
40
  6
CONTINUOUS
 10
6.9315215835
 20
5.1468046835
 11
6.9315215835
 21
5.1314671831
  0
LINE
  5
3E6
100
AcDbEntity
  8
03__ASM_ALL_CURVES
100
AcDbLine
 62
40
  6
CONTINUOUS
 10
6.9396915386
 20
3.4351989326
 11
6.9396915386
 21
3.3661801826
  0
LINE
  5
3E7
100
AcDbEntity
  8
03__ASM_ALL_CURVES
100
AcDbLine
 62
40
  6
CONTINUOUS
 10
7.0580559585
 20
5.1621421826
 11
7.063807521
 21
5.1851484326
  0
LINE
  5
3E8
100
AcDbEntity
  8
03__ASM_ALL_CURVES
100
AcDbLine
 62
40
  6
CONTINUOUS
 10
7.1270747085
 20
5.1621421826
 11
7.121323146
 21
5.1391359326
  0
LINE
  5
3E9
100
AcDbEntity
  8
03__ASM_ALL_CURVES
100
AcDbLine
 62
40
  6
CONTINUOUS
 10
3.6834740827
 20
5.0946571826
 11
3.5730440827
 21
5.0793196826
  0
LINE
  5
3EA
100
AcDbEntity
  8
03__ASM_ALL_CURVES
100
AcDbLine
 62
40
  6
CONTINUOUS
 10
3.6834740827
 20
5.0915896826
 11
3.5730440827
 21
5.0793196826
  0
LINE
  5
3EB
100
AcDbEntity
  8
03__ASM_ALL_CURVES
100
AcDbLine
 62
40
  6
CONTINUOUS
 10
7.7536124418
 20
4.1904514326
 11
7.7622397855
 21
4.1846998715
  0
LINE
  5
3EC
100
AcDbEntity
  8
03__ASM_ALL_CURVES
100
AcDbLine
 62
40
  6
CONTINUOUS
 10
6.270091896
 20
5.2081546826
 11
6.281595021
 21
5.2004859344
  0
LINE
  5
3ED
100
AcDbEntity
  8
03__ASM_ALL_CURVES
100
AcDbLine
 62
40
  6
CONTINUOUS
 10
7.8226311918
 20
4.1904514326
 11
7.8312585355
 21
4.1846998715
  0
LINE
  5
3EE
100
AcDbEntity
  8
03__ASM_ALL_CURVES
100
AcDbLine
 62
40
  6
CONTINUOUS
 10
7.8916499418
 20
4.1904514326
 11
7.9002772855
 21
4.1846998715
  0
LINE
  5
3EF
100
AcDbEntity
  8
0
100
AcDbLine
 62
7
  6
CONTINUOUS
 10
7.3770440827
 20
4.4465276826
 11
7.3900440827
 21
4.4365276826
  0
LINE
  5
3F0
100
AcDbEntity
  8
03__ASM_ALL_CURVES
100
AcDbLine
 62
40
  6
CONTINUOUS
 10
6.6094340835
 20
5.2081546826
 11
6.6554465835
 21
5.1161296826
  0
LINE
  5
3F1
100
AcDbEntity
  8
03__ASM_ALL_CURVES
100
AcDbLine
 62
40
  6
CONTINUOUS
 10
6.695707521
 20
5.1391359326
 11
6.6899559585
 21
5.1621421826
  0
LINE
  5
3F2
100
AcDbEntity
  8
03__ASM_ALL_CURVES
100
AcDbLine
 62
40
  6
CONTINUOUS
 10
6.954789429
 20
3.4720089326
 11
6.954789429
 21
3.5410276826
  0
LINE
  5
3F3
100
AcDbEntity
  8
03__ASM_ALL_CURVES
100
AcDbLine
 62
40
  6
CONTINUOUS
 10
6.9775340835
 20
5.2081546826
 11
6.9775340835
 21
5.1161296826
  0
LINE
  5
3F4
100
AcDbEntity
  8
03__ASM_ALL_CURVES
100
AcDbLine
 62
40
  6
CONTINUOUS
 10
6.989298804
 20
3.5295245562
 11
6.989298804
 21
3.518021434
  0
LINE
  5
3F5
100
AcDbEntity
  8
03__ASM_ALL_CURVES
100
AcDbLine
 62
40
  6
CONTINUOUS
 10
6.9914556011
 20
3.4351989326
 11
6.9914556011
 21
3.3661801826
  0
LINE
  5
3F6
100
AcDbEntity
  8
0
100
AcDbLine
 62
7
  6
CONTINUOUS
 10
7.0103923735
 20
4.2642479751
 11
7.0103923735
 21
4.1866090203
  0
LINE
  5
3F7
100
AcDbEntity
  8
0
100
AcDbLine
 62
7
  6
CONTINUOUS
 10
7.0103923735
 20
3.9418053179
 11
7.0103923735
 21
4.0194463391
  0
LINE
  5
3F8
100
AcDbEntity
  8
0
100
AcDbLine
 62
7
  6
CONTINUOUS
 10
7.0203923735
 20
4.2649666073
 11
7.0203923735
 21
4.1856252698
  0
LINE
  5
3F9
100
AcDbEntity
  8
0
100
AcDbLine
 62
7
  6
CONTINUOUS
 10
7.0203923735
 20
3.9410887579
 11
7.0203923735
 21
4.0204300954
  0
LINE
  5
3FA
100
AcDbEntity
  8
03__ASM_ALL_CURVES
100
AcDbLine
 62
40
  6
CONTINUOUS
 10
7.0235465835
 20
5.2081546826
 11
7.0235465835
 21
5.1161296826
  0
LINE
  5
3FB
100
AcDbEntity
  8
0
100
AcDbLine
 62
7
  6
CONTINUOUS
 10
7.0353099676
 20
4.2634223835
 11
7.0353099676
 21
4.1876883829
  0
LINE
  5
3FC
100
AcDbEntity
  8
0
100
AcDbLine
 62
7
  6
CONTINUOUS
 10
7.0353099676
 20
4.0183669779
 11
7.0353099676
 21
3.9426316142
  0
LINE
  5
3FD
100
AcDbEntity
  8
03__ASM_ALL_CURVES
100
AcDbLine
 62
40
  6
CONTINUOUS
 10
7.0410628665
 20
3.5410276826
 11
7.0410628665
 21
3.4720089326
  0
LINE
  5
3FE
100
AcDbEntity
  8
03__ASM_ALL_CURVES
100
AcDbLine
 62
40
  6
CONTINUOUS
 10
7.0604743511
 20
3.3661801826
 11
7.0604743511
 21
3.4351989326
  0
LINE
  5
3FF
100
AcDbEntity
  8
03__ASM_ALL_CURVES
100
AcDbLine
 62
40
  6
CONTINUOUS
 10
6.7757720074
 20
3.4006895576
 11
6.7800856793
 21
3.4179442451
  0
LINE
  5
400
100
AcDbEntity
  8
03__ASM_ALL_CURVES
100
AcDbLine
 62
40
  6
CONTINUOUS
 10
6.8275360699
 20
3.4006895576
 11
6.823222398
 21
3.3834348701
  0
LINE
  5
401
100
AcDbEntity
  8
03__ASM_ALL_CURVES
100
AcDbLine
 62
40
  6
CONTINUOUS
 10
6.8771433353
 20
3.5065183076
 11
6.8814570071
 21
3.5237729951
  0
LINE
  5
402
100
AcDbEntity
  8
03__ASM_ALL_CURVES
100
AcDbLine
 62
40
  6
CONTINUOUS
 10
6.9289073978
 20
3.5065183076
 11
6.9245937259
 21
3.4892636201
  0
LINE
  5
403
100
AcDbEntity
  8
03__ASM_ALL_CURVES
100
AcDbLine
 62
40
  6
CONTINUOUS
 10
6.851261304
 20
3.518021434
 11
6.8469476321
 21
3.5122698687
  0
LINE
  5
404
100
AcDbEntity
  8
03__ASM_ALL_CURVES
100
AcDbLine
 62
40
  6
CONTINUOUS
 10
6.7800856793
 20
3.4179442451
 11
6.788713023
 21
3.4294473715
  0
LINE
  5
405
100
AcDbEntity
  8
03__ASM_ALL_CURVES
100
AcDbLine
 62
40
  6
CONTINUOUS
 10
7.7622397855
 20
4.1616936187
 11
7.7536124418
 21
4.1559420576
  0
LINE
  5
406
100
AcDbEntity
  8
03__ASM_ALL_CURVES
100
AcDbLine
 62
40
  6
CONTINUOUS
 10
7.8053765043
 20
4.1846998715
 11
7.814003848
 21
4.1904514326
  0
LINE
  5
407
100
AcDbEntity
  8
03__ASM_ALL_CURVES
100
AcDbLine
 62
40
  6
CONTINUOUS
 10
6.8469476321
 20
3.5122698687
 11
6.8383202884
 21
3.5065183076
  0
LINE
  5
408
100
AcDbEntity
  8
03__ASM_ALL_CURVES
100
AcDbLine
 62
40
  6
CONTINUOUS
 10
6.8900843509
 20
3.5352761215
 11
6.8987116946
 21
3.5410276826
  0
LINE
  5
409
100
AcDbEntity
  8
03__ASM_ALL_CURVES
100
AcDbLine
 62
40
  6
CONTINUOUS
 10
7.8312585355
 20
4.1271842453
 11
7.8226311918
 21
4.1214326826
  0
LINE
  5
40A
100
AcDbEntity
  8
03__ASM_ALL_CURVES
100
AcDbLine
 62
40
  6
CONTINUOUS
 10
6.788713023
 20
3.4294473715
 11
6.7973403668
 21
3.4351989326
  0
LINE
  5
40B
100
AcDbEntity
  8
03__ASM_ALL_CURVES
100
AcDbLine
 62
40
  6
CONTINUOUS
 10
7.9002772855
 20
4.1616936187
 11
7.8916499418
 21
4.1559420576
  0
LINE
  5
40C
100
AcDbEntity
  8
03__ASM_ALL_CURVES
100
AcDbLine
 62
40
  6
CONTINUOUS
 10
6.9159663821
 20
3.4777604953
 11
6.9073390384
 21
3.4720089326
  0
LINE
  5
40D
100
AcDbEntity
  8
03__ASM_ALL_CURVES
100
AcDbLine
 62
40
  6
CONTINUOUS
 10
6.9849851321
 20
3.5122698687
 11
6.9763577884
 21
3.5065183076
  0
LINE
  5
40E
100
AcDbEntity
  8
03__ASM_ALL_CURVES
100
AcDbLine
 62
40
  6
CONTINUOUS
 10
3.5730440827
 20
5.0793196826
 11
3.6834740827
 21
5.0977246826
  0
LINE
  5
40F
100
AcDbEntity
  8
03__ASM_ALL_CURVES
100
AcDbLine
 62
40
  6
CONTINUOUS
 10
6.718713771
 20
5.1161296826
 11
6.707210646
 21
5.1237984328
  0
LINE
  5
410
100
AcDbEntity
  8
03__ASM_ALL_CURVES
100
AcDbLine
 62
40
  6
CONTINUOUS
 10
6.730216896
 20
5.2081546826
 11
6.741720021
 21
5.2004859344
  0
LINE
  5
411
100
AcDbEntity
  8
03__ASM_ALL_CURVES
100
AcDbLine
 62
40
  6
CONTINUOUS
 10
6.902763771
 20
5.1161296826
 11
6.891260646
 21
5.1237984328
  0
LINE
  5
412
100
AcDbEntity
  8
0
100
AcDbLine
 62
7
  6
CONTINUOUS
 10
7.4680440827
 20
4.4305276826
 11
7.4530440827
 21
4.4455276826
  0
LINE
  5
413
100
AcDbEntity
  8
03__ASM_ALL_CURVES
100
AcDbLine
 62
40
  6
CONTINUOUS
 10
6.707210646
 20
5.1237984328
 11
6.695707521
 21
5.1391359326
  0
LINE
  5
414
100
AcDbEntity
  8
03__ASM_ALL_CURVES
100
AcDbLine
 62
40
  6
CONTINUOUS
 10
6.741720021
 20
5.2004859344
 11
6.7474715835
 21
5.1928171808
  0
LINE
  5
415
100
AcDbEntity
  8
03__ASM_ALL_CURVES
100
AcDbLine
 62
40
  6
CONTINUOUS
 10
7.127336304
 20
3.5295245562
 11
7.127336304
 21
3.518021434
  0
LINE
  5
416
100
AcDbEntity
  8
03__ASM_ALL_CURVES
100
AcDbLine
 62
40
  6
CONTINUOUS
 10
7.1467477886
 20
3.4351989326
 11
7.1467477886
 21
3.3661801826
  0
LINE
  5
417
100
AcDbEntity
  8
03__ASM_ALL_CURVES
100
AcDbLine
 62
40
  6
CONTINUOUS
 10
7.1615840835
 20
5.1314671831
 11
7.1615840835
 21
5.2081546826
  0
LINE
  5
418
100
AcDbEntity
  8
03__ASM_ALL_CURVES
100
AcDbLine
 62
40
  6
CONTINUOUS
 10
7.2075965835
 20
5.2081546826
 11
7.2075965835
 21
5.1314671831
  0
LINE
  5
419
100
AcDbEntity
  8
03__ASM_ALL_CURVES
100
AcDbLine
 62
40
  6
CONTINUOUS
 10
7.2536090835
 20
5.2081546826
 11
7.2536090835
 21
5.1161296826
  0
LINE
  5
41A
100
AcDbEntity
  8
0
100
AcDbLine
 62
7
  6
CONTINUOUS
 10
7.2540440827
 20
3.7605304725
 11
7.2540440827
 21
4.4455248927
  0
LINE
  5
41B
100
AcDbEntity
  8
03__ASM_ALL_CURVES
100
AcDbLine
 62
40
  6
CONTINUOUS
 10
7.397398146
 20
5.1621421826
 11
7.3916465835
 21
5.1391359326
  0
LINE
  5
41C
100
AcDbEntity
  8
03__ASM_ALL_CURVES
100
AcDbLine
 62
40
  6
CONTINUOUS
 10
7.0971406009
 20
3.4892636201
 11
7.092826929
 21
3.4720089326
  0
LINE
  5
41D
100
AcDbEntity
  8
03__ASM_ALL_CURVES
100
AcDbLine
 62
40
  6
CONTINUOUS
 10
6.8814570071
 20
3.5237729951
 11
6.8900843509
 21
3.5352761215
  0
LINE
  5
41E
100
AcDbEntity
  8
03__ASM_ALL_CURVES
100
AcDbLine
 62
40
  6
CONTINUOUS
 10
6.823222398
 20
3.3834348701
 11
6.8145950543
 21
3.3719317453
  0
LINE
  5
41F
100
AcDbEntity
  8
03__ASM_ALL_CURVES
100
AcDbLine
 62
40
  6
CONTINUOUS
 10
6.9245937259
 20
3.4892636201
 11
6.9159663821
 21
3.4777604953
  0
LINE
  5
420
100
AcDbEntity
  8
03__ASM_ALL_CURVES
100
AcDbLine
 62
40
  6
CONTINUOUS
 10
6.989298804
 20
3.518021434
 11
6.9849851321
 21
3.5122698687
  0
LINE
  5
421
100
AcDbEntity
  8
03__ASM_ALL_CURVES
100
AcDbLine
 62
40
  6
CONTINUOUS
 10
6.8879274761
 20
3.3776833079
 11
6.8836138043
 21
3.3719317453
  0
LINE
  5
422
100
AcDbEntity
  8
0
100
AcDbLine
 62
7
  6
CONTINUOUS
 10
7.3770440827
 20
3.7595276826
 11
7.3900440827
 21
3.7695276826
  0
LINE
  5
423
100
AcDbEntity
  8
03__ASM_ALL_CURVES
100
AcDbLine
 62
40
  6
CONTINUOUS
 10
6.8145950543
 20
3.3719317453
 11
6.8059677105
 21
3.3661801826
  0
LINE
  5
424
100
AcDbEntity
  8
03__ASM_ALL_CURVES
100
AcDbLine
 62
40
  6
CONTINUOUS
 10
7.0971406009
 20
3.5352761215
 11
7.1057679446
 21
3.5410276826
  0
LINE
  5
425
100
AcDbEntity
  8
03__ASM_ALL_CURVES
100
AcDbLine
 62
40
  6
CONTINUOUS
 10
6.8836138043
 20
3.3719317453
 11
6.8749864605
 21
3.3661801826
  0
LINE
  5
426
100
AcDbEntity
  8
03__ASM_ALL_CURVES
100
AcDbLine
 62
40
  6
CONTINUOUS
 10
7.1230226321
 20
3.5122698687
 11
7.1057679446
 21
3.5007667444
  0
LINE
  5
427
100
AcDbEntity
  8
03__ASM_ALL_CURVES
100
AcDbLine
 62
40
  6
CONTINUOUS
 10
6.891260646
 20
5.1774796844
 11
6.925770021
 21
5.1544734317
  0
LINE
  5
428
100
AcDbEntity
  8
03__ASM_ALL_CURVES
100
AcDbLine
 62
40
  6
CONTINUOUS
 10
6.925770021
 20
5.2004859344
 11
6.914266896
 21
5.2081546826
  0
LINE
  5
429
100
AcDbEntity
  8
03__ASM_ALL_CURVES
100
AcDbLine
 62
40
  6
CONTINUOUS
 10
7.086813771
 20
5.1161296826
 11
7.075310646
 21
5.1237984328
  0
LINE
  5
42A
100
AcDbEntity
  8
03__ASM_ALL_CURVES
100
AcDbLine
 62
40
  6
CONTINUOUS
 10
7.178838771
 20
5.1161296826
 11
7.167335646
 21
5.1237984328
  0
LINE
  5
42B
100
AcDbEntity
  8
03__ASM_ALL_CURVES
100
AcDbLine
 62
40
  6
CONTINUOUS
 10
6.891260646
 20
5.1237984328
 11
6.879757521
 21
5.1391359326
  0
LINE
  5
42C
100
AcDbEntity
  8
03__ASM_ALL_CURVES
100
AcDbLine
 62
40
  6
CONTINUOUS
 10
6.8855090835
 20
5.1851484326
 11
6.891260646
 21
5.1774796844
  0
LINE
  5
42D
100
AcDbEntity
  8
03__ASM_ALL_CURVES
100
AcDbLine
 62
40
  6
CONTINUOUS
 10
6.925770021
 20
5.1544734317
 11
6.9315215835
 21
5.1468046835
  0
LINE
  5
42E
100
AcDbEntity
  8
03__ASM_ALL_CURVES
100
AcDbLine
 62
40
  6
CONTINUOUS
 10
6.9315215835
 20
5.1928171808
 11
6.925770021
 21
5.2004859344
  0
LINE
  5
42F
100
AcDbEntity
  8
03__ASM_ALL_CURVES
100
AcDbLine
 62
40
  6
CONTINUOUS
 10
7.063807521
 20
5.1391359326
 11
7.0580559585
 21
5.1621421826
  0
LINE
  5
430
100
AcDbEntity
  8
0
100
AcDbLine
 62
7
  6
CONTINUOUS
 10
7.3180440827
 20
3.7605304725
 11
7.3180440827
 21
4.4455248927
  0
LINE
  5
431
100
AcDbEntity
  8
0
100
AcDbLine
 62
7
  6
CONTINUOUS
 10
7.3290440827
 20
3.7595276826
 11
7.3290440827
 21
4.4465276826
  0
LINE
  5
432
100
AcDbEntity
  8
03__ASM_ALL_CURVES
100
AcDbLine
 62
40
  6
CONTINUOUS
 10
7.3456340835
 20
5.1161296826
 11
7.3456340835
 21
5.2081546826
  0
LINE
  5
433
100
AcDbEntity
  8
0
100
AcDbLine
 62
7
  6
CONTINUOUS
 10
7.3770440827
 20
3.7595276826
 11
7.3770440827
 21
4.4465276826
  0
LINE
  5
434
100
AcDbEntity
  8
0
100
AcDbLine
 62
7
  6
CONTINUOUS
 10
7.3900440827
 20
3.7695281896
 11
7.3900440827
 21
4.4365271756
  0
LINE
  5
435
100
AcDbEntity
  8
0
100
AcDbLine
 62
7
  6
CONTINUOUS
 10
7.3990440827
 20
3.7605304725
 11
7.3990440827
 21
4.4455248927
  0
LINE
  5
436
100
AcDbEntity
  8
03__ASM_ALL_CURVES
100
AcDbLine
 62
40
  6
CONTINUOUS
 10
7.092826929
 20
3.5295245562
 11
7.0971406009
 21
3.5352761215
  0
LINE
  5
437
100
AcDbEntity
  8
03__ASM_ALL_CURVES
100
AcDbLine
 62
40
  6
CONTINUOUS
 10
7.1057679446
 20
3.5007667444
 11
7.0971406009
 21
3.4892636201
  0
LINE
  5
438
100
AcDbEntity
  8
03__ASM_ALL_CURVES
100
AcDbLine
 62
40
  6
CONTINUOUS
 10
7.127336304
 20
3.518021434
 11
7.1230226321
 21
3.5122698687
  0
LINE
  5
439
100
AcDbEntity
  8
0
100
AcDbLine
 62
7
  6
CONTINUOUS
 10
7.4680440827
 20
3.7755276826
 11
7.4530440827
 21
3.7605276826
  0
LINE
  5
43A
100
AcDbEntity
  8
03__ASM_ALL_CURVES
100
AcDbLine
 62
40
  6
CONTINUOUS
 10
7.098316896
 20
5.2081546826
 11
7.109820021
 21
5.2004859344
  0
LINE
  5
43B
100
AcDbEntity
  8
03__ASM_ALL_CURVES
100
AcDbLine
 62
40
  6
CONTINUOUS
 10
7.8053765043
 20
4.1271842453
 11
7.7967491605
 21
4.1386873701
  0
LINE
  5
43C
100
AcDbEntity
  8
03__ASM_ALL_CURVES
100
AcDbLine
 62
40
  6
CONTINUOUS
 10
7.7622397855
 20
4.1846998715
 11
7.7665534574
 21
4.1789483062
  0
LINE
  5
43D
100
AcDbEntity
  8
03__ASM_ALL_CURVES
100
AcDbLine
 62
40
  6
CONTINUOUS
 10
7.075310646
 20
5.1237984328
 11
7.063807521
 21
5.1391359326
  0
LINE
  5
43E
100
AcDbEntity
  8
03__ASM_ALL_CURVES
100
AcDbLine
 62
40
  6
CONTINUOUS
 10
7.8312585355
 20
4.1846998715
 11
7.8398858793
 21
4.1731967451
  0
LINE
  5
43F
100
AcDbEntity
  8
03__ASM_ALL_CURVES
100
AcDbLine
 62
40
  6
CONTINUOUS
 10
7.109820021
 20
5.2004859344
 11
7.121323146
 21
5.1851484326
  0
LINE
  5
440
100
AcDbEntity
  8
03__ASM_ALL_CURVES
100
AcDbLine
 62
40
  6
CONTINUOUS
 10
7.167335646
 20
5.1237984328
 11
7.1615840835
 21
5.1314671831
  0
LINE
  5
441
100
AcDbEntity
  8
03__ASM_ALL_CURVES
100
AcDbLine
 62
40
  6
CONTINUOUS
 10
7.9002772855
 20
4.1846998715
 11
7.9045909574
 21
4.1789483062
  0
LINE
  5
442
100
AcDbEntity
  8
03__ASM_ALL_CURVES
100
AcDbLine
 62
40
  6
CONTINUOUS
 10
7.121323146
 20
5.1851484326
 11
7.1270747085
 21
5.1621421826
  0
LINE
  5
443
100
AcDbEntity
  8
03__ASM_ALL_CURVES
100
AcDbLine
 62
40
  6
CONTINUOUS
 10
7.4376590835
 20
5.1161296826
 11
7.4376590835
 21
5.2081546826
  0
LINE
  5
444
100
AcDbEntity
  8
0
100
AcDbLine
 62
7
  6
CONTINUOUS
 10
7.4530440827
 20
3.7605276826
 11
7.4530440827
 21
4.4455276826
  0
LINE
  5
445
100
AcDbEntity
  8
0
100
AcDbLine
 62
7
  6
CONTINUOUS
 10
7.4680440827
 20
3.77553152
 11
7.4680440827
 21
4.4305238452
  0
LINE
  5
446
100
AcDbEntity
  8
03__ASM_ALL_CURVES
100
AcDbLine
 62
40
  6
CONTINUOUS
 10
7.5296840835
 20
5.1161296826
 11
7.5296840835
 21
5.2081546826
  0
LINE
  5
447
100
AcDbEntity
  8
03__ASM_ALL_CURVES
100
AcDbLine
 62
40
  6
CONTINUOUS
 10
7.5756965835
 20
5.1928171808
 11
7.5756965835
 21
5.1774796844
  0
LINE
  5
448
100
AcDbEntity
  8
03__ASM_ALL_CURVES
100
AcDbLine
 62
40
  6
CONTINUOUS
 10
7.7665534574
 20
4.167445184
 11
7.7622397855
 21
4.1616936187
  0
LINE
  5
449
100
AcDbEntity
  8
03__ASM_ALL_CURVES
100
AcDbLine
 62
40
  6
CONTINUOUS
 10
7.7967491605
 20
4.1731967451
 11
7.8053765043
 21
4.1846998715
  0
LINE
  5
44A
100
AcDbEntity
  8
03__ASM_ALL_CURVES
100
AcDbLine
 62
40
  6
CONTINUOUS
 10
7.8398858793
 20
4.1386873701
 11
7.8312585355
 21
4.1271842453
  0
LINE
  5
44B
100
AcDbEntity
  8
03__ASM_ALL_CURVES
100
AcDbLine
 62
40
  6
CONTINUOUS
 10
7.9045909574
 20
4.167445184
 11
7.9002772855
 21
4.1616936187
  0
LINE
  5
44C
100
AcDbEntity
  8
03__ASM_ALL_CURVES
100
AcDbLine
 62
40
  6
CONTINUOUS
 10
7.3686403335
 20
5.2081546826
 11
7.3801434585
 21
5.2004859344
  0
LINE
  5
44D
100
AcDbEntity
  8
03__ASM_ALL_CURVES
100
AcDbLine
 62
40
  6
CONTINUOUS
 10
7.558441896
 20
5.2081546826
 11
7.569945021
 21
5.2004859344
  0
LINE
  5
44E
100
AcDbEntity
  8
03__ASM_ALL_CURVES
100
AcDbLine
 62
40
  6
CONTINUOUS
 10
7.7838081445
 20
4.0846226826
 11
7.8183175195
 21
4.0156039326
  0
LINE
  5
44F
100
AcDbEntity
  8
03__ASM_ALL_CURVES
100
AcDbLine
 62
40
  6
CONTINUOUS
 10
7.3916465835
 20
5.1851484326
 11
7.397398146
 21
5.1621421826
  0
LINE
  5
450
100
AcDbEntity
  8
03__ASM_ALL_CURVES
100
AcDbLine
 62
40
  6
CONTINUOUS
 10
7.732044082
 20
4.0846226826
 11
7.732044082
 21
4.0156039326
  0
LINE
  5
451
100
AcDbEntity
  8
03__ASM_ALL_CURVES
100
AcDbLine
 62
40
  6
CONTINUOUS
 10
7.7320440824
 20
4.1214326826
 11
7.7320440824
 21
4.1904514326
  0
LINE
  5
452
100
AcDbEntity
  8
03__ASM_ALL_CURVES
100
AcDbLine
 62
40
  6
CONTINUOUS
 10
7.3801434585
 20
5.2004859344
 11
7.3916465835
 21
5.1851484326
  0
LINE
  5
453
100
AcDbEntity
  8
03__ASM_ALL_CURVES
100
AcDbLine
 62
40
  6
CONTINUOUS
 10
7.8916499418
 20
4.1559420576
 11
7.9045909574
 21
4.1214326826
  0
LINE
  5
454
100
AcDbEntity
  8
03__ASM_ALL_CURVES
100
AcDbLine
 62
40
  6
CONTINUOUS
 10
7.7967491605
 20
4.1386873701
 11
7.7924354886
 21
4.1559420576
  0
LINE
  5
455
100
AcDbEntity
  8
03__ASM_ALL_CURVES
100
AcDbLine
 62
40
  6
CONTINUOUS
 10
7.8398858793
 20
4.1731967451
 11
7.8441995511
 21
4.1559420576
  0
LINE
  5
456
100
AcDbEntity
  8
03__ASM_ALL_CURVES
100
AcDbLine
 62
40
  6
CONTINUOUS
 10
7.7665534574
 20
4.1789483062
 11
7.7665534574
 21
4.167445184
  0
LINE
  5
457
100
AcDbEntity
  8
03__ASM_ALL_CURVES
100
AcDbLine
 62
40
  6
CONTINUOUS
 10
7.7838081445
 20
4.0156039326
 11
7.7838081445
 21
4.0846226826
  0
LINE
  5
458
100
AcDbEntity
  8
03__ASM_ALL_CURVES
100
AcDbLine
 62
40
  6
CONTINUOUS
 10
7.8183175195
 20
4.0156039326
 11
7.8183175195
 21
4.0846226826
  0
LINE
  5
459
100
AcDbEntity
  8
03__ASM_ALL_CURVES
100
AcDbLine
 62
40
  6
CONTINUOUS
 10
7.8528268945
 20
4.0846226826
 11
7.8528268945
 21
4.0156039326
  0
LINE
  5
45A
100
AcDbEntity
  8
03__ASM_ALL_CURVES
100
AcDbLine
 62
40
  6
CONTINUOUS
 10
7.8700815824
 20
4.1214326826
 11
7.8700815824
 21
4.1904514326
  0
LINE
  5
45B
100
AcDbEntity
  8
03__ASM_ALL_CURVES
100
AcDbLine
 62
40
  6
CONTINUOUS
 10
7.9045909574
 20
4.1789483062
 11
7.9045909574
 21
4.167445184
  0
LINE
  5
45C
100
AcDbEntity
  8
03__ASM_ALL_CURVES
100
AcDbLine
 62
40
  6
CONTINUOUS
 10
7.7924354886
 20
4.1559420576
 11
7.7967491605
 21
4.1731967451
  0
LINE
  5
45D
100
AcDbEntity
  8
03__ASM_ALL_CURVES
100
AcDbLine
 62
40
  6
CONTINUOUS
 10
7.8441995511
 20
4.1559420576
 11
7.8398858793
 21
4.1386873701
  0
LINE
  5
45E
100
AcDbEntity
  8
03__ASM_ALL_CURVES
100
AcDbLine
 62
40
  6
CONTINUOUS
 10
7.569945021
 20
5.2004859344
 11
7.5756965835
 21
5.1928171808
  0
LINE
  5
45F
100
AcDbEntity
  8
03__ASM_ALL_CURVES
100
AcDbLine
 62
40
  6
CONTINUOUS
 10
7.558441896
 20
5.1621421826
 11
7.5756965835
 21
5.1161296826
  0
LINE
  5
460
100
AcDbEntity
  8
03__ASM_ALL_CURVES
100
AcDbLine
 62
40
  6
CONTINUOUS
 10
7.9218456445
 20
4.0156039326
 11
7.9218456445
 21
4.0846226826
  0
LINE
  5
461
100
AcDbEntity
  8
03__ASM_ALL_CURVES
100
AcDbLine
 62
40
  6
CONTINUOUS
 10
7.9563550199
 20
4.1904514326
 11
7.9563550199
 21
4.1214326826
  0
LINE
  5
462
100
AcDbEntity
  8
03__ASM_ALL_CURVES
100
AcDbLine
 62
40
  6
CONTINUOUS
 10
8.008119082
 20
4.0846226826
 11
8.008119082
 21
4.0156039326
  0
LINE
  5
463
100
AcDbEntity
  8
03__ASM_ALL_CURVES
100
AcDbLine
 62
40
  6
CONTINUOUS
 10
8.0253737699
 20
4.1904514326
 11
8.0253737699
 21
4.1214326826
  0
ARC
  5
464
100
AcDbEntity
  8
0
100
AcDbCircle
 62
7
  6
CONTINUOUS
 10
4.1340440827
 20
4.2800276826
 40
0.094
100
AcDbArc
 50
90.0
 51
131.267427381
  0
ARC
  5
465
100
AcDbEntity
  8
0
100
AcDbCircle
 62
7
  6
CONTINUOUS
 10
4.1340440827
 20
3.9260276826
 40
0.094
100
AcDbArc
 50
228.732572619
 51
270.0
  0
CIRCLE
  5
466
100
AcDbEntity
  8
0
100
AcDbCircle
 62
7
  6
CONTINUOUS
 10
6.7840440827
 20
4.1030276826
 40
0.047
  0
ARC
  5
467
100
AcDbEntity
  8
0
100
AcDbCircle
 62
7
  6
CONTINUOUS
 10
7.3810440827
 20
4.3780276826
 40
0.018
100
AcDbArc
 50
300.0000004559
 51
359.9999997781
  0
ARC
  5
468
100
AcDbEntity
  8
0
100
AcDbCircle
 62
7
  6
CONTINUOUS
 10
7.3810440827
 20
3.8280276826
 40
0.018
100
AcDbArc
 50
0.0000002219
 51
59.9999995441
  0
ARC
  5
469
100
AcDbEntity
  8
0
100
AcDbCircle
 62
7
  6
CONTINUOUS
 10
3.8220440827
 20
3.9415276826
 40
0.0175
100
AcDbArc
 50
180.0
 51
360.0
  0
ARC
  5
46A
100
AcDbEntity
  8
0
100
AcDbCircle
 62
7
  6
CONTINUOUS
 10
6.6280440827
 20
4.3830276826
 40
0.016
100
AcDbArc
 50
180.0
 51
360.0
  0
ARC
  5
46B
100
AcDbEntity
  8
0
100
AcDbCircle
 62
7
  6
CONTINUOUS
 10
6.7070440827
 20
4.3830276826
 40
0.016
100
AcDbArc
 50
180.0
 51
360.0
  0
ARC
  5
46C
100
AcDbEntity
  8
0
100
AcDbCircle
 62
7
  6
CONTINUOUS
 10
4.5200440827
 20
4.4610276826
 40
0.008
100
AcDbArc
 50
270.0
 51
360.0
  0
ARC
  5
46D
100
AcDbEntity
  8
0
100
AcDbCircle
 62
7
  6
CONTINUOUS
 10
4.4980440827
 20
4.4610276826
 40
0.008
100
AcDbArc
 50
180.0
 51
270.0
  0
ARC
  5
46E
100
AcDbEntity
  8
0
100
AcDbCircle
 62
7
  6
CONTINUOUS
 10
4.5200440827
 20
3.7450276826
 40
0.008
100
AcDbArc
 50
0.0
 51
90.0
  0
ARC
  5
46F
100
AcDbEntity
  8
0
100
AcDbCircle
 62
7
  6
CONTINUOUS
 10
4.4980440827
 20
3.7450276826
 40
0.008
100
AcDbArc
 50
90.0
 51
180.0
  0
ARC
  5
470
100
AcDbEntity
  8
0
100
AcDbCircle
 62
7
  6
CONTINUOUS
 10
6.0924252806
 20
3.7445276826
 40
0.008
100
AcDbArc
 50
29.9999999725
 51
90.0
  0
ARC
  5
471
100
AcDbEntity
  8
0
100
AcDbCircle
 62
7
  6
CONTINUOUS
 10
6.0924252806
 20
4.4615276826
 40
0.008
100
AcDbArc
 50
270.0
 51
330.0000000122
  0
ARC
  5
472
100
AcDbEntity
  8
0
100
AcDbCircle
 62
7
  6
CONTINUOUS
 10
5.9347665146
 20
3.6930276826
 40
0.005
100
AcDbArc
 50
90.0
 51
120.0000000524
  0
ARC
  5
473
100
AcDbEntity
  8
0
100
AcDbCircle
 62
7
  6
CONTINUOUS
 10
5.9347665146
 20
4.5130276826
 40
0.005
100
AcDbArc
 50
239.9999999441
 51
270.0
  0
ARC
  5
474
100
AcDbEntity
  8
0
100
AcDbCircle
 62
7
  6
CONTINUOUS
 10
5.9150440827
 20
3.6816409312
 40
0.005
100
AcDbArc
 50
120.0000000421
 51
179.9999999989
  0
ARC
  5
475
100
AcDbEntity
  8
0
100
AcDbCircle
 62
7
  6
CONTINUOUS
 10
5.9150440827
 20
4.5244144339
 40
0.005
100
AcDbArc
 50
180.0000000014
 51
239.999999947
  0
ARC
  5
476
100
AcDbEntity
  8
0
100
AcDbCircle
 62
7
  6
CONTINUOUS
 10
4.5330440827
 20
4.4715276826
 40
0.005
100
AcDbArc
 50
90.0
 51
180.0
  0
ARC
  5
477
100
AcDbEntity
  8
0
100
AcDbCircle
 62
7
  6
CONTINUOUS
 10
4.4850440827
 20
4.4715276826
 40
0.005
100
AcDbArc
 50
0.0
 51
90.0
  0
ARC
  5
478
100
AcDbEntity
  8
0
100
AcDbCircle
 62
7
  6
CONTINUOUS
 10
4.5330440827
 20
3.7345276826
 40
0.005
100
AcDbArc
 50
180.0
 51
270.0
  0
ARC
  5
479
100
AcDbEntity
  8
0
100
AcDbCircle
 62
7
  6
CONTINUOUS
 10
4.4850440827
 20
3.7345276826
 40
0.005
100
AcDbArc
 50
270.0
 51
360.0
  0
ARC
  5
47A
100
AcDbEntity
  8
0
100
AcDbCircle
 62
7
  6
CONTINUOUS
 10
5.9070440827
 20
3.6785276826
 40
0.003
100
AcDbArc
 50
270.0
 51
360.0
  0
ARC
  5
47B
100
AcDbEntity
  8
0
100
AcDbCircle
 62
7
  6
CONTINUOUS
 10
5.9070440827
 20
4.5275276826
 40
0.003
100
AcDbArc
 50
0.0
 51
90.0
  0
SPLINE
  5
47C
100
AcDbEntity
  8
0
100
AcDbSpline
 62
7
  6
CONTINUOUS
 70
0
 71
3
 72
20
 73
16
 74
14
 42
0.0000001
 43
0.0000001
 44
0.0000000001
 12
0.0
 22
0.0416605862
 32
0.0
 13
0.0
 23
-0.0416605862
 33
0.0
 40
0.0
 40
0.0
 40
0.0
 40
0.0
 40
0.0489307848
 40
0.1062135912
 40
0.175871992
 40
0.2580136346
 40
0.3503828832
 40
0.4493672053
 40
0.5506327947
 40
0.6496171168
 40
0.7419863654
 40
0.824128008
 40
0.8937864088
 40
0.9510692152
 40
1.0
 40
1.0
 40
1.0
 40
1.0
 10
3.8395440827
 20
4.1791512514
 30
0.0
 10
3.8395440827
 20
4.1798307465
 30
0.0
 10
3.8391225488
 20
4.1813167575
 30
0.0
 10
3.837487281
 20
4.1831951848
 30
0.0
 10
3.8350353605
 20
4.1847941851
 30
0.0
 10
3.8318761281
 20
4.1860689362
 30
0.0
 10
3.8281730344
 20
4.186960924
 30
0.0
 10
3.8241261255
 20
4.1874201617
 30
0.0
 10
3.8199620399
 20
4.1874201617
 30
0.0
 10
3.815915131
 20
4.186960924
 30
0.0
 10
3.8122120374
 20
4.1860689362
 30
0.0
 10
3.8090528049
 20
4.1847941851
 30
0.0
 10
3.8066008845
 20
4.1831951848
 30
0.0
 10
3.8049656167
 20
4.1813167575
 30
0.0
 10
3.8045440827
 20
4.1798307465
 30
0.0
 10
3.8045440827
 20
4.1791512514
 30
0.0
 11
3.8395440827
 21
4.1791512514
 31
0.0
 11
3.8390355645
 21
4.1811252907
 31
0.0
 11
3.8375395632
 21
4.182984606
 31
0.0
 11
3.8351430208
 21
4.1846211406
 31
0.0
 11
3.8319852158
 21
4.1859397852
 31
0.0
 11
3.8282496682
 21
4.1868639049
 31
0.0
 11
3.8241534746
 21
4.1873397932
 31
0.0
 11
3.8199346908
 21
4.1873397932
 31
0.0
 11
3.8158384972
 21
4.1868639049
 31
0.0
 11
3.8121029497
 21
4.1859397852
 31
0.0
 11
3.8089451446
 21
4.1846211406
 31
0.0
 11
3.8065486023
 21
4.182984606
 31
0.0
 11
3.8050526009
 21
4.1811252907
 31
0.0
 11
3.8045440827
 21
4.1791512514
 31
0.0
  0
SPLINE
  5
47D
100
AcDbEntity
  8
0
100
AcDbSpline
 62
7
  6
CONTINUOUS
 70
0
 71
3
 72
14
 73
10
 74
8
 42
0.0000001
 43
0.0000001
 44
0.0000000001
 12
0.0
 22
0.0923501321
 32
0.0
 13
-0.0445331995
 23
-0.0809161858
 33
0.0
 40
0.0
 40
0.0
 40
0.0
 40
0.0
 40
0.1488099475
 40
0.297619895
 40
0.4464298425
 40
0.59523979
 40
0.7440497375
 40
0.892859685
 40
1.0
 40
1.0
 40
1.0
 40
1.0
 10
6.0270440827
 20
4.4885276826
 30
0.0
 10
6.0270440827
 20
4.4931085554
 30
0.0
 10
6.0252216982
 20
4.5022703009
 30
0.0
 10
6.0174371303
 20
4.5139207302
 30
0.0
 10
6.005786701
 20
4.5217052981
 30
0.0
 10
5.9920440827
 20
4.5244388748
 30
0.0
 10
5.9783014644
 20
4.5217052981
 30
0.0
 10
5.9677384829
 20
4.5146473395
 30
0.0
 10
5.9629650627
 20
4.5082781519
 30
0.0
 10
5.961374629
 20
4.5053883567
 30
0.0
 11
6.0270440827
 21
4.4885276826
 31
0.0
 11
6.0243798664
 21
4.5019216027
 31
0.0
 11
6.0167928201
 21
4.5132764199
 31
0.0
 11
6.0054380029
 21
4.5208634662
 31
0.0
 11
5.9920440827
 21
4.5235276826
 31
0.0
 11
5.9786501626
 21
4.5208634662
 31
0.0
 11
5.9672953454
 21
4.5132764199
 31
0.0
 11
5.961374629
 21
4.5053883567
 31
0.0
  0
SPLINE
  5
47E
100
AcDbEntity
  8
0
100
AcDbSpline
 62
7
  6
CONTINUOUS
 70
0
 71
3
 72
9
 73
5
 74
3
 42
0.0000001
 43
0.0000001
 44
0.0000000001
 12
-0.0084826651
 22
-0.0154128811
 32
0.0
 13
0.0
 23
-0.0175908144
 33
0.0
 40
0.0
 40
0.0
 40
0.0
 40
0.0
 40
0.2187616778
 40
1.0
 40
1.0
 40
1.0
 40
1.0
 10
5.961374629
 20
4.5053883567
 30
0.0
 10
5.9607560683
 20
4.5042644408
 30
0.0
 10
5.9582104262
 20
4.4989721602
 30
0.0
 10
5.9570440827
 20
4.4931085554
 30
0.0
 10
5.9570440827
 20
4.4885276826
 30
0.0
 11
5.961374629
 21
4.5053883567
 31
0.0
 11
5.9597082991
 21
4.5019216027
 31
0.0
 11
5.9570440827
 21
4.4885276826
 31
0.0
  0
SPLINE
  5
47F
100
AcDbEntity
  8
0
100
AcDbSpline
 62
7
  6
CONTINUOUS
 70
0
 71
3
 72
14
 73
10
 74
8
 42
0.0000001
 43
0.0000001
 44
0.0000000001
 12
0.0
 22
-0.0923501321
 32
0.0
 13
-0.0445331995
 23
0.0809161858
 33
0.0
 40
0.0
 40
0.0
 40
0.0
 40
0.0
 40
0.1488099475
 40
0.297619895
 40
0.4464298425
 40
0.59523979
 40
0.7440497375
 40
0.892859685
 40
1.0
 40
1.0
 40
1.0
 40
1.0
 10
6.0270440827
 20
3.7175276826
 30
0.0
 10
6.0270440827
 20
3.7129468098
 30
0.0
 10
6.0252216982
 20
3.7037850643
 30
0.0
 10
6.0174371303
 20
3.692134635
 30
0.0
 10
6.005786701
 20
3.6843500671
 30
0.0
 10
5.9920440827
 20
3.6816164903
 30
0.0
 10
5.9783014644
 20
3.6843500671
 30
0.0
 10
5.9677384829
 20
3.6914080257
 30
0.0
 10
5.9629650627
 20
3.6977772133
 30
0.0
 10
5.961374629
 20
3.7006670085
 30
0.0
 11
6.0270440827
 21
3.7175276826
 31
0.0
 11
6.0243798664
 21
3.7041337625
 31
0.0
 11
6.0167928201
 21
3.6927789453
 31
0.0
 11
6.0054380029
 21
3.685191899
 31
0.0
 11
5.9920440827
 21
3.6825276826
 31
0.0
 11
5.9786501626
 21
3.685191899
 31
0.0
 11
5.9672953454
 21
3.6927789453
 31
0.0
 11
5.961374629
 21
3.7006670085
 31
0.0
  0
SPLINE
  5
480
100
AcDbEntity
  8
0
100
AcDbSpline
 62
7
  6
CONTINUOUS
 70
0
 71
3
 72
9
 73
5
 74
3
 42
0.0000001
 43
0.0000001
 44
0.0000000001
 12
-0.0084826651
 22
0.0154128811
 32
0.0
 13
0.0
 23
0.0175908144
 33
0.0
 40
0.0
 40
0.0
 40
0.0
 40
0.0
 40
0.2187616778
 40
1.0
 40
1.0
 40
1.0
 40
1.0
 10
5.961374629
 20
3.7006670085
 30
0.0
 10
5.9607560683
 20
3.7017909244
 30
0.0
 10
5.9582104262
 20
3.707083205
 30
0.0
 10
5.9570440827
 20
3.7129468098
 30
0.0
 10
5.9570440827
 20
3.7175276826
 30
0.0
 11
5.961374629
 21
3.7006670085
 31
0.0
 11
5.9597082991
 21
3.7041337625
 31
0.0
 11
5.9570440827
 21
3.7175276826
 31
0.0
  0
SPLINE
  5
481
100
AcDbEntity
  8
0
100
AcDbSpline
 62
7
  6
CONTINUOUS
 70
0
 71
3
 72
16
 73
12
 74
10
 42
0.0000001
 43
0.0000001
 44
0.0000000001
 12
0.0906480335
 22
0.2719441006
 32
0.0
 13
-0.0906480335
 23
0.2719441006
 33
0.0
 40
0.0
 40
0.0
 40
0.0
 40
0.0
 40
0.1184548733
 40
0.230565332
 40
0.3393089466
 40
0.4465959239
 40
0.5535015371
 40
0.6607803311
 40
0.769505023
 40
0.8815660643
 40
1.0
 40
1.0
 40
1.0
 40
1.0
 10
4.3221726723
 20
3.8220276826
 30
0.0
 10
4.3257519061
 20
3.8327653839
 30
0.0
 10
4.3321829928
 20
3.8538514308
 30
0.0
 10
4.3397024224
 20
3.8854124856
 30
0.0
 10
4.3447906499
 20
3.9163813037
 30
0.0
 10
4.3473775121
 20
3.9471643733
 30
0.0
 10
4.3473763238
 20
3.9779181743
 30
0.0
 10
4.3447874832
 20
4.0086984657
 30
0.0
 10
4.3396987484
 20
4.0396597675
 30
0.0
 10
4.3321804917
 20
4.0712122991
 30
0.0
 10
4.3257512735
 20
4.0922918792
 30
0.0
 10
4.3221726723
 20
4.1030276826
 30
0.0
 11
4.3221726723
 21
3.8220276826
 31
0.0
 11
4.3320111419
 21
3.8545267105
 31
0.0
 11
4.3393983124
 21
3.8858031009
 31
0.0
 11
4.3444029298
 21
3.9165705534
 31
0.0
 11
4.3469498951
 21
3.9472191746
 31
0.0
 11
4.346948725
 21
3.9778641231
 31
0.0
 11
4.3443997849
 21
4.0085102262
 31
0.0
 11
4.3393943458
 21
4.0392720494
 31
0.0
 11
4.3320095744
 21
4.070534451
 31
0.0
 11
4.3221726723
 21
4.1030276826
 31
0.0
  0
SPLINE
  5
482
100
AcDbEntity
  8
0
100
AcDbSpline
 62
7
  6
CONTINUOUS
 70
0
 71
3
 72
17
 73
13
 74
11
 42
0.0000001
 43
0.0000001
 44
0.0000000001
 12
-0.1487434696
 22
0.2576312467
 32
0.0
 13
0.1487434696
 23
0.2576312467
 33
0.0
 40
0.0
 40
0.0
 40
0.0
 40
0.0
 40
0.1169386465
 40
0.2216811606
 40
0.3184580982
 40
0.4103908543
 40
0.5000417254
 40
0.5896883004
 40
0.6816074548
 40
0.7783545182
 40
0.8830694657
 40
1.0
 40
1.0
 40
1.0
 40
1.0
 10
4.220514934
 20
3.8220276826
 30
0.0
 10
4.2147169807
 20
3.8320700324
 30
0.0
 10
4.204377153
 20
3.8514998798
 30
0.0
 10
4.1920035296
 20
3.8806019574
 30
0.0
 10
4.1833500829
 20
3.9084435201
 30
0.0
 10
4.1781929783
 20
3.9356268397
 30
0.0
 10
4.176476098
 20
3.9625397246
 30
0.0
 10
4.1781959836
 20
3.9894510494
 30
0.0
 10
4.1833547352
 20
4.01662919
 30
0.0
 10
4.1920075871
 20
4.044463496
 30
0.0
 10
4.2043791745
 20
4.0735593357
 30
0.0
 10
4.2147173829
 20
4.0929860295
 30
0.0
 10
4.220514934
 20
4.1030276826
 30
0.0
 11
4.220514934
 21
3.8220276826
 31
0.0
 11
4.2042887026
 21
3.8527993396
 31
0.0
 11
4.1922039461
 21
3.8815199762
 31
0.0
 11
4.1837512728
 21
3.9090410448
 31
0.0
 11
4.1787183874
 21
3.93592276
 31
0.0
 11
4.1770440831
 21
3.9625401161
 31
0.0
 11
4.1787213254
 21
3.9891560066
 31
0.0
 11
4.1837559721
 21
4.0160332753
 31
0.0
 11
4.1922075871
 21
4.0435453719
 31
0.0
 11
4.2042897383
 21
4.0722582076
 31
0.0
 11
4.220514934
 21
4.1030276826
 31
0.0
  0
SPLINE
  5
483
100
AcDbEntity
  8
0
100
AcDbSpline
 62
7
  6
CONTINUOUS
 70
0
 71
3
 72
16
 73
12
 74
10
 42
0.0000001
 43
0.0000001
 44
0.0000000001
 12
0.0906480335
 22
0.2719441006
 32
0.0
 13
-0.0906480335
 23
0.2719441006
 33
0.0
 40
0.0
 40
0.0
 40
0.0
 40
0.0
 40
0.1184548733
 40
0.230565332
 40
0.3393089466
 40
0.4465959239
 40
0.5535015371
 40
0.6607803311
 40
0.769505023
 40
0.8815660643
 40
1.0
 40
1.0
 40
1.0
 40
1.0
 10
4.3221726723
 20
4.1030276826
 30
0.0
 10
4.3257519061
 20
4.1137653839
 30
0.0
 10
4.3321829928
 20
4.1348514308
 30
0.0
 10
4.3397024224
 20
4.1664124856
 30
0.0
 10
4.3447906499
 20
4.1973813037
 30
0.0
 10
4.3473775121
 20
4.2281643733
 30
0.0
 10
4.3473763238
 20
4.2589181743
 30
0.0
 10
4.3447874832
 20
4.2896984657
 30
0.0
 10
4.3396987484
 20
4.3206597675
 30
0.0
 10
4.3321804917
 20
4.3522122991
 30
0.0
 10
4.3257512735
 20
4.3732918792
 30
0.0
 10
4.3221726723
 20
4.3840276826
 30
0.0
 11
4.3221726723
 21
4.1030276826
 31
0.0
 11
4.3320111419
 21
4.1355267105
 31
0.0
 11
4.3393983124
 21
4.1668031009
 31
0.0
 11
4.3444029298
 21
4.1975705534
 31
0.0
 11
4.3469498951
 21
4.2282191746
 31
0.0
 11
4.346948725
 21
4.2588641231
 31
0.0
 11
4.3443997849
 21
4.2895102262
 31
0.0
 11
4.3393943458
 21
4.3202720494
 31
0.0
 11
4.3320095744
 21
4.351534451
 31
0.0
 11
4.3221726723
 21
4.3840276826
 31
0.0
  0
SPLINE
  5
484
100
AcDbEntity
  8
0
100
AcDbSpline
 62
7
  6
CONTINUOUS
 70
0
 71
3
 72
17
 73
13
 74
11
 42
0.0000001
 43
0.0000001
 44
0.0000000001
 12
-0.1487434696
 22
0.2576312467
 32
0.0
 13
0.1487434696
 23
0.2576312467
 33
0.0
 40
0.0
 40
0.0
 40
0.0
 40
0.0
 40
0.1169386465
 40
0.2216811606
 40
0.3184580982
 40
0.4103908543
 40
0.5000417254
 40
0.5896883004
 40
0.6816074548
 40
0.7783545182
 40
0.8830694657
 40
1.0
 40
1.0
 40
1.0
 40
1.0
 10
4.220514934
 20
4.1030276826
 30
0.0
 10
4.2147169807
 20
4.1130700324
 30
0.0
 10
4.204377153
 20
4.1324998798
 30
0.0
 10
4.1920035296
 20
4.1616019574
 30
0.0
 10
4.1833500829
 20
4.1894435201
 30
0.0
 10
4.1781929783
 20
4.2166268397
 30
0.0
 10
4.176476098
 20
4.2435397246
 30
0.0
 10
4.1781959836
 20
4.2704510494
 30
0.0
 10
4.1833547352
 20
4.29762919
 30
0.0
 10
4.1920075871
 20
4.325463496
 30
0.0
 10
4.2043791745
 20
4.3545593357
 30
0.0
 10
4.2147173829
 20
4.3739860295
 30
0.0
 10
4.220514934
 20
4.3840276826
 30
0.0
 11
4.220514934
 21
4.1030276826
 31
0.0
 11
4.2042887026
 21
4.1337993396
 31
0.0
 11
4.1922039461
 21
4.1625199762
 31
0.0
 11
4.1837512728
 21
4.1900410448
 31
0.0
 11
4.1787183874
 21
4.21692276
 31
0.0
 11
4.1770440831
 21
4.2435401161
 31
0.0
 11
4.1787213254
 21
4.2701560066
 31
0.0
 11
4.1837559721
 21
4.2970332753
 31
0.0
 11
4.1922075871
 21
4.3245453719
 31
0.0
 11
4.2042897383
 21
4.3532582076
 31
0.0
 11
4.220514934
 21
4.3840276826
 31
0.0
  0
SPLINE
  5
485
100
AcDbEntity
  8
0
100
AcDbSpline
 62
7
  6
CONTINUOUS
 70
0
 71
3
 72
15
 73
11
 74
9
 42
0.0000001
 43
0.0000001
 44
0.0000000001
 12
0.0937957726
 22
0.0
 32
0.0
 13
0.0000049177
 23
0.094022729
 33
0.0
 40
0.0
 40
0.0
 40
0.0
 40
0.0
 40
0.1379689986
 40
0.2764884269
 40
0.4152457934
 40
0.5527690287
 40
0.6869487547
 40
0.8161009018
 40
0.9398489213
 40
1.0
 40
1.0
 40
1.0
 40
1.0
 10
7.0200440827
 20
4.1856252698
 30
0.0
 10
7.024357719
 20
4.1856252698
 30
0.0
 10
7.0330276525
 20
4.1865094723
 30
0.0
 10
7.0454931375
 20
4.1904295342
 30
0.0
 10
7.0569156354
 20
4.1967555108
 30
0.0
 10
7.0667468433
 20
4.2051375281
 30
0.0
 10
7.0745159
 20
4.2150830014
 30
0.0
 10
7.0798804948
 20
4.2260330087
 30
0.0
 10
7.0821966751
 20
4.2356283474
 30
0.0
 10
7.0825433361
 20
4.2413925205
 30
0.0
 10
7.0825434347
 20
4.24327771
 30
0.0
 11
7.0200440827
 21
4.1856252698
 31
0.0
 11
7.0329182903
 21
4.1869374814
 31
0.0
 11
7.0453142276
 21
4.1908293641
 31
0.0
 11
7.056699738
 21
4.1971346467
 31
0.0
 11
7.0665087867
 21
4.2055113582
 31
0.0
 11
7.0742357926
 21
4.2154455398
 31
0.0
 11
7.0795292884
 21
4.2263416901
 31
0.0
 11
7.0822080797
 21
4.2376353821
 31
0.0
 11
7.0825434347
 21
4.24327771
 31
0.0
  0
SPLINE
  5
486
100
AcDbEntity
  8
0
100
AcDbSpline
 62
7
  6
CONTINUOUS
 70
0
 71
3
 72
14
 73
10
 74
8
 42
0.0000001
 43
0.0000001
 44
0.0000000001
 12
0.0585087442
 22
0.0
 32
0.0
 13
-0.0001919028
 23
0.0588236583
 33
0.0
 40
0.0
 40
0.0
 40
0.0
 40
0.0
 40
0.1783375167
 40
0.3521447044
 40
0.5163301789
 40
0.6656272327
 40
0.7959119152
 40
0.9060417902
 40
1.0
 40
1.0
 40
1.0
 40
1.0
 10
6.7840440827
 20
4.3190134598
 30
0.0
 10
6.7875221841
 20
4.3190134598
 30
0.0
 10
6.794400604
 20
4.3195064547
 30
0.0
 10
6.804269348
 20
4.3216787954
 30
0.0
 10
6.8131732385
 20
4.325113282
 30
0.0
 10
6.8206625468
 20
4.3295410086
 30
0.0
 10
6.8263765815
 20
4.3346426924
 30
0.0
 10
6.8300687546
 20
4.3401265961
 30
0.0
 10
6.831050093
 20
4.3441054865
 30
0.0
 10
6.8310440827
 20
4.3459478084
 30
0.0
 11
6.7840440827
 21
4.3190134598
 31
0.0
 11
6.7944511896
 21
4.3197663402
 31
0.0
 11
6.8043780863
 21
4.3219731865
 31
0.0
 11
6.8133252728
 21
4.3254701256
 31
0.0
 11
6.8208068657
 21
4.3299789161
 31
0.0
 11
6.8264165021
 21
4.33514021
 31
0.0
 11
6.8298768671
 21
4.3405757734
 31
0.0
 11
6.8310440827
 21
4.3459478084
 31
0.0
  0
SPLINE
  5
487
100
AcDbEntity
  8
0
100
AcDbSpline
 62
7
  6
CONTINUOUS
 70
0
 71
3
 72
14
 73
10
 74
8
 42
0.0000001
 43
0.0000001
 44
0.0000000001
 12
0.0001919087
 22
0.05882366
 32
0.0
 13
-0.0585087446
 23
0.0
 33
0.0
 40
0.0
 40
0.0
 40
0.0
 40
0.0
 40
0.0939576579
 40
0.2040866937
 40
0.334371956
 40
0.483669569
 40
0.6478533146
 40
0.8216605678
 40
1.0
 40
1.0
 40
1.0
 40
1.0
 10
6.8310440827
 20
3.8601075568
 30
0.0
 10
6.8310500932
 20
3.8619498679
 30
0.0
 10
6.8300687671
 20
3.8659287313
 30
0.0
 10
6.826376619
 20
3.8714126319
 30
0.0
 10
6.8206625875
 20
3.8765143302
 30
0.0
 10
6.8131732914
 20
3.8809420555
 30
0.0
 10
6.8042694258
 20
3.8843765442
 30
0.0
 10
6.7944006804
 20
3.8865489024
 30
0.0
 10
6.7875222215
 20
3.8870419054
 30
0.0
 10
6.7840440827
 20
3.8870419054
 30
0.0
 11
6.8310440827
 21
3.8601075568
 31
0.0
 11
6.82987688
 21
3.8654795616
 31
0.0
 11
6.8264165555
 21
3.8709150926
 31
0.0
 11
6.8208069042
 21
3.8760764205
 31
0.0
 11
6.8133252862
 21
3.880585233
 31
0.0
 11
6.8043781977
 21
3.8840821449
 31
0.0
 11
6.7944513009
 21
3.8862890087
 31
0.0
 11
6.7840440827
 21
3.8870419054
 31
0.0
  0
SPLINE
  5
488
100
AcDbEntity
  8
0
100
AcDbSpline
 62
7
  6
CONTINUOUS
 70
0
 71
3
 72
14
 73
10
 74
8
 42
0.0000001
 43
0.0000001
 44
0.0000000001
 12
-0.0001919087
 22
-0.05882366
 32
0.0
 13
0.0585087446
 23
-0.0
 33
0.0
 40
0.0
 40
0.0
 40
0.0
 40
0.0
 40
0.0939576579
 40
0.2040866937
 40
0.334371956
 40
0.483669569
 40
0.6478533146
 40
0.8216605678
 40
1.0
 40
1.0
 40
1.0
 40
1.0
 10
6.7370440827
 20
4.3459478084
 30
0.0
 10
6.7370380723
 20
4.3441054972
 30
0.0
 10
6.7380193983
 20
4.3401266339
 30
0.0
 10
6.7417115465
 20
4.3346427333
 30
0.0
 10
6.747425578
 20
4.329541035
 30
0.0
 10
6.754914874
 20
4.3251133096
 30
0.0
 10
6.7638187396
 20
4.321678821
 30
0.0
 10
6.7736874851
 20
4.3195064628
 30
0.0
 10
6.780565944
 20
4.3190134598
 30
0.0
 10
6.7840440827
 20
4.3190134598
 30
0.0
 11
6.7370440827
 21
4.3459478084
 31
0.0
 11
6.7382112855
 21
4.3405758036
 31
0.0
 11
6.7416716099
 21
4.3351402726
 31
0.0
 11
6.7472812613
 21
4.3299789447
 31
0.0
 11
6.7547628792
 21
4.3254701322
 31
0.0
 11
6.7637099678
 21
4.3219732203
 31
0.0
 11
6.7736368646
 21
4.3197663565
 31
0.0
 11
6.7840440827
 21
4.3190134598
 31
0.0
  0
SPLINE
  5
489
100
AcDbEntity
  8
0
100
AcDbSpline
 62
7
  6
CONTINUOUS
 70
0
 71
3
 72
15
 73
11
 74
9
 42
0.0000001
 43
0.0000001
 44
0.0000000001
 12
-0.0937957729
 22
0.0
 32
0.0
 13
-0.0000049171
 23
-0.0940227292
 33
0.0
 40
0.0
 40
0.0
 40
0.0
 40
0.0
 40
0.1379689827
 40
0.2764884136
 40
0.4152457886
 40
0.5527690303
 40
0.6869487613
 40
0.8161009112
 40
0.9398489249
 40
1.0
 40
1.0
 40
1.0
 40
1.0
 10
7.0200440827
 20
4.0204300954
 30
0.0
 10
7.0157304469
 20
4.0204300954
 30
0.0
 10
7.0070605138
 20
4.019545893
 30
0.0
 10
6.9945950289
 20
4.0156258314
 30
0.0
 10
6.9831725303
 20
4.0092998546
 30
0.0
 10
6.9733413219
 20
4.0009178369
 30
0.0
 10
6.965572265
 20
3.9909723631
 30
0.0
 10
6.9602076704
 20
3.9800223557
 30
0.0
 10
6.9578914902
 20
3.9704270171
 30
0.0
 10
6.9575448293
 20
3.9646628443
 30
0.0
 10
6.9575447307
 20
3.9627776549
 30
0.0
 11
7.0200440827
 21
4.0204300954
 31
0.0
 11
7.0071698765
 21
4.0191178841
 31
0.0
 11
6.9947739389
 21
4.0152260015
 31
0.0
 11
6.9833884277
 21
4.0089207187
 31
0.0
 11
6.9735793785
 21
4.0005440068
 31
0.0
 11
6.9658523724
 21
3.9906098247
 31
0.0
 11
6.9605588767
 21
3.979713674
 31
0.0
 11
6.9578800856
 21
3.9684199824
 31
0.0
 11
6.9575447307
 21
3.9627776549
 31
0.0
  0
SPLINE
  5
48A
100
AcDbEntity
  8
0
100
AcDbSpline
 62
7
  6
CONTINUOUS
 70
0
 71
3
 72
8
 73
4
 74
2
 42
0.0000001
 43
0.0000001
 44
0.0000000001
 12
0.0011302308
 22
-0.0000642649
 32
0.0
 13
0.0011299506
 23
-0.0000690287
 33
0.0
 40
0.0
 40
0.0
 40
0.0
 40
0.0
 40
1.0
 40
1.0
 40
1.0
 40
1.0
 10
6.7230362683
 20
3.8226177149
 30
0.0
 10
6.7234130119
 20
3.8225962932
 30
0.0
 10
6.7237897066
 20
3.8225740046
 30
0.0
 10
6.7241663568
 20
3.822550995
 30
0.0
 11
6.7230362683
 21
3.8226177149
 31
0.0
 11
6.7241663568
 21
3.822550995
 31
0.0
  0
SPLINE
  5
48B
100
AcDbEntity
  8
0
100
AcDbSpline
 62
7
  6
CONTINUOUS
 70
0
 71
3
 72
8
 73
4
 74
2
 42
0.0000001
 43
0.0000001
 44
0.0000000001
 12
0.0003777406
 22
-0.0000230762
 32
0.0
 13
0.0003777113
 23
-0.0000235432
 33
0.0
 40
0.0
 40
0.0
 40
0.0
 40
0.0
 40
1.0
 40
1.0
 40
1.0
 40
1.0
 10
6.7241663568
 20
3.822550995
 30
0.0
 10
6.7242922704
 20
3.822543303
 30
0.0
 10
6.724418179
 20
3.8225355303
 30
0.0
 10
6.7245440827
 20
3.8225276826
 30
0.0
 11
6.7241663568
 21
3.822550995
 31
0.0
 11
6.7245440827
 21
3.8225276826
 31
0.0
  0
SPLINE
  5
48C
100
AcDbEntity
  8
0
100
AcDbSpline
 62
7
  6
CONTINUOUS
 70
0
 71
3
 72
14
 73
10
 74
8
 42
0.0000001
 43
0.0000001
 44
0.0000000001
 12
-0.0585087442
 22
0.0
 32
0.0
 13
0.0001919028
 23
-0.0588236583
 33
0.0
 40
0.0
 40
0.0
 40
0.0
 40
0.0
 40
0.1783375167
 40
0.3521447044
 40
0.5163301789
 40
0.6656272327
 40
0.7959119152
 40
0.9060417902
 40
1.0
 40
1.0
 40
1.0
 40
1.0
 10
6.7840440827
 20
3.8870419054
 30
0.0
 10
6.7805659813
 20
3.8870419054
 30
0.0
 10
6.7736875615
 20
3.8865489105
 30
0.0
 10
6.7638188175
 20
3.8843765698
 30
0.0
 10
6.754914927
 20
3.8809420832
 30
0.0
 10
6.7474256186
 20
3.8765143566
 30
0.0
 10
6.741711584
 20
3.8714126728
 30
0.0
 10
6.7380194108
 20
3.8659287691
 30
0.0
 10
6.7370380724
 20
3.8619498787
 30
0.0
 10
6.7370440827
 20
3.8601075568
 30
0.0
 11
6.7840440827
 21
3.8870419054
 31
0.0
 11
6.7736369758
 21
3.886289025
 31
0.0
 11
6.7637100791
 21
3.8840821787
 31
0.0
 11
6.7547628927
 21
3.8805852396
 31
0.0
 11
6.7472812998
 21
3.8760764491
 31
0.0
 11
6.7416716633
 21
3.8709151552
 31
0.0
 11
6.7382112984
 21
3.8654795918
 31
0.0
 11
6.7370440827
 21
3.8601075568
 31
0.0
  0
SPLINE
  5
48D
100
AcDbEntity
  8
0
100
AcDbSpline
 62
7
  6
CONTINUOUS
 70
0
 71
3
 72
8
 73
4
 74
2
 42
0.0000001
 43
0.0000001
 44
0.0000000001
 12
0.0003764179
 22
0.0000234627
 32
0.0
 13
0.000376447
 23
0.0000229989
 33
0.0
 40
0.0
 40
0.0
 40
0.0
 40
0.0
 40
1.0
 40
1.0
 40
1.0
 40
1.0
 10
6.6105440827
 20
3.8225276826
 30
0.0
 10
6.6106695554
 20
3.8225355035
 30
0.0
 10
6.6107950328
 20
3.8225432498
 30
0.0
 10
6.6109205151
 20
3.8225509161
 30
0.0
 11
6.6105440827
 21
3.8225276826
 31
0.0
 11
6.6109205151
 21
3.8225509161
 31
0.0
  0
SPLINE
  5
48E
100
AcDbEntity
  8
0
100
AcDbSpline
 62
7
  6
CONTINUOUS
 70
0
 71
3
 72
8
 73
4
 74
2
 42
0.0000001
 43
0.0000001
 44
0.0000000001
 12
0.0011312438
 22
0.0000691129
 32
0.0
 13
0.0011315246
 23
0.0000643378
 33
0.0
 40
0.0
 40
0.0
 40
0.0
 40
0.0
 40
1.0
 40
1.0
 40
1.0
 40
1.0
 10
6.6109205151
 20
3.8225509161
 30
0.0
 10
6.6112975964
 20
3.8225739537
 30
0.0
 10
6.6116747223
 20
3.8225962689
 30
0.0
 10
6.6120518971
 20
3.8226177149
 30
0.0
 11
6.6109205151
 21
3.8225509161
 31
0.0
 11
6.6120518971
 21
3.8226177149
 31
0.0
  0
SPLINE
  5
48F
100
AcDbEntity
  8
0
100
AcDbSpline
 62
7
  6
CONTINUOUS
 70
0
 71
3
 72
8
 73
4
 74
2
 42
0.0000001
 43
0.0000001
 44
0.0000000001
 12
0.0011302308
 22
-0.0000642649
 32
0.0
 13
0.0011299506
 23
-0.0000690287
 33
0.0
 40
0.0
 40
0.0
 40
0.0
 40
0.0
 40
1.0
 40
1.0
 40
1.0
 40
1.0
 10
6.6440362683
 20
3.8226177149
 30
0.0
 10
6.6444130119
 20
3.8225962932
 30
0.0
 10
6.6447897066
 20
3.8225740046
 30
0.0
 10
6.6451663568
 20
3.822550995
 30
0.0
 11
6.6440362683
 21
3.8226177149
 31
0.0
 11
6.6451663568
 21
3.822550995
 31
0.0
  0
SPLINE
  5
490
100
AcDbEntity
  8
0
100
AcDbSpline
 62
7
  6
CONTINUOUS
 70
0
 71
3
 72
8
 73
4
 74
2
 42
0.0000001
 43
0.0000001
 44
0.0000000001
 12
0.0003777406
 22
-0.0000230762
 32
0.0
 13
0.0003777113
 23
-0.0000235432
 33
0.0
 40
0.0
 40
0.0
 40
0.0
 40
0.0
 40
1.0
 40
1.0
 40
1.0
 40
1.0
 10
6.6451663568
 20
3.822550995
 30
0.0
 10
6.6452922704
 20
3.822543303
 30
0.0
 10
6.645418179
 20
3.8225355303
 30
0.0
 10
6.6455440827
 20
3.8225276826
 30
0.0
 11
6.6451663568
 21
3.822550995
 31
0.0
 11
6.6455440827
 21
3.8225276826
 31
0.0
  0
SPLINE
  5
491
100
AcDbEntity
  8
0
100
AcDbSpline
 62
7
  6
CONTINUOUS
 70
0
 71
3
 72
8
 73
4
 74
2
 42
0.0000001
 43
0.0000001
 44
0.0000000001
 12
0.0003764179
 22
0.0000234627
 32
0.0
 13
0.000376447
 23
0.0000229989
 33
0.0
 40
0.0
 40
0.0
 40
0.0
 40
0.0
 40
1.0
 40
1.0
 40
1.0
 40
1.0
 10
6.6895440827
 20
3.8225276826
 30
0.0
 10
6.6896695554
 20
3.8225355035
 30
0.0
 10
6.6897950328
 20
3.8225432498
 30
0.0
 10
6.6899205151
 20
3.8225509161
 30
0.0
 11
6.6895440827
 21
3.8225276826
 31
0.0
 11
6.6899205151
 21
3.8225509161
 31
0.0
  0
SPLINE
  5
492
100
AcDbEntity
  8
0
100
AcDbSpline
 62
7
  6
CONTINUOUS
 70
0
 71
3
 72
8
 73
4
 74
2
 42
0.0000001
 43
0.0000001
 44
0.0000000001
 12
0.0011312438
 22
0.0000691129
 32
0.0
 13
0.0011315246
 23
0.0000643378
 33
0.0
 40
0.0
 40
0.0
 40
0.0
 40
0.0
 40
1.0
 40
1.0
 40
1.0
 40
1.0
 10
6.6899205151
 20
3.8225509161
 30
0.0
 10
6.6902975964
 20
3.8225739537
 30
0.0
 10
6.6906747223
 20
3.8225962689
 30
0.0
 10
6.6910518971
 20
3.8226177149
 30
0.0
 11
6.6899205151
 21
3.8225509161
 31
0.0
 11
6.6910518971
 21
3.8226177149
 31
0.0
  0
SPLINE
  5
493
100
AcDbEntity
  8
0
100
AcDbSpline
 62
7
  6
CONTINUOUS
 70
0
 71
3
 72
14
 73
10
 74
8
 42
0.0000001
 43
0.0000001
 44
0.0000000001
 12
0.0231519577
 22
-0.0714196572
 32
0.0
 13
0.0748894415
 23
0.0
 33
0.0
 40
0.0
 40
0.0
 40
0.0
 40
0.0
 40
0.0360532549
 40
0.1807953166
 40
0.3309580735
 40
0.4879469031
 40
0.6560938513
 40
0.8298651146
 40
1.0
 40
1.0
 40
1.0
 40
1.0
 10
6.9596941544
 20
3.9769992851
 30
0.0
 10
6.9599723888
 20
3.9761409814
 30
0.0
 10
6.9615021151
 20
3.9718807415
 30
0.0
 10
6.9655287857
 20
3.9645672869
 30
0.0
 10
6.9732812906
 20
3.956227901
 30
0.0
 10
6.9831563264
 20
3.949495937
 30
0.0
 10
6.9946905042
 20
3.9446083605
 30
0.0
 10
7.0071983436
 20
3.9417174055
 30
0.0
 10
7.0157969805
 20
3.9410887579
 30
0.0
 10
7.0200440827
 20
3.9410887579
 30
0.0
 11
6.9596941544
 21
3.9769992851
 31
0.0
 11
6.9606091305
 21
3.9744524122
 31
0.0
 11
6.965817248
 21
3.9649459107
 31
0.0
 11
6.9734300053
 21
3.9566688606
 31
0.0
 11
6.9831020552
 21
3.9499850046
 31
0.0
 11
6.9946686312
 21
3.9450066877
 31
0.0
 11
7.0073377457
 21
3.9420320988
 31
0.0
 11
7.0200440827
 21
3.9410887579
 31
0.0
  0
SPLINE
  5
494
100
AcDbEntity
  8
0
100
AcDbSpline
 62
7
  6
CONTINUOUS
 70
0
 71
3
 72
15
 73
11
 74
9
 42
0.0000001
 43
0.0000001
 44
0.0000000001
 12
-0.0000049049
 22
0.0940227363
 32
0.0
 13
-0.0937957792
 23
0.0
 33
0.0
 40
0.0
 40
0.0
 40
0.0
 40
0.0
 40
0.0601516807
 40
0.1839004222
 40
0.3130524393
 40
0.4472319473
 40
0.5847553834
 40
0.7235128271
 40
0.8620318561
 40
1.0
 40
1.0
 40
1.0
 40
1.0
 10
7.0825434347
 20
3.9627776487
 30
0.0
 10
7.0825433364
 20
3.9646628572
 30
0.0
 10
7.0821966701
 20
3.9704270723
 30
0.0
 10
7.0798804644
 20
3.9800224454
 30
0.0
 10
7.0745158425
 20
3.9909724529
 30
0.0
 10
7.0667467726
 20
4.0009179107
 30
0.0
 10
7.0569155496
 20
4.0092999149
 30
0.0
 10
7.0454930431
 20
4.0156258704
 30
0.0
 10
7.033027587
 20
4.0195459023
 30
0.0
 10
7.0243576926
 20
4.0204300954
 30
0.0
 10
7.0200440827
 20
4.0204300954
 30
0.0
 11
7.0825434347
 21
3.9627776487
 31
0.0
 11
7.0822080738
 21
3.9684200332
 31
0.0
 11
7.0795292481
 21
3.9797137876
 31
0.0
 11
7.0742357354
 21
3.9906099171
 31
0.0
 11
7.0665087257
 21
4.0005440709
 31
0.0
 11
7.0566996491
 21
4.0089207802
 31
0.0
 11
7.0453141207
 21
4.015226047
 31
0.0
 11
7.0329182123
 21
4.0191178998
 31
0.0
 11
7.0200440827
 21
4.0204300954
 31
0.0
  0
SPLINE
  5
495
100
AcDbEntity
  8
0
100
AcDbSpline
 62
7
  6
CONTINUOUS
 70
0
 71
3
 72
15
 73
11
 74
9
 42
0.0000001
 43
0.0000001
 44
0.0000000001
 12
0.0000049055
 22
-0.0940227361
 32
0.0
 13
0.0937957789
 23
-0.0
 33
0.0
 40
0.0
 40
0.0
 40
0.0
 40
0.0
 40
0.0601516843
 40
0.1839004307
 40
0.3130524445
 40
0.4472319471
 40
0.5847553764
 40
0.7235128116
 40
0.8620318388
 40
1.0
 40
1.0
 40
1.0
 40
1.0
 10
6.9575447307
 20
4.2432777162
 30
0.0
 10
6.9575448291
 20
4.2413925076
 30
0.0
 10
6.9578914954
 20
4.2356282922
 30
0.0
 10
6.9602077013
 20
4.2260329191
 30
0.0
 10
6.9655723233
 20
4.2150829118
 30
0.0
 10
6.9733413929
 20
4.2051374545
 30
0.0
 10
6.9831726154
 20
4.1967554506
 30
0.0
 10
6.9945951212
 20
4.1904294952
 30
0.0
 10
7.0070605774
 20
4.186509463
 30
0.0
 10
7.0157304723
 20
4.1856252698
 30
0.0
 10
7.0200440827
 20
4.1856252698
 30
0.0
 11
6.9575447307
 21
4.2432777162
 31
0.0
 11
6.9578800917
 21
4.2376353313
 31
0.0
 11
6.9605589177
 21
4.2263415766
 31
0.0
 11
6.9658524304
 21
4.2154454475
 31
0.0
 11
6.9735794399
 21
4.2055112942
 31
0.0
 11
6.9833885159
 21
4.1971345853
 31
0.0
 11
6.9947740435
 21
4.1908293188
 31
0.0
 11
7.0071699516
 21
4.1869374657
 31
0.0
 11
7.0200440827
 21
4.1856252698
 31
0.0
  0
SPLINE
  5
496
100
AcDbEntity
  8
0
100
AcDbSpline
 62
7
  6
CONTINUOUS
 70
0
 71
3
 72
14
 73
10
 74
8
 42
0.0000001
 43
0.0000001
 44
0.0000000001
 12
-0.0231524882
 22
0.0714189833
 32
0.0
 13
-0.0748890409
 23
0.0
 33
0.0
 40
0.0
 40
0.0
 40
0.0
 40
0.0
 40
0.0360176392
 40
0.1807816603
 40
0.3309566475
 40
0.4879352919
 40
0.6560718796
 40
0.8298439101
 40
1.0
 40
1.0
 40
1.0
 40
1.0
 10
7.0803938919
 20
4.2290564548
 30
0.0
 10
7.0801159259
 20
4.2299139025
 30
0.0
 10
7.0785864159
 20
4.2341738233
 30
0.0
 10
7.0745600209
 20
4.2414873748
 30
0.0
 10
7.0668071738
 20
4.2498272065
 30
0.0
 10
7.0569324098
 20
4.2565590591
 30
0.0
 10
7.0453988383
 20
4.2614466047
 30
0.0
 10
7.0328908364
 20
4.2643378485
 30
0.0
 10
7.0242916915
 20
4.2649666073
 30
0.0
 10
7.0200440827
 20
4.2649666073
 30
0.0
 11
7.0803938919
 21
4.2290564548
 31
0.0
 11
7.0794798792
 21
4.2316008169
 31
0.0
 11
7.074271325
 21
4.2411088882
 31
0.0
 11
7.066658036
 21
4.2493866119
 31
0.0
 11
7.0569866937
 21
4.2560700396
 31
0.0
 11
7.045420972
 21
4.2610482084
 31
0.0
 11
7.0327519269
 21
4.2640230397
 31
0.0
 11
7.0200440827
 21
4.2649666073
 31
0.0
  0
SPLINE
  5
497
100
AcDbEntity
  8
0
100
AcDbSpline
 62
7
  6
CONTINUOUS
 70
0
 71
3
 72
22
 73
18
 74
16
 42
0.0000001
 43
0.0000001
 44
0.0000000001
 12
0.123023083
 22
0.0274115869
 32
0.0
 13
0.1230230815
 23
-0.0274115868
 33
0.0
 40
0.0
 40
0.0
 40
0.0
 40
0.0
 40
0.0109547659
 40
0.0441491007
 40
0.0974545799
 40
0.1665077072
 40
0.2506663601
 40
0.3469587189
 40
0.4490112038
 40
0.5510515365
 40
0.6529790271
 40
0.7492604069
 40
0.8334979352
 40
0.9025507195
 40
0.9557918718
 40
0.989022764
 40
1.0
 40
1.0
 40
1.0
 40
1.0
 10
6.9575440827
 20
3.8225276826
 30
0.0
 10
6.9579933124
 20
3.8226277784
 30
0.0
 10
6.9598046463
 20
3.8230272398
 30
0.0
 10
6.9638107049
 20
3.8238737364
 30
0.0
 10
6.9702281144
 20
3.8251122604
 30
0.0
 10
6.9787878346
 20
3.8265384372
 30
0.0
 10
6.989181334
 20
3.8279196593
 30
0.0
 10
7.0010036797
 20
3.8290114429
 30
0.0
 10
7.0136145685
 20
3.8296045948
 30
0.0
 10
7.0264762561
 20
3.8296044081
 30
0.0
 10
7.0390814237
 20
3.8290115263
 30
0.0
 10
7.050901413
 20
3.8279203244
 30
0.0
 10
7.0612977514
 20
3.8265388788
 30
0.0
 10
7.069858057
 20
3.8251125839
 30
0.0
 10
7.0762743192
 20
3.8238743562
 30
0.0
 10
7.0802801742
 20
3.8230279711
 30
0.0
 10
7.0820939316
 20
3.8226279837
 30
0.0
 10
7.0825440827
 20
3.8225276826
 30
0.0
 11
6.9575440827
 21
3.8225276826
 31
0.0
 11
6.9588924245
 21
3.8228250322
 31
0.0
 11
6.9629858896
 21
3.8236898273
 31
0.0
 11
6.969582908
 21
3.8249623483
 31
0.0
 11
6.9781682352
 21
3.8263914836
 31
0.0
 11
6.9886834157
 21
3.8277868945
 31
0.0
 11
7.0007688867
 21
3.8289008266
 31
0.0
 11
7.0136174503
 21
3.8295038233
 31
0.0
 11
7.0264786241
 21
3.8295036374
 31
0.0
 11
7.0393114506
 21
3.8289013769
 31
0.0
 11
7.0513955774
 21
3.8277879394
 31
0.0
 11
7.0619206338
 21
3.8263913771
 31
0.0
 11
7.070505915
 21
3.8249622289
 31
0.0
 11
7.0770949864
 21
3.8236913162
 31
0.0
 11
7.0811929739
 21
3.822825636
 31
0.0
 11
7.0825440827
 21
3.8225276826
 31
0.0
  0
SPLINE
  5
498
100
AcDbEntity
  8
0
100
AcDbSpline
 62
7
  6
CONTINUOUS
 70
0
 71
3
 72
20
 73
16
 74
14
 42
0.0000001
 43
0.0000001
 44
0.0000000001
 12
0.0066574903
 22
0.0456395152
 32
0.0
 13
0.0066428226
 23
-0.0456416433
 33
0.0
 40
0.0
 40
0.0
 40
0.0
 40
0.0
 40
0.0614879759
 40
0.1251159223
 40
0.196795594
 40
0.280062344
 40
0.3700411763
 40
0.4583180924
 40
0.5440740377
 40
0.6321509804
 40
0.7222690079
 40
0.8048415381
 40
0.8750438011
 40
0.9382733158
 40
1.0
 40
1.0
 40
1.0
 40
1.0
 10
6.6122200035
 20
3.8254943727
 30
0.0
 10
6.6123564554
 20
3.8264297999
 30
0.0
 10
6.6128060629
 20
3.828306814
 30
0.0
 10
6.614000766
 20
3.8310978517
 30
0.0
 10
6.615874518
 20
3.8339070381
 30
0.0
 10
6.6185943368
 20
3.8365515017
 30
0.0
 10
6.6221044926
 20
3.8385935901
 30
0.0
 10
6.6260654145
 20
3.83965907
 30
0.0
 10
6.6301361941
 20
3.8396432633
 30
0.0
 10
6.6340879664
 20
3.8385492555
 30
0.0
 10
6.6375739676
 20
3.8364889474
 30
0.0
 10
6.6402554837
 20
3.8338512226
 30
0.0
 10
6.6420990605
 20
3.8310707653
 30
0.0
 10
6.6432831889
 20
3.8283028651
 30
0.0
 10
6.6437322819
 20
3.8264281447
 30
0.0
 10
6.6438689617
 20
3.8254890423
 30
0.0
 11
6.6122200035
 21
3.8254943727
 31
0.0
 11
6.6128732309
 21
3.8282499375
 31
0.0
 11
6.6140267424
 21
3.8309438609
 31
0.0
 11
6.6158591496
 21
3.8336899645
 31
0.0
 11
6.618612541
 21
3.8363594279
 31
0.0
 11
6.6221991351
 21
3.8384355259
 31
0.0
 11
6.6261268785
 21
3.8394858324
 31
0.0
 11
6.6300764899
 21
3.8394706094
 31
0.0
 11
6.6339876063
 21
3.8383941927
 31
0.0
 11
6.6375653418
 21
3.8362901904
 31
0.0
 11
6.6402802538
 21
3.833627065
 31
0.0
 11
6.6420674384
 21
3.8309326028
 31
0.0
 11
6.6432131671
 21
3.8282553089
 31
0.0
 11
6.6438689617
 21
3.8254890423
 31
0.0
  0
SPLINE
  5
499
100
AcDbEntity
  8
0
100
AcDbSpline
 62
7
  6
CONTINUOUS
 70
0
 71
3
 72
14
 73
10
 74
8
 42
0.0000001
 43
0.0000001
 44
0.0000000001
 12
-0.0748857997
 22
0.0
 32
0.0
 13
-0.0231568127
 23
-0.0714135923
 33
0.0
 40
0.0
 40
0.0
 40
0.0
 40
0.0
 40
0.1706254416
 40
0.3446140334
 40
0.5125355547
 40
0.669382954
 40
0.8195233487
 40
0.9643134382
 40
1.0
 40
1.0
 40
1.0
 40
1.0
 10
7.0200440827
 20
4.2649666073
 30
0.0
 10
7.0157849418
 20
4.2649666073
 30
0.0
 10
7.0071689359
 20
4.2643349277
 30
0.0
 10
6.9946513063
 20
4.2614344875
 30
0.0
 10
6.9831244265
 20
4.2565412156
 30
0.0
 10
6.9732615298
 20
4.2498100172
 30
0.0
 10
6.9655152407
 20
4.2414695883
 30
0.0
 10
6.9614966762
 20
4.2341618435
 30
0.0
 10
6.9599707194
 20
4.2299090375
 30
0.0
 10
6.959695257
 20
4.2290595357
 30
0.0
 11
7.0200440827
 21
4.2649666073
 31
0.0
 11
7.007301931
 21
4.2640178716
 31
0.0
 11
6.994619271
 21
4.2610325513
 31
0.0
 11
6.9830719384
 21
4.2560537802
 31
0.0
 11
6.9734124734
 21
4.2493713508
 31
0.0
 11
6.9658050131
 21
4.2410924487
 31
0.0
 11
6.9606002958
 21
4.2315805861
 31
0.0
 11
6.959695257
 21
4.2290595357
 31
0.0
  0
SPLINE
  5
49A
100
AcDbEntity
  8
0
100
AcDbSpline
 62
7
  6
CONTINUOUS
 70
0
 71
3
 72
14
 73
10
 74
8
 42
0.0000001
 43
0.0000001
 44
0.0000000001
 12
0.0748862175
 22
0.0
 32
0.0
 13
0.0231562594
 23
0.0714142922
 33
0.0
 40
0.0
 40
0.0
 40
0.0
 40
0.0
 40
0.1706063576
 40
0.3445953007
 40
0.5125274672
 40
0.6693840497
 40
0.8195110854
 40
0.9642761101
 40
1.0
 40
1.0
 40
1.0
 40
1.0
 10
7.0200440827
 20
3.9410887579
 30
0.0
 10
7.024302771
 20
3.9410887579
 30
0.0
 10
7.0329183525
 20
3.9417203401
 30
0.0
 10
7.0454359023
 20
3.9446205438
 30
0.0
 10
7.0569633824
 20
3.9495138966
 30
0.0
 10
7.0668264855
 20
3.9562452239
 30
0.0
 10
7.0745723153
 20
3.9645851382
 30
0.0
 10
7.0785911227
 20
3.971892729
 30
0.0
 10
7.0801172886
 20
3.9761458207
 30
0.0
 10
7.0803930325
 20
3.9769962195
 30
0.0
 11
7.0200440827
 21
3.9410887579
 31
0.0
 11
7.032784888
 21
3.9420372905
 31
0.0
 11
7.0454676943
 21
3.9450224213
 31
0.0
 11
7.0570158837
 21
3.9500013958
 31
0.0
 11
7.0666759684
 21
3.9566842534
 31
0.0
 11
7.0742828144
 21
3.9649624466
 31
0.0
 11
7.079486985
 21
3.9744725377
 31
0.0
 11
7.0803930325
 21
3.9769962195
 31
0.0
  0
SPLINE
  5
49B
100
AcDbEntity
  8
0
100
AcDbSpline
 62
7
  6
CONTINUOUS
 70
0
 71
3
 72
20
 73
16
 74
14
 42
0.0000001
 43
0.0000001
 44
0.0000000001
 12
0.0066625673
 22
0.0456399975
 32
0.0
 13
0.0066344773
 23
-0.0456441798
 33
0.0
 40
0.0
 40
0.0
 40
0.0
 40
0.0
 40
0.0614497975
 40
0.1250760233
 40
0.1967537566
 40
0.2800182549
 40
0.369994654
 40
0.4582691828
 40
0.5440228091
 40
0.6320973701
 40
0.7222129605
 40
0.8047832578
 40
0.8749836224
 40
0.9382114272
 40
1.0
 40
1.0
 40
1.0
 40
1.0
 10
6.6912202467
 20
3.8254960393
 30
0.0
 10
6.6913567179
 20
3.8264308955
 30
0.0
 10
6.6918062846
 20
3.8283073319
 30
0.0
 10
6.693000766
 20
3.8310978517
 30
0.0
 10
6.694874518
 20
3.8339070381
 30
0.0
 10
6.6975943368
 20
3.8365515017
 30
0.0
 10
6.7011044926
 20
3.8385935901
 30
0.0
 10
6.7050654145
 20
3.83965907
 30
0.0
 10
6.7091361941
 20
3.8396432633
 30
0.0
 10
6.7130879664
 20
3.8385492555
 30
0.0
 10
6.7165739676
 20
3.8364889474
 30
0.0
 10
6.7192554837
 20
3.8338512226
 30
0.0
 10
6.7210990605
 20
3.8310707653
 30
0.0
 10
6.7222835745
 20
3.8283019637
 30
0.0
 10
6.7227327387
 20
3.8264262375
 30
0.0
 10
6.7228693836
 20
3.8254861413
 30
0.0
 11
6.6912202467
 21
3.8254960393
 31
0.0
 11
6.6918732309
 21
3.8282499375
 31
0.0
 11
6.6930267424
 21
3.8309438609
 31
0.0
 11
6.6948591496
 21
3.8336899645
 31
0.0
 11
6.697612541
 21
3.8363594279
 31
0.0
 11
6.7011991351
 21
3.8384355259
 31
0.0
 11
6.7051268785
 21
3.8394858324
 31
0.0
 11
6.7090764899
 21
3.8394706094
 31
0.0
 11
6.7129876063
 21
3.8383941927
 31
0.0
 11
6.7165653418
 21
3.8362901904
 31
0.0
 11
6.7192802538
 21
3.833627065
 31
0.0
 11
6.7210674384
 21
3.8309326028
 31
0.0
 11
6.7222131671
 21
3.8282553089
 31
0.0
 11
6.7228693836
 21
3.8254861413
 31
0.0
  0
SPLINE
  5
49C
100
AcDbEntity
  8
0
100
AcDbSpline
 62
7
  6
CONTINUOUS
 70
0
 71
3
 72
22
 73
18
 74
16
 42
0.0000001
 43
0.0000001
 44
0.0000000001
 12
-0.123023083
 22
-0.0274115869
 32
0.0
 13
-0.1230230815
 23
0.0274115868
 33
0.0
 40
0.0
 40
0.0
 40
0.0
 40
0.0
 40
0.0109547659
 40
0.0441491007
 40
0.0974545799
 40
0.1665077072
 40
0.2506663601
 40
0.3469587189
 40
0.4490112038
 40
0.5510515365
 40
0.6529790271
 40
0.7492604069
 40
0.8334979352
 40
0.9025507195
 40
0.9557918718
 40
0.989022764
 40
1.0
 40
1.0
 40
1.0
 40
1.0
 10
7.0825440827
 20
4.3835276826
 30
0.0
 10
7.082094853
 20
4.3834275868
 30
0.0
 10
7.0802835192
 20
4.3830281254
 30
0.0
 10
7.0762774605
 20
4.3821816288
 30
0.0
 10
7.0698600511
 20
4.3809431047
 30
0.0
 10
7.0613003308
 20
4.379516928
 30
0.0
 10
7.0509068315
 20
4.3781357059
 30
0.0
 10
7.0390844857
 20
4.3770439223
 30
0.0
 10
7.026473597
 20
4.3764507704
 30
0.0
 10
7.0136119093
 20
4.3764509571
 30
0.0
 10
7.0010067418
 20
4.3770438389
 30
0.0
 10
6.9891867525
 20
4.3781350408
 30
0.0
 10
6.978790414
 20
4.3795164864
 30
0.0
 10
6.9702301084
 20
4.3809427813
 30
0.0
 10
6.9638138463
 20
4.382181009
 30
0.0
 10
6.9598079913
 20
4.3830273941
 30
0.0
 10
6.9579942339
 20
4.3834273814
 30
0.0
 10
6.9575440827
 20
4.3835276826
 30
0.0
 11
7.0825440827
 21
4.3835276826
 31
0.0
 11
7.0811957409
 21
4.383230333
 31
0.0
 11
7.0771022758
 21
4.3823655379
 31
0.0
 11
7.0705052574
 21
4.3810930169
 31
0.0
 11
7.0619199303
 21
4.3796638816
 31
0.0
 11
7.0514047497
 21
4.3782684707
 31
0.0
 11
7.0393192788
 21
4.3771545386
 31
0.0
 11
7.0264707152
 21
4.3765515419
 31
0.0
 11
7.0136095414
 21
4.3765517278
 31
0.0
 11
7.0007767149
 21
4.3771539883
 31
0.0
 11
6.988692588
 21
4.3782674258
 31
0.0
 11
6.9781675317
 21
4.3796639881
 31
0.0
 11
6.9695822505
 21
4.3810931362
 31
0.0
 11
6.9629931791
 21
4.382364049
 31
0.0
 11
6.9588951915
 21
4.3832297292
 31
0.0
 11
6.9575440827
 21
4.3835276826
 31
0.0
  0
SPLINE
  5
49D
100
AcDbEntity
  8
0
100
AcDbSpline
 62
7
  6
CONTINUOUS
 70
0
 71
3
 72
14
 73
10
 74
8
 42
0.0000001
 43
0.0000001
 44
0.0000000001
 12
0.0552726611
 22
0.0
 32
0.0
 13
0.0001812943
 23
0.0555701587
 33
0.0
 40
0.0
 40
0.0
 40
0.0
 40
0.0
 40
0.1884354855
 40
0.3694587237
 40
0.5357829787
 40
0.6814324895
 40
0.8038660492
 40
0.906448535
 40
1.0
 40
1.0
 40
1.0
 40
1.0
 10
6.7840440827
 20
3.8400419054
 30
0.0
 10
6.7875158596
 20
3.8400419054
 30
0.0
 10
6.7943261541
 20
3.8403039942
 30
0.0
 10
6.8041376878
 20
3.8415005823
 30
0.0
 10
6.813015325
 20
3.8435165931
 30
0.0
 10
6.8205324471
 20
3.8463699345
 30
0.0
 10
6.826350183
 20
3.8500738263
 30
0.0
 10
6.8301774183
 20
3.854722093
 30
0.0
 10
6.8310384293
 20
3.8583746669
 30
0.0
 10
6.8310440827
 20
3.8601075568
 30
0.0
 11
6.7840440827
 21
3.8400419054
 31
0.0
 11
6.7944511896
 21
3.8404557169
 31
0.0
 11
6.8043780863
 21
3.8417085041
 31
0.0
 11
6.8133252728
 21
3.8438209647
 31
0.0
 11
6.8208068657
 21
3.8467933859
 31
0.0
 11
6.8264165021
 21
3.8505785362
 31
0.0
 11
6.8298768671
 21
3.8550701788
 31
0.0
 11
6.8310440827
 21
3.8601075568
 31
0.0
  0
SPLINE
  5
49E
100
AcDbEntity
  8
0
100
AcDbSpline
 62
7
  6
CONTINUOUS
 70
0
 71
3
 72
14
 73
10
 74
8
 42
0.0000001
 43
0.0000001
 44
0.0000000001
 12
-0.0001812888
 22
0.0555701581
 32
0.0
 13
-0.0552726617
 23
-0.0
 33
0.0
 40
0.0
 40
0.0
 40
0.0
 40
0.0
 40
0.0935509433
 40
0.1961326651
 40
0.3185667378
 40
0.4642167723
 40
0.6305392369
 40
0.8115624988
 40
1.0
 40
1.0
 40
1.0
 40
1.0
 10
6.8310440827
 20
4.3459478084
 30
0.0
 10
6.8310384295
 20
4.3476806886
 30
0.0
 10
6.8301774297
 20
4.3513332383
 30
0.0
 10
6.8263502218
 20
4.3559815072
 30
0.0
 10
6.8205324868
 20
4.359685414
 30
0.0
 10
6.813015379
 20
4.3625387543
 30
0.0
 10
6.8041377664
 20
4.3645547684
 30
0.0
 10
6.794326229
 20
4.3657513669
 30
0.0
 10
6.7875158968
 20
4.3660134598
 30
0.0
 10
6.7840440827
 20
4.3660134598
 30
0.0
 11
6.8310440827
 21
4.3459478084
 31
0.0
 11
6.82987688
 21
4.3509851598
 31
0.0
 11
6.8264165555
 21
4.3554767804
 31
0.0
 11
6.8208069042
 21
4.3592619595
 31
0.0
 11
6.8133252862
 21
4.3622343964
 31
0.0
 11
6.8043781977
 21
4.3643468414
 31
0.0
 11
6.7944513009
 21
4.3655996393
 31
0.0
 11
6.7840440827
 21
4.3660134598
 31
0.0
  0
SPLINE
  5
49F
100
AcDbEntity
  8
0
100
AcDbSpline
 62
7
  6
CONTINUOUS
 70
0
 71
3
 72
15
 73
11
 74
9
 42
0.0000001
 43
0.0000001
 44
0.0000000001
 12
-0.089392465
 22
0.0
 32
0.0
 13
0.0000046752
 23
-0.0896087675
 33
0.0
 40
0.0
 40
0.0
 40
0.0
 40
0.0
 40
0.1444591399
 40
0.287215407
 40
0.4264374615
 40
0.5606177673
 40
0.6894142666
 40
0.8141922042
 40
0.9377084907
 40
1.0
 40
1.0
 40
1.0
 40
1.0
 10
7.0200440827
 20
4.2938784452
 30
0.0
 10
7.0157395632
 20
4.2938784452
 30
0.0
 10
7.0071657352
 20
4.293215413
 30
0.0
 10
6.9947594443
 20
4.2902218294
 30
0.0
 10
6.9833255801
 20
4.2852410983
 30
0.0
 10
6.9734132976
 20
4.2783498118
 30
0.0
 10
6.9655446846
 20
4.2697446068
 30
0.0
 10
6.9601333466
 20
4.259763127
 30
0.0
 10
6.9578735232
 20
4.2506877626
 30
0.0
 10
6.9575446337
 20
4.245138338
 30
0.0
 10
6.9575447307
 20
4.2432777162
 30
0.0
 11
7.0200440827
 21
4.2938784452
 31
0.0
 11
7.0071700263
 21
4.2928691548
 31
0.0
 11
6.9947735684
 21
4.2898393873
 31
0.0
 11
6.983387659
 21
4.2848145375
 31
0.0
 11
6.9735785985
 21
4.2779112515
 31
0.0
 11
6.9658518901
 21
4.2693756086
 31
0.0
 11
6.9605588377
 21
4.2595572615
 31
0.0
 11
6.9578801332
 21
4.248845697
 31
0.0
 11
6.9575447307
 21
4.2432777162
 31
0.0
  0
SPLINE
  5
4A0
100
AcDbEntity
  8
0
100
AcDbSpline
 62
7
  6
CONTINUOUS
 70
0
 71
3
 72
15
 73
11
 74
9
 42
0.0000001
 43
0.0000001
 44
0.0000000001
 12
0.0893924647
 22
0.0
 32
0.0
 13
-0.0000046746
 23
0.0896087672
 33
0.0
 40
0.0
 40
0.0
 40
0.0
 40
0.0
 40
0.1444592328
 40
0.2872155208
 40
0.4264375646
 40
0.5606178559
 40
0.6894143715
 40
0.8141922844
 40
0.9377085133
 40
1.0
 40
1.0
 40
1.0
 40
1.0
 10
7.0200440827
 20
3.91217692
 30
0.0
 10
7.024348605
 20
3.91217692
 30
0.0
 10
7.0329224364
 20
3.9128399529
 30
0.0
 10
7.04532873
 20
3.9158335387
 30
0.0
 10
7.0567625933
 20
3.9208142713
 30
0.0
 10
7.0666748745
 20
3.9277055591
 30
0.0
 10
7.0745434855
 20
3.936310765
 30
0.0
 10
7.0799548208
 20
3.946292244
 30
0.0
 10
7.0822146425
 20
3.9553676054
 30
0.0
 10
7.0825435318
 20
3.9609170276
 30
0.0
 10
7.0825434347
 20
3.9627776487
 30
0.0
 11
7.0200440827
 21
3.91217692
 31
0.0
 11
7.0329181473
 21
3.9131862117
 31
0.0
 11
7.0453146067
 21
3.9162159812
 31
0.0
 11
7.0567005144
 21
3.9212408322
 31
0.0
 11
7.0665095728
 21
3.9281441189
 31
0.0
 11
7.0742362807
 21
3.9366797641
 31
0.0
 11
7.0795293302
 21
3.9464981102
 31
0.0
 11
7.0822080325
 21
3.95720967
 31
0.0
 11
7.0825434347
 21
3.9627776487
 31
0.0
  0
SPLINE
  5
4A1
100
AcDbEntity
  8
0
100
AcDbSpline
 62
7
  6
CONTINUOUS
 70
0
 71
3
 72
14
 73
10
 74
8
 42
0.0000001
 43
0.0000001
 44
0.0000000001
 12
0.0001812888
 22
-0.0555701581
 32
0.0
 13
0.0552726617
 23
0.0
 33
0.0
 40
0.0
 40
0.0
 40
0.0
 40
0.0
 40
0.0935509433
 40
0.1961326651
 40
0.3185667378
 40
0.4642167723
 40
0.6305392369
 40
0.8115624988
 40
1.0
 40
1.0
 40
1.0
 40
1.0
 10
6.7370440827
 20
3.8601075568
 30
0.0
 10
6.737049736
 20
3.8583746766
 30
0.0
 10
6.7379107358
 20
3.8547221269
 30
0.0
 10
6.7417379437
 20
3.8500738579
 30
0.0
 10
6.7475556787
 20
3.8463699512
 30
0.0
 10
6.7550727864
 20
3.8435166109
 30
0.0
 10
6.763950399
 20
3.8415005968
 30
0.0
 10
6.7737619364
 20
3.8403039983
 30
0.0
 10
6.7805722686
 20
3.8400419054
 30
0.0
 10
6.7840440827
 20
3.8400419054
 30
0.0
 11
6.7370440827
 21
3.8601075568
 31
0.0
 11
6.7382112855
 21
3.8550702053
 31
0.0
 11
6.7416716099
 21
3.8505785847
 31
0.0
 11
6.7472812613
 21
3.8467934057
 31
0.0
 11
6.7547628792
 21
3.8438209688
 31
0.0
 11
6.7637099678
 21
3.8417085238
 31
0.0
 11
6.7736368646
 21
3.8404557259
 31
0.0
 11
6.7840440827
 21
3.8400419054
 31
0.0
  0
SPLINE
  5
4A2
100
AcDbEntity
  8
0
100
AcDbSpline
 62
7
  6
CONTINUOUS
 70
0
 71
3
 72
8
 73
4
 74
2
 42
0.0000001
 43
0.0000001
 44
0.0000000001
 12
0.0015411761
 22
-0.0000251477
 32
0.0
 13
0.0015409602
 23
0.0
 33
0.0
 40
0.0
 40
0.0
 40
0.0
 40
0.0
 40
1.0
 40
1.0
 40
1.0
 40
1.0
 10
6.782502972
 20
3.8868495872
 30
0.0
 10
6.7830166974
 20
3.8868412047
 30
0.0
 10
6.7835304293
 20
3.8868370303
 30
0.0
 10
6.7840440827
 20
3.8868370303
 30
0.0
 11
6.782502972
 21
3.8868495872
 31
0.0
 11
6.7840440827
 21
3.8868370303
 31
0.0
  0
SPLINE
  5
4A3
100
AcDbEntity
  8
0
100
AcDbSpline
 62
7
  6
CONTINUOUS
 70
0
 71
3
 72
15
 73
11
 74
9
 42
0.0000001
 43
0.0000001
 44
0.0000000001
 12
-0.0000046863
 22
-0.0896087725
 32
0.0
 13
0.0893924707
 23
-0.0
 33
0.0
 40
0.0
 40
0.0
 40
0.0
 40
0.0
 40
0.0622918604
 40
0.1858084964
 40
0.3105866451
 40
0.439383282
 40
0.5735640827
 40
0.7127864663
 40
0.8555422735
 40
1.0
 40
1.0
 40
1.0
 40
1.0
 10
6.9575447307
 20
3.9627776549
 30
0.0
 10
6.9575446334
 20
3.9609170225
 30
0.0
 10
6.9578735254
 20
3.9553675766
 30
0.0
 10
6.9601333643
 20
3.9462921865
 30
0.0
 10
6.9655447282
 20
3.9363106956
 30
0.0
 10
6.9734133735
 20
3.9277054848
 30
0.0
 10
6.9833256946
 20
3.9208142011
 30
0.0
 10
6.9947595808
 20
3.9158334911
 30
0.0
 10
7.0071658327
 20
3.9128399415
 30
0.0
 10
7.015739605
 20
3.91217692
 30
0.0
 10
7.0200440827
 20
3.91217692
 30
0.0
 11
6.9575447307
 21
3.9627776549
 31
0.0
 11
6.9578801363
 21
3.9572096425
 31
0.0
 11
6.9605588587
 21
3.9464980495
 31
0.0
 11
6.9658519351
 21
3.9366796931
 31
0.0
 11
6.9735786667
 21
3.9281440537
 31
0.0
 11
6.9833877777
 21
3.9212407611
 31
0.0
 11
6.994773726
 21
3.9162159248
 31
0.0
 11
7.0071701507
 21
3.9131861907
 31
0.0
 11
7.0200440827
 21
3.91217692
 31
0.0
  0
SPLINE
  5
4A4
100
AcDbEntity
  8
0
100
AcDbSpline
 62
7
  6
CONTINUOUS
 70
0
 71
3
 72
8
 73
4
 74
2
 42
0.0000001
 43
0.0000001
 44
0.0000000001
 12
-0.001540951
 22
0.0
 32
0.0
 13
-0.001541167
 23
-0.0000251474
 33
0.0
 40
0.0
 40
0.0
 40
0.0
 40
0.0
 40
1.0
 40
1.0
 40
1.0
 40
1.0
 10
6.7840440827
 20
4.3192183349
 30
0.0
 10
6.7835304324
 20
4.3192183349
 30
0.0
 10
6.7830167035
 20
4.3192141606
 30
0.0
 10
6.7825029811
 20
4.3192057781
 30
0.0
 11
6.7840440827
 21
4.3192183349
 31
0.0
 11
6.7825029811
 21
4.3192057781
 31
0.0
  0
SPLINE
  5
4A5
100
AcDbEntity
  8
0
100
AcDbSpline
 62
7
  6
CONTINUOUS
 70
0
 71
3
 72
8
 73
4
 74
2
 42
0.0000001
 43
0.0000001
 44
0.0000000001
 12
0.0016061691
 22
0.0
 32
0.0
 13
0.0016063304
 23
-0.0000273497
 33
0.0
 40
0.0
 40
0.0
 40
0.0
 40
0.0
 40
1.0
 40
1.0
 40
1.0
 40
1.0
 10
6.7840440827
 20
4.3192183349
 30
0.0
 10
6.7845794724
 20
4.3192183349
 30
0.0
 10
6.7851149363
 20
4.3192137943
 30
0.0
 10
6.7856503797
 20
4.3192046777
 30
0.0
 11
6.7840440827
 21
4.3192183349
 31
0.0
 11
6.7856503797
 21
4.3192046777
 31
0.0
  0
SPLINE
  5
4A6
100
AcDbEntity
  8
0
100
AcDbSpline
 62
7
  6
CONTINUOUS
 70
0
 71
3
 72
15
 73
11
 74
9
 42
0.0000001
 43
0.0000001
 44
0.0000000001
 12
0.0000046869
 22
0.0896087729
 32
0.0
 13
-0.089392471
 23
0.0
 33
0.0
 40
0.0
 40
0.0
 40
0.0
 40
0.0
 40
0.0622918855
 40
0.1858085823
 40
0.3105867598
 40
0.4393833825
 40
0.5735641992
 40
0.7127865928
 40
0.8555423752
 40
1.0
 40
1.0
 40
1.0
 40
1.0
 10
7.0825434347
 20
4.24327771
 30
0.0
 10
7.082543532
 20
4.2451383431
 30
0.0
 10
7.0822146398
 20
4.2506877916
 30
0.0
 10
7.0799547991
 20
4.259763185
 30
0.0
 10
7.0745434321
 20
4.2697446769
 30
0.0
 10
7.0666747845
 20
4.2783498868
 30
0.0
 10
7.0567624619
 20
4.2852411691
 30
0.0
 10
7.0453285749
 20
4.2902218773
 30
0.0
 10
7.0329223259
 20
4.2932154245
 30
0.0
 10
7.0243485574
 20
4.2938784452
 30
0.0
 10
7.0200440827
 20
4.2938784452
 30
0.0
 11
7.0825434347
 21
4.24327771
 31
0.0
 11
7.0822080289
 21
4.2488457246
 31
0.0
 11
7.079529304
 21
4.2595573226
 31
0.0
 11
7.0742362245
 21
4.2693756803
 31
0.0
 11
7.0665094921
 21
4.2779113173
 31
0.0
 11
7.0567003787
 21
4.2848146091
 31
0.0
 11
7.0453144287
 21
4.289839444
 31
0.0
 11
7.0329180058
 21
4.2928691759
 31
0.0
 11
7.0200440827
 21
4.2938784452
 31
0.0
  0
SPLINE
  5
4A7
100
AcDbEntity
  8
0
100
AcDbSpline
 62
7
  6
CONTINUOUS
 70
0
 71
3
 72
8
 73
4
 74
2
 42
0.0000001
 43
0.0000001
 44
0.0000000001
 12
-0.0016063205
 22
-0.0000273493
 32
0.0
 13
-0.0016061592
 23
0.0
 33
0.0
 40
0.0
 40
0.0
 40
0.0
 40
0.0
 40
1.0
 40
1.0
 40
1.0
 40
1.0
 10
6.7856503698
 20
3.8868506873
 30
0.0
 10
6.7851149296
 20
3.8868415708
 30
0.0
 10
6.7845794691
 20
3.8868370303
 30
0.0
 10
6.7840440827
 20
3.8868370303
 30
0.0
 11
6.7856503698
 21
3.8868506873
 31
0.0
 11
6.7840440827
 21
3.8868370303
 31
0.0
  0
SPLINE
  5
4A8
100
AcDbEntity
  8
0
100
AcDbSpline
 62
7
  6
CONTINUOUS
 70
0
 71
3
 72
14
 73
10
 74
8
 42
0.0000001
 43
0.0000001
 44
0.0000000001
 12
-0.0552726611
 22
0.0
 32
0.0
 13
-0.0001812943
 23
-0.0555701587
 33
0.0
 40
0.0
 40
0.0
 40
0.0
 40
0.0
 40
0.1884354855
 40
0.3694587237
 40
0.5357829787
 40
0.6814324895
 40
0.8038660492
 40
0.906448535
 40
1.0
 40
1.0
 40
1.0
 40
1.0
 10
6.7840440827
 20
4.3660134598
 30
0.0
 10
6.7805723058
 20
4.3660134598
 30
0.0
 10
6.7737620114
 20
4.365751371
 30
0.0
 10
6.7639504776
 20
4.3645547829
 30
0.0
 10
6.7550728404
 20
4.3625387721
 30
0.0
 10
6.7475557184
 20
4.3596854306
 30
0.0
 10
6.7417379825
 20
4.3559815389
 30
0.0
 10
6.7379107471
 20
4.3513332721
 30
0.0
 10
6.7370497362
 20
4.3476806983
 30
0.0
 10
6.7370440827
 20
4.3459478084
 30
0.0
 11
6.7840440827
 21
4.3660134598
 31
0.0
 11
6.7736369758
 21
4.3655996483
 31
0.0
 11
6.7637100791
 21
4.3643468611
 31
0.0
 11
6.7547628927
 21
4.3622344005
 31
0.0
 11
6.7472812998
 21
4.3592619793
 31
0.0
 11
6.7416716633
 21
4.355476829
 31
0.0
 11
6.7382112984
 21
4.3509851864
 31
0.0
 11
6.7370440827
 21
4.3459478084
 31
0.0
  0
SPLINE
  5
4A9
100
AcDbEntity
  8
0
100
AcDbSpline
 62
7
  6
CONTINUOUS
 70
0
 71
3
 72
14
 73
10
 74
8
 42
0.0000001
 43
0.0000001
 44
0.0000000001
 12
-0.1046826132
 22
0.2029792199
 32
0.0
 13
0.1046826132
 23
0.2029792199
 33
0.0
 40
0.0
 40
0.0
 40
0.0
 40
0.0
 40
0.1530438599
 40
0.2956043717
 40
0.4324922324
 40
0.5675957362
 40
0.7044780411
 40
0.8469906498
 40
1.0
 40
1.0
 40
1.0
 40
1.0
 10
4.9181077486
 20
3.6149252101
 30
0.0
 10
4.9127674049
 20
3.6252801179
 30
0.0
 10
4.9033624115
 20
3.6457798462
 30
0.0
 10
4.8933207934
 20
3.6772353705
 30
0.0
 10
4.8881770833
 20
3.7085030393
 30
0.0
 10
4.8881787764
 20
3.7397720635
 30
0.0
 10
4.8933248568
 20
3.7710351685
 30
0.0
 10
4.9033660393
 20
3.8024836835
 30
0.0
 10
4.9127686091
 20
3.8229775822
 30
0.0
 10
4.9181077486
 20
3.8333301551
 30
0.0
 11
4.9181077486
 21
3.6149252101
 31
0.0
 11
4.9037101499
 21
3.646774851
 31
0.0
 11
4.8939752777
 21
3.6778439022
 31
0.0
 11
4.8890100439
 21
3.708710016
 31
0.0
 11
4.8890116746
 21
3.7395654241
 31
0.0
 11
4.8939796636
 21
3.7704298094
 31
0.0
 11
4.903712986
 21
3.8014878815
 31
0.0
 11
4.9181077486
 21
3.8333301551
 31
0.0
  0
SPLINE
  5
4AA
100
AcDbEntity
  8
0
100
AcDbSpline
 62
7
  6
CONTINUOUS
 70
0
 71
3
 72
15
 73
11
 74
9
 42
0.0000001
 43
0.0000001
 44
0.0000000001
 12
0.1643031241
 22
0.1839340856
 32
0.0
 13
-0.1643031241
 23
0.1839340856
 33
0.0
 40
0.0
 40
0.0
 40
0.0
 40
0.0
 40
0.1498215377
 40
0.2783315905
 40
0.3927788038
 40
0.5000592815
 40
0.6073304266
 40
0.7217569014
 40
0.8502022558
 40
1.0
 40
1.0
 40
1.0
 40
1.0
 10
5.6295440827
 20
3.6149252101
 30
0.0
 10
5.637749465
 20
3.6241109726
 30
0.0
 10
5.6521812444
 20
3.6419539312
 30
0.0
 10
5.6687789732
 20
3.6698123453
 30
0.0
 10
5.6787640801
 20
3.6970394193
 30
0.0
 10
5.6821251033
 20
3.724141775
 30
0.0
 10
5.6787573296
 20
3.7512414388
 30
0.0
 10
5.6687702123
 20
3.7784592154
 30
0.0
 10
5.6521754827
 20
3.8063086758
 30
0.0
 10
5.6377481618
 20
3.8241458514
 30
0.0
 10
5.6295440827
 20
3.8333301551
 30
0.0
 11
5.6295440827
 21
3.6149252101
 31
0.0
 11
5.6525125565
 21
3.6438701231
 31
0.0
 11
5.6684387413
 21
3.6712728381
 31
0.0
 11
5.6778877388
 21
3.6978706195
 31
0.0
 11
5.6810280477
 21
3.7241423834
 31
0.0
 11
5.6778814595
 21
3.7504110779
 31
0.0
 11
5.6684294274
 21
3.7770023527
 31
0.0
 11
5.6525092198
 21
3.8043900857
 31
0.0
 11
5.6295440827
 21
3.8333301551
 31
0.0
  0
SPLINE
  5
4AB
100
AcDbEntity
  8
0
100
AcDbSpline
 62
7
  6
CONTINUOUS
 70
0
 71
3
 72
14
 73
10
 74
8
 42
0.0000001
 43
0.0000001
 44
0.0000000001
 12
-0.1103507163
 22
0.4279393037
 32
0.0
 13
0.1103507163
 23
0.4279393037
 33
0.0
 40
0.0
 40
0.0
 40
0.0
 40
0.0
 40
0.1477720816
 40
0.2900907235
 40
0.430227046
 40
0.569863817
 40
0.7099928421
 40
0.8522618536
 40
1.0
 40
1.0
 40
1.0
 40
1.0
 10
4.9181077486
 20
3.8846227376
 30
0.0
 10
4.9126721636
 20
3.9057018982
 30
0.0
 10
4.9031568114
 20
3.9473959371
 30
0.0
 10
4.8932297281
 20
4.0100445761
 30
0.0
 10
4.8881751852
 20
4.072084011
 30
0.0
 10
4.8881768439
 20
4.134010472
 30
0.0
 10
4.8932337619
 20
4.1960412784
 30
0.0
 10
4.9031605373
 20
4.2586763538
 30
0.0
 10
4.9126734118
 20
4.3003583078
 30
0.0
 10
4.9181077486
 20
4.3214326276
 30
0.0
 11
4.9181077486
 21
3.8846227376
 31
0.0
 11
4.9037101499
 21
3.9483220194
 31
0.0
 11
4.8939752777
 21
4.0104601218
 31
0.0
 11
4.8890100439
 21
4.0721923495
 31
0.0
 11
4.8890116746
 21
4.1339031657
 31
0.0
 11
4.8939796636
 21
4.1956319363
 31
0.0
 11
4.903712986
 21
4.2577480803
 31
0.0
 11
4.9181077486
 21
4.3214326276
 31
0.0
  0
SPLINE
  5
4AC
100
AcDbEntity
  8
0
100
AcDbSpline
 62
7
  6
CONTINUOUS
 70
0
 71
3
 72
15
 73
11
 74
9
 42
0.0000001
 43
0.0000001
 44
0.0000000001
 12
0.1843202379
 22
0.4126856942
 32
0.0
 13
-0.1843202379
 23
0.4126856942
 33
0.0
 40
0.0
 40
0.0
 40
0.0
 40
0.0
 40
0.1377942686
 40
0.2640673782
 40
0.3836049145
 40
0.5000649493
 40
0.6165122554
 40
0.736022619
 40
0.8622283762
 40
1.0
 40
1.0
 40
1.0
 40
1.0
 10
5.6295440827
 20
3.8846227376
 30
0.0
 10
5.6380101735
 20
3.9035779787
 30
0.0
 10
5.6528417163
 20
3.9405589176
 30
0.0
 10
5.6691788315
 20
3.9960951987
 30
0.0
 10
5.678872001
 20
4.049925938
 30
0.0
 10
5.6820936575
 20
4.1030552409
 30
0.0
 10
5.6788654674
 20
4.1561799915
 30
0.0
 10
5.6691699458
 20
4.2099937741
 30
0.0
 10
5.6528354963
 20
4.2655122693
 30
0.0
 10
5.6380087822
 20
4.3024805015
 30
0.0
 10
5.6295440827
 20
4.3214326276
 30
0.0
 11
5.6295440827
 21
3.8846227376
 31
0.0
 11
5.6525125565
 21
3.9425125636
 31
0.0
 11
5.6684387413
 21
3.9973179937
 31
0.0
 11
5.6778877388
 21
4.0505135563
 31
0.0
 11
5.6810280477
 21
4.1030570843
 31
0.0
 11
5.6778814595
 21
4.1555944732
 31
0.0
 11
5.6684294274
 21
4.2087770229
 31
0.0
 11
5.6525092198
 21
4.2635524889
 31
0.0
 11
5.6295440827
 21
4.3214326276
 31
0.0
  0
SPLINE
  5
4AD
100
AcDbEntity
  8
0
100
AcDbSpline
 62
7
  6
CONTINUOUS
 70
0
 71
3
 72
14
 73
10
 74
8
 42
0.0000001
 43
0.0000001
 44
0.0000000001
 12
-0.1046826132
 22
0.2029792199
 32
0.0
 13
0.1046826132
 23
0.2029792199
 33
0.0
 40
0.0
 40
0.0
 40
0.0
 40
0.0
 40
0.1530438599
 40
0.2956043717
 40
0.4324922324
 40
0.5675957362
 40
0.7044780411
 40
0.8469906498
 40
1.0
 40
1.0
 40
1.0
 40
1.0
 10
4.9181077486
 20
4.3727252101
 30
0.0
 10
4.9127674049
 20
4.3830801179
 30
0.0
 10
4.9033624115
 20
4.4035798462
 30
0.0
 10
4.8933207934
 20
4.4350353705
 30
0.0
 10
4.8881770833
 20
4.4663030393
 30
0.0
 10
4.8881787764
 20
4.4975720635
 30
0.0
 10
4.8933248568
 20
4.5288351685
 30
0.0
 10
4.9033660393
 20
4.5602836835
 30
0.0
 10
4.9127686091
 20
4.5807775822
 30
0.0
 10
4.9181077486
 20
4.5911301551
 30
0.0
 11
4.9181077486
 21
4.3727252101
 31
0.0
 11
4.9037101499
 21
4.404574851
 31
0.0
 11
4.8939752777
 21
4.4356439022
 31
0.0
 11
4.8890100439
 21
4.466510016
 31
0.0
 11
4.8890116746
 21
4.4973654241
 31
0.0
 11
4.8939796636
 21
4.5282298094
 31
0.0
 11
4.903712986
 21
4.5592878815
 31
0.0
 11
4.9181077486
 21
4.5911301551
 31
0.0
  0
SPLINE
  5
4AE
100
AcDbEntity
  8
0
100
AcDbSpline
 62
7
  6
CONTINUOUS
 70
0
 71
3
 72
15
 73
11
 74
9
 42
0.0000001
 43
0.0000001
 44
0.0000000001
 12
0.1643031241
 22
0.1839340856
 32
0.0
 13
-0.1643031241
 23
0.1839340856
 33
0.0
 40
0.0
 40
0.0
 40
0.0
 40
0.0
 40
0.1498215377
 40
0.2783315905
 40
0.3927788038
 40
0.5000592815
 40
0.6073304266
 40
0.7217569014
 40
0.8502022558
 40
1.0
 40
1.0
 40
1.0
 40
1.0
 10
5.6295440827
 20
4.3727252101
 30
0.0
 10
5.637749465
 20
4.3819109726
 30
0.0
 10
5.6521812444
 20
4.3997539312
 30
0.0
 10
5.6687789732
 20
4.4276123453
 30
0.0
 10
5.6787640801
 20
4.4548394193
 30
0.0
 10
5.6821251033
 20
4.481941775
 30
0.0
 10
5.6787573296
 20
4.5090414388
 30
0.0
 10
5.6687702123
 20
4.5362592154
 30
0.0
 10
5.6521754827
 20
4.5641086758
 30
0.0
 10
5.6377481618
 20
4.5819458514
 30
0.0
 10
5.6295440827
 20
4.5911301551
 30
0.0
 11
5.6295440827
 21
4.3727252101
 31
0.0
 11
5.6525125565
 21
4.4016701231
 31
0.0
 11
5.6684387413
 21
4.4290728381
 31
0.0
 11
5.6778877388
 21
4.4556706195
 31
0.0
 11
5.6810280477
 21
4.4819423834
 31
0.0
 11
5.6778814595
 21
4.5082110779
 31
0.0
 11
5.6684294274
 21
4.5348023527
 31
0.0
 11
5.6525092198
 21
4.5621900857
 31
0.0
 11
5.6295440827
 21
4.5911301551
 31
0.0
  0
ENDSEC
  0
SECTION
  2
OBJECTS
  0
DICTIONARY
  5
C
100
AcDbDictionary
280
0
281
1
  3
ACAD_GROUP
350
D
  3
ACAD_MLINESTYLE
350
17
  3
ACAD_LAYOUT
350
1A
  3
ACAD_PLOTSETTINGS
350
19
  3
ACAD_PLOTSTYLENAME
350
E
  0
DICTIONARY
  5
D
102
{ACAD_REACTORS
330
C
102
}
100
AcDbDictionary
280
0
281
1
  0
ACDBDICTIONARYWDFLT
  5
E
102
{ACAD_REACTORS
330
C
102
}
100
AcDbDictionary
281
1
  3
Normal
350
F
100
AcDbDictionaryWithDefault
340
F
  0
DICTIONARY
  5
17
102
{ACAD_REACTORS
330
C
102
}
100
AcDbDictionary
280
0
281
1
  3
Standard
350
18
  0
DICTIONARY
  5
19
102
{ACAD_REACTORS
330
C
102
}
100
AcDbDictionary
281
1
  0
DICTIONARY
  5
1A
102
{ACAD_REACTORS
330
C
102
}
100
AcDbDictionary
281
1
  3
Layout1
350
1E
  3
Model
350
22
  0
ACDBPLACEHOLDER
  5
F
102
{ACAD_REACTORS
330
E
102
}
  0
MLINESTYLE
  5
18
102
{ACAD_REACTORS
330
17
102
}
100
AcDbMlineStyle
  2
STANDARD
 70
0
  3

 62
256
 51
90.0
 52
90.0
 71
2
 49
0.5
 62
256
  6
BYLAYER
 49
-0.5
 62
256
  6
BYLAYER
  0
LAYOUT
  5
1E
102
{ACAD_REACTORS
330
1A
102
}
100
AcDbPlotSettings
  1

  2

  4

  6

 40
0.0
 41
0.0
 42
0.0
 43
0.0
 44
0.0
 45
0.0
 46
0.0
 47
0.0
 48
0.0
 49
0.0
140
0.0
141
0.0
142
1.0
143
1.0
 70
0
 72
0
 73
0
 74
0
  7

 75
0
147
1.0
148
0.0
149
0.0
100
AcDbLayout
  1
Layout1
 70
0
 71
0
 10
0.0
 20
0.0
 11
0.0
 21
0.0
 12
0.0
 22
0.0
 32
0.0
 14
0.0
 24
0.0
 34
0.0
 15
0.0
 25
0.0
 35
0.0
146
0.0
 13
0.0
 23
0.0
 33
0.0
 16
0.0
 26
0.0
 36
0.0
 17
0.0
 27
0.0
 37
0.0
 76
0
330
1B
331
0
345
0
346
0
  0
LAYOUT
  5
22
102
{ACAD_REACTORS
330
1A
102
}
100
AcDbPlotSettings
  1

  2

  4

  6

 40
0.0
 41
0.0
 42
0.0
 43
0.0
 44
0.0
 45
0.0
 46
0.0
 47
0.0
 48
0.0
 49
0.0
140
0.0
141
0.0
142
1.0
143
1.0
 70
0
 72
0
 73
0
 74
0
  7

 75
0
147
1.0
148
0.0
149
0.0
100
AcDbLayout
  1
Model
 70
0
 71
0
 10
0.0
 20
0.0
 11
0.0
 21
0.0
 12
0.0
 22
0.0
 32
0.0
 14
0.0
 24
0.0
 34
0.0
 15
0.0
 25
0.0
 35
0.0
146
0.0
 13
0.0
 23
0.0
 33
0.0
 16
0.0
 26
0.0
 36
0.0
 17
0.0
 27
0.0
 37
0.0
 76
0
330
1F
331
0
345
0
346
0
  0
ENDSEC
  0
EOF
