999
DXF file: QPAB-LAN.dxf
999
Pro/ENGINEER 2006240 by Parametric Technology Corporation
  0
SECTION
  2
HEADER
  9
$ACADVER
  1
AC1015
  9
$DWGCODEPAGE
  3
ANSI_1252
  9
$EXTMAX
 10
11.6929133858
 20
8.2677165354
 30
0.0
  9
$EXTMIN
 10
0.0
 20
0.0
 30
0.0
  9
$LIMMIN
 10
0.0
 20
0.0
  9
$LIMMAX
 10
11.6929133858
 20
8.2677165354
  9
$VIEWCTR
 10
5.8464566929
 20
4.1338582677
  9
$VIEWSIZE
 40
8.2677165354
  9
$CLAYER
  8
0
  9
$LTSCALE
 40
0.6431102362
  9
$CELTYPE
  6
BYLAYER
  9
$DIMSCALE
 40
1.0
  9
$DIMASZ
 40
0.1875
  9
$DIMEXO
 40
0.0730807087
  9
$DIMDLI
 40
0.4443307087
  9
$DIMEXE
 40
0.2104724409
  9
$DIMCEN
 40
0.1052362205
  9
$DIMLFAC
 40
1.0
  9
$DIMBLK
  1
_CLOSED
  9
$DIMTXT
 40
0.15625
  9
$DIMTOL
 70
0
  9
$DIMLIM
 70
0
  9
$DIMTFAC
 40
1.0
  9
$PDMODE
 70
3
  9
$PDSIZE
 40
0.3125
  9
$HANDSEED
  5
493
  9
$MEASUREMENT
 70
0
  9
$INSUNITS
 70
1
  0
ENDSEC
  0
SECTION
  2
CLASSES
  0
CLASS
  1
ACDBDICTIONARYWDFLT
  2
AcDbDictionaryWithDefault
  3
AutoCAD 2000
 90
0
280
0
281
0
  0
CLASS
  1
ACDBPLACEHOLDER
  2
AcDbPlaceHolder
  3
AutoCAD 2000
 90
0
280
0
281
0
  0
CLASS
  1
LAYOUT
  2
AcDbLayout
  3
AutoCAD 2000
 90
0
280
0
281
0
  0
ENDSEC
  0
SECTION
  2
TABLES
  0
TABLE
  2
VPORT
  5
8
100
AcDbSymbolTable
 70
2
  0
VPORT
  5
1F4
100
AcDbSymbolTableRecord
100
AcDbViewportTableRecord
  2
*ACTIVE
 70
0
 10
0.0
 20
0.0
 11
1.0
 21
1.0
 12
5.8464566929
 22
4.1338582677
 13
0.0
 23
0.0
 14
1.0
 24
1.0
 15
0.0
 25
0.0
 16
0.0
 26
0.0
 36
1.0
 17
0.0
 27
0.0
 37
0.0
 40
8.2677165354
 41
1.4142857143
 42
50.0
 43
0.0
 44
0.0
 50
0.0
 51
0.0
 71
0
 72
100
 73
1
 74
1
 75
0
 76
0
 77
0
 78
0
  0
ENDTAB
  0
TABLE
  2
LTYPE
  5
5
100
AcDbSymbolTable
 70
6
  0
LTYPE
  5
14
100
AcDbSymbolTableRecord
100
AcDbLinetypeTableRecord
  2
BYBLOCK
 70
0
  3

 72
65
 73
0
 40
0.0
  0
LTYPE
  5
15
100
AcDbSymbolTableRecord
100
AcDbLinetypeTableRecord
  2
BYLAYER
 70
0
  3

 72
65
 73
0
 40
0.0
  0
LTYPE
  5
16
100
AcDbSymbolTableRecord
100
AcDbLinetypeTableRecord
  2
CONTINUOUS
 70
64
  3
Solid line
 72
65
 73
0
 40
0.0
  0
LTYPE
  5
1F5
100
AcDbSymbolTableRecord
100
AcDbLinetypeTableRecord
  2
CENTER
 70
64
  3
____ _ ____ _ ____ _ ____ _ ____ _ ____ _ ____
 72
65
 73
4
 40
0.6
 49
0.375
 74
0
 49
-0.075
 74
0
 49
0.075
 74
0
 49
-0.075
 74
0
  0
LTYPE
  5
1F6
100
AcDbSymbolTableRecord
100
AcDbLinetypeTableRecord
  2
HIDDEN
 70
64
  3
- - - - - - - - - - - - - - - - - - - -
 72
65
 73
2
 40
0.2
 49
0.1
 74
0
 49
-0.1
 74
0
  0
LTYPE
  5
1F7
100
AcDbSymbolTableRecord
100
AcDbLinetypeTableRecord
  2
PHANTOM
 70
64
  3
_____ _ _ _____ _ _ _____ _ _ _____
 72
65
 73
6
 40
0.8
 49
0.45
 74
0
 49
-0.05
 74
0
 49
0.1
 74
0
 49
-0.05
 74
0
 49
0.1
 74
0
 49
-0.05
 74
0
  0
LTYPE
  5
1F8
100
AcDbSymbolTableRecord
100
AcDbLinetypeTableRecord
  2
DOT
 70
64
  3
. . . . . . . . . . . . . . . . . . . .
 72
65
 73
2
 40
0.2
 49
0.1
 74
0
 49
-0.1
 74
0
  0
LTYPE
  5
1F9
100
AcDbSymbolTableRecord
100
AcDbLinetypeTableRecord
  2
DASHED
 70
64
  3
- - - - - - - - - - - - - - - - - - - -
 72
65
 73
2
 40
0.2
 49
0.1
 74
0
 49
-0.1
 74
0
  0
ENDTAB
  0
TABLE
  2
LAYER
  5
2
100
AcDbSymbolTable
 70
36
  0
LAYER
  5
10
100
AcDbSymbolTableRecord
100
AcDbLayerTableRecord
  2
0
 70
0
 62
7
  6
CONTINUOUS
370
-3
390
F
  0
LAYER
  5
1FA
100
AcDbSymbolTableRecord
100
AcDbLayerTableRecord
  2
DEFAULT_1
 70
0
 62
7
  6
CENTER
370
-3
390
F
  0
LAYER
  5
1FB
100
AcDbSymbolTableRecord
100
AcDbLayerTableRecord
  2
DEFAULT_2
 70
0
 62
8
  6
HIDDEN
370
-3
390
F
  0
LAYER
  5
1FC
100
AcDbSymbolTableRecord
100
AcDbLayerTableRecord
  2
DEFAULT_3
 70
0
 62
7
  6
PHANTOM
370
-3
390
F
  0
LAYER
  5
1FD
100
AcDbSymbolTableRecord
100
AcDbLayerTableRecord
  2
_BLACK_HOLE
 70
0
 62
7
  6
CONTINUOUS
370
-3
390
F
  0
LAYER
  5
1FE
100
AcDbSymbolTableRecord
100
AcDbLayerTableRecord
  2
01_ALL_DTM_PLN
 70
0
 62
7
  6
CONTINUOUS
370
-3
390
F
  0
LAYER
  5
1FF
100
AcDbSymbolTableRecord
100
AcDbLayerTableRecord
  2
01__ASM_ALL_DTM_PLN
 70
0
 62
7
  6
CONTINUOUS
370
-3
390
F
  0
LAYER
  5
200
100
AcDbSymbolTableRecord
100
AcDbLayerTableRecord
  2
01__ASM_DEF_DTM_PLN
 70
0
 62
7
  6
CONTINUOUS
370
-3
390
F
  0
LAYER
  5
201
100
AcDbSymbolTableRecord
100
AcDbLayerTableRecord
  2
01___PRT_ALL_DTM_PLN
 70
0
 62
7
  6
CONTINUOUS
370
-3
390
F
  0
LAYER
  5
202
100
AcDbSymbolTableRecord
100
AcDbLayerTableRecord
  2
01___PRT_DEF_DTM_PLN
 70
0
 62
7
  6
CONTINUOUS
370
-3
390
F
  0
LAYER
  5
203
100
AcDbSymbolTableRecord
100
AcDbLayerTableRecord
  2
02_ALL_AXES
 70
0
 62
7
  6
CONTINUOUS
370
-3
390
F
  0
LAYER
  5
204
100
AcDbSymbolTableRecord
100
AcDbLayerTableRecord
  2
02__ASM_ALL_AXES
 70
0
 62
7
  6
CONTINUOUS
370
-3
390
F
  0
LAYER
  5
205
100
AcDbSymbolTableRecord
100
AcDbLayerTableRecord
  2
02___PRT_ALL_AXES
 70
0
 62
7
  6
CONTINUOUS
370
-3
390
F
  0
LAYER
  5
206
100
AcDbSymbolTableRecord
100
AcDbLayerTableRecord
  2
03_ALL_CURVES
 70
0
 62
7
  6
CONTINUOUS
370
-3
390
F
  0
LAYER
  5
207
100
AcDbSymbolTableRecord
100
AcDbLayerTableRecord
  2
03__ASM_ALL_CURVES
 70
0
 62
7
  6
CONTINUOUS
370
-3
390
F
  0
LAYER
  5
208
100
AcDbSymbolTableRecord
100
AcDbLayerTableRecord
  2
03___PRT_ALL_CURVES
 70
0
 62
7
  6
CONTINUOUS
370
-3
390
F
  0
LAYER
  5
209
100
AcDbSymbolTableRecord
100
AcDbLayerTableRecord
  2
04_ALL_DTM_PNT
 70
0
 62
7
  6
CONTINUOUS
370
-3
390
F
  0
LAYER
  5
20A
100
AcDbSymbolTableRecord
100
AcDbLayerTableRecord
  2
04__ASM_ALL_DTM_PNT
 70
0
 62
7
  6
CONTINUOUS
370
-3
390
F
  0
LAYER
  5
20B
100
AcDbSymbolTableRecord
100
AcDbLayerTableRecord
  2
04___PRT_ALL_DTM_PNT
 70
0
 62
7
  6
CONTINUOUS
370
-3
390
F
  0
LAYER
  5
20C
100
AcDbSymbolTableRecord
100
AcDbLayerTableRecord
  2
05_ALL_DTM_CSYS
 70
0
 62
7
  6
CONTINUOUS
370
-3
390
F
  0
LAYER
  5
20D
100
AcDbSymbolTableRecord
100
AcDbLayerTableRecord
  2
05__ASM_ALL_DTM_CSYS
 70
0
 62
7
  6
CONTINUOUS
370
-3
390
F
  0
LAYER
  5
20E
100
AcDbSymbolTableRecord
100
AcDbLayerTableRecord
  2
05__ASM_DEF_DTM_CSYS
 70
0
 62
7
  6
CONTINUOUS
370
-3
390
F
  0
LAYER
  5
20F
100
AcDbSymbolTableRecord
100
AcDbLayerTableRecord
  2
05___PRT_ALL_DTM_CSYS
 70
0
 62
7
  6
CONTINUOUS
370
-3
390
F
  0
LAYER
  5
210
100
AcDbSymbolTableRecord
100
AcDbLayerTableRecord
  2
05___PRT_DEF_DTM_CSYS
 70
0
 62
7
  6
CONTINUOUS
370
-3
390
F
  0
LAYER
  5
211
100
AcDbSymbolTableRecord
100
AcDbLayerTableRecord
  2
06_ALL_SURFS
 70
0
 62
7
  6
CONTINUOUS
370
-3
390
F
  0
LAYER
  5
212
100
AcDbSymbolTableRecord
100
AcDbLayerTableRecord
  2
06__ASM_ALL_SURFS
 70
0
 62
7
  6
CONTINUOUS
370
-3
390
F
  0
LAYER
  5
213
100
AcDbSymbolTableRecord
100
AcDbLayerTableRecord
  2
06___PRT_ALL_SURFS
 70
0
 62
7
  6
CONTINUOUS
370
-3
390
F
  0
LAYER
  5
214
100
AcDbSymbolTableRecord
100
AcDbLayerTableRecord
  2
07__ASM_ALL_SKELETONS
 70
0
 62
7
  6
CONTINUOUS
370
-3
390
F
  0
LAYER
  5
215
100
AcDbSymbolTableRecord
100
AcDbLayerTableRecord
  2
126-001_HEX_FEATURES
 70
0
 62
7
  6
CONTINUOUS
370
-3
390
F
  0
LAYER
  5
216
100
AcDbSymbolTableRecord
100
AcDbLayerTableRecord
  2
126-001_REF_GEOMETRY
 70
0
 62
7
  6
CONTINUOUS
370
-3
390
F
  0
LAYER
  5
217
100
AcDbSymbolTableRecord
100
AcDbLayerTableRecord
  2
126-004_HEX_FEATURES
 70
0
 62
7
  6
CONTINUOUS
370
-3
390
F
  0
LAYER
  5
218
100
AcDbSymbolTableRecord
100
AcDbLayerTableRecord
  2
126-004_REF_GEOMETRY
 70
0
 62
7
  6
CONTINUOUS
370
-3
390
F
  0
LAYER
  5
219
100
AcDbSymbolTableRecord
100
AcDbLayerTableRecord
  2
126-400_HEX_FEATURES
 70
0
 62
7
  6
CONTINUOUS
370
-3
390
F
  0
LAYER
  5
21A
100
AcDbSymbolTableRecord
100
AcDbLayerTableRecord
  2
126-400_REF_GEOMETRY
 70
0
 62
7
  6
CONTINUOUS
370
-3
390
F
  0
LAYER
  5
21B
100
AcDbSymbolTableRecord
100
AcDbLayerTableRecord
  2
126-401_HEX_FEATURES
 70
0
 62
7
  6
CONTINUOUS
370
-3
390
F
  0
LAYER
  5
21C
100
AcDbSymbolTableRecord
100
AcDbLayerTableRecord
  2
126-401_REF_GEOMETRY
 70
0
 62
7
  6
CONTINUOUS
370
-3
390
F
  0
LAYER
  5
21D
100
AcDbSymbolTableRecord
100
AcDbLayerTableRecord
  2
126-402_HEX_FEATURES
 70
0
 62
7
  6
CONTINUOUS
370
-3
390
F
  0
LAYER
  5
21E
100
AcDbSymbolTableRecord
100
AcDbLayerTableRecord
  2
126-402_REF_GEOMETRY
 70
0
 62
7
  6
CONTINUOUS
370
-3
390
F
  0
LAYER
  5
21F
100
AcDbSymbolTableRecord
100
AcDbLayerTableRecord
  2
126-403_HEX_FEATURES
 70
0
 62
7
  6
CONTINUOUS
370
-3
390
F
  0
LAYER
  5
220
100
AcDbSymbolTableRecord
100
AcDbLayerTableRecord
  2
126-403_REF_GEOMETRY
 70
0
 62
7
  6
CONTINUOUS
370
-3
390
F
  0
LAYER
  5
221
100
AcDbSymbolTableRecord
100
AcDbLayerTableRecord
  2
126-404_HEX_FEATURES
 70
0
 62
7
  6
CONTINUOUS
370
-3
390
F
  0
LAYER
  5
222
100
AcDbSymbolTableRecord
100
AcDbLayerTableRecord
  2
126-404_REF_GEOMETRY
 70
0
 62
7
  6
CONTINUOUS
370
-3
390
F
  0
LAYER
  5
223
100
AcDbSymbolTableRecord
100
AcDbLayerTableRecord
  2
126-405_HEX_FEATURES
 70
0
 62
7
  6
CONTINUOUS
370
-3
390
F
  0
LAYER
  5
224
100
AcDbSymbolTableRecord
100
AcDbLayerTableRecord
  2
126-405_REF_GEOMETRY
 70
0
 62
7
  6
CONTINUOUS
370
-3
390
F
  0
LAYER
  5
225
100
AcDbSymbolTableRecord
100
AcDbLayerTableRecord
  2
126-406_HEX_FEATURES
 70
0
 62
7
  6
CONTINUOUS
370
-3
390
F
  0
LAYER
  5
226
100
AcDbSymbolTableRecord
100
AcDbLayerTableRecord
  2
126-406_REF_GEOMETRY
 70
0
 62
7
  6
CONTINUOUS
370
-3
390
F
  0
LAYER
  5
227
100
AcDbSymbolTableRecord
100
AcDbLayerTableRecord
  2
A00_SLOT
 70
0
 62
7
  6
CONTINUOUS
370
-3
390
F
  0
LAYER
  5
228
100
AcDbSymbolTableRecord
100
AcDbLayerTableRecord
  2
COPY_GEO_FET
 70
0
 62
7
  6
CONTINUOUS
370
-3
390
F
  0
LAYER
  5
229
100
AcDbSymbolTableRecord
100
AcDbLayerTableRecord
  2
COSMETIC
 70
0
 62
7
  6
CONTINUOUS
370
-3
390
F
  0
LAYER
  5
22A
100
AcDbSymbolTableRecord
100
AcDbLayerTableRecord
  2
COSM_REF
 70
0
 62
7
  6
CONTINUOUS
370
-3
390
F
  0
LAYER
  5
22B
100
AcDbSymbolTableRecord
100
AcDbLayerTableRecord
  2
CURVES
 70
0
 62
7
  6
CONTINUOUS
370
-3
390
F
  0
LAYER
  5
22C
100
AcDbSymbolTableRecord
100
AcDbLayerTableRecord
  2
CUT_REF_SURF
 70
0
 62
7
  6
CONTINUOUS
370
-3
390
F
  0
LAYER
  5
22D
100
AcDbSymbolTableRecord
100
AcDbLayerTableRecord
  2
DATUM
 70
0
 62
7
  6
CONTINUOUS
370
-3
390
F
  0
LAYER
  5
22E
100
AcDbSymbolTableRecord
100
AcDbLayerTableRecord
  2
DATUMCURVES
 70
0
 62
7
  6
CONTINUOUS
370
-3
390
F
  0
LAYER
  5
22F
100
AcDbSymbolTableRecord
100
AcDbLayerTableRecord
  2
DATUM_PLANES
 70
0
 62
7
  6
CONTINUOUS
370
-3
390
F
  0
LAYER
  5
230
100
AcDbSymbolTableRecord
100
AcDbLayerTableRecord
  2
DIMENSIONS
 70
0
 62
7
  6
CONTINUOUS
370
-3
390
F
  0
LAYER
  5
231
100
AcDbSymbolTableRecord
100
AcDbLayerTableRecord
  2
DRAWINGNOTES
 70
0
 62
7
  6
CONTINUOUS
370
-3
390
F
  0
LAYER
  5
232
100
AcDbSymbolTableRecord
100
AcDbLayerTableRecord
  2
DTM
 70
0
 62
7
  6
CONTINUOUS
370
-3
390
F
  0
LAYER
  5
233
100
AcDbSymbolTableRecord
100
AcDbLayerTableRecord
  2
DTM325
 70
0
 62
7
  6
CONTINUOUS
370
-3
390
F
  0
LAYER
  5
234
100
AcDbSymbolTableRecord
100
AcDbLayerTableRecord
  2
DTM_500001
 70
0
 62
7
  6
CONTINUOUS
370
-3
390
F
  0
LAYER
  5
235
100
AcDbSymbolTableRecord
100
AcDbLayerTableRecord
  2
DTM_500002
 70
0
 62
7
  6
CONTINUOUS
370
-3
390
F
  0
LAYER
  5
236
100
AcDbSymbolTableRecord
100
AcDbLayerTableRecord
  2
DTM_500051
 70
0
 62
7
  6
CONTINUOUS
370
-3
390
F
  0
LAYER
  5
237
100
AcDbSymbolTableRecord
100
AcDbLayerTableRecord
  2
DTM_515002
 70
0
 62
7
  6
CONTINUOUS
370
-3
390
F
  0
LAYER
  5
238
100
AcDbSymbolTableRecord
100
AcDbLayerTableRecord
  2
DTM_525001
 70
0
 62
7
  6
CONTINUOUS
370
-3
390
F
  0
LAYER
  5
239
100
AcDbSymbolTableRecord
100
AcDbLayerTableRecord
  2
DTM_530002
 70
0
 62
7
  6
CONTINUOUS
370
-3
390
F
  0
LAYER
  5
23A
100
AcDbSymbolTableRecord
100
AcDbLayerTableRecord
  2
DTM_800001
 70
0
 62
7
  6
CONTINUOUS
370
-3
390
F
  0
LAYER
  5
23B
100
AcDbSymbolTableRecord
100
AcDbLayerTableRecord
  2
DTM_BALLHOLDER
 70
0
 62
7
  6
CONTINUOUS
370
-3
390
F
  0
LAYER
  5
23C
100
AcDbSymbolTableRecord
100
AcDbLayerTableRecord
  2
DTM_SPRING_RH
 70
0
 62
7
  6
CONTINUOUS
370
-3
390
F
  0
LAYER
  5
23D
100
AcDbSymbolTableRecord
100
AcDbLayerTableRecord
  2
DTM_SP_RH_CONSTR
 70
0
 62
7
  6
CONTINUOUS
370
-3
390
F
  0
LAYER
  5
23E
100
AcDbSymbolTableRecord
100
AcDbLayerTableRecord
  2
FACE1
 70
0
 62
7
  6
CONTINUOUS
370
-3
390
F
  0
LAYER
  5
23F
100
AcDbSymbolTableRecord
100
AcDbLayerTableRecord
  2
FACE2
 70
0
 62
7
  6
CONTINUOUS
370
-3
390
F
  0
LAYER
  5
240
100
AcDbSymbolTableRecord
100
AcDbLayerTableRecord
  2
FACE3
 70
0
 62
7
  6
CONTINUOUS
370
-3
390
F
  0
LAYER
  5
241
100
AcDbSymbolTableRecord
100
AcDbLayerTableRecord
  2
FACE4
 70
0
 62
7
  6
CONTINUOUS
370
-3
390
F
  0
LAYER
  5
242
100
AcDbSymbolTableRecord
100
AcDbLayerTableRecord
  2
GEOMETRICTOLERANCES
 70
0
 62
7
  6
CONTINUOUS
370
-3
390
F
  0
LAYER
  5
243
100
AcDbSymbolTableRecord
100
AcDbLayerTableRecord
  2
LAY0001
 70
0
 62
7
  6
CONTINUOUS
370
-3
390
F
  0
LAYER
  5
244
100
AcDbSymbolTableRecord
100
AcDbLayerTableRecord
  2
NPTF_PORT_PER_S-164
 70
0
 62
7
  6
CONTINUOUS
370
-3
390
F
  0
LAYER
  5
245
100
AcDbSymbolTableRecord
100
AcDbLayerTableRecord
  2
PARAMETERDIMENSIONS
 70
0
 62
7
  6
CONTINUOUS
370
-3
390
F
  0
LAYER
  5
246
100
AcDbSymbolTableRecord
100
AcDbLayerTableRecord
  2
PLANE
 70
0
 62
7
  6
CONTINUOUS
370
-3
390
F
  0
LAYER
  5
247
100
AcDbSymbolTableRecord
100
AcDbLayerTableRecord
  2
PROTRUSIONS
 70
0
 62
7
  6
CONTINUOUS
370
-3
390
F
  0
LAYER
  5
248
100
AcDbSymbolTableRecord
100
AcDbLayerTableRecord
  2
SPEC_SAE-4_PORT
 70
0
 62
7
  6
CONTINUOUS
370
-3
390
F
  0
LAYER
  5
249
100
AcDbSymbolTableRecord
100
AcDbLayerTableRecord
  2
STD_SAE-4_PORT
 70
0
 62
7
  6
CONTINUOUS
370
-3
390
F
  0
LAYER
  5
24A
100
AcDbSymbolTableRecord
100
AcDbLayerTableRecord
  2
TEXT
 70
0
 62
7
  6
CONTINUOUS
370
-3
390
F
  0
LAYER
  5
24B
100
AcDbSymbolTableRecord
100
AcDbLayerTableRecord
  2
THREAD
 70
0
 62
7
  6
CONTINUOUS
370
-3
390
F
  0
LAYER
  5
24C
100
AcDbSymbolTableRecord
100
AcDbLayerTableRecord
  2
WIRE_GRV-SLOT_DRW_REF
 70
0
 62
7
  6
CONTINUOUS
370
-3
390
F
  0
LAYER
  5
24D
100
AcDbSymbolTableRecord
100
AcDbLayerTableRecord
  2
XSEC_DATUMS
 70
0
 62
7
  6
CONTINUOUS
370
-3
390
F
  0
ENDTAB
  0
TABLE
  2
STYLE
  5
3
100
AcDbSymbolTable
 70
1
  0
STYLE
  5
11
100
AcDbSymbolTableRecord
100
AcDbTextStyleTableRecord
  2
STANDARD
 70
0
 40
0.0
 41
0.8
 50
0.0
 71
0
 42
0.2
  3
txt
  4

  0
ENDTAB
  0
TABLE
  2
VIEW
  5
6
100
AcDbSymbolTable
 70
0
  0
ENDTAB
  0
TABLE
  2
UCS
  5
7
100
AcDbSymbolTable
 70
0
  0
ENDTAB
  0
TABLE
  2
APPID
  5
9
100
AcDbSymbolTable
 70
1
  0
APPID
  5
24E
100
AcDbSymbolTableRecord
100
AcDbRegAppTableRecord
  2
ACAD
 70
0
  0
ENDTAB
  0
TABLE
  2
BLOCK_RECORD
  5
1
100
AcDbSymbolTable
 70
0
  0
BLOCK_RECORD
  5
1F
100
AcDbSymbolTableRecord
100
AcDbBlockTableRecord
  2
*MODEL_SPACE
  0
BLOCK_RECORD
  5
1B
100
AcDbSymbolTableRecord
100
AcDbBlockTableRecord
  2
*PAPER_SPACE
  0
ENDTAB
  0
TABLE
  2
DIMSTYLE
  5
A
100
AcDbSymbolTable
 70
1
100
AcDbDimStyleTable
 71
0
  0
DIMSTYLE
105
24F
100
AcDbSymbolTableRecord
100
AcDbDimStyleTableRecord
  2
STANDARD
 70
0
  3

  4

 40
1.0
 41
0.1875
 42
0.0625
 43
0.38
 44
0.18
 45
0.0
 46
0.0
 47
0.01
 48
0.01
140
0.15625
141
0.09
142
0.0
143
25.4
144
1.0
145
0.0
146
1.0
147
0.09
 71
0.0
 72
0.0
 73
1
 74
1
 75
0
 76
0
 77
0
 78
4
170
0
171
2
172
0
173
0
174
0
175
0
176
0
177
0
178
0
270
2
271
2
272
2
273
2
274
2
275
0
280
0
281
0
282
0
283
1
284
4
285
0
286
0
287
3
288
0
340
11
  0
ENDTAB
  0
ENDSEC
  0
SECTION
  2
BLOCKS
  0
BLOCK
  5
20
100
AcDbEntity
  8
0
100
AcDbBlockBegin
  2
*MODEL_SPACE
 70
0
 10
0.0
 20
0.0
 30
0.0
  3
*MODEL_SPACE
  1

  0
ENDBLK
  5
21
100
AcDbEntity
  8
0
100
AcDbBlockEnd
  0
BLOCK
  5
1C
100
AcDbEntity
  8
0
100
AcDbBlockBegin
  2
*PAPER_SPACE
 70
0
 10
0.0
 20
0.0
 30
0.0
  3
*PAPER_SPACE
  1

  0
ENDBLK
  5
1D
100
AcDbEntity
  8
0
100
AcDbBlockEnd
  0
ENDSEC
  0
SECTION
  2
ENTITIES
  0
LINE
  5
250
100
AcDbEntity
  8
0
100
AcDbLine
 62
7
  6
CONTINUOUS
 10
3.5800110744
 20
4.2149231826
 11
3.5800110744
 21
3.9089231826
  0
LINE
  5
251
100
AcDbEntity
  8
03__ASM_ALL_CURVES
100
AcDbLine
 62
40
  6
CONTINUOUS
 10
3.5800110744
 20
4.2149231826
 11
3.5800110744
 21
5.0821991826
  0
LINE
  5
252
100
AcDbEntity
  8
0
100
AcDbLine
 62
7
  6
CONTINUOUS
 10
3.6110110744
 20
4.2459231826
 11
3.6110110744
 21
3.8779231826
  0
LINE
  5
253
100
AcDbEntity
  8
03__ASM_ALL_CURVES
100
AcDbLine
 62
40
  6
CONTINUOUS
 10
3.6962310744
 20
5.0628291826
 11
3.6962310744
 21
5.0240891826
  0
LINE
  5
254
100
AcDbEntity
  8
0
100
AcDbLine
 62
7
  6
CONTINUOUS
 10
3.8100110744
 20
4.2459231826
 11
3.8100110744
 21
3.8779231826
  0
LINE
  5
255
100
AcDbEntity
  8
0
100
AcDbLine
 62
7
  6
CONTINUOUS
 10
3.8115110744
 20
3.9007801896
 11
3.8115110744
 21
4.1380467514
  0
LINE
  5
256
100
AcDbEntity
  8
0
100
AcDbLine
 62
7
  6
CONTINUOUS
 10
3.8465110744
 20
3.9007801896
 11
3.8465110744
 21
4.1380467514
  0
LINE
  5
257
100
AcDbEntity
  8
0
100
AcDbLine
 62
7
  6
CONTINUOUS
 10
3.8480110744
 20
4.2459231826
 11
3.8480110744
 21
3.8779231826
  0
LINE
  5
258
100
AcDbEntity
  8
0
100
AcDbLine
 62
7
  6
CONTINUOUS
 10
3.5800110744
 20
3.9089231826
 11
3.6110110744
 21
3.8779231826
  0
LINE
  5
259
100
AcDbEntity
  8
0
100
AcDbLine
 62
7
  6
CONTINUOUS
 10
4.0800110744
 20
3.8142719975
 11
4.0800110744
 21
4.3095743677
  0
LINE
  5
25A
100
AcDbEntity
  8
0
100
AcDbLine
 62
7
  6
CONTINUOUS
 10
4.1420110744
 20
3.7909231826
 11
4.1420110744
 21
4.3329231826
  0
LINE
  5
25B
100
AcDbEntity
  8
0
100
AcDbLine
 62
7
  6
CONTINUOUS
 10
4.1480110744
 20
3.7909231826
 11
4.1480110744
 21
4.3329231826
  0
LINE
  5
25C
100
AcDbEntity
  8
0
100
AcDbLine
 62
7
  6
CONTINUOUS
 10
4.1535110744
 20
3.7964231826
 11
4.1535110744
 21
4.3274231826
  0
LINE
  5
25D
100
AcDbEntity
  8
0
100
AcDbLine
 62
7
  6
CONTINUOUS
 10
4.1695110744
 20
3.7964231826
 11
4.1695110744
 21
4.3274231826
  0
LINE
  5
25E
100
AcDbEntity
  8
03__ASM_ALL_CURVES
100
AcDbLine
 62
40
  6
CONTINUOUS
 10
4.3271016994
 20
5.1064116826
 11
4.3210485744
 21
5.0821991826
  0
LINE
  5
25F
100
AcDbEntity
  8
03__ASM_ALL_CURVES
100
AcDbLine
 62
40
  6
CONTINUOUS
 10
4.3210485744
 20
5.162907514
 11
4.3271016994
 21
5.1709783512
  0
LINE
  5
260
100
AcDbEntity
  8
03__ASM_ALL_CURVES
100
AcDbLine
 62
40
  6
CONTINUOUS
 10
4.3392079494
 20
5.1225533483
 11
4.3271016994
 21
5.1064116826
  0
LINE
  5
261
100
AcDbEntity
  8
03__ASM_ALL_CURVES
100
AcDbLine
 62
40
  6
CONTINUOUS
 10
4.3694735744
 20
5.1467658512
 11
4.3634204494
 21
5.138695014
  0
LINE
  5
262
100
AcDbEntity
  8
0
100
AcDbLine
 62
7
  6
CONTINUOUS
 10
4.3610110744
 20
3.7909231826
 11
4.3610110744
 21
4.3329231826
  0
LINE
  5
263
100
AcDbEntity
  8
03__ASM_ALL_CURVES
100
AcDbLine
 62
40
  6
CONTINUOUS
 10
4.3694735744
 20
5.162907514
 11
4.3694735744
 21
5.1467658512
  0
LINE
  5
264
100
AcDbEntity
  8
03__ASM_ALL_CURVES
100
AcDbLine
 62
40
  6
CONTINUOUS
 10
4.6115985744
 20
5.1467658512
 11
4.6176516994
 21
5.162907514
  0
LINE
  5
265
100
AcDbEntity
  8
03__ASM_ALL_CURVES
100
AcDbLine
 62
40
  6
CONTINUOUS
 10
4.5571204494
 20
5.1790491826
 11
4.5147485744
 21
5.1064116826
  0
LINE
  5
266
100
AcDbEntity
  8
03__ASM_ALL_CURVES
100
AcDbLine
 62
40
  6
CONTINUOUS
 10
4.6176516994
 20
5.162907514
 11
4.6237048244
 21
5.1709783512
  0
LINE
  5
267
100
AcDbEntity
  8
0
100
AcDbLine
 62
7
  6
CONTINUOUS
 10
3.5800110744
 20
4.2149231826
 11
3.6110110744
 21
4.2459231826
  0
LINE
  5
268
100
AcDbEntity
  8
03__ASM_ALL_CURVES
100
AcDbLine
 62
40
  6
CONTINUOUS
 10
4.3271016994
 20
5.1709783512
 11
4.3392079494
 21
5.1790491826
  0
LINE
  5
269
100
AcDbEntity
  8
03__ASM_ALL_CURVES
100
AcDbLine
 62
40
  6
CONTINUOUS
 10
4.3634204494
 20
5.138695014
 11
4.3392079494
 21
5.1225533483
  0
LINE
  5
26A
100
AcDbEntity
  8
0
100
AcDbLine
 62
7
  6
CONTINUOUS
 10
4.1850118599
 20
3.780922397
 11
4.1695110744
 21
3.7964231826
  0
LINE
  5
26B
100
AcDbEntity
  8
0
100
AcDbLine
 62
7
  6
CONTINUOUS
 10
4.3920110744
 20
3.7384231826
 11
4.3920110744
 21
4.3854231826
  0
LINE
  5
26C
100
AcDbEntity
  8
03__ASM_ALL_CURVES
100
AcDbLine
 62
40
  6
CONTINUOUS
 10
4.4360579494
 20
5.0821991826
 11
4.4360579494
 21
5.0902700162
  0
LINE
  5
26D
100
AcDbEntity
  8
0
100
AcDbLine
 62
7
  6
CONTINUOUS
 10
4.4420110744
 20
3.6884231826
 11
4.4420110744
 21
4.4354231826
  0
LINE
  5
26E
100
AcDbEntity
  8
0
100
AcDbLine
 62
7
  6
CONTINUOUS
 10
4.4930110744
 20
3.6884231826
 11
4.4930110744
 21
4.4354231826
  0
LINE
  5
26F
100
AcDbEntity
  8
0
100
AcDbLine
 62
7
  6
CONTINUOUS
 10
4.4980110744
 20
3.6934231826
 11
4.4980110744
 21
4.4304231826
  0
LINE
  5
270
100
AcDbEntity
  8
0
100
AcDbLine
 62
7
  6
CONTINUOUS
 10
4.5060110744
 20
3.7119231826
 11
4.5060110744
 21
4.4119231826
  0
LINE
  5
271
100
AcDbEntity
  8
0
100
AcDbLine
 62
7
  6
CONTINUOUS
 10
4.5280110744
 20
3.7119231826
 11
4.5280110744
 21
4.4119231826
  0
LINE
  5
272
100
AcDbEntity
  8
0
100
AcDbLine
 62
7
  6
CONTINUOUS
 10
4.5360110744
 20
3.6934231826
 11
4.5360110744
 21
4.4304231826
  0
LINE
  5
273
100
AcDbEntity
  8
0
100
AcDbLine
 62
7
  6
CONTINUOUS
 10
4.5410110744
 20
3.6884231826
 11
4.5410110744
 21
4.4354231826
  0
LINE
  5
274
100
AcDbEntity
  8
03__ASM_ALL_CURVES
100
AcDbLine
 62
40
  6
CONTINUOUS
 10
4.6600235744
 20
5.1467658512
 11
4.6539704494
 21
5.1306241826
  0
LINE
  5
275
100
AcDbEntity
  8
03__ASM_ALL_CURVES
100
AcDbLine
 62
40
  6
CONTINUOUS
 10
4.6600235744
 20
5.1144825169
 11
4.6539704494
 21
5.0983408497
  0
LINE
  5
276
100
AcDbEntity
  8
03__ASM_ALL_CURVES
100
AcDbLine
 62
40
  6
CONTINUOUS
 10
4.6539704494
 20
5.0983408497
 11
4.6479173244
 21
5.0902700162
  0
LINE
  5
277
100
AcDbEntity
  8
03__ASM_ALL_CURVES
100
AcDbLine
 62
40
  6
CONTINUOUS
 10
4.7387141994
 20
5.1790491826
 11
4.7266079494
 21
5.162907514
  0
LINE
  5
278
100
AcDbEntity
  8
03__ASM_ALL_CURVES
100
AcDbLine
 62
40
  6
CONTINUOUS
 10
4.8113516994
 20
5.162907514
 11
4.8174048244
 21
5.1709783512
  0
LINE
  5
279
100
AcDbEntity
  8
03__ASM_ALL_CURVES
100
AcDbLine
 62
40
  6
CONTINUOUS
 10
4.6237048244
 20
5.1709783512
 11
4.6358110744
 21
5.1790491826
  0
LINE
  5
27A
100
AcDbEntity
  8
03__ASM_ALL_CURVES
100
AcDbLine
 62
40
  6
CONTINUOUS
 10
4.6479173244
 20
5.0902700162
 11
4.6358110744
 21
5.0821991826
  0
LINE
  5
27B
100
AcDbEntity
  8
03__ASM_ALL_CURVES
100
AcDbLine
 62
40
  6
CONTINUOUS
 10
4.8174048244
 20
5.1709783512
 11
4.8295110744
 21
5.1790491826
  0
LINE
  5
27C
100
AcDbEntity
  8
0
100
AcDbLine
 62
7
  6
CONTINUOUS
 10
4.4420110744
 20
3.6884231826
 11
4.3920110744
 21
3.7384231826
  0
LINE
  5
27D
100
AcDbEntity
  8
03__ASM_ALL_CURVES
100
AcDbLine
 62
40
  6
CONTINUOUS
 10
4.5571204494
 20
5.0821991826
 11
4.5571204494
 21
5.1790491826
  0
LINE
  5
27E
100
AcDbEntity
  8
03__ASM_ALL_CURVES
100
AcDbLine
 62
40
  6
CONTINUOUS
 10
4.6600235744
 20
5.1467658512
 11
4.6600235744
 21
5.1144825169
  0
LINE
  5
27F
100
AcDbEntity
  8
03__ASM_ALL_CURVES
100
AcDbLine
 62
40
  6
CONTINUOUS
 10
4.7266079494
 20
5.162907514
 11
4.7205548244
 21
5.138695014
  0
LINE
  5
280
100
AcDbEntity
  8
03__ASM_ALL_CURVES
100
AcDbLine
 62
40
  6
CONTINUOUS
 10
4.8052985744
 20
5.1467658512
 11
4.8113516994
 21
5.162907514
  0
LINE
  5
281
100
AcDbEntity
  8
03__ASM_ALL_CURVES
100
AcDbLine
 62
40
  6
CONTINUOUS
 10
4.8052985744
 20
5.1144825169
 11
4.8113516994
 21
5.1306241826
  0
LINE
  5
282
100
AcDbEntity
  8
03__ASM_ALL_CURVES
100
AcDbLine
 62
40
  6
CONTINUOUS
 10
4.8537235744
 20
5.1144825169
 11
4.8476704494
 21
5.0983408497
  0
LINE
  5
283
100
AcDbEntity
  8
03__ASM_ALL_CURVES
100
AcDbLine
 62
40
  6
CONTINUOUS
 10
4.8476704494
 20
5.0983408497
 11
4.8416173244
 21
5.0902700162
  0
LINE
  5
284
100
AcDbEntity
  8
03__ASM_ALL_CURVES
100
AcDbLine
 62
40
  6
CONTINUOUS
 10
4.9505735744
 20
5.1548366826
 11
4.9445204494
 21
5.1467658512
  0
LINE
  5
285
100
AcDbEntity
  8
03__ASM_ALL_CURVES
100
AcDbLine
 62
40
  6
CONTINUOUS
 10
4.9566266994
 20
5.1064116826
 11
4.9445204494
 21
5.0902700162
  0
LINE
  5
286
100
AcDbEntity
  8
0
100
AcDbLine
 62
7
  6
CONTINUOUS
 10
4.1850118599
 20
4.3429239682
 11
4.1695110744
 21
4.3274231826
  0
LINE
  5
287
100
AcDbEntity
  8
03__ASM_ALL_CURVES
100
AcDbLine
 62
40
  6
CONTINUOUS
 10
4.9082016994
 20
5.1709783512
 11
4.9203079494
 21
5.1790491826
  0
LINE
  5
288
100
AcDbEntity
  8
03__ASM_ALL_CURVES
100
AcDbLine
 62
40
  6
CONTINUOUS
 10
4.8416173244
 20
5.0902700162
 11
4.8295110744
 21
5.0821991826
  0
LINE
  5
289
100
AcDbEntity
  8
03__ASM_ALL_CURVES
100
AcDbLine
 62
40
  6
CONTINUOUS
 10
4.9445204494
 20
5.1467658512
 11
4.9324141994
 21
5.138695014
  0
LINE
  5
28A
100
AcDbEntity
  8
03__ASM_ALL_CURVES
100
AcDbLine
 62
40
  6
CONTINUOUS
 10
4.9445204494
 20
5.0902700162
 11
4.9324141994
 21
5.0821991826
  0
LINE
  5
28B
100
AcDbEntity
  8
03__ASM_ALL_CURVES
100
AcDbLine
 62
40
  6
CONTINUOUS
 10
5.1019016994
 20
5.1709783512
 11
5.1140079494
 21
5.1790491826
  0
LINE
  5
28C
100
AcDbEntity
  8
03__ASM_ALL_CURVES
100
AcDbLine
 62
40
  6
CONTINUOUS
 10
4.6539704494
 20
5.1306241826
 11
4.6358110744
 21
5.1225533483
  0
LINE
  5
28D
100
AcDbEntity
  8
03__ASM_ALL_CURVES
100
AcDbLine
 62
40
  6
CONTINUOUS
 10
4.8113516994
 20
5.1306241826
 11
4.8295110744
 21
5.138695014
  0
LINE
  5
28E
100
AcDbEntity
  8
0
100
AcDbLine
 62
7
  6
CONTINUOUS
 10
4.1535110744
 20
4.3274231826
 11
4.1480110744
 21
4.3329231826
  0
LINE
  5
28F
100
AcDbEntity
  8
0
100
AcDbLine
 62
7
  6
CONTINUOUS
 10
4.3610110744
 20
4.3329231826
 11
4.3549163022
 21
4.3434796376
  0
LINE
  5
290
100
AcDbEntity
  8
0
100
AcDbLine
 62
7
  6
CONTINUOUS
 10
4.9260747402
 20
3.5729231826
 11
4.8920110744
 21
3.6319231826
  0
LINE
  5
291
100
AcDbEntity
  8
03__ASM_ALL_CURVES
100
AcDbLine
 62
40
  6
CONTINUOUS
 10
4.7205548244
 20
5.138695014
 11
4.7205548244
 21
5.1225533483
  0
LINE
  5
292
100
AcDbEntity
  8
03__ASM_ALL_CURVES
100
AcDbLine
 62
40
  6
CONTINUOUS
 10
4.8052985744
 20
5.1144825169
 11
4.8052985744
 21
5.1467658512
  0
LINE
  5
293
100
AcDbEntity
  8
0
100
AcDbLine
 62
7
  6
CONTINUOUS
 10
4.3610110744
 20
3.7909231826
 11
4.3549163022
 21
3.7803667276
  0
LINE
  5
294
100
AcDbEntity
  8
03__ASM_ALL_CURVES
100
AcDbLine
 62
40
  6
CONTINUOUS
 10
5.2350704494
 20
5.1790491826
 11
5.1926985744
 21
5.1064116826
  0
LINE
  5
295
100
AcDbEntity
  8
03__ASM_ALL_CURVES
100
AcDbLine
 62
40
  6
CONTINUOUS
 10
5.0958485744
 20
5.162907514
 11
5.1019016994
 21
5.1709783512
  0
LINE
  5
296
100
AcDbEntity
  8
03__ASM_ALL_CURVES
100
AcDbLine
 62
40
  6
CONTINUOUS
 10
5.1140079494
 20
5.1225533483
 11
5.1019016994
 21
5.1064116826
  0
LINE
  5
297
100
AcDbEntity
  8
03__ASM_ALL_CURVES
100
AcDbLine
 62
40
  6
CONTINUOUS
 10
5.1442735744
 20
5.1467658512
 11
5.1382204494
 21
5.138695014
  0
LINE
  5
298
100
AcDbEntity
  8
0
100
AcDbLine
 62
7
  6
CONTINUOUS
 10
4.4420110744
 20
4.4354231826
 11
4.3920110744
 21
4.3854231826
  0
LINE
  5
299
100
AcDbEntity
  8
03__ASM_ALL_CURVES
100
AcDbLine
 62
40
  6
CONTINUOUS
 10
5.1382204494
 20
5.138695014
 11
5.1140079494
 21
5.1225533483
  0
LINE
  5
29A
100
AcDbEntity
  8
0
100
AcDbLine
 62
7
  6
CONTINUOUS
 10
4.8920110744
 20
3.6319231826
 11
4.8920110744
 21
4.4919231826
  0
LINE
  5
29B
100
AcDbEntity
  8
0
100
AcDbLine
 62
7
  6
CONTINUOUS
 10
4.9260747402
 20
3.5729231826
 11
4.9260747402
 21
3.5738207101
  0
LINE
  5
29C
100
AcDbEntity
  8
0
100
AcDbLine
 62
7
  6
CONTINUOUS
 10
4.9260747402
 20
3.7922256551
 11
4.9260747402
 21
3.8435182376
  0
LINE
  5
29D
100
AcDbEntity
  8
0
100
AcDbLine
 62
7
  6
CONTINUOUS
 10
4.9260747402
 20
4.2803281276
 11
4.9260747402
 21
4.3316207101
  0
LINE
  5
29E
100
AcDbEntity
  8
0
100
AcDbLine
 62
7
  6
CONTINUOUS
 10
4.9260747402
 20
4.5500256551
 11
4.9260747402
 21
4.5509231826
  0
LINE
  5
29F
100
AcDbEntity
  8
03__ASM_ALL_CURVES
100
AcDbLine
 62
40
  6
CONTINUOUS
 10
4.9505735744
 20
5.162907514
 11
4.9505735744
 21
5.1548366826
  0
LINE
  5
2A0
100
AcDbEntity
  8
03__ASM_ALL_CURVES
100
AcDbLine
 62
40
  6
CONTINUOUS
 10
4.9566266994
 20
5.1144825169
 11
4.9566266994
 21
5.1064116826
  0
LINE
  5
2A1
100
AcDbEntity
  8
03__ASM_ALL_CURVES
100
AcDbLine
 62
40
  6
CONTINUOUS
 10
5.0171579494
 20
5.0821991826
 11
5.0171579494
 21
5.0902700162
  0
LINE
  5
2A2
100
AcDbEntity
  8
03__ASM_ALL_CURVES
100
AcDbLine
 62
40
  6
CONTINUOUS
 10
5.1019016994
 20
5.1064116826
 11
5.0958485744
 21
5.0821991826
  0
LINE
  5
2A3
100
AcDbEntity
  8
0
100
AcDbLine
 62
7
  6
CONTINUOUS
 10
4.9256860994
 20
4.550250037
 11
4.8920110744
 21
4.4919231826
  0
LINE
  5
2A4
100
AcDbEntity
  8
03__ASM_ALL_CURVES
100
AcDbLine
 62
40
  6
CONTINUOUS
 10
5.3198141994
 20
5.0983408497
 11
5.3077079494
 21
5.0821991826
  0
LINE
  5
2A5
100
AcDbEntity
  8
0
100
AcDbLine
 62
7
  6
CONTINUOUS
 10
4.1535110744
 20
3.7964231826
 11
4.1480110744
 21
3.7909231826
  0
LINE
  5
2A6
100
AcDbEntity
  8
03__ASM_ALL_CURVES
100
AcDbLine
 62
40
  6
CONTINUOUS
 10
6.9609134371
 20
3.3952856826
 11
6.9518337496
 21
3.3952856826
  0
LINE
  5
2A7
100
AcDbEntity
  8
03__ASM_ALL_CURVES
100
AcDbLine
 62
40
  6
CONTINUOUS
 10
5.9565559985
 20
3.3952856826
 11
5.947476311
 21
3.3952856826
  0
LINE
  5
2A8
100
AcDbEntity
  8
03__ASM_ALL_CURVES
100
AcDbLine
 62
40
  6
CONTINUOUS
 10
5.7386434985
 20
3.3952856826
 11
5.729563811
 21
3.3952856826
  0
LINE
  5
2A9
100
AcDbEntity
  8
03__ASM_ALL_CURVES
100
AcDbLine
 62
40
  6
CONTINUOUS
 10
7.1561267183
 20
3.3952856826
 11
7.1924454683
 21
3.3952856826
  0
LINE
  5
2AA
100
AcDbEntity
  8
03__ASM_ALL_CURVES
100
AcDbLine
 62
40
  6
CONTINUOUS
 10
7.0335509371
 20
3.4316044326
 11
7.0108517183
 21
3.4316044326
  0
LINE
  5
2AB
100
AcDbEntity
  8
03__ASM_ALL_CURVES
100
AcDbLine
 62
40
  6
CONTINUOUS
 10
6.8882759371
 20
3.4316044326
 11
6.8655767183
 21
3.4316044326
  0
LINE
  5
2AC
100
AcDbEntity
  8
03__ASM_ALL_CURVES
100
AcDbLine
 62
40
  6
CONTINUOUS
 10
5.8112809985
 20
3.4316044326
 11
5.7885817797
 21
3.4316044326
  0
LINE
  5
2AD
100
AcDbEntity
  8
03__ASM_ALL_CURVES
100
AcDbLine
 62
40
  6
CONTINUOUS
 10
5.6660059985
 20
3.4316044326
 11
5.6433067797
 21
3.4316044326
  0
LINE
  5
2AE
100
AcDbEntity
  8
03__ASM_ALL_CURVES
100
AcDbLine
 62
40
  6
CONTINUOUS
 10
5.947476311
 20
3.4376575562
 11
5.9565559985
 21
3.4376575562
  0
LINE
  5
2AF
100
AcDbEntity
  8
03__ASM_ALL_CURVES
100
AcDbLine
 62
40
  6
CONTINUOUS
 10
5.6433067797
 20
3.4679231826
 11
5.6660059985
 21
3.4679231826
  0
LINE
  5
2B0
100
AcDbEntity
  8
03__ASM_ALL_CURVES
100
AcDbLine
 62
40
  6
CONTINUOUS
 10
5.729563811
 20
3.4679231826
 11
5.7386434985
 21
3.4679231826
  0
LINE
  5
2B1
100
AcDbEntity
  8
03__ASM_ALL_CURVES
100
AcDbLine
 62
40
  6
CONTINUOUS
 10
5.7885817797
 20
3.4679231826
 11
5.8112809985
 21
3.4679231826
  0
LINE
  5
2B2
100
AcDbEntity
  8
03__ASM_ALL_CURVES
100
AcDbLine
 62
40
  6
CONTINUOUS
 10
5.856679436
 20
3.4679231826
 11
5.9020778735
 21
3.4679231826
  0
LINE
  5
2B3
100
AcDbEntity
  8
03__ASM_ALL_CURVES
100
AcDbLine
 62
40
  6
CONTINUOUS
 10
5.947476311
 20
3.4679231826
 11
5.9565559985
 21
3.4679231826
  0
LINE
  5
2B4
100
AcDbEntity
  8
03__ASM_ALL_CURVES
100
AcDbLine
 62
40
  6
CONTINUOUS
 10
6.8655767183
 20
3.4679231826
 11
6.8882759371
 21
3.4679231826
  0
LINE
  5
2B5
100
AcDbEntity
  8
03__ASM_ALL_CURVES
100
AcDbLine
 62
40
  6
CONTINUOUS
 10
6.9518337496
 20
3.4679231826
 11
6.9609134371
 21
3.4679231826
  0
LINE
  5
2B6
100
AcDbEntity
  8
03__ASM_ALL_CURVES
100
AcDbLine
 62
40
  6
CONTINUOUS
 10
7.0108517183
 20
3.4679231826
 11
7.0335509371
 21
3.4679231826
  0
LINE
  5
2B7
100
AcDbEntity
  8
03__ASM_ALL_CURVES
100
AcDbLine
 62
40
  6
CONTINUOUS
 10
7.0789493746
 20
3.4679231826
 11
7.1243478121
 21
3.4679231826
  0
LINE
  5
2B8
100
AcDbEntity
  8
03__ASM_ALL_CURVES
100
AcDbLine
 62
40
  6
CONTINUOUS
 10
7.1697462496
 20
3.4679231826
 11
7.1788259371
 21
3.4679231826
  0
LINE
  5
2B9
100
AcDbEntity
  8
03__ASM_ALL_CURVES
100
AcDbLine
 62
40
  6
CONTINUOUS
 10
5.729563811
 20
3.3952856826
 11
5.7204841235
 21
3.4013388078
  0
LINE
  5
2BA
100
AcDbEntity
  8
03__ASM_ALL_CURVES
100
AcDbLine
 62
40
  6
CONTINUOUS
 10
4.6176516994
 20
5.1306241826
 11
4.6115985744
 21
5.1467658512
  0
LINE
  5
2BB
100
AcDbEntity
  8
03__ASM_ALL_CURVES
100
AcDbLine
 62
40
  6
CONTINUOUS
 10
4.7205548244
 20
5.1225533483
 11
4.7266079494
 21
5.0983408497
  0
LINE
  5
2BC
100
AcDbEntity
  8
03__ASM_ALL_CURVES
100
AcDbLine
 62
40
  6
CONTINUOUS
 10
5.1442735744
 20
5.162907514
 11
5.1442735744
 21
5.1467658512
  0
LINE
  5
2BD
100
AcDbEntity
  8
03__ASM_ALL_CURVES
100
AcDbLine
 62
40
  6
CONTINUOUS
 10
5.3258673244
 20
5.1225533483
 11
5.3198141994
 21
5.0983408497
  0
LINE
  5
2BE
100
AcDbEntity
  8
0
100
AcDbLine
 62
7
  6
CONTINUOUS
 10
5.2995110744
 20
3.5729231826
 11
4.9260747402
 21
3.5729231826
  0
LINE
  5
2BF
100
AcDbEntity
  8
0
100
AcDbLine
 62
7
  6
CONTINUOUS
 10
5.2995110744
 20
3.5738207101
 11
4.9260747402
 21
3.5738207101
  0
LINE
  5
2C0
100
AcDbEntity
  8
0
100
AcDbLine
 62
7
  6
CONTINUOUS
 10
5.6755110744
 20
3.6334231826
 11
5.6260110744
 21
3.6334231826
  0
LINE
  5
2C1
100
AcDbEntity
  8
0
100
AcDbLine
 62
7
  6
CONTINUOUS
 10
5.4850110744
 20
3.6334231826
 11
5.3600110744
 21
3.6334231826
  0
LINE
  5
2C2
100
AcDbEntity
  8
0
100
AcDbLine
 62
7
  6
CONTINUOUS
 10
5.4850110744
 20
3.6339231826
 11
5.5350110744
 21
3.6339231826
  0
LINE
  5
2C3
100
AcDbEntity
  8
0
100
AcDbLine
 62
7
  6
CONTINUOUS
 10
6.0760110744
 20
3.6344231826
 11
6.0240110744
 21
3.6344231826
  0
LINE
  5
2C4
100
AcDbEntity
  8
THREAD
100
AcDbLine
 62
7
  6
CONTINUOUS
 10
6.1260110744
 20
3.6569231826
 11
6.1037335062
 21
3.6569231826
  0
LINE
  5
2C5
100
AcDbEntity
  8
0
100
AcDbLine
 62
7
  6
CONTINUOUS
 10
6.1960110744
 20
3.6574231826
 11
6.2460110744
 21
3.6574231826
  0
LINE
  5
2C6
100
AcDbEntity
  8
03__ASM_ALL_CURVES
100
AcDbLine
 62
40
  6
CONTINUOUS
 10
5.6660059985
 20
3.4679231826
 11
5.675085686
 21
3.461870059
  0
LINE
  5
2C7
100
AcDbEntity
  8
03__ASM_ALL_CURVES
100
AcDbLine
 62
40
  6
CONTINUOUS
 10
5.7386434985
 20
3.4679231826
 11
5.747723186
 21
3.461870059
  0
LINE
  5
2C8
100
AcDbEntity
  8
03__ASM_ALL_CURVES
100
AcDbLine
 62
40
  6
CONTINUOUS
 10
5.8112809985
 20
3.4679231826
 11
5.820360686
 21
3.461870059
  0
LINE
  5
2C9
100
AcDbEntity
  8
03__ASM_ALL_CURVES
100
AcDbLine
 62
40
  6
CONTINUOUS
 10
5.947476311
 20
3.3952856826
 11
5.9383966235
 21
3.4013388078
  0
LINE
  5
2CA
100
AcDbEntity
  8
03__ASM_ALL_CURVES
100
AcDbLine
 62
40
  6
CONTINUOUS
 10
5.9565559985
 20
3.4376575562
 11
5.965635686
 21
3.4316044326
  0
LINE
  5
2CB
100
AcDbEntity
  8
03__ASM_ALL_CURVES
100
AcDbLine
 62
40
  6
CONTINUOUS
 10
4.3634204494
 20
5.1709783512
 11
4.3694735744
 21
5.162907514
  0
LINE
  5
2CC
100
AcDbEntity
  8
03__ASM_ALL_CURVES
100
AcDbLine
 62
40
  6
CONTINUOUS
 10
4.6539704494
 20
5.162907514
 11
4.6600235744
 21
5.1467658512
  0
LINE
  5
2CD
100
AcDbEntity
  8
03__ASM_ALL_CURVES
100
AcDbLine
 62
40
  6
CONTINUOUS
 10
4.8113516994
 20
5.0983408497
 11
4.8052985744
 21
5.1144825169
  0
LINE
  5
2CE
100
AcDbEntity
  8
03__ASM_ALL_CURVES
100
AcDbLine
 62
40
  6
CONTINUOUS
 10
5.2350704494
 20
5.0821991826
 11
5.2350704494
 21
5.1790491826
  0
LINE
  5
2CF
100
AcDbEntity
  8
0
100
AcDbLine
 62
7
  6
CONTINUOUS
 10
5.2995110744
 20
3.5729231826
 11
5.2995110744
 21
3.5738207101
  0
LINE
  5
2D0
100
AcDbEntity
  8
0
100
AcDbLine
 62
7
  6
CONTINUOUS
 10
5.2995110744
 20
3.7922256551
 11
5.2995110744
 21
3.8435182376
  0
LINE
  5
2D1
100
AcDbEntity
  8
0
100
AcDbLine
 62
7
  6
CONTINUOUS
 10
5.2995110744
 20
4.2803281276
 11
5.2995110744
 21
4.3316207101
  0
LINE
  5
2D2
100
AcDbEntity
  8
0
100
AcDbLine
 62
7
  6
CONTINUOUS
 10
5.2995110744
 20
4.5500256551
 11
5.2995110744
 21
4.5509231826
  0
LINE
  5
2D3
100
AcDbEntity
  8
03__ASM_ALL_CURVES
100
AcDbLine
 62
40
  6
CONTINUOUS
 10
5.3258673244
 20
5.138695014
 11
5.3258673244
 21
5.1225533483
  0
LINE
  5
2D4
100
AcDbEntity
  8
THREAD
100
AcDbLine
 62
7
  6
CONTINUOUS
 10
6.5345110744
 20
3.6744231826
 11
6.2873730343
 21
3.6744231826
  0
LINE
  5
2D5
100
AcDbEntity
  8
0
100
AcDbLine
 62
7
  6
CONTINUOUS
 10
5.6130110744
 20
3.6879231826
 11
5.6050110744
 21
3.6879231826
  0
LINE
  5
2D6
100
AcDbEntity
  8
0
100
AcDbLine
 62
7
  6
CONTINUOUS
 10
4.8920110744
 20
3.6884231826
 11
4.5410110744
 21
3.6884231826
  0
LINE
  5
2D7
100
AcDbEntity
  8
0
100
AcDbLine
 62
7
  6
CONTINUOUS
 10
4.4930110744
 20
3.6884231826
 11
4.4420110744
 21
3.6884231826
  0
LINE
  5
2D8
100
AcDbEntity
  8
THREAD
100
AcDbLine
 62
7
  6
CONTINUOUS
 10
6.2585055209
 20
3.7114231826
 11
6.2460110744
 21
3.7114231826
  0
LINE
  5
2D9
100
AcDbEntity
  8
0
100
AcDbLine
 62
7
  6
CONTINUOUS
 10
4.5280110744
 20
3.7119231826
 11
4.5060110744
 21
3.7119231826
  0
LINE
  5
2DA
100
AcDbEntity
  8
THREAD
100
AcDbLine
 62
7
  6
CONTINUOUS
 10
6.7570110744
 20
3.7189231826
 11
6.5790110744
 21
3.7189231826
  0
LINE
  5
2DB
100
AcDbEntity
  8
0
100
AcDbLine
 62
7
  6
CONTINUOUS
 10
6.0013693676
 20
3.7189231826
 11
5.6984207303
 21
3.7189231826
  0
LINE
  5
2DC
100
AcDbEntity
  8
0
100
AcDbLine
 62
7
  6
CONTINUOUS
 10
7.4390110744
 20
3.7194231826
 11
7.3920110744
 21
3.7194231826
  0
LINE
  5
2DD
100
AcDbEntity
  8
0
100
AcDbLine
 62
7
  6
CONTINUOUS
 10
7.2410110744
 20
3.7194231826
 11
7.1780110744
 21
3.7194231826
  0
LINE
  5
2DE
100
AcDbEntity
  8
0
100
AcDbLine
 62
7
  6
CONTINUOUS
 10
7.2460110744
 20
3.7199231826
 11
7.2960110744
 21
3.7199231826
  0
LINE
  5
2DF
100
AcDbEntity
  8
0
100
AcDbLine
 62
7
  6
CONTINUOUS
 10
7.3660110744
 20
3.7739231826
 11
7.3870110744
 21
3.7739231826
  0
LINE
  5
2E0
100
AcDbEntity
  8
0
100
AcDbLine
 62
7
  6
CONTINUOUS
 10
4.1850110744
 20
3.7809231826
 11
4.3552347961
 21
3.7809231826
  0
LINE
  5
2E1
100
AcDbEntity
  8
0
100
AcDbLine
 62
7
  6
CONTINUOUS
 10
6.7670110744
 20
3.7819231826
 11
6.7795110744
 21
3.7819231826
  0
LINE
  5
2E2
100
AcDbEntity
  8
0
100
AcDbLine
 62
7
  6
CONTINUOUS
 10
6.8265110744
 20
3.7819231826
 11
7.1730110744
 21
3.7819231826
  0
LINE
  5
2E3
100
AcDbEntity
  8
0
100
AcDbLine
 62
7
  6
CONTINUOUS
 10
4.3920110744
 20
3.7909231826
 11
4.3610110744
 21
3.7909231826
  0
LINE
  5
2E4
100
AcDbEntity
  8
0
100
AcDbLine
 62
7
  6
CONTINUOUS
 10
4.1480110744
 20
3.7909231826
 11
4.1420110744
 21
3.7909231826
  0
LINE
  5
2E5
100
AcDbEntity
  8
0
100
AcDbLine
 62
7
  6
CONTINUOUS
 10
5.2995110744
 20
3.7922256551
 11
4.9260747402
 21
3.7922256551
  0
LINE
  5
2E6
100
AcDbEntity
  8
0
100
AcDbLine
 62
7
  6
CONTINUOUS
 10
4.1695110744
 20
3.7964231826
 11
4.1535110744
 21
3.7964231826
  0
LINE
  5
2E7
100
AcDbEntity
  8
03__ASM_ALL_CURVES
100
AcDbLine
 62
40
  6
CONTINUOUS
 10
5.9565559985
 20
3.4679231826
 11
5.965635686
 21
3.461870059
  0
LINE
  5
2E8
100
AcDbEntity
  8
03__ASM_ALL_CURVES
100
AcDbLine
 62
40
  6
CONTINUOUS
 10
4.4360579494
 20
5.0902700162
 11
4.4421110744
 21
5.0821991826
  0
LINE
  5
2E9
100
AcDbEntity
  8
03__ASM_ALL_CURVES
100
AcDbLine
 62
40
  6
CONTINUOUS
 10
5.7204841235
 20
3.4013388078
 11
5.711404436
 21
3.4134450576
  0
LINE
  5
2EA
100
AcDbEntity
  8
03__ASM_ALL_CURVES
100
AcDbLine
 62
40
  6
CONTINUOUS
 10
5.675085686
 20
3.461870059
 11
5.6796255297
 21
3.4558169312
  0
LINE
  5
2EB
100
AcDbEntity
  8
03__ASM_ALL_CURVES
100
AcDbLine
 62
40
  6
CONTINUOUS
 10
5.747723186
 20
3.461870059
 11
5.7568028735
 21
3.4497638076
  0
LINE
  5
2EC
100
AcDbEntity
  8
03__ASM_ALL_CURVES
100
AcDbLine
 62
40
  6
CONTINUOUS
 10
5.820360686
 20
3.461870059
 11
5.8249005297
 21
3.4558169312
  0
LINE
  5
2ED
100
AcDbEntity
  8
03__ASM_ALL_CURVES
100
AcDbLine
 62
40
  6
CONTINUOUS
 10
4.6237048244
 20
5.0902700162
 11
4.6176516994
 21
5.0983408497
  0
LINE
  5
2EE
100
AcDbEntity
  8
03__ASM_ALL_CURVES
100
AcDbLine
 62
40
  6
CONTINUOUS
 10
4.8476704494
 20
5.1306241826
 11
4.8537235744
 21
5.1144825169
  0
LINE
  5
2EF
100
AcDbEntity
  8
0
100
AcDbLine
 62
7
  6
CONTINUOUS
 10
5.3600110744
 20
3.6334231826
 11
5.3600110744
 21
4.4904231826
  0
LINE
  5
2F0
100
AcDbEntity
  8
0
100
AcDbLine
 62
7
  6
CONTINUOUS
 10
5.4850110744
 20
3.6334231826
 11
5.4850110744
 21
4.4904231826
  0
LINE
  5
2F1
100
AcDbEntity
  8
03__ASM_ALL_CURVES
100
AcDbLine
 62
40
  6
CONTINUOUS
 10
6.3368741993
 20
5.1709783512
 11
6.3489804493
 21
5.1790491826
  0
LINE
  5
2F2
100
AcDbEntity
  8
03__ASM_ALL_CURVES
100
AcDbLine
 62
40
  6
CONTINUOUS
 10
6.4337241993
 20
5.1709783512
 11
6.4458304493
 21
5.1790491826
  0
LINE
  5
2F3
100
AcDbEntity
  8
03__ASM_ALL_CURVES
100
AcDbLine
 62
40
  6
CONTINUOUS
 10
6.3731929493
 20
5.0902700162
 11
6.3610866993
 21
5.0821991826
  0
LINE
  5
2F4
100
AcDbEntity
  8
0
100
AcDbLine
 62
7
  6
CONTINUOUS
 10
5.2995110744
 20
3.8435182376
 11
4.9260747402
 21
3.8435182376
  0
LINE
  5
2F5
100
AcDbEntity
  8
0
100
AcDbLine
 62
7
  6
CONTINUOUS
 10
3.6110110744
 20
3.8779231826
 11
3.8100110744
 21
3.8779231826
  0
LINE
  5
2F6
100
AcDbEntity
  8
0
100
AcDbLine
 62
7
  6
CONTINUOUS
 10
3.8480110744
 20
3.8779231826
 11
4.0800110744
 21
3.8779231826
  0
LINE
  5
2F7
100
AcDbEntity
  8
0
100
AcDbLine
 62
7
  6
CONTINUOUS
 10
3.8100110744
 20
3.9109231826
 11
3.8115110744
 21
3.9109231826
  0
LINE
  5
2F8
100
AcDbEntity
  8
0
100
AcDbLine
 62
7
  6
CONTINUOUS
 10
3.8465110744
 20
3.9109231826
 11
3.8480110744
 21
3.9109231826
  0
LINE
  5
2F9
100
AcDbEntity
  8
03__ASM_ALL_CURVES
100
AcDbLine
 62
40
  6
CONTINUOUS
 10
5.9383966235
 20
3.4013388078
 11
5.9338567797
 21
3.407391933
  0
LINE
  5
2FA
100
AcDbEntity
  8
03__ASM_ALL_CURVES
100
AcDbLine
 62
40
  6
CONTINUOUS
 10
4.6479173244
 20
5.1709783512
 11
4.6539704494
 21
5.162907514
  0
LINE
  5
2FB
100
AcDbEntity
  8
03__ASM_ALL_CURVES
100
AcDbLine
 62
40
  6
CONTINUOUS
 10
5.965635686
 20
3.4316044326
 11
5.9747153735
 21
3.4194981833
  0
LINE
  5
2FC
100
AcDbEntity
  8
03__ASM_ALL_CURVES
100
AcDbLine
 62
40
  6
CONTINUOUS
 10
4.7266079494
 20
5.0983408497
 11
4.7387141994
 21
5.0821991826
  0
LINE
  5
2FD
100
AcDbEntity
  8
03__ASM_ALL_CURVES
100
AcDbLine
 62
40
  6
CONTINUOUS
 10
5.965635686
 20
3.461870059
 11
5.9701755297
 21
3.4558169312
  0
LINE
  5
2FE
100
AcDbEntity
  8
03__ASM_ALL_CURVES
100
AcDbLine
 62
40
  6
CONTINUOUS
 10
4.8174048244
 20
5.0902700162
 11
4.8113516994
 21
5.0983408497
  0
LINE
  5
2FF
100
AcDbEntity
  8
03__ASM_ALL_CURVES
100
AcDbLine
 62
40
  6
CONTINUOUS
 10
5.711404436
 20
3.4134450576
 11
5.7068645922
 21
3.4316044326
  0
LINE
  5
300
100
AcDbEntity
  8
0
100
AcDbLine
 62
7
  6
CONTINUOUS
 10
5.5350110744
 20
3.6339238333
 11
5.5350110744
 21
4.4899225319
  0
LINE
  5
301
100
AcDbEntity
  8
0
100
AcDbLine
 62
7
  6
CONTINUOUS
 10
5.6050110744
 20
4.4709231826
 11
5.6050110744
 21
3.6529231826
  0
LINE
  5
302
100
AcDbEntity
  8
0
100
AcDbLine
 62
7
  6
CONTINUOUS
 10
5.6130110744
 20
3.6879231826
 11
5.6130110744
 21
4.4359231826
  0
LINE
  5
303
100
AcDbEntity
  8
0
100
AcDbLine
 62
7
  6
CONTINUOUS
 10
5.6260110744
 20
3.6334231826
 11
5.6260110744
 21
4.4904231826
  0
LINE
  5
304
100
AcDbEntity
  8
03__ASM_ALL_CURVES
100
AcDbLine
 62
40
  6
CONTINUOUS
 10
5.6433067797
 20
3.3952856826
 11
5.6433067797
 21
3.4679231826
  0
LINE
  5
305
100
AcDbEntity
  8
03__ASM_ALL_CURVES
100
AcDbLine
 62
40
  6
CONTINUOUS
 10
6.4700429493
 20
5.0902700162
 11
6.4579366993
 21
5.0821991826
  0
LINE
  5
306
100
AcDbEntity
  8
0
100
AcDbLine
 62
7
  6
CONTINUOUS
 10
4.330139664
 20
4.0619231826
 11
4.2284819256
 21
4.0619231826
  0
LINE
  5
307
100
AcDbEntity
  8
03__ASM_ALL_CURVES
100
AcDbLine
 62
40
  6
CONTINUOUS
 10
7.8093477935
 20
4.0812931826
 11
7.800268106
 21
4.0812931826
  0
LINE
  5
308
100
AcDbEntity
  8
03__ASM_ALL_CURVES
100
AcDbLine
 62
40
  6
CONTINUOUS
 10
7.8819852935
 20
4.1176119326
 11
7.8592860748
 21
4.1176119326
  0
LINE
  5
309
100
AcDbEntity
  8
03__ASM_ALL_CURVES
100
AcDbLine
 62
40
  6
CONTINUOUS
 10
7.7367102935
 20
4.1176119326
 11
7.7140110748
 21
4.1176119326
  0
LINE
  5
30A
100
AcDbEntity
  8
0
100
AcDbLine
 62
7
  6
CONTINUOUS
 10
5.3600110744
 20
4.4904231826
 11
5.2999598381
 21
4.5504744188
  0
LINE
  5
30B
100
AcDbEntity
  8
03__ASM_ALL_CURVES
100
AcDbLine
 62
40
  6
CONTINUOUS
 10
4.8416173244
 20
5.1709783512
 11
4.8476704494
 21
5.162907514
  0
LINE
  5
30C
100
AcDbEntity
  8
03__ASM_ALL_CURVES
100
AcDbLine
 62
40
  6
CONTINUOUS
 10
4.9082016994
 20
5.0902700162
 11
4.9021485744
 21
5.0983408497
  0
LINE
  5
30D
100
AcDbEntity
  8
03__ASM_ALL_CURVES
100
AcDbLine
 62
40
  6
CONTINUOUS
 10
4.9445204494
 20
5.1306241826
 11
4.9566266994
 21
5.1144825169
  0
LINE
  5
30E
100
AcDbEntity
  8
03__ASM_ALL_CURVES
100
AcDbLine
 62
40
  6
CONTINUOUS
 10
4.9445204494
 20
5.1709783512
 11
4.9505735744
 21
5.162907514
  0
LINE
  5
30F
100
AcDbEntity
  8
03__ASM_ALL_CURVES
100
AcDbLine
 62
40
  6
CONTINUOUS
 10
5.0171579494
 20
5.0902700162
 11
5.0232110744
 21
5.0821991826
  0
LINE
  5
310
100
AcDbEntity
  8
03__ASM_ALL_CURVES
100
AcDbLine
 62
40
  6
CONTINUOUS
 10
5.8112809985
 20
3.4316044326
 11
5.8249005297
 21
3.3952856826
  0
LINE
  5
311
100
AcDbEntity
  8
03__ASM_ALL_CURVES
100
AcDbLine
 62
40
  6
CONTINUOUS
 10
5.3198141994
 20
5.162907514
 11
5.3258673244
 21
5.138695014
  0
LINE
  5
312
100
AcDbEntity
  8
03__ASM_ALL_CURVES
100
AcDbLine
 62
40
  6
CONTINUOUS
 10
5.7568028735
 20
3.4497638076
 11
5.7613427172
 21
3.4316044326
  0
LINE
  5
313
100
AcDbEntity
  8
0
100
AcDbLine
 62
7
  6
CONTINUOUS
 10
5.6755110744
 20
3.6334231826
 11
5.6755110744
 21
4.4904231826
  0
LINE
  5
314
100
AcDbEntity
  8
03__ASM_ALL_CURVES
100
AcDbLine
 62
40
  6
CONTINUOUS
 10
5.6796255297
 20
3.4558169312
 11
5.6796255297
 21
3.443710684
  0
LINE
  5
315
100
AcDbEntity
  8
0
100
AcDbLine
 62
7
  6
CONTINUOUS
 10
5.6984207303
 20
3.7189231826
 11
5.6984207303
 21
4.4049231826
  0
LINE
  5
316
100
AcDbEntity
  8
03__ASM_ALL_CURVES
100
AcDbLine
 62
40
  6
CONTINUOUS
 10
5.7885817797
 20
3.3952856826
 11
5.7885817797
 21
3.4679231826
  0
LINE
  5
317
100
AcDbEntity
  8
03__ASM_ALL_CURVES
100
AcDbLine
 62
40
  6
CONTINUOUS
 10
6.3247679493
 20
5.1548366826
 11
6.3368741993
 21
5.1709783512
  0
LINE
  5
318
100
AcDbEntity
  8
03__ASM_ALL_CURVES
100
AcDbLine
 62
40
  6
CONTINUOUS
 10
6.3852991993
 20
5.1064116826
 11
6.3731929493
 21
5.0902700162
  0
LINE
  5
319
100
AcDbEntity
  8
03__ASM_ALL_CURVES
100
AcDbLine
 62
40
  6
CONTINUOUS
 10
6.4216179493
 20
5.1548366826
 11
6.4337241993
 21
5.1709783512
  0
LINE
  5
31A
100
AcDbEntity
  8
03__ASM_ALL_CURVES
100
AcDbLine
 62
40
  6
CONTINUOUS
 10
6.9179741993
 20
5.1709783512
 11
6.9300804493
 21
5.1790491826
  0
LINE
  5
31B
100
AcDbEntity
  8
03__ASM_ALL_CURVES
100
AcDbLine
 62
40
  6
CONTINUOUS
 10
6.9542929493
 20
5.0902700162
 11
6.9421866993
 21
5.0821991826
  0
LINE
  5
31C
100
AcDbEntity
  8
03__ASM_ALL_CURVES
100
AcDbLine
 62
40
  6
CONTINUOUS
 10
7.1237804493
 20
5.1790491826
 11
7.1116741993
 21
5.1709783512
  0
LINE
  5
31D
100
AcDbEntity
  8
03__ASM_ALL_CURVES
100
AcDbLine
 62
40
  6
CONTINUOUS
 10
7.7140110748
 20
4.1539306826
 11
7.7367102935
 21
4.1539306826
  0
LINE
  5
31E
100
AcDbEntity
  8
03__ASM_ALL_CURVES
100
AcDbLine
 62
40
  6
CONTINUOUS
 10
7.800268106
 20
4.1539306826
 11
7.8093477935
 21
4.1539306826
  0
LINE
  5
31F
100
AcDbEntity
  8
03__ASM_ALL_CURVES
100
AcDbLine
 62
40
  6
CONTINUOUS
 10
7.8592860748
 20
4.1539306826
 11
7.8819852935
 21
4.1539306826
  0
LINE
  5
320
100
AcDbEntity
  8
03__ASM_ALL_CURVES
100
AcDbLine
 62
40
  6
CONTINUOUS
 10
7.927383731
 20
4.1539306826
 11
7.9727821685
 21
4.1539306826
  0
LINE
  5
321
100
AcDbEntity
  8
0
100
AcDbLine
 62
7
  6
CONTINUOUS
 10
3.8100110744
 20
4.2129231826
 11
3.8480110744
 21
4.2129231826
  0
LINE
  5
322
100
AcDbEntity
  8
0
100
AcDbLine
 62
7
  6
CONTINUOUS
 10
3.6110110744
 20
4.2459231826
 11
3.8100110744
 21
4.2459231826
  0
LINE
  5
323
100
AcDbEntity
  8
0
100
AcDbLine
 62
7
  6
CONTINUOUS
 10
3.8480110744
 20
4.2459231826
 11
4.0800110744
 21
4.2459231826
  0
LINE
  5
324
100
AcDbEntity
  8
0
100
AcDbLine
 62
7
  6
CONTINUOUS
 10
5.2995110744
 20
4.2803281276
 11
4.9260747402
 21
4.2803281276
  0
LINE
  5
325
100
AcDbEntity
  8
03__ASM_ALL_CURVES
100
AcDbLine
 62
40
  6
CONTINUOUS
 10
6.9518337496
 20
3.3952856826
 11
6.9427540621
 21
3.4013388078
  0
LINE
  5
326
100
AcDbEntity
  8
03__ASM_ALL_CURVES
100
AcDbLine
 62
40
  6
CONTINUOUS
 10
6.8882759371
 20
3.4679231826
 11
6.8973556246
 21
3.461870059
  0
LINE
  5
327
100
AcDbEntity
  8
03__ASM_ALL_CURVES
100
AcDbLine
 62
40
  6
CONTINUOUS
 10
4.3513141994
 20
5.1790491826
 11
4.3634204494
 21
5.1709783512
  0
LINE
  5
328
100
AcDbEntity
  8
03__ASM_ALL_CURVES
100
AcDbLine
 62
40
  6
CONTINUOUS
 10
6.9609134371
 20
3.4679231826
 11
6.9699931246
 21
3.461870059
  0
LINE
  5
329
100
AcDbEntity
  8
03__ASM_ALL_CURVES
100
AcDbLine
 62
40
  6
CONTINUOUS
 10
7.0335509371
 20
3.4679231826
 11
7.0426306246
 21
3.461870059
  0
LINE
  5
32A
100
AcDbEntity
  8
03__ASM_ALL_CURVES
100
AcDbLine
 62
40
  6
CONTINUOUS
 10
4.6358110744
 20
5.0821991826
 11
4.6237048244
 21
5.0902700162
  0
LINE
  5
32B
100
AcDbEntity
  8
03__ASM_ALL_CURVES
100
AcDbLine
 62
40
  6
CONTINUOUS
 10
5.1382204494
 20
5.1709783512
 11
5.1442735744
 21
5.162907514
  0
LINE
  5
32C
100
AcDbEntity
  8
0
100
AcDbLine
 62
7
  6
CONTINUOUS
 10
5.6984207303
 20
4.4049231826
 11
5.6755110744
 21
4.4904231826
  0
LINE
  5
32D
100
AcDbEntity
  8
03__ASM_ALL_CURVES
100
AcDbLine
 62
40
  6
CONTINUOUS
 10
5.8249005297
 20
3.4558169312
 11
5.8249005297
 21
3.443710684
  0
LINE
  5
32E
100
AcDbEntity
  8
03__ASM_ALL_CURVES
100
AcDbLine
 62
40
  6
CONTINUOUS
 10
5.8793786547
 20
3.4679231826
 11
5.8793786547
 21
3.3952856826
  0
LINE
  5
32F
100
AcDbEntity
  8
03__ASM_ALL_CURVES
100
AcDbLine
 62
40
  6
CONTINUOUS
 10
5.9627910744
 20
5.0628291826
 11
5.9627910744
 21
5.0240891826
  0
LINE
  5
330
100
AcDbEntity
  8
03__ASM_ALL_CURVES
100
AcDbLine
 62
40
  6
CONTINUOUS
 10
5.9701755297
 20
3.4558169312
 11
5.9701755297
 21
3.4497638076
  0
LINE
  5
331
100
AcDbEntity
  8
03__ASM_ALL_CURVES
100
AcDbLine
 62
40
  6
CONTINUOUS
 10
5.9747153735
 20
3.4194981833
 11
5.9747153735
 21
3.4134450576
  0
LINE
  5
332
100
AcDbEntity
  8
03__ASM_ALL_CURVES
100
AcDbLine
 62
40
  6
CONTINUOUS
 10
5.7068645922
 20
3.4316044326
 11
5.711404436
 21
3.4497638076
  0
LINE
  5
333
100
AcDbEntity
  8
03__ASM_ALL_CURVES
100
AcDbLine
 62
40
  6
CONTINUOUS
 10
5.7613427172
 20
3.4316044326
 11
5.7568028735
 21
3.4134450576
  0
LINE
  5
334
100
AcDbEntity
  8
0
100
AcDbLine
 62
7
  6
CONTINUOUS
 10
5.6984207303
 20
3.7189231826
 11
5.6755110744
 21
3.6334231826
  0
LINE
  5
335
100
AcDbEntity
  8
0
100
AcDbLine
 62
7
  6
CONTINUOUS
 10
6.0240110744
 20
4.4894231826
 11
6.0013693676
 21
4.4049231826
  0
LINE
  5
336
100
AcDbEntity
  8
03__ASM_ALL_CURVES
100
AcDbLine
 62
40
  6
CONTINUOUS
 10
6.4760960743
 20
5.0983408497
 11
6.4700429493
 21
5.0902700162
  0
LINE
  5
337
100
AcDbEntity
  8
0
100
AcDbLine
 62
7
  6
CONTINUOUS
 10
5.3600110744
 20
3.6334231826
 11
5.2999598381
 21
3.5733719463
  0
LINE
  5
338
100
AcDbEntity
  8
03__ASM_ALL_CURVES
100
AcDbLine
 62
40
  6
CONTINUOUS
 10
7.1479929493
 20
5.0902700162
 11
7.1358866993
 21
5.0821991826
  0
LINE
  5
339
100
AcDbEntity
  8
03__ASM_ALL_CURVES
100
AcDbLine
 62
40
  6
CONTINUOUS
 10
7.3053741993
 20
5.1709783512
 11
7.3174804493
 21
5.1790491826
  0
LINE
  5
33A
100
AcDbEntity
  8
0
100
AcDbLine
 62
7
  6
CONTINUOUS
 10
4.1695110744
 20
4.3274231826
 11
4.1535110744
 21
4.3274231826
  0
LINE
  5
33B
100
AcDbEntity
  8
0
100
AcDbLine
 62
7
  6
CONTINUOUS
 10
5.2995110744
 20
4.3316207101
 11
4.9260747402
 21
4.3316207101
  0
LINE
  5
33C
100
AcDbEntity
  8
0
100
AcDbLine
 62
7
  6
CONTINUOUS
 10
4.3920110744
 20
4.3329231826
 11
4.3610110744
 21
4.3329231826
  0
LINE
  5
33D
100
AcDbEntity
  8
0
100
AcDbLine
 62
7
  6
CONTINUOUS
 10
4.1480110744
 20
4.3329231826
 11
4.1420110744
 21
4.3329231826
  0
LINE
  5
33E
100
AcDbEntity
  8
0
100
AcDbLine
 62
7
  6
CONTINUOUS
 10
6.7670110744
 20
4.3419231826
 11
6.7795110744
 21
4.3419231826
  0
LINE
  5
33F
100
AcDbEntity
  8
0
100
AcDbLine
 62
7
  6
CONTINUOUS
 10
6.8265110744
 20
4.3419231826
 11
7.1730110744
 21
4.3419231826
  0
LINE
  5
340
100
AcDbEntity
  8
0
100
AcDbLine
 62
7
  6
CONTINUOUS
 10
4.1850110744
 20
4.3429231826
 11
4.3552347961
 21
4.3429231826
  0
LINE
  5
341
100
AcDbEntity
  8
0
100
AcDbLine
 62
7
  6
CONTINUOUS
 10
7.3660110744
 20
4.3499231826
 11
7.3870110744
 21
4.3499231826
  0
LINE
  5
342
100
AcDbEntity
  8
0
100
AcDbLine
 62
7
  6
CONTINUOUS
 10
7.2460110744
 20
4.4039231826
 11
7.2960110744
 21
4.4039231826
  0
LINE
  5
343
100
AcDbEntity
  8
0
100
AcDbLine
 62
7
  6
CONTINUOUS
 10
7.4390110744
 20
4.4044231826
 11
7.3920110744
 21
4.4044231826
  0
LINE
  5
344
100
AcDbEntity
  8
0
100
AcDbLine
 62
7
  6
CONTINUOUS
 10
7.2410110744
 20
4.4044231826
 11
7.1780110744
 21
4.4044231826
  0
LINE
  5
345
100
AcDbEntity
  8
THREAD
100
AcDbLine
 62
7
  6
CONTINUOUS
 10
6.7570110744
 20
4.4049231826
 11
6.5790110744
 21
4.4049231826
  0
LINE
  5
346
100
AcDbEntity
  8
0
100
AcDbLine
 62
7
  6
CONTINUOUS
 10
6.0013693676
 20
4.4049231826
 11
5.6984207303
 21
4.4049231826
  0
LINE
  5
347
100
AcDbEntity
  8
0
100
AcDbLine
 62
7
  6
CONTINUOUS
 10
4.5280110744
 20
4.4119231826
 11
4.5060110744
 21
4.4119231826
  0
LINE
  5
348
100
AcDbEntity
  8
THREAD
100
AcDbLine
 62
7
  6
CONTINUOUS
 10
6.2585055209
 20
4.4124231826
 11
6.2460110744
 21
4.4124231826
  0
LINE
  5
349
100
AcDbEntity
  8
0
100
AcDbLine
 62
7
  6
CONTINUOUS
 10
4.8920110744
 20
4.4354231826
 11
4.5410110744
 21
4.4354231826
  0
LINE
  5
34A
100
AcDbEntity
  8
0
100
AcDbLine
 62
7
  6
CONTINUOUS
 10
4.4930110744
 20
4.4354231826
 11
4.4420110744
 21
4.4354231826
  0
LINE
  5
34B
100
AcDbEntity
  8
0
100
AcDbLine
 62
7
  6
CONTINUOUS
 10
5.6130110744
 20
4.4359231826
 11
5.6050110744
 21
4.4359231826
  0
LINE
  5
34C
100
AcDbEntity
  8
THREAD
100
AcDbLine
 62
7
  6
CONTINUOUS
 10
6.5345110744
 20
4.4494231826
 11
6.2873730343
 21
4.4494231826
  0
LINE
  5
34D
100
AcDbEntity
  8
0
100
AcDbLine
 62
7
  6
CONTINUOUS
 10
6.1960110744
 20
4.4664231826
 11
6.2460110744
 21
4.4664231826
  0
LINE
  5
34E
100
AcDbEntity
  8
THREAD
100
AcDbLine
 62
7
  6
CONTINUOUS
 10
6.1260110744
 20
4.4669231826
 11
6.1037335062
 21
4.4669231826
  0
LINE
  5
34F
100
AcDbEntity
  8
03__ASM_ALL_CURVES
100
AcDbLine
 62
40
  6
CONTINUOUS
 10
7.1788259371
 20
3.4679231826
 11
7.1879056246
 21
3.461870059
  0
LINE
  5
350
100
AcDbEntity
  8
03__ASM_ALL_CURVES
100
AcDbLine
 62
40
  6
CONTINUOUS
 10
4.6358110744
 20
5.1790491826
 11
4.6479173244
 21
5.1709783512
  0
LINE
  5
351
100
AcDbEntity
  8
03__ASM_ALL_CURVES
100
AcDbLine
 62
40
  6
CONTINUOUS
 10
4.8295110744
 20
5.0821991826
 11
4.8174048244
 21
5.0902700162
  0
LINE
  5
352
100
AcDbEntity
  8
03__ASM_ALL_CURVES
100
AcDbLine
 62
40
  6
CONTINUOUS
 10
4.9203079494
 20
5.0821991826
 11
4.9082016994
 21
5.0902700162
  0
LINE
  5
353
100
AcDbEntity
  8
03__ASM_ALL_CURVES
100
AcDbLine
 62
40
  6
CONTINUOUS
 10
5.3077079494
 20
5.1790491826
 11
5.3198141994
 21
5.162907514
  0
LINE
  5
354
100
AcDbEntity
  8
THREAD
100
AcDbLine
 62
7
  6
CONTINUOUS
 10
6.2873730343
 20
3.6744231826
 11
6.2697638511
 21
3.7049231826
  0
LINE
  5
355
100
AcDbEntity
  8
0
100
AcDbLine
 62
7
  6
CONTINUOUS
 10
6.0240110744
 20
3.6344231826
 11
6.0013693676
 21
3.7189231826
  0
LINE
  5
356
100
AcDbEntity
  8
0
100
AcDbLine
 62
7
  6
CONTINUOUS
 10
6.0013693676
 20
3.7189231826
 11
6.0013693676
 21
4.4049231826
  0
LINE
  5
357
100
AcDbEntity
  8
0
100
AcDbLine
 62
7
  6
CONTINUOUS
 10
6.0240110744
 20
3.6344231826
 11
6.0240110744
 21
4.4894231826
  0
LINE
  5
358
100
AcDbEntity
  8
0
100
AcDbLine
 62
7
  6
CONTINUOUS
 10
6.0760110744
 20
4.4894231826
 11
6.0760110744
 21
3.6344231826
  0
LINE
  5
359
100
AcDbEntity
  8
0
100
AcDbLine
 62
7
  6
CONTINUOUS
 10
6.0790110744
 20
4.4864231826
 11
6.0790110744
 21
3.6374231826
  0
LINE
  5
35A
100
AcDbEntity
  8
03__ASM_ALL_CURVES
100
AcDbLine
 62
40
  6
CONTINUOUS
 10
6.0790110744
 20
4.5097931826
 11
6.0790110744
 21
5.0821991826
  0
LINE
  5
35B
100
AcDbEntity
  8
0
100
AcDbLine
 62
7
  6
CONTINUOUS
 10
6.0815110744
 20
3.6448665583
 11
6.0815110744
 21
4.4789798069
  0
LINE
  5
35C
100
AcDbEntity
  8
0
100
AcDbLine
 62
7
  6
CONTINUOUS
 10
6.1012335062
 20
3.6562533096
 11
6.1012335062
 21
4.4675930556
  0
LINE
  5
35D
100
AcDbEntity
  8
0
100
AcDbLine
 62
7
  6
CONTINUOUS
 10
6.1037335062
 20
3.6569231826
 11
6.1037335062
 21
4.4669231826
  0
LINE
  5
35E
100
AcDbEntity
  8
0
100
AcDbLine
 62
7
  6
CONTINUOUS
 10
6.1260110744
 20
4.4709231826
 11
6.1260110744
 21
3.6529231826
  0
LINE
  5
35F
100
AcDbEntity
  8
THREAD
100
AcDbLine
 62
7
  6
CONTINUOUS
 10
6.1260110744
 20
3.6569231826
 11
6.1260110744
 21
4.4669231826
  0
LINE
  5
360
100
AcDbEntity
  8
03__ASM_ALL_CURVES
100
AcDbLine
 62
40
  6
CONTINUOUS
 10
6.3187148243
 20
5.1306241826
 11
6.3247679493
 21
5.1548366826
  0
LINE
  5
361
100
AcDbEntity
  8
THREAD
100
AcDbLine
 62
7
  6
CONTINUOUS
 10
6.2873730343
 20
4.4494231826
 11
6.2697638511
 21
4.4189231826
  0
LINE
  5
362
100
AcDbEntity
  8
03__ASM_ALL_CURVES
100
AcDbLine
 62
40
  6
CONTINUOUS
 10
7.3416929493
 20
5.0902700162
 11
7.3295866993
 21
5.0821991826
  0
LINE
  5
363
100
AcDbEntity
  8
03__ASM_ALL_CURVES
100
AcDbLine
 62
40
  6
CONTINUOUS
 10
7.4385429493
 20
5.0902700162
 11
7.4264366993
 21
5.0821991826
  0
LINE
  5
364
100
AcDbEntity
  8
0
100
AcDbLine
 62
7
  6
CONTINUOUS
 10
6.0760110744
 20
4.4894231826
 11
6.0240110744
 21
4.4894231826
  0
LINE
  5
365
100
AcDbEntity
  8
0
100
AcDbLine
 62
7
  6
CONTINUOUS
 10
5.4850110744
 20
4.4899231826
 11
5.5350110744
 21
4.4899231826
  0
LINE
  5
366
100
AcDbEntity
  8
0
100
AcDbLine
 62
7
  6
CONTINUOUS
 10
5.6755110744
 20
4.4904231826
 11
5.6260110744
 21
4.4904231826
  0
LINE
  5
367
100
AcDbEntity
  8
0
100
AcDbLine
 62
7
  6
CONTINUOUS
 10
5.4850110744
 20
4.4904231826
 11
5.3600110744
 21
4.4904231826
  0
LINE
  5
368
100
AcDbEntity
  8
0
100
AcDbLine
 62
7
  6
CONTINUOUS
 10
5.2995110744
 20
4.5500256551
 11
4.9260747402
 21
4.5500256551
  0
LINE
  5
369
100
AcDbEntity
  8
0
100
AcDbLine
 62
7
  6
CONTINUOUS
 10
5.2995110744
 20
4.5509231826
 11
4.9260747402
 21
4.5509231826
  0
LINE
  5
36A
100
AcDbEntity
  8
03__ASM_ALL_CURVES
100
AcDbLine
 62
40
  6
CONTINUOUS
 10
4.6358110744
 20
5.1225533483
 11
4.6176516994
 21
5.1306241826
  0
LINE
  5
36B
100
AcDbEntity
  8
THREAD
100
AcDbLine
 62
7
  6
CONTINUOUS
 10
6.1012335062
 20
4.4675930556
 11
6.0815110744
 21
4.4789798069
  0
LINE
  5
36C
100
AcDbEntity
  8
03__ASM_ALL_CURVES
100
AcDbLine
 62
40
  6
CONTINUOUS
 10
4.8295110744
 20
5.1790491826
 11
4.8416173244
 21
5.1709783512
  0
LINE
  5
36D
100
AcDbEntity
  8
03__ASM_ALL_CURVES
100
AcDbLine
 62
40
  6
CONTINUOUS
 10
4.9324141994
 20
5.138695014
 11
4.9445204494
 21
5.1306241826
  0
LINE
  5
36E
100
AcDbEntity
  8
03__ASM_ALL_CURVES
100
AcDbLine
 62
40
  6
CONTINUOUS
 10
4.9324141994
 20
5.1790491826
 11
4.9445204494
 21
5.1709783512
  0
LINE
  5
36F
100
AcDbEntity
  8
03__ASM_ALL_CURVES
100
AcDbLine
 62
40
  6
CONTINUOUS
 10
6.1952310744
 20
5.0628291826
 11
6.1952310744
 21
5.0240891826
  0
LINE
  5
370
100
AcDbEntity
  8
0
100
AcDbLine
 62
7
  6
CONTINUOUS
 10
6.1960110744
 20
4.4709231826
 11
6.1960110744
 21
3.6529231826
  0
LINE
  5
371
100
AcDbEntity
  8
03__ASM_ALL_CURVES
100
AcDbLine
 62
40
  6
CONTINUOUS
 10
6.2339710743
 20
5.1790491826
 11
6.2339710743
 21
5.0821991826
  0
LINE
  5
372
100
AcDbEntity
  8
0
100
AcDbLine
 62
7
  6
CONTINUOUS
 10
6.2460110744
 20
3.6574237976
 11
6.2460110744
 21
4.4664225676
  0
LINE
  5
373
100
AcDbEntity
  8
0
100
AcDbLine
 62
7
  6
CONTINUOUS
 10
6.2585055209
 20
3.7114231826
 11
6.2585055209
 21
4.4124231826
  0
LINE
  5
374
100
AcDbEntity
  8
0
100
AcDbLine
 62
7
  6
CONTINUOUS
 10
6.2697638511
 20
3.7049231826
 11
6.2697638511
 21
4.4189231826
  0
LINE
  5
375
100
AcDbEntity
  8
THREAD
100
AcDbLine
 62
7
  6
CONTINUOUS
 10
6.2873730343
 20
3.6744231826
 11
6.2873730343
 21
4.4494231826
  0
LINE
  5
376
100
AcDbEntity
  8
03__ASM_ALL_CURVES
100
AcDbLine
 62
40
  6
CONTINUOUS
 10
6.3913523243
 20
5.1306241826
 11
6.3852991993
 21
5.1064116826
  0
LINE
  5
377
100
AcDbEntity
  8
03__ASM_ALL_CURVES
100
AcDbLine
 62
40
  6
CONTINUOUS
 10
6.4155648243
 20
5.1306241826
 11
6.4216179493
 21
5.1548366826
  0
LINE
  5
378
100
AcDbEntity
  8
03__ASM_ALL_CURVES
100
AcDbLine
 62
40
  6
CONTINUOUS
 10
6.5184679493
 20
5.0821991826
 11
6.5487335743
 21
5.1790491826
  0
LINE
  5
379
100
AcDbEntity
  8
03__ASM_ALL_CURVES
100
AcDbLine
 62
40
  6
CONTINUOUS
 10
6.9058679493
 20
5.1548366826
 11
6.9179741993
 21
5.1709783512
  0
LINE
  5
37A
100
AcDbEntity
  8
03__ASM_ALL_CURVES
100
AcDbLine
 62
40
  6
CONTINUOUS
 10
5.6796255297
 20
3.443710684
 11
5.675085686
 21
3.4376575562
  0
LINE
  5
37B
100
AcDbEntity
  8
03__ASM_ALL_CURVES
100
AcDbLine
 62
40
  6
CONTINUOUS
 10
5.711404436
 20
3.4497638076
 11
5.7204841235
 21
3.461870059
  0
LINE
  5
37C
100
AcDbEntity
  8
03__ASM_ALL_CURVES
100
AcDbLine
 62
40
  6
CONTINUOUS
 10
6.9603460743
 20
5.0983408497
 11
6.9542929493
 21
5.0902700162
  0
LINE
  5
37D
100
AcDbEntity
  8
03__ASM_ALL_CURVES
100
AcDbLine
 62
40
  6
CONTINUOUS
 10
5.7568028735
 20
3.4134450576
 11
5.747723186
 21
3.4013388078
  0
LINE
  5
37E
100
AcDbEntity
  8
03__ASM_ALL_CURVES
100
AcDbLine
 62
40
  6
CONTINUOUS
 10
7.6261898243
 20
5.0902700162
 11
7.6140835743
 21
5.0821991826
  0
LINE
  5
37F
100
AcDbEntity
  8
03__ASM_ALL_CURVES
100
AcDbLine
 62
40
  6
CONTINUOUS
 10
7.8259429493
 20
5.138695014
 11
7.8138366993
 21
5.1306241826
  0
LINE
  5
380
100
AcDbEntity
  8
03__ASM_ALL_CURVES
100
AcDbLine
 62
40
  6
CONTINUOUS
 10
3.6962310744
 20
5.0273175159
 11
3.5800110744
 21
5.0434591826
  0
LINE
  5
381
100
AcDbEntity
  8
03__ASM_ALL_CURVES
100
AcDbLine
 62
40
  6
CONTINUOUS
 10
3.6962310744
 20
5.0240891826
 11
3.5800110744
 21
5.0434591826
  0
LINE
  5
382
100
AcDbEntity
  8
03__ASM_ALL_CURVES
100
AcDbLine
 62
40
  6
CONTINUOUS
 10
4.8295110744
 20
5.138695014
 11
4.8476704494
 21
5.1306241826
  0
LINE
  5
383
100
AcDbEntity
  8
03__ASM_ALL_CURVES
100
AcDbLine
 62
40
  6
CONTINUOUS
 10
5.1261141994
 20
5.1790491826
 11
5.1382204494
 21
5.1709783512
  0
LINE
  5
384
100
AcDbEntity
  8
03__ASM_ALL_CURVES
100
AcDbLine
 62
40
  6
CONTINUOUS
 10
6.9427540621
 20
3.4013388078
 11
6.9336743746
 21
3.4134450576
  0
LINE
  5
385
100
AcDbEntity
  8
03__ASM_ALL_CURVES
100
AcDbLine
 62
40
  6
CONTINUOUS
 10
6.8973556246
 20
3.461870059
 11
6.9018954683
 21
3.4558169312
  0
LINE
  5
386
100
AcDbEntity
  8
03__ASM_ALL_CURVES
100
AcDbLine
 62
40
  6
CONTINUOUS
 10
6.9699931246
 20
3.461870059
 11
6.9790728121
 21
3.4497638076
  0
LINE
  5
387
100
AcDbEntity
  8
03__ASM_ALL_CURVES
100
AcDbLine
 62
40
  6
CONTINUOUS
 10
7.0426306246
 20
3.461870059
 11
7.0471704683
 21
3.4558169312
  0
LINE
  5
388
100
AcDbEntity
  8
03__ASM_ALL_CURVES
100
AcDbLine
 62
40
  6
CONTINUOUS
 10
7.1116741993
 20
5.1709783512
 11
7.1056210743
 21
5.162907514
  0
LINE
  5
389
100
AcDbEntity
  8
03__ASM_ALL_CURVES
100
AcDbLine
 62
40
  6
CONTINUOUS
 10
5.8249005297
 20
3.443710684
 11
5.820360686
 21
3.4376575562
  0
LINE
  5
38A
100
AcDbEntity
  8
03__ASM_ALL_CURVES
100
AcDbLine
 62
40
  6
CONTINUOUS
 10
7.1540460743
 20
5.0983408497
 11
7.1479929493
 21
5.0902700162
  0
LINE
  5
38B
100
AcDbEntity
  8
03__ASM_ALL_CURVES
100
AcDbLine
 62
40
  6
CONTINUOUS
 10
5.9701755297
 20
3.4497638076
 11
5.965635686
 21
3.443710684
  0
LINE
  5
38C
100
AcDbEntity
  8
03__ASM_ALL_CURVES
100
AcDbLine
 62
40
  6
CONTINUOUS
 10
5.675085686
 20
3.4376575562
 11
5.6660059985
 21
3.4316044326
  0
LINE
  5
38D
100
AcDbEntity
  8
03__ASM_ALL_CURVES
100
AcDbLine
 62
40
  6
CONTINUOUS
 10
5.7204841235
 20
3.461870059
 11
5.729563811
 21
3.4679231826
  0
LINE
  5
38E
100
AcDbEntity
  8
03__ASM_ALL_CURVES
100
AcDbLine
 62
40
  6
CONTINUOUS
 10
3.6962310744
 20
5.0370025159
 11
3.5800110744
 21
5.0434591826
  0
LINE
  5
38F
100
AcDbEntity
  8
03__ASM_ALL_CURVES
100
AcDbLine
 62
40
  6
CONTINUOUS
 10
3.6962310744
 20
5.0337741826
 11
3.5800110744
 21
5.0434591826
  0
LINE
  5
390
100
AcDbEntity
  8
03__ASM_ALL_CURVES
100
AcDbLine
 62
40
  6
CONTINUOUS
 10
3.6962310744
 20
5.0305458493
 11
3.5800110744
 21
5.0434591826
  0
LINE
  5
391
100
AcDbEntity
  8
0
100
AcDbLine
 62
7
  6
CONTINUOUS
 10
7.1780110744
 20
3.7194231826
 11
7.1730110744
 21
3.7244231826
  0
LINE
  5
392
100
AcDbEntity
  8
THREAD
100
AcDbLine
 62
7
  6
CONTINUOUS
 10
6.5790110744
 20
4.4049231826
 11
6.5345110744
 21
4.4494231826
  0
LINE
  5
393
100
AcDbEntity
  8
03__ASM_ALL_CURVES
100
AcDbLine
 62
40
  6
CONTINUOUS
 10
7.1879056246
 20
3.461870059
 11
7.1924454683
 21
3.4558169312
  0
LINE
  5
394
100
AcDbEntity
  8
THREAD
100
AcDbLine
 62
7
  6
CONTINUOUS
 10
6.5345110744
 20
3.6744231826
 11
6.5345110744
 21
4.4494231826
  0
LINE
  5
395
100
AcDbEntity
  8
THREAD
100
AcDbLine
 62
7
  6
CONTINUOUS
 10
6.5790110744
 20
3.7189231826
 11
6.5790110744
 21
4.4049231826
  0
LINE
  5
396
100
AcDbEntity
  8
03__ASM_ALL_CURVES
100
AcDbLine
 62
40
  6
CONTINUOUS
 10
5.9747153735
 20
3.4134450576
 11
5.965635686
 21
3.4013388078
  0
LINE
  5
397
100
AcDbEntity
  8
03__ASM_ALL_CURVES
100
AcDbLine
 62
40
  6
CONTINUOUS
 10
7.2932679493
 20
5.1548366826
 11
7.3053741993
 21
5.1709783512
  0
LINE
  5
398
100
AcDbEntity
  8
03__ASM_ALL_CURVES
100
AcDbLine
 62
40
  6
CONTINUOUS
 10
7.3537991993
 20
5.1064116826
 11
7.3416929493
 21
5.0902700162
  0
LINE
  5
399
100
AcDbEntity
  8
03__ASM_ALL_CURVES
100
AcDbLine
 62
40
  6
CONTINUOUS
 10
5.747723186
 20
3.4013388078
 11
5.7386434985
 21
3.3952856826
  0
LINE
  5
39A
100
AcDbEntity
  8
03__ASM_ALL_CURVES
100
AcDbLine
 62
40
  6
CONTINUOUS
 10
5.820360686
 20
3.4376575562
 11
5.8112809985
 21
3.4316044326
  0
LINE
  5
39B
100
AcDbEntity
  8
03__ASM_ALL_CURVES
100
AcDbLine
 62
40
  6
CONTINUOUS
 10
5.9383966235
 20
3.461870059
 11
5.947476311
 21
3.4679231826
  0
LINE
  5
39C
100
AcDbEntity
  8
03__ASM_ALL_CURVES
100
AcDbLine
 62
40
  6
CONTINUOUS
 10
5.965635686
 20
3.443710684
 11
5.9565559985
 21
3.4376575562
  0
LINE
  5
39D
100
AcDbEntity
  8
THREAD
100
AcDbLine
 62
7
  6
CONTINUOUS
 10
6.1012335062
 20
3.6562533096
 11
6.0815110744
 21
3.6448665583
  0
LINE
  5
39E
100
AcDbEntity
  8
03__ASM_ALL_CURVES
100
AcDbLine
 62
40
  6
CONTINUOUS
 10
5.9627910744
 20
5.0240891826
 11
6.1952310744
 21
5.0628291826
  0
LINE
  5
39F
100
AcDbEntity
  8
03__ASM_ALL_CURVES
100
AcDbLine
 62
40
  6
CONTINUOUS
 10
5.9627910744
 20
5.0273175159
 11
6.1952310744
 21
5.0596008493
  0
LINE
  5
3A0
100
AcDbEntity
  8
03__ASM_ALL_CURVES
100
AcDbLine
 62
40
  6
CONTINUOUS
 10
5.9627910744
 20
5.0305458493
 11
6.1952310744
 21
5.0563725159
  0
LINE
  5
3A1
100
AcDbEntity
  8
03__ASM_ALL_CURVES
100
AcDbLine
 62
40
  6
CONTINUOUS
 10
5.9627910744
 20
5.0337741826
 11
6.1952310744
 21
5.0531441826
  0
LINE
  5
3A2
100
AcDbEntity
  8
03__ASM_ALL_CURVES
100
AcDbLine
 62
40
  6
CONTINUOUS
 10
5.9627910744
 20
5.0370025159
 11
6.1952310744
 21
5.0499158493
  0
LINE
  5
3A3
100
AcDbEntity
  8
03__ASM_ALL_CURVES
100
AcDbLine
 62
40
  6
CONTINUOUS
 10
5.9627910744
 20
5.0402308493
 11
6.1952310744
 21
5.0466875159
  0
LINE
  5
3A4
100
AcDbEntity
  8
03__ASM_ALL_CURVES
100
AcDbLine
 62
40
  6
CONTINUOUS
 10
3.6962310744
 20
5.0466875159
 11
3.5800110744
 21
5.0434591826
  0
LINE
  5
3A5
100
AcDbEntity
  8
03__ASM_ALL_CURVES
100
AcDbLine
 62
40
  6
CONTINUOUS
 10
3.5800110744
 20
5.0434591826
 11
7.9385310744
 21
5.0434591826
  0
LINE
  5
3A6
100
AcDbEntity
  8
03__ASM_ALL_CURVES
100
AcDbLine
 62
40
  6
CONTINUOUS
 10
7.7351460743
 20
5.0821991826
 11
7.6867210743
 21
5.0821991826
  0
LINE
  5
3A7
100
AcDbEntity
  8
03__ASM_ALL_CURVES
100
AcDbLine
 62
40
  6
CONTINUOUS
 10
7.6140835743
 20
5.0821991826
 11
7.5898710743
 21
5.0821991826
  0
LINE
  5
3A8
100
AcDbEntity
  8
03__ASM_ALL_CURVES
100
AcDbLine
 62
40
  6
CONTINUOUS
 10
7.4264366993
 20
5.0821991826
 11
7.4143304493
 21
5.0821991826
  0
LINE
  5
3A9
100
AcDbEntity
  8
03__ASM_ALL_CURVES
100
AcDbLine
 62
40
  6
CONTINUOUS
 10
7.3295866993
 20
5.0821991826
 11
7.3174804493
 21
5.0821991826
  0
LINE
  5
3AA
100
AcDbEntity
  8
03__ASM_ALL_CURVES
100
AcDbLine
 62
40
  6
CONTINUOUS
 10
7.1358866993
 20
5.0821991826
 11
7.1237804493
 21
5.0821991826
  0
LINE
  5
3AB
100
AcDbEntity
  8
03__ASM_ALL_CURVES
100
AcDbLine
 62
40
  6
CONTINUOUS
 10
6.9421866993
 20
5.0821991826
 11
6.9300804493
 21
5.0821991826
  0
LINE
  5
3AC
100
AcDbEntity
  8
03__ASM_ALL_CURVES
100
AcDbLine
 62
40
  6
CONTINUOUS
 10
6.4579366993
 20
5.0821991826
 11
6.4458304493
 21
5.0821991826
  0
LINE
  5
3AD
100
AcDbEntity
  8
03__ASM_ALL_CURVES
100
AcDbLine
 62
40
  6
CONTINUOUS
 10
6.3610866993
 20
5.0821991826
 11
6.3489804493
 21
5.0821991826
  0
LINE
  5
3AE
100
AcDbEntity
  8
03__ASM_ALL_CURVES
100
AcDbLine
 62
40
  6
CONTINUOUS
 10
5.0232110744
 20
5.0821991826
 11
5.0171579494
 21
5.0821991826
  0
LINE
  5
3AF
100
AcDbEntity
  8
03__ASM_ALL_CURVES
100
AcDbLine
 62
40
  6
CONTINUOUS
 10
4.9324141994
 20
5.0821991826
 11
4.9203079494
 21
5.0821991826
  0
LINE
  5
3B0
100
AcDbEntity
  8
03__ASM_ALL_CURVES
100
AcDbLine
 62
40
  6
CONTINUOUS
 10
4.4421110744
 20
5.0821991826
 11
4.4360579494
 21
5.0821991826
  0
LINE
  5
3B1
100
AcDbEntity
  8
03__ASM_ALL_CURVES
100
AcDbLine
 62
40
  6
CONTINUOUS
 10
4.3210485744
 20
5.0821991826
 11
4.3694735744
 21
5.0821991826
  0
LINE
  5
3B2
100
AcDbEntity
  8
03__ASM_ALL_CURVES
100
AcDbLine
 62
40
  6
CONTINUOUS
 10
5.0958485744
 20
5.0821991826
 11
5.1442735744
 21
5.0821991826
  0
LINE
  5
3B3
100
AcDbEntity
  8
03__ASM_ALL_CURVES
100
AcDbLine
 62
40
  6
CONTINUOUS
 10
6.2339710743
 20
5.0821991826
 11
6.2823960743
 21
5.0821991826
  0
LINE
  5
3B4
100
AcDbEntity
  8
03__ASM_ALL_CURVES
100
AcDbLine
 62
40
  6
CONTINUOUS
 10
7.4930210743
 20
5.0821991826
 11
7.5414460743
 21
5.0821991826
  0
LINE
  5
3B5
100
AcDbEntity
  8
03__ASM_ALL_CURVES
100
AcDbLine
 62
40
  6
CONTINUOUS
 10
4.5147485744
 20
5.1064116826
 11
4.5692266994
 21
5.1064116826
  0
LINE
  5
3B6
100
AcDbEntity
  8
03__ASM_ALL_CURVES
100
AcDbLine
 62
40
  6
CONTINUOUS
 10
5.1926985744
 20
5.1064116826
 11
5.2471766994
 21
5.1064116826
  0
LINE
  5
3B7
100
AcDbEntity
  8
03__ASM_ALL_CURVES
100
AcDbLine
 62
40
  6
CONTINUOUS
 10
3.6962310744
 20
5.0402308493
 11
3.5800110744
 21
5.0434591826
  0
LINE
  5
3B8
100
AcDbEntity
  8
03__ASM_ALL_CURVES
100
AcDbLine
 62
40
  6
CONTINUOUS
 10
5.9627910744
 20
5.0466875159
 11
6.1952310744
 21
5.0402308493
  0
LINE
  5
3B9
100
AcDbEntity
  8
03__ASM_ALL_CURVES
100
AcDbLine
 62
40
  6
CONTINUOUS
 10
5.9627910744
 20
5.0499158493
 11
6.1952310744
 21
5.0370025159
  0
LINE
  5
3BA
100
AcDbEntity
  8
03__ASM_ALL_CURVES
100
AcDbLine
 62
40
  6
CONTINUOUS
 10
5.9627910744
 20
5.0531441826
 11
6.1952310744
 21
5.0337741826
  0
LINE
  5
3BB
100
AcDbEntity
  8
03__ASM_ALL_CURVES
100
AcDbLine
 62
40
  6
CONTINUOUS
 10
5.9627910744
 20
5.0563725159
 11
6.1952310744
 21
5.0305458493
  0
LINE
  5
3BC
100
AcDbEntity
  8
03__ASM_ALL_CURVES
100
AcDbLine
 62
40
  6
CONTINUOUS
 10
5.9627910744
 20
5.0596008493
 11
6.1952310744
 21
5.0273175159
  0
LINE
  5
3BD
100
AcDbEntity
  8
03__ASM_ALL_CURVES
100
AcDbLine
 62
40
  6
CONTINUOUS
 10
6.1952310744
 20
5.0240891826
 11
5.9627910744
 21
5.0628291826
  0
LINE
  5
3BE
100
AcDbEntity
  8
0
100
AcDbLine
 62
7
  6
CONTINUOUS
 10
7.3920110744
 20
3.7194231826
 11
7.3870110744
 21
3.7244231826
  0
LINE
  5
3BF
100
AcDbEntity
  8
0
100
AcDbLine
 62
7
  6
CONTINUOUS
 10
6.7670110744
 20
4.3949231826
 11
6.7570110744
 21
4.4049231826
  0
LINE
  5
3C0
100
AcDbEntity
  8
03__ASM_ALL_CURVES
100
AcDbLine
 62
40
  6
CONTINUOUS
 10
6.3247679493
 20
5.1064116826
 11
6.3187148243
 21
5.1306241826
  0
LINE
  5
3C1
100
AcDbEntity
  8
03__ASM_ALL_CURVES
100
AcDbLine
 62
40
  6
CONTINUOUS
 10
6.3852991993
 20
5.1548366826
 11
6.3913523243
 21
5.1306241826
  0
LINE
  5
3C2
100
AcDbEntity
  8
03__ASM_ALL_CURVES
100
AcDbLine
 62
40
  6
CONTINUOUS
 10
6.4216179493
 20
5.1064116826
 11
6.4155648243
 21
5.1306241826
  0
LINE
  5
3C3
100
AcDbEntity
  8
03__ASM_ALL_CURVES
100
AcDbLine
 62
40
  6
CONTINUOUS
 10
6.6455835743
 20
5.1790491826
 11
6.6455835743
 21
5.0821991826
  0
LINE
  5
3C4
100
AcDbEntity
  8
03__ASM_ALL_CURVES
100
AcDbLine
 62
40
  6
CONTINUOUS
 10
6.7424335743
 20
5.1790491826
 11
6.7424335743
 21
5.0821991826
  0
LINE
  5
3C5
100
AcDbEntity
  8
0
100
AcDbLine
 62
7
  6
CONTINUOUS
 10
6.7570110744
 20
3.7189231826
 11
6.7570110744
 21
4.4049231826
  0
LINE
  5
3C6
100
AcDbEntity
  8
0
100
AcDbLine
 62
7
  6
CONTINUOUS
 10
6.7670110744
 20
3.7289231826
 11
6.7670110744
 21
4.3949231826
  0
LINE
  5
3C7
100
AcDbEntity
  8
03__ASM_ALL_CURVES
100
AcDbLine
 62
40
  6
CONTINUOUS
 10
6.8998148243
 20
5.1306241826
 11
6.9058679493
 21
5.1548366826
  0
LINE
  5
3C8
100
AcDbEntity
  8
03__ASM_ALL_CURVES
100
AcDbLine
 62
40
  6
CONTINUOUS
 10
7.4445960743
 20
5.0983408497
 11
7.4385429493
 21
5.0902700162
  0
LINE
  5
3C9
100
AcDbEntity
  8
03__ASM_ALL_CURVES
100
AcDbLine
 62
40
  6
CONTINUOUS
 10
7.6382960743
 20
5.1064116826
 11
7.6261898243
 21
5.0902700162
  0
LINE
  5
3CA
100
AcDbEntity
  8
0
100
AcDbLine
 62
7
  6
CONTINUOUS
 10
7.1780110744
 20
4.4044231826
 11
7.1730110744
 21
4.3994231826
  0
LINE
  5
3CB
100
AcDbEntity
  8
THREAD
100
AcDbLine
 62
7
  6
CONTINUOUS
 10
6.5790110744
 20
3.7189231826
 11
6.5345110744
 21
3.6744231826
  0
LINE
  5
3CC
100
AcDbEntity
  8
03__ASM_ALL_CURVES
100
AcDbLine
 62
40
  6
CONTINUOUS
 10
5.965635686
 20
3.4013388078
 11
5.9565559985
 21
3.3952856826
  0
LINE
  5
3CD
100
AcDbEntity
  8
03__ASM_ALL_CURVES
100
AcDbLine
 62
40
  6
CONTINUOUS
 10
3.6962310744
 20
5.0531441826
 11
3.5800110744
 21
5.0434591826
  0
LINE
  5
3CE
100
AcDbEntity
  8
03__ASM_ALL_CURVES
100
AcDbLine
 62
40
  6
CONTINUOUS
 10
3.6962310744
 20
5.0499158493
 11
3.5800110744
 21
5.0434591826
  0
LINE
  5
3CF
100
AcDbEntity
  8
03__ASM_ALL_CURVES
100
AcDbLine
 62
40
  6
CONTINUOUS
 10
6.5305741993
 20
5.1144825169
 11
6.5668929493
 21
5.1144825169
  0
LINE
  5
3D0
100
AcDbEntity
  8
03__ASM_ALL_CURVES
100
AcDbLine
 62
40
  6
CONTINUOUS
 10
7.8138366993
 20
5.1306241826
 11
7.7835710743
 21
5.1306241826
  0
LINE
  5
3D1
100
AcDbEntity
  8
03__ASM_ALL_CURVES
100
AcDbLine
 62
40
  6
CONTINUOUS
 10
6.9361335743
 20
5.1306241826
 11
6.9603460743
 21
5.1306241826
  0
LINE
  5
3D2
100
AcDbEntity
  8
03__ASM_ALL_CURVES
100
AcDbLine
 62
40
  6
CONTINUOUS
 10
7.2024710743
 20
5.1306241826
 11
7.2508960743
 21
5.1306241826
  0
LINE
  5
3D3
100
AcDbEntity
  8
03__ASM_ALL_CURVES
100
AcDbLine
 62
40
  6
CONTINUOUS
 10
7.6867210743
 20
5.1306241826
 11
7.7169866993
 21
5.1306241826
  0
LINE
  5
3D4
100
AcDbEntity
  8
03__ASM_ALL_CURVES
100
AcDbLine
 62
40
  6
CONTINUOUS
 10
4.9203079494
 20
5.138695014
 11
4.9324141994
 21
5.138695014
  0
LINE
  5
3D5
100
AcDbEntity
  8
03__ASM_ALL_CURVES
100
AcDbLine
 62
40
  6
CONTINUOUS
 10
7.1358866993
 20
5.1790491826
 11
7.1237804493
 21
5.1790491826
  0
LINE
  5
3D6
100
AcDbEntity
  8
03__ASM_ALL_CURVES
100
AcDbLine
 62
40
  6
CONTINUOUS
 10
4.3392079494
 20
5.1790491826
 11
4.3513141994
 21
5.1790491826
  0
LINE
  5
3D7
100
AcDbEntity
  8
03__ASM_ALL_CURVES
100
AcDbLine
 62
40
  6
CONTINUOUS
 10
4.9203079494
 20
5.1790491826
 11
4.9324141994
 21
5.1790491826
  0
LINE
  5
3D8
100
AcDbEntity
  8
03__ASM_ALL_CURVES
100
AcDbLine
 62
40
  6
CONTINUOUS
 10
5.1140079494
 20
5.1790491826
 11
5.1261141994
 21
5.1790491826
  0
LINE
  5
3D9
100
AcDbEntity
  8
03__ASM_ALL_CURVES
100
AcDbLine
 62
40
  6
CONTINUOUS
 10
6.3489804493
 20
5.1790491826
 11
6.3610866993
 21
5.1790491826
  0
LINE
  5
3DA
100
AcDbEntity
  8
03__ASM_ALL_CURVES
100
AcDbLine
 62
40
  6
CONTINUOUS
 10
6.4458304493
 20
5.1790491826
 11
6.4579366993
 21
5.1790491826
  0
LINE
  5
3DB
100
AcDbEntity
  8
03__ASM_ALL_CURVES
100
AcDbLine
 62
40
  6
CONTINUOUS
 10
6.6153179493
 20
5.1790491826
 11
6.6758491993
 21
5.1790491826
  0
LINE
  5
3DC
100
AcDbEntity
  8
03__ASM_ALL_CURVES
100
AcDbLine
 62
40
  6
CONTINUOUS
 10
6.9300804493
 20
5.1790491826
 11
6.9421866993
 21
5.1790491826
  0
LINE
  5
3DD
100
AcDbEntity
  8
03__ASM_ALL_CURVES
100
AcDbLine
 62
40
  6
CONTINUOUS
 10
7.3174804493
 20
5.1790491826
 11
7.3295866993
 21
5.1790491826
  0
LINE
  5
3DE
100
AcDbEntity
  8
03__ASM_ALL_CURVES
100
AcDbLine
 62
40
  6
CONTINUOUS
 10
7.5898710743
 20
5.1790491826
 11
7.6140835743
 21
5.1790491826
  0
LINE
  5
3DF
100
AcDbEntity
  8
03__ASM_ALL_CURVES
100
AcDbLine
 62
40
  6
CONTINUOUS
 10
7.6867210743
 20
5.1790491826
 11
7.7351460743
 21
5.1790491826
  0
LINE
  5
3E0
100
AcDbEntity
  8
03__ASM_ALL_CURVES
100
AcDbLine
 62
40
  6
CONTINUOUS
 10
7.7835710743
 20
5.1790491826
 11
7.8138366993
 21
5.1790491826
  0
LINE
  5
3E1
100
AcDbEntity
  8
03__ASM_ALL_CURVES
100
AcDbLine
 62
40
  6
CONTINUOUS
 10
7.800268106
 20
4.0812931826
 11
7.7911884185
 21
4.0873463078
  0
LINE
  5
3E2
100
AcDbEntity
  8
03__ASM_ALL_CURVES
100
AcDbLine
 62
40
  6
CONTINUOUS
 10
7.7367102935
 20
4.1539306826
 11
7.745789981
 21
4.147877559
  0
LINE
  5
3E3
100
AcDbEntity
  8
03__ASM_ALL_CURVES
100
AcDbLine
 62
40
  6
CONTINUOUS
 10
6.3489804493
 20
5.0821991826
 11
6.3368741993
 21
5.0902700162
  0
LINE
  5
3E4
100
AcDbEntity
  8
03__ASM_ALL_CURVES
100
AcDbLine
 62
40
  6
CONTINUOUS
 10
6.3368741993
 20
5.0902700162
 11
6.3247679493
 21
5.1064116826
  0
LINE
  5
3E5
100
AcDbEntity
  8
03__ASM_ALL_CURVES
100
AcDbLine
 62
40
  6
CONTINUOUS
 10
7.0335509371
 20
3.4316044326
 11
7.0471704683
 21
3.3952856826
  0
LINE
  5
3E6
100
AcDbEntity
  8
03__ASM_ALL_CURVES
100
AcDbLine
 62
40
  6
CONTINUOUS
 10
6.9336743746
 20
3.4134450576
 11
6.9291345308
 21
3.4316044326
  0
LINE
  5
3E7
100
AcDbEntity
  8
03__ASM_ALL_CURVES
100
AcDbLine
 62
40
  6
CONTINUOUS
 10
6.9790728121
 20
3.4497638076
 11
6.9836126558
 21
3.4316044326
  0
LINE
  5
3E8
100
AcDbEntity
  8
03__ASM_ALL_CURVES
100
AcDbLine
 62
40
  6
CONTINUOUS
 10
6.8150710743
 20
5.0821991826
 11
6.8150710743
 21
5.1790491826
  0
LINE
  5
3E9
100
AcDbEntity
  8
03__ASM_ALL_CURVES
100
AcDbLine
 62
40
  6
CONTINUOUS
 10
6.8634960743
 20
5.0821991826
 11
6.8634960743
 21
5.1790491826
  0
LINE
  5
3EA
100
AcDbEntity
  8
03__ASM_ALL_CURVES
100
AcDbLine
 62
40
  6
CONTINUOUS
 10
6.8655767183
 20
3.3952856826
 11
6.8655767183
 21
3.4679231826
  0
LINE
  5
3EB
100
AcDbEntity
  8
03__ASM_ALL_CURVES
100
AcDbLine
 62
40
  6
CONTINUOUS
 10
6.9018954683
 20
3.4558169312
 11
6.9018954683
 21
3.443710684
  0
LINE
  5
3EC
100
AcDbEntity
  8
03__ASM_ALL_CURVES
100
AcDbLine
 62
40
  6
CONTINUOUS
 10
7.8319960743
 20
5.1467658512
 11
7.8259429493
 21
5.138695014
  0
LINE
  5
3ED
100
AcDbEntity
  8
0
100
AcDbLine
 62
7
  6
CONTINUOUS
 10
7.3920110744
 20
4.4044231826
 11
7.3870110744
 21
4.3994231826
  0
LINE
  5
3EE
100
AcDbEntity
  8
0
100
AcDbLine
 62
7
  6
CONTINUOUS
 10
6.7670110744
 20
3.7289231826
 11
6.7570110744
 21
3.7189231826
  0
LINE
  5
3EF
100
AcDbEntity
  8
03__ASM_ALL_CURVES
100
AcDbLine
 62
40
  6
CONTINUOUS
 10
3.5800110744
 20
5.0434591826
 11
3.6962310744
 21
5.0628291826
  0
LINE
  5
3F0
100
AcDbEntity
  8
03__ASM_ALL_CURVES
100
AcDbLine
 62
40
  6
CONTINUOUS
 10
3.6962310744
 20
5.0596008493
 11
3.5800110744
 21
5.0434591826
  0
LINE
  5
3F1
100
AcDbEntity
  8
03__ASM_ALL_CURVES
100
AcDbLine
 62
40
  6
CONTINUOUS
 10
3.6962310744
 20
5.0563725159
 11
3.5800110744
 21
5.0434591826
  0
LINE
  5
3F2
100
AcDbEntity
  8
03__ASM_ALL_CURVES
100
AcDbLine
 62
40
  6
CONTINUOUS
 10
7.8093477935
 20
4.1539306826
 11
7.818427481
 21
4.147877559
  0
LINE
  5
3F3
100
AcDbEntity
  8
03__ASM_ALL_CURVES
100
AcDbLine
 62
40
  6
CONTINUOUS
 10
6.4458304493
 20
5.0821991826
 11
6.4337241993
 21
5.0902700162
  0
LINE
  5
3F4
100
AcDbEntity
  8
03__ASM_ALL_CURVES
100
AcDbLine
 62
40
  6
CONTINUOUS
 10
7.8819852935
 20
4.1539306826
 11
7.891064981
 21
4.147877559
  0
LINE
  5
3F5
100
AcDbEntity
  8
03__ASM_ALL_CURVES
100
AcDbLine
 62
40
  6
CONTINUOUS
 10
6.3610866993
 20
5.1790491826
 11
6.3731929493
 21
5.1709783512
  0
LINE
  5
3F6
100
AcDbEntity
  8
03__ASM_ALL_CURVES
100
AcDbLine
 62
40
  6
CONTINUOUS
 10
6.4579366993
 20
5.1790491826
 11
6.4700429493
 21
5.1709783512
  0
LINE
  5
3F7
100
AcDbEntity
  8
0
100
AcDbLine
 62
7
  6
CONTINUOUS
 10
7.2460110744
 20
4.3994231826
 11
7.2410110744
 21
4.4044231826
  0
LINE
  5
3F8
100
AcDbEntity
  8
03__ASM_ALL_CURVES
100
AcDbLine
 62
40
  6
CONTINUOUS
 10
6.3731929493
 20
5.1709783512
 11
6.3852991993
 21
5.1548366826
  0
LINE
  5
3F9
100
AcDbEntity
  8
03__ASM_ALL_CURVES
100
AcDbLine
 62
40
  6
CONTINUOUS
 10
6.4337241993
 20
5.0902700162
 11
6.4216179493
 21
5.1064116826
  0
LINE
  5
3FA
100
AcDbEntity
  8
03__ASM_ALL_CURVES
100
AcDbLine
 62
40
  6
CONTINUOUS
 10
6.4700429493
 20
5.1709783512
 11
6.4760960743
 21
5.162907514
  0
LINE
  5
3FB
100
AcDbEntity
  8
03__ASM_ALL_CURVES
100
AcDbLine
 62
40
  6
CONTINUOUS
 10
6.5487335743
 20
5.1790491826
 11
6.5789991993
 21
5.0821991826
  0
LINE
  5
3FC
100
AcDbEntity
  8
03__ASM_ALL_CURVES
100
AcDbLine
 62
40
  6
CONTINUOUS
 10
6.9603460743
 20
5.1306241826
 11
6.9603460743
 21
5.0983408497
  0
LINE
  5
3FD
100
AcDbEntity
  8
03__ASM_ALL_CURVES
100
AcDbLine
 62
40
  6
CONTINUOUS
 10
7.0108517183
 20
3.3952856826
 11
7.0108517183
 21
3.4679231826
  0
LINE
  5
3FE
100
AcDbEntity
  8
03__ASM_ALL_CURVES
100
AcDbLine
 62
40
  6
CONTINUOUS
 10
7.0471704683
 20
3.4558169312
 11
7.0471704683
 21
3.443710684
  0
LINE
  5
3FF
100
AcDbEntity
  8
03__ASM_ALL_CURVES
100
AcDbLine
 62
40
  6
CONTINUOUS
 10
7.2872148243
 20
5.1306241826
 11
7.2932679493
 21
5.1548366826
  0
LINE
  5
400
100
AcDbEntity
  8
03__ASM_ALL_CURVES
100
AcDbLine
 62
40
  6
CONTINUOUS
 10
7.745789981
 20
4.1236650562
 11
7.7367102935
 21
4.1176119326
  0
LINE
  5
401
100
AcDbEntity
  8
03__ASM_ALL_CURVES
100
AcDbLine
 62
40
  6
CONTINUOUS
 10
7.7911884185
 20
4.147877559
 11
7.800268106
 21
4.1539306826
  0
LINE
  5
402
100
AcDbEntity
  8
03__ASM_ALL_CURVES
100
AcDbLine
 62
40
  6
CONTINUOUS
 10
7.818427481
 20
4.0873463078
 11
7.8093477935
 21
4.0812931826
  0
LINE
  5
403
100
AcDbEntity
  8
03__ASM_ALL_CURVES
100
AcDbLine
 62
40
  6
CONTINUOUS
 10
7.891064981
 20
4.1236650562
 11
7.8819852935
 21
4.1176119326
  0
LINE
  5
404
100
AcDbEntity
  8
03__ASM_ALL_CURVES
100
AcDbLine
 62
40
  6
CONTINUOUS
 10
6.9300804493
 20
5.0821991826
 11
6.9179741993
 21
5.0902700162
  0
LINE
  5
405
100
AcDbEntity
  8
0
100
AcDbLine
 62
7
  6
CONTINUOUS
 10
7.4540110744
 20
4.3894231826
 11
7.4390110744
 21
4.4044231826
  0
LINE
  5
406
100
AcDbEntity
  8
03__ASM_ALL_CURVES
100
AcDbLine
 62
40
  6
CONTINUOUS
 10
6.9058679493
 20
5.1064116826
 11
6.8998148243
 21
5.1306241826
  0
LINE
  5
407
100
AcDbEntity
  8
03__ASM_ALL_CURVES
100
AcDbLine
 62
40
  6
CONTINUOUS
 10
7.1016485933
 20
3.4679231826
 11
7.1016485933
 21
3.3952856826
  0
LINE
  5
408
100
AcDbEntity
  8
03__ASM_ALL_CURVES
100
AcDbLine
 62
40
  6
CONTINUOUS
 10
7.1056210743
 20
5.162907514
 11
7.1056210743
 21
5.1548366826
  0
LINE
  5
409
100
AcDbEntity
  8
03__ASM_ALL_CURVES
100
AcDbLine
 62
40
  6
CONTINUOUS
 10
7.1540460743
 20
5.1144825169
 11
7.1540460743
 21
5.0983408497
  0
LINE
  5
40A
100
AcDbEntity
  8
0
100
AcDbLine
 62
7
  6
CONTINUOUS
 10
7.1730110744
 20
3.7244231826
 11
7.1730110744
 21
4.3994231826
  0
LINE
  5
40B
100
AcDbEntity
  8
0
100
AcDbLine
 62
7
  6
CONTINUOUS
 10
7.1780110744
 20
3.7194231826
 11
7.1780110744
 21
4.4044231826
  0
LINE
  5
40C
100
AcDbEntity
  8
03__ASM_ALL_CURVES
100
AcDbLine
 62
40
  6
CONTINUOUS
 10
7.1924454683
 20
3.4558169312
 11
7.1924454683
 21
3.443710684
  0
LINE
  5
40D
100
AcDbEntity
  8
03__ASM_ALL_CURVES
100
AcDbLine
 62
40
  6
CONTINUOUS
 10
7.2024710743
 20
5.1790491826
 11
7.2024710743
 21
5.0821991826
  0
LINE
  5
40E
100
AcDbEntity
  8
0
100
AcDbLine
 62
7
  6
CONTINUOUS
 10
7.2410110744
 20
3.7194231826
 11
7.2410110744
 21
4.4044231826
  0
LINE
  5
40F
100
AcDbEntity
  8
0
100
AcDbLine
 62
7
  6
CONTINUOUS
 10
7.2460110744
 20
3.7199237026
 11
7.2460110744
 21
4.4039226626
  0
LINE
  5
410
100
AcDbEntity
  8
03__ASM_ALL_CURVES
100
AcDbLine
 62
40
  6
CONTINUOUS
 10
7.2508960743
 20
5.1790491826
 11
7.2508960743
 21
5.0821991826
  0
LINE
  5
411
100
AcDbEntity
  8
03__ASM_ALL_CURVES
100
AcDbLine
 62
40
  6
CONTINUOUS
 10
6.9291345308
 20
3.4316044326
 11
6.9336743746
 21
3.4497638076
  0
LINE
  5
412
100
AcDbEntity
  8
03__ASM_ALL_CURVES
100
AcDbLine
 62
40
  6
CONTINUOUS
 10
7.3598523243
 20
5.1306241826
 11
7.3537991993
 21
5.1064116826
  0
LINE
  5
413
100
AcDbEntity
  8
03__ASM_ALL_CURVES
100
AcDbLine
 62
40
  6
CONTINUOUS
 10
6.9836126558
 20
3.4316044326
 11
6.9790728121
 21
3.4134450576
  0
LINE
  5
414
100
AcDbEntity
  8
03__ASM_ALL_CURVES
100
AcDbLine
 62
40
  6
CONTINUOUS
 10
6.9018954683
 20
3.443710684
 11
6.8973556246
 21
3.4376575562
  0
LINE
  5
415
100
AcDbEntity
  8
03__ASM_ALL_CURVES
100
AcDbLine
 62
40
  6
CONTINUOUS
 10
6.9336743746
 20
3.4497638076
 11
6.9427540621
 21
3.461870059
  0
LINE
  5
416
100
AcDbEntity
  8
0
100
AcDbLine
 62
7
  6
CONTINUOUS
 10
7.2460110744
 20
3.7244231826
 11
7.2410110744
 21
3.7194231826
  0
LINE
  5
417
100
AcDbEntity
  8
03__ASM_ALL_CURVES
100
AcDbLine
 62
40
  6
CONTINUOUS
 10
6.8973556246
 20
3.4376575562
 11
6.8882759371
 21
3.4316044326
  0
LINE
  5
418
100
AcDbEntity
  8
03__ASM_ALL_CURVES
100
AcDbLine
 62
40
  6
CONTINUOUS
 10
6.9427540621
 20
3.461870059
 11
6.9518337496
 21
3.4679231826
  0
LINE
  5
419
100
AcDbEntity
  8
03__ASM_ALL_CURVES
100
AcDbLine
 62
40
  6
CONTINUOUS
 10
6.9699931246
 20
3.4013388078
 11
6.9609134371
 21
3.3952856826
  0
LINE
  5
41A
100
AcDbEntity
  8
03__ASM_ALL_CURVES
100
AcDbLine
 62
40
  6
CONTINUOUS
 10
7.0426306246
 20
3.4376575562
 11
7.0335509371
 21
3.4316044326
  0
LINE
  5
41B
100
AcDbEntity
  8
03__ASM_ALL_CURVES
100
AcDbLine
 62
40
  6
CONTINUOUS
 10
7.1606665621
 20
3.461870059
 11
7.1697462496
 21
3.4679231826
  0
LINE
  5
41C
100
AcDbEntity
  8
03__ASM_ALL_CURVES
100
AcDbLine
 62
40
  6
CONTINUOUS
 10
6.9421866993
 20
5.1790491826
 11
6.9542929493
 21
5.1709783512
  0
LINE
  5
41D
100
AcDbEntity
  8
03__ASM_ALL_CURVES
100
AcDbLine
 62
40
  6
CONTINUOUS
 10
7.1237804493
 20
5.0821991826
 11
7.1116741993
 21
5.0902700162
  0
LINE
  5
41E
100
AcDbEntity
  8
03__ASM_ALL_CURVES
100
AcDbLine
 62
40
  6
CONTINUOUS
 10
7.1116741993
 20
5.1467658512
 11
7.1479929493
 21
5.1225533483
  0
LINE
  5
41F
100
AcDbEntity
  8
03__ASM_ALL_CURVES
100
AcDbLine
 62
40
  6
CONTINUOUS
 10
6.9179741993
 20
5.0902700162
 11
6.9058679493
 21
5.1064116826
  0
LINE
  5
420
100
AcDbEntity
  8
03__ASM_ALL_CURVES
100
AcDbLine
 62
40
  6
CONTINUOUS
 10
6.9542929493
 20
5.1709783512
 11
6.9603460743
 21
5.162907514
  0
LINE
  5
421
100
AcDbEntity
  8
03__ASM_ALL_CURVES
100
AcDbLine
 62
40
  6
CONTINUOUS
 10
6.8150710743
 20
5.1790491826
 11
6.8634960743
 21
5.0821991826
  0
LINE
  5
422
100
AcDbEntity
  8
0
100
AcDbLine
 62
7
  6
CONTINUOUS
 10
7.2960110744
 20
3.7199237026
 11
7.2960110744
 21
4.4039226626
  0
LINE
  5
423
100
AcDbEntity
  8
0
100
AcDbLine
 62
7
  6
CONTINUOUS
 10
7.3660110744
 20
4.3849231826
 11
7.3660110744
 21
3.7389231826
  0
LINE
  5
424
100
AcDbEntity
  8
0
100
AcDbLine
 62
7
  6
CONTINUOUS
 10
7.3870110744
 20
3.7244231826
 11
7.3870110744
 21
4.3994231826
  0
LINE
  5
425
100
AcDbEntity
  8
0
100
AcDbLine
 62
7
  6
CONTINUOUS
 10
7.3920110744
 20
3.7194231826
 11
7.3920110744
 21
4.4044231826
  0
LINE
  5
426
100
AcDbEntity
  8
03__ASM_ALL_CURVES
100
AcDbLine
 62
40
  6
CONTINUOUS
 10
7.3961710743
 20
5.0983408497
 11
7.3961710743
 21
5.1790491826
  0
LINE
  5
427
100
AcDbEntity
  8
03__ASM_ALL_CURVES
100
AcDbLine
 62
40
  6
CONTINUOUS
 10
7.1606665621
 20
3.4134450576
 11
7.1561267183
 21
3.3952856826
  0
LINE
  5
428
100
AcDbEntity
  8
03__ASM_ALL_CURVES
100
AcDbLine
 62
40
  6
CONTINUOUS
 10
7.6443491993
 20
5.1306241826
 11
7.6382960743
 21
5.1064116826
  0
LINE
  5
429
100
AcDbEntity
  8
03__ASM_ALL_CURVES
100
AcDbLine
 62
40
  6
CONTINUOUS
 10
6.9790728121
 20
3.4134450576
 11
6.9699931246
 21
3.4013388078
  0
LINE
  5
42A
100
AcDbEntity
  8
03__ASM_ALL_CURVES
100
AcDbLine
 62
40
  6
CONTINUOUS
 10
7.0471704683
 20
3.443710684
 11
7.0426306246
 21
3.4376575562
  0
LINE
  5
42B
100
AcDbEntity
  8
03__ASM_ALL_CURVES
100
AcDbLine
 62
40
  6
CONTINUOUS
 10
7.1561267183
 20
3.4558169312
 11
7.1606665621
 21
3.461870059
  0
LINE
  5
42C
100
AcDbEntity
  8
03__ASM_ALL_CURVES
100
AcDbLine
 62
40
  6
CONTINUOUS
 10
7.1697462496
 20
3.4255513069
 11
7.1606665621
 21
3.4134450576
  0
LINE
  5
42D
100
AcDbEntity
  8
0
100
AcDbLine
 62
7
  6
CONTINUOUS
 10
7.4540110744
 20
3.7344231826
 11
7.4390110744
 21
3.7194231826
  0
LINE
  5
42E
100
AcDbEntity
  8
03__ASM_ALL_CURVES
100
AcDbLine
 62
40
  6
CONTINUOUS
 10
7.1879056246
 20
3.4376575562
 11
7.1697462496
 21
3.4255513069
  0
LINE
  5
42F
100
AcDbEntity
  8
03__ASM_ALL_CURVES
100
AcDbLine
 62
40
  6
CONTINUOUS
 10
7.1479929493
 20
5.1709783512
 11
7.1358866993
 21
5.1790491826
  0
LINE
  5
430
100
AcDbEntity
  8
03__ASM_ALL_CURVES
100
AcDbLine
 62
40
  6
CONTINUOUS
 10
7.3174804493
 20
5.0821991826
 11
7.3053741993
 21
5.0902700162
  0
LINE
  5
431
100
AcDbEntity
  8
03__ASM_ALL_CURVES
100
AcDbLine
 62
40
  6
CONTINUOUS
 10
7.4143304493
 20
5.0821991826
 11
7.4022241993
 21
5.0902700162
  0
LINE
  5
432
100
AcDbEntity
  8
03__ASM_ALL_CURVES
100
AcDbLine
 62
40
  6
CONTINUOUS
 10
7.3295866993
 20
5.1790491826
 11
7.3416929493
 21
5.1709783512
  0
LINE
  5
433
100
AcDbEntity
  8
03__ASM_ALL_CURVES
100
AcDbLine
 62
40
  6
CONTINUOUS
 10
7.7911884185
 20
4.0873463078
 11
7.782108731
 21
4.0994525576
  0
LINE
  5
434
100
AcDbEntity
  8
03__ASM_ALL_CURVES
100
AcDbLine
 62
40
  6
CONTINUOUS
 10
7.745789981
 20
4.147877559
 11
7.7503298248
 21
4.1418244312
  0
LINE
  5
435
100
AcDbEntity
  8
03__ASM_ALL_CURVES
100
AcDbLine
 62
40
  6
CONTINUOUS
 10
7.818427481
 20
4.147877559
 11
7.8275071685
 21
4.1357713076
  0
LINE
  5
436
100
AcDbEntity
  8
03__ASM_ALL_CURVES
100
AcDbLine
 62
40
  6
CONTINUOUS
 10
7.1116741993
 20
5.0902700162
 11
7.0995679493
 21
5.1064116826
  0
LINE
  5
437
100
AcDbEntity
  8
03__ASM_ALL_CURVES
100
AcDbLine
 62
40
  6
CONTINUOUS
 10
7.1056210743
 20
5.1548366826
 11
7.1116741993
 21
5.1467658512
  0
LINE
  5
438
100
AcDbEntity
  8
03__ASM_ALL_CURVES
100
AcDbLine
 62
40
  6
CONTINUOUS
 10
7.1479929493
 20
5.1225533483
 11
7.1540460743
 21
5.1144825169
  0
LINE
  5
439
100
AcDbEntity
  8
03__ASM_ALL_CURVES
100
AcDbLine
 62
40
  6
CONTINUOUS
 10
7.891064981
 20
4.147877559
 11
7.8956048248
 21
4.1418244312
  0
LINE
  5
43A
100
AcDbEntity
  8
03__ASM_ALL_CURVES
100
AcDbLine
 62
40
  6
CONTINUOUS
 10
7.1540460743
 20
5.162907514
 11
7.1479929493
 21
5.1709783512
  0
LINE
  5
43B
100
AcDbEntity
  8
0
100
AcDbLine
 62
7
  6
CONTINUOUS
 10
7.4390110744
 20
3.7194231826
 11
7.4390110744
 21
4.4044231826
  0
LINE
  5
43C
100
AcDbEntity
  8
03__ASM_ALL_CURVES
100
AcDbLine
 62
40
  6
CONTINUOUS
 10
7.4445960743
 20
5.1790491826
 11
7.4445960743
 21
5.0983408497
  0
LINE
  5
43D
100
AcDbEntity
  8
0
100
AcDbLine
 62
7
  6
CONTINUOUS
 10
7.4540110744
 20
3.7344289068
 11
7.4540110744
 21
4.3894174584
  0
LINE
  5
43E
100
AcDbEntity
  8
03__ASM_ALL_CURVES
100
AcDbLine
 62
40
  6
CONTINUOUS
 10
7.4930210743
 20
5.1790491826
 11
7.4930210743
 21
5.0821991826
  0
LINE
  5
43F
100
AcDbEntity
  8
03__ASM_ALL_CURVES
100
AcDbLine
 62
40
  6
CONTINUOUS
 10
7.1924454683
 20
3.443710684
 11
7.1879056246
 21
3.4376575562
  0
LINE
  5
440
100
AcDbEntity
  8
03__ASM_ALL_CURVES
100
AcDbLine
 62
40
  6
CONTINUOUS
 10
7.7503298248
 20
4.129718184
 11
7.745789981
 21
4.1236650562
  0
LINE
  5
441
100
AcDbEntity
  8
03__ASM_ALL_CURVES
100
AcDbLine
 62
40
  6
CONTINUOUS
 10
7.782108731
 20
4.1357713076
 11
7.7911884185
 21
4.147877559
  0
LINE
  5
442
100
AcDbEntity
  8
03__ASM_ALL_CURVES
100
AcDbLine
 62
40
  6
CONTINUOUS
 10
7.8275071685
 20
4.0994525576
 11
7.818427481
 21
4.0873463078
  0
LINE
  5
443
100
AcDbEntity
  8
03__ASM_ALL_CURVES
100
AcDbLine
 62
40
  6
CONTINUOUS
 10
7.8956048248
 20
4.129718184
 11
7.891064981
 21
4.1236650562
  0
LINE
  5
444
100
AcDbEntity
  8
03__ASM_ALL_CURVES
100
AcDbLine
 62
40
  6
CONTINUOUS
 10
7.6140835743
 20
5.1790491826
 11
7.6261898243
 21
5.1709783512
  0
LINE
  5
445
100
AcDbEntity
  8
03__ASM_ALL_CURVES
100
AcDbLine
 62
40
  6
CONTINUOUS
 10
7.3053741993
 20
5.0902700162
 11
7.2932679493
 21
5.1064116826
  0
LINE
  5
446
100
AcDbEntity
  8
03__ASM_ALL_CURVES
100
AcDbLine
 62
40
  6
CONTINUOUS
 10
7.4022241993
 20
5.0902700162
 11
7.3961710743
 21
5.0983408497
  0
LINE
  5
447
100
AcDbEntity
  8
03__ASM_ALL_CURVES
100
AcDbLine
 62
40
  6
CONTINUOUS
 10
7.3416929493
 20
5.1709783512
 11
7.3537991993
 21
5.1548366826
  0
LINE
  5
448
100
AcDbEntity
  8
03__ASM_ALL_CURVES
100
AcDbLine
 62
40
  6
CONTINUOUS
 10
7.2932679493
 20
5.1064116826
 11
7.2872148243
 21
5.1306241826
  0
LINE
  5
449
100
AcDbEntity
  8
03__ASM_ALL_CURVES
100
AcDbLine
 62
40
  6
CONTINUOUS
 10
7.3537991993
 20
5.1548366826
 11
7.3598523243
 21
5.1306241826
  0
LINE
  5
44A
100
AcDbEntity
  8
03__ASM_ALL_CURVES
100
AcDbLine
 62
40
  6
CONTINUOUS
 10
7.5898710743
 20
5.0821991826
 11
7.5898710743
 21
5.1790491826
  0
LINE
  5
44B
100
AcDbEntity
  8
03__ASM_ALL_CURVES
100
AcDbLine
 62
40
  6
CONTINUOUS
 10
7.6867210743
 20
5.0821991826
 11
7.6867210743
 21
5.1790491826
  0
LINE
  5
44C
100
AcDbEntity
  8
03__ASM_ALL_CURVES
100
AcDbLine
 62
40
  6
CONTINUOUS
 10
7.7140110748
 20
4.0812931826
 11
7.7140110748
 21
4.1539306826
  0
LINE
  5
44D
100
AcDbEntity
  8
03__ASM_ALL_CURVES
100
AcDbLine
 62
40
  6
CONTINUOUS
 10
7.8138366993
 20
5.1790491826
 11
7.8259429493
 21
5.1709783512
  0
LINE
  5
44E
100
AcDbEntity
  8
03__ASM_ALL_CURVES
100
AcDbLine
 62
40
  6
CONTINUOUS
 10
7.8819852935
 20
4.1176119326
 11
7.8956048248
 21
4.0812931826
  0
LINE
  5
44F
100
AcDbEntity
  8
03__ASM_ALL_CURVES
100
AcDbLine
 62
40
  6
CONTINUOUS
 10
7.782108731
 20
4.0994525576
 11
7.7775688873
 21
4.1176119326
  0
LINE
  5
450
100
AcDbEntity
  8
03__ASM_ALL_CURVES
100
AcDbLine
 62
40
  6
CONTINUOUS
 10
7.8275071685
 20
4.1357713076
 11
7.8320470123
 21
4.1176119326
  0
LINE
  5
451
100
AcDbEntity
  8
03__ASM_ALL_CURVES
100
AcDbLine
 62
40
  6
CONTINUOUS
 10
7.7503298248
 20
4.1418244312
 11
7.7503298248
 21
4.129718184
  0
LINE
  5
452
100
AcDbEntity
  8
03__ASM_ALL_CURVES
100
AcDbLine
 62
40
  6
CONTINUOUS
 10
7.7835710743
 20
5.0821991826
 11
7.7835710743
 21
5.1790491826
  0
LINE
  5
453
100
AcDbEntity
  8
03__ASM_ALL_CURVES
100
AcDbLine
 62
40
  6
CONTINUOUS
 10
7.8319960743
 20
5.162907514
 11
7.8319960743
 21
5.1467658512
  0
LINE
  5
454
100
AcDbEntity
  8
03__ASM_ALL_CURVES
100
AcDbLine
 62
40
  6
CONTINUOUS
 10
7.8592860748
 20
4.0812931826
 11
7.8592860748
 21
4.1539306826
  0
LINE
  5
455
100
AcDbEntity
  8
03__ASM_ALL_CURVES
100
AcDbLine
 62
40
  6
CONTINUOUS
 10
7.8956048248
 20
4.1418244312
 11
7.8956048248
 21
4.129718184
  0
LINE
  5
456
100
AcDbEntity
  8
03__ASM_ALL_CURVES
100
AcDbLine
 62
40
  6
CONTINUOUS
 10
7.7775688873
 20
4.1176119326
 11
7.782108731
 21
4.1357713076
  0
LINE
  5
457
100
AcDbEntity
  8
03__ASM_ALL_CURVES
100
AcDbLine
 62
40
  6
CONTINUOUS
 10
7.8320470123
 20
4.1176119326
 11
7.8275071685
 21
4.0994525576
  0
LINE
  5
458
100
AcDbEntity
  8
03__ASM_ALL_CURVES
100
AcDbLine
 62
40
  6
CONTINUOUS
 10
7.6261898243
 20
5.1709783512
 11
7.6382960743
 21
5.1548366826
  0
LINE
  5
459
100
AcDbEntity
  8
03__ASM_ALL_CURVES
100
AcDbLine
 62
40
  6
CONTINUOUS
 10
7.6382960743
 20
5.1548366826
 11
7.6443491993
 21
5.1306241826
  0
LINE
  5
45A
100
AcDbEntity
  8
03__ASM_ALL_CURVES
100
AcDbLine
 62
40
  6
CONTINUOUS
 10
7.9500829498
 20
4.1539306826
 11
7.9500829498
 21
4.0812931826
  0
LINE
  5
45B
100
AcDbEntity
  8
03__ASM_ALL_CURVES
100
AcDbLine
 62
40
  6
CONTINUOUS
 10
8.0227204498
 20
4.1539306826
 11
8.0227204498
 21
4.0812931826
  0
LINE
  5
45C
100
AcDbEntity
  8
03__ASM_ALL_CURVES
100
AcDbLine
 62
40
  6
CONTINUOUS
 10
7.8259429493
 20
5.1709783512
 11
7.8319960743
 21
5.162907514
  0
LINE
  5
45D
100
AcDbEntity
  8
03__ASM_ALL_CURVES
100
AcDbLine
 62
40
  6
CONTINUOUS
 10
7.8138366993
 20
5.1306241826
 11
7.8319960743
 21
5.0821991826
  0
ARC
  5
45E
100
AcDbEntity
  8
0
100
AcDbCircle
 62
7
  6
CONTINUOUS
 10
4.1420110744
 20
3.8849231826
 40
0.094
100
AcDbArc
 50
228.732572619
 51
270.0
  0
ARC
  5
45F
100
AcDbEntity
  8
0
100
AcDbCircle
 62
7
  6
CONTINUOUS
 10
3.8290110744
 20
3.9004231826
 40
0.0175
100
AcDbArc
 50
180.0
 51
360.0
  0
ARC
  5
460
100
AcDbEntity
  8
0
100
AcDbCircle
 62
7
  6
CONTINUOUS
 10
4.5280110744
 20
3.7039231826
 40
0.008
100
AcDbArc
 50
0.0
 51
90.0
  0
ARC
  5
461
100
AcDbEntity
  8
0
100
AcDbCircle
 62
7
  6
CONTINUOUS
 10
4.5060110744
 20
3.7039231826
 40
0.008
100
AcDbArc
 50
90.0
 51
180.0
  0
ARC
  5
462
100
AcDbEntity
  8
0
100
AcDbCircle
 62
7
  6
CONTINUOUS
 10
4.5410110744
 20
3.6934231826
 40
0.005
100
AcDbArc
 50
180.0
 51
270.0
  0
ARC
  5
463
100
AcDbEntity
  8
0
100
AcDbCircle
 62
7
  6
CONTINUOUS
 10
4.4930110744
 20
3.6934231826
 40
0.005
100
AcDbArc
 50
270.0
 51
360.0
  0
ARC
  5
464
100
AcDbEntity
  8
0
100
AcDbCircle
 62
7
  6
CONTINUOUS
 10
4.1420110744
 20
4.2389231826
 40
0.094
100
AcDbArc
 50
90.0
 51
131.267427381
  0
ARC
  5
465
100
AcDbEntity
  8
0
100
AcDbCircle
 62
7
  6
CONTINUOUS
 10
4.5280110744
 20
4.4199231826
 40
0.008
100
AcDbArc
 50
270.0
 51
360.0
  0
ARC
  5
466
100
AcDbEntity
  8
0
100
AcDbCircle
 62
7
  6
CONTINUOUS
 10
4.5060110744
 20
4.4199231826
 40
0.008
100
AcDbArc
 50
180.0
 51
270.0
  0
ARC
  5
467
100
AcDbEntity
  8
0
100
AcDbCircle
 62
7
  6
CONTINUOUS
 10
4.5410110744
 20
4.4304231826
 40
0.005
100
AcDbArc
 50
90.0
 51
180.0
  0
ARC
  5
468
100
AcDbEntity
  8
0
100
AcDbCircle
 62
7
  6
CONTINUOUS
 10
4.4930110744
 20
4.4304231826
 40
0.005
100
AcDbArc
 50
0.0
 51
90.0
  0
ARC
  5
469
100
AcDbEntity
  8
0
100
AcDbCircle
 62
7
  6
CONTINUOUS
 10
5.6130110744
 20
3.6749231826
 40
0.013
100
AcDbArc
 50
0.0000000041
 51
90.0
  0
ARC
  5
46A
100
AcDbEntity
  8
0
100
AcDbCircle
 62
7
  6
CONTINUOUS
 10
6.2585055209
 20
3.6984231826
 40
0.013
100
AcDbArc
 50
29.9999999851
 51
90.0
  0
ARC
  5
46B
100
AcDbEntity
  8
0
100
AcDbCircle
 62
7
  6
CONTINUOUS
 10
6.1037335062
 20
3.6519231826
 40
0.005
100
AcDbArc
 50
90.0
 51
120.0000000002
  0
ARC
  5
46C
100
AcDbEntity
  8
0
100
AcDbCircle
 62
7
  6
CONTINUOUS
 10
6.0840110744
 20
3.6405364312
 40
0.005
100
AcDbArc
 50
120.0000000147
 51
179.9999999996
  0
ARC
  5
46D
100
AcDbEntity
  8
0
100
AcDbCircle
 62
7
  6
CONTINUOUS
 10
6.0760110744
 20
3.6374231826
 40
0.003
100
AcDbArc
 50
270.0
 51
360.0
  0
CIRCLE
  5
46E
100
AcDbEntity
  8
0
100
AcDbCircle
 62
7
  6
CONTINUOUS
 10
6.8030110744
 20
4.0619231826
 40
0.0235
  0
ARC
  5
46F
100
AcDbEntity
  8
0
100
AcDbCircle
 62
7
  6
CONTINUOUS
 10
5.6130110744
 20
4.4489231826
 40
0.013
100
AcDbArc
 50
270.0
 51
359.9999999985
  0
ARC
  5
470
100
AcDbEntity
  8
0
100
AcDbCircle
 62
7
  6
CONTINUOUS
 10
6.2585055209
 20
4.4254231826
 40
0.013
100
AcDbArc
 50
270.0
 51
330.0000000002
  0
ARC
  5
471
100
AcDbEntity
  8
0
100
AcDbCircle
 62
7
  6
CONTINUOUS
 10
6.1037335062
 20
4.4719231826
 40
0.005
100
AcDbArc
 50
239.9999999998
 51
270.0
  0
ARC
  5
472
100
AcDbEntity
  8
0
100
AcDbCircle
 62
7
  6
CONTINUOUS
 10
6.0840110744
 20
4.4833099339
 40
0.005
100
AcDbArc
 50
180.0000000005
 51
239.9999999827
  0
ARC
  5
473
100
AcDbEntity
  8
0
100
AcDbCircle
 62
7
  6
CONTINUOUS
 10
6.0760110744
 20
4.4864231826
 40
0.003
100
AcDbArc
 50
0.0
 51
90.0
  0
SPLINE
  5
474
100
AcDbEntity
  8
0
100
AcDbSpline
 62
7
  6
CONTINUOUS
 70
0
 71
3
 72
20
 73
16
 74
14
 42
0.0000001
 43
0.0000001
 44
0.0000000001
 12
0.0
 22
0.0416605862
 32
0.0
 13
0.0
 23
-0.0416605862
 33
0.0
 40
0.0
 40
0.0
 40
0.0
 40
0.0
 40
0.0489307848
 40
0.1062135912
 40
0.175871992
 40
0.2580136346
 40
0.3503828832
 40
0.4493672053
 40
0.5506327947
 40
0.6496171168
 40
0.7419863654
 40
0.824128008
 40
0.8937864088
 40
0.9510692152
 40
1.0
 40
1.0
 40
1.0
 40
1.0
 10
3.8465110744
 20
4.1380467514
 30
0.0
 10
3.8465110744
 20
4.1387262465
 30
0.0
 10
3.8460895404
 20
4.1402122575
 30
0.0
 10
3.8444542726
 20
4.1420906848
 30
0.0
 10
3.8420023521
 20
4.1436896851
 30
0.0
 10
3.8388431197
 20
4.1449644362
 30
0.0
 10
3.8351400261
 20
4.145856424
 30
0.0
 10
3.8310931172
 20
4.1463156617
 30
0.0
 10
3.8269290316
 20
4.1463156617
 30
0.0
 10
3.8228821226
 20
4.145856424
 30
0.0
 10
3.819179029
 20
4.1449644362
 30
0.0
 10
3.8160197966
 20
4.1436896851
 30
0.0
 10
3.8135678761
 20
4.1420906848
 30
0.0
 10
3.8119326083
 20
4.1402122575
 30
0.0
 10
3.8115110744
 20
4.1387262465
 30
0.0
 10
3.8115110744
 20
4.1380467514
 30
0.0
 11
3.8465110744
 21
4.1380467514
 31
0.0
 11
3.8460025562
 21
4.1400207907
 31
0.0
 11
3.8445065548
 21
4.141880106
 31
0.0
 11
3.8421100125
 21
4.1435166406
 31
0.0
 11
3.8389522074
 21
4.1448352852
 31
0.0
 11
3.8352166599
 21
4.1457594049
 31
0.0
 11
3.8311204663
 21
4.1462352932
 31
0.0
 11
3.8269016825
 21
4.1462352932
 31
0.0
 11
3.8228054888
 21
4.1457594049
 31
0.0
 11
3.8190699413
 21
4.1448352852
 31
0.0
 11
3.8159121363
 21
4.1435166406
 31
0.0
 11
3.8135155939
 21
4.141880106
 31
0.0
 11
3.8120195926
 21
4.1400207907
 31
0.0
 11
3.8115110744
 21
4.1380467514
 31
0.0
  0
SPLINE
  5
475
100
AcDbEntity
  8
0
100
AcDbSpline
 62
7
  6
CONTINUOUS
 70
0
 71
3
 72
15
 73
11
 74
9
 42
0.0000001
 43
0.0000001
 44
0.0000000001
 12
0.0
 22
0.1099409465
 32
0.0
 13
0.0
 23
-0.1099409465
 33
0.0
 40
0.0
 40
0.0
 40
0.0
 40
0.0
 40
0.125
 40
0.25
 40
0.375
 40
0.5
 40
0.625
 40
0.75
 40
0.875
 40
1.0
 40
1.0
 40
1.0
 40
1.0
 10
7.3660110744
 20
4.3849231826
 30
0.0
 10
7.3660110744
 20
4.3895040554
 30
0.0
 10
7.3641886899
 20
4.3986658009
 30
0.0
 10
7.3564041219
 20
4.4103162302
 30
0.0
 10
7.3447536927
 20
4.4181007981
 30
0.0
 10
7.3310110744
 20
4.4208343748
 30
0.0
 10
7.3172684561
 20
4.4181007981
 30
0.0
 10
7.3056180268
 20
4.4103162302
 30
0.0
 10
7.2978334589
 20
4.3986658009
 30
0.0
 10
7.2960110744
 20
4.3895040554
 30
0.0
 10
7.2960110744
 20
4.3849231826
 30
0.0
 11
7.3660110744
 21
4.3849231826
 31
0.0
 11
7.363346858
 21
4.3983171027
 31
0.0
 11
7.3557598117
 21
4.4096719199
 31
0.0
 11
7.3444049945
 21
4.4172589662
 31
0.0
 11
7.3310110744
 21
4.4199231826
 31
0.0
 11
7.3176171542
 21
4.4172589662
 31
0.0
 11
7.306262337
 21
4.4096719199
 31
0.0
 11
7.2986752907
 21
4.3983171027
 31
0.0
 11
7.2960110744
 21
4.3849231826
 31
0.0
  0
SPLINE
  5
476
100
AcDbEntity
  8
0
100
AcDbSpline
 62
7
  6
CONTINUOUS
 70
0
 71
3
 72
15
 73
11
 74
9
 42
0.0000001
 43
0.0000001
 44
0.0000000001
 12
0.0
 22
-0.1099409465
 32
0.0
 13
0.0
 23
0.1099409465
 33
0.0
 40
0.0
 40
0.0
 40
0.0
 40
0.0
 40
0.125
 40
0.25
 40
0.375
 40
0.5
 40
0.625
 40
0.75
 40
0.875
 40
1.0
 40
1.0
 40
1.0
 40
1.0
 10
7.3660110744
 20
3.7389231826
 30
0.0
 10
7.3660110744
 20
3.7343423098
 30
0.0
 10
7.3641886899
 20
3.7251805643
 30
0.0
 10
7.3564041219
 20
3.713530135
 30
0.0
 10
7.3447536927
 20
3.7057455671
 30
0.0
 10
7.3310110744
 20
3.7030119903
 30
0.0
 10
7.3172684561
 20
3.7057455671
 30
0.0
 10
7.3056180268
 20
3.713530135
 30
0.0
 10
7.2978334589
 20
3.7251805643
 30
0.0
 10
7.2960110744
 20
3.7343423098
 30
0.0
 10
7.2960110744
 20
3.7389231826
 30
0.0
 11
7.3660110744
 21
3.7389231826
 31
0.0
 11
7.363346858
 21
3.7255292625
 31
0.0
 11
7.3557598117
 21
3.7141744453
 31
0.0
 11
7.3444049945
 21
3.706587399
 31
0.0
 11
7.3310110744
 21
3.7039231826
 31
0.0
 11
7.3176171542
 21
3.706587399
 31
0.0
 11
7.306262337
 21
3.7141744453
 31
0.0
 11
7.2986752907
 21
3.7255292625
 31
0.0
 11
7.2960110744
 21
3.7389231826
 31
0.0
  0
SPLINE
  5
477
100
AcDbEntity
  8
0
100
AcDbSpline
 62
7
  6
CONTINUOUS
 70
0
 71
3
 72
15
 73
11
 74
9
 42
0.0000001
 43
0.0000001
 44
0.0000000001
 12
0.0
 22
0.1099409465
 32
0.0
 13
0.0
 23
-0.1099409465
 33
0.0
 40
0.0
 40
0.0
 40
0.0
 40
0.0
 40
0.125
 40
0.25
 40
0.375
 40
0.5
 40
0.625
 40
0.75
 40
0.875
 40
1.0
 40
1.0
 40
1.0
 40
1.0
 10
5.6050110744
 20
4.4709231826
 30
0.0
 10
5.6050110744
 20
4.4755040554
 30
0.0
 10
5.6031886899
 20
4.4846658009
 30
0.0
 10
5.5954041219
 20
4.4963162302
 30
0.0
 10
5.5837536927
 20
4.5041007981
 30
0.0
 10
5.5700110744
 20
4.5068343748
 30
0.0
 10
5.5562684561
 20
4.5041007981
 30
0.0
 10
5.5446180268
 20
4.4963162302
 30
0.0
 10
5.5368334589
 20
4.4846658009
 30
0.0
 10
5.5350110744
 20
4.4755040554
 30
0.0
 10
5.5350110744
 20
4.4709231826
 30
0.0
 11
5.6050110744
 21
4.4709231826
 31
0.0
 11
5.602346858
 21
4.4843171027
 31
0.0
 11
5.5947598117
 21
4.4956719199
 31
0.0
 11
5.5834049945
 21
4.5032589662
 31
0.0
 11
5.5700110744
 21
4.5059231826
 31
0.0
 11
5.5566171542
 21
4.5032589662
 31
0.0
 11
5.545262337
 21
4.4956719199
 31
0.0
 11
5.5376752907
 21
4.4843171027
 31
0.0
 11
5.5350110744
 21
4.4709231826
 31
0.0
  0
SPLINE
  5
478
100
AcDbEntity
  8
0
100
AcDbSpline
 62
7
  6
CONTINUOUS
 70
0
 71
3
 72
15
 73
11
 74
9
 42
0.0000001
 43
0.0000001
 44
0.0000000001
 12
0.0
 22
-0.1099409465
 32
0.0
 13
0.0
 23
0.1099409465
 33
0.0
 40
0.0
 40
0.0
 40
0.0
 40
0.0
 40
0.125
 40
0.25
 40
0.375
 40
0.5
 40
0.625
 40
0.75
 40
0.875
 40
1.0
 40
1.0
 40
1.0
 40
1.0
 10
5.6050110744
 20
3.6529231826
 30
0.0
 10
5.6050110744
 20
3.6483423098
 30
0.0
 10
5.6031886899
 20
3.6391805643
 30
0.0
 10
5.5954041219
 20
3.627530135
 30
0.0
 10
5.5837536927
 20
3.6197455671
 30
0.0
 10
5.5700110744
 20
3.6170119903
 30
0.0
 10
5.5562684561
 20
3.6197455671
 30
0.0
 10
5.5446180268
 20
3.627530135
 30
0.0
 10
5.5368334589
 20
3.6391805643
 30
0.0
 10
5.5350110744
 20
3.6483423098
 30
0.0
 10
5.5350110744
 20
3.6529231826
 30
0.0
 11
5.6050110744
 21
3.6529231826
 31
0.0
 11
5.602346858
 21
3.6395292625
 31
0.0
 11
5.5947598117
 21
3.6281744453
 31
0.0
 11
5.5834049945
 21
3.620587399
 31
0.0
 11
5.5700110744
 21
3.6179231826
 31
0.0
 11
5.5566171542
 21
3.620587399
 31
0.0
 11
5.545262337
 21
3.6281744453
 31
0.0
 11
5.5376752907
 21
3.6395292625
 31
0.0
 11
5.5350110744
 21
3.6529231826
 31
0.0
  0
SPLINE
  5
479
100
AcDbEntity
  8
0
100
AcDbSpline
 62
7
  6
CONTINUOUS
 70
0
 71
3
 72
15
 73
11
 74
9
 42
0.0000001
 43
0.0000001
 44
0.0000000001
 12
0.0
 22
0.1099409465
 32
0.0
 13
0.0
 23
-0.1099409465
 33
0.0
 40
0.0
 40
0.0
 40
0.0
 40
0.0
 40
0.125
 40
0.25
 40
0.375
 40
0.5
 40
0.625
 40
0.75
 40
0.875
 40
1.0
 40
1.0
 40
1.0
 40
1.0
 10
6.1960110744
 20
4.4709231826
 30
0.0
 10
6.1960110744
 20
4.4755040554
 30
0.0
 10
6.1941886899
 20
4.4846658009
 30
0.0
 10
6.1864041219
 20
4.4963162302
 30
0.0
 10
6.1747536927
 20
4.5041007981
 30
0.0
 10
6.1610110744
 20
4.5068343748
 30
0.0
 10
6.1472684561
 20
4.5041007981
 30
0.0
 10
6.1356180268
 20
4.4963162302
 30
0.0
 10
6.1278334589
 20
4.4846658009
 30
0.0
 10
6.1260110744
 20
4.4755040554
 30
0.0
 10
6.1260110744
 20
4.4709231826
 30
0.0
 11
6.1960110744
 21
4.4709231826
 31
0.0
 11
6.193346858
 21
4.4843171027
 31
0.0
 11
6.1857598117
 21
4.4956719199
 31
0.0
 11
6.1744049945
 21
4.5032589662
 31
0.0
 11
6.1610110744
 21
4.5059231826
 31
0.0
 11
6.1476171542
 21
4.5032589662
 31
0.0
 11
6.136262337
 21
4.4956719199
 31
0.0
 11
6.1286752907
 21
4.4843171027
 31
0.0
 11
6.1260110744
 21
4.4709231826
 31
0.0
  0
SPLINE
  5
47A
100
AcDbEntity
  8
0
100
AcDbSpline
 62
7
  6
CONTINUOUS
 70
0
 71
3
 72
15
 73
11
 74
9
 42
0.0000001
 43
0.0000001
 44
0.0000000001
 12
0.0
 22
-0.1099409465
 32
0.0
 13
0.0
 23
0.1099409465
 33
0.0
 40
0.0
 40
0.0
 40
0.0
 40
0.0
 40
0.125
 40
0.25
 40
0.375
 40
0.5
 40
0.625
 40
0.75
 40
0.875
 40
1.0
 40
1.0
 40
1.0
 40
1.0
 10
6.1960110744
 20
3.6529231826
 30
0.0
 10
6.1960110744
 20
3.6483423098
 30
0.0
 10
6.1941886899
 20
3.6391805643
 30
0.0
 10
6.1864041219
 20
3.627530135
 30
0.0
 10
6.1747536927
 20
3.6197455671
 30
0.0
 10
6.1610110744
 20
3.6170119903
 30
0.0
 10
6.1472684561
 20
3.6197455671
 30
0.0
 10
6.1356180268
 20
3.627530135
 30
0.0
 10
6.1278334589
 20
3.6391805643
 30
0.0
 10
6.1260110744
 20
3.6483423098
 30
0.0
 10
6.1260110744
 20
3.6529231826
 30
0.0
 11
6.1960110744
 21
3.6529231826
 31
0.0
 11
6.193346858
 21
3.6395292625
 31
0.0
 11
6.1857598117
 21
3.6281744453
 31
0.0
 11
6.1744049945
 21
3.620587399
 31
0.0
 11
6.1610110744
 21
3.6179231826
 31
0.0
 11
6.1476171542
 21
3.620587399
 31
0.0
 11
6.136262337
 21
3.6281744453
 31
0.0
 11
6.1286752907
 21
3.6395292625
 31
0.0
 11
6.1260110744
 21
3.6529231826
 31
0.0
  0
SPLINE
  5
47B
100
AcDbEntity
  8
0
100
AcDbSpline
 62
7
  6
CONTINUOUS
 70
0
 71
3
 72
16
 73
12
 74
10
 42
0.0000001
 43
0.0000001
 44
0.0000000001
 12
0.0906480335
 22
0.2719441006
 32
0.0
 13
-0.0906480335
 23
0.2719441006
 33
0.0
 40
0.0
 40
0.0
 40
0.0
 40
0.0
 40
0.1184548733
 40
0.230565332
 40
0.3393089466
 40
0.4465959239
 40
0.5535015371
 40
0.6607803311
 40
0.769505023
 40
0.8815660643
 40
1.0
 40
1.0
 40
1.0
 40
1.0
 10
4.330139664
 20
3.7809231826
 30
0.0
 10
4.3337188978
 20
3.7916608839
 30
0.0
 10
4.3401499844
 20
3.8127469308
 30
0.0
 10
4.3476694141
 20
3.8443079856
 30
0.0
 10
4.3527576415
 20
3.8752768037
 30
0.0
 10
4.3553445037
 20
3.9060598733
 30
0.0
 10
4.3553433154
 20
3.9368136743
 30
0.0
 10
4.3527544748
 20
3.9675939657
 30
0.0
 10
4.3476657401
 20
3.9985552675
 30
0.0
 10
4.3401474833
 20
4.0301077991
 30
0.0
 10
4.3337182651
 20
4.0511873792
 30
0.0
 10
4.330139664
 20
4.0619231826
 30
0.0
 11
4.330139664
 21
3.7809231826
 31
0.0
 11
4.3399781336
 21
3.8134222105
 31
0.0
 11
4.3473653041
 21
3.8446986009
 31
0.0
 11
4.3523699215
 21
3.8754660534
 31
0.0
 11
4.3549168868
 21
3.9061146746
 31
0.0
 11
4.3549157166
 21
3.9367596231
 31
0.0
 11
4.3523667765
 21
3.9674057262
 31
0.0
 11
4.3473613375
 21
3.9981675494
 31
0.0
 11
4.339976566
 21
4.029429951
 31
0.0
 11
4.330139664
 21
4.0619231826
 31
0.0
  0
SPLINE
  5
47C
100
AcDbEntity
  8
0
100
AcDbSpline
 62
7
  6
CONTINUOUS
 70
0
 71
3
 72
17
 73
13
 74
11
 42
0.0000001
 43
0.0000001
 44
0.0000000001
 12
-0.1487434696
 22
0.2576312467
 32
0.0
 13
0.1487434696
 23
0.2576312467
 33
0.0
 40
0.0
 40
0.0
 40
0.0
 40
0.0
 40
0.1169386465
 40
0.2216811606
 40
0.3184580982
 40
0.4103908543
 40
0.5000417254
 40
0.5896883004
 40
0.6816074548
 40
0.7783545182
 40
0.8830694657
 40
1.0
 40
1.0
 40
1.0
 40
1.0
 10
4.2284819256
 20
3.7809231826
 30
0.0
 10
4.2226839723
 20
3.7909655324
 30
0.0
 10
4.2123441447
 20
3.8103953798
 30
0.0
 10
4.1999705213
 20
3.8394974574
 30
0.0
 10
4.1913170746
 20
3.8673390201
 30
0.0
 10
4.18615997
 20
3.8945223397
 30
0.0
 10
4.1844430896
 20
3.9214352246
 30
0.0
 10
4.1861629753
 20
3.9483465494
 30
0.0
 10
4.1913217269
 20
3.97552469
 30
0.0
 10
4.1999745787
 20
4.003358996
 30
0.0
 10
4.2123461661
 20
4.0324548357
 30
0.0
 10
4.2226843745
 20
4.0518815295
 30
0.0
 10
4.2284819256
 20
4.0619231826
 30
0.0
 11
4.2284819256
 21
3.7809231826
 31
0.0
 11
4.2122556942
 21
3.8116948396
 31
0.0
 11
4.2001709377
 21
3.8404154762
 31
0.0
 11
4.1917182644
 21
3.8679365448
 31
0.0
 11
4.1866853791
 21
3.89481826
 31
0.0
 11
4.1850110747
 21
3.9214356161
 31
0.0
 11
4.186688317
 21
3.9480515066
 31
0.0
 11
4.1917229637
 21
3.9749287753
 31
0.0
 11
4.2001745787
 21
4.0024408719
 31
0.0
 11
4.2122567299
 21
4.0311537076
 31
0.0
 11
4.2284819256
 21
4.0619231826
 31
0.0
  0
SPLINE
  5
47D
100
AcDbEntity
  8
0
100
AcDbSpline
 62
7
  6
CONTINUOUS
 70
0
 71
3
 72
16
 73
12
 74
10
 42
0.0000001
 43
0.0000001
 44
0.0000000001
 12
0.0906480335
 22
0.2719441006
 32
0.0
 13
-0.0906480335
 23
0.2719441006
 33
0.0
 40
0.0
 40
0.0
 40
0.0
 40
0.0
 40
0.1184548733
 40
0.230565332
 40
0.3393089466
 40
0.4465959239
 40
0.5535015371
 40
0.6607803311
 40
0.769505023
 40
0.8815660643
 40
1.0
 40
1.0
 40
1.0
 40
1.0
 10
4.330139664
 20
4.0619231826
 30
0.0
 10
4.3337188978
 20
4.0726608839
 30
0.0
 10
4.3401499844
 20
4.0937469308
 30
0.0
 10
4.3476694141
 20
4.1253079856
 30
0.0
 10
4.3527576415
 20
4.1562768037
 30
0.0
 10
4.3553445037
 20
4.1870598733
 30
0.0
 10
4.3553433154
 20
4.2178136743
 30
0.0
 10
4.3527544748
 20
4.2485939657
 30
0.0
 10
4.3476657401
 20
4.2795552675
 30
0.0
 10
4.3401474833
 20
4.3111077991
 30
0.0
 10
4.3337182651
 20
4.3321873792
 30
0.0
 10
4.330139664
 20
4.3429231826
 30
0.0
 11
4.330139664
 21
4.0619231826
 31
0.0
 11
4.3399781336
 21
4.0944222105
 31
0.0
 11
4.3473653041
 21
4.1256986009
 31
0.0
 11
4.3523699215
 21
4.1564660534
 31
0.0
 11
4.3549168868
 21
4.1871146746
 31
0.0
 11
4.3549157166
 21
4.2177596231
 31
0.0
 11
4.3523667765
 21
4.2484057262
 31
0.0
 11
4.3473613375
 21
4.2791675494
 31
0.0
 11
4.339976566
 21
4.310429951
 31
0.0
 11
4.330139664
 21
4.3429231826
 31
0.0
  0
SPLINE
  5
47E
100
AcDbEntity
  8
0
100
AcDbSpline
 62
7
  6
CONTINUOUS
 70
0
 71
3
 72
17
 73
13
 74
11
 42
0.0000001
 43
0.0000001
 44
0.0000000001
 12
-0.1487434696
 22
0.2576312467
 32
0.0
 13
0.1487434696
 23
0.2576312467
 33
0.0
 40
0.0
 40
0.0
 40
0.0
 40
0.0
 40
0.1169386465
 40
0.2216811606
 40
0.3184580982
 40
0.4103908543
 40
0.5000417254
 40
0.5896883004
 40
0.6816074548
 40
0.7783545182
 40
0.8830694657
 40
1.0
 40
1.0
 40
1.0
 40
1.0
 10
4.2284819256
 20
4.0619231826
 30
0.0
 10
4.2226839723
 20
4.0719655324
 30
0.0
 10
4.2123441447
 20
4.0913953798
 30
0.0
 10
4.1999705213
 20
4.1204974574
 30
0.0
 10
4.1913170746
 20
4.1483390201
 30
0.0
 10
4.18615997
 20
4.1755223397
 30
0.0
 10
4.1844430896
 20
4.2024352246
 30
0.0
 10
4.1861629753
 20
4.2293465494
 30
0.0
 10
4.1913217269
 20
4.25652469
 30
0.0
 10
4.1999745787
 20
4.284358996
 30
0.0
 10
4.2123461661
 20
4.3134548357
 30
0.0
 10
4.2226843745
 20
4.3328815295
 30
0.0
 10
4.2284819256
 20
4.3429231826
 30
0.0
 11
4.2284819256
 21
4.0619231826
 31
0.0
 11
4.2122556942
 21
4.0926948396
 31
0.0
 11
4.2001709377
 21
4.1214154762
 31
0.0
 11
4.1917182644
 21
4.1489365448
 31
0.0
 11
4.1866853791
 21
4.17581826
 31
0.0
 11
4.1850110747
 21
4.2024356161
 31
0.0
 11
4.186688317
 21
4.2290515066
 31
0.0
 11
4.1917229637
 21
4.2559287753
 31
0.0
 11
4.2001745787
 21
4.2834408719
 31
0.0
 11
4.2122567299
 21
4.3121537076
 31
0.0
 11
4.2284819256
 21
4.3429231826
 31
0.0
  0
SPLINE
  5
47F
100
AcDbEntity
  8
0
100
AcDbSpline
 62
7
  6
CONTINUOUS
 70
0
 71
3
 72
8
 73
4
 74
2
 42
0.0000001
 43
0.0000001
 44
0.0000000001
 12
0.0007911723
 22
0.000066402
 32
0.0
 13
0.0007913554
 23
0.0000641959
 33
0.0
 40
0.0
 40
0.0
 40
0.0
 40
0.0
 40
1.0
 40
1.0
 40
1.0
 40
1.0
 10
6.7795110744
 20
3.7819231826
 30
0.0
 10
6.7797747985
 20
3.7819453166
 30
0.0
 10
6.7800385536
 20
3.7819670832
 30
0.0
 10
6.7803023387
 20
3.7819884819
 30
0.0
 11
6.7795110744
 21
3.7819231826
 31
0.0
 11
6.7803023387
 21
3.7819884819
 31
0.0
  0
SPLINE
  5
480
100
AcDbEntity
  8
0
100
AcDbSpline
 62
7
  6
CONTINUOUS
 70
0
 71
3
 72
17
 73
13
 74
11
 42
0.0000001
 43
0.0000001
 44
0.0000000001
 12
0.0453179184
 22
0.0036762577
 32
0.0
 13
0.0453179184
 23
-0.0036762577
 33
0.0
 40
0.0
 40
0.0
 40
0.0
 40
0.0
 40
0.0516684602
 40
0.1340012387
 40
0.2412954162
 40
0.3661810706
 40
0.5001177428
 40
0.6340125502
 40
0.7588046926
 40
0.8660209935
 40
0.9483111202
 40
1.0
 40
1.0
 40
1.0
 40
1.0
 10
6.7803023387
 20
3.7819884819
 30
0.0
 10
6.7810828411
 20
3.7820517974
 30
0.0
 10
6.7831077418
 20
3.7822076503
 30
0.0
 10
6.7867568421
 20
3.7824490981
 30
0.0
 10
6.7915175588
 20
3.78269106
 30
0.0
 10
6.797063816
 20
3.7828683793
 30
0.0
 10
6.8030157939
 20
3.7829332383
 30
0.0
 10
6.808966352
 20
3.7828681867
 30
0.0
 10
6.8145093739
 20
3.7826908384
 30
0.0
 10
6.8192668479
 20
3.7824489943
 30
0.0
 10
6.8229144341
 20
3.7822076461
 30
0.0
 10
6.8249389992
 20
3.7820518224
 30
0.0
 10
6.82571981
 20
3.7819884819
 30
0.0
 11
6.7803023387
 21
3.7819884819
 31
0.0
 11
6.7826446085
 21
3.7821687493
 31
0.0
 11
6.786379847
 21
3.7824158522
 31
0.0
 11
6.7912518789
 21
3.7826633955
 31
0.0
 11
6.7969271252
 21
3.7828447627
 31
0.0
 11
6.803016428
 21
3.782911086
 31
0.0
 11
6.8091038251
 21
3.7828445707
 31
0.0
 11
6.8147748176
 21
3.782663204
 31
0.0
 11
6.8196433108
 21
3.7824157922
 31
0.0
 11
6.8233766143
 21
3.7821688167
 31
0.0
 11
6.82571981
 21
3.7819884819
 31
0.0
  0
SPLINE
  5
481
100
AcDbEntity
  8
0
100
AcDbSpline
 62
7
  6
CONTINUOUS
 70
0
 71
3
 72
8
 73
4
 74
2
 42
0.0000001
 43
0.0000001
 44
0.0000000001
 12
0.0007913554
 22
-0.0000641959
 32
0.0
 13
0.0007911723
 23
-0.000066402
 33
0.0
 40
0.0
 40
0.0
 40
0.0
 40
0.0
 40
1.0
 40
1.0
 40
1.0
 40
1.0
 10
6.82571981
 20
3.7819884819
 30
0.0
 10
6.8259835951
 20
3.7819670832
 30
0.0
 10
6.8262473503
 20
3.7819453166
 30
0.0
 10
6.8265110744
 20
3.7819231826
 30
0.0
 11
6.82571981
 21
3.7819884819
 31
0.0
 11
6.8265110744
 21
3.7819231826
 31
0.0
  0
SPLINE
  5
482
100
AcDbEntity
  8
0
100
AcDbSpline
 62
7
  6
CONTINUOUS
 70
0
 71
3
 72
8
 73
4
 74
2
 42
0.0000001
 43
0.0000001
 44
0.0000000001
 12
-0.0007911723
 22
-0.000066402
 32
0.0
 13
-0.0007913554
 23
-0.0000641959
 33
0.0
 40
0.0
 40
0.0
 40
0.0
 40
0.0
 40
1.0
 40
1.0
 40
1.0
 40
1.0
 10
6.8265110744
 20
4.3419231826
 30
0.0
 10
6.8262473503
 20
4.3419010486
 30
0.0
 10
6.8259835951
 20
4.341879282
 30
0.0
 10
6.82571981
 20
4.3418578833
 30
0.0
 11
6.8265110744
 21
4.3419231826
 31
0.0
 11
6.82571981
 21
4.3418578833
 31
0.0
  0
SPLINE
  5
483
100
AcDbEntity
  8
0
100
AcDbSpline
 62
7
  6
CONTINUOUS
 70
0
 71
3
 72
17
 73
13
 74
11
 42
0.0000001
 43
0.0000001
 44
0.0000000001
 12
-0.0453179184
 22
-0.0036762577
 32
0.0
 13
-0.0453179184
 23
0.0036762577
 33
0.0
 40
0.0
 40
0.0
 40
0.0
 40
0.0
 40
0.0516684602
 40
0.1340012387
 40
0.2412954162
 40
0.3661810706
 40
0.5001177428
 40
0.6340125502
 40
0.7588046926
 40
0.8660209935
 40
0.9483111202
 40
1.0
 40
1.0
 40
1.0
 40
1.0
 10
6.82571981
 20
4.3418578833
 30
0.0
 10
6.8249393077
 20
4.3417945678
 30
0.0
 10
6.8229144069
 20
4.3416387149
 30
0.0
 10
6.8192653066
 20
4.3413972671
 30
0.0
 10
6.81450459
 20
4.3411553052
 30
0.0
 10
6.8089583327
 20
4.3409779859
 30
0.0
 10
6.8030063548
 20
4.3409131269
 30
0.0
 10
6.7970557967
 20
4.3409781785
 30
0.0
 10
6.7915127748
 20
4.3411555268
 30
0.0
 10
6.7867553008
 20
4.3413973709
 30
0.0
 10
6.7831077146
 20
4.3416387191
 30
0.0
 10
6.7810831495
 20
4.3417945428
 30
0.0
 10
6.7803023387
 20
4.3418578833
 30
0.0
 11
6.82571981
 21
4.3418578833
 31
0.0
 11
6.8233775402
 21
4.3416776159
 31
0.0
 11
6.8196423017
 21
4.341430513
 31
0.0
 11
6.8147702698
 21
4.3411829697
 31
0.0
 11
6.8090950235
 21
4.3410016025
 31
0.0
 11
6.8030057207
 21
4.3409352792
 31
0.0
 11
6.7969183236
 21
4.3410017945
 31
0.0
 11
6.7912473311
 21
4.3411831612
 31
0.0
 11
6.7863788379
 21
4.341430573
 31
0.0
 11
6.7826455345
 21
4.3416775485
 31
0.0
 11
6.7803023387
 21
4.3418578833
 31
0.0
  0
SPLINE
  5
484
100
AcDbEntity
  8
0
100
AcDbSpline
 62
7
  6
CONTINUOUS
 70
0
 71
3
 72
8
 73
4
 74
2
 42
0.0000001
 43
0.0000001
 44
0.0000000001
 12
-0.0007913554
 22
0.0000641959
 32
0.0
 13
-0.0007911723
 23
0.000066402
 33
0.0
 40
0.0
 40
0.0
 40
0.0
 40
0.0
 40
1.0
 40
1.0
 40
1.0
 40
1.0
 10
6.7803023387
 20
4.3418578833
 30
0.0
 10
6.7800385536
 20
4.341879282
 30
0.0
 10
6.7797747985
 20
4.3419010486
 30
0.0
 10
6.7795110744
 20
4.3419231826
 30
0.0
 11
6.7803023387
 21
4.3418578833
 31
0.0
 11
6.7795110744
 21
4.3419231826
 31
0.0
  0
SPLINE
  5
485
100
AcDbEntity
  8
126-405_HEX_FEATURES
100
AcDbSpline
 62
7
  6
CONTINUOUS
 70
0
 71
3
 72
12
 73
8
 74
6
 42
0.0000001
 43
0.0000001
 44
0.0000000001
 12
0.0212684941
 22
0.0
 32
0.0
 13
0.0000184425
 23
-0.0217286759
 33
0.0
 40
0.0
 40
0.0
 40
0.0
 40
0.0
 40
0.2815928571
 40
0.5418506262
 40
0.7580742081
 40
0.9283261297
 40
1.0
 40
1.0
 40
1.0
 40
1.0
 10
5.8570110744
 20
3.7740133395
 30
0.0
 10
5.8590074264
 20
3.7740133395
 30
0.0
 10
5.862857757
 20
3.7736610651
 30
0.0
 10
5.8680566974
 20
3.7721205823
 30
0.0
 10
5.8720441234
 20
3.7697829632
 30
0.0
 10
5.8742117266
 20
3.7671521247
 30
0.0
 10
5.874484607
 20
3.7653955099
 30
0.0
 10
5.8744850476
 20
3.7648763838
 30
0.0
 11
5.8570110744
 21
3.7740133395
 31
0.0
 11
5.8629730986
 21
3.7734449569
 31
0.0
 11
5.8682602312
 21
3.7718061543
 31
0.0
 11
5.8721540546
 21
3.7693593931
 31
0.0
 11
5.8742464047
 21
3.7664041053
 31
0.0
 11
5.8744850476
 21
3.7648763838
 31
0.0
  0
SPLINE
  5
486
100
AcDbEntity
  8
126-405_HEX_FEATURES
100
AcDbSpline
 62
7
  6
CONTINUOUS
 70
0
 71
3
 72
12
 73
8
 74
6
 42
0.0000001
 43
0.0000001
 44
0.0000000001
 12
-0.0212684941
 22
0.0
 32
0.0
 13
-0.0000184425
 23
0.0217286759
 33
0.0
 40
0.0
 40
0.0
 40
0.0
 40
0.0
 40
0.2815928571
 40
0.5418506262
 40
0.7580742081
 40
0.9283261297
 40
1.0
 40
1.0
 40
1.0
 40
1.0
 10
5.8570110744
 20
4.3498330257
 30
0.0
 10
5.8550147224
 20
4.3498330257
 30
0.0
 10
5.8511643917
 20
4.3501853001
 30
0.0
 10
5.8459654514
 20
4.3517257829
 30
0.0
 10
5.8419780253
 20
4.354063402
 30
0.0
 10
5.8398104221
 20
4.3566942405
 30
0.0
 10
5.8395375418
 20
4.3584508553
 30
0.0
 10
5.8395371012
 20
4.3589699814
 30
0.0
 11
5.8570110744
 21
4.3498330257
 31
0.0
 11
5.8510490501
 21
4.3504014083
 31
0.0
 11
5.8457619176
 21
4.3520402108
 31
0.0
 11
5.8418680942
 21
4.3544869721
 31
0.0
 11
5.839775744
 21
4.3574422599
 31
0.0
 11
5.8395371012
 21
4.3589699814
 31
0.0
  0
SPLINE
  5
487
100
AcDbEntity
  8
126-405_HEX_FEATURES
100
AcDbSpline
 62
7
  6
CONTINUOUS
 70
0
 71
3
 72
12
 73
8
 74
6
 42
0.0000001
 43
0.0000001
 44
0.0000000001
 12
-0.0000141341
 22
-0.0217292131
 32
0.0
 13
-0.0212684638
 23
0.0
 33
0.0
 40
0.0
 40
0.0
 40
0.0
 40
0.0
 40
0.0713525882
 40
0.2414670397
 40
0.4577201703
 40
0.717678697
 40
1.0
 40
1.0
 40
1.0
 40
1.0
 10
5.874485017
 20
4.3589698463
 30
0.0
 10
5.8744846809
 20
4.3584530345
 30
0.0
 10
5.8742139178
 20
4.3566999103
 30
0.0
 10
5.8720511035
 20
4.3540687726
 30
0.0
 10
5.8680672651
 20
4.3517304475
 30
0.0
 10
5.8628660835
 20
4.3501864425
 30
0.0
 10
5.8590125878
 20
4.3498330257
 30
0.0
 10
5.8570110744
 20
4.3498330257
 30
0.0
 11
5.874485017
 21
4.3589698463
 31
0.0
 11
5.8742486766
 21
4.35744883
 31
0.0
 11
5.872161364
 21
4.3544935672
 31
0.0
 11
5.8682685953
 21
4.3520439603
 31
0.0
 11
5.8629883669
 21
4.350404409
 31
0.0
 11
5.8570110744
 21
4.3498330257
 31
0.0
  0
SPLINE
  5
488
100
AcDbEntity
  8
126-405_HEX_FEATURES
100
AcDbSpline
 62
7
  6
CONTINUOUS
 70
0
 71
3
 72
12
 73
8
 74
6
 42
0.0000001
 43
0.0000001
 44
0.0000000001
 12
0.0000141341
 22
0.0217292131
 32
0.0
 13
0.0212684638
 23
0.0
 33
0.0
 40
0.0
 40
0.0
 40
0.0
 40
0.0
 40
0.0713525882
 40
0.2414670397
 40
0.4577201703
 40
0.717678697
 40
1.0
 40
1.0
 40
1.0
 40
1.0
 10
5.8395371317
 20
3.7648765189
 30
0.0
 10
5.8395374679
 20
3.7653933307
 30
0.0
 10
5.839808231
 20
3.7671464549
 30
0.0
 10
5.8419710452
 20
3.7697775926
 30
0.0
 10
5.8459548836
 20
3.7721159177
 30
0.0
 10
5.8511560652
 20
3.7736599227
 30
0.0
 10
5.8550095609
 20
3.7740133395
 30
0.0
 10
5.8570110744
 20
3.7740133395
 30
0.0
 11
5.8395371317
 21
3.7648765189
 31
0.0
 11
5.8397734722
 21
3.7663975351
 31
0.0
 11
5.8418607848
 21
3.769352798
 31
0.0
 11
5.8457535534
 21
3.7718024049
 31
0.0
 11
5.8510337818
 21
3.7734419562
 31
0.0
 11
5.8570110744
 21
3.7740133395
 31
0.0
  0
SPLINE
  5
489
100
AcDbEntity
  8
126-405_HEX_FEATURES
100
AcDbSpline
 62
7
  6
CONTINUOUS
 70
0
 71
3
 72
12
 73
8
 74
6
 42
0.0000001
 43
0.0000001
 44
0.0000000001
 12
0.020909555
 22
0.0
 32
0.0
 13
-0.0000138956
 23
-0.021362529
 33
0.0
 40
0.0
 40
0.0
 40
0.0
 40
0.0
 40
0.2860509043
 40
0.5477309908
 40
0.7613193093
 40
0.9278831748
 40
1.0
 40
1.0
 40
1.0
 40
1.0
 10
5.8570110744
 20
4.3673330257
 30
0.0
 10
5.8590048067
 20
4.3673330257
 30
0.0
 10
5.8628286408
 20
4.3670442577
 30
0.0
 10
5.8680127105
 20
4.3657413233
 30
0.0
 10
5.8720269926
 20
4.3636924997
 30
0.0
 10
5.8742261024
 20
4.3611789685
 30
0.0
 10
5.8744853511
 20
4.3594833789
 30
0.0
 10
5.874485017
 20
4.3589698463
 30
0.0
 11
5.8570110744
 21
4.3673330257
 31
0.0
 11
5.8629730986
 21
4.3668545012
 31
0.0
 11
5.8682602312
 21
4.3654456751
 31
0.0
 11
5.8721540546
 21
4.3632585256
 31
0.0
 11
5.8742464047
 21
4.3604743198
 31
0.0
 11
5.874485017
 21
4.3589698463
 31
0.0
  0
SPLINE
  5
48A
100
AcDbEntity
  8
126-405_HEX_FEATURES
100
AcDbSpline
 62
7
  6
CONTINUOUS
 70
0
 71
3
 72
12
 73
8
 74
6
 42
0.0000001
 43
0.0000001
 44
0.0000000001
 12
-0.0000181313
 22
0.0213619526
 32
0.0
 13
0.0209095374
 23
-0.0
 33
0.0
 40
0.0
 40
0.0
 40
0.0
 40
0.0
 40
0.0717994421
 40
0.2382316987
 40
0.4518409529
 40
0.713211262
 40
1.0
 40
1.0
 40
1.0
 40
1.0
 10
5.8395371012
 20
4.3589699814
 30
0.0
 10
5.8395366672
 20
4.3594812402
 30
0.0
 10
5.8397939842
 20
4.3611734361
 30
0.0
 10
5.8419880107
 20
4.3636876615
 30
0.0
 10
5.84599888
 20
4.3657372923
 30
0.0
 10
5.8511852714
 20
4.3670433566
 30
0.0
 10
5.8550122011
 20
4.3673330257
 30
0.0
 10
5.8570110744
 20
4.3673330257
 30
0.0
 11
5.8395371012
 21
4.3589699814
 31
0.0
 11
5.8397734722
 21
4.3604679475
 31
0.0
 11
5.8418607848
 21
4.3632524897
 31
0.0
 11
5.8457535534
 21
4.3654424013
 31
0.0
 11
5.8510337818
 21
4.3668519612
 31
0.0
 11
5.8570110744
 21
4.3673330257
 31
0.0
  0
SPLINE
  5
48B
100
AcDbEntity
  8
126-405_HEX_FEATURES
100
AcDbSpline
 62
7
  6
CONTINUOUS
 70
0
 71
3
 72
12
 73
8
 74
6
 42
0.0000001
 43
0.0000001
 44
0.0000000001
 12
0.0000181313
 22
-0.0213619526
 32
0.0
 13
-0.0209095374
 23
0.0
 33
0.0
 40
0.0
 40
0.0
 40
0.0
 40
0.0
 40
0.0717994421
 40
0.2382316987
 40
0.4518409529
 40
0.713211262
 40
1.0
 40
1.0
 40
1.0
 40
1.0
 10
5.8744850476
 20
3.7648763838
 30
0.0
 10
5.8744854815
 20
3.764365125
 30
0.0
 10
5.8742281646
 20
3.7626729291
 30
0.0
 10
5.872034138
 20
3.7601587036
 30
0.0
 10
5.8680232688
 20
3.7581090729
 30
0.0
 10
5.8628368773
 20
3.7568030086
 30
0.0
 10
5.8590099476
 20
3.7565133395
 30
0.0
 10
5.8570110744
 20
3.7565133395
 30
0.0
 11
5.8744850476
 21
3.7648763838
 31
0.0
 11
5.8742486766
 21
3.7633784177
 31
0.0
 11
5.872161364
 21
3.7605938754
 31
0.0
 11
5.8682685953
 21
3.7584039639
 31
0.0
 11
5.8629883669
 21
3.756994404
 31
0.0
 11
5.8570110744
 21
3.7565133395
 31
0.0
  0
SPLINE
  5
48C
100
AcDbEntity
  8
0
100
AcDbSpline
 62
7
  6
CONTINUOUS
 70
0
 71
3
 72
14
 73
10
 74
8
 42
0.0000001
 43
0.0000001
 44
0.0000000001
 12
-0.1046826132
 22
0.2029792199
 32
0.0
 13
0.1046826132
 23
0.2029792199
 33
0.0
 40
0.0
 40
0.0
 40
0.0
 40
0.0
 40
0.1530438599
 40
0.2956043717
 40
0.4324922324
 40
0.5675957362
 40
0.7044780411
 40
0.8469906498
 40
1.0
 40
1.0
 40
1.0
 40
1.0
 10
4.9260747402
 20
3.5738207101
 30
0.0
 10
4.9207343965
 20
3.5841756179
 30
0.0
 10
4.9113294031
 20
3.6046753462
 30
0.0
 10
4.901287785
 20
3.6361308705
 30
0.0
 10
4.8961440749
 20
3.6673985393
 30
0.0
 10
4.896145768
 20
3.6986675635
 30
0.0
 10
4.9012918485
 20
3.7299306685
 30
0.0
 10
4.9113330309
 20
3.7613791835
 30
0.0
 10
4.9207356007
 20
3.7818730822
 30
0.0
 10
4.9260747402
 20
3.7922256551
 30
0.0
 11
4.9260747402
 21
3.5738207101
 31
0.0
 11
4.9116771415
 21
3.605670351
 31
0.0
 11
4.9019422693
 21
3.6367394022
 31
0.0
 11
4.8969770355
 21
3.667605516
 31
0.0
 11
4.8969786663
 21
3.6984609241
 31
0.0
 11
4.9019466552
 21
3.7293253094
 31
0.0
 11
4.9116799776
 21
3.7603833815
 31
0.0
 11
4.9260747402
 21
3.7922256551
 31
0.0
  0
SPLINE
  5
48D
100
AcDbEntity
  8
0
100
AcDbSpline
 62
7
  6
CONTINUOUS
 70
0
 71
3
 72
15
 73
11
 74
9
 42
0.0000001
 43
0.0000001
 44
0.0000000001
 12
0.1643031241
 22
0.1839340856
 32
0.0
 13
-0.1643031241
 23
0.1839340856
 33
0.0
 40
0.0
 40
0.0
 40
0.0
 40
0.0
 40
0.1498215377
 40
0.2783315905
 40
0.3927788038
 40
0.5000592815
 40
0.6073304266
 40
0.7217569014
 40
0.8502022558
 40
1.0
 40
1.0
 40
1.0
 40
1.0
 10
5.2995110744
 20
3.5738207101
 30
0.0
 10
5.3077164566
 20
3.5830064726
 30
0.0
 10
5.3221482361
 20
3.6008494312
 30
0.0
 10
5.3387459648
 20
3.6287078453
 30
0.0
 10
5.3487310718
 20
3.6559349193
 30
0.0
 10
5.3520920949
 20
3.683037275
 30
0.0
 10
5.3487243212
 20
3.7101369388
 30
0.0
 10
5.3387372039
 20
3.7373547154
 30
0.0
 10
5.3221424744
 20
3.7652041758
 30
0.0
 10
5.3077151535
 20
3.7830413514
 30
0.0
 10
5.2995110744
 20
3.7922256551
 30
0.0
 11
5.2995110744
 21
3.5738207101
 31
0.0
 11
5.3224795481
 21
3.6027656231
 31
0.0
 11
5.338405733
 21
3.6301683381
 31
0.0
 11
5.3478547304
 21
3.6567661195
 31
0.0
 11
5.3509950394
 21
3.6830378834
 31
0.0
 11
5.3478484512
 21
3.7093065779
 31
0.0
 11
5.338396419
 21
3.7358978527
 31
0.0
 11
5.3224762115
 21
3.7632855857
 31
0.0
 11
5.2995110744
 21
3.7922256551
 31
0.0
  0
SPLINE
  5
48E
100
AcDbEntity
  8
0
100
AcDbSpline
 62
7
  6
CONTINUOUS
 70
0
 71
3
 72
14
 73
10
 74
8
 42
0.0000001
 43
0.0000001
 44
0.0000000001
 12
-0.1103507163
 22
0.4279393037
 32
0.0
 13
0.1103507163
 23
0.4279393037
 33
0.0
 40
0.0
 40
0.0
 40
0.0
 40
0.0
 40
0.1477720816
 40
0.2900907235
 40
0.430227046
 40
0.569863817
 40
0.7099928421
 40
0.8522618536
 40
1.0
 40
1.0
 40
1.0
 40
1.0
 10
4.9260747402
 20
3.8435182376
 30
0.0
 10
4.9206391552
 20
3.8645973982
 30
0.0
 10
4.9111238031
 20
3.9062914371
 30
0.0
 10
4.9011967197
 20
3.9689400761
 30
0.0
 10
4.8961421769
 20
4.030979511
 30
0.0
 10
4.8961438356
 20
4.092905972
 30
0.0
 10
4.9012007535
 20
4.1549367784
 30
0.0
 10
4.9111275289
 20
4.2175718538
 30
0.0
 10
4.9206404035
 20
4.2592538078
 30
0.0
 10
4.9260747402
 20
4.2803281276
 30
0.0
 11
4.9260747402
 21
3.8435182376
 31
0.0
 11
4.9116771415
 21
3.9072175194
 31
0.0
 11
4.9019422693
 21
3.9693556218
 31
0.0
 11
4.8969770355
 21
4.0310878495
 31
0.0
 11
4.8969786663
 21
4.0927986657
 31
0.0
 11
4.9019466552
 21
4.1545274363
 31
0.0
 11
4.9116799776
 21
4.2166435803
 31
0.0
 11
4.9260747402
 21
4.2803281276
 31
0.0
  0
SPLINE
  5
48F
100
AcDbEntity
  8
0
100
AcDbSpline
 62
7
  6
CONTINUOUS
 70
0
 71
3
 72
15
 73
11
 74
9
 42
0.0000001
 43
0.0000001
 44
0.0000000001
 12
0.1843202379
 22
0.4126856942
 32
0.0
 13
-0.1843202379
 23
0.4126856942
 33
0.0
 40
0.0
 40
0.0
 40
0.0
 40
0.0
 40
0.1377942686
 40
0.2640673782
 40
0.3836049145
 40
0.5000649493
 40
0.6165122554
 40
0.736022619
 40
0.8622283762
 40
1.0
 40
1.0
 40
1.0
 40
1.0
 10
5.2995110744
 20
3.8435182376
 30
0.0
 10
5.3079771652
 20
3.8624734787
 30
0.0
 10
5.3228087079
 20
3.8994544176
 30
0.0
 10
5.3391458232
 20
3.9549906987
 30
0.0
 10
5.3488389926
 20
4.008821438
 30
0.0
 10
5.3520606491
 20
4.0619507409
 30
0.0
 10
5.348832459
 20
4.1150754915
 30
0.0
 10
5.3391369374
 20
4.1688892741
 30
0.0
 10
5.322802488
 20
4.2244077693
 30
0.0
 10
5.3079757739
 20
4.2613760015
 30
0.0
 10
5.2995110744
 20
4.2803281276
 30
0.0
 11
5.2995110744
 21
3.8435182376
 31
0.0
 11
5.3224795481
 21
3.9014080636
 31
0.0
 11
5.338405733
 21
3.9562134937
 31
0.0
 11
5.3478547304
 21
4.0094090563
 31
0.0
 11
5.3509950394
 21
4.0619525843
 31
0.0
 11
5.3478484512
 21
4.1144899732
 31
0.0
 11
5.338396419
 21
4.1676725229
 31
0.0
 11
5.3224762115
 21
4.2224479889
 31
0.0
 11
5.2995110744
 21
4.2803281276
 31
0.0
  0
SPLINE
  5
490
100
AcDbEntity
  8
0
100
AcDbSpline
 62
7
  6
CONTINUOUS
 70
0
 71
3
 72
14
 73
10
 74
8
 42
0.0000001
 43
0.0000001
 44
0.0000000001
 12
-0.1046826132
 22
0.2029792199
 32
0.0
 13
0.1046826132
 23
0.2029792199
 33
0.0
 40
0.0
 40
0.0
 40
0.0
 40
0.0
 40
0.1530438599
 40
0.2956043717
 40
0.4324922324
 40
0.5675957362
 40
0.7044780411
 40
0.8469906498
 40
1.0
 40
1.0
 40
1.0
 40
1.0
 10
4.9260747402
 20
4.3316207101
 30
0.0
 10
4.9207343965
 20
4.3419756179
 30
0.0
 10
4.9113294031
 20
4.3624753462
 30
0.0
 10
4.901287785
 20
4.3939308705
 30
0.0
 10
4.8961440749
 20
4.4251985393
 30
0.0
 10
4.896145768
 20
4.4564675635
 30
0.0
 10
4.9012918485
 20
4.4877306685
 30
0.0
 10
4.9113330309
 20
4.5191791835
 30
0.0
 10
4.9207356007
 20
4.5396730822
 30
0.0
 10
4.9260747402
 20
4.5500256551
 30
0.0
 11
4.9260747402
 21
4.3316207101
 31
0.0
 11
4.9116771415
 21
4.363470351
 31
0.0
 11
4.9019422693
 21
4.3945394022
 31
0.0
 11
4.8969770355
 21
4.425405516
 31
0.0
 11
4.8969786663
 21
4.4562609241
 31
0.0
 11
4.9019466552
 21
4.4871253094
 31
0.0
 11
4.9116799776
 21
4.5181833815
 31
0.0
 11
4.9260747402
 21
4.5500256551
 31
0.0
  0
SPLINE
  5
491
100
AcDbEntity
  8
0
100
AcDbSpline
 62
7
  6
CONTINUOUS
 70
0
 71
3
 72
15
 73
11
 74
9
 42
0.0000001
 43
0.0000001
 44
0.0000000001
 12
0.1643031241
 22
0.1839340856
 32
0.0
 13
-0.1643031241
 23
0.1839340856
 33
0.0
 40
0.0
 40
0.0
 40
0.0
 40
0.0
 40
0.1498215377
 40
0.2783315905
 40
0.3927788038
 40
0.5000592815
 40
0.6073304266
 40
0.7217569014
 40
0.8502022558
 40
1.0
 40
1.0
 40
1.0
 40
1.0
 10
5.2995110744
 20
4.3316207101
 30
0.0
 10
5.3077164566
 20
4.3408064726
 30
0.0
 10
5.3221482361
 20
4.3586494312
 30
0.0
 10
5.3387459648
 20
4.3865078453
 30
0.0
 10
5.3487310718
 20
4.4137349193
 30
0.0
 10
5.3520920949
 20
4.440837275
 30
0.0
 10
5.3487243212
 20
4.4679369388
 30
0.0
 10
5.3387372039
 20
4.4951547154
 30
0.0
 10
5.3221424744
 20
4.5230041758
 30
0.0
 10
5.3077151535
 20
4.5408413514
 30
0.0
 10
5.2995110744
 20
4.5500256551
 30
0.0
 11
5.2995110744
 21
4.3316207101
 31
0.0
 11
5.3224795481
 21
4.3605656231
 31
0.0
 11
5.338405733
 21
4.3879683381
 31
0.0
 11
5.3478547304
 21
4.4145661195
 31
0.0
 11
5.3509950394
 21
4.4408378834
 31
0.0
 11
5.3478484512
 21
4.4671065779
 31
0.0
 11
5.338396419
 21
4.4936978527
 31
0.0
 11
5.3224762115
 21
4.5210855857
 31
0.0
 11
5.2995110744
 21
4.5500256551
 31
0.0
  0
SPLINE
  5
492
100
AcDbEntity
  8
126-405_HEX_FEATURES
100
AcDbSpline
 62
7
  6
CONTINUOUS
 70
0
 71
3
 72
12
 73
8
 74
6
 42
0.0000001
 43
0.0000001
 44
0.0000000001
 12
-0.020909555
 22
0.0
 32
0.0
 13
0.0000138956
 23
0.021362529
 33
0.0
 40
0.0
 40
0.0
 40
0.0
 40
0.0
 40
0.2860509043
 40
0.5477309908
 40
0.7613193093
 40
0.9278831748
 40
1.0
 40
1.0
 40
1.0
 40
1.0
 10
5.8570110744
 20
3.7565133395
 30
0.0
 10
5.855017342
 20
3.7565133395
 30
0.0
 10
5.8511935079
 20
3.7568021074
 30
0.0
 10
5.8460094382
 20
3.7581050419
 30
0.0
 10
5.8419951561
 20
3.7601538654
 30
0.0
 10
5.8397960463
 20
3.7626673967
 30
0.0
 10
5.8395367977
 20
3.7643629863
 30
0.0
 10
5.8395371317
 20
3.7648765189
 30
0.0
 11
5.8570110744
 21
3.7565133395
 31
0.0
 11
5.8510490501
 21
3.756991864
 31
0.0
 11
5.8457619176
 21
3.7584006901
 31
0.0
 11
5.8418680942
 21
3.7605878396
 31
0.0
 11
5.839775744
 21
3.7633720453
 31
0.0
 11
5.8395371317
 21
3.7648765189
 31
0.0
  0
ENDSEC
  0
SECTION
  2
OBJECTS
  0
DICTIONARY
  5
C
100
AcDbDictionary
280
0
281
1
  3
ACAD_GROUP
350
D
  3
ACAD_MLINESTYLE
350
17
  3
ACAD_LAYOUT
350
1A
  3
ACAD_PLOTSETTINGS
350
19
  3
ACAD_PLOTSTYLENAME
350
E
  0
DICTIONARY
  5
D
102
{ACAD_REACTORS
330
C
102
}
100
AcDbDictionary
280
0
281
1
  0
ACDBDICTIONARYWDFLT
  5
E
102
{ACAD_REACTORS
330
C
102
}
100
AcDbDictionary
281
1
  3
Normal
350
F
100
AcDbDictionaryWithDefault
340
F
  0
DICTIONARY
  5
17
102
{ACAD_REACTORS
330
C
102
}
100
AcDbDictionary
280
0
281
1
  3
Standard
350
18
  0
DICTIONARY
  5
19
102
{ACAD_REACTORS
330
C
102
}
100
AcDbDictionary
281
1
  0
DICTIONARY
  5
1A
102
{ACAD_REACTORS
330
C
102
}
100
AcDbDictionary
281
1
  3
Layout1
350
1E
  3
Model
350
22
  0
ACDBPLACEHOLDER
  5
F
102
{ACAD_REACTORS
330
E
102
}
  0
MLINESTYLE
  5
18
102
{ACAD_REACTORS
330
17
102
}
100
AcDbMlineStyle
  2
STANDARD
 70
0
  3

 62
256
 51
90.0
 52
90.0
 71
2
 49
0.5
 62
256
  6
BYLAYER
 49
-0.5
 62
256
  6
BYLAYER
  0
LAYOUT
  5
1E
102
{ACAD_REACTORS
330
1A
102
}
100
AcDbPlotSettings
  1

  2

  4

  6

 40
0.0
 41
0.0
 42
0.0
 43
0.0
 44
0.0
 45
0.0
 46
0.0
 47
0.0
 48
0.0
 49
0.0
140
0.0
141
0.0
142
1.0
143
1.0
 70
0
 72
0
 73
0
 74
0
  7

 75
0
147
1.0
148
0.0
149
0.0
100
AcDbLayout
  1
Layout1
 70
0
 71
0
 10
0.0
 20
0.0
 11
0.0
 21
0.0
 12
0.0
 22
0.0
 32
0.0
 14
0.0
 24
0.0
 34
0.0
 15
0.0
 25
0.0
 35
0.0
146
0.0
 13
0.0
 23
0.0
 33
0.0
 16
0.0
 26
0.0
 36
0.0
 17
0.0
 27
0.0
 37
0.0
 76
0
330
1B
331
0
345
0
346
0
  0
LAYOUT
  5
22
102
{ACAD_REACTORS
330
1A
102
}
100
AcDbPlotSettings
  1

  2

  4

  6

 40
0.0
 41
0.0
 42
0.0
 43
0.0
 44
0.0
 45
0.0
 46
0.0
 47
0.0
 48
0.0
 49
0.0
140
0.0
141
0.0
142
1.0
143
1.0
 70
0
 72
0
 73
0
 74
0
  7

 75
0
147
1.0
148
0.0
149
0.0
100
AcDbLayout
  1
Model
 70
0
 71
0
 10
0.0
 20
0.0
 11
0.0
 21
0.0
 12
0.0
 22
0.0
 32
0.0
 14
0.0
 24
0.0
 34
0.0
 15
0.0
 25
0.0
 35
0.0
146
0.0
 13
0.0
 23
0.0
 33
0.0
 16
0.0
 26
0.0
 36
0.0
 17
0.0
 27
0.0
 37
0.0
 76
0
330
1F
331
0
345
0
346
0
  0
ENDSEC
  0
EOF
