999
DXF file: QCDB-LAN.dxf
999
Pro/ENGINEER 2006240 by Parametric Technology Corporation
  0
SECTION
  2
HEADER
  9
$ACADVER
  1
AC1015
  9
$DWGCODEPAGE
  3
ANSI_1252
  9
$EXTMAX
 10
11.6929133858
 20
8.2677165354
 30
0.0
  9
$EXTMIN
 10
0.0
 20
0.0
 30
0.0
  9
$LIMMIN
 10
0.0
 20
0.0
  9
$LIMMAX
 10
11.6929133858
 20
8.2677165354
  9
$VIEWCTR
 10
5.8464566929
 20
4.1338582677
  9
$VIEWSIZE
 40
8.2677165354
  9
$CLAYER
  8
0
  9
$LTSCALE
 40
0.6431102362
  9
$CELTYPE
  6
BYLAYER
  9
$DIMSCALE
 40
1.0
  9
$DIMASZ
 40
0.1875
  9
$DIMEXO
 40
0.0730807087
  9
$DIMDLI
 40
0.4443307087
  9
$DIMEXE
 40
0.2104724409
  9
$DIMCEN
 40
0.1052362205
  9
$DIMLFAC
 40
1.0
  9
$DIMBLK
  1
_CLOSED
  9
$DIMTXT
 40
0.15625
  9
$DIMTOL
 70
0
  9
$DIMLIM
 70
0
  9
$DIMTFAC
 40
1.0
  9
$PDMODE
 70
3
  9
$PDSIZE
 40
0.3125
  9
$HANDSEED
  5
504
  9
$MEASUREMENT
 70
0
  9
$INSUNITS
 70
1
  0
ENDSEC
  0
SECTION
  2
CLASSES
  0
CLASS
  1
ACDBDICTIONARYWDFLT
  2
AcDbDictionaryWithDefault
  3
AutoCAD 2000
 90
0
280
0
281
0
  0
CLASS
  1
ACDBPLACEHOLDER
  2
AcDbPlaceHolder
  3
AutoCAD 2000
 90
0
280
0
281
0
  0
CLASS
  1
LAYOUT
  2
AcDbLayout
  3
AutoCAD 2000
 90
0
280
0
281
0
  0
ENDSEC
  0
SECTION
  2
TABLES
  0
TABLE
  2
VPORT
  5
8
100
AcDbSymbolTable
 70
2
  0
VPORT
  5
1F4
100
AcDbSymbolTableRecord
100
AcDbViewportTableRecord
  2
*ACTIVE
 70
0
 10
0.0
 20
0.0
 11
1.0
 21
1.0
 12
5.8464566929
 22
4.1338582677
 13
0.0
 23
0.0
 14
1.0
 24
1.0
 15
0.0
 25
0.0
 16
0.0
 26
0.0
 36
1.0
 17
0.0
 27
0.0
 37
0.0
 40
8.2677165354
 41
1.4142857143
 42
50.0
 43
0.0
 44
0.0
 50
0.0
 51
0.0
 71
0
 72
100
 73
1
 74
1
 75
0
 76
0
 77
0
 78
0
  0
ENDTAB
  0
TABLE
  2
LTYPE
  5
5
100
AcDbSymbolTable
 70
6
  0
LTYPE
  5
14
100
AcDbSymbolTableRecord
100
AcDbLinetypeTableRecord
  2
BYBLOCK
 70
0
  3

 72
65
 73
0
 40
0.0
  0
LTYPE
  5
15
100
AcDbSymbolTableRecord
100
AcDbLinetypeTableRecord
  2
BYLAYER
 70
0
  3

 72
65
 73
0
 40
0.0
  0
LTYPE
  5
16
100
AcDbSymbolTableRecord
100
AcDbLinetypeTableRecord
  2
CONTINUOUS
 70
64
  3
Solid line
 72
65
 73
0
 40
0.0
  0
LTYPE
  5
1F5
100
AcDbSymbolTableRecord
100
AcDbLinetypeTableRecord
  2
CENTER
 70
64
  3
____ _ ____ _ ____ _ ____ _ ____ _ ____ _ ____
 72
65
 73
4
 40
0.6
 49
0.375
 74
0
 49
-0.075
 74
0
 49
0.075
 74
0
 49
-0.075
 74
0
  0
LTYPE
  5
1F6
100
AcDbSymbolTableRecord
100
AcDbLinetypeTableRecord
  2
HIDDEN
 70
64
  3
- - - - - - - - - - - - - - - - - - - -
 72
65
 73
2
 40
0.2
 49
0.1
 74
0
 49
-0.1
 74
0
  0
LTYPE
  5
1F7
100
AcDbSymbolTableRecord
100
AcDbLinetypeTableRecord
  2
PHANTOM
 70
64
  3
_____ _ _ _____ _ _ _____ _ _ _____
 72
65
 73
6
 40
0.8
 49
0.45
 74
0
 49
-0.05
 74
0
 49
0.1
 74
0
 49
-0.05
 74
0
 49
0.1
 74
0
 49
-0.05
 74
0
  0
LTYPE
  5
1F8
100
AcDbSymbolTableRecord
100
AcDbLinetypeTableRecord
  2
DOT
 70
64
  3
. . . . . . . . . . . . . . . . . . . .
 72
65
 73
2
 40
0.2
 49
0.1
 74
0
 49
-0.1
 74
0
  0
LTYPE
  5
1F9
100
AcDbSymbolTableRecord
100
AcDbLinetypeTableRecord
  2
DASHED
 70
64
  3
- - - - - - - - - - - - - - - - - - - -
 72
65
 73
2
 40
0.2
 49
0.1
 74
0
 49
-0.1
 74
0
  0
ENDTAB
  0
TABLE
  2
LAYER
  5
2
100
AcDbSymbolTable
 70
36
  0
LAYER
  5
10
100
AcDbSymbolTableRecord
100
AcDbLayerTableRecord
  2
0
 70
0
 62
7
  6
CONTINUOUS
370
-3
390
F
  0
LAYER
  5
1FA
100
AcDbSymbolTableRecord
100
AcDbLayerTableRecord
  2
DEFAULT_1
 70
0
 62
7
  6
CENTER
370
-3
390
F
  0
LAYER
  5
1FB
100
AcDbSymbolTableRecord
100
AcDbLayerTableRecord
  2
DEFAULT_2
 70
0
 62
8
  6
HIDDEN
370
-3
390
F
  0
LAYER
  5
1FC
100
AcDbSymbolTableRecord
100
AcDbLayerTableRecord
  2
DEFAULT_3
 70
0
 62
7
  6
PHANTOM
370
-3
390
F
  0
LAYER
  5
1FD
100
AcDbSymbolTableRecord
100
AcDbLayerTableRecord
  2
_BLACK_HOLE
 70
0
 62
7
  6
CONTINUOUS
370
-3
390
F
  0
LAYER
  5
1FE
100
AcDbSymbolTableRecord
100
AcDbLayerTableRecord
  2
01_ALL_DTM_PLN
 70
0
 62
7
  6
CONTINUOUS
370
-3
390
F
  0
LAYER
  5
1FF
100
AcDbSymbolTableRecord
100
AcDbLayerTableRecord
  2
01__ASM_ALL_DTM_PLN
 70
0
 62
7
  6
CONTINUOUS
370
-3
390
F
  0
LAYER
  5
200
100
AcDbSymbolTableRecord
100
AcDbLayerTableRecord
  2
01__ASM_DEF_DTM_PLN
 70
0
 62
7
  6
CONTINUOUS
370
-3
390
F
  0
LAYER
  5
201
100
AcDbSymbolTableRecord
100
AcDbLayerTableRecord
  2
01___PRT_ALL_DTM_PLN
 70
0
 62
7
  6
CONTINUOUS
370
-3
390
F
  0
LAYER
  5
202
100
AcDbSymbolTableRecord
100
AcDbLayerTableRecord
  2
01___PRT_DEF_DTM_PLN
 70
0
 62
7
  6
CONTINUOUS
370
-3
390
F
  0
LAYER
  5
203
100
AcDbSymbolTableRecord
100
AcDbLayerTableRecord
  2
02_ALL_AXES
 70
0
 62
7
  6
CONTINUOUS
370
-3
390
F
  0
LAYER
  5
204
100
AcDbSymbolTableRecord
100
AcDbLayerTableRecord
  2
02__ASM_ALL_AXES
 70
0
 62
7
  6
CONTINUOUS
370
-3
390
F
  0
LAYER
  5
205
100
AcDbSymbolTableRecord
100
AcDbLayerTableRecord
  2
02___PRT_ALL_AXES
 70
0
 62
7
  6
CONTINUOUS
370
-3
390
F
  0
LAYER
  5
206
100
AcDbSymbolTableRecord
100
AcDbLayerTableRecord
  2
03_ALL_CURVES
 70
0
 62
7
  6
CONTINUOUS
370
-3
390
F
  0
LAYER
  5
207
100
AcDbSymbolTableRecord
100
AcDbLayerTableRecord
  2
03__ASM_ALL_CURVES
 70
0
 62
7
  6
CONTINUOUS
370
-3
390
F
  0
LAYER
  5
208
100
AcDbSymbolTableRecord
100
AcDbLayerTableRecord
  2
03___PRT_ALL_CURVES
 70
0
 62
7
  6
CONTINUOUS
370
-3
390
F
  0
LAYER
  5
209
100
AcDbSymbolTableRecord
100
AcDbLayerTableRecord
  2
04_ALL_DTM_PNT
 70
0
 62
7
  6
CONTINUOUS
370
-3
390
F
  0
LAYER
  5
20A
100
AcDbSymbolTableRecord
100
AcDbLayerTableRecord
  2
04__ASM_ALL_DTM_PNT
 70
0
 62
7
  6
CONTINUOUS
370
-3
390
F
  0
LAYER
  5
20B
100
AcDbSymbolTableRecord
100
AcDbLayerTableRecord
  2
04___PRT_ALL_DTM_PNT
 70
0
 62
7
  6
CONTINUOUS
370
-3
390
F
  0
LAYER
  5
20C
100
AcDbSymbolTableRecord
100
AcDbLayerTableRecord
  2
05_ALL_DTM_CSYS
 70
0
 62
7
  6
CONTINUOUS
370
-3
390
F
  0
LAYER
  5
20D
100
AcDbSymbolTableRecord
100
AcDbLayerTableRecord
  2
05__ASM_ALL_DTM_CSYS
 70
0
 62
7
  6
CONTINUOUS
370
-3
390
F
  0
LAYER
  5
20E
100
AcDbSymbolTableRecord
100
AcDbLayerTableRecord
  2
05__ASM_DEF_DTM_CSYS
 70
0
 62
7
  6
CONTINUOUS
370
-3
390
F
  0
LAYER
  5
20F
100
AcDbSymbolTableRecord
100
AcDbLayerTableRecord
  2
05___PRT_ALL_DTM_CSYS
 70
0
 62
7
  6
CONTINUOUS
370
-3
390
F
  0
LAYER
  5
210
100
AcDbSymbolTableRecord
100
AcDbLayerTableRecord
  2
05___PRT_DEF_DTM_CSYS
 70
0
 62
7
  6
CONTINUOUS
370
-3
390
F
  0
LAYER
  5
211
100
AcDbSymbolTableRecord
100
AcDbLayerTableRecord
  2
06_ALL_SURFS
 70
0
 62
7
  6
CONTINUOUS
370
-3
390
F
  0
LAYER
  5
212
100
AcDbSymbolTableRecord
100
AcDbLayerTableRecord
  2
06__ASM_ALL_SURFS
 70
0
 62
7
  6
CONTINUOUS
370
-3
390
F
  0
LAYER
  5
213
100
AcDbSymbolTableRecord
100
AcDbLayerTableRecord
  2
06___PRT_ALL_SURFS
 70
0
 62
7
  6
CONTINUOUS
370
-3
390
F
  0
LAYER
  5
214
100
AcDbSymbolTableRecord
100
AcDbLayerTableRecord
  2
07__ASM_ALL_SKELETONS
 70
0
 62
7
  6
CONTINUOUS
370
-3
390
F
  0
LAYER
  5
215
100
AcDbSymbolTableRecord
100
AcDbLayerTableRecord
  2
126-600_HEX_FEATURES
 70
0
 62
7
  6
CONTINUOUS
370
-3
390
F
  0
LAYER
  5
216
100
AcDbSymbolTableRecord
100
AcDbLayerTableRecord
  2
126-600_REF_GEOMETRY
 70
0
 62
7
  6
CONTINUOUS
370
-3
390
F
  0
LAYER
  5
217
100
AcDbSymbolTableRecord
100
AcDbLayerTableRecord
  2
126-601_HEX_FEATURES
 70
0
 62
7
  6
CONTINUOUS
370
-3
390
F
  0
LAYER
  5
218
100
AcDbSymbolTableRecord
100
AcDbLayerTableRecord
  2
126-601_REF_GEOMETRY
 70
0
 62
7
  6
CONTINUOUS
370
-3
390
F
  0
LAYER
  5
219
100
AcDbSymbolTableRecord
100
AcDbLayerTableRecord
  2
126-602_HEX_FEATURES
 70
0
 62
7
  6
CONTINUOUS
370
-3
390
F
  0
LAYER
  5
21A
100
AcDbSymbolTableRecord
100
AcDbLayerTableRecord
  2
126-602_REF_GEOMETRY
 70
0
 62
7
  6
CONTINUOUS
370
-3
390
F
  0
LAYER
  5
21B
100
AcDbSymbolTableRecord
100
AcDbLayerTableRecord
  2
126-603_HEX_FEATURES
 70
0
 62
7
  6
CONTINUOUS
370
-3
390
F
  0
LAYER
  5
21C
100
AcDbSymbolTableRecord
100
AcDbLayerTableRecord
  2
126-603_REF_GEOMETRY
 70
0
 62
7
  6
CONTINUOUS
370
-3
390
F
  0
LAYER
  5
21D
100
AcDbSymbolTableRecord
100
AcDbLayerTableRecord
  2
COPY_GEO_FET
 70
0
 62
7
  6
CONTINUOUS
370
-3
390
F
  0
LAYER
  5
21E
100
AcDbSymbolTableRecord
100
AcDbLayerTableRecord
  2
COSMETIC
 70
0
 62
7
  6
CONTINUOUS
370
-3
390
F
  0
LAYER
  5
21F
100
AcDbSymbolTableRecord
100
AcDbLayerTableRecord
  2
COSM_REF
 70
0
 62
7
  6
CONTINUOUS
370
-3
390
F
  0
LAYER
  5
220
100
AcDbSymbolTableRecord
100
AcDbLayerTableRecord
  2
CURVES
 70
0
 62
7
  6
CONTINUOUS
370
-3
390
F
  0
LAYER
  5
221
100
AcDbSymbolTableRecord
100
AcDbLayerTableRecord
  2
CUT_REF_SURF
 70
0
 62
7
  6
CONTINUOUS
370
-3
390
F
  0
LAYER
  5
222
100
AcDbSymbolTableRecord
100
AcDbLayerTableRecord
  2
DATUM
 70
0
 62
7
  6
CONTINUOUS
370
-3
390
F
  0
LAYER
  5
223
100
AcDbSymbolTableRecord
100
AcDbLayerTableRecord
  2
DATUMCURVES
 70
0
 62
7
  6
CONTINUOUS
370
-3
390
F
  0
LAYER
  5
224
100
AcDbSymbolTableRecord
100
AcDbLayerTableRecord
  2
DATUM_PLANES
 70
0
 62
7
  6
CONTINUOUS
370
-3
390
F
  0
LAYER
  5
225
100
AcDbSymbolTableRecord
100
AcDbLayerTableRecord
  2
DIMENSIONS
 70
0
 62
7
  6
CONTINUOUS
370
-3
390
F
  0
LAYER
  5
226
100
AcDbSymbolTableRecord
100
AcDbLayerTableRecord
  2
DRAWINGNOTES
 70
0
 62
7
  6
CONTINUOUS
370
-3
390
F
  0
LAYER
  5
227
100
AcDbSymbolTableRecord
100
AcDbLayerTableRecord
  2
DTM
 70
0
 62
7
  6
CONTINUOUS
370
-3
390
F
  0
LAYER
  5
228
100
AcDbSymbolTableRecord
100
AcDbLayerTableRecord
  2
DTM230
 70
0
 62
7
  6
CONTINUOUS
370
-3
390
F
  0
LAYER
  5
229
100
AcDbSymbolTableRecord
100
AcDbLayerTableRecord
  2
DTM_500001
 70
0
 62
7
  6
CONTINUOUS
370
-3
390
F
  0
LAYER
  5
22A
100
AcDbSymbolTableRecord
100
AcDbLayerTableRecord
  2
DTM_500002
 70
0
 62
7
  6
CONTINUOUS
370
-3
390
F
  0
LAYER
  5
22B
100
AcDbSymbolTableRecord
100
AcDbLayerTableRecord
  2
DTM_500051
 70
0
 62
7
  6
CONTINUOUS
370
-3
390
F
  0
LAYER
  5
22C
100
AcDbSymbolTableRecord
100
AcDbLayerTableRecord
  2
DTM_515002
 70
0
 62
7
  6
CONTINUOUS
370
-3
390
F
  0
LAYER
  5
22D
100
AcDbSymbolTableRecord
100
AcDbLayerTableRecord
  2
DTM_525001
 70
0
 62
7
  6
CONTINUOUS
370
-3
390
F
  0
LAYER
  5
22E
100
AcDbSymbolTableRecord
100
AcDbLayerTableRecord
  2
DTM_530002
 70
0
 62
7
  6
CONTINUOUS
370
-3
390
F
  0
LAYER
  5
22F
100
AcDbSymbolTableRecord
100
AcDbLayerTableRecord
  2
DTM_800001
 70
0
 62
7
  6
CONTINUOUS
370
-3
390
F
  0
LAYER
  5
230
100
AcDbSymbolTableRecord
100
AcDbLayerTableRecord
  2
DTM_BALLHOLDER
 70
0
 62
7
  6
CONTINUOUS
370
-3
390
F
  0
LAYER
  5
231
100
AcDbSymbolTableRecord
100
AcDbLayerTableRecord
  2
DTM_SPRING_RH
 70
0
 62
7
  6
CONTINUOUS
370
-3
390
F
  0
LAYER
  5
232
100
AcDbSymbolTableRecord
100
AcDbLayerTableRecord
  2
DTM_SP_RH_CONSTR
 70
0
 62
7
  6
CONTINUOUS
370
-3
390
F
  0
LAYER
  5
233
100
AcDbSymbolTableRecord
100
AcDbLayerTableRecord
  2
FACE1
 70
0
 62
7
  6
CONTINUOUS
370
-3
390
F
  0
LAYER
  5
234
100
AcDbSymbolTableRecord
100
AcDbLayerTableRecord
  2
FACE2
 70
0
 62
7
  6
CONTINUOUS
370
-3
390
F
  0
LAYER
  5
235
100
AcDbSymbolTableRecord
100
AcDbLayerTableRecord
  2
FACE3
 70
0
 62
7
  6
CONTINUOUS
370
-3
390
F
  0
LAYER
  5
236
100
AcDbSymbolTableRecord
100
AcDbLayerTableRecord
  2
FACE4
 70
0
 62
7
  6
CONTINUOUS
370
-3
390
F
  0
LAYER
  5
237
100
AcDbSymbolTableRecord
100
AcDbLayerTableRecord
  2
GEOMETRICTOLERANCES
 70
0
 62
7
  6
CONTINUOUS
370
-3
390
F
  0
LAYER
  5
238
100
AcDbSymbolTableRecord
100
AcDbLayerTableRecord
  2
LAY0001
 70
0
 62
7
  6
CONTINUOUS
370
-3
390
F
  0
LAYER
  5
239
100
AcDbSymbolTableRecord
100
AcDbLayerTableRecord
  2
PARAMETERDIMENSIONS
 70
0
 62
7
  6
CONTINUOUS
370
-3
390
F
  0
LAYER
  5
23A
100
AcDbSymbolTableRecord
100
AcDbLayerTableRecord
  2
PLANE
 70
0
 62
7
  6
CONTINUOUS
370
-3
390
F
  0
LAYER
  5
23B
100
AcDbSymbolTableRecord
100
AcDbLayerTableRecord
  2
PROTRUSIONS
 70
0
 62
7
  6
CONTINUOUS
370
-3
390
F
  0
LAYER
  5
23C
100
AcDbSymbolTableRecord
100
AcDbLayerTableRecord
  2
TEXT
 70
0
 62
7
  6
CONTINUOUS
370
-3
390
F
  0
LAYER
  5
23D
100
AcDbSymbolTableRecord
100
AcDbLayerTableRecord
  2
THREAD
 70
0
 62
7
  6
CONTINUOUS
370
-3
390
F
  0
LAYER
  5
23E
100
AcDbSymbolTableRecord
100
AcDbLayerTableRecord
  2
XSEC_DATUMS
 70
0
 62
7
  6
CONTINUOUS
370
-3
390
F
  0
ENDTAB
  0
TABLE
  2
STYLE
  5
3
100
AcDbSymbolTable
 70
1
  0
STYLE
  5
11
100
AcDbSymbolTableRecord
100
AcDbTextStyleTableRecord
  2
STANDARD
 70
0
 40
0.0
 41
0.8
 50
0.0
 71
0
 42
0.2
  3
txt
  4

  0
ENDTAB
  0
TABLE
  2
VIEW
  5
6
100
AcDbSymbolTable
 70
0
  0
ENDTAB
  0
TABLE
  2
UCS
  5
7
100
AcDbSymbolTable
 70
0
  0
ENDTAB
  0
TABLE
  2
APPID
  5
9
100
AcDbSymbolTable
 70
1
  0
APPID
  5
23F
100
AcDbSymbolTableRecord
100
AcDbRegAppTableRecord
  2
ACAD
 70
0
  0
ENDTAB
  0
TABLE
  2
BLOCK_RECORD
  5
1
100
AcDbSymbolTable
 70
0
  0
BLOCK_RECORD
  5
1F
100
AcDbSymbolTableRecord
100
AcDbBlockTableRecord
  2
*MODEL_SPACE
  0
BLOCK_RECORD
  5
1B
100
AcDbSymbolTableRecord
100
AcDbBlockTableRecord
  2
*PAPER_SPACE
  0
ENDTAB
  0
TABLE
  2
DIMSTYLE
  5
A
100
AcDbSymbolTable
 70
1
100
AcDbDimStyleTable
 71
0
  0
DIMSTYLE
105
240
100
AcDbSymbolTableRecord
100
AcDbDimStyleTableRecord
  2
STANDARD
 70
0
  3

  4

 40
1.0
 41
0.1875
 42
0.0625
 43
0.38
 44
0.18
 45
0.0
 46
0.0
 47
0.01
 48
0.01
140
0.15625
141
0.09
142
0.0
143
25.4
144
1.0
145
0.0
146
1.0
147
0.09
 71
0.0
 72
0.0
 73
1
 74
1
 75
0
 76
0
 77
0
 78
4
170
0
171
2
172
0
173
0
174
0
175
0
176
0
177
0
178
0
270
2
271
2
272
2
273
2
274
2
275
0
280
0
281
0
282
0
283
1
284
4
285
0
286
0
287
3
288
0
340
11
  0
ENDTAB
  0
ENDSEC
  0
SECTION
  2
BLOCKS
  0
BLOCK
  5
20
100
AcDbEntity
  8
0
100
AcDbBlockBegin
  2
*MODEL_SPACE
 70
0
 10
0.0
 20
0.0
 30
0.0
  3
*MODEL_SPACE
  1

  0
ENDBLK
  5
21
100
AcDbEntity
  8
0
100
AcDbBlockEnd
  0
BLOCK
  5
1C
100
AcDbEntity
  8
0
100
AcDbBlockBegin
  2
*PAPER_SPACE
 70
0
 10
0.0
 20
0.0
 30
0.0
  3
*PAPER_SPACE
  1

  0
ENDBLK
  5
1D
100
AcDbEntity
  8
0
100
AcDbBlockEnd
  0
ENDSEC
  0
SECTION
  2
ENTITIES
  0
LINE
  5
241
100
AcDbEntity
  8
0
100
AcDbLine
 62
7
  6
CONTINUOUS
 10
3.1818057621
 20
4.2173088076
 11
3.1818057621
 21
3.9113088076
  0
LINE
  5
242
100
AcDbEntity
  8
03__ASM_ALL_CURVES
100
AcDbLine
 62
40
  6
CONTINUOUS
 10
3.1818057621
 20
4.2173088076
 11
3.1818057621
 21
5.1070948076
  0
LINE
  5
243
100
AcDbEntity
  8
0
100
AcDbLine
 62
7
  6
CONTINUOUS
 10
3.2128057621
 20
4.2483088076
 11
3.2128057621
 21
3.8803088076
  0
LINE
  5
244
100
AcDbEntity
  8
03__ASM_ALL_CURVES
100
AcDbLine
 62
40
  6
CONTINUOUS
 10
3.3158757621
 20
5.0847498076
 11
3.3158757621
 21
5.0400598076
  0
LINE
  5
245
100
AcDbEntity
  8
0
100
AcDbLine
 62
7
  6
CONTINUOUS
 10
3.4118057621
 20
4.2483088076
 11
3.4118057621
 21
3.8803088076
  0
LINE
  5
246
100
AcDbEntity
  8
0
100
AcDbLine
 62
7
  6
CONTINUOUS
 10
3.4133057621
 20
3.9031658146
 11
3.4133057621
 21
4.1404323764
  0
LINE
  5
247
100
AcDbEntity
  8
0
100
AcDbLine
 62
7
  6
CONTINUOUS
 10
3.4483057621
 20
3.9031658146
 11
3.4483057621
 21
4.1404323764
  0
LINE
  5
248
100
AcDbEntity
  8
0
100
AcDbLine
 62
7
  6
CONTINUOUS
 10
3.4498057621
 20
4.2483088076
 11
3.4498057621
 21
3.8803088076
  0
LINE
  5
249
100
AcDbEntity
  8
0
100
AcDbLine
 62
7
  6
CONTINUOUS
 10
3.6828057621
 20
3.8166576225
 11
3.6828057621
 21
4.3119599927
  0
LINE
  5
24A
100
AcDbEntity
  8
0
100
AcDbLine
 62
7
  6
CONTINUOUS
 10
3.7448057621
 20
3.7933088076
 11
3.7448057621
 21
4.3353088076
  0
LINE
  5
24B
100
AcDbEntity
  8
0
100
AcDbLine
 62
7
  6
CONTINUOUS
 10
3.7508057621
 20
3.7933088076
 11
3.7508057621
 21
4.3353088076
  0
LINE
  5
24C
100
AcDbEntity
  8
0
100
AcDbLine
 62
7
  6
CONTINUOUS
 10
3.7563057621
 20
3.7988088076
 11
3.7563057621
 21
4.3298088076
  0
LINE
  5
24D
100
AcDbEntity
  8
0
100
AcDbLine
 62
7
  6
CONTINUOUS
 10
3.7723057621
 20
3.7988088076
 11
3.7723057621
 21
4.3298088076
  0
LINE
  5
24E
100
AcDbEntity
  8
0
100
AcDbLine
 62
7
  6
CONTINUOUS
 10
3.1818057621
 20
3.9113088076
 11
3.2128057621
 21
3.8803088076
  0
LINE
  5
24F
100
AcDbEntity
  8
0
100
AcDbLine
 62
7
  6
CONTINUOUS
 10
3.9638057621
 20
3.7933088076
 11
3.9638057621
 21
4.3353088076
  0
LINE
  5
250
100
AcDbEntity
  8
0
100
AcDbLine
 62
7
  6
CONTINUOUS
 10
3.9948057621
 20
3.7408088076
 11
3.9948057621
 21
4.3878088076
  0
LINE
  5
251
100
AcDbEntity
  8
0
100
AcDbLine
 62
7
  6
CONTINUOUS
 10
4.0448057621
 20
3.6908088076
 11
4.0448057621
 21
4.4378088076
  0
LINE
  5
252
100
AcDbEntity
  8
0
100
AcDbLine
 62
7
  6
CONTINUOUS
 10
4.0958057621
 20
3.6908088076
 11
4.0958057621
 21
4.4378088076
  0
LINE
  5
253
100
AcDbEntity
  8
0
100
AcDbLine
 62
7
  6
CONTINUOUS
 10
4.1008057621
 20
3.6958088076
 11
4.1008057621
 21
4.4328088076
  0
LINE
  5
254
100
AcDbEntity
  8
0
100
AcDbLine
 62
7
  6
CONTINUOUS
 10
4.1088057621
 20
3.7143088076
 11
4.1088057621
 21
4.4143088076
  0
LINE
  5
255
100
AcDbEntity
  8
0
100
AcDbLine
 62
7
  6
CONTINUOUS
 10
4.1308057621
 20
3.7143088076
 11
4.1308057621
 21
4.4143088076
  0
LINE
  5
256
100
AcDbEntity
  8
0
100
AcDbLine
 62
7
  6
CONTINUOUS
 10
4.1388057621
 20
3.6958088076
 11
4.1388057621
 21
4.4328088076
  0
LINE
  5
257
100
AcDbEntity
  8
0
100
AcDbLine
 62
7
  6
CONTINUOUS
 10
4.1438057621
 20
3.6908088076
 11
4.1438057621
 21
4.4378088076
  0
LINE
  5
258
100
AcDbEntity
  8
03__ASM_ALL_CURVES
100
AcDbLine
 62
40
  6
CONTINUOUS
 10
4.3656995121
 20
5.1815781431
 11
4.3726823246
 21
5.200198972
  0
LINE
  5
259
100
AcDbEntity
  8
03__ASM_ALL_CURVES
100
AcDbLine
 62
40
  6
CONTINUOUS
 10
4.1981120121
 20
5.1908885576
 11
4.1911291996
 21
5.1815781431
  0
LINE
  5
25A
100
AcDbEntity
  8
03__ASM_ALL_CURVES
100
AcDbLine
 62
40
  6
CONTINUOUS
 10
4.2050948246
 20
5.1350260576
 11
4.1911291996
 21
5.1164052245
  0
LINE
  5
25B
100
AcDbEntity
  8
03__ASM_ALL_CURVES
100
AcDbLine
 62
40
  6
CONTINUOUS
 10
4.3726823246
 20
5.200198972
 11
4.3796651371
 21
5.2095093931
  0
LINE
  5
25C
100
AcDbEntity
  8
0
100
AcDbLine
 62
7
  6
CONTINUOUS
 10
3.1818057621
 20
4.2173088076
 11
3.2128057621
 21
4.2483088076
  0
LINE
  5
25D
100
AcDbEntity
  8
03__ASM_ALL_CURVES
100
AcDbLine
 62
40
  6
CONTINUOUS
 10
4.1492323246
 20
5.2095093931
 11
4.1631979496
 21
5.2188198076
  0
LINE
  5
25E
100
AcDbEntity
  8
0
100
AcDbLine
 62
7
  6
CONTINUOUS
 10
3.7878065476
 20
3.783308022
 11
3.7723057621
 21
3.7988088076
  0
LINE
  5
25F
100
AcDbEntity
  8
0
100
AcDbLine
 62
7
  6
CONTINUOUS
 10
4.0448057621
 20
3.6908088076
 11
3.9948057621
 21
3.7408088076
  0
LINE
  5
260
100
AcDbEntity
  8
03__ASM_ALL_CURVES
100
AcDbLine
 62
40
  6
CONTINUOUS
 10
4.1981120121
 20
5.200198972
 11
4.1981120121
 21
5.1908885576
  0
LINE
  5
261
100
AcDbEntity
  8
03__ASM_ALL_CURVES
100
AcDbLine
 62
40
  6
CONTINUOUS
 10
4.2050948246
 20
5.1443364754
 11
4.2050948246
 21
5.1350260576
  0
LINE
  5
262
100
AcDbEntity
  8
03__ASM_ALL_CURVES
100
AcDbLine
 62
40
  6
CONTINUOUS
 10
4.2749229496
 20
5.1070948076
 11
4.2749229496
 21
5.1164052245
  0
LINE
  5
263
100
AcDbEntity
  8
03__ASM_ALL_CURVES
100
AcDbLine
 62
40
  6
CONTINUOUS
 10
4.4215620121
 20
5.1443364754
 11
4.4145791996
 21
5.1257156415
  0
LINE
  5
264
100
AcDbEntity
  8
03__ASM_ALL_CURVES
100
AcDbLine
 62
40
  6
CONTINUOUS
 10
4.4774245121
 20
5.1815781431
 11
4.4844073246
 21
5.200198972
  0
LINE
  5
265
100
AcDbEntity
  8
03__ASM_ALL_CURVES
100
AcDbLine
 62
40
  6
CONTINUOUS
 10
4.5332870121
 20
5.1815781431
 11
4.5263041996
 21
5.1629573076
  0
LINE
  5
266
100
AcDbEntity
  8
03__ASM_ALL_CURVES
100
AcDbLine
 62
40
  6
CONTINUOUS
 10
4.5332870121
 20
5.1443364754
 11
4.5263041996
 21
5.1257156415
  0
LINE
  5
267
100
AcDbEntity
  8
03__ASM_ALL_CURVES
100
AcDbLine
 62
40
  6
CONTINUOUS
 10
4.4145791996
 20
5.1257156415
 11
4.4075963871
 21
5.1164052245
  0
LINE
  5
268
100
AcDbEntity
  8
03__ASM_ALL_CURVES
100
AcDbLine
 62
40
  6
CONTINUOUS
 10
4.4844073246
 20
5.200198972
 11
4.4913901371
 21
5.2095093931
  0
LINE
  5
269
100
AcDbEntity
  8
03__ASM_ALL_CURVES
100
AcDbLine
 62
40
  6
CONTINUOUS
 10
4.5263041996
 20
5.1257156415
 11
4.5193213871
 21
5.1164052245
  0
LINE
  5
26A
100
AcDbEntity
  8
03__ASM_ALL_CURVES
100
AcDbLine
 62
40
  6
CONTINUOUS
 10
4.6240635746
 20
5.2188198076
 11
4.6100979496
 21
5.200198972
  0
LINE
  5
26B
100
AcDbEntity
  8
0
100
AcDbLine
 62
7
  6
CONTINUOUS
 10
3.7878065476
 20
4.3453095932
 11
3.7723057621
 21
4.3298088076
  0
LINE
  5
26C
100
AcDbEntity
  8
03__ASM_ALL_CURVES
100
AcDbLine
 62
40
  6
CONTINUOUS
 10
4.1911291996
 20
5.1815781431
 11
4.1771635746
 21
5.172267722
  0
LINE
  5
26D
100
AcDbEntity
  8
03__ASM_ALL_CURVES
100
AcDbLine
 62
40
  6
CONTINUOUS
 10
4.1911291996
 20
5.1164052245
 11
4.1771635746
 21
5.1070948076
  0
LINE
  5
26E
100
AcDbEntity
  8
03__ASM_ALL_CURVES
100
AcDbLine
 62
40
  6
CONTINUOUS
 10
4.3796651371
 20
5.2095093931
 11
4.3936307621
 21
5.2188198076
  0
LINE
  5
26F
100
AcDbEntity
  8
03__ASM_ALL_CURVES
100
AcDbLine
 62
40
  6
CONTINUOUS
 10
4.4913901371
 20
5.2095093931
 11
4.5053557621
 21
5.2188198076
  0
LINE
  5
270
100
AcDbEntity
  8
03__ASM_ALL_CURVES
100
AcDbLine
 62
40
  6
CONTINUOUS
 10
4.4075963871
 20
5.1164052245
 11
4.3936307621
 21
5.1070948076
  0
LINE
  5
271
100
AcDbEntity
  8
0
100
AcDbLine
 62
7
  6
CONTINUOUS
 10
3.9638057621
 20
4.3353088076
 11
3.9577109899
 21
4.3458652626
  0
LINE
  5
272
100
AcDbEntity
  8
03__ASM_ALL_CURVES
100
AcDbLine
 62
40
  6
CONTINUOUS
 10
4.3656995121
 20
5.1443364754
 11
4.3656995121
 21
5.1815781431
  0
LINE
  5
273
100
AcDbEntity
  8
03__ASM_ALL_CURVES
100
AcDbLine
 62
40
  6
CONTINUOUS
 10
4.4215620121
 20
5.1815781431
 11
4.4215620121
 21
5.1443364754
  0
LINE
  5
274
100
AcDbEntity
  8
0
100
AcDbLine
 62
7
  6
CONTINUOUS
 10
4.4948057621
 20
3.6343088076
 11
4.4948057621
 21
4.4943088076
  0
LINE
  5
275
100
AcDbEntity
  8
03__ASM_ALL_CURVES
100
AcDbLine
 62
40
  6
CONTINUOUS
 10
4.6100979496
 20
5.200198972
 11
4.6031151371
 21
5.172267722
  0
LINE
  5
276
100
AcDbEntity
  8
03__ASM_ALL_CURVES
100
AcDbLine
 62
40
  6
CONTINUOUS
 10
4.7427713871
 20
5.1815781431
 11
4.7567370121
 21
5.2188198076
  0
LINE
  5
277
100
AcDbEntity
  8
0
100
AcDbLine
 62
7
  6
CONTINUOUS
 10
3.9638057621
 20
3.7933088076
 11
3.9577109899
 21
3.7827523526
  0
LINE
  5
278
100
AcDbEntity
  8
03__ASM_ALL_CURVES
100
AcDbLine
 62
40
  6
CONTINUOUS
 10
4.8125995121
 20
5.200198972
 11
4.8195823246
 21
5.2095093931
  0
LINE
  5
279
100
AcDbEntity
  8
03__ASM_ALL_CURVES
100
AcDbLine
 62
40
  6
CONTINUOUS
 10
4.8056166996
 20
5.1443364754
 11
4.8195823246
 21
5.1629573076
  0
LINE
  5
27A
100
AcDbEntity
  8
03__ASM_ALL_CURVES
100
AcDbLine
 62
40
  6
CONTINUOUS
 10
4.8684620121
 20
5.1908885576
 11
4.8614791996
 21
5.1815781431
  0
LINE
  5
27B
100
AcDbEntity
  8
0
100
AcDbLine
 62
7
  6
CONTINUOUS
 10
4.0448057621
 20
4.4378088076
 11
3.9948057621
 21
4.3878088076
  0
LINE
  5
27C
100
AcDbEntity
  8
03__ASM_ALL_CURVES
100
AcDbLine
 62
40
  6
CONTINUOUS
 10
4.5193213871
 20
5.1164052245
 11
4.5053557621
 21
5.1070948076
  0
LINE
  5
27D
100
AcDbEntity
  8
03__ASM_ALL_CURVES
100
AcDbLine
 62
40
  6
CONTINUOUS
 10
4.8195823246
 20
5.2095093931
 11
4.8335479496
 21
5.2188198076
  0
LINE
  5
27E
100
AcDbEntity
  8
03__ASM_ALL_CURVES
100
AcDbLine
 62
40
  6
CONTINUOUS
 10
4.8195823246
 20
5.1629573076
 11
4.8335479496
 21
5.172267722
  0
LINE
  5
27F
100
AcDbEntity
  8
03__ASM_ALL_CURVES
100
AcDbLine
 62
40
  6
CONTINUOUS
 10
4.5263041996
 20
5.1629573076
 11
4.5053557621
 21
5.1536468898
  0
LINE
  5
280
100
AcDbEntity
  8
0
100
AcDbLine
 62
7
  6
CONTINUOUS
 10
3.7563057621
 20
4.3298088076
 11
3.7508057621
 21
4.3353088076
  0
LINE
  5
281
100
AcDbEntity
  8
0
100
AcDbLine
 62
7
  6
CONTINUOUS
 10
4.5288694279
 20
3.5753088076
 11
4.4948057621
 21
3.6343088076
  0
LINE
  5
282
100
AcDbEntity
  8
0
100
AcDbLine
 62
7
  6
CONTINUOUS
 10
4.5288694279
 20
3.5753088076
 11
4.5288694279
 21
3.5762063351
  0
LINE
  5
283
100
AcDbEntity
  8
0
100
AcDbLine
 62
7
  6
CONTINUOUS
 10
4.5288694279
 20
3.7946112801
 11
4.5288694279
 21
3.8459038626
  0
LINE
  5
284
100
AcDbEntity
  8
0
100
AcDbLine
 62
7
  6
CONTINUOUS
 10
4.5288694279
 20
4.2827137526
 11
4.5288694279
 21
4.3340063351
  0
LINE
  5
285
100
AcDbEntity
  8
0
100
AcDbLine
 62
7
  6
CONTINUOUS
 10
4.5288694279
 20
4.5524112801
 11
4.5288694279
 21
4.5533088076
  0
LINE
  5
286
100
AcDbEntity
  8
03__ASM_ALL_CURVES
100
AcDbLine
 62
40
  6
CONTINUOUS
 10
4.5332870121
 20
5.1815781431
 11
4.5332870121
 21
5.1443364754
  0
LINE
  5
287
100
AcDbEntity
  8
03__ASM_ALL_CURVES
100
AcDbLine
 62
40
  6
CONTINUOUS
 10
4.6031151371
 20
5.172267722
 11
4.6031151371
 21
5.1536468898
  0
LINE
  5
288
100
AcDbEntity
  8
03__ASM_ALL_CURVES
100
AcDbLine
 62
40
  6
CONTINUOUS
 10
4.7288057621
 20
5.1070948076
 11
4.7357885746
 21
5.1536468898
  0
LINE
  5
289
100
AcDbEntity
  8
03__ASM_ALL_CURVES
100
AcDbLine
 62
40
  6
CONTINUOUS
 10
4.7357885746
 20
5.1536468898
 11
4.7427713871
 21
5.1815781431
  0
LINE
  5
28A
100
AcDbEntity
  8
0
100
AcDbLine
 62
7
  6
CONTINUOUS
 10
4.5284807871
 20
4.552635662
 11
4.4948057621
 21
4.4943088076
  0
LINE
  5
28B
100
AcDbEntity
  8
03__ASM_ALL_CURVES
100
AcDbLine
 62
40
  6
CONTINUOUS
 10
5.0849291996
 20
5.2188198076
 11
5.0360495121
 21
5.1350260576
  0
LINE
  5
28C
100
AcDbEntity
  8
03__ASM_ALL_CURVES
100
AcDbLine
 62
40
  6
CONTINUOUS
 10
4.8754448246
 20
5.1350260576
 11
4.8614791996
 21
5.1164052245
  0
LINE
  5
28D
100
AcDbEntity
  8
0
100
AcDbLine
 62
7
  6
CONTINUOUS
 10
3.7563057621
 20
3.7988088076
 11
3.7508057621
 21
3.7933088076
  0
LINE
  5
28E
100
AcDbEntity
  8
03__ASM_ALL_CURVES
100
AcDbLine
 62
40
  6
CONTINUOUS
 10
4.8614791996
 20
5.1815781431
 11
4.8475135746
 21
5.172267722
  0
LINE
  5
28F
100
AcDbEntity
  8
03__ASM_ALL_CURVES
100
AcDbLine
 62
40
  6
CONTINUOUS
 10
4.8614791996
 20
5.1164052245
 11
4.8475135746
 21
5.1070948076
  0
LINE
  5
290
100
AcDbEntity
  8
03__ASM_ALL_CURVES
100
AcDbLine
 62
40
  6
CONTINUOUS
 10
5.1547573246
 20
5.2095093931
 11
5.1687229496
 21
5.2188198076
  0
LINE
  5
291
100
AcDbEntity
  8
03__ASM_ALL_CURVES
100
AcDbLine
 62
40
  6
CONTINUOUS
 10
5.1547573246
 20
5.1629573076
 11
5.1687229496
 21
5.172267722
  0
LINE
  5
292
100
AcDbEntity
  8
03__ASM_ALL_CURVES
100
AcDbLine
 62
40
  6
CONTINUOUS
 10
4.8056166996
 20
5.1350260576
 11
4.8056166996
 21
5.1443364754
  0
LINE
  5
293
100
AcDbEntity
  8
03__ASM_ALL_CURVES
100
AcDbLine
 62
40
  6
CONTINUOUS
 10
4.8125995121
 20
5.1908885576
 11
4.8125995121
 21
5.200198972
  0
LINE
  5
294
100
AcDbEntity
  8
03__ASM_ALL_CURVES
100
AcDbLine
 62
40
  6
CONTINUOUS
 10
4.8684620121
 20
5.200198972
 11
4.8684620121
 21
5.1908885576
  0
LINE
  5
295
100
AcDbEntity
  8
03__ASM_ALL_CURVES
100
AcDbLine
 62
40
  6
CONTINUOUS
 10
4.8754448246
 20
5.1443364754
 11
4.8754448246
 21
5.1350260576
  0
LINE
  5
296
100
AcDbEntity
  8
03__ASM_ALL_CURVES
100
AcDbLine
 62
40
  6
CONTINUOUS
 10
5.1477745121
 20
5.200198972
 11
5.1547573246
 21
5.2095093931
  0
LINE
  5
297
100
AcDbEntity
  8
03__ASM_ALL_CURVES
100
AcDbLine
 62
40
  6
CONTINUOUS
 10
5.1407916996
 20
5.1443364754
 11
5.1547573246
 21
5.1629573076
  0
LINE
  5
298
100
AcDbEntity
  8
03__ASM_ALL_CURVES
100
AcDbLine
 62
40
  6
CONTINUOUS
 10
5.2036370121
 20
5.1908885576
 11
5.1966541996
 21
5.1815781431
  0
LINE
  5
299
100
AcDbEntity
  8
03__ASM_ALL_CURVES
100
AcDbLine
 62
40
  6
CONTINUOUS
 10
5.2106198246
 20
5.1350260576
 11
5.1966541996
 21
5.1164052245
  0
LINE
  5
29A
100
AcDbEntity
  8
03__ASM_ALL_CURVES
100
AcDbLine
 62
40
  6
CONTINUOUS
 10
5.2944135746
 20
5.1257156415
 11
5.2804479496
 21
5.1070948076
  0
LINE
  5
29B
100
AcDbEntity
  8
03__ASM_ALL_CURVES
100
AcDbLine
 62
40
  6
CONTINUOUS
 10
5.1966541996
 20
5.1815781431
 11
5.1826885746
 21
5.172267722
  0
LINE
  5
29C
100
AcDbEntity
  8
03__ASM_ALL_CURVES
100
AcDbLine
 62
40
  6
CONTINUOUS
 10
5.1966541996
 20
5.1164052245
 11
5.1826885746
 21
5.1070948076
  0
LINE
  5
29D
100
AcDbEntity
  8
03__ASM_ALL_CURVES
100
AcDbLine
 62
40
  6
CONTINUOUS
 10
7.1662490999
 20
3.3555150576
 11
7.1557748812
 21
3.3555150576
  0
LINE
  5
29E
100
AcDbEntity
  8
03__ASM_ALL_CURVES
100
AcDbLine
 62
40
  6
CONTINUOUS
 10
6.3210118136
 20
3.3555150576
 11
6.3105375948
 21
3.3555150576
  0
LINE
  5
29F
100
AcDbEntity
  8
03__ASM_ALL_CURVES
100
AcDbLine
 62
40
  6
CONTINUOUS
 10
6.0696305636
 20
3.3555150576
 11
6.0591563448
 21
3.3555150576
  0
LINE
  5
2A0
100
AcDbEntity
  8
03__ASM_ALL_CURVES
100
AcDbLine
 62
40
  6
CONTINUOUS
 10
5.3846305785
 20
3.3555150576
 11
5.3741563597
 21
3.3555150576
  0
LINE
  5
2A1
100
AcDbEntity
  8
03__ASM_ALL_CURVES
100
AcDbLine
 62
40
  6
CONTINUOUS
 10
7.3914448031
 20
3.3555150576
 11
7.4333416781
 21
3.3555150576
  0
LINE
  5
2A2
100
AcDbEntity
  8
03__ASM_ALL_CURVES
100
AcDbLine
 62
40
  6
CONTINUOUS
 10
5.6098262816
 20
3.3764634951
 11
5.656960266
 21
3.3764634951
  0
LINE
  5
2A3
100
AcDbEntity
  8
03__ASM_ALL_CURVES
100
AcDbLine
 62
40
  6
CONTINUOUS
 10
5.3741563597
 20
3.3555150576
 11
5.363682141
 21
3.3624978703
  0
LINE
  5
2A4
100
AcDbEntity
  8
03__ASM_ALL_CURVES
100
AcDbLine
 62
40
  6
CONTINUOUS
 10
5.3008368285
 20
3.4393088076
 11
5.3113110472
 21
3.4323259968
  0
LINE
  5
2A5
100
AcDbEntity
  8
03__ASM_ALL_CURVES
100
AcDbLine
 62
40
  6
CONTINUOUS
 10
5.3846305785
 20
3.4393088076
 11
5.3951047972
 21
3.4323259968
  0
LINE
  5
2A6
100
AcDbEntity
  8
0
100
AcDbLine
 62
7
  6
CONTINUOUS
 10
5.1288057621
 20
3.6208088076
 11
5.1202837241
 21
3.6301562601
  0
LINE
  5
2A7
100
AcDbEntity
  8
03__ASM_ALL_CURVES
100
AcDbLine
 62
40
  6
CONTINUOUS
 10
5.363682141
 20
3.3624978703
 11
5.3532079222
 21
3.3764634951
  0
LINE
  5
2A8
100
AcDbEntity
  8
03__ASM_ALL_CURVES
100
AcDbLine
 62
40
  6
CONTINUOUS
 10
5.3113110472
 20
3.4323259968
 11
5.3165481566
 21
3.4253431809
  0
LINE
  5
2A9
100
AcDbEntity
  8
03__ASM_ALL_CURVES
100
AcDbLine
 62
40
  6
CONTINUOUS
 10
4.3726823246
 20
5.1257156415
 11
4.3656995121
 21
5.1443364754
  0
LINE
  5
2AA
100
AcDbEntity
  8
03__ASM_ALL_CURVES
100
AcDbLine
 62
40
  6
CONTINUOUS
 10
4.4145791996
 20
5.200198972
 11
4.4215620121
 21
5.1815781431
  0
LINE
  5
2AB
100
AcDbEntity
  8
03__ASM_ALL_CURVES
100
AcDbLine
 62
40
  6
CONTINUOUS
 10
4.4844073246
 20
5.1629573076
 11
4.4774245121
 21
5.1815781431
  0
LINE
  5
2AC
100
AcDbEntity
  8
03__ASM_ALL_CURVES
100
AcDbLine
 62
40
  6
CONTINUOUS
 10
4.6031151371
 20
5.1536468898
 11
4.6100979496
 21
5.1257156415
  0
LINE
  5
2AD
100
AcDbEntity
  8
0
100
AcDbLine
 62
7
  6
CONTINUOUS
 10
4.9183057621
 20
3.5753088076
 11
4.9183057621
 21
3.5762063351
  0
LINE
  5
2AE
100
AcDbEntity
  8
0
100
AcDbLine
 62
7
  6
CONTINUOUS
 10
4.9183057621
 20
3.7946112801
 11
4.9183057621
 21
3.8459038626
  0
LINE
  5
2AF
100
AcDbEntity
  8
0
100
AcDbLine
 62
7
  6
CONTINUOUS
 10
4.9183057621
 20
4.2827137526
 11
4.9183057621
 21
4.3340063351
  0
LINE
  5
2B0
100
AcDbEntity
  8
0
100
AcDbLine
 62
7
  6
CONTINUOUS
 10
4.9183057621
 20
4.5524112801
 11
4.9183057621
 21
4.5533088076
  0
LINE
  5
2B1
100
AcDbEntity
  8
03__ASM_ALL_CURVES
100
AcDbLine
 62
40
  6
CONTINUOUS
 10
4.9452729496
 20
5.1070948076
 11
4.9452729496
 21
5.1164052245
  0
LINE
  5
2B2
100
AcDbEntity
  8
0
100
AcDbLine
 62
7
  6
CONTINUOUS
 10
4.9638057621
 20
3.6208088076
 11
4.9638057621
 21
4.5078088076
  0
LINE
  5
2B3
100
AcDbEntity
  8
03__ASM_ALL_CURVES
100
AcDbLine
 62
40
  6
CONTINUOUS
 10
7.2500428499
 20
3.3974119326
 11
7.2238573031
 21
3.3974119326
  0
LINE
  5
2B4
100
AcDbEntity
  8
03__ASM_ALL_CURVES
100
AcDbLine
 62
40
  6
CONTINUOUS
 10
7.0824553499
 20
3.3974119326
 11
7.0562698031
 21
3.3974119326
  0
LINE
  5
2B5
100
AcDbEntity
  8
03__ASM_ALL_CURVES
100
AcDbLine
 62
40
  6
CONTINUOUS
 10
6.1534243136
 20
3.3974119326
 11
6.1272387667
 21
3.3974119326
  0
LINE
  5
2B6
100
AcDbEntity
  8
03__ASM_ALL_CURVES
100
AcDbLine
 62
40
  6
CONTINUOUS
 10
5.9858368136
 20
3.3974119326
 11
5.9596512667
 21
3.3974119326
  0
LINE
  5
2B7
100
AcDbEntity
  8
03__ASM_ALL_CURVES
100
AcDbLine
 62
40
  6
CONTINUOUS
 10
5.4684243285
 20
3.3974119326
 11
5.4422387816
 21
3.3974119326
  0
LINE
  5
2B8
100
AcDbEntity
  8
03__ASM_ALL_CURVES
100
AcDbLine
 62
40
  6
CONTINUOUS
 10
5.3008368285
 20
3.3974119326
 11
5.2746512816
 21
3.3974119326
  0
LINE
  5
2B9
100
AcDbEntity
  8
03__ASM_ALL_CURVES
100
AcDbLine
 62
40
  6
CONTINUOUS
 10
6.3105375948
 20
3.4043947434
 11
6.3210118136
 21
3.4043947434
  0
LINE
  5
2BA
100
AcDbEntity
  8
03__ASM_ALL_CURVES
100
AcDbLine
 62
40
  6
CONTINUOUS
 10
5.2746512816
 20
3.4393088076
 11
5.3008368285
 21
3.4393088076
  0
LINE
  5
2BB
100
AcDbEntity
  8
03__ASM_ALL_CURVES
100
AcDbLine
 62
40
  6
CONTINUOUS
 10
5.3741563597
 20
3.4393088076
 11
5.3846305785
 21
3.4393088076
  0
LINE
  5
2BC
100
AcDbEntity
  8
03__ASM_ALL_CURVES
100
AcDbLine
 62
40
  6
CONTINUOUS
 10
5.4422387816
 20
3.4393088076
 11
5.4684243285
 21
3.4393088076
  0
LINE
  5
2BD
100
AcDbEntity
  8
03__ASM_ALL_CURVES
100
AcDbLine
 62
40
  6
CONTINUOUS
 10
5.5207954222
 20
3.4393088076
 11
5.573166516
 21
3.4393088076
  0
LINE
  5
2BE
100
AcDbEntity
  8
03__ASM_ALL_CURVES
100
AcDbLine
 62
40
  6
CONTINUOUS
 10
5.9596512667
 20
3.4393088076
 11
5.9858368136
 21
3.4393088076
  0
LINE
  5
2BF
100
AcDbEntity
  8
03__ASM_ALL_CURVES
100
AcDbLine
 62
40
  6
CONTINUOUS
 10
6.0591563448
 20
3.4393088076
 11
6.0696305636
 21
3.4393088076
  0
LINE
  5
2C0
100
AcDbEntity
  8
03__ASM_ALL_CURVES
100
AcDbLine
 62
40
  6
CONTINUOUS
 10
6.1272387667
 20
3.4393088076
 11
6.1534243136
 21
3.4393088076
  0
LINE
  5
2C1
100
AcDbEntity
  8
03__ASM_ALL_CURVES
100
AcDbLine
 62
40
  6
CONTINUOUS
 10
6.2057954073
 20
3.4393088076
 11
6.2581665011
 21
3.4393088076
  0
LINE
  5
2C2
100
AcDbEntity
  8
03__ASM_ALL_CURVES
100
AcDbLine
 62
40
  6
CONTINUOUS
 10
6.3105375948
 20
3.4393088076
 11
6.3210118136
 21
3.4393088076
  0
LINE
  5
2C3
100
AcDbEntity
  8
03__ASM_ALL_CURVES
100
AcDbLine
 62
40
  6
CONTINUOUS
 10
7.0562698031
 20
3.4393088076
 11
7.0824553499
 21
3.4393088076
  0
LINE
  5
2C4
100
AcDbEntity
  8
03__ASM_ALL_CURVES
100
AcDbLine
 62
40
  6
CONTINUOUS
 10
7.1557748812
 20
3.4393088076
 11
7.1662490999
 21
3.4393088076
  0
LINE
  5
2C5
100
AcDbEntity
  8
03__ASM_ALL_CURVES
100
AcDbLine
 62
40
  6
CONTINUOUS
 10
7.2238573031
 20
3.4393088076
 11
7.2500428499
 21
3.4393088076
  0
LINE
  5
2C6
100
AcDbEntity
  8
03__ASM_ALL_CURVES
100
AcDbLine
 62
40
  6
CONTINUOUS
 10
7.3024139437
 20
3.4393088076
 11
7.3547850374
 21
3.4393088076
  0
LINE
  5
2C7
100
AcDbEntity
  8
03__ASM_ALL_CURVES
100
AcDbLine
 62
40
  6
CONTINUOUS
 10
7.4071561312
 20
3.4393088076
 11
7.4176303499
 21
3.4393088076
  0
LINE
  5
2C8
100
AcDbEntity
  8
03__ASM_ALL_CURVES
100
AcDbLine
 62
40
  6
CONTINUOUS
 10
5.4684243285
 20
3.4393088076
 11
5.4788985472
 21
3.4323259968
  0
LINE
  5
2C9
100
AcDbEntity
  8
03__ASM_ALL_CURVES
100
AcDbLine
 62
40
  6
CONTINUOUS
 10
5.3951047972
 20
3.4323259968
 11
5.405579016
 21
3.4183603701
  0
LINE
  5
2CA
100
AcDbEntity
  8
03__ASM_ALL_CURVES
100
AcDbLine
 62
40
  6
CONTINUOUS
 10
4.1492323246
 20
5.1164052245
 11
4.1422495121
 21
5.1257156415
  0
LINE
  5
2CB
100
AcDbEntity
  8
03__ASM_ALL_CURVES
100
AcDbLine
 62
40
  6
CONTINUOUS
 10
5.4788985472
 20
3.4323259968
 11
5.4841356566
 21
3.4253431809
  0
LINE
  5
2CC
100
AcDbEntity
  8
03__ASM_ALL_CURVES
100
AcDbLine
 62
40
  6
CONTINUOUS
 10
4.1911291996
 20
5.1629573076
 11
4.2050948246
 21
5.1443364754
  0
LINE
  5
2CD
100
AcDbEntity
  8
03__ASM_ALL_CURVES
100
AcDbLine
 62
40
  6
CONTINUOUS
 10
4.1911291996
 20
5.2095093931
 11
4.1981120121
 21
5.200198972
  0
LINE
  5
2CE
100
AcDbEntity
  8
03__ASM_ALL_CURVES
100
AcDbLine
 62
40
  6
CONTINUOUS
 10
4.2749229496
 20
5.1164052245
 11
4.2819057621
 21
5.1070948076
  0
LINE
  5
2CF
100
AcDbEntity
  8
03__ASM_ALL_CURVES
100
AcDbLine
 62
40
  6
CONTINUOUS
 10
4.5263041996
 20
5.200198972
 11
4.5332870121
 21
5.1815781431
  0
LINE
  5
2D0
100
AcDbEntity
  8
03__ASM_ALL_CURVES
100
AcDbLine
 62
40
  6
CONTINUOUS
 10
5.0849291996
 20
5.1070948076
 11
5.0849291996
 21
5.2188198076
  0
LINE
  5
2D1
100
AcDbEntity
  8
0
100
AcDbLine
 62
7
  6
CONTINUOUS
 10
5.1088057621
 20
3.6208088076
 11
5.1088057621
 21
4.5078088076
  0
LINE
  5
2D2
100
AcDbEntity
  8
0
100
AcDbLine
 62
7
  6
CONTINUOUS
 10
5.1173278001
 20
3.6301562601
 11
5.1173278001
 21
4.4984613551
  0
LINE
  5
2D3
100
AcDbEntity
  8
0
100
AcDbLine
 62
7
  6
CONTINUOUS
 10
5.1202837241
 20
3.6301562601
 11
5.1202837241
 21
4.4984613551
  0
LINE
  5
2D4
100
AcDbEntity
  8
0
100
AcDbLine
 62
7
  6
CONTINUOUS
 10
5.1288057621
 20
3.6208088076
 11
5.1288057621
 21
4.5078088076
  0
LINE
  5
2D5
100
AcDbEntity
  8
03__ASM_ALL_CURVES
100
AcDbLine
 62
40
  6
CONTINUOUS
 10
5.1407916996
 20
5.1350260576
 11
5.1407916996
 21
5.1443364754
  0
LINE
  5
2D6
100
AcDbEntity
  8
03__ASM_ALL_CURVES
100
AcDbLine
 62
40
  6
CONTINUOUS
 10
5.1477745121
 20
5.1908885576
 11
5.1477745121
 21
5.200198972
  0
LINE
  5
2D7
100
AcDbEntity
  8
0
100
AcDbLine
 62
7
  6
CONTINUOUS
 10
5.1818057621
 20
3.6208088076
 11
5.1818057621
 21
4.5078088076
  0
LINE
  5
2D8
100
AcDbEntity
  8
03__ASM_ALL_CURVES
100
AcDbLine
 62
40
  6
CONTINUOUS
 10
5.2036370121
 20
5.200198972
 11
5.2036370121
 21
5.1908885576
  0
LINE
  5
2D9
100
AcDbEntity
  8
03__ASM_ALL_CURVES
100
AcDbLine
 62
40
  6
CONTINUOUS
 10
5.2106198246
 20
5.1443364754
 11
5.2106198246
 21
5.1350260576
  0
LINE
  5
2DA
100
AcDbEntity
  8
0
100
AcDbLine
 62
7
  6
CONTINUOUS
 10
5.2318057621
 20
3.6218094804
 11
5.2318057621
 21
4.5068081348
  0
LINE
  5
2DB
100
AcDbEntity
  8
03__ASM_ALL_CURVES
100
AcDbLine
 62
40
  6
CONTINUOUS
 10
5.3013963871
 20
5.1536468898
 11
5.2944135746
 21
5.1257156415
  0
LINE
  5
2DC
100
AcDbEntity
  8
0
100
AcDbLine
 62
7
  6
CONTINUOUS
 10
5.1288057621
 20
4.5078088076
 11
5.1202837241
 21
4.4984613551
  0
LINE
  5
2DD
100
AcDbEntity
  8
0
100
AcDbLine
 62
7
  6
CONTINUOUS
 10
4.9183057621
 20
3.5753088076
 11
4.5288694279
 21
3.5753088076
  0
LINE
  5
2DE
100
AcDbEntity
  8
0
100
AcDbLine
 62
7
  6
CONTINUOUS
 10
4.9183057621
 20
3.5762063351
 11
4.5288694279
 21
3.5762063351
  0
LINE
  5
2DF
100
AcDbEntity
  8
0
100
AcDbLine
 62
7
  6
CONTINUOUS
 10
5.3698057621
 20
3.6208088076
 11
5.3228057621
 21
3.6208088076
  0
LINE
  5
2E0
100
AcDbEntity
  8
0
100
AcDbLine
 62
7
  6
CONTINUOUS
 10
5.1818057621
 20
3.6208088076
 11
5.1288057621
 21
3.6208088076
  0
LINE
  5
2E1
100
AcDbEntity
  8
0
100
AcDbLine
 62
7
  6
CONTINUOUS
 10
5.1088057621
 20
3.6208088076
 11
4.9638057621
 21
3.6208088076
  0
LINE
  5
2E2
100
AcDbEntity
  8
0
100
AcDbLine
 62
7
  6
CONTINUOUS
 10
5.1818057621
 20
3.6218088076
 11
5.2318057621
 21
3.6218088076
  0
LINE
  5
2E3
100
AcDbEntity
  8
0
100
AcDbLine
 62
7
  6
CONTINUOUS
 10
6.2758057621
 20
3.6358088076
 11
6.2208057621
 21
3.6358088076
  0
LINE
  5
2E4
100
AcDbEntity
  8
0
100
AcDbLine
 62
7
  6
CONTINUOUS
 10
5.9318057621
 20
3.6358088076
 11
5.8808057621
 21
3.6358088076
  0
LINE
  5
2E5
100
AcDbEntity
  8
0
100
AcDbLine
 62
7
  6
CONTINUOUS
 10
5.6818057621
 20
3.6358088076
 11
5.6318057621
 21
3.6358088076
  0
LINE
  5
2E6
100
AcDbEntity
  8
0
100
AcDbLine
 62
7
  6
CONTINUOUS
 10
5.6818057621
 20
3.6368088076
 11
5.7318057621
 21
3.6368088076
  0
LINE
  5
2E7
100
AcDbEntity
  8
0
100
AcDbLine
 62
7
  6
CONTINUOUS
 10
5.8018057621
 20
3.6368088076
 11
5.8518057621
 21
3.6368088076
  0
LINE
  5
2E8
100
AcDbEntity
  8
THREAD
100
AcDbLine
 62
7
  6
CONTINUOUS
 10
6.3228057621
 20
3.6593088076
 11
6.2913942193
 21
3.6593088076
  0
LINE
  5
2E9
100
AcDbEntity
  8
0
100
AcDbLine
 62
7
  6
CONTINUOUS
 10
6.3928057621
 20
3.6598088076
 11
6.4428057621
 21
3.6598088076
  0
LINE
  5
2EA
100
AcDbEntity
  8
0
100
AcDbLine
 62
7
  6
CONTINUOUS
 10
5.3098057621
 20
3.6758088076
 11
5.3018057621
 21
3.6758088076
  0
LINE
  5
2EB
100
AcDbEntity
  8
THREAD
100
AcDbLine
 62
7
  6
CONTINUOUS
 10
6.7313057621
 20
3.6768088076
 11
6.484167722
 21
3.6768088076
  0
LINE
  5
2EC
100
AcDbEntity
  8
0
100
AcDbLine
 62
7
  6
CONTINUOUS
 10
5.8678057621
 20
3.6908088076
 11
5.8518057621
 21
3.6908088076
  0
LINE
  5
2ED
100
AcDbEntity
  8
0
100
AcDbLine
 62
7
  6
CONTINUOUS
 10
5.6170685565
 20
3.6908088076
 11
5.3885622055
 21
3.6908088076
  0
LINE
  5
2EE
100
AcDbEntity
  8
0
100
AcDbLine
 62
7
  6
CONTINUOUS
 10
4.4948057621
 20
3.6908088076
 11
4.1438057621
 21
3.6908088076
  0
LINE
  5
2EF
100
AcDbEntity
  8
0
100
AcDbLine
 62
7
  6
CONTINUOUS
 10
4.0958057621
 20
3.6908088076
 11
4.0448057621
 21
3.6908088076
  0
LINE
  5
2F0
100
AcDbEntity
  8
0
100
AcDbLine
 62
7
  6
CONTINUOUS
 10
6.2040589375
 20
3.6983088076
 11
5.9485525866
 21
3.6983088076
  0
LINE
  5
2F1
100
AcDbEntity
  8
THREAD
100
AcDbLine
 62
7
  6
CONTINUOUS
 10
6.4553002086
 20
3.7138088076
 11
6.4428057621
 21
3.7138088076
  0
LINE
  5
2F2
100
AcDbEntity
  8
0
100
AcDbLine
 62
7
  6
CONTINUOUS
 10
4.1308057621
 20
3.7143088076
 11
4.1088057621
 21
3.7143088076
  0
LINE
  5
2F3
100
AcDbEntity
  8
THREAD
100
AcDbLine
 62
7
  6
CONTINUOUS
 10
6.9538057621
 20
3.7213088076
 11
6.7758057621
 21
3.7213088076
  0
LINE
  5
2F4
100
AcDbEntity
  8
0
100
AcDbLine
 62
7
  6
CONTINUOUS
 10
7.3828057621
 20
3.7218088076
 11
7.4428057621
 21
3.7218088076
  0
LINE
  5
2F5
100
AcDbEntity
  8
0
100
AcDbLine
 62
7
  6
CONTINUOUS
 10
7.5838057621
 20
3.7218088076
 11
7.6378057621
 21
3.7218088076
  0
LINE
  5
2F6
100
AcDbEntity
  8
0
100
AcDbLine
 62
7
  6
CONTINUOUS
 10
7.5128057621
 20
3.7223088076
 11
7.5628057621
 21
3.7223088076
  0
LINE
  5
2F7
100
AcDbEntity
  8
03__ASM_ALL_CURVES
100
AcDbLine
 62
40
  6
CONTINUOUS
 10
6.0591563448
 20
3.3555150576
 11
6.0486821261
 21
3.3624978703
  0
LINE
  5
2F8
100
AcDbEntity
  8
03__ASM_ALL_CURVES
100
AcDbLine
 62
40
  6
CONTINUOUS
 10
5.9858368136
 20
3.4393088076
 11
5.9963110323
 21
3.4323259968
  0
LINE
  5
2F9
100
AcDbEntity
  8
03__ASM_ALL_CURVES
100
AcDbLine
 62
40
  6
CONTINUOUS
 10
6.0696305636
 20
3.4393088076
 11
6.0801047823
 21
3.4323259968
  0
LINE
  5
2FA
100
AcDbEntity
  8
03__ASM_ALL_CURVES
100
AcDbLine
 62
40
  6
CONTINUOUS
 10
4.3796651371
 20
5.1164052245
 11
4.3726823246
 21
5.1257156415
  0
LINE
  5
2FB
100
AcDbEntity
  8
03__ASM_ALL_CURVES
100
AcDbLine
 62
40
  6
CONTINUOUS
 10
4.4075963871
 20
5.2095093931
 11
4.4145791996
 21
5.200198972
  0
LINE
  5
2FC
100
AcDbEntity
  8
03__ASM_ALL_CURVES
100
AcDbLine
 62
40
  6
CONTINUOUS
 10
4.4913901371
 20
5.1164052245
 11
4.4844073246
 21
5.1257156415
  0
LINE
  5
2FD
100
AcDbEntity
  8
03__ASM_ALL_CURVES
100
AcDbLine
 62
40
  6
CONTINUOUS
 10
5.4684243285
 20
3.3974119326
 11
5.4841356566
 21
3.3555150576
  0
LINE
  5
2FE
100
AcDbEntity
  8
03__ASM_ALL_CURVES
100
AcDbLine
 62
40
  6
CONTINUOUS
 10
5.3532079222
 20
3.3764634951
 11
5.3479708129
 21
3.3974119326
  0
LINE
  5
2FF
100
AcDbEntity
  8
03__ASM_ALL_CURVES
100
AcDbLine
 62
40
  6
CONTINUOUS
 10
5.405579016
 20
3.4183603701
 11
5.4108161254
 21
3.3974119326
  0
LINE
  5
300
100
AcDbEntity
  8
03__ASM_ALL_CURVES
100
AcDbLine
 62
40
  6
CONTINUOUS
 10
5.2746512816
 20
3.3555150576
 11
5.2746512816
 21
3.4393088076
  0
LINE
  5
301
100
AcDbEntity
  8
03__ASM_ALL_CURVES
100
AcDbLine
 62
40
  6
CONTINUOUS
 10
5.3013963871
 20
5.172267722
 11
5.3013963871
 21
5.1536468898
  0
LINE
  5
302
100
AcDbEntity
  8
0
100
AcDbLine
 62
7
  6
CONTINUOUS
 10
5.3018057621
 20
4.4878088076
 11
5.3018057621
 21
3.6408088076
  0
LINE
  5
303
100
AcDbEntity
  8
0
100
AcDbLine
 62
7
  6
CONTINUOUS
 10
5.3098057621
 20
3.6758088076
 11
5.3098057621
 21
4.4528088076
  0
LINE
  5
304
100
AcDbEntity
  8
03__ASM_ALL_CURVES
100
AcDbLine
 62
40
  6
CONTINUOUS
 10
5.3165481566
 20
3.4253431809
 11
5.3165481566
 21
3.4113775593
  0
LINE
  5
305
100
AcDbEntity
  8
0
100
AcDbLine
 62
7
  6
CONTINUOUS
 10
5.3228057621
 20
3.6208088076
 11
5.3228057621
 21
4.5078088076
  0
LINE
  5
306
100
AcDbEntity
  8
0
100
AcDbLine
 62
7
  6
CONTINUOUS
 10
5.3698057621
 20
3.6208088076
 11
5.3698057621
 21
4.5078088076
  0
LINE
  5
307
100
AcDbEntity
  8
0
100
AcDbLine
 62
7
  6
CONTINUOUS
 10
5.3885622055
 20
3.6908088076
 11
5.3885622055
 21
4.4378088076
  0
LINE
  5
308
100
AcDbEntity
  8
03__ASM_ALL_CURVES
100
AcDbLine
 62
40
  6
CONTINUOUS
 10
5.4422387816
 20
3.3555150576
 11
5.4422387816
 21
3.4393088076
  0
LINE
  5
309
100
AcDbEntity
  8
0
100
AcDbLine
 62
7
  6
CONTINUOUS
 10
7.5838057621
 20
3.7763088076
 11
7.5628057621
 21
3.7763088076
  0
LINE
  5
30A
100
AcDbEntity
  8
0
100
AcDbLine
 62
7
  6
CONTINUOUS
 10
3.7878057621
 20
3.7833088076
 11
3.9580294838
 21
3.7833088076
  0
LINE
  5
30B
100
AcDbEntity
  8
0
100
AcDbLine
 62
7
  6
CONTINUOUS
 10
7.3698057621
 20
3.7838088076
 11
7.3533057621
 21
3.7838088076
  0
LINE
  5
30C
100
AcDbEntity
  8
0
100
AcDbLine
 62
7
  6
CONTINUOUS
 10
7.2443057621
 20
3.7838088076
 11
6.9638057621
 21
3.7838088076
  0
LINE
  5
30D
100
AcDbEntity
  8
0
100
AcDbLine
 62
7
  6
CONTINUOUS
 10
3.9948057621
 20
3.7933088076
 11
3.9638057621
 21
3.7933088076
  0
LINE
  5
30E
100
AcDbEntity
  8
0
100
AcDbLine
 62
7
  6
CONTINUOUS
 10
3.7508057621
 20
3.7933088076
 11
3.7448057621
 21
3.7933088076
  0
LINE
  5
30F
100
AcDbEntity
  8
0
100
AcDbLine
 62
7
  6
CONTINUOUS
 10
4.9183057621
 20
3.7946112801
 11
4.5288694279
 21
3.7946112801
  0
LINE
  5
310
100
AcDbEntity
  8
0
100
AcDbLine
 62
7
  6
CONTINUOUS
 10
3.7723057621
 20
3.7988088076
 11
3.7563057621
 21
3.7988088076
  0
LINE
  5
311
100
AcDbEntity
  8
0
100
AcDbLine
 62
7
  6
CONTINUOUS
 10
4.9183057621
 20
3.8459038626
 11
4.5288694279
 21
3.8459038626
  0
LINE
  5
312
100
AcDbEntity
  8
0
100
AcDbLine
 62
7
  6
CONTINUOUS
 10
3.2128057621
 20
3.8803088076
 11
3.4118057621
 21
3.8803088076
  0
LINE
  5
313
100
AcDbEntity
  8
0
100
AcDbLine
 62
7
  6
CONTINUOUS
 10
3.4498057621
 20
3.8803088076
 11
3.6828057621
 21
3.8803088076
  0
LINE
  5
314
100
AcDbEntity
  8
0
100
AcDbLine
 62
7
  6
CONTINUOUS
 10
3.4118057621
 20
3.9133088076
 11
3.4133057621
 21
3.9133088076
  0
LINE
  5
315
100
AcDbEntity
  8
0
100
AcDbLine
 62
7
  6
CONTINUOUS
 10
3.4483057621
 20
3.9133088076
 11
3.4498057621
 21
3.9133088076
  0
LINE
  5
316
100
AcDbEntity
  8
03__ASM_ALL_CURVES
100
AcDbLine
 62
40
  6
CONTINUOUS
 10
6.1534243136
 20
3.4393088076
 11
6.1638985323
 21
3.4323259968
  0
LINE
  5
317
100
AcDbEntity
  8
03__ASM_ALL_CURVES
100
AcDbLine
 62
40
  6
CONTINUOUS
 10
6.3105375948
 20
3.3555150576
 11
6.3000633761
 21
3.3624978703
  0
LINE
  5
318
100
AcDbEntity
  8
03__ASM_ALL_CURVES
100
AcDbLine
 62
40
  6
CONTINUOUS
 10
6.3210118136
 20
3.4043947434
 11
6.3314860323
 21
3.3974119326
  0
LINE
  5
319
100
AcDbEntity
  8
03__ASM_ALL_CURVES
100
AcDbLine
 62
40
  6
CONTINUOUS
 10
6.3210118136
 20
3.4393088076
 11
6.3314860323
 21
3.4323259968
  0
LINE
  5
31A
100
AcDbEntity
  8
0
100
AcDbLine
 62
7
  6
CONTINUOUS
 10
4.9638057621
 20
4.5078088076
 11
4.9183057621
 21
4.5533088076
  0
LINE
  5
31B
100
AcDbEntity
  8
0
100
AcDbLine
 62
7
  6
CONTINUOUS
 10
5.1173278001
 20
4.4984613551
 11
5.1088057621
 21
4.5078088076
  0
LINE
  5
31C
100
AcDbEntity
  8
03__ASM_ALL_CURVES
100
AcDbLine
 62
40
  6
CONTINUOUS
 10
4.5193213871
 20
5.2095093931
 11
4.5263041996
 21
5.200198972
  0
LINE
  5
31D
100
AcDbEntity
  8
03__ASM_ALL_CURVES
100
AcDbLine
 62
40
  6
CONTINUOUS
 10
4.6100979496
 20
5.1257156415
 11
4.6240635746
 21
5.1070948076
  0
LINE
  5
31E
100
AcDbEntity
  8
03__ASM_ALL_CURVES
100
AcDbLine
 62
40
  6
CONTINUOUS
 10
6.0486821261
 20
3.3624978703
 11
6.0382079073
 21
3.3764634951
  0
LINE
  5
31F
100
AcDbEntity
  8
03__ASM_ALL_CURVES
100
AcDbLine
 62
40
  6
CONTINUOUS
 10
5.9963110323
 20
3.4323259968
 11
6.0015481417
 21
3.4253431809
  0
LINE
  5
320
100
AcDbEntity
  8
0
100
AcDbLine
 62
7
  6
CONTINUOUS
 10
5.3885622055
 20
4.4378088076
 11
5.3698057621
 21
4.5078088076
  0
LINE
  5
321
100
AcDbEntity
  8
03__ASM_ALL_CURVES
100
AcDbLine
 62
40
  6
CONTINUOUS
 10
5.4841356566
 20
3.4253431809
 11
5.4841356566
 21
3.4113775593
  0
LINE
  5
322
100
AcDbEntity
  8
03__ASM_ALL_CURVES
100
AcDbLine
 62
40
  6
CONTINUOUS
 10
5.5469809691
 20
3.4393088076
 11
5.5469809691
 21
3.3555150576
  0
LINE
  5
323
100
AcDbEntity
  8
0
100
AcDbLine
 62
7
  6
CONTINUOUS
 10
5.6170685565
 20
3.6908088076
 11
5.6170685565
 21
4.4378088076
  0
LINE
  5
324
100
AcDbEntity
  8
0
100
AcDbLine
 62
7
  6
CONTINUOUS
 10
5.6318057621
 20
3.6358088076
 11
5.6318057621
 21
4.4928088076
  0
LINE
  5
325
100
AcDbEntity
  8
03__ASM_ALL_CURVES
100
AcDbLine
 62
40
  6
CONTINUOUS
 10
5.3479708129
 20
3.3974119326
 11
5.3532079222
 21
3.4183603701
  0
LINE
  5
326
100
AcDbEntity
  8
03__ASM_ALL_CURVES
100
AcDbLine
 62
40
  6
CONTINUOUS
 10
5.4108161254
 20
3.3974119326
 11
5.405579016
 21
3.3764634951
  0
LINE
  5
327
100
AcDbEntity
  8
0
100
AcDbLine
 62
7
  6
CONTINUOUS
 10
5.3885622055
 20
3.6908088076
 11
5.3698057621
 21
3.6208088076
  0
LINE
  5
328
100
AcDbEntity
  8
0
100
AcDbLine
 62
7
  6
CONTINUOUS
 10
5.6318057621
 20
4.4928088076
 11
5.6170685565
 21
4.4378088076
  0
LINE
  5
329
100
AcDbEntity
  8
03__ASM_ALL_CURVES
100
AcDbLine
 62
40
  6
CONTINUOUS
 10
6.5732735739
 20
5.2095093931
 11
6.5872391989
 21
5.2188198076
  0
LINE
  5
32A
100
AcDbEntity
  8
03__ASM_ALL_CURVES
100
AcDbLine
 62
40
  6
CONTINUOUS
 10
6.6849985739
 20
5.2095093931
 11
6.6989641989
 21
5.2188198076
  0
LINE
  5
32B
100
AcDbEntity
  8
03__ASM_ALL_CURVES
100
AcDbLine
 62
40
  6
CONTINUOUS
 10
6.6151704489
 20
5.1164052245
 11
6.6012048239
 21
5.1070948076
  0
LINE
  5
32C
100
AcDbEntity
  8
03__ASM_ALL_CURVES
100
AcDbLine
 62
40
  6
CONTINUOUS
 10
6.7268954489
 20
5.1164052245
 11
6.7129298239
 21
5.1070948076
  0
LINE
  5
32D
100
AcDbEntity
  8
0
100
AcDbLine
 62
7
  6
CONTINUOUS
 10
3.9329343517
 20
4.0643088076
 11
3.8312766134
 21
4.0643088076
  0
LINE
  5
32E
100
AcDbEntity
  8
03__ASM_ALL_CURVES
100
AcDbLine
 62
40
  6
CONTINUOUS
 10
8.0207850585
 20
4.0866538076
 11
8.0103108397
 21
4.0866538076
  0
LINE
  5
32F
100
AcDbEntity
  8
03__ASM_ALL_CURVES
100
AcDbLine
 62
40
  6
CONTINUOUS
 10
4.1631979496
 20
5.1070948076
 11
4.1492323246
 21
5.1164052245
  0
LINE
  5
330
100
AcDbEntity
  8
03__ASM_ALL_CURVES
100
AcDbLine
 62
40
  6
CONTINUOUS
 10
4.1771635746
 20
5.172267722
 11
4.1911291996
 21
5.1629573076
  0
LINE
  5
331
100
AcDbEntity
  8
03__ASM_ALL_CURVES
100
AcDbLine
 62
40
  6
CONTINUOUS
 10
6.0801047823
 20
3.4323259968
 11
6.0905790011
 21
3.4183603701
  0
LINE
  5
332
100
AcDbEntity
  8
03__ASM_ALL_CURVES
100
AcDbLine
 62
40
  6
CONTINUOUS
 10
4.8195823246
 20
5.1164052245
 11
4.8056166996
 21
5.1350260576
  0
LINE
  5
333
100
AcDbEntity
  8
03__ASM_ALL_CURVES
100
AcDbLine
 62
40
  6
CONTINUOUS
 10
4.8195823246
 20
5.1815781431
 11
4.8125995121
 21
5.1908885576
  0
LINE
  5
334
100
AcDbEntity
  8
03__ASM_ALL_CURVES
100
AcDbLine
 62
40
  6
CONTINUOUS
 10
4.8614791996
 20
5.1629573076
 11
4.8754448246
 21
5.1443364754
  0
LINE
  5
335
100
AcDbEntity
  8
03__ASM_ALL_CURVES
100
AcDbLine
 62
40
  6
CONTINUOUS
 10
6.1638985323
 20
3.4323259968
 11
6.1691356417
 21
3.4253431809
  0
LINE
  5
336
100
AcDbEntity
  8
03__ASM_ALL_CURVES
100
AcDbLine
 62
40
  6
CONTINUOUS
 10
4.8614791996
 20
5.2095093931
 11
4.8684620121
 21
5.200198972
  0
LINE
  5
337
100
AcDbEntity
  8
03__ASM_ALL_CURVES
100
AcDbLine
 62
40
  6
CONTINUOUS
 10
4.9452729496
 20
5.1164052245
 11
4.9522557621
 21
5.1070948076
  0
LINE
  5
338
100
AcDbEntity
  8
0
100
AcDbLine
 62
7
  6
CONTINUOUS
 10
5.6318057621
 20
3.6358088076
 11
5.6170685565
 21
3.6908088076
  0
LINE
  5
339
100
AcDbEntity
  8
03__ASM_ALL_CURVES
100
AcDbLine
 62
40
  6
CONTINUOUS
 10
5.2944135746
 20
5.200198972
 11
5.3013963871
 21
5.172267722
  0
LINE
  5
33A
100
AcDbEntity
  8
03__ASM_ALL_CURVES
100
AcDbLine
 62
40
  6
CONTINUOUS
 10
5.6464860472
 20
3.3555150576
 11
5.6464860472
 21
3.4393088076
  0
LINE
  5
33B
100
AcDbEntity
  8
0
100
AcDbLine
 62
7
  6
CONTINUOUS
 10
5.6818057621
 20
3.6358088076
 11
5.6818057621
 21
4.4928088076
  0
LINE
  5
33C
100
AcDbEntity
  8
0
100
AcDbLine
 62
7
  6
CONTINUOUS
 10
5.7318057621
 20
3.6368094576
 11
5.7318057621
 21
4.4918081576
  0
LINE
  5
33D
100
AcDbEntity
  8
0
100
AcDbLine
 62
7
  6
CONTINUOUS
 10
5.8018057621
 20
3.6368094576
 11
5.8018057621
 21
4.4918081576
  0
LINE
  5
33E
100
AcDbEntity
  8
0
100
AcDbLine
 62
7
  6
CONTINUOUS
 10
5.1173278001
 20
3.6301562601
 11
5.1088057621
 21
3.6208088076
  0
LINE
  5
33F
100
AcDbEntity
  8
0
100
AcDbLine
 62
7
  6
CONTINUOUS
 10
4.9638057621
 20
3.6208088076
 11
4.9187545258
 21
3.5757575713
  0
LINE
  5
340
100
AcDbEntity
  8
03__ASM_ALL_CURVES
100
AcDbLine
 62
40
  6
CONTINUOUS
 10
8.1045788085
 20
4.1285506826
 11
8.0783932616
 21
4.1285506826
  0
LINE
  5
341
100
AcDbEntity
  8
03__ASM_ALL_CURVES
100
AcDbLine
 62
40
  6
CONTINUOUS
 10
7.9369913085
 20
4.1285506826
 11
7.9108057616
 21
4.1285506826
  0
LINE
  5
342
100
AcDbEntity
  8
03__ASM_ALL_CURVES
100
AcDbLine
 62
40
  6
CONTINUOUS
 10
7.9108057616
 20
4.1704475576
 11
7.9369913085
 21
4.1704475576
  0
LINE
  5
343
100
AcDbEntity
  8
03__ASM_ALL_CURVES
100
AcDbLine
 62
40
  6
CONTINUOUS
 10
8.0103108397
 20
4.1704475576
 11
8.0207850585
 21
4.1704475576
  0
LINE
  5
344
100
AcDbEntity
  8
03__ASM_ALL_CURVES
100
AcDbLine
 62
40
  6
CONTINUOUS
 10
8.0783932616
 20
4.1704475576
 11
8.1045788085
 21
4.1704475576
  0
LINE
  5
345
100
AcDbEntity
  8
03__ASM_ALL_CURVES
100
AcDbLine
 62
40
  6
CONTINUOUS
 10
8.1569499022
 20
4.1704475576
 11
8.209320996
 21
4.1704475576
  0
LINE
  5
346
100
AcDbEntity
  8
0
100
AcDbLine
 62
7
  6
CONTINUOUS
 10
3.4118057621
 20
4.2153088076
 11
3.4498057621
 21
4.2153088076
  0
LINE
  5
347
100
AcDbEntity
  8
0
100
AcDbLine
 62
7
  6
CONTINUOUS
 10
3.2128057621
 20
4.2483088076
 11
3.4118057621
 21
4.2483088076
  0
LINE
  5
348
100
AcDbEntity
  8
0
100
AcDbLine
 62
7
  6
CONTINUOUS
 10
3.4498057621
 20
4.2483088076
 11
3.6828057621
 21
4.2483088076
  0
LINE
  5
349
100
AcDbEntity
  8
0
100
AcDbLine
 62
7
  6
CONTINUOUS
 10
4.9183057621
 20
4.2827137526
 11
4.5288694279
 21
4.2827137526
  0
LINE
  5
34A
100
AcDbEntity
  8
03__ASM_ALL_CURVES
100
AcDbLine
 62
40
  6
CONTINUOUS
 10
4.1771635746
 20
5.2188198076
 11
4.1911291996
 21
5.2095093931
  0
LINE
  5
34B
100
AcDbEntity
  8
03__ASM_ALL_CURVES
100
AcDbLine
 62
40
  6
CONTINUOUS
 10
4.3936307621
 20
5.1070948076
 11
4.3796651371
 21
5.1164052245
  0
LINE
  5
34C
100
AcDbEntity
  8
03__ASM_ALL_CURVES
100
AcDbLine
 62
40
  6
CONTINUOUS
 10
4.5053557621
 20
5.1070948076
 11
4.4913901371
 21
5.1164052245
  0
LINE
  5
34D
100
AcDbEntity
  8
03__ASM_ALL_CURVES
100
AcDbLine
 62
40
  6
CONTINUOUS
 10
7.1557748812
 20
3.3555150576
 11
7.1453006624
 21
3.3624978703
  0
LINE
  5
34E
100
AcDbEntity
  8
03__ASM_ALL_CURVES
100
AcDbLine
 62
40
  6
CONTINUOUS
 10
4.3936307621
 20
5.2188198076
 11
4.4075963871
 21
5.2095093931
  0
LINE
  5
34F
100
AcDbEntity
  8
03__ASM_ALL_CURVES
100
AcDbLine
 62
40
  6
CONTINUOUS
 10
7.0824553499
 20
3.4393088076
 11
7.0929295687
 21
3.4323259968
  0
LINE
  5
350
100
AcDbEntity
  8
03__ASM_ALL_CURVES
100
AcDbLine
 62
40
  6
CONTINUOUS
 10
6.3000633761
 20
3.3624978703
 11
6.2948262667
 21
3.369480683
  0
LINE
  5
351
100
AcDbEntity
  8
03__ASM_ALL_CURVES
100
AcDbLine
 62
40
  6
CONTINUOUS
 10
6.3314860323
 20
3.3974119326
 11
6.3419602511
 21
3.3834463084
  0
LINE
  5
352
100
AcDbEntity
  8
03__ASM_ALL_CURVES
100
AcDbLine
 62
40
  6
CONTINUOUS
 10
6.3314860323
 20
3.4323259968
 11
6.3367231417
 21
3.4253431809
  0
LINE
  5
353
100
AcDbEntity
  8
03__ASM_ALL_CURVES
100
AcDbLine
 62
40
  6
CONTINUOUS
 10
5.1547573246
 20
5.1164052245
 11
5.1407916996
 21
5.1350260576
  0
LINE
  5
354
100
AcDbEntity
  8
03__ASM_ALL_CURVES
100
AcDbLine
 62
40
  6
CONTINUOUS
 10
5.1547573246
 20
5.1815781431
 11
5.1477745121
 21
5.1908885576
  0
LINE
  5
355
100
AcDbEntity
  8
03__ASM_ALL_CURVES
100
AcDbLine
 62
40
  6
CONTINUOUS
 10
6.1534243136
 20
3.3974119326
 11
6.1691356417
 21
3.3555150576
  0
LINE
  5
356
100
AcDbEntity
  8
03__ASM_ALL_CURVES
100
AcDbLine
 62
40
  6
CONTINUOUS
 10
6.0382079073
 20
3.3764634951
 11
6.032970798
 21
3.3974119326
  0
LINE
  5
357
100
AcDbEntity
  8
0
100
AcDbLine
 62
7
  6
CONTINUOUS
 10
5.8518057621
 20
3.6368094576
 11
5.8518057621
 21
4.4918081576
  0
LINE
  5
358
100
AcDbEntity
  8
0
100
AcDbLine
 62
7
  6
CONTINUOUS
 10
5.8678057621
 20
3.6908088076
 11
5.8678057621
 21
4.4378088076
  0
LINE
  5
359
100
AcDbEntity
  8
0
100
AcDbLine
 62
7
  6
CONTINUOUS
 10
5.8808057621
 20
3.6358088076
 11
5.8808057621
 21
4.4928088076
  0
LINE
  5
35A
100
AcDbEntity
  8
0
100
AcDbLine
 62
7
  6
CONTINUOUS
 10
5.9318057621
 20
3.6358088076
 11
5.9318057621
 21
4.4928088076
  0
LINE
  5
35B
100
AcDbEntity
  8
0
100
AcDbLine
 62
7
  6
CONTINUOUS
 10
5.9485525866
 20
3.6983088076
 11
5.9485525866
 21
4.4303088076
  0
LINE
  5
35C
100
AcDbEntity
  8
03__ASM_ALL_CURVES
100
AcDbLine
 62
40
  6
CONTINUOUS
 10
5.9596512667
 20
3.3555150576
 11
5.9596512667
 21
3.4393088076
  0
LINE
  5
35D
100
AcDbEntity
  8
03__ASM_ALL_CURVES
100
AcDbLine
 62
40
  6
CONTINUOUS
 10
6.0015481417
 20
3.4253431809
 11
6.0015481417
 21
3.4113775593
  0
LINE
  5
35E
100
AcDbEntity
  8
03__ASM_ALL_CURVES
100
AcDbLine
 62
40
  6
CONTINUOUS
 10
6.5593079489
 20
5.1908885576
 11
6.5732735739
 21
5.2095093931
  0
LINE
  5
35F
100
AcDbEntity
  8
03__ASM_ALL_CURVES
100
AcDbLine
 62
40
  6
CONTINUOUS
 10
5.3165481566
 20
3.4113775593
 11
5.3113110472
 21
3.4043947434
  0
LINE
  5
360
100
AcDbEntity
  8
03__ASM_ALL_CURVES
100
AcDbLine
 62
40
  6
CONTINUOUS
 10
6.6291360739
 20
5.1350260576
 11
6.6151704489
 21
5.1164052245
  0
LINE
  5
361
100
AcDbEntity
  8
03__ASM_ALL_CURVES
100
AcDbLine
 62
40
  6
CONTINUOUS
 10
6.6710329489
 20
5.1908885576
 11
6.6849985739
 21
5.2095093931
  0
LINE
  5
362
100
AcDbEntity
  8
03__ASM_ALL_CURVES
100
AcDbLine
 62
40
  6
CONTINUOUS
 10
5.3532079222
 20
3.4183603701
 11
5.363682141
 21
3.4323259968
  0
LINE
  5
363
100
AcDbEntity
  8
03__ASM_ALL_CURVES
100
AcDbLine
 62
40
  6
CONTINUOUS
 10
7.2436235739
 20
5.2095093931
 11
7.2575891989
 21
5.2188198076
  0
LINE
  5
364
100
AcDbEntity
  8
03__ASM_ALL_CURVES
100
AcDbLine
 62
40
  6
CONTINUOUS
 10
7.2855204489
 20
5.1164052245
 11
7.2715548239
 21
5.1070948076
  0
LINE
  5
365
100
AcDbEntity
  8
03__ASM_ALL_CURVES
100
AcDbLine
 62
40
  6
CONTINUOUS
 10
7.4810391989
 20
5.2188198076
 11
7.4670735739
 21
5.2095093931
  0
LINE
  5
366
100
AcDbEntity
  8
0
100
AcDbLine
 62
7
  6
CONTINUOUS
 10
3.7723057621
 20
4.3298088076
 11
3.7563057621
 21
4.3298088076
  0
LINE
  5
367
100
AcDbEntity
  8
0
100
AcDbLine
 62
7
  6
CONTINUOUS
 10
4.9183057621
 20
4.3340063351
 11
4.5288694279
 21
4.3340063351
  0
LINE
  5
368
100
AcDbEntity
  8
0
100
AcDbLine
 62
7
  6
CONTINUOUS
 10
3.9948057621
 20
4.3353088076
 11
3.9638057621
 21
4.3353088076
  0
LINE
  5
369
100
AcDbEntity
  8
0
100
AcDbLine
 62
7
  6
CONTINUOUS
 10
3.7508057621
 20
4.3353088076
 11
3.7448057621
 21
4.3353088076
  0
LINE
  5
36A
100
AcDbEntity
  8
0
100
AcDbLine
 62
7
  6
CONTINUOUS
 10
7.3698057621
 20
4.3448088076
 11
7.3533057621
 21
4.3448088076
  0
LINE
  5
36B
100
AcDbEntity
  8
0
100
AcDbLine
 62
7
  6
CONTINUOUS
 10
7.2443057621
 20
4.3448088076
 11
7.0248057621
 21
4.3448088076
  0
LINE
  5
36C
100
AcDbEntity
  8
0
100
AcDbLine
 62
7
  6
CONTINUOUS
 10
3.7878057621
 20
4.3453088076
 11
3.9580294838
 21
4.3453088076
  0
LINE
  5
36D
100
AcDbEntity
  8
0
100
AcDbLine
 62
7
  6
CONTINUOUS
 10
7.5838057621
 20
4.3523088076
 11
7.5628057621
 21
4.3523088076
  0
LINE
  5
36E
100
AcDbEntity
  8
0
100
AcDbLine
 62
7
  6
CONTINUOUS
 10
7.5128057621
 20
4.4063088076
 11
7.5628057621
 21
4.4063088076
  0
LINE
  5
36F
100
AcDbEntity
  8
0
100
AcDbLine
 62
7
  6
CONTINUOUS
 10
7.3828057621
 20
4.4068088076
 11
7.4428057621
 21
4.4068088076
  0
LINE
  5
370
100
AcDbEntity
  8
0
100
AcDbLine
 62
7
  6
CONTINUOUS
 10
7.5838057621
 20
4.4068088076
 11
7.6378057621
 21
4.4068088076
  0
LINE
  5
371
100
AcDbEntity
  8
THREAD
100
AcDbLine
 62
7
  6
CONTINUOUS
 10
6.9538057621
 20
4.4073088076
 11
6.7758057621
 21
4.4073088076
  0
LINE
  5
372
100
AcDbEntity
  8
0
100
AcDbLine
 62
7
  6
CONTINUOUS
 10
4.1308057621
 20
4.4143088076
 11
4.1088057621
 21
4.4143088076
  0
LINE
  5
373
100
AcDbEntity
  8
THREAD
100
AcDbLine
 62
7
  6
CONTINUOUS
 10
6.4553002086
 20
4.4148088076
 11
6.4428057621
 21
4.4148088076
  0
LINE
  5
374
100
AcDbEntity
  8
0
100
AcDbLine
 62
7
  6
CONTINUOUS
 10
6.2040589375
 20
4.4303088076
 11
6.2003057621
 21
4.4303088076
  0
LINE
  5
375
100
AcDbEntity
  8
0
100
AcDbLine
 62
7
  6
CONTINUOUS
 10
6.1653057621
 20
4.4303088076
 11
5.9485525866
 21
4.4303088076
  0
LINE
  5
376
100
AcDbEntity
  8
0
100
AcDbLine
 62
7
  6
CONTINUOUS
 10
5.8678057621
 20
4.4378088076
 11
5.8518057621
 21
4.4378088076
  0
LINE
  5
377
100
AcDbEntity
  8
0
100
AcDbLine
 62
7
  6
CONTINUOUS
 10
5.6170685565
 20
4.4378088076
 11
5.6063057621
 21
4.4378088076
  0
LINE
  5
378
100
AcDbEntity
  8
0
100
AcDbLine
 62
7
  6
CONTINUOUS
 10
5.5713057621
 20
4.4378088076
 11
5.3885622055
 21
4.4378088076
  0
LINE
  5
379
100
AcDbEntity
  8
0
100
AcDbLine
 62
7
  6
CONTINUOUS
 10
4.4948057621
 20
4.4378088076
 11
4.1438057621
 21
4.4378088076
  0
LINE
  5
37A
100
AcDbEntity
  8
0
100
AcDbLine
 62
7
  6
CONTINUOUS
 10
4.0958057621
 20
4.4378088076
 11
4.0448057621
 21
4.4378088076
  0
LINE
  5
37B
100
AcDbEntity
  8
THREAD
100
AcDbLine
 62
7
  6
CONTINUOUS
 10
6.7313057621
 20
4.4518088076
 11
6.484167722
 21
4.4518088076
  0
LINE
  5
37C
100
AcDbEntity
  8
0
100
AcDbLine
 62
7
  6
CONTINUOUS
 10
5.3098057621
 20
4.4528088076
 11
5.3018057621
 21
4.4528088076
  0
LINE
  5
37D
100
AcDbEntity
  8
0
100
AcDbLine
 62
7
  6
CONTINUOUS
 10
6.3928057621
 20
4.4688088076
 11
6.4428057621
 21
4.4688088076
  0
LINE
  5
37E
100
AcDbEntity
  8
THREAD
100
AcDbLine
 62
7
  6
CONTINUOUS
 10
6.3228057621
 20
4.4693088076
 11
6.2913942193
 21
4.4693088076
  0
LINE
  5
37F
100
AcDbEntity
  8
0
100
AcDbLine
 62
7
  6
CONTINUOUS
 10
5.6818057621
 20
4.4918088076
 11
5.7318057621
 21
4.4918088076
  0
LINE
  5
380
100
AcDbEntity
  8
0
100
AcDbLine
 62
7
  6
CONTINUOUS
 10
5.8018057621
 20
4.4918088076
 11
5.8518057621
 21
4.4918088076
  0
LINE
  5
381
100
AcDbEntity
  8
0
100
AcDbLine
 62
7
  6
CONTINUOUS
 10
6.2758057621
 20
4.4928088076
 11
6.2208057621
 21
4.4928088076
  0
LINE
  5
382
100
AcDbEntity
  8
0
100
AcDbLine
 62
7
  6
CONTINUOUS
 10
5.9318057621
 20
4.4928088076
 11
5.8808057621
 21
4.4928088076
  0
LINE
  5
383
100
AcDbEntity
  8
0
100
AcDbLine
 62
7
  6
CONTINUOUS
 10
5.6818057621
 20
4.4928088076
 11
5.6318057621
 21
4.4928088076
  0
LINE
  5
384
100
AcDbEntity
  8
03__ASM_ALL_CURVES
100
AcDbLine
 62
40
  6
CONTINUOUS
 10
7.1662490999
 20
3.4393088076
 11
7.1767233187
 21
3.4323259968
  0
LINE
  5
385
100
AcDbEntity
  8
03__ASM_ALL_CURVES
100
AcDbLine
 62
40
  6
CONTINUOUS
 10
4.5053557621
 20
5.2188198076
 11
4.5193213871
 21
5.2095093931
  0
LINE
  5
386
100
AcDbEntity
  8
03__ASM_ALL_CURVES
100
AcDbLine
 62
40
  6
CONTINUOUS
 10
7.2500428499
 20
3.4393088076
 11
7.2605170687
 21
3.4323259968
  0
LINE
  5
387
100
AcDbEntity
  8
03__ASM_ALL_CURVES
100
AcDbLine
 62
40
  6
CONTINUOUS
 10
4.8335479496
 20
5.1070948076
 11
4.8195823246
 21
5.1164052245
  0
LINE
  5
388
100
AcDbEntity
  8
03__ASM_ALL_CURVES
100
AcDbLine
 62
40
  6
CONTINUOUS
 10
7.4176303499
 20
3.4393088076
 11
7.4281045687
 21
3.4323259968
  0
LINE
  5
389
100
AcDbEntity
  8
03__ASM_ALL_CURVES
100
AcDbLine
 62
40
  6
CONTINUOUS
 10
4.8335479496
 20
5.172267722
 11
4.8195823246
 21
5.1815781431
  0
LINE
  5
38A
100
AcDbEntity
  8
03__ASM_ALL_CURVES
100
AcDbLine
 62
40
  6
CONTINUOUS
 10
4.8475135746
 20
5.172267722
 11
4.8614791996
 21
5.1629573076
  0
LINE
  5
38B
100
AcDbEntity
  8
03__ASM_ALL_CURVES
100
AcDbLine
 62
40
  6
CONTINUOUS
 10
5.1966541996
 20
5.1629573076
 11
5.2106198246
 21
5.1443364754
  0
LINE
  5
38C
100
AcDbEntity
  8
03__ASM_ALL_CURVES
100
AcDbLine
 62
40
  6
CONTINUOUS
 10
5.1966541996
 20
5.2095093931
 11
5.2036370121
 21
5.200198972
  0
LINE
  5
38D
100
AcDbEntity
  8
03__ASM_ALL_CURVES
100
AcDbLine
 62
40
  6
CONTINUOUS
 10
5.2804479496
 20
5.2188198076
 11
5.2944135746
 21
5.200198972
  0
LINE
  5
38E
100
AcDbEntity
  8
0
100
AcDbLine
 62
7
  6
CONTINUOUS
 10
5.9485525866
 20
4.4303088076
 11
5.9318057621
 21
4.4928088076
  0
LINE
  5
38F
100
AcDbEntity
  8
03__ASM_ALL_CURVES
100
AcDbLine
 62
40
  6
CONTINUOUS
 10
6.0905790011
 20
3.4183603701
 11
6.0958161105
 21
3.3974119326
  0
LINE
  5
390
100
AcDbEntity
  8
03__ASM_ALL_CURVES
100
AcDbLine
 62
40
  6
CONTINUOUS
 10
6.1272387667
 20
3.3555150576
 11
6.1272387667
 21
3.4393088076
  0
LINE
  5
391
100
AcDbEntity
  8
03__ASM_ALL_CURVES
100
AcDbLine
 62
40
  6
CONTINUOUS
 10
6.1417357621
 20
5.0847498076
 11
6.1417357621
 21
5.0400598076
  0
LINE
  5
392
100
AcDbEntity
  8
03__ASM_ALL_CURVES
100
AcDbLine
 62
40
  6
CONTINUOUS
 10
6.1691356417
 20
3.4253431809
 11
6.1691356417
 21
3.4113775593
  0
LINE
  5
393
100
AcDbEntity
  8
0
100
AcDbLine
 62
7
  6
CONTINUOUS
 10
5.9485525866
 20
3.6983088076
 11
5.9318057621
 21
3.6358088076
  0
LINE
  5
394
100
AcDbEntity
  8
0
100
AcDbLine
 62
7
  6
CONTINUOUS
 10
6.2208057621
 20
4.4928088076
 11
6.2040589375
 21
4.4303088076
  0
LINE
  5
395
100
AcDbEntity
  8
03__ASM_ALL_CURVES
100
AcDbLine
 62
40
  6
CONTINUOUS
 10
5.6464860472
 20
3.4393088076
 11
5.6098262816
 21
3.3764634951
  0
LINE
  5
396
100
AcDbEntity
  8
03__ASM_ALL_CURVES
100
AcDbLine
 62
40
  6
CONTINUOUS
 10
5.405579016
 20
3.3764634951
 11
5.3951047972
 21
3.3624978703
  0
LINE
  5
397
100
AcDbEntity
  8
03__ASM_ALL_CURVES
100
AcDbLine
 62
40
  6
CONTINUOUS
 10
6.7338782614
 20
5.1257156415
 11
6.7268954489
 21
5.1164052245
  0
LINE
  5
398
100
AcDbEntity
  8
03__ASM_ALL_CURVES
100
AcDbLine
 62
40
  6
CONTINUOUS
 10
5.4841356566
 20
3.4113775593
 11
5.4788985472
 21
3.4043947434
  0
LINE
  5
399
100
AcDbEntity
  8
03__ASM_ALL_CURVES
100
AcDbLine
 62
40
  6
CONTINUOUS
 10
7.5089704489
 20
5.1164052245
 11
7.4950048239
 21
5.1070948076
  0
LINE
  5
39A
100
AcDbEntity
  8
03__ASM_ALL_CURVES
100
AcDbLine
 62
40
  6
CONTINUOUS
 10
7.6905235739
 20
5.2095093931
 11
7.7044891989
 21
5.2188198076
  0
LINE
  5
39B
100
AcDbEntity
  8
03__ASM_ALL_CURVES
100
AcDbLine
 62
40
  6
CONTINUOUS
 10
7.7324204489
 20
5.1164052245
 11
7.7184548239
 21
5.1070948076
  0
LINE
  5
39C
100
AcDbEntity
  8
0
100
AcDbLine
 62
7
  6
CONTINUOUS
 10
5.1818057621
 20
4.5068088076
 11
5.2318057621
 21
4.5068088076
  0
LINE
  5
39D
100
AcDbEntity
  8
0
100
AcDbLine
 62
7
  6
CONTINUOUS
 10
5.3698057621
 20
4.5078088076
 11
5.3228057621
 21
4.5078088076
  0
LINE
  5
39E
100
AcDbEntity
  8
0
100
AcDbLine
 62
7
  6
CONTINUOUS
 10
5.1818057621
 20
4.5078088076
 11
5.1288057621
 21
4.5078088076
  0
LINE
  5
39F
100
AcDbEntity
  8
0
100
AcDbLine
 62
7
  6
CONTINUOUS
 10
5.1088057621
 20
4.5078088076
 11
4.9638057621
 21
4.5078088076
  0
LINE
  5
3A0
100
AcDbEntity
  8
0
100
AcDbLine
 62
7
  6
CONTINUOUS
 10
4.9183057621
 20
4.5524112801
 11
4.5288694279
 21
4.5524112801
  0
LINE
  5
3A1
100
AcDbEntity
  8
0
100
AcDbLine
 62
7
  6
CONTINUOUS
 10
4.9183057621
 20
4.5533088076
 11
4.5288694279
 21
4.5533088076
  0
LINE
  5
3A2
100
AcDbEntity
  8
03__ASM_ALL_CURVES
100
AcDbLine
 62
40
  6
CONTINUOUS
 10
3.3158757621
 20
5.0400598076
 11
3.1818057621
 21
5.0624048076
  0
LINE
  5
3A3
100
AcDbEntity
  8
03__ASM_ALL_CURVES
100
AcDbLine
 62
40
  6
CONTINUOUS
 10
4.5053557621
 20
5.1536468898
 11
4.4844073246
 21
5.1629573076
  0
LINE
  5
3A4
100
AcDbEntity
  8
03__ASM_ALL_CURVES
100
AcDbLine
 62
40
  6
CONTINUOUS
 10
4.8475135746
 20
5.2188198076
 11
4.8614791996
 21
5.2095093931
  0
LINE
  5
3A5
100
AcDbEntity
  8
03__ASM_ALL_CURVES
100
AcDbLine
 62
40
  6
CONTINUOUS
 10
5.1687229496
 20
5.1070948076
 11
5.1547573246
 21
5.1164052245
  0
LINE
  5
3A6
100
AcDbEntity
  8
03__ASM_ALL_CURVES
100
AcDbLine
 62
40
  6
CONTINUOUS
 10
5.1687229496
 20
5.172267722
 11
5.1547573246
 21
5.1815781431
  0
LINE
  5
3A7
100
AcDbEntity
  8
03__ASM_ALL_CURVES
100
AcDbLine
 62
40
  6
CONTINUOUS
 10
5.1826885746
 20
5.172267722
 11
5.1966541996
 21
5.1629573076
  0
LINE
  5
3A8
100
AcDbEntity
  8
THREAD
100
AcDbLine
 62
7
  6
CONTINUOUS
 10
6.484167722
 20
3.6768088076
 11
6.4665585388
 21
3.7073088076
  0
LINE
  5
3A9
100
AcDbEntity
  8
0
100
AcDbLine
 62
7
  6
CONTINUOUS
 10
6.2208057621
 20
3.6358088076
 11
6.2040589375
 21
3.6983088076
  0
LINE
  5
3AA
100
AcDbEntity
  8
0
100
AcDbLine
 62
7
  6
CONTINUOUS
 10
6.2040589375
 20
3.6983088076
 11
6.2040589375
 21
4.4303088076
  0
LINE
  5
3AB
100
AcDbEntity
  8
0
100
AcDbLine
 62
7
  6
CONTINUOUS
 10
6.2208057621
 20
3.6358088076
 11
6.2208057621
 21
4.4928088076
  0
LINE
  5
3AC
100
AcDbEntity
  8
03__ASM_ALL_CURVES
100
AcDbLine
 62
40
  6
CONTINUOUS
 10
6.2319809542
 20
3.4393088076
 11
6.2319809542
 21
3.3555150576
  0
LINE
  5
3AD
100
AcDbEntity
  8
0
100
AcDbLine
 62
7
  6
CONTINUOUS
 10
6.2758057621
 20
3.6358088076
 11
6.2758057621
 21
4.4928088076
  0
LINE
  5
3AE
100
AcDbEntity
  8
03__ASM_ALL_CURVES
100
AcDbLine
 62
40
  6
CONTINUOUS
 10
6.2758057621
 20
4.5301538076
 11
6.2758057621
 21
5.1070948076
  0
LINE
  5
3AF
100
AcDbEntity
  8
THREAD
100
AcDbLine
 62
7
  6
CONTINUOUS
 10
6.2913942193
 20
3.6593088076
 11
6.2913942193
 21
4.4693088076
  0
LINE
  5
3B0
100
AcDbEntity
  8
0
100
AcDbLine
 62
7
  6
CONTINUOUS
 10
6.3228057621
 20
4.4728088076
 11
6.3228057621
 21
3.6558088076
  0
LINE
  5
3B1
100
AcDbEntity
  8
THREAD
100
AcDbLine
 62
7
  6
CONTINUOUS
 10
6.3228057621
 20
3.6593088076
 11
6.3228057621
 21
4.4693088076
  0
LINE
  5
3B2
100
AcDbEntity
  8
03__ASM_ALL_CURVES
100
AcDbLine
 62
40
  6
CONTINUOUS
 10
6.3367231417
 20
3.4253431809
 11
6.3367231417
 21
3.4183603701
  0
LINE
  5
3B3
100
AcDbEntity
  8
03__ASM_ALL_CURVES
100
AcDbLine
 62
40
  6
CONTINUOUS
 10
6.3419602511
 20
3.3834463084
 11
6.3419602511
 21
3.3764634951
  0
LINE
  5
3B4
100
AcDbEntity
  8
03__ASM_ALL_CURVES
100
AcDbLine
 62
40
  6
CONTINUOUS
 10
6.032970798
 20
3.3974119326
 11
6.0382079073
 21
3.4183603701
  0
LINE
  5
3B5
100
AcDbEntity
  8
03__ASM_ALL_CURVES
100
AcDbLine
 62
40
  6
CONTINUOUS
 10
6.0958161105
 20
3.3974119326
 11
6.0905790011
 21
3.3764634951
  0
LINE
  5
3B6
100
AcDbEntity
  8
03__ASM_ALL_CURVES
100
AcDbLine
 62
40
  6
CONTINUOUS
 10
6.5523251364
 20
5.1629573076
 11
6.5593079489
 21
5.1908885576
  0
LINE
  5
3B7
100
AcDbEntity
  8
THREAD
100
AcDbLine
 62
7
  6
CONTINUOUS
 10
6.484167722
 20
4.4518088076
 11
6.4665585388
 21
4.4213088076
  0
LINE
  5
3B8
100
AcDbEntity
  8
03__ASM_ALL_CURVES
100
AcDbLine
 62
40
  6
CONTINUOUS
 10
7.8441454489
 20
5.1164052245
 11
7.8301798239
 21
5.1070948076
  0
LINE
  5
3B9
100
AcDbEntity
  8
03__ASM_ALL_CURVES
100
AcDbLine
 62
40
  6
CONTINUOUS
 10
5.3113110472
 20
3.4043947434
 11
5.3008368285
 21
3.3974119326
  0
LINE
  5
3BA
100
AcDbEntity
  8
03__ASM_ALL_CURVES
100
AcDbLine
 62
40
  6
CONTINUOUS
 10
5.363682141
 20
3.4323259968
 11
5.3741563597
 21
3.4393088076
  0
LINE
  5
3BB
100
AcDbEntity
  8
03__ASM_ALL_CURVES
100
AcDbLine
 62
40
  6
CONTINUOUS
 10
5.3951047972
 20
3.3624978703
 11
5.3846305785
 21
3.3555150576
  0
LINE
  5
3BC
100
AcDbEntity
  8
03__ASM_ALL_CURVES
100
AcDbLine
 62
40
  6
CONTINUOUS
 10
5.4788985472
 20
3.4043947434
 11
5.4684243285
 21
3.3974119326
  0
LINE
  5
3BD
100
AcDbEntity
  8
03__ASM_ALL_CURVES
100
AcDbLine
 62
40
  6
CONTINUOUS
 10
8.0606126364
 20
5.1164052245
 11
8.0466470114
 21
5.1070948076
  0
LINE
  5
3BE
100
AcDbEntity
  8
03__ASM_ALL_CURVES
100
AcDbLine
 62
40
  6
CONTINUOUS
 10
3.3158757621
 20
5.0512323076
 11
3.1818057621
 21
5.0624048076
  0
LINE
  5
3BF
100
AcDbEntity
  8
03__ASM_ALL_CURVES
100
AcDbLine
 62
40
  6
CONTINUOUS
 10
3.3158757621
 20
5.0475081409
 11
3.1818057621
 21
5.0624048076
  0
LINE
  5
3C0
100
AcDbEntity
  8
03__ASM_ALL_CURVES
100
AcDbLine
 62
40
  6
CONTINUOUS
 10
3.3158757621
 20
5.0437839743
 11
3.1818057621
 21
5.0624048076
  0
LINE
  5
3C1
100
AcDbEntity
  8
THREAD
100
AcDbLine
 62
7
  6
CONTINUOUS
 10
6.2913942193
 20
4.4693088076
 11
6.2758057621
 21
4.4783088076
  0
LINE
  5
3C2
100
AcDbEntity
  8
03__ASM_ALL_CURVES
100
AcDbLine
 62
40
  6
CONTINUOUS
 10
5.1826885746
 20
5.2188198076
 11
5.1966541996
 21
5.2095093931
  0
LINE
  5
3C3
100
AcDbEntity
  8
03__ASM_ALL_CURVES
100
AcDbLine
 62
40
  6
CONTINUOUS
 10
7.1453006624
 20
3.3624978703
 11
7.1348264437
 21
3.3764634951
  0
LINE
  5
3C4
100
AcDbEntity
  8
03__ASM_ALL_CURVES
100
AcDbLine
 62
40
  6
CONTINUOUS
 10
7.0929295687
 20
3.4323259968
 11
7.0981666781
 21
3.4253431809
  0
LINE
  5
3C5
100
AcDbEntity
  8
0
100
AcDbLine
 62
7
  6
CONTINUOUS
 10
6.3928057621
 20
4.4728088076
 11
6.3928057621
 21
3.6558088076
  0
LINE
  5
3C6
100
AcDbEntity
  8
03__ASM_ALL_CURVES
100
AcDbLine
 62
40
  6
CONTINUOUS
 10
6.4098757621
 20
5.0847498076
 11
6.4098757621
 21
5.0400598076
  0
LINE
  5
3C7
100
AcDbEntity
  8
0
100
AcDbLine
 62
7
  6
CONTINUOUS
 10
6.4428057621
 20
3.6598094226
 11
6.4428057621
 21
4.4688081926
  0
LINE
  5
3C8
100
AcDbEntity
  8
03__ASM_ALL_CURVES
100
AcDbLine
 62
40
  6
CONTINUOUS
 10
6.4545657614
 20
5.2188198076
 11
6.4545657614
 21
5.1070948076
  0
LINE
  5
3C9
100
AcDbEntity
  8
0
100
AcDbLine
 62
7
  6
CONTINUOUS
 10
6.4553002086
 20
3.7138088076
 11
6.4553002086
 21
4.4148088076
  0
LINE
  5
3CA
100
AcDbEntity
  8
0
100
AcDbLine
 62
7
  6
CONTINUOUS
 10
6.4665585388
 20
3.7073088076
 11
6.4665585388
 21
4.4213088076
  0
LINE
  5
3CB
100
AcDbEntity
  8
THREAD
100
AcDbLine
 62
7
  6
CONTINUOUS
 10
6.484167722
 20
3.6768088076
 11
6.484167722
 21
4.4518088076
  0
LINE
  5
3CC
100
AcDbEntity
  8
03__ASM_ALL_CURVES
100
AcDbLine
 62
40
  6
CONTINUOUS
 10
6.6361188864
 20
5.1629573076
 11
6.6291360739
 21
5.1350260576
  0
LINE
  5
3CD
100
AcDbEntity
  8
03__ASM_ALL_CURVES
100
AcDbLine
 62
40
  6
CONTINUOUS
 10
6.6640501364
 20
5.1629573076
 11
6.6710329489
 21
5.1908885576
  0
LINE
  5
3CE
100
AcDbEntity
  8
03__ASM_ALL_CURVES
100
AcDbLine
 62
40
  6
CONTINUOUS
 10
6.7827579489
 20
5.1070948076
 11
6.8176720114
 21
5.2188198076
  0
LINE
  5
3CF
100
AcDbEntity
  8
03__ASM_ALL_CURVES
100
AcDbLine
 62
40
  6
CONTINUOUS
 10
7.2296579489
 20
5.1908885576
 11
7.2436235739
 21
5.2095093931
  0
LINE
  5
3D0
100
AcDbEntity
  8
03__ASM_ALL_CURVES
100
AcDbLine
 62
40
  6
CONTINUOUS
 10
6.0015481417
 20
3.4113775593
 11
5.9963110323
 21
3.4043947434
  0
LINE
  5
3D1
100
AcDbEntity
  8
03__ASM_ALL_CURVES
100
AcDbLine
 62
40
  6
CONTINUOUS
 10
7.2925032614
 20
5.1257156415
 11
7.2855204489
 21
5.1164052245
  0
LINE
  5
3D2
100
AcDbEntity
  8
03__ASM_ALL_CURVES
100
AcDbLine
 62
40
  6
CONTINUOUS
 10
6.0382079073
 20
3.4183603701
 11
6.0486821261
 21
3.4323259968
  0
LINE
  5
3D3
100
AcDbEntity
  8
03__ASM_ALL_CURVES
100
AcDbLine
 62
40
  6
CONTINUOUS
 10
8.2910454489
 20
5.172267722
 11
8.2770798239
 21
5.1629573076
  0
LINE
  5
3D4
100
AcDbEntity
  8
03__ASM_ALL_CURVES
100
AcDbLine
 62
40
  6
CONTINUOUS
 10
6.1417357621
 20
5.0400598076
 11
6.4098757621
 21
5.0847498076
  0
LINE
  5
3D5
100
AcDbEntity
  8
03__ASM_ALL_CURVES
100
AcDbLine
 62
40
  6
CONTINUOUS
 10
6.1417357621
 20
5.0437839743
 11
6.4098757621
 21
5.0810256409
  0
LINE
  5
3D6
100
AcDbEntity
  8
03__ASM_ALL_CURVES
100
AcDbLine
 62
40
  6
CONTINUOUS
 10
6.1417357621
 20
5.0475081409
 11
6.4098757621
 21
5.0773014743
  0
LINE
  5
3D7
100
AcDbEntity
  8
03__ASM_ALL_CURVES
100
AcDbLine
 62
40
  6
CONTINUOUS
 10
6.1417357621
 20
5.0512323076
 11
6.4098757621
 21
5.0735773076
  0
LINE
  5
3D8
100
AcDbEntity
  8
03__ASM_ALL_CURVES
100
AcDbLine
 62
40
  6
CONTINUOUS
 10
6.1417357621
 20
5.0549564743
 11
6.4098757621
 21
5.0698531409
  0
LINE
  5
3D9
100
AcDbEntity
  8
03__ASM_ALL_CURVES
100
AcDbLine
 62
40
  6
CONTINUOUS
 10
6.1417357621
 20
5.0586806409
 11
6.4098757621
 21
5.0661289743
  0
LINE
  5
3DA
100
AcDbEntity
  8
03__ASM_ALL_CURVES
100
AcDbLine
 62
40
  6
CONTINUOUS
 10
3.3158757621
 20
5.0586806409
 11
3.1818057621
 21
5.0624048076
  0
LINE
  5
3DB
100
AcDbEntity
  8
03__ASM_ALL_CURVES
100
AcDbLine
 62
40
  6
CONTINUOUS
 10
3.3158757621
 20
5.0549564743
 11
3.1818057621
 21
5.0624048076
  0
LINE
  5
3DC
100
AcDbEntity
  8
0
100
AcDbLine
 62
7
  6
CONTINUOUS
 10
7.3698057621
 20
3.7348088076
 11
7.3828057621
 21
3.7218088076
  0
LINE
  5
3DD
100
AcDbEntity
  8
03__ASM_ALL_CURVES
100
AcDbLine
 62
40
  6
CONTINUOUS
 10
7.1767233187
 20
3.4323259968
 11
7.1871975374
 21
3.4183603701
  0
LINE
  5
3DE
100
AcDbEntity
  8
03__ASM_ALL_CURVES
100
AcDbLine
 62
40
  6
CONTINUOUS
 10
7.2605170687
 20
3.4323259968
 11
7.2657541781
 21
3.4253431809
  0
LINE
  5
3DF
100
AcDbEntity
  8
THREAD
100
AcDbLine
 62
7
  6
CONTINUOUS
 10
6.7313057621
 20
3.6768088076
 11
6.7313057621
 21
4.4518088076
  0
LINE
  5
3E0
100
AcDbEntity
  8
03__ASM_ALL_CURVES
100
AcDbLine
 62
40
  6
CONTINUOUS
 10
6.0905790011
 20
3.3764634951
 11
6.0801047823
 21
3.3624978703
  0
LINE
  5
3E1
100
AcDbEntity
  8
03__ASM_ALL_CURVES
100
AcDbLine
 62
40
  6
CONTINUOUS
 10
7.4670735739
 20
5.2095093931
 11
7.4600907614
 21
5.200198972
  0
LINE
  5
3E2
100
AcDbEntity
  8
03__ASM_ALL_CURVES
100
AcDbLine
 62
40
  6
CONTINUOUS
 10
6.1691356417
 20
3.4113775593
 11
6.1638985323
 21
3.4043947434
  0
LINE
  5
3E3
100
AcDbEntity
  8
03__ASM_ALL_CURVES
100
AcDbLine
 62
40
  6
CONTINUOUS
 10
7.5159532614
 20
5.1257156415
 11
7.5089704489
 21
5.1164052245
  0
LINE
  5
3E4
100
AcDbEntity
  8
03__ASM_ALL_CURVES
100
AcDbLine
 62
40
  6
CONTINUOUS
 10
6.3367231417
 20
3.4183603701
 11
6.3314860323
 21
3.4113775593
  0
LINE
  5
3E5
100
AcDbEntity
  8
03__ASM_ALL_CURVES
100
AcDbLine
 62
40
  6
CONTINUOUS
 10
5.9963110323
 20
3.4043947434
 11
5.9858368136
 21
3.3974119326
  0
LINE
  5
3E6
100
AcDbEntity
  8
03__ASM_ALL_CURVES
100
AcDbLine
 62
40
  6
CONTINUOUS
 10
6.0486821261
 20
3.4323259968
 11
6.0591563448
 21
3.4393088076
  0
LINE
  5
3E7
100
AcDbEntity
  8
03__ASM_ALL_CURVES
100
AcDbLine
 62
40
  6
CONTINUOUS
 10
6.0801047823
 20
3.3624978703
 11
6.0696305636
 21
3.3555150576
  0
LINE
  5
3E8
100
AcDbEntity
  8
03__ASM_ALL_CURVES
100
AcDbLine
 62
40
  6
CONTINUOUS
 10
6.1638985323
 20
3.4043947434
 11
6.1534243136
 21
3.3974119326
  0
LINE
  5
3E9
100
AcDbEntity
  8
THREAD
100
AcDbLine
 62
7
  6
CONTINUOUS
 10
6.2913942193
 20
3.6593088076
 11
6.2758057621
 21
3.6503088076
  0
LINE
  5
3EA
100
AcDbEntity
  8
03__ASM_ALL_CURVES
100
AcDbLine
 62
40
  6
CONTINUOUS
 10
3.3158757621
 20
5.0698531409
 11
3.1818057621
 21
5.0624048076
  0
LINE
  5
3EB
100
AcDbEntity
  8
03__ASM_ALL_CURVES
100
AcDbLine
 62
40
  6
CONTINUOUS
 10
3.3158757621
 20
5.0661289743
 11
3.1818057621
 21
5.0624048076
  0
LINE
  5
3EC
100
AcDbEntity
  8
03__ASM_ALL_CURVES
100
AcDbLine
 62
40
  6
CONTINUOUS
 10
3.1818057621
 20
5.0624048076
 11
8.4209257621
 21
5.0624048076
  0
LINE
  5
3ED
100
AcDbEntity
  8
03__ASM_ALL_CURVES
100
AcDbLine
 62
40
  6
CONTINUOUS
 10
8.1863032614
 20
5.1070948076
 11
8.1304407614
 21
5.1070948076
  0
LINE
  5
3EE
100
AcDbEntity
  8
03__ASM_ALL_CURVES
100
AcDbLine
 62
40
  6
CONTINUOUS
 10
8.0466470114
 20
5.1070948076
 11
8.0187157614
 21
5.1070948076
  0
LINE
  5
3EF
100
AcDbEntity
  8
03__ASM_ALL_CURVES
100
AcDbLine
 62
40
  6
CONTINUOUS
 10
7.8301798239
 20
5.1070948076
 11
7.8162141989
 21
5.1070948076
  0
LINE
  5
3F0
100
AcDbEntity
  8
03__ASM_ALL_CURVES
100
AcDbLine
 62
40
  6
CONTINUOUS
 10
7.7184548239
 20
5.1070948076
 11
7.7044891989
 21
5.1070948076
  0
LINE
  5
3F1
100
AcDbEntity
  8
03__ASM_ALL_CURVES
100
AcDbLine
 62
40
  6
CONTINUOUS
 10
7.4950048239
 20
5.1070948076
 11
7.4810391989
 21
5.1070948076
  0
LINE
  5
3F2
100
AcDbEntity
  8
03__ASM_ALL_CURVES
100
AcDbLine
 62
40
  6
CONTINUOUS
 10
7.2715548239
 20
5.1070948076
 11
7.2575891989
 21
5.1070948076
  0
LINE
  5
3F3
100
AcDbEntity
  8
03__ASM_ALL_CURVES
100
AcDbLine
 62
40
  6
CONTINUOUS
 10
6.7129298239
 20
5.1070948076
 11
6.6989641989
 21
5.1070948076
  0
LINE
  5
3F4
100
AcDbEntity
  8
03__ASM_ALL_CURVES
100
AcDbLine
 62
40
  6
CONTINUOUS
 10
6.6012048239
 20
5.1070948076
 11
6.5872391989
 21
5.1070948076
  0
LINE
  5
3F5
100
AcDbEntity
  8
03__ASM_ALL_CURVES
100
AcDbLine
 62
40
  6
CONTINUOUS
 10
5.1826885746
 20
5.1070948076
 11
5.1687229496
 21
5.1070948076
  0
LINE
  5
3F6
100
AcDbEntity
  8
03__ASM_ALL_CURVES
100
AcDbLine
 62
40
  6
CONTINUOUS
 10
4.9522557621
 20
5.1070948076
 11
4.9452729496
 21
5.1070948076
  0
LINE
  5
3F7
100
AcDbEntity
  8
03__ASM_ALL_CURVES
100
AcDbLine
 62
40
  6
CONTINUOUS
 10
4.8475135746
 20
5.1070948076
 11
4.8335479496
 21
5.1070948076
  0
LINE
  5
3F8
100
AcDbEntity
  8
03__ASM_ALL_CURVES
100
AcDbLine
 62
40
  6
CONTINUOUS
 10
4.2819057621
 20
5.1070948076
 11
4.2749229496
 21
5.1070948076
  0
LINE
  5
3F9
100
AcDbEntity
  8
03__ASM_ALL_CURVES
100
AcDbLine
 62
40
  6
CONTINUOUS
 10
4.1771635746
 20
5.1070948076
 11
4.1631979496
 21
5.1070948076
  0
LINE
  5
3FA
100
AcDbEntity
  8
03__ASM_ALL_CURVES
100
AcDbLine
 62
40
  6
CONTINUOUS
 10
6.4545657614
 20
5.1070948076
 11
6.5104282614
 21
5.1070948076
  0
LINE
  5
3FB
100
AcDbEntity
  8
03__ASM_ALL_CURVES
100
AcDbLine
 62
40
  6
CONTINUOUS
 10
7.9069907614
 20
5.1070948076
 11
7.9628532614
 21
5.1070948076
  0
LINE
  5
3FC
100
AcDbEntity
  8
03__ASM_ALL_CURVES
100
AcDbLine
 62
40
  6
CONTINUOUS
 10
5.0360495121
 20
5.1350260576
 11
5.0988948246
 21
5.1350260576
  0
LINE
  5
3FD
100
AcDbEntity
  8
03__ASM_ALL_CURVES
100
AcDbLine
 62
40
  6
CONTINUOUS
 10
6.7967235739
 20
5.1443364754
 11
6.8386204489
 21
5.1443364754
  0
LINE
  5
3FE
100
AcDbEntity
  8
03__ASM_ALL_CURVES
100
AcDbLine
 62
40
  6
CONTINUOUS
 10
8.2770798239
 20
5.1629573076
 11
8.2421657614
 21
5.1629573076
  0
LINE
  5
3FF
100
AcDbEntity
  8
03__ASM_ALL_CURVES
100
AcDbLine
 62
40
  6
CONTINUOUS
 10
7.2645720114
 20
5.1629573076
 11
7.2925032614
 21
5.1629573076
  0
LINE
  5
400
100
AcDbEntity
  8
03__ASM_ALL_CURVES
100
AcDbLine
 62
40
  6
CONTINUOUS
 10
7.5718157614
 20
5.1629573076
 11
7.6276782614
 21
5.1629573076
  0
LINE
  5
401
100
AcDbEntity
  8
03__ASM_ALL_CURVES
100
AcDbLine
 62
40
  6
CONTINUOUS
 10
8.1304407614
 20
5.1629573076
 11
8.1653548239
 21
5.1629573076
  0
LINE
  5
402
100
AcDbEntity
  8
03__ASM_ALL_CURVES
100
AcDbLine
 62
40
  6
CONTINUOUS
 10
4.1631979496
 20
5.172267722
 11
4.1771635746
 21
5.172267722
  0
LINE
  5
403
100
AcDbEntity
  8
03__ASM_ALL_CURVES
100
AcDbLine
 62
40
  6
CONTINUOUS
 10
4.8335479496
 20
5.172267722
 11
4.8475135746
 21
5.172267722
  0
LINE
  5
404
100
AcDbEntity
  8
03__ASM_ALL_CURVES
100
AcDbLine
 62
40
  6
CONTINUOUS
 10
5.1687229496
 20
5.172267722
 11
5.1826885746
 21
5.172267722
  0
LINE
  5
405
100
AcDbEntity
  8
03__ASM_ALL_CURVES
100
AcDbLine
 62
40
  6
CONTINUOUS
 10
7.4950048239
 20
5.2188198076
 11
7.4810391989
 21
5.2188198076
  0
LINE
  5
406
100
AcDbEntity
  8
03__ASM_ALL_CURVES
100
AcDbLine
 62
40
  6
CONTINUOUS
 10
4.7567370121
 20
5.2188198076
 11
4.7008745121
 21
5.2188198076
  0
LINE
  5
407
100
AcDbEntity
  8
03__ASM_ALL_CURVES
100
AcDbLine
 62
40
  6
CONTINUOUS
 10
4.1631979496
 20
5.2188198076
 11
4.1771635746
 21
5.2188198076
  0
LINE
  5
408
100
AcDbEntity
  8
03__ASM_ALL_CURVES
100
AcDbLine
 62
40
  6
CONTINUOUS
 10
4.8335479496
 20
5.2188198076
 11
4.8475135746
 21
5.2188198076
  0
LINE
  5
409
100
AcDbEntity
  8
03__ASM_ALL_CURVES
100
AcDbLine
 62
40
  6
CONTINUOUS
 10
5.1687229496
 20
5.2188198076
 11
5.1826885746
 21
5.2188198076
  0
LINE
  5
40A
100
AcDbEntity
  8
03__ASM_ALL_CURVES
100
AcDbLine
 62
40
  6
CONTINUOUS
 10
6.5872391989
 20
5.2188198076
 11
6.6012048239
 21
5.2188198076
  0
LINE
  5
40B
100
AcDbEntity
  8
03__ASM_ALL_CURVES
100
AcDbLine
 62
40
  6
CONTINUOUS
 10
6.6989641989
 20
5.2188198076
 11
6.7129298239
 21
5.2188198076
  0
LINE
  5
40C
100
AcDbEntity
  8
03__ASM_ALL_CURVES
100
AcDbLine
 62
40
  6
CONTINUOUS
 10
6.8944829489
 20
5.2188198076
 11
6.9643110739
 21
5.2188198076
  0
LINE
  5
40D
100
AcDbEntity
  8
03__ASM_ALL_CURVES
100
AcDbLine
 62
40
  6
CONTINUOUS
 10
7.2575891989
 20
5.2188198076
 11
7.2715548239
 21
5.2188198076
  0
LINE
  5
40E
100
AcDbEntity
  8
03__ASM_ALL_CURVES
100
AcDbLine
 62
40
  6
CONTINUOUS
 10
7.7044891989
 20
5.2188198076
 11
7.7184548239
 21
5.2188198076
  0
LINE
  5
40F
100
AcDbEntity
  8
03__ASM_ALL_CURVES
100
AcDbLine
 62
40
  6
CONTINUOUS
 10
8.0187157614
 20
5.2188198076
 11
8.0466470114
 21
5.2188198076
  0
LINE
  5
410
100
AcDbEntity
  8
03__ASM_ALL_CURVES
100
AcDbLine
 62
40
  6
CONTINUOUS
 10
8.1304407614
 20
5.2188198076
 11
8.1863032614
 21
5.2188198076
  0
LINE
  5
411
100
AcDbEntity
  8
03__ASM_ALL_CURVES
100
AcDbLine
 62
40
  6
CONTINUOUS
 10
8.2421657614
 20
5.2188198076
 11
8.2770798239
 21
5.2188198076
  0
LINE
  5
412
100
AcDbEntity
  8
03__ASM_ALL_CURVES
100
AcDbLine
 62
40
  6
CONTINUOUS
 10
6.1417357621
 20
5.0661289743
 11
6.4098757621
 21
5.0586806409
  0
LINE
  5
413
100
AcDbEntity
  8
03__ASM_ALL_CURVES
100
AcDbLine
 62
40
  6
CONTINUOUS
 10
6.1417357621
 20
5.0698531409
 11
6.4098757621
 21
5.0549564743
  0
LINE
  5
414
100
AcDbEntity
  8
03__ASM_ALL_CURVES
100
AcDbLine
 62
40
  6
CONTINUOUS
 10
6.1417357621
 20
5.0735773076
 11
6.4098757621
 21
5.0512323076
  0
LINE
  5
415
100
AcDbEntity
  8
03__ASM_ALL_CURVES
100
AcDbLine
 62
40
  6
CONTINUOUS
 10
6.1417357621
 20
5.0773014743
 11
6.4098757621
 21
5.0475081409
  0
LINE
  5
416
100
AcDbEntity
  8
03__ASM_ALL_CURVES
100
AcDbLine
 62
40
  6
CONTINUOUS
 10
6.1417357621
 20
5.0810256409
 11
6.4098757621
 21
5.0437839743
  0
LINE
  5
417
100
AcDbEntity
  8
03__ASM_ALL_CURVES
100
AcDbLine
 62
40
  6
CONTINUOUS
 10
6.4098757621
 20
5.0400598076
 11
6.1417357621
 21
5.0847498076
  0
LINE
  5
418
100
AcDbEntity
  8
THREAD
100
AcDbLine
 62
7
  6
CONTINUOUS
 10
6.7758057621
 20
4.4073088076
 11
6.7313057621
 21
4.4518088076
  0
LINE
  5
419
100
AcDbEntity
  8
0
100
AcDbLine
 62
7
  6
CONTINUOUS
 10
6.9638057621
 20
4.3973088076
 11
6.9538057621
 21
4.4073088076
  0
LINE
  5
41A
100
AcDbEntity
  8
03__ASM_ALL_CURVES
100
AcDbLine
 62
40
  6
CONTINUOUS
 10
7.4281045687
 20
3.4323259968
 11
7.4333416781
 21
3.4253431809
  0
LINE
  5
41B
100
AcDbEntity
  8
03__ASM_ALL_CURVES
100
AcDbLine
 62
40
  6
CONTINUOUS
 10
6.5593079489
 20
5.1350260576
 11
6.5523251364
 21
5.1629573076
  0
LINE
  5
41C
100
AcDbEntity
  8
THREAD
100
AcDbLine
 62
7
  6
CONTINUOUS
 10
6.7758057621
 20
3.7213088076
 11
6.7758057621
 21
4.4073088076
  0
LINE
  5
41D
100
AcDbEntity
  8
03__ASM_ALL_CURVES
100
AcDbLine
 62
40
  6
CONTINUOUS
 10
6.9293970114
 20
5.2188198076
 11
6.9293970114
 21
5.1070948076
  0
LINE
  5
41E
100
AcDbEntity
  8
03__ASM_ALL_CURVES
100
AcDbLine
 62
40
  6
CONTINUOUS
 10
7.6765579489
 20
5.1908885576
 11
7.6905235739
 21
5.2095093931
  0
LINE
  5
41F
100
AcDbEntity
  8
03__ASM_ALL_CURVES
100
AcDbLine
 62
40
  6
CONTINUOUS
 10
6.3419602511
 20
3.3764634951
 11
6.3314860323
 21
3.3624978703
  0
LINE
  5
420
100
AcDbEntity
  8
03__ASM_ALL_CURVES
100
AcDbLine
 62
40
  6
CONTINUOUS
 10
7.7463860739
 20
5.1350260576
 11
7.7324204489
 21
5.1164052245
  0
LINE
  5
421
100
AcDbEntity
  8
03__ASM_ALL_CURVES
100
AcDbLine
 62
40
  6
CONTINUOUS
 10
7.8511282614
 20
5.1257156415
 11
7.8441454489
 21
5.1164052245
  0
LINE
  5
422
100
AcDbEntity
  8
0
100
AcDbLine
 62
7
  6
CONTINUOUS
 10
7.3698057621
 20
4.3938088076
 11
7.3828057621
 21
4.4068088076
  0
LINE
  5
423
100
AcDbEntity
  8
THREAD
100
AcDbLine
 62
7
  6
CONTINUOUS
 10
6.7758057621
 20
3.7213088076
 11
6.7313057621
 21
3.6768088076
  0
LINE
  5
424
100
AcDbEntity
  8
03__ASM_ALL_CURVES
100
AcDbLine
 62
40
  6
CONTINUOUS
 10
6.3000633761
 20
3.4323259968
 11
6.3105375948
 21
3.4393088076
  0
LINE
  5
425
100
AcDbEntity
  8
03__ASM_ALL_CURVES
100
AcDbLine
 62
40
  6
CONTINUOUS
 10
6.3314860323
 20
3.4113775593
 11
6.3210118136
 21
3.4043947434
  0
LINE
  5
426
100
AcDbEntity
  8
03__ASM_ALL_CURVES
100
AcDbLine
 62
40
  6
CONTINUOUS
 10
6.3314860323
 20
3.3624978703
 11
6.3210118136
 21
3.3555150576
  0
LINE
  5
427
100
AcDbEntity
  8
03__ASM_ALL_CURVES
100
AcDbLine
 62
40
  6
CONTINUOUS
 10
3.3158757621
 20
5.0810256409
 11
3.1818057621
 21
5.0624048076
  0
LINE
  5
428
100
AcDbEntity
  8
03__ASM_ALL_CURVES
100
AcDbLine
 62
40
  6
CONTINUOUS
 10
3.3158757621
 20
5.0773014743
 11
3.1818057621
 21
5.0624048076
  0
LINE
  5
429
100
AcDbEntity
  8
03__ASM_ALL_CURVES
100
AcDbLine
 62
40
  6
CONTINUOUS
 10
3.3158757621
 20
5.0735773076
 11
3.1818057621
 21
5.0624048076
  0
LINE
  5
42A
100
AcDbEntity
  8
03__ASM_ALL_CURVES
100
AcDbLine
 62
40
  6
CONTINUOUS
 10
8.0103108397
 20
4.0866538076
 11
7.999836621
 21
4.0936366203
  0
LINE
  5
42B
100
AcDbEntity
  8
03__ASM_ALL_CURVES
100
AcDbLine
 62
40
  6
CONTINUOUS
 10
7.9369913085
 20
4.1704475576
 11
7.9474655272
 21
4.1634647468
  0
LINE
  5
42C
100
AcDbEntity
  8
03__ASM_ALL_CURVES
100
AcDbLine
 62
40
  6
CONTINUOUS
 10
6.5872391989
 20
5.1070948076
 11
6.5732735739
 21
5.1164052245
  0
LINE
  5
42D
100
AcDbEntity
  8
03__ASM_ALL_CURVES
100
AcDbLine
 62
40
  6
CONTINUOUS
 10
8.0207850585
 20
4.1704475576
 11
8.0312592772
 21
4.1634647468
  0
LINE
  5
42E
100
AcDbEntity
  8
03__ASM_ALL_CURVES
100
AcDbLine
 62
40
  6
CONTINUOUS
 10
6.5732735739
 20
5.1164052245
 11
6.5593079489
 21
5.1350260576
  0
LINE
  5
42F
100
AcDbEntity
  8
03__ASM_ALL_CURVES
100
AcDbLine
 62
40
  6
CONTINUOUS
 10
7.2500428499
 20
3.3974119326
 11
7.2657541781
 21
3.3555150576
  0
LINE
  5
430
100
AcDbEntity
  8
03__ASM_ALL_CURVES
100
AcDbLine
 62
40
  6
CONTINUOUS
 10
6.6291360739
 20
5.1908885576
 11
6.6361188864
 21
5.1629573076
  0
LINE
  5
431
100
AcDbEntity
  8
03__ASM_ALL_CURVES
100
AcDbLine
 62
40
  6
CONTINUOUS
 10
6.6710329489
 20
5.1350260576
 11
6.6640501364
 21
5.1629573076
  0
LINE
  5
432
100
AcDbEntity
  8
03__ASM_ALL_CURVES
100
AcDbLine
 62
40
  6
CONTINUOUS
 10
7.1348264437
 20
3.3764634951
 11
7.1295893343
 21
3.3974119326
  0
LINE
  5
433
100
AcDbEntity
  8
03__ASM_ALL_CURVES
100
AcDbLine
 62
40
  6
CONTINUOUS
 10
7.1871975374
 20
3.4183603701
 11
7.1924346468
 21
3.3974119326
  0
LINE
  5
434
100
AcDbEntity
  8
0
100
AcDbLine
 62
7
  6
CONTINUOUS
 10
6.9538057621
 20
3.7213088076
 11
6.9538057621
 21
4.4073088076
  0
LINE
  5
435
100
AcDbEntity
  8
0
100
AcDbLine
 62
7
  6
CONTINUOUS
 10
6.9638057621
 20
3.7313088076
 11
6.9638057621
 21
4.3973088076
  0
LINE
  5
436
100
AcDbEntity
  8
03__ASM_ALL_CURVES
100
AcDbLine
 62
40
  6
CONTINUOUS
 10
7.0411220114
 20
5.2188198076
 11
7.0411220114
 21
5.1070948076
  0
LINE
  5
437
100
AcDbEntity
  8
03__ASM_ALL_CURVES
100
AcDbLine
 62
40
  6
CONTINUOUS
 10
7.0562698031
 20
3.3555150576
 11
7.0562698031
 21
3.4393088076
  0
LINE
  5
438
100
AcDbEntity
  8
03__ASM_ALL_CURVES
100
AcDbLine
 62
40
  6
CONTINUOUS
 10
7.0981666781
 20
3.4253431809
 11
7.0981666781
 21
3.4113775593
  0
LINE
  5
439
100
AcDbEntity
  8
03__ASM_ALL_CURVES
100
AcDbLine
 62
40
  6
CONTINUOUS
 10
7.2226751364
 20
5.1629573076
 11
7.2296579489
 21
5.1908885576
  0
LINE
  5
43A
100
AcDbEntity
  8
03__ASM_ALL_CURVES
100
AcDbLine
 62
40
  6
CONTINUOUS
 10
8.0745782614
 20
5.1350260576
 11
8.0606126364
 21
5.1164052245
  0
LINE
  5
43B
100
AcDbEntity
  8
0
100
AcDbLine
 62
7
  6
CONTINUOUS
 10
6.9638057621
 20
3.7313088076
 11
6.9538057621
 21
3.7213088076
  0
LINE
  5
43C
100
AcDbEntity
  8
03__ASM_ALL_CURVES
100
AcDbLine
 62
40
  6
CONTINUOUS
 10
7.9474655272
 20
4.1355334934
 11
7.9369913085
 21
4.1285506826
  0
LINE
  5
43D
100
AcDbEntity
  8
03__ASM_ALL_CURVES
100
AcDbLine
 62
40
  6
CONTINUOUS
 10
3.1818057621
 20
5.0624048076
 11
3.3158757621
 21
5.0847498076
  0
LINE
  5
43E
100
AcDbEntity
  8
03__ASM_ALL_CURVES
100
AcDbLine
 62
40
  6
CONTINUOUS
 10
6.6989641989
 20
5.1070948076
 11
6.6849985739
 21
5.1164052245
  0
LINE
  5
43F
100
AcDbEntity
  8
03__ASM_ALL_CURVES
100
AcDbLine
 62
40
  6
CONTINUOUS
 10
8.1045788085
 20
4.1704475576
 11
8.1150530272
 21
4.1634647468
  0
LINE
  5
440
100
AcDbEntity
  8
03__ASM_ALL_CURVES
100
AcDbLine
 62
40
  6
CONTINUOUS
 10
6.6012048239
 20
5.2188198076
 11
6.6151704489
 21
5.2095093931
  0
LINE
  5
441
100
AcDbEntity
  8
03__ASM_ALL_CURVES
100
AcDbLine
 62
40
  6
CONTINUOUS
 10
6.7129298239
 20
5.2188198076
 11
6.7268954489
 21
5.2095093931
  0
LINE
  5
442
100
AcDbEntity
  8
03__ASM_ALL_CURVES
100
AcDbLine
 62
40
  6
CONTINUOUS
 10
6.6151704489
 20
5.2095093931
 11
6.6291360739
 21
5.1908885576
  0
LINE
  5
443
100
AcDbEntity
  8
03__ASM_ALL_CURVES
100
AcDbLine
 62
40
  6
CONTINUOUS
 10
6.6849985739
 20
5.1164052245
 11
6.6710329489
 21
5.1350260576
  0
LINE
  5
444
100
AcDbEntity
  8
03__ASM_ALL_CURVES
100
AcDbLine
 62
40
  6
CONTINUOUS
 10
6.7268954489
 20
5.2095093931
 11
6.7338782614
 21
5.200198972
  0
LINE
  5
445
100
AcDbEntity
  8
03__ASM_ALL_CURVES
100
AcDbLine
 62
40
  6
CONTINUOUS
 10
6.8176720114
 20
5.2188198076
 11
6.8525860739
 21
5.1070948076
  0
LINE
  5
446
100
AcDbEntity
  8
03__ASM_ALL_CURVES
100
AcDbLine
 62
40
  6
CONTINUOUS
 10
7.1249157614
 20
5.1070948076
 11
7.1249157614
 21
5.2188198076
  0
LINE
  5
447
100
AcDbEntity
  8
03__ASM_ALL_CURVES
100
AcDbLine
 62
40
  6
CONTINUOUS
 10
7.1807782614
 20
5.1070948076
 11
7.1807782614
 21
5.2188198076
  0
LINE
  5
448
100
AcDbEntity
  8
03__ASM_ALL_CURVES
100
AcDbLine
 62
40
  6
CONTINUOUS
 10
7.2238573031
 20
3.3555150576
 11
7.2238573031
 21
3.4393088076
  0
LINE
  5
449
100
AcDbEntity
  8
0
100
AcDbLine
 62
7
  6
CONTINUOUS
 10
7.2466418977
 20
4.0494549953
 11
7.2466418977
 21
4.0791644304
  0
LINE
  5
44A
100
AcDbEntity
  8
03__ASM_ALL_CURVES
100
AcDbLine
 62
40
  6
CONTINUOUS
 10
7.2657541781
 20
3.4253431809
 11
7.2657541781
 21
3.4113775593
  0
LINE
  5
44B
100
AcDbEntity
  8
03__ASM_ALL_CURVES
100
AcDbLine
 62
40
  6
CONTINUOUS
 10
7.2925032614
 20
5.1629573076
 11
7.2925032614
 21
5.1257156415
  0
LINE
  5
44C
100
AcDbEntity
  8
0
100
AcDbLine
 62
7
  6
CONTINUOUS
 10
7.2938316347
 20
4.2412328273
 11
7.2938316347
 21
4.2206663746
  0
LINE
  5
44D
100
AcDbEntity
  8
0
100
AcDbLine
 62
7
  6
CONTINUOUS
 10
7.2938316347
 20
4.1185353042
 11
7.2938316347
 21
4.010144031
  0
LINE
  5
44E
100
AcDbEntity
  8
0
100
AcDbLine
 62
7
  6
CONTINUOUS
 10
7.2938316347
 20
3.9079209883
 11
7.2938316347
 21
3.8873849505
  0
LINE
  5
44F
100
AcDbEntity
  8
03__ASM_ALL_CURVES
100
AcDbLine
 62
40
  6
CONTINUOUS
 10
7.1295893343
 20
3.3974119326
 11
7.1348264437
 21
3.4183603701
  0
LINE
  5
450
100
AcDbEntity
  8
03__ASM_ALL_CURVES
100
AcDbLine
 62
40
  6
CONTINUOUS
 10
8.2980282614
 20
5.1815781431
 11
8.2910454489
 21
5.172267722
  0
LINE
  5
451
100
AcDbEntity
  8
03__ASM_ALL_CURVES
100
AcDbLine
 62
40
  6
CONTINUOUS
 10
7.999836621
 20
4.1634647468
 11
8.0103108397
 21
4.1704475576
  0
LINE
  5
452
100
AcDbEntity
  8
03__ASM_ALL_CURVES
100
AcDbLine
 62
40
  6
CONTINUOUS
 10
8.0312592772
 20
4.0936366203
 11
8.0207850585
 21
4.0866538076
  0
LINE
  5
453
100
AcDbEntity
  8
03__ASM_ALL_CURVES
100
AcDbLine
 62
40
  6
CONTINUOUS
 10
8.1150530272
 20
4.1355334934
 11
8.1045788085
 21
4.1285506826
  0
LINE
  5
454
100
AcDbEntity
  8
03__ASM_ALL_CURVES
100
AcDbLine
 62
40
  6
CONTINUOUS
 10
7.0929295687
 20
3.4043947434
 11
7.0824553499
 21
3.3974119326
  0
LINE
  5
455
100
AcDbEntity
  8
03__ASM_ALL_CURVES
100
AcDbLine
 62
40
  6
CONTINUOUS
 10
7.1453006624
 20
3.4323259968
 11
7.1557748812
 21
3.4393088076
  0
LINE
  5
456
100
AcDbEntity
  8
03__ASM_ALL_CURVES
100
AcDbLine
 62
40
  6
CONTINUOUS
 10
7.2575891989
 20
5.1070948076
 11
7.2436235739
 21
5.1164052245
  0
LINE
  5
457
100
AcDbEntity
  8
0
100
AcDbLine
 62
7
  6
CONTINUOUS
 10
7.6378057621
 20
4.4068088076
 11
7.6508057621
 21
4.3938088076
  0
LINE
  5
458
100
AcDbEntity
  8
03__ASM_ALL_CURVES
100
AcDbLine
 62
40
  6
CONTINUOUS
 10
7.3285994906
 20
3.4393088076
 11
7.3285994906
 21
3.3555150576
  0
LINE
  5
459
100
AcDbEntity
  8
0
100
AcDbLine
 62
7
  6
CONTINUOUS
 10
7.3436418977
 20
4.0950895961
 11
7.3436418977
 21
4.0335868737
  0
LINE
  5
45A
100
AcDbEntity
  8
0
100
AcDbLine
 62
7
  6
CONTINUOUS
 10
7.3698057621
 20
4.3938088076
 11
7.3698057621
 21
3.7348088076
  0
LINE
  5
45B
100
AcDbEntity
  8
0
100
AcDbLine
 62
7
  6
CONTINUOUS
 10
7.3828057621
 20
4.4068088076
 11
7.3828057621
 21
3.7218088076
  0
LINE
  5
45C
100
AcDbEntity
  8
03__ASM_ALL_CURVES
100
AcDbLine
 62
40
  6
CONTINUOUS
 10
7.4333416781
 20
3.4253431809
 11
7.4333416781
 21
3.4113775593
  0
LINE
  5
45D
100
AcDbEntity
  8
0
100
AcDbLine
 62
7
  6
CONTINUOUS
 10
7.4428057621
 20
4.4068047945
 11
7.4428057621
 21
3.7218128207
  0
LINE
  5
45E
100
AcDbEntity
  8
03__ASM_ALL_CURVES
100
AcDbLine
 62
40
  6
CONTINUOUS
 10
7.4600907614
 20
5.200198972
 11
7.4600907614
 21
5.1908885576
  0
LINE
  5
45F
100
AcDbEntity
  8
03__ASM_ALL_CURVES
100
AcDbLine
 62
40
  6
CONTINUOUS
 10
7.1924346468
 20
3.3974119326
 11
7.1871975374
 21
3.3764634951
  0
LINE
  5
460
100
AcDbEntity
  8
03__ASM_ALL_CURVES
100
AcDbLine
 62
40
  6
CONTINUOUS
 10
7.6695751364
 20
5.1629573076
 11
7.6765579489
 21
5.1908885576
  0
LINE
  5
461
100
AcDbEntity
  8
03__ASM_ALL_CURVES
100
AcDbLine
 62
40
  6
CONTINUOUS
 10
7.7533688864
 20
5.1629573076
 11
7.7463860739
 21
5.1350260576
  0
LINE
  5
462
100
AcDbEntity
  8
03__ASM_ALL_CURVES
100
AcDbLine
 62
40
  6
CONTINUOUS
 10
7.0981666781
 20
3.4113775593
 11
7.0929295687
 21
3.4043947434
  0
LINE
  5
463
100
AcDbEntity
  8
03__ASM_ALL_CURVES
100
AcDbLine
 62
40
  6
CONTINUOUS
 10
7.1348264437
 20
3.4183603701
 11
7.1453006624
 21
3.4323259968
  0
LINE
  5
464
100
AcDbEntity
  8
03__ASM_ALL_CURVES
100
AcDbLine
 62
40
  6
CONTINUOUS
 10
7.1871975374
 20
3.3764634951
 11
7.1767233187
 21
3.3624978703
  0
LINE
  5
465
100
AcDbEntity
  8
03__ASM_ALL_CURVES
100
AcDbLine
 62
40
  6
CONTINUOUS
 10
7.1767233187
 20
3.3624978703
 11
7.1662490999
 21
3.3555150576
  0
LINE
  5
466
100
AcDbEntity
  8
03__ASM_ALL_CURVES
100
AcDbLine
 62
40
  6
CONTINUOUS
 10
7.2605170687
 20
3.4043947434
 11
7.2500428499
 21
3.3974119326
  0
LINE
  5
467
100
AcDbEntity
  8
03__ASM_ALL_CURVES
100
AcDbLine
 62
40
  6
CONTINUOUS
 10
7.3966819124
 20
3.4323259968
 11
7.4071561312
 21
3.4393088076
  0
LINE
  5
468
100
AcDbEntity
  8
03__ASM_ALL_CURVES
100
AcDbLine
 62
40
  6
CONTINUOUS
 10
7.4281045687
 20
3.4043947434
 11
7.4071561312
 21
3.3904291193
  0
LINE
  5
469
100
AcDbEntity
  8
03__ASM_ALL_CURVES
100
AcDbLine
 62
40
  6
CONTINUOUS
 10
7.2715548239
 20
5.2188198076
 11
7.2855204489
 21
5.2095093931
  0
LINE
  5
46A
100
AcDbEntity
  8
03__ASM_ALL_CURVES
100
AcDbLine
 62
40
  6
CONTINUOUS
 10
7.4810391989
 20
5.1070948076
 11
7.4670735739
 21
5.1164052245
  0
LINE
  5
46B
100
AcDbEntity
  8
03__ASM_ALL_CURVES
100
AcDbLine
 62
40
  6
CONTINUOUS
 10
7.4670735739
 20
5.1815781431
 11
7.5089704489
 21
5.1536468898
  0
LINE
  5
46C
100
AcDbEntity
  8
03__ASM_ALL_CURVES
100
AcDbLine
 62
40
  6
CONTINUOUS
 10
7.999836621
 20
4.0936366203
 11
7.9893624022
 21
4.1076022451
  0
LINE
  5
46D
100
AcDbEntity
  8
03__ASM_ALL_CURVES
100
AcDbLine
 62
40
  6
CONTINUOUS
 10
7.9474655272
 20
4.1634647468
 11
7.9527026366
 21
4.1564819309
  0
LINE
  5
46E
100
AcDbEntity
  8
03__ASM_ALL_CURVES
100
AcDbLine
 62
40
  6
CONTINUOUS
 10
7.2436235739
 20
5.1164052245
 11
7.2296579489
 21
5.1350260576
  0
LINE
  5
46F
100
AcDbEntity
  8
03__ASM_ALL_CURVES
100
AcDbLine
 62
40
  6
CONTINUOUS
 10
7.1249157614
 20
5.2188198076
 11
7.1807782614
 21
5.1070948076
  0
LINE
  5
470
100
AcDbEntity
  8
03__ASM_ALL_CURVES
100
AcDbLine
 62
40
  6
CONTINUOUS
 10
7.2296579489
 20
5.1350260576
 11
7.2226751364
 21
5.1629573076
  0
LINE
  5
471
100
AcDbEntity
  8
0
100
AcDbLine
 62
7
  6
CONTINUOUS
 10
7.5128057621
 20
3.7223093276
 11
7.5128057621
 21
4.4063082876
  0
LINE
  5
472
100
AcDbEntity
  8
03__ASM_ALL_CURVES
100
AcDbLine
 62
40
  6
CONTINUOUS
 10
7.5159532614
 20
5.1443364754
 11
7.5159532614
 21
5.1257156415
  0
LINE
  5
473
100
AcDbEntity
  8
0
100
AcDbLine
 62
7
  6
CONTINUOUS
 10
7.5628057621
 20
3.7223093276
 11
7.5628057621
 21
4.4063082876
  0
LINE
  5
474
100
AcDbEntity
  8
03__ASM_ALL_CURVES
100
AcDbLine
 62
40
  6
CONTINUOUS
 10
7.5718157614
 20
5.2188198076
 11
7.5718157614
 21
5.1070948076
  0
LINE
  5
475
100
AcDbEntity
  8
0
100
AcDbLine
 62
7
  6
CONTINUOUS
 10
7.5838057621
 20
4.4068047945
 11
7.5838057621
 21
3.7218128207
  0
LINE
  5
476
100
AcDbEntity
  8
03__ASM_ALL_CURVES
100
AcDbLine
 62
40
  6
CONTINUOUS
 10
7.6276782614
 20
5.2188198076
 11
7.6276782614
 21
5.1070948076
  0
LINE
  5
477
100
AcDbEntity
  8
0
100
AcDbLine
 62
7
  6
CONTINUOUS
 10
7.6378057621
 20
3.7218088076
 11
7.6378057621
 21
4.4068088076
  0
LINE
  5
478
100
AcDbEntity
  8
0
100
AcDbLine
 62
7
  6
CONTINUOUS
 10
7.6508057621
 20
3.7348088076
 11
7.6508057621
 21
4.3938088076
  0
LINE
  5
479
100
AcDbEntity
  8
03__ASM_ALL_CURVES
100
AcDbLine
 62
40
  6
CONTINUOUS
 10
7.3966819124
 20
3.3764634951
 11
7.3914448031
 21
3.3555150576
  0
LINE
  5
47A
100
AcDbEntity
  8
03__ASM_ALL_CURVES
100
AcDbLine
 62
40
  6
CONTINUOUS
 10
7.2657541781
 20
3.4113775593
 11
7.2605170687
 21
3.4043947434
  0
LINE
  5
47B
100
AcDbEntity
  8
03__ASM_ALL_CURVES
100
AcDbLine
 62
40
  6
CONTINUOUS
 10
7.3914448031
 20
3.4253431809
 11
7.3966819124
 21
3.4323259968
  0
LINE
  5
47C
100
AcDbEntity
  8
03__ASM_ALL_CURVES
100
AcDbLine
 62
40
  6
CONTINUOUS
 10
7.9527026366
 20
4.1425163093
 11
7.9474655272
 21
4.1355334934
  0
LINE
  5
47D
100
AcDbEntity
  8
03__ASM_ALL_CURVES
100
AcDbLine
 62
40
  6
CONTINUOUS
 10
7.4071561312
 20
3.3904291193
 11
7.3966819124
 21
3.3764634951
  0
LINE
  5
47E
100
AcDbEntity
  8
03__ASM_ALL_CURVES
100
AcDbLine
 62
40
  6
CONTINUOUS
 10
7.4333416781
 20
3.4113775593
 11
7.4281045687
 21
3.4043947434
  0
LINE
  5
47F
100
AcDbEntity
  8
03__ASM_ALL_CURVES
100
AcDbLine
 62
40
  6
CONTINUOUS
 10
7.9893624022
 20
4.1494991201
 11
7.999836621
 21
4.1634647468
  0
LINE
  5
480
100
AcDbEntity
  8
0
100
AcDbLine
 62
7
  6
CONTINUOUS
 10
7.6378057621
 20
3.7218088076
 11
7.6508057621
 21
3.7348088076
  0
LINE
  5
481
100
AcDbEntity
  8
03__ASM_ALL_CURVES
100
AcDbLine
 62
40
  6
CONTINUOUS
 10
7.5089704489
 20
5.2095093931
 11
7.4950048239
 21
5.2188198076
  0
LINE
  5
482
100
AcDbEntity
  8
03__ASM_ALL_CURVES
100
AcDbLine
 62
40
  6
CONTINUOUS
 10
7.7044891989
 20
5.1070948076
 11
7.6905235739
 21
5.1164052245
  0
LINE
  5
483
100
AcDbEntity
  8
03__ASM_ALL_CURVES
100
AcDbLine
 62
40
  6
CONTINUOUS
 10
7.8162141989
 20
5.1070948076
 11
7.8022485739
 21
5.1164052245
  0
LINE
  5
484
100
AcDbEntity
  8
03__ASM_ALL_CURVES
100
AcDbLine
 62
40
  6
CONTINUOUS
 10
7.7184548239
 20
5.2188198076
 11
7.7324204489
 21
5.2095093931
  0
LINE
  5
485
100
AcDbEntity
  8
03__ASM_ALL_CURVES
100
AcDbLine
 62
40
  6
CONTINUOUS
 10
8.0312592772
 20
4.1634647468
 11
8.041733496
 21
4.1494991201
  0
LINE
  5
486
100
AcDbEntity
  8
03__ASM_ALL_CURVES
100
AcDbLine
 62
40
  6
CONTINUOUS
 10
7.2855204489
 20
5.2095093931
 11
7.2925032614
 21
5.200198972
  0
LINE
  5
487
100
AcDbEntity
  8
03__ASM_ALL_CURVES
100
AcDbLine
 62
40
  6
CONTINUOUS
 10
8.1150530272
 20
4.1634647468
 11
8.1202901366
 21
4.1564819309
  0
LINE
  5
488
100
AcDbEntity
  8
03__ASM_ALL_CURVES
100
AcDbLine
 62
40
  6
CONTINUOUS
 10
7.4670735739
 20
5.1164052245
 11
7.4531079489
 21
5.1350260576
  0
LINE
  5
489
100
AcDbEntity
  8
03__ASM_ALL_CURVES
100
AcDbLine
 62
40
  6
CONTINUOUS
 10
7.4600907614
 20
5.1908885576
 11
7.4670735739
 21
5.1815781431
  0
LINE
  5
48A
100
AcDbEntity
  8
03__ASM_ALL_CURVES
100
AcDbLine
 62
40
  6
CONTINUOUS
 10
7.7952657614
 20
5.1257156415
 11
7.7952657614
 21
5.2188198076
  0
LINE
  5
48B
100
AcDbEntity
  8
03__ASM_ALL_CURVES
100
AcDbLine
 62
40
  6
CONTINUOUS
 10
7.8511282614
 20
5.2188198076
 11
7.8511282614
 21
5.1257156415
  0
LINE
  5
48C
100
AcDbEntity
  8
03__ASM_ALL_CURVES
100
AcDbLine
 62
40
  6
CONTINUOUS
 10
8.0815610739
 20
5.1629573076
 11
8.0745782614
 21
5.1350260576
  0
LINE
  5
48D
100
AcDbEntity
  8
03__ASM_ALL_CURVES
100
AcDbLine
 62
40
  6
CONTINUOUS
 10
8.041733496
 20
4.1076022451
 11
8.0312592772
 21
4.0936366203
  0
LINE
  5
48E
100
AcDbEntity
  8
03__ASM_ALL_CURVES
100
AcDbLine
 62
40
  6
CONTINUOUS
 10
8.1202901366
 20
4.1425163093
 11
8.1150530272
 21
4.1355334934
  0
LINE
  5
48F
100
AcDbEntity
  8
03__ASM_ALL_CURVES
100
AcDbLine
 62
40
  6
CONTINUOUS
 10
8.0466470114
 20
5.2188198076
 11
8.0606126364
 21
5.2095093931
  0
LINE
  5
490
100
AcDbEntity
  8
03__ASM_ALL_CURVES
100
AcDbLine
 62
40
  6
CONTINUOUS
 10
7.5089704489
 20
5.1536468898
 11
7.5159532614
 21
5.1443364754
  0
LINE
  5
491
100
AcDbEntity
  8
03__ASM_ALL_CURVES
100
AcDbLine
 62
40
  6
CONTINUOUS
 10
7.5159532614
 20
5.200198972
 11
7.5089704489
 21
5.2095093931
  0
LINE
  5
492
100
AcDbEntity
  8
03__ASM_ALL_CURVES
100
AcDbLine
 62
40
  6
CONTINUOUS
 10
7.6905235739
 20
5.1164052245
 11
7.6765579489
 21
5.1350260576
  0
LINE
  5
493
100
AcDbEntity
  8
03__ASM_ALL_CURVES
100
AcDbLine
 62
40
  6
CONTINUOUS
 10
7.6765579489
 20
5.1350260576
 11
7.6695751364
 21
5.1629573076
  0
LINE
  5
494
100
AcDbEntity
  8
03__ASM_ALL_CURVES
100
AcDbLine
 62
40
  6
CONTINUOUS
 10
7.9069907614
 20
5.2188198076
 11
7.9069907614
 21
5.1070948076
  0
LINE
  5
495
100
AcDbEntity
  8
03__ASM_ALL_CURVES
100
AcDbLine
 62
40
  6
CONTINUOUS
 10
7.9108057616
 20
4.0866538076
 11
7.9108057616
 21
4.1704475576
  0
LINE
  5
496
100
AcDbEntity
  8
03__ASM_ALL_CURVES
100
AcDbLine
 62
40
  6
CONTINUOUS
 10
7.9527026366
 20
4.1564819309
 11
7.9527026366
 21
4.1425163093
  0
LINE
  5
497
100
AcDbEntity
  8
03__ASM_ALL_CURVES
100
AcDbLine
 62
40
  6
CONTINUOUS
 10
8.0187157614
 20
5.1070948076
 11
8.0187157614
 21
5.2188198076
  0
LINE
  5
498
100
AcDbEntity
  8
03__ASM_ALL_CURVES
100
AcDbLine
 62
40
  6
CONTINUOUS
 10
7.9841252928
 20
4.1285506826
 11
7.9893624022
 21
4.1494991201
  0
LINE
  5
499
100
AcDbEntity
  8
03__ASM_ALL_CURVES
100
AcDbLine
 62
40
  6
CONTINUOUS
 10
8.0469706053
 20
4.1285506826
 11
8.041733496
 21
4.1076022451
  0
LINE
  5
49A
100
AcDbEntity
  8
03__ASM_ALL_CURVES
100
AcDbLine
 62
40
  6
CONTINUOUS
 10
8.2770798239
 20
5.2188198076
 11
8.2910454489
 21
5.2095093931
  0
LINE
  5
49B
100
AcDbEntity
  8
03__ASM_ALL_CURVES
100
AcDbLine
 62
40
  6
CONTINUOUS
 10
7.8022485739
 20
5.1164052245
 11
7.7952657614
 21
5.1257156415
  0
LINE
  5
49C
100
AcDbEntity
  8
03__ASM_ALL_CURVES
100
AcDbLine
 62
40
  6
CONTINUOUS
 10
7.7324204489
 20
5.2095093931
 11
7.7463860739
 21
5.1908885576
  0
LINE
  5
49D
100
AcDbEntity
  8
03__ASM_ALL_CURVES
100
AcDbLine
 62
40
  6
CONTINUOUS
 10
8.1045788085
 20
4.1285506826
 11
8.1202901366
 21
4.0866538076
  0
LINE
  5
49E
100
AcDbEntity
  8
03__ASM_ALL_CURVES
100
AcDbLine
 62
40
  6
CONTINUOUS
 10
7.9893624022
 20
4.1076022451
 11
7.9841252928
 21
4.1285506826
  0
LINE
  5
49F
100
AcDbEntity
  8
03__ASM_ALL_CURVES
100
AcDbLine
 62
40
  6
CONTINUOUS
 10
7.7463860739
 20
5.1908885576
 11
7.7533688864
 21
5.1629573076
  0
LINE
  5
4A0
100
AcDbEntity
  8
03__ASM_ALL_CURVES
100
AcDbLine
 62
40
  6
CONTINUOUS
 10
8.041733496
 20
4.1494991201
 11
8.0469706053
 21
4.1285506826
  0
LINE
  5
4A1
100
AcDbEntity
  8
03__ASM_ALL_CURVES
100
AcDbLine
 62
40
  6
CONTINUOUS
 10
8.0783932616
 20
4.0866538076
 11
8.0783932616
 21
4.1704475576
  0
LINE
  5
4A2
100
AcDbEntity
  8
03__ASM_ALL_CURVES
100
AcDbLine
 62
40
  6
CONTINUOUS
 10
8.1202901366
 20
4.1564819309
 11
8.1202901366
 21
4.1425163093
  0
LINE
  5
4A3
100
AcDbEntity
  8
03__ASM_ALL_CURVES
100
AcDbLine
 62
40
  6
CONTINUOUS
 10
8.1304407614
 20
5.1070948076
 11
8.1304407614
 21
5.2188198076
  0
LINE
  5
4A4
100
AcDbEntity
  8
03__ASM_ALL_CURVES
100
AcDbLine
 62
40
  6
CONTINUOUS
 10
8.1831354491
 20
4.1704475576
 11
8.1831354491
 21
4.0866538076
  0
LINE
  5
4A5
100
AcDbEntity
  8
03__ASM_ALL_CURVES
100
AcDbLine
 62
40
  6
CONTINUOUS
 10
8.0606126364
 20
5.2095093931
 11
8.0745782614
 21
5.1908885576
  0
LINE
  5
4A6
100
AcDbEntity
  8
03__ASM_ALL_CURVES
100
AcDbLine
 62
40
  6
CONTINUOUS
 10
8.0745782614
 20
5.1908885576
 11
8.0815610739
 21
5.1629573076
  0
LINE
  5
4A7
100
AcDbEntity
  8
03__ASM_ALL_CURVES
100
AcDbLine
 62
40
  6
CONTINUOUS
 10
8.2421657614
 20
5.1070948076
 11
8.2421657614
 21
5.2188198076
  0
LINE
  5
4A8
100
AcDbEntity
  8
03__ASM_ALL_CURVES
100
AcDbLine
 62
40
  6
CONTINUOUS
 10
8.2669291991
 20
4.1704475576
 11
8.2669291991
 21
4.0866538076
  0
LINE
  5
4A9
100
AcDbEntity
  8
03__ASM_ALL_CURVES
100
AcDbLine
 62
40
  6
CONTINUOUS
 10
8.2980282614
 20
5.200198972
 11
8.2980282614
 21
5.1815781431
  0
LINE
  5
4AA
100
AcDbEntity
  8
03__ASM_ALL_CURVES
100
AcDbLine
 62
40
  6
CONTINUOUS
 10
8.2910454489
 20
5.2095093931
 11
8.2980282614
 21
5.200198972
  0
LINE
  5
4AB
100
AcDbEntity
  8
03__ASM_ALL_CURVES
100
AcDbLine
 62
40
  6
CONTINUOUS
 10
8.2770798239
 20
5.1629573076
 11
8.2980282614
 21
5.1070948076
  0
ARC
  5
4AC
100
AcDbEntity
  8
0
100
AcDbCircle
 62
7
  6
CONTINUOUS
 10
7.1946427366
 20
4.0643088076
 40
0.219
100
AcDbArc
 50
50.0615654435
 51
52.0705394972
  0
ARC
  5
4AD
100
AcDbEntity
  8
0
100
AcDbCircle
 62
7
  6
CONTINUOUS
 10
7.1946427366
 20
4.0643088076
 40
0.219
100
AcDbArc
 50
307.9294319867
 51
309.9385855772
  0
ARC
  5
4AE
100
AcDbEntity
  8
0
100
AcDbCircle
 62
7
  6
CONTINUOUS
 10
3.7448057621
 20
4.2413088076
 40
0.094
100
AcDbArc
 50
90.0
 51
131.267427381
  0
ARC
  5
4AF
100
AcDbEntity
  8
0
100
AcDbCircle
 62
7
  6
CONTINUOUS
 10
3.7448057621
 20
3.8873088076
 40
0.094
100
AcDbArc
 50
228.732572619
 51
270.0
  0
CIRCLE
  5
4B0
100
AcDbEntity
  8
0
100
AcDbCircle
 62
7
  6
CONTINUOUS
 10
7.2988057621
 20
4.0643088076
 40
0.0545
  0
ARC
  5
4B1
100
AcDbEntity
  8
0
100
AcDbCircle
 62
7
  6
CONTINUOUS
 10
3.4308057621
 20
3.9028088076
 40
0.0175
100
AcDbArc
 50
180.0
 51
360.0
  0
ARC
  5
4B2
100
AcDbEntity
  8
0
100
AcDbCircle
 62
7
  6
CONTINUOUS
 10
5.3098057621
 20
3.6628088076
 40
0.013
100
AcDbArc
 50
0.000000002
 51
90.0
  0
ARC
  5
4B3
100
AcDbEntity
  8
0
100
AcDbCircle
 62
7
  6
CONTINUOUS
 10
5.3098057621
 20
4.4658088076
 40
0.013
100
AcDbArc
 50
270.0
 51
359.9999999945
  0
ARC
  5
4B4
100
AcDbEntity
  8
0
100
AcDbCircle
 62
7
  6
CONTINUOUS
 10
5.8678057621
 20
3.6778088076
 40
0.013
100
AcDbArc
 50
0.0000000029
 51
90.0
  0
ARC
  5
4B5
100
AcDbEntity
  8
0
100
AcDbCircle
 62
7
  6
CONTINUOUS
 10
5.8678057621
 20
4.4508088076
 40
0.013
100
AcDbArc
 50
270.0
 51
359.9999999921
  0
ARC
  5
4B6
100
AcDbEntity
  8
0
100
AcDbCircle
 62
7
  6
CONTINUOUS
 10
6.4553002086
 20
3.7008088076
 40
0.013
100
AcDbArc
 50
29.9999999998
 51
90.0
  0
ARC
  5
4B7
100
AcDbEntity
  8
0
100
AcDbCircle
 62
7
  6
CONTINUOUS
 10
6.4553002086
 20
4.4278088076
 40
0.013
100
AcDbArc
 50
270.0
 51
330.0000000001
  0
ARC
  5
4B8
100
AcDbEntity
  8
0
100
AcDbCircle
 62
7
  6
CONTINUOUS
 10
4.1308057621
 20
4.4223088076
 40
0.008
100
AcDbArc
 50
270.0
 51
360.0
  0
ARC
  5
4B9
100
AcDbEntity
  8
0
100
AcDbCircle
 62
7
  6
CONTINUOUS
 10
4.1088057621
 20
4.4223088076
 40
0.008
100
AcDbArc
 50
180.0
 51
270.0
  0
ARC
  5
4BA
100
AcDbEntity
  8
0
100
AcDbCircle
 62
7
  6
CONTINUOUS
 10
4.1308057621
 20
3.7063088076
 40
0.008
100
AcDbArc
 50
0.0
 51
90.0
  0
ARC
  5
4BB
100
AcDbEntity
  8
0
100
AcDbCircle
 62
7
  6
CONTINUOUS
 10
4.1088057621
 20
3.7063088076
 40
0.008
100
AcDbArc
 50
90.0
 51
180.0
  0
ARC
  5
4BC
100
AcDbEntity
  8
0
100
AcDbCircle
 62
7
  6
CONTINUOUS
 10
4.1438057621
 20
4.4328088076
 40
0.005
100
AcDbArc
 50
90.0
 51
180.0
  0
ARC
  5
4BD
100
AcDbEntity
  8
0
100
AcDbCircle
 62
7
  6
CONTINUOUS
 10
4.0958057621
 20
4.4328088076
 40
0.005
100
AcDbArc
 50
0.0
 51
90.0
  0
ARC
  5
4BE
100
AcDbEntity
  8
0
100
AcDbCircle
 62
7
  6
CONTINUOUS
 10
4.1438057621
 20
3.6958088076
 40
0.005
100
AcDbArc
 50
180.0
 51
270.0
  0
ARC
  5
4BF
100
AcDbEntity
  8
0
100
AcDbCircle
 62
7
  6
CONTINUOUS
 10
4.0958057621
 20
3.6958088076
 40
0.005
100
AcDbArc
 50
270.0
 51
360.0
  0
ARC
  5
4C0
100
AcDbEntity
  8
0
100
AcDbCircle
 62
7
  6
CONTINUOUS
 10
5.1188057621
 20
4.4998088076
 40
0.002
100
AcDbArc
 50
222.3553148142
 51
317.6446851858
  0
ARC
  5
4C1
100
AcDbEntity
  8
0
100
AcDbCircle
 62
7
  6
CONTINUOUS
 10
5.1188057621
 20
3.6288088076
 40
0.002
100
AcDbArc
 50
42.3553148142
 51
137.6446851858
  0
SPLINE
  5
4C2
100
AcDbEntity
  8
0
100
AcDbSpline
 62
7
  6
CONTINUOUS
 70
0
 71
3
 72
20
 73
16
 74
14
 42
0.0000001
 43
0.0000001
 44
0.0000000001
 12
0.0
 22
0.0416605862
 32
0.0
 13
0.0
 23
-0.0416605862
 33
0.0
 40
0.0
 40
0.0
 40
0.0
 40
0.0
 40
0.0489307848
 40
0.1062135912
 40
0.175871992
 40
0.2580136346
 40
0.3503828832
 40
0.4493672053
 40
0.5506327947
 40
0.6496171168
 40
0.7419863654
 40
0.824128008
 40
0.8937864088
 40
0.9510692152
 40
1.0
 40
1.0
 40
1.0
 40
1.0
 10
3.4483057621
 20
4.1404323764
 30
0.0
 10
3.4483057621
 20
4.1411118715
 30
0.0
 10
3.4478842281
 20
4.1425978825
 30
0.0
 10
3.4462489603
 20
4.1444763098
 30
0.0
 10
3.4437970398
 20
4.1460753101
 30
0.0
 10
3.4406378074
 20
4.1473500612
 30
0.0
 10
3.4369347138
 20
4.148242049
 30
0.0
 10
3.4328878049
 20
4.1487012867
 30
0.0
 10
3.4287237193
 20
4.1487012867
 30
0.0
 10
3.4246768103
 20
4.148242049
 30
0.0
 10
3.4209737167
 20
4.1473500612
 30
0.0
 10
3.4178144843
 20
4.1460753101
 30
0.0
 10
3.4153625638
 20
4.1444763098
 30
0.0
 10
3.413727296
 20
4.1425978825
 30
0.0
 10
3.4133057621
 20
4.1411118715
 30
0.0
 10
3.4133057621
 20
4.1404323764
 30
0.0
 11
3.4483057621
 21
4.1404323764
 31
0.0
 11
3.4477972439
 21
4.1424064157
 31
0.0
 11
3.4463012425
 21
4.144265731
 31
0.0
 11
3.4439047002
 21
4.1459022656
 31
0.0
 11
3.4407468951
 21
4.1472209102
 31
0.0
 11
3.4370113476
 21
4.1481450299
 31
0.0
 11
3.432915154
 21
4.1486209182
 31
0.0
 11
3.4286963702
 21
4.1486209182
 31
0.0
 11
3.4246001765
 21
4.1481450299
 31
0.0
 11
3.420864629
 21
4.1472209102
 31
0.0
 11
3.417706824
 21
4.1459022656
 31
0.0
 11
3.4153102816
 21
4.144265731
 31
0.0
 11
3.4138142803
 21
4.1424064157
 31
0.0
 11
3.4133057621
 21
4.1404323764
 31
0.0
  0
SPLINE
  5
4C3
100
AcDbEntity
  8
0
100
AcDbSpline
 62
7
  6
CONTINUOUS
 70
0
 71
3
 72
15
 73
11
 74
9
 42
0.0000001
 43
0.0000001
 44
0.0000000001
 12
0.0
 22
0.1099409465
 32
0.0
 13
0.0
 23
-0.1099409465
 33
0.0
 40
0.0
 40
0.0
 40
0.0
 40
0.0
 40
0.125
 40
0.25
 40
0.375
 40
0.5
 40
0.625
 40
0.75
 40
0.875
 40
1.0
 40
1.0
 40
1.0
 40
1.0
 10
7.5128057621
 20
4.3873088076
 30
0.0
 10
7.5128057621
 20
4.3918896804
 30
0.0
 10
7.5109833776
 20
4.4010514259
 30
0.0
 10
7.5031988096
 20
4.4127018552
 30
0.0
 10
7.4915483804
 20
4.4204864231
 30
0.0
 10
7.4778057621
 20
4.4232199998
 30
0.0
 10
7.4640631438
 20
4.4204864231
 30
0.0
 10
7.4524127145
 20
4.4127018552
 30
0.0
 10
7.4446281466
 20
4.4010514259
 30
0.0
 10
7.4428057621
 20
4.3918896804
 30
0.0
 10
7.4428057621
 20
4.3873088076
 30
0.0
 11
7.5128057621
 21
4.3873088076
 31
0.0
 11
7.5101415457
 21
4.4007027277
 31
0.0
 11
7.5025544994
 21
4.4120575449
 31
0.0
 11
7.4911996822
 21
4.4196445912
 31
0.0
 11
7.4778057621
 21
4.4223088076
 31
0.0
 11
7.4644118419
 21
4.4196445912
 31
0.0
 11
7.4530570247
 21
4.4120575449
 31
0.0
 11
7.4454699784
 21
4.4007027277
 31
0.0
 11
7.4428057621
 21
4.3873088076
 31
0.0
  0
SPLINE
  5
4C4
100
AcDbEntity
  8
0
100
AcDbSpline
 62
7
  6
CONTINUOUS
 70
0
 71
3
 72
15
 73
11
 74
9
 42
0.0000001
 43
0.0000001
 44
0.0000000001
 12
0.0
 22
-0.1099409465
 32
0.0
 13
0.0
 23
0.1099409465
 33
0.0
 40
0.0
 40
0.0
 40
0.0
 40
0.0
 40
0.125
 40
0.25
 40
0.375
 40
0.5
 40
0.625
 40
0.75
 40
0.875
 40
1.0
 40
1.0
 40
1.0
 40
1.0
 10
7.5128057621
 20
3.7413088076
 30
0.0
 10
7.5128057621
 20
3.7367279348
 30
0.0
 10
7.5109833776
 20
3.7275661893
 30
0.0
 10
7.5031988096
 20
3.71591576
 30
0.0
 10
7.4915483804
 20
3.7081311921
 30
0.0
 10
7.4778057621
 20
3.7053976153
 30
0.0
 10
7.4640631438
 20
3.7081311921
 30
0.0
 10
7.4524127145
 20
3.71591576
 30
0.0
 10
7.4446281466
 20
3.7275661893
 30
0.0
 10
7.4428057621
 20
3.7367279348
 30
0.0
 10
7.4428057621
 20
3.7413088076
 30
0.0
 11
7.5128057621
 21
3.7413088076
 31
0.0
 11
7.5101415457
 21
3.7279148875
 31
0.0
 11
7.5025544994
 21
3.7165600703
 31
0.0
 11
7.4911996822
 21
3.708973024
 31
0.0
 11
7.4778057621
 21
3.7063088076
 31
0.0
 11
7.4644118419
 21
3.708973024
 31
0.0
 11
7.4530570247
 21
3.7165600703
 31
0.0
 11
7.4454699784
 21
3.7279148875
 31
0.0
 11
7.4428057621
 21
3.7413088076
 31
0.0
  0
SPLINE
  5
4C5
100
AcDbEntity
  8
0
100
AcDbSpline
 62
7
  6
CONTINUOUS
 70
0
 71
3
 72
15
 73
11
 74
9
 42
0.0000001
 43
0.0000001
 44
0.0000000001
 12
0.0
 22
0.1099409465
 32
0.0
 13
0.0
 23
-0.1099409465
 33
0.0
 40
0.0
 40
0.0
 40
0.0
 40
0.0
 40
0.125
 40
0.25
 40
0.375
 40
0.5
 40
0.625
 40
0.75
 40
0.875
 40
1.0
 40
1.0
 40
1.0
 40
1.0
 10
5.8018057621
 20
4.4728088076
 30
0.0
 10
5.8018057621
 20
4.4773896804
 30
0.0
 10
5.7999833776
 20
4.4865514259
 30
0.0
 10
5.7921988096
 20
4.4982018552
 30
0.0
 10
5.7805483804
 20
4.5059864231
 30
0.0
 10
5.7668057621
 20
4.5087199998
 30
0.0
 10
5.7530631438
 20
4.5059864231
 30
0.0
 10
5.7414127145
 20
4.4982018552
 30
0.0
 10
5.7336281466
 20
4.4865514259
 30
0.0
 10
5.7318057621
 20
4.4773896804
 30
0.0
 10
5.7318057621
 20
4.4728088076
 30
0.0
 11
5.8018057621
 21
4.4728088076
 31
0.0
 11
5.7991415457
 21
4.4862027277
 31
0.0
 11
5.7915544994
 21
4.4975575449
 31
0.0
 11
5.7801996822
 21
4.5051445912
 31
0.0
 11
5.7668057621
 21
4.5078088076
 31
0.0
 11
5.7534118419
 21
4.5051445912
 31
0.0
 11
5.7420570247
 21
4.4975575449
 31
0.0
 11
5.7344699784
 21
4.4862027277
 31
0.0
 11
5.7318057621
 21
4.4728088076
 31
0.0
  0
SPLINE
  5
4C6
100
AcDbEntity
  8
0
100
AcDbSpline
 62
7
  6
CONTINUOUS
 70
0
 71
3
 72
15
 73
11
 74
9
 42
0.0000001
 43
0.0000001
 44
0.0000000001
 12
0.0
 22
-0.1099409465
 32
0.0
 13
0.0
 23
0.1099409465
 33
0.0
 40
0.0
 40
0.0
 40
0.0
 40
0.0
 40
0.125
 40
0.25
 40
0.375
 40
0.5
 40
0.625
 40
0.75
 40
0.875
 40
1.0
 40
1.0
 40
1.0
 40
1.0
 10
5.8018057621
 20
3.6558088076
 30
0.0
 10
5.8018057621
 20
3.6512279348
 30
0.0
 10
5.7999833776
 20
3.6420661893
 30
0.0
 10
5.7921988096
 20
3.63041576
 30
0.0
 10
5.7805483804
 20
3.6226311921
 30
0.0
 10
5.7668057621
 20
3.6198976153
 30
0.0
 10
5.7530631438
 20
3.6226311921
 30
0.0
 10
5.7414127145
 20
3.63041576
 30
0.0
 10
5.7336281466
 20
3.6420661893
 30
0.0
 10
5.7318057621
 20
3.6512279348
 30
0.0
 10
5.7318057621
 20
3.6558088076
 30
0.0
 11
5.8018057621
 21
3.6558088076
 31
0.0
 11
5.7991415457
 21
3.6424148875
 31
0.0
 11
5.7915544994
 21
3.6310600703
 31
0.0
 11
5.7801996822
 21
3.623473024
 31
0.0
 11
5.7668057621
 21
3.6208088076
 31
0.0
 11
5.7534118419
 21
3.623473024
 31
0.0
 11
5.7420570247
 21
3.6310600703
 31
0.0
 11
5.7344699784
 21
3.6424148875
 31
0.0
 11
5.7318057621
 21
3.6558088076
 31
0.0
  0
SPLINE
  5
4C7
100
AcDbEntity
  8
0
100
AcDbSpline
 62
7
  6
CONTINUOUS
 70
0
 71
3
 72
15
 73
11
 74
9
 42
0.0000001
 43
0.0000001
 44
0.0000000001
 12
0.0
 22
0.1099409465
 32
0.0
 13
0.0
 23
-0.1099409465
 33
0.0
 40
0.0
 40
0.0
 40
0.0
 40
0.0
 40
0.125
 40
0.25
 40
0.375
 40
0.5
 40
0.625
 40
0.75
 40
0.875
 40
1.0
 40
1.0
 40
1.0
 40
1.0
 10
6.3928057621
 20
4.4728088076
 30
0.0
 10
6.3928057621
 20
4.4773896804
 30
0.0
 10
6.3909833776
 20
4.4865514259
 30
0.0
 10
6.3831988096
 20
4.4982018552
 30
0.0
 10
6.3715483804
 20
4.5059864231
 30
0.0
 10
6.3578057621
 20
4.5087199998
 30
0.0
 10
6.3440631438
 20
4.5059864231
 30
0.0
 10
6.3324127145
 20
4.4982018552
 30
0.0
 10
6.3246281466
 20
4.4865514259
 30
0.0
 10
6.3228057621
 20
4.4773896804
 30
0.0
 10
6.3228057621
 20
4.4728088076
 30
0.0
 11
6.3928057621
 21
4.4728088076
 31
0.0
 11
6.3901415457
 21
4.4862027277
 31
0.0
 11
6.3825544994
 21
4.4975575449
 31
0.0
 11
6.3711996822
 21
4.5051445912
 31
0.0
 11
6.3578057621
 21
4.5078088076
 31
0.0
 11
6.3444118419
 21
4.5051445912
 31
0.0
 11
6.3330570247
 21
4.4975575449
 31
0.0
 11
6.3254699784
 21
4.4862027277
 31
0.0
 11
6.3228057621
 21
4.4728088076
 31
0.0
  0
SPLINE
  5
4C8
100
AcDbEntity
  8
0
100
AcDbSpline
 62
7
  6
CONTINUOUS
 70
0
 71
3
 72
15
 73
11
 74
9
 42
0.0000001
 43
0.0000001
 44
0.0000000001
 12
0.0
 22
-0.1099409465
 32
0.0
 13
0.0
 23
0.1099409465
 33
0.0
 40
0.0
 40
0.0
 40
0.0
 40
0.0
 40
0.125
 40
0.25
 40
0.375
 40
0.5
 40
0.625
 40
0.75
 40
0.875
 40
1.0
 40
1.0
 40
1.0
 40
1.0
 10
6.3928057621
 20
3.6558088076
 30
0.0
 10
6.3928057621
 20
3.6512279348
 30
0.0
 10
6.3909833776
 20
3.6420661893
 30
0.0
 10
6.3831988096
 20
3.63041576
 30
0.0
 10
6.3715483804
 20
3.6226311921
 30
0.0
 10
6.3578057621
 20
3.6198976153
 30
0.0
 10
6.3440631438
 20
3.6226311921
 30
0.0
 10
6.3324127145
 20
3.63041576
 30
0.0
 10
6.3246281466
 20
3.6420661893
 30
0.0
 10
6.3228057621
 20
3.6512279348
 30
0.0
 10
6.3228057621
 20
3.6558088076
 30
0.0
 11
6.3928057621
 21
3.6558088076
 31
0.0
 11
6.3901415457
 21
3.6424148875
 31
0.0
 11
6.3825544994
 21
3.6310600703
 31
0.0
 11
6.3711996822
 21
3.623473024
 31
0.0
 11
6.3578057621
 21
3.6208088076
 31
0.0
 11
6.3444118419
 21
3.623473024
 31
0.0
 11
6.3330570247
 21
3.6310600703
 31
0.0
 11
6.3254699784
 21
3.6424148875
 31
0.0
 11
6.3228057621
 21
3.6558088076
 31
0.0
  0
SPLINE
  5
4C9
100
AcDbEntity
  8
0
100
AcDbSpline
 62
7
  6
CONTINUOUS
 70
0
 71
3
 72
15
 73
11
 74
9
 42
0.0000001
 43
0.0000001
 44
0.0000000001
 12
0.0
 22
0.1099409465
 32
0.0
 13
0.0
 23
-0.1099409465
 33
0.0
 40
0.0
 40
0.0
 40
0.0
 40
0.0
 40
0.125
 40
0.25
 40
0.375
 40
0.5
 40
0.625
 40
0.75
 40
0.875
 40
1.0
 40
1.0
 40
1.0
 40
1.0
 10
5.3018057621
 20
4.4878088076
 30
0.0
 10
5.3018057621
 20
4.4923896804
 30
0.0
 10
5.2999833776
 20
4.5015514259
 30
0.0
 10
5.2921988096
 20
4.5132018552
 30
0.0
 10
5.2805483804
 20
4.5209864231
 30
0.0
 10
5.2668057621
 20
4.5237199998
 30
0.0
 10
5.2530631438
 20
4.5209864231
 30
0.0
 10
5.2414127145
 20
4.5132018552
 30
0.0
 10
5.2336281466
 20
4.5015514259
 30
0.0
 10
5.2318057621
 20
4.4923896804
 30
0.0
 10
5.2318057621
 20
4.4878088076
 30
0.0
 11
5.3018057621
 21
4.4878088076
 31
0.0
 11
5.2991415457
 21
4.5012027277
 31
0.0
 11
5.2915544994
 21
4.5125575449
 31
0.0
 11
5.2801996822
 21
4.5201445912
 31
0.0
 11
5.2668057621
 21
4.5228088076
 31
0.0
 11
5.2534118419
 21
4.5201445912
 31
0.0
 11
5.2420570247
 21
4.5125575449
 31
0.0
 11
5.2344699784
 21
4.5012027277
 31
0.0
 11
5.2318057621
 21
4.4878088076
 31
0.0
  0
SPLINE
  5
4CA
100
AcDbEntity
  8
0
100
AcDbSpline
 62
7
  6
CONTINUOUS
 70
0
 71
3
 72
15
 73
11
 74
9
 42
0.0000001
 43
0.0000001
 44
0.0000000001
 12
0.0
 22
-0.1099409465
 32
0.0
 13
0.0
 23
0.1099409465
 33
0.0
 40
0.0
 40
0.0
 40
0.0
 40
0.0
 40
0.125
 40
0.25
 40
0.375
 40
0.5
 40
0.625
 40
0.75
 40
0.875
 40
1.0
 40
1.0
 40
1.0
 40
1.0
 10
5.3018057621
 20
3.6408088076
 30
0.0
 10
5.3018057621
 20
3.6362279348
 30
0.0
 10
5.2999833776
 20
3.6270661893
 30
0.0
 10
5.2921988096
 20
3.61541576
 30
0.0
 10
5.2805483804
 20
3.6076311921
 30
0.0
 10
5.2668057621
 20
3.6048976153
 30
0.0
 10
5.2530631438
 20
3.6076311921
 30
0.0
 10
5.2414127145
 20
3.61541576
 30
0.0
 10
5.2336281466
 20
3.6270661893
 30
0.0
 10
5.2318057621
 20
3.6362279348
 30
0.0
 10
5.2318057621
 20
3.6408088076
 30
0.0
 11
5.3018057621
 21
3.6408088076
 31
0.0
 11
5.2991415457
 21
3.6274148875
 31
0.0
 11
5.2915544994
 21
3.6160600703
 31
0.0
 11
5.2801996822
 21
3.608473024
 31
0.0
 11
5.2668057621
 21
3.6058088076
 31
0.0
 11
5.2534118419
 21
3.608473024
 31
0.0
 11
5.2420570247
 21
3.6160600703
 31
0.0
 11
5.2344699784
 21
3.6274148875
 31
0.0
 11
5.2318057621
 21
3.6408088076
 31
0.0
  0
SPLINE
  5
4CB
100
AcDbEntity
  8
0
100
AcDbSpline
 62
7
  6
CONTINUOUS
 70
0
 71
3
 72
16
 73
12
 74
10
 42
0.0000001
 43
0.0000001
 44
0.0000000001
 12
0.0906480335
 22
0.2719441006
 32
0.0
 13
-0.0906480335
 23
0.2719441006
 33
0.0
 40
0.0
 40
0.0
 40
0.0
 40
0.0
 40
0.1184548733
 40
0.230565332
 40
0.3393089466
 40
0.4465959239
 40
0.5535015371
 40
0.6607803311
 40
0.769505023
 40
0.8815660643
 40
1.0
 40
1.0
 40
1.0
 40
1.0
 10
3.9329343517
 20
3.7833088076
 30
0.0
 10
3.9365135855
 20
3.7940465089
 30
0.0
 10
3.9429446721
 20
3.8151325558
 30
0.0
 10
3.9504641018
 20
3.8466936106
 30
0.0
 10
3.9555523292
 20
3.8776624287
 30
0.0
 10
3.9581391914
 20
3.9084454983
 30
0.0
 10
3.9581380031
 20
3.9391992993
 30
0.0
 10
3.9555491625
 20
3.9699795907
 30
0.0
 10
3.9504604278
 20
4.0009408925
 30
0.0
 10
3.942942171
 20
4.0324934241
 30
0.0
 10
3.9365129528
 20
4.0535730042
 30
0.0
 10
3.9329343517
 20
4.0643088076
 30
0.0
 11
3.9329343517
 21
3.7833088076
 31
0.0
 11
3.9427728213
 21
3.8158078355
 31
0.0
 11
3.9501599918
 21
3.8470842259
 31
0.0
 11
3.9551646092
 21
3.8778516784
 31
0.0
 11
3.9577115745
 21
3.9085002996
 31
0.0
 11
3.9577104043
 21
3.9391452481
 31
0.0
 11
3.9551614642
 21
3.9697913512
 31
0.0
 11
3.9501560252
 21
4.0005531744
 31
0.0
 11
3.9427712537
 21
4.031815576
 31
0.0
 11
3.9329343517
 21
4.0643088076
 31
0.0
  0
SPLINE
  5
4CC
100
AcDbEntity
  8
0
100
AcDbSpline
 62
7
  6
CONTINUOUS
 70
0
 71
3
 72
17
 73
13
 74
11
 42
0.0000001
 43
0.0000001
 44
0.0000000001
 12
-0.1487434696
 22
0.2576312467
 32
0.0
 13
0.1487434696
 23
0.2576312467
 33
0.0
 40
0.0
 40
0.0
 40
0.0
 40
0.0
 40
0.1169386465
 40
0.2216811606
 40
0.3184580982
 40
0.4103908543
 40
0.5000417254
 40
0.5896883004
 40
0.6816074548
 40
0.7783545182
 40
0.8830694657
 40
1.0
 40
1.0
 40
1.0
 40
1.0
 10
3.8312766134
 20
3.7833088076
 30
0.0
 10
3.82547866
 20
3.7933511574
 30
0.0
 10
3.8151388324
 20
3.8127810048
 30
0.0
 10
3.802765209
 20
3.8418830824
 30
0.0
 10
3.7941117623
 20
3.8697246451
 30
0.0
 10
3.7889546577
 20
3.8969079647
 30
0.0
 10
3.7872377773
 20
3.9238208496
 30
0.0
 10
3.788957663
 20
3.9507321744
 30
0.0
 10
3.7941164146
 20
3.977910315
 30
0.0
 10
3.8027692664
 20
4.005744621
 30
0.0
 10
3.8151408538
 20
4.0348404607
 30
0.0
 10
3.8254790622
 20
4.0542671545
 30
0.0
 10
3.8312766134
 20
4.0643088076
 30
0.0
 11
3.8312766134
 21
3.7833088076
 31
0.0
 11
3.8150503819
 21
3.8140804646
 31
0.0
 11
3.8029656254
 21
3.8428011012
 31
0.0
 11
3.7945129522
 21
3.8703221698
 31
0.0
 11
3.7894800668
 21
3.897203885
 31
0.0
 11
3.7878057624
 21
3.9238212411
 31
0.0
 11
3.7894830047
 21
3.9504371316
 31
0.0
 11
3.7945176514
 21
3.9773144003
 31
0.0
 11
3.8029692664
 21
4.0048264969
 31
0.0
 11
3.8150514176
 21
4.0335393326
 31
0.0
 11
3.8312766134
 21
4.0643088076
 31
0.0
  0
SPLINE
  5
4CD
100
AcDbEntity
  8
0
100
AcDbSpline
 62
7
  6
CONTINUOUS
 70
0
 71
3
 72
16
 73
12
 74
10
 42
0.0000001
 43
0.0000001
 44
0.0000000001
 12
0.0906480335
 22
0.2719441006
 32
0.0
 13
-0.0906480335
 23
0.2719441006
 33
0.0
 40
0.0
 40
0.0
 40
0.0
 40
0.0
 40
0.1184548733
 40
0.230565332
 40
0.3393089466
 40
0.4465959239
 40
0.5535015371
 40
0.6607803311
 40
0.769505023
 40
0.8815660643
 40
1.0
 40
1.0
 40
1.0
 40
1.0
 10
3.9329343517
 20
4.0643088076
 30
0.0
 10
3.9365135855
 20
4.0750465089
 30
0.0
 10
3.9429446721
 20
4.0961325558
 30
0.0
 10
3.9504641018
 20
4.1276936106
 30
0.0
 10
3.9555523292
 20
4.1586624287
 30
0.0
 10
3.9581391914
 20
4.1894454983
 30
0.0
 10
3.9581380031
 20
4.2201992993
 30
0.0
 10
3.9555491625
 20
4.2509795907
 30
0.0
 10
3.9504604278
 20
4.2819408925
 30
0.0
 10
3.942942171
 20
4.3134934241
 30
0.0
 10
3.9365129528
 20
4.3345730042
 30
0.0
 10
3.9329343517
 20
4.3453088076
 30
0.0
 11
3.9329343517
 21
4.0643088076
 31
0.0
 11
3.9427728213
 21
4.0968078355
 31
0.0
 11
3.9501599918
 21
4.1280842259
 31
0.0
 11
3.9551646092
 21
4.1588516784
 31
0.0
 11
3.9577115745
 21
4.1895002996
 31
0.0
 11
3.9577104043
 21
4.2201452481
 31
0.0
 11
3.9551614642
 21
4.2507913512
 31
0.0
 11
3.9501560252
 21
4.2815531744
 31
0.0
 11
3.9427712537
 21
4.312815576
 31
0.0
 11
3.9329343517
 21
4.3453088076
 31
0.0
  0
SPLINE
  5
4CE
100
AcDbEntity
  8
0
100
AcDbSpline
 62
7
  6
CONTINUOUS
 70
0
 71
3
 72
17
 73
13
 74
11
 42
0.0000001
 43
0.0000001
 44
0.0000000001
 12
-0.1487434696
 22
0.2576312467
 32
0.0
 13
0.1487434696
 23
0.2576312467
 33
0.0
 40
0.0
 40
0.0
 40
0.0
 40
0.0
 40
0.1169386465
 40
0.2216811606
 40
0.3184580982
 40
0.4103908543
 40
0.5000417254
 40
0.5896883004
 40
0.6816074548
 40
0.7783545182
 40
0.8830694657
 40
1.0
 40
1.0
 40
1.0
 40
1.0
 10
3.8312766134
 20
4.0643088076
 30
0.0
 10
3.82547866
 20
4.0743511574
 30
0.0
 10
3.8151388324
 20
4.0937810048
 30
0.0
 10
3.802765209
 20
4.1228830824
 30
0.0
 10
3.7941117623
 20
4.1507246451
 30
0.0
 10
3.7889546577
 20
4.1779079647
 30
0.0
 10
3.7872377773
 20
4.2048208496
 30
0.0
 10
3.788957663
 20
4.2317321744
 30
0.0
 10
3.7941164146
 20
4.258910315
 30
0.0
 10
3.8027692664
 20
4.286744621
 30
0.0
 10
3.8151408538
 20
4.3158404607
 30
0.0
 10
3.8254790622
 20
4.3352671545
 30
0.0
 10
3.8312766134
 20
4.3453088076
 30
0.0
 11
3.8312766134
 21
4.0643088076
 31
0.0
 11
3.8150503819
 21
4.0950804646
 31
0.0
 11
3.8029656254
 21
4.1238011012
 31
0.0
 11
3.7945129522
 21
4.1513221698
 31
0.0
 11
3.7894800668
 21
4.178203885
 31
0.0
 11
3.7878057624
 21
4.2048212411
 31
0.0
 11
3.7894830047
 21
4.2314371316
 31
0.0
 11
3.7945176514
 21
4.2583144003
 31
0.0
 11
3.8029692664
 21
4.2858264969
 31
0.0
 11
3.8150514176
 21
4.3145393326
 31
0.0
 11
3.8312766134
 21
4.3453088076
 31
0.0
  0
SPLINE
  5
4CF
100
AcDbEntity
  8
0
100
AcDbSpline
 62
7
  6
CONTINUOUS
 70
0
 71
3
 72
17
 73
13
 74
11
 42
0.0000001
 43
0.0000001
 44
0.0000000001
 12
0.0757283284
 22
0.0
 32
0.0
 13
-0.0000298617
 23
-0.0759724546
 33
0.0
 40
0.0
 40
0.0
 40
0.0
 40
0.0
 40
0.1134748756
 40
0.2296907681
 40
0.3429433689
 40
0.4487986757
 40
0.5513646818
 40
0.6653395907
 40
0.7817398301
 40
0.8910524796
 40
0.9937143237
 40
1.0
 40
1.0
 40
1.0
 40
1.0
 10
7.2988057621
 20
3.9082825129
 30
0.0
 10
7.3016701829
 20
3.9082825129
 30
0.0
 10
7.3074755833
 20
3.9078944123
 30
0.0
 10
7.3159813531
 20
3.9061473885
 30
0.0
 10
7.3239863863
 20
3.9033141405
 30
0.0
 10
7.3312265286
 20
3.8995848626
 30
0.0
 10
7.3379125421
 20
3.8949012763
 30
0.0
 10
7.344016439
 20
3.8890661099
 30
0.0
 10
7.3490643821
 20
3.8820626681
 30
0.0
 10
7.3523909519
 20
3.8743897537
 30
0.0
 10
7.3532823254
 20
3.8688871221
 30
0.0
 10
7.3533056129
 20
3.8661283331
 30
0.0
 10
7.3533055503
 20
3.8659691537
 30
0.0
 11
7.2988057621
 21
3.9082825129
 31
0.0
 11
7.3073798107
 21
3.907708184
 31
0.0
 11
7.3160001282
 21
3.9059348181
 31
0.0
 11
7.3240830835
 21
3.9030675915
 31
0.0
 11
7.3312054453
 21
3.8993889841
 31
0.0
 11
7.3375590896
 21
3.8949213384
 31
0.0
 11
7.3437761566
 21
3.8889343132
 31
0.0
 11
7.3488857689
 21
3.8817515224
 31
0.0
 11
7.3521174838
 21
3.8741303436
 31
0.0
 11
7.3533015222
 21
3.866446627
 31
0.0
 11
7.3533055503
 21
3.8659691537
 31
0.0
  0
SPLINE
  5
4D0
100
AcDbEntity
  8
0
100
AcDbSpline
 62
7
  6
CONTINUOUS
 70
0
 71
3
 72
13
 73
9
 74
7
 42
0.0000001
 43
0.0000001
 44
0.0000000001
 12
0.0459044343
 22
0.0
 32
0.0
 13
-0.0000074609
 23
-0.046070983
 33
0.0
 40
0.0
 40
0.0
 40
0.0
 40
0.0
 40
0.1750151593
 40
0.3495459655
 40
0.5204622028
 40
0.6861000275
 40
0.8457058113
 40
1.0
 40
1.0
 40
1.0
 40
1.0
 10
6.9938057621
 20
3.9517647328
 30
0.0
 10
6.9964837527
 20
3.9517647328
 30
0.0
 10
7.0018544952
 20
3.9511208606
 30
0.0
 10
7.009376924
 20
3.9482843256
 30
0.0
 10
7.0158725191
 20
3.9437835524
 30
0.0
 10
7.0208813219
 20
3.93796401
 30
0.0
 10
7.0240599191
 20
3.9312451763
 30
0.0
 10
7.0248061468
 20
3.9264282312
 30
0.0
 10
7.0248057631
 20
3.9240587363
 30
0.0
 11
6.9938057621
 21
3.9517647328
 31
0.0
 11
7.0017820593
 21
3.950803803
 31
0.0
 11
7.009275389
 21
3.9479686741
 31
0.0
 11
7.0157126888
 21
3.9434833698
 31
0.0
 11
7.0206497849
 21
3.9377007703
 31
0.0
 11
7.0237501295
 21
3.931062463
 31
0.0
 11
7.0248057631
 21
3.9240587363
 31
0.0
  0
SPLINE
  5
4D1
100
AcDbEntity
  8
0
100
AcDbSpline
 62
7
  6
CONTINUOUS
 70
0
 71
3
 72
17
 73
13
 74
11
 42
0.0000001
 43
0.0000001
 44
0.0000000001
 12
-0.0757272126
 22
0.0
 32
0.0
 13
0.0000299482
 23
0.075977252
 33
0.0
 40
0.0
 40
0.0
 40
0.0
 40
0.0
 40
0.1128273099
 40
0.2282803953
 40
0.3408097489
 40
0.4460988183
 40
0.5482958963
 40
0.661901209
 40
0.7784114467
 40
0.8880453297
 40
0.991103023
 40
1.0
 40
1.0
 40
1.0
 40
1.0
 10
7.2988057621
 20
4.2203351023
 30
0.0
 10
7.2959577295
 20
4.2203351023
 30
0.0
 10
7.2901881409
 20
4.2207185985
 30
0.0
 10
7.2817336457
 20
4.2224443037
 30
0.0
 10
7.2737720283
 20
4.2252429183
 30
0.0
 10
7.2665583115
 20
4.2289307661
 30
0.0
 10
7.2598816446
 20
4.2335693321
 30
0.0
 10
7.2537618233
 20
4.2393636132
 30
0.0
 10
7.2486723913
 20
4.2463381127
 30
0.0
 10
7.2452860458
 20
4.2540071886
 30
0.0
 10
7.2443402445
 20
4.2595867377
 30
0.0
 10
7.2443059976
 20
4.2624217879
 30
0.0
 10
7.2443060864
 20
4.2626471106
 30
0.0
 11
7.2988057621
 21
4.2203351023
 31
0.0
 11
7.29028055
 21
4.2209028735
 31
0.0
 11
7.2817147772
 21
4.2226540283
 31
0.0
 11
7.2736774005
 21
4.2254854804
 31
0.0
 11
7.2665820125
 21
4.2291225327
 31
0.0
 11
7.2602339428
 21
4.2335492332
 31
0.0
 11
7.2540080244
 21
4.2394863861
 31
0.0
 11
7.2488511135
 21
4.2466454028
 31
0.0
 11
7.2455585022
 21
4.2542668443
 31
0.0
 11
7.2443142423
 21
4.2619712895
 31
0.0
 11
7.2443060864
 21
4.2626471106
 31
0.0
  0
SPLINE
  5
4D2
100
AcDbEntity
  8
0
100
AcDbSpline
 62
7
  6
CONTINUOUS
 70
0
 71
3
 72
11
 73
7
 74
5
 42
0.0000001
 43
0.0000001
 44
0.0000000001
 12
-0.0392352439
 22
0.0
 32
0.0
 13
-0.034387224
 23
-0.0190033947
 33
0.0
 40
0.0
 40
0.0
 40
0.0
 40
0.0
 40
0.2734455198
 40
0.5393590625
 40
0.7900275691
 40
1.0
 40
1.0
 40
1.0
 40
1.0
 10
7.2988057621
 20
4.2414859483
 30
0.0
 10
7.2952295282
 20
4.2414859483
 30
0.0
 10
7.2881700458
 20
4.241134851
 30
0.0
 10
7.2779405613
 20
4.2395420874
 30
0.0
 10
7.268769265
 20
4.2369510693
 30
0.0
 10
7.2632398147
 20
4.2344984874
 30
0.0
 10
7.2608330251
 20
4.2331684244
 30
0.0
 11
7.2988057621
 21
4.2414859483
 31
0.0
 11
7.2880909247
 21
4.2409406968
 31
0.0
 11
7.2777876869
 21
4.2392991755
 31
0.0
 11
7.2683400191
 21
4.2365661214
 31
0.0
 11
7.2608330251
 21
4.2331684244
 31
0.0
  0
SPLINE
  5
4D3
100
AcDbEntity
  8
0
100
AcDbSpline
 62
7
  6
CONTINUOUS
 70
0
 71
3
 72
11
 73
7
 74
5
 42
0.0000001
 43
0.0000001
 44
0.0000000001
 12
0.0392200789
 22
0.0
 32
0.0
 13
0.034379849
 23
0.0189849164
 33
0.0
 40
0.0
 40
0.0
 40
0.0
 40
0.0
 40
0.2736165691
 40
0.5396973624
 40
0.7905170383
 40
1.0
 40
1.0
 40
1.0
 40
1.0
 10
7.2988057621
 20
3.8871316669
 30
0.0
 10
7.3023828499
 20
3.8871316669
 30
0.0
 10
7.3094440326
 20
3.8874829309
 30
0.0
 10
7.3196758479
 20
3.8890764713
 30
0.0
 10
7.3288412527
 20
3.8916666245
 30
0.0
 10
7.3343645559
 20
3.894116181
 30
0.0
 10
7.3367652201
 20
3.8954418531
 30
0.0
 11
7.2988057621
 21
3.8871316669
 31
0.0
 11
7.3095231511
 21
3.8876771818
 31
0.0
 11
7.3198288151
 21
3.8893195359
 31
0.0
 11
7.3292782918
 21
3.8920539927
 31
0.0
 11
7.3367652201
 21
3.8954418531
 31
0.0
  0
SPLINE
  5
4D4
100
AcDbEntity
  8
0
100
AcDbSpline
 62
7
  6
CONTINUOUS
 70
0
 71
3
 72
10
 73
6
 74
4
 42
0.0000001
 43
0.0000001
 44
0.0000000001
 12
0.0228512954
 22
0.0
 32
0.0
 13
0.0181095152
 23
0.0140359854
 33
0.0
 40
0.0
 40
0.0
 40
0.0
 40
0.0
 40
0.3550134993
 40
0.7136163256
 40
1.0
 40
1.0
 40
1.0
 40
1.0
 10
6.9938057621
 20
3.9368995395
 30
0.0
 10
6.9965099348
 20
3.9368995395
 30
0.0
 10
7.0019628127
 20
3.9374598692
 30
0.0
 10
7.0092576616
 20
3.939869357
 30
0.0
 10
7.0135001579
 20
3.9424328908
 30
0.0
 10
7.0152289144
 20
3.9437727832
 30
0.0
 11
6.9938057621
 21
3.9368995395
 31
0.0
 11
7.0018742173
 21
3.9377439232
 31
0.0
 11
7.0096414961
 21
3.9403554076
 31
0.0
 11
7.0152289144
 21
3.9437727832
 31
0.0
  0
SPLINE
  5
4D5
100
AcDbEntity
  8
0
100
AcDbSpline
 62
7
  6
CONTINUOUS
 70
0
 71
3
 72
10
 73
6
 74
4
 42
0.0000001
 43
0.0000001
 44
0.0000000001
 12
0.0181105463
 22
-0.0140399311
 32
0.0
 13
0.0228544212
 23
0.0
 33
0.0
 40
0.0
 40
0.0
 40
0.0
 40
0.0
 40
0.2891670656
 40
0.6468096572
 40
1.0
 40
1.0
 40
1.0
 40
1.0
 10
6.9723803532
 20
3.9437745343
 30
0.0
 10
6.974126011
 20
3.9424212391
 30
0.0
 10
6.9783841479
 20
3.939854315
 30
0.0
 10
6.9856829563
 20
3.9374549812
 30
0.0
 10
6.9911151084
 20
3.9368995395
 30
0.0
 10
6.9938057621
 20
3.9368995395
 30
0.0
 11
6.9723803532
 21
3.9437745343
 31
0.0
 11
6.9780258533
 21
3.9403289355
 31
0.0
 11
6.9857771984
 21
3.9377354327
 31
0.0
 11
6.9938057621
 21
3.9368995395
 31
0.0
  0
SPLINE
  5
4D6
100
AcDbEntity
  8
0
100
AcDbSpline
 62
7
  6
CONTINUOUS
 70
0
 71
3
 72
13
 73
9
 74
7
 42
0.0000001
 43
0.0000001
 44
0.0000000001
 12
0.0108656056
 22
0.0378116666
 32
0.0
 13
0.039203137
 23
0.0
 33
0.0
 40
0.0
 40
0.0
 40
0.0
 40
0.0
 40
0.0100912067
 40
0.196922425
 40
0.3907971076
 40
0.5908493418
 40
0.7951573987
 40
1.0
 40
1.0
 40
1.0
 40
1.0
 10
6.9637528671
 20
3.9306954423
 30
0.0
 10
6.9637894161
 20
3.9308226307
 30
0.0
 10
6.9645224167
 20
3.9332987857
 30
0.0
 10
6.9667369226
 20
3.9379737833
 30
0.0
 10
6.9717458804
 20
3.9437893374
 30
0.0
 10
6.9782401319
 20
3.9482869621
 30
0.0
 10
6.985760132
 20
3.9511213762
 30
0.0
 10
6.9911289379
 20
3.9517647328
 30
0.0
 10
6.9938057621
 20
3.9517647328
 30
0.0
 11
6.9637528671
 21
3.9306954423
 31
0.0
 11
6.9638655462
 21
3.9310760935
 31
0.0
 11
6.9669682413
 21
3.9377108262
 31
0.0
 11
6.971905459
 21
3.9434893568
 31
0.0
 11
6.9783412353
 21
3.9479713583
 31
0.0
 11
6.9858328884
 21
3.9508046412
 31
0.0
 11
6.9938057621
 21
3.9517647328
 31
0.0
  0
SPLINE
  5
4D7
100
AcDbEntity
  8
0
100
AcDbSpline
 62
7
  6
CONTINUOUS
 70
0
 71
3
 72
8
 73
4
 74
2
 42
0.0000001
 43
0.0000001
 44
0.0000000001
 12
-0.0010430874
 22
-0.000115279
 32
0.0
 13
-0.0010435018
 23
-0.0001114884
 33
0.0
 40
0.0
 40
0.0
 40
0.0
 40
0.0
 40
1.0
 40
1.0
 40
1.0
 40
1.0
 10
7.0248057621
 20
4.3448088076
 30
0.0
 10
7.0244580663
 20
4.3447703813
 30
0.0
 10
7.0241103003
 20
4.3447325859
 30
0.0
 10
7.0237624664
 20
4.3446954231
 30
0.0
 11
7.0248057621
 21
4.3448088076
 31
0.0
 11
7.0237624664
 21
4.3446954231
 31
0.0
  0
SPLINE
  5
4D8
100
AcDbEntity
  8
0
100
AcDbSpline
 62
7
  6
CONTINUOUS
 70
0
 71
3
 72
17
 73
13
 74
11
 42
0.0000001
 43
0.0000001
 44
0.0000000001
 12
-0.0596866979
 22
-0.0063769636
 32
0.0
 13
-0.0596866979
 23
0.0063769636
 33
0.0
 40
0.0
 40
0.0
 40
0.0
 40
0.0
 40
0.0517858773
 40
0.1342403092
 40
0.2415789358
 40
0.3663652524
 40
0.5001192841
 40
0.6338516264
 40
0.7585791544
 40
0.8658516165
 40
0.9482540995
 40
1.0
 40
1.0
 40
1.0
 40
1.0
 10
7.0237624664
 20
4.3446954231
 30
0.0
 10
7.022732157
 20
4.3445853442
 30
0.0
 10
7.020059824
 20
4.3443143837
 30
0.0
 10
7.0152441627
 20
4.3438944129
 30
0.0
 10
7.0089633627
 20
4.343473436
 30
0.0
 10
7.0016482053
 20
4.3431648638
 30
0.0
 10
6.9937990344
 20
4.3430519794
 30
0.0
 10
6.9859510458
 20
4.3431652317
 30
0.0
 10
6.9786388336
 20
4.3434739738
 30
0.0
 10
6.9723615773
 20
4.3438948805
 30
0.0
 10
6.9675490736
 20
4.3443146431
 30
0.0
 10
6.9648785717
 20
4.3445854292
 30
0.0
 10
6.9638490578
 20
4.3446954231
 30
0.0
 11
7.0237624664
 21
4.3446954231
 31
0.0
 11
7.0206698055
 21
4.3443818817
 31
0.0
 11
7.0157390751
 21
4.3439520092
 31
0.0
 11
7.0093103447
 21
4.3435213469
 31
0.0
 11
7.0018265308
 21
4.3432058903
 31
0.0
 11
6.9937986015
 21
4.3430905323
 31
0.0
 11
6.9857719796
 21
4.3432062648
 31
0.0
 11
6.9782917041
 21
4.3435218732
 31
0.0
 11
6.9718669478
 21
4.3439524408
 31
0.0
 11
6.9669393299
 21
4.3443821108
 31
0.0
 11
6.9638490578
 21
4.3446954231
 31
0.0
  0
SPLINE
  5
4D9
100
AcDbEntity
  8
0
100
AcDbSpline
 62
7
  6
CONTINUOUS
 70
0
 71
3
 72
8
 73
4
 74
2
 42
0.0000001
 43
0.0000001
 44
0.0000000001
 12
-0.0000433041
 22
0.0000046266
 32
0.0
 13
-0.0000433034
 23
0.0000046332
 33
0.0
 40
0.0
 40
0.0
 40
0.0
 40
0.0
 40
1.0
 40
1.0
 40
1.0
 40
1.0
 10
6.9638490578
 20
4.3446954231
 30
0.0
 10
6.9638346231
 20
4.3446969653
 30
0.0
 10
6.9638201885
 20
4.3446985086
 30
0.0
 10
6.963805754
 20
4.344700053
 30
0.0
 11
6.9638490578
 21
4.3446954231
 31
0.0
 11
6.963805754
 21
4.344700053
 31
0.0
  0
SPLINE
  5
4DA
100
AcDbEntity
  8
0
100
AcDbSpline
 62
7
  6
CONTINUOUS
 70
0
 71
3
 72
11
 73
7
 74
5
 42
0.0000001
 43
0.0000001
 44
0.0000000001
 12
0.0343192501
 22
-0.0188333643
 32
0.0
 13
0.0390954445
 23
0.0
 33
0.0
 40
0.0
 40
0.0
 40
0.0
 40
0.0
 40
0.2067639559
 40
0.4584166446
 40
0.7254047084
 40
1.0
 40
1.0
 40
1.0
 40
1.0
 10
7.2609556296
 20
3.8953816691
 30
0.0
 10
7.2633209576
 20
3.8940836488
 30
0.0
 10
7.2688058912
 20
3.891656993
 30
0.0
 10
7.2779296368
 20
3.8890776807
 30
0.0
 10
7.288163941
 20
3.8874831717
 30
0.0
 10
7.2952272871
 20
3.8871316669
 30
0.0
 10
7.2988057621
 20
3.8871316669
 30
0.0
 11
7.2609556296
 21
3.8953816691
 31
0.0
 11
7.2683259209
 21
3.8920566859
 31
0.0
 11
7.2777763814
 21
3.8893209299
 31
0.0
 11
7.2880842278
 21
3.8876776097
 31
0.0
 11
7.2988057621
 21
3.8871316669
 31
0.0
  0
SPLINE
  5
4DB
100
AcDbEntity
  8
0
100
AcDbSpline
 62
7
  6
CONTINUOUS
 70
0
 71
3
 72
16
 73
12
 74
10
 42
0.0000001
 43
0.0000001
 44
0.0000000001
 12
0.0000139659
 22
0.0759992494
 32
0.0
 13
0.0757127255
 23
0.0
 33
0.0
 40
0.0
 40
0.0
 40
0.0
 40
0.0
 40
0.0476675084
 40
0.1589855637
 40
0.2789963605
 40
0.403834128
 40
0.5182455422
 40
0.6304000143
 40
0.7512112517
 40
0.8769139322
 40
1.0
 40
1.0
 40
1.0
 40
1.0
 10
7.2443072162
 20
3.8659697416
 30
0.0
 10
7.2443074381
 20
3.8671773065
 30
0.0
 10
7.2445733262
 20
3.8712057043
 30
0.0
 10
7.2465064056
 20
3.8780620742
 30
0.0
 10
7.2510199775
 20
3.8859262364
 30
0.0
 10
7.2571194922
 20
3.8927141178
 30
0.0
 10
7.2641343783
 20
3.8981992277
 30
0.0
 10
7.271797229
 20
3.9025195431
 30
0.0
 10
7.2802746044
 20
3.9057873462
 30
0.0
 10
7.2894111504
 20
3.9078265466
 30
0.0
 10
7.2956993682
 20
3.9082825129
 30
0.0
 10
7.2988057621
 20
3.9082825129
 30
0.0
 11
7.2443072162
 21
3.8659697416
 31
0.0
 11
7.2445419986
 21
3.8695820133
 31
0.0
 11
7.2467538654
 21
3.877714792
 31
0.0
 11
7.2512120585
 21
3.8856322518
 31
0.0
 11
7.2574909168
 21
3.8926971372
 31
0.0
 11
7.2643005702
 21
3.8980511819
 31
0.0
 11
7.2716913899
 21
3.9022322954
 31
0.0
 11
7.2802231959
 21
3.9055300134
 31
0.0
 11
7.2895110977
 21
3.9076069674
 31
0.0
 11
7.2988057621
 21
3.9082825129
 31
0.0
  0
SPLINE
  5
4DC
100
AcDbEntity
  8
0
100
AcDbSpline
 62
7
  6
CONTINUOUS
 70
0
 71
3
 72
11
 73
7
 74
5
 42
0.0000001
 43
0.0000001
 44
0.0000000001
 12
-0.0343202775
 22
0.0188357756
 32
0.0
 13
-0.0390974466
 23
0.0
 33
0.0
 40
0.0
 40
0.0
 40
0.0
 40
0.0
 40
0.2069865195
 40
0.4585719748
 40
0.7254829715
 40
1.0
 40
1.0
 40
1.0
 40
1.0
 10
7.3366576386
 20
4.2332349867
 30
0.0
 10
7.3342896936
 20
4.2345345706
 30
0.0
 10
7.3288024673
 20
4.2369618697
 30
0.0
 10
7.3196770859
 20
4.2395408616
 30
0.0
 10
7.3094450795
 20
4.241134607
 30
0.0
 10
7.3023834004
 20
4.2414859483
 30
0.0
 10
7.2988057621
 20
4.2414859483
 30
0.0
 11
7.3366576386
 21
4.2332349867
 31
0.0
 11
7.3292789134
 21
4.2365633936
 31
0.0
 11
7.3198302628
 21
4.2392977604
 31
0.0
 11
7.3095247961
 21
4.2409402636
 31
0.0
 11
7.2988057621
 21
4.2414859483
 31
0.0
  0
SPLINE
  5
4DD
100
AcDbEntity
  8
0
100
AcDbSpline
 62
7
  6
CONTINUOUS
 70
0
 71
3
 72
16
 73
12
 74
10
 42
0.0000001
 43
0.0000001
 44
0.0000000001
 12
-0.0000204394
 22
-0.075997623
 32
0.0
 13
-0.075712571
 23
0.0
 33
0.0
 40
0.0
 40
0.0
 40
0.0
 40
0.0
 40
0.0503359856
 40
0.1620458259
 40
0.2823563257
 40
0.4070599677
 40
0.5210516964
 40
0.6326727146
 40
0.7527374537
 40
0.8776167489
 40
1.0
 40
1.0
 40
1.0
 40
1.0
 10
7.3533043417
 20
4.2626475085
 30
0.0
 10
7.3533039987
 20
4.2613723701
 30
0.0
 10
7.3530174495
 20
4.257266354
 30
0.0
 10
7.3510138444
 20
4.2503412884
 30
0.0
 10
7.3464453684
 20
4.2424930869
 30
0.0
 10
7.3403156974
 20
4.2357420627
 30
0.0
 10
7.3333001905
 20
4.2303033587
 30
0.0
 10
7.3256612446
 20
4.2260291433
 30
0.0
 10
7.3172265217
 20
4.2228001928
 30
0.0
 10
7.3081439404
 20
4.2207856697
 30
0.0
 10
7.3018944123
 20
4.2203351023
 30
0.0
 10
7.2988057621
 20
4.2203351023
 30
0.0
 11
7.3533043417
 21
4.2626475085
 31
0.0
 11
7.3530426756
 21
4.2588341883
 31
0.0
 11
7.3507677259
 21
4.2506880452
 31
0.0
 11
7.3462495348
 21
4.242778548
 31
0.0
 11
7.339940467
 21
4.235754297
 31
0.0
 11
7.333133362
 21
4.230448574
 31
0.0
 11
7.3257641069
 21
4.2263114963
 31
0.0
 11
7.3172774031
 21
4.2230539798
 31
0.0
 11
7.3080476139
 21
4.2210029461
 31
0.0
 11
7.2988057621
 21
4.2203351023
 31
0.0
  0
SPLINE
  5
4DE
100
AcDbEntity
  8
0
100
AcDbSpline
 62
7
  6
CONTINUOUS
 70
0
 71
3
 72
22
 73
18
 74
16
 42
0.0000001
 43
0.0000001
 44
0.0000000001
 12
-0.1076738041
 22
-0.0209205978
 32
0.0
 13
-0.1076738041
 23
0.0209205978
 33
0.0
 40
0.0
 40
0.0
 40
0.0
 40
0.0
 40
0.0110483624
 40
0.0436802716
 40
0.0963399339
 40
0.1662801092
 40
0.2508908116
 40
0.3458883784
 40
0.4480912632
 40
0.5520689454
 40
0.6542879736
 40
0.7493163605
 40
0.8338983884
 40
0.9038037311
 40
0.9563885737
 40
0.9889766636
 40
1.0
 40
1.0
 40
1.0
 40
1.0
 10
7.3533057621
 20
4.3448088076
 30
0.0
 10
7.3529092223
 20
4.3447317615
 30
0.0
 10
7.3513408807
 20
4.3444302382
 30
0.0
 10
7.3478766332
 20
4.3437922316
 30
0.0
 10
7.3422792765
 20
4.3428505892
 30
0.0
 10
7.3347806989
 20
4.341763297
 30
0.0
 10
7.3257149851
 20
4.3407185373
 30
0.0
 10
7.3154418118
 20
4.3398954796
 30
0.0
 10
7.3044362288
 20
4.3394434546
 30
0.0
 10
7.2931571305
 20
4.3394438152
 30
0.0
 10
7.2821498608
 20
4.3398966465
 30
0.0
 10
7.271876081
 20
4.3407205296
 30
0.0
 10
7.2628116333
 20
4.3417658218
 30
0.0
 10
7.2553181278
 20
4.3428528394
 30
0.0
 10
7.2497263425
 20
4.3437937675
 30
0.0
 10
7.246267272
 20
4.344430881
 30
0.0
 10
7.2447014036
 20
4.344731936
 30
0.0
 10
7.2443057621
 20
4.3448088076
 30
0.0
 11
7.3533057621
 21
4.3448088076
 31
0.0
 11
7.352115689
 21
4.3445800125
 31
0.0
 11
7.3485955608
 21
4.343931811
 31
0.0
 11
7.3428994348
 21
4.3429739328
 31
0.0
 11
7.3353071594
 21
4.3418738486
 31
0.0
 11
7.3260873164
 21
4.3408124843
 31
0.0
 11
7.3157004632
 21
4.3399814956
 31
0.0
 11
7.304499501
 21
4.3395222133
 31
0.0
 11
7.2930944536
 21
4.3395225773
 31
0.0
 11
7.2818917529
 21
4.3399826796
 31
0.0
 11
7.2715015921
 21
4.3408147166
 31
0.0
 11
7.2622849522
 21
4.3418764022
 31
0.0
 11
7.2546965243
 21
4.3429763961
 31
0.0
 11
7.2490085287
 21
4.3439331349
 31
0.0
 11
7.2454931384
 21
4.3445805255
 31
0.0
 11
7.2443057621
 21
4.3448088076
 31
0.0
  0
SPLINE
  5
4DF
100
AcDbEntity
  8
0
100
AcDbSpline
 62
7
  6
CONTINUOUS
 70
0
 71
3
 72
22
 73
18
 74
16
 42
0.0000001
 43
0.0000001
 44
0.0000000001
 12
0.1076738041
 22
0.0209205978
 32
0.0
 13
0.1076738041
 23
-0.0209205978
 33
0.0
 40
0.0
 40
0.0
 40
0.0
 40
0.0
 40
0.0110483624
 40
0.0436802716
 40
0.0963399339
 40
0.1662801092
 40
0.2508908116
 40
0.3458883784
 40
0.4480912632
 40
0.5520689454
 40
0.6542879736
 40
0.7493163605
 40
0.8338983884
 40
0.9038037311
 40
0.9563885737
 40
0.9889766636
 40
1.0
 40
1.0
 40
1.0
 40
1.0
 10
7.2443057621
 20
3.7838088076
 30
0.0
 10
7.2447023018
 20
3.7838858537
 30
0.0
 10
7.2462706435
 20
3.784187377
 30
0.0
 10
7.2497348909
 20
3.7848253836
 30
0.0
 10
7.2553322477
 20
3.785767026
 30
0.0
 10
7.2628308252
 20
3.7868543181
 30
0.0
 10
7.2718965391
 20
3.7878990779
 30
0.0
 10
7.2821697124
 20
3.7887221355
 30
0.0
 10
7.2931752954
 20
3.7891741606
 30
0.0
 10
7.3044543937
 20
3.7891738
 30
0.0
 10
7.3154616634
 20
3.7887209687
 30
0.0
 10
7.3257354432
 20
3.7878970856
 30
0.0
 10
7.3347998909
 20
3.7868517933
 30
0.0
 10
7.3422933964
 20
3.7857647758
 30
0.0
 10
7.3478851816
 20
3.7848238477
 30
0.0
 10
7.3513442521
 20
3.7841867342
 30
0.0
 10
7.3529101205
 20
3.7838856792
 30
0.0
 10
7.3533057621
 20
3.7838088076
 30
0.0
 11
7.2443057621
 21
3.7838088076
 31
0.0
 11
7.2454958351
 21
3.7840376027
 31
0.0
 11
7.2490159633
 21
3.7846858041
 31
0.0
 11
7.2547120893
 21
3.7856436824
 31
0.0
 11
7.2623043647
 21
3.7867437666
 31
0.0
 11
7.2715242077
 21
3.7878051309
 31
0.0
 11
7.2819110609
 21
3.7886361196
 31
0.0
 11
7.2931120231
 21
3.7890954019
 31
0.0
 11
7.3045170705
 21
3.7890950379
 31
0.0
 11
7.3157197713
 21
3.7886349356
 31
0.0
 11
7.326109932
 21
3.7878028986
 31
0.0
 11
7.335326572
 21
3.786741213
 31
0.0
 11
7.3429149998
 21
3.7856412191
 31
0.0
 11
7.3486029954
 21
3.7846844802
 31
0.0
 11
7.3521183857
 21
3.7840370897
 31
0.0
 11
7.3533057621
 21
3.7838088076
 31
0.0
  0
SPLINE
  5
4E0
100
AcDbEntity
  8
0
100
AcDbSpline
 62
7
  6
CONTINUOUS
 70
0
 71
3
 72
13
 73
9
 74
7
 42
0.0000001
 43
0.0000001
 44
0.0000000001
 12
-0.0000072862
 22
-0.0449918515
 32
0.0
 13
-0.0448292039
 23
-0.0
 33
0.0
 40
0.0
 40
0.0
 40
0.0
 40
0.0
 40
0.1557305928
 40
0.3127934441
 40
0.4752520575
 40
0.6452745283
 40
0.8213774322
 40
1.0
 40
1.0
 40
1.0
 40
1.0
 10
7.0248057631
 20
3.9240587363
 30
0.0
 10
7.0248053848
 20
3.9217232004
 30
0.0
 10
7.0240880053
 20
3.9170286518
 30
0.0
 10
7.0208860278
 20
3.9105682008
 30
0.0
 10
7.0158239749
 20
3.9051566717
 30
0.0
 10
7.0092972218
 20
3.9011101458
 30
0.0
 10
7.0017931524
 20
3.8986260993
 30
0.0
 10
6.9964749312
 20
3.8980711578
 30
0.0
 10
6.9938057621
 20
3.8980711578
 30
0.0
 11
7.0248057631
 21
3.9240587363
 31
0.0
 11
7.0237465037
 21
3.9171583358
 31
0.0
 11
7.0206442174
 21
3.9108376129
 31
0.0
 11
7.0157043026
 21
3.9054861895
 31
0.0
 11
7.0092527204
 21
3.9014276745
 31
0.0
 11
7.001768671
 21
3.8989151117
 31
0.0
 11
6.9938057621
 21
3.8980711578
 31
0.0
  0
SPLINE
  5
4E1
100
AcDbEntity
  8
0
100
AcDbSpline
 62
7
  6
CONTINUOUS
 70
0
 71
3
 72
15
 73
11
 74
9
 42
0.0000001
 43
0.0000001
 44
0.0000000001
 12
0.0714065844
 22
0.0
 32
0.0
 13
-0.000019277
 23
-0.0716754247
 33
0.0
 40
0.0
 40
0.0
 40
0.0
 40
0.0
 40
0.1583204444
 40
0.3122202719
 40
0.4577088347
 40
0.591873334
 40
0.715518254
 40
0.8302009617
 40
0.9415002283
 40
1.0
 40
1.0
 40
1.0
 40
1.0
 10
7.2988057621
 20
4.2974097414
 30
0.0
 10
7.3025741361
 20
4.2974097414
 30
0.0
 10
7.3100136014
 20
4.2969760924
 30
0.0
 10
7.3207599631
 20
4.2950184205
 30
0.0
 10
7.3305972695
 20
4.2917719972
 30
0.0
 10
7.3391332642
 20
4.2872619711
 30
0.0
 10
7.3460049601
 20
4.2815323809
 30
0.0
 10
7.3508770781
 20
4.2746488795
 30
0.0
 10
7.3529966109
 20
4.2681009145
 30
0.0
 10
7.3533047176
 20
4.2640451738
 30
0.0
 10
7.3533043417
 20
4.2626475085
 30
0.0
 11
7.2988057621
 21
4.2974097414
 31
0.0
 11
7.3100909145
 21
4.2967380856
 31
0.0
 11
7.3208950589
 21
4.2947284292
 31
0.0
 11
7.3307388229
 21
4.2914075356
 31
0.0
 11
7.339166176
 21
4.2868511663
 31
0.0
 11
7.3458808164
 21
4.281118285
 31
0.0
 11
7.350546819
 21
4.2743885163
 31
0.0
 11
7.3529788272
 21
4.2668222689
 31
0.0
 11
7.3533043417
 21
4.2626475085
 31
0.0
  0
SPLINE
  5
4E2
100
AcDbEntity
  8
0
100
AcDbSpline
 62
7
  6
CONTINUOUS
 70
0
 71
3
 72
15
 73
11
 74
9
 42
0.0000001
 43
0.0000001
 44
0.0000000001
 12
-0.0000281619
 22
-0.0716480845
 32
0.0
 13
-0.071417854
 23
0.0
 33
0.0
 40
0.0
 40
0.0
 40
0.0
 40
0.0
 40
0.098605897
 40
0.2047378912
 40
0.315660454
 40
0.4350553427
 40
0.564402092
 40
0.7033995378
 40
0.8498846531
 40
1.0
 40
1.0
 40
1.0
 40
1.0
 10
7.3533055503
 20
3.8659691537
 30
0.0
 10
7.3533046247
 20
3.8636141791
 30
0.0
 10
7.3526636766
 20
3.8587188628
 30
0.0
 10
7.3495741477
 20
3.8517521921
 30
0.0
 10
7.3443943201
 20
3.8455285271
 30
0.0
 10
7.337491573
 20
3.8403569555
 30
0.0
 10
7.329155606
 20
3.8362912681
 30
0.0
 10
7.3196902112
 20
3.8333633687
 30
0.0
 10
7.3094469836
 20
3.8315989136
 30
0.0
 10
7.3023794007
 20
3.8312078737
 30
0.0
 10
7.2988057621
 20
3.8312078737
 30
0.0
 11
7.3533055503
 21
3.8659691537
 31
0.0
 11
7.3523710962
 21
3.8589861968
 31
0.0
 11
7.3493300067
 21
3.8520432926
 31
0.0
 11
7.3443219356
 21
3.8459052999
 31
0.0
 11
7.3375503759
 21
3.8407231712
 31
0.0
 11
7.3292808705
 21
3.8366061604
 31
0.0
 11
7.3198138398
 21
3.8336197479
 31
0.0
 11
7.3095096834
 21
3.8318112857
 31
0.0
 11
7.2988057621
 21
3.8312078737
 31
0.0
  0
SPLINE
  5
4E3
100
AcDbEntity
  8
0
100
AcDbSpline
 62
7
  6
CONTINUOUS
 70
0
 71
3
 72
15
 73
11
 74
9
 42
0.0000001
 43
0.0000001
 44
0.0000000001
 12
0.0000282442
 22
0.0716542344
 32
0.0
 13
0.0714184219
 23
0.0
 33
0.0
 40
0.0
 40
0.0
 40
0.0
 40
0.0
 40
0.0961703534
 40
0.2026250671
 40
0.3137779361
 40
0.433434125
 40
0.5630741986
 40
0.7024650788
 40
0.8493996714
 40
1.0
 40
1.0
 40
1.0
 40
1.0
 10
7.2443060864
 20
4.2626471106
 30
0.0
 10
7.2443069918
 20
4.2649441149
 30
0.0
 10
7.2449242661
 20
4.2697887368
 30
0.0
 10
7.2479523689
 20
4.2767340682
 30
0.0
 10
7.2531167484
 20
4.2829975257
 30
0.0
 10
7.2600194272
 20
4.2882020228
 30
0.0
 10
7.2683684912
 20
4.2922938152
 30
0.0
 10
7.277856899
 20
4.2952404442
 30
0.0
 10
7.2881305967
 20
4.2970162141
 30
0.0
 10
7.2952205495
 20
4.2974097414
 30
0.0
 10
7.2988057621
 20
4.2974097414
 30
0.0
 11
7.2443060864
 21
4.2626471106
 31
0.0
 11
7.2451943764
 21
4.2694618374
 31
0.0
 11
7.2482019023
 21
4.2764445142
 31
0.0
 11
7.253191965
 21
4.2826184006
 31
0.0
 11
7.2599620475
 21
4.2878332086
 31
0.0
 11
7.268242153
 21
4.2919760558
 31
0.0
 11
7.2777325302
 21
4.2949820987
 31
0.0
 11
7.2880672866
 21
4.2968023785
 31
0.0
 11
7.2988057621
 21
4.2974097414
 31
0.0
  0
SPLINE
  5
4E4
100
AcDbEntity
  8
0
100
AcDbSpline
 62
7
  6
CONTINUOUS
 70
0
 71
3
 72
15
 73
11
 74
9
 42
0.0000001
 43
0.0000001
 44
0.0000000001
 12
-0.0714069838
 22
0.0
 32
0.0
 13
0.0000131716
 23
0.0716772132
 33
0.0
 40
0.0
 40
0.0
 40
0.0
 40
0.0
 40
0.1578317394
 40
0.3112850682
 40
0.4563881409
 40
0.5902671798
 40
0.7136634978
 40
0.8280911631
 40
0.9390574287
 40
1.0
 40
1.0
 40
1.0
 40
1.0
 10
7.2988057621
 20
3.8312078737
 30
0.0
 10
7.2950489992
 20
3.8312078737
 30
0.0
 10
7.2876318284
 20
3.8316389151
 30
0.0
 10
7.2769154905
 20
3.8335847252
 30
0.0
 10
7.2671001462
 20
3.836811511
 30
0.0
 10
7.2585751997
 20
3.8412941541
 30
0.0
 10
7.2517005021
 20
3.8469889772
 30
0.0
 10
7.2468075916
 20
3.853831339
 30
0.0
 10
7.2446322337
 20
3.8604073494
 30
0.0
 10
7.2443069486
 20
3.864513677
 30
0.0
 10
7.2443072162
 20
3.8659697416
 30
0.0
 11
7.2988057621
 21
3.8312078737
 31
0.0
 11
7.2875552567
 21
3.831875355
 31
0.0
 11
7.2767811718
 21
3.833872592
 31
0.0
 11
7.2669594537
 21
3.8371728797
 31
0.0
 11
7.2585406003
 21
3.8417021803
 31
0.0
 11
7.2518206186
 21
3.8474014689
 31
0.0
 11
7.2471326284
 21
3.8540937718
 31
0.0
 11
7.2446608328
 21
3.8616221381
 31
0.0
 11
7.2443072162
 21
3.8659697416
 31
0.0
  0
SPLINE
  5
4E5
100
AcDbEntity
  8
0
100
AcDbSpline
 62
7
  6
CONTINUOUS
 70
0
 71
3
 72
13
 73
9
 74
7
 42
0.0000001
 43
0.0000001
 44
0.0000000001
 12
-0.0382203052
 22
0.0
 32
0.0
 13
-0.0109208738
 23
0.036772938
 33
0.0
 40
0.0
 40
0.0
 40
0.0
 40
0.0
 40
0.2093388472
 40
0.4154698829
 40
0.615601473
 40
0.806375522
 40
0.9906290256
 40
1.0
 40
1.0
 40
1.0
 40
1.0
 10
6.9938057621
 20
3.8980711578
 30
0.0
 10
6.9911387639
 20
3.8980711578
 30
0.0
 10
6.9858281163
 20
3.8986248767
 30
0.0
 10
6.9783220191
 20
3.9011062116
 30
0.0
 10
6.9717877864
 20
3.9051543553
 30
0.0
 10
6.9667188278
 20
3.910576818
 30
0.0
 10
6.9645133764
 20
3.9150332214
 30
0.0
 10
6.9637897499
 20
3.9174009591
 30
0.0
 10
6.9637556368
 20
3.9175158252
 30
0.0
 11
6.9938057621
 21
3.8980711578
 31
0.0
 11
6.9858492561
 21
3.8989137299
 31
0.0
 11
6.9783794625
 21
3.9014179724
 31
0.0
 11
6.9719037489
 21
3.9054890554
 31
0.0
 11
6.9669598473
 21
3.9108484369
 31
0.0
 11
6.9638607007
 21
3.9171720612
 31
0.0
 11
6.9637556368
 21
3.9175158252
 31
0.0
  0
SPLINE
  5
4E6
100
AcDbEntity
  8
126-602_HEX_FEATURES
100
AcDbSpline
 62
7
  6
CONTINUOUS
 70
0
 71
3
 72
11
 73
7
 74
5
 42
0.0000001
 43
0.0000001
 44
0.0000000001
 12
-0.0000110806
 22
0.0258341073
 32
0.0
 13
0.0256445979
 23
0.0
 33
0.0
 40
0.0
 40
0.0
 40
0.0
 40
0.0
 40
0.2333520847
 40
0.4768600876
 40
0.7354120818
 40
1.0
 40
1.0
 40
1.0
 40
1.0
 10
5.5713057577
 20
3.8775585278
 30
0.0
 10
5.5713048958
 20
3.8795680087
 30
0.0
 10
5.572277535
 20
3.883670415
 30
0.0
 10
5.57624319
 20
3.8887692048
 30
0.0
 10
5.5820318698
 20
3.8921384645
 30
0.0
 10
5.5865440118
 20
3.8929193514
 30
0.0
 10
5.5888057621
 20
3.8929193514
 30
0.0
 11
5.5713057577
 21
3.8775585278
 31
0.0
 11
5.5726396747
 21
3.8833923776
 31
0.0
 11
5.5764169634
 21
3.888365096
 31
0.0
 11
5.5821235964
 21
3.8917410945
 31
0.0
 11
5.5888057621
 21
3.8929193514
 31
0.0
  0
SPLINE
  5
4E7
100
AcDbEntity
  8
126-602_HEX_FEATURES
100
AcDbSpline
 62
7
  6
CONTINUOUS
 70
0
 71
3
 72
8
 73
4
 74
2
 42
0.0000001
 43
0.0000001
 44
0.0000000001
 12
-0.0010315662
 22
-0.0000483333
 32
0.0
 13
-0.0010316974
 23
-0.0000454953
 33
0.0
 40
0.0
 40
0.0
 40
0.0
 40
0.0
 40
1.0
 40
1.0
 40
1.0
 40
1.0
 10
5.6063057621
 20
4.4378088076
 30
0.0
 10
5.6059619067
 20
4.4377926965
 30
0.0
 10
5.6056180287
 20
4.4377770582
 30
0.0
 10
5.6052741296
 20
4.4377618932
 30
0.0
 11
5.6063057621
 21
4.4378088076
 31
0.0
 11
5.6052741296
 21
4.4377618932
 31
0.0
  0
SPLINE
  5
4E8
100
AcDbEntity
  8
126-602_HEX_FEATURES
100
AcDbSpline
 62
7
  6
CONTINUOUS
 70
0
 71
3
 72
9
 73
5
 74
3
 42
0.0000001
 43
0.0000001
 44
0.0000000001
 12
-0.0007056979
 22
-0.0000311195
 32
0.0
 13
-0.0007057561
 23
-0.0000297908
 33
0.0
 40
0.0
 40
0.0
 40
0.0
 40
0.0
 40
0.4058326605
 40
1.0
 40
1.0
 40
1.0
 40
1.0
 10
5.6052741296
 20
4.4377618932
 30
0.0
 10
5.6051786645
 20
4.4377576834
 30
0.0
 10
5.6049434279
 20
4.4377474001
 30
0.0
 10
5.6047081815
 20
4.4377373382
 30
0.0
 10
5.6045684024
 20
4.4377314379
 30
0.0
 11
5.6052741296
 21
4.4377618932
 31
0.0
 11
5.6049877295
 21
4.4377493732
 31
0.0
 11
5.6045684024
 21
4.4377314379
 31
0.0
  0
SPLINE
  5
4E9
100
AcDbEntity
  8
126-602_HEX_FEATURES
100
AcDbSpline
 62
7
  6
CONTINUOUS
 70
0
 71
3
 72
10
 73
6
 74
4
 42
0.0000001
 43
0.0000001
 44
0.0000000001
 12
-0.0157531724
 22
-0.0006649599
 32
0.0
 13
-0.0157671625
 23
0.0
 33
0.0
 40
0.0
 40
0.0
 40
0.0
 40
0.0
 40
0.2121639779
 40
0.5749185448
 40
1.0
 40
1.0
 40
1.0
 40
1.0
 10
5.6045684024
 20
4.4377314379
 30
0.0
 10
5.6034543171
 20
4.4376844111
 30
0.0
 10
5.6004348107
 20
4.4375704402
 30
0.0
 10
5.5951806201
 20
4.4374358097
 30
0.0
 10
5.5910398715
 20
4.4373986091
 30
0.0
 10
5.5888057621
 20
4.4373986091
 30
0.0
 11
5.6045684024
 21
4.4377314379
 31
0.0
 11
5.6012255546
 21
4.4376052732
 31
0.0
 11
5.5955078202
 21
4.437458801
 31
0.0
 11
5.5888057621
 21
4.4373986091
 31
0.0
  0
SPLINE
  5
4EA
100
AcDbEntity
  8
126-602_HEX_FEATURES
100
AcDbSpline
 62
7
  6
CONTINUOUS
 70
0
 71
3
 72
11
 73
7
 74
5
 42
0.0000001
 43
0.0000001
 44
0.0000000001
 12
-0.0000113187
 22
0.0258367916
 32
0.0
 13
0.0256472466
 23
-0.0
 33
0.0
 40
0.0
 40
0.0
 40
0.0
 40
0.0
 40
0.2333515756
 40
0.4768798344
 40
0.7354344623
 40
1.0
 40
1.0
 40
1.0
 40
1.0
 10
6.1653057576
 20
3.8813085278
 30
0.0
 10
6.1653048772
 20
3.8833182132
 30
0.0
 10
6.1662777157
 20
3.8874211288
 30
0.0
 10
6.1702429926
 20
3.8925211354
 30
0.0
 10
6.1760315024
 20
3.8958921216
 30
0.0
 10
6.1805439695
 20
3.896673559
 30
0.0
 10
6.1828057621
 20
3.896673559
 30
0.0
 11
6.1653057576
 21
3.8813085278
 31
0.0
 11
6.1666396767
 21
3.8871429977
 31
0.0
 11
6.1704169553
 21
3.892117186
 31
0.0
 11
6.1761235772
 21
3.8954946807
 31
0.0
 11
6.1828057621
 21
3.896673559
 31
0.0
  0
SPLINE
  5
4EB
100
AcDbEntity
  8
126-602_HEX_FEATURES
100
AcDbSpline
 62
7
  6
CONTINUOUS
 70
0
 71
3
 72
8
 73
4
 74
2
 42
0.0000001
 43
0.0000001
 44
0.0000000001
 12
-0.0010315736
 22
-0.0000493241
 32
0.0
 13
-0.0010317102
 23
-0.0000464283
 33
0.0
 40
0.0
 40
0.0
 40
0.0
 40
0.0
 40
1.0
 40
1.0
 40
1.0
 40
1.0
 10
6.2003057621
 20
4.4303088076
 30
0.0
 10
6.1999619042
 20
4.4302923662
 30
0.0
 10
6.1996180228
 20
4.4302764073
 30
0.0
 10
6.1992741195
 20
4.4302609312
 30
0.0
 11
6.2003057621
 21
4.4303088076
 31
0.0
 11
6.1992741195
 21
4.4302609312
 31
0.0
  0
SPLINE
  5
4EC
100
AcDbEntity
  8
126-602_HEX_FEATURES
100
AcDbSpline
 62
7
  6
CONTINUOUS
 70
0
 71
3
 72
8
 73
4
 74
2
 42
0.0000001
 43
0.0000001
 44
0.0000000001
 12
-0.0002863856
 22
-0.0000128877
 32
0.0
 13
-0.0002863957
 23
-0.0000126645
 33
0.0
 40
0.0
 40
0.0
 40
0.0
 40
0.0
 40
1.0
 40
1.0
 40
1.0
 40
1.0
 10
6.1992741195
 20
4.4302609312
 30
0.0
 10
6.1991786576
 20
4.4302566353
 30
0.0
 10
6.199083194
 20
4.4302523766
 30
0.0
 10
6.1989877288
 20
4.4302481551
 30
0.0
 11
6.1992741195
 21
4.4302609312
 31
0.0
 11
6.1989877288
 21
4.4302481551
 31
0.0
  0
SPLINE
  5
4ED
100
AcDbEntity
  8
126-602_HEX_FEATURES
100
AcDbSpline
 62
7
  6
CONTINUOUS
 70
0
 71
3
 72
8
 73
4
 74
2
 42
0.0000001
 43
0.0000001
 44
0.0000000001
 12
-0.0004193093
 22
-0.000018542
 32
0.0
 13
-0.0004193305
 23
-0.0000180633
 33
0.0
 40
0.0
 40
0.0
 40
0.0
 40
0.0
 40
1.0
 40
1.0
 40
1.0
 40
1.0
 10
6.1989877288
 20
4.4302481551
 30
0.0
 10
6.198847959
 20
4.4302419744
 30
0.0
 10
6.1987081856
 20
4.4302358735
 30
0.0
 10
6.1985684088
 20
4.4302298524
 30
0.0
 11
6.1989877288
 21
4.4302481551
 31
0.0
 11
6.1985684088
 21
4.4302298524
 31
0.0
  0
SPLINE
  5
4EE
100
AcDbEntity
  8
126-602_HEX_FEATURES
100
AcDbSpline
 62
7
  6
CONTINUOUS
 70
0
 71
3
 72
10
 73
6
 74
4
 42
0.0000001
 43
0.0000001
 44
0.0000000001
 12
-0.0157527873
 22
-0.0006785755
 32
0.0
 13
-0.0157673564
 23
-0.0
 33
0.0
 40
0.0
 40
0.0
 40
0.0
 40
0.0
 40
0.2121679894
 40
0.5749224244
 40
1.0
 40
1.0
 40
1.0
 40
1.0
 10
6.1985684088
 20
4.4302298524
 30
0.0
 10
6.1974543297
 20
4.4301818618
 30
0.0
 10
6.1944348529
 20
4.4300655543
 30
0.0
 10
6.1891806613
 20
4.4299281592
 30
0.0
 10
6.1850398786
 20
4.4298901939
 30
0.0
 10
6.1828057621
 20
4.4298901939
 30
0.0
 11
6.1985684088
 21
4.4302298524
 31
0.0
 11
6.1952255551
 21
4.4301011001
 31
0.0
 11
6.1895078302
 21
4.429951622
 31
0.0
 11
6.1828057621
 21
4.4298901939
 31
0.0
  0
SPLINE
  5
4EF
100
AcDbEntity
  8
126-602_HEX_FEATURES
100
AcDbSpline
 62
7
  6
CONTINUOUS
 70
0
 71
3
 72
11
 73
7
 74
5
 42
0.0000001
 43
0.0000001
 44
0.0000000001
 12
-0.0157006922
 22
0.0
 32
0.0
 13
-0.015686293
 23
0.0006728602
 33
0.0
 40
0.0
 40
0.0
 40
0.0
 40
0.0
 40
0.3410259242
 40
0.6511611991
 40
0.8972893205
 40
1.0
 40
1.0
 40
1.0
 40
1.0
 10
6.1828057621
 20
4.4298901939
 30
0.0
 10
6.181020981
 20
4.4298901939
 30
0.0
 10
6.1776130325
 20
4.4299151538
 30
0.0
 10
6.172917945
 20
4.4300151709
 30
0.0
 10
6.1694709988
 20
4.4301297109
 30
0.0
 10
6.1676468298
 20
4.4302039502
 30
0.0
 10
6.1671097799
 20
4.4302269868
 30
0.0
 11
6.1828057621
 21
4.4298901939
 31
0.0
 11
6.1774515625
 21
4.4299293998
 31
0.0
 11
6.1725833281
 21
4.4300330865
 31
0.0
 11
6.1687210775
 21
4.4301614123
 31
0.0
 11
6.1671097799
 21
4.4302269868
 31
0.0
  0
SPLINE
  5
4F0
100
AcDbEntity
  8
126-602_HEX_FEATURES
100
AcDbSpline
 62
7
  6
CONTINUOUS
 70
0
 71
3
 72
9
 73
5
 74
3
 42
0.0000001
 43
0.0000001
 44
0.0000000001
 12
-0.0009428802
 22
0.0000404446
 32
0.0
 13
-0.0009427724
 23
0.0000428643
 33
0.0
 40
0.0
 40
0.0
 40
0.0
 40
0.0
 40
0.9608486459
 40
1.0
 40
1.0
 40
1.0
 40
1.0
 10
6.1671097799
 20
4.4302269868
 30
0.0
 10
6.1668077915
 20
4.4302399405
 30
0.0
 10
6.1664935149
 20
4.4302538097
 30
0.0
 10
6.1661792567
 20
4.430268082
 30
0.0
 10
6.1661669531
 20
4.4302686414
 30
0.0
 11
6.1671097799
 21
4.4302269868
 31
0.0
 11
6.166203864
 21
4.4302669651
 31
0.0
 11
6.1661669531
 21
4.4302686414
 31
0.0
  0
SPLINE
  5
4F1
100
AcDbEntity
  8
126-602_HEX_FEATURES
100
AcDbSpline
 62
7
  6
CONTINUOUS
 70
0
 71
3
 72
8
 73
4
 74
2
 42
0.0000001
 43
0.0000001
 44
0.0000000001
 12
-0.0008612381
 22
0.0000391572
 32
0.0
 13
-0.0008611432
 23
0.0000411749
 33
0.0
 40
0.0
 40
0.0
 40
0.0
 40
0.0
 40
1.0
 40
1.0
 40
1.0
 40
1.0
 10
6.1661669531
 20
4.4302686414
 30
0.0
 10
6.1658798737
 20
4.4302816938
 30
0.0
 10
6.1655928098
 20
4.4302950826
 30
0.0
 10
6.1653057621
 20
4.4303088076
 30
0.0
 11
6.1661669531
 21
4.4302686414
 31
0.0
 11
6.1653057621
 21
4.4303088076
 31
0.0
  0
SPLINE
  5
4F2
100
AcDbEntity
  8
126-602_HEX_FEATURES
100
AcDbSpline
 62
7
  6
CONTINUOUS
 70
0
 71
3
 72
11
 73
7
 74
5
 42
0.0000001
 43
0.0000001
 44
0.0000000001
 12
0.0256470784
 22
0.0
 32
0.0
 13
-0.0000113464
 23
-0.0258360446
 33
0.0
 40
0.0
 40
0.0
 40
0.0
 40
0.0
 40
0.264376258
 40
0.5238311476
 40
0.7663181549
 40
1.0
 40
1.0
 40
1.0
 40
1.0
 10
6.1828057621
 20
3.896673559
 30
0.0
 10
6.1850659216
 20
3.896673559
 30
0.0
 10
6.1895842702
 20
3.8958917888
 30
0.0
 10
6.1953703727
 20
3.8925194738
 30
0.0
 10
6.1993335758
 20
3.8874179737
 30
0.0
 10
6.2003066404
 20
3.8833215852
 30
0.0
 10
6.2003057565
 20
3.8813091137
 30
0.0
 11
6.1828057621
 21
3.896673559
 31
0.0
 11
6.1894832746
 21
3.8954963944
 31
0.0
 11
6.1952084056
 21
3.8921049271
 31
0.0
 11
6.1989680769
 21
3.8871509521
 31
0.0
 11
6.2003057565
 21
3.8813091137
 31
0.0
  0
SPLINE
  5
4F3
100
AcDbEntity
  8
126-602_HEX_FEATURES
100
AcDbSpline
 62
7
  6
CONTINUOUS
 70
0
 71
3
 72
11
 73
7
 74
5
 42
0.0000001
 43
0.0000001
 44
0.0000000001
 12
-0.0157004484
 22
0.0
 32
0.0
 13
-0.0156866215
 23
0.0006593545
 33
0.0
 40
0.0
 40
0.0
 40
0.0
 40
0.0
 40
0.3410316697
 40
0.6511699971
 40
0.8972968857
 40
1.0
 40
1.0
 40
1.0
 40
1.0
 10
5.5888057621
 20
4.4373986091
 30
0.0
 10
5.5870209787
 20
4.4373986091
 30
0.0
 10
5.5836130392
 20
4.4374230665
 30
0.0
 10
5.5789179478
 20
4.4375210714
 30
0.0
 10
5.5754710121
 20
4.4376333083
 30
0.0
 10
5.5736468578
 20
4.4377060552
 30
0.0
 10
5.5731098362
 20
4.4377286278
 30
0.0
 11
5.5888057621
 21
4.4373986091
 31
0.0
 11
5.5834515497
 21
4.4374370263
 31
0.0
 11
5.578583299
 21
4.4375386279
 31
0.0
 11
5.574721043
 21
4.4376643745
 31
0.0
 11
5.5731098362
 21
4.4377286278
 31
0.0
  0
SPLINE
  5
4F4
100
AcDbEntity
  8
126-602_HEX_FEATURES
100
AcDbSpline
 62
7
  6
CONTINUOUS
 70
0
 71
3
 72
9
 73
5
 74
3
 42
0.0000001
 43
0.0000001
 44
0.0000000001
 12
-0.0009429387
 22
0.0000396345
 32
0.0
 13
-0.0009428352
 23
0.0000420062
 33
0.0
 40
0.0
 40
0.0
 40
0.0
 40
0.0
 40
0.9608620617
 40
1.0
 40
1.0
 40
1.0
 40
1.0
 10
5.5731098362
 20
4.4377286278
 30
0.0
 10
5.5728078249
 20
4.4377413222
 30
0.0
 10
5.572493528
 20
4.4377549136
 30
0.0
 10
5.572179249
 20
4.4377689002
 30
0.0
 10
5.5721669487
 20
4.4377694482
 30
0.0
 11
5.5731098362
 21
4.4377286278
 31
0.0
 11
5.5722038495
 21
4.437767806
 31
0.0
 11
5.5721669487
 21
4.4377694482
 31
0.0
  0
SPLINE
  5
4F5
100
AcDbEntity
  8
126-602_HEX_FEATURES
100
AcDbSpline
 62
7
  6
CONTINUOUS
 70
0
 71
3
 72
8
 73
4
 74
2
 42
0.0000001
 43
0.0000001
 44
0.0000000001
 12
-0.0008612319
 22
0.0000383705
 32
0.0
 13
-0.0008611408
 23
0.000040348
 33
0.0
 40
0.0
 40
0.0
 40
0.0
 40
0.0
 40
1.0
 40
1.0
 40
1.0
 40
1.0
 10
5.5721669487
 20
4.4377694482
 30
0.0
 10
5.5718798715
 20
4.4377822384
 30
0.0
 10
5.571592809
 20
4.4377953583
 30
0.0
 10
5.5713057621
 20
4.4378088076
 30
0.0
 11
5.5721669487
 21
4.4377694482
 31
0.0
 11
5.5713057621
 21
4.4378088076
 31
0.0
  0
SPLINE
  5
4F6
100
AcDbEntity
  8
126-602_HEX_FEATURES
100
AcDbSpline
 62
7
  6
CONTINUOUS
 70
0
 71
3
 72
11
 73
7
 74
5
 42
0.0000001
 43
0.0000001
 44
0.0000000001
 12
0.0256443449
 22
0.0
 32
0.0
 13
-0.0000120963
 23
-0.0258341041
 33
0.0
 40
0.0
 40
0.0
 40
0.0
 40
0.0
 40
0.2637121559
 40
0.5223867667
 40
0.7661476811
 40
1.0
 40
1.0
 40
1.0
 40
1.0
 10
5.5888057621
 20
3.8929193514
 30
0.0
 10
5.5910600039
 20
3.8929193514
 30
0.0
 10
5.5955652244
 20
3.8921422916
 30
0.0
 10
5.6013541861
 20
3.8887821392
 30
0.0
 10
5.605330065
 20
3.8836812743
 30
0.0
 10
5.6063067
 20
3.8795728758
 30
0.0
 10
5.6063057571
 20
3.8775590874
 30
0.0
 11
5.5888057621
 21
3.8929193514
 31
0.0
 11
5.5954664407
 21
3.89174896
 31
0.0
 11
5.6011797398
 21
3.8883781917
 31
0.0
 11
5.6049661691
 21
3.8834043535
 31
0.0
 11
5.6063057571
 21
3.8775590874
 31
0.0
  0
SPLINE
  5
4F7
100
AcDbEntity
  8
126-602_HEX_FEATURES
100
AcDbSpline
 62
7
  6
CONTINUOUS
 70
0
 71
3
 72
11
 73
7
 74
5
 42
0.0000001
 43
0.0000001
 44
0.0000000001
 12
-0.0253855526
 22
0.0
 32
0.0
 13
-0.0000112032
 23
0.0255731636
 33
0.0
 40
0.0
 40
0.0
 40
0.0
 40
0.0
 40
0.2660022682
 40
0.5244161487
 40
0.7661048673
 40
1.0
 40
1.0
 40
1.0
 40
1.0
 10
6.1828057621
 20
3.8663626699
 30
0.0
 10
6.1805548905
 20
3.8663626699
 30
0.0
 10
6.1760808453
 20
3.8670870865
 30
0.0
 10
6.1702770403
 20
3.8702771011
 30
0.0
 10
6.1662634605
 20
3.8752565718
 30
0.0
 10
6.165306631
 20
3.879314715
 30
0.0
 10
6.1653057576
 20
3.8813085278
 30
0.0
 11
6.1828057621
 21
3.8663626699
 31
0.0
 11
6.17614506
 21
3.8674730081
 31
0.0
 11
6.1704317617
 21
3.8706966007
 31
0.0
 11
6.1666453515
 21
3.8755242556
 31
0.0
 11
6.1653057576
 21
3.8813085278
 31
0.0
  0
SPLINE
  5
4F8
100
AcDbEntity
  8
126-602_HEX_FEATURES
100
AcDbSpline
 62
7
  6
CONTINUOUS
 70
0
 71
3
 72
11
 73
7
 74
5
 42
0.0000001
 43
0.0000001
 44
0.0000000001
 12
-0.0253881576
 22
0.0
 32
0.0
 13
-0.0000109698
 23
0.0255757721
 33
0.0
 40
0.0
 40
0.0
 40
0.0
 40
0.0
 40
0.2659779633
 40
0.5243940854
 40
0.7661048201
 40
1.0
 40
1.0
 40
1.0
 40
1.0
 10
5.5888057621
 20
3.8626084623
 30
0.0
 10
5.5865548652
 20
3.8626084623
 30
0.0
 10
5.5820805169
 20
3.8633334011
 30
0.0
 10
5.5762768499
 20
3.8665251403
 30
0.0
 10
5.5722636483
 20
3.8715058515
 30
0.0
 10
5.5713066129
 20
3.8755645112
 30
0.0
 10
5.5713057577
 20
3.8775585278
 30
0.0
 11
5.5888057621
 21
3.8626084623
 31
0.0
 11
5.5821450834
 21
3.8637194027
 31
0.0
 11
5.5764317843
 21
3.8669444793
 31
0.0
 11
5.5726453551
 21
3.8717736297
 31
0.0
 11
5.5713057577
 21
3.8775585278
 31
0.0
  0
SPLINE
  5
4F9
100
AcDbEntity
  8
126-602_HEX_FEATURES
100
AcDbSpline
 62
7
  6
CONTINUOUS
 70
0
 71
3
 72
11
 73
7
 74
5
 42
0.0000001
 43
0.0000001
 44
0.0000000001
 12
-0.0000119756
 22
-0.0255762959
 32
0.0
 13
-0.0253884304
 23
-0.0
 33
0.0
 40
0.0
 40
0.0
 40
0.0
 40
0.0
 40
0.2333984671
 40
0.4748575084
 40
0.7331415702
 40
1.0
 40
1.0
 40
1.0
 40
1.0
 10
5.6063057571
 20
3.8775590874
 30
0.0
 10
5.6063048254
 20
3.8755692647
 30
0.0
 10
5.6053517654
 20
3.8715165864
 30
0.0
 10
5.601348961
 20
3.8665376128
 30
0.0
 10
5.5955452948
 20
3.86333691
 30
0.0
 10
5.5910641343
 20
3.8626084623
 30
0.0
 10
5.5888057621
 20
3.8626084623
 30
0.0
 11
5.6063057571
 21
3.8775590874
 31
0.0
 11
5.6049718494
 21
3.8717853598
 31
0.0
 11
5.6011945607
 21
3.8669570834
 31
0.0
 11
5.5954879278
 21
3.8637268841
 31
0.0
 11
5.5888057621
 21
3.8626084623
 31
0.0
  0
SPLINE
  5
4FA
100
AcDbEntity
  8
126-602_HEX_FEATURES
100
AcDbSpline
 62
7
  6
CONTINUOUS
 70
0
 71
3
 72
11
 73
7
 74
5
 42
0.0000001
 43
0.0000001
 44
0.0000000001
 12
-0.0000112309
 22
-0.0255730283
 32
0.0
 13
-0.0253859859
 23
0.0
 33
0.0
 40
0.0
 40
0.0
 40
0.0
 40
0.0
 40
0.2322239063
 40
0.4735231924
 40
0.7324008799
 40
1.0
 40
1.0
 40
1.0
 40
1.0
 10
6.2003057565
 20
3.8813091137
 30
0.0
 10
6.2003048872
 20
3.8793295575
 30
0.0
 10
6.1993599063
 20
3.8752889192
 30
0.0
 10
6.1953715701
 20
3.8703069053
 30
0.0
 10
6.1895624634
 20
3.8670943833
 30
0.0
 10
6.1850701846
 20
3.8663626699
 30
0.0
 10
6.1828057621
 20
3.8663626699
 30
0.0
 11
6.2003057565
 21
3.8813091137
 31
0.0
 11
6.1989851171
 21
3.8755634793
 31
0.0
 11
6.1952204385
 21
3.8707312522
 31
0.0
 11
6.1895054116
 21
3.8674865825
 31
0.0
 11
6.1828057621
 21
3.8663626699
 31
0.0
  0
SPLINE
  5
4FB
100
AcDbEntity
  8
0
100
AcDbSpline
 62
7
  6
CONTINUOUS
 70
0
 71
3
 72
14
 73
10
 74
8
 42
0.0000001
 43
0.0000001
 44
0.0000000001
 12
-0.1046826132
 22
0.2029792199
 32
0.0
 13
0.1046826132
 23
0.2029792199
 33
0.0
 40
0.0
 40
0.0
 40
0.0
 40
0.0
 40
0.1530438599
 40
0.2956043717
 40
0.4324922324
 40
0.5675957362
 40
0.7044780411
 40
0.8469906498
 40
1.0
 40
1.0
 40
1.0
 40
1.0
 10
4.5288694279
 20
3.5762063351
 30
0.0
 10
4.5235290842
 20
3.5865612429
 30
0.0
 10
4.5141240908
 20
3.6070609712
 30
0.0
 10
4.5040824727
 20
3.6385164955
 30
0.0
 10
4.4989387626
 20
3.6697841643
 30
0.0
 10
4.4989404557
 20
3.7010531885
 30
0.0
 10
4.5040865362
 20
3.7323162935
 30
0.0
 10
4.5141277186
 20
3.7637648085
 30
0.0
 10
4.5235302884
 20
3.7842587072
 30
0.0
 10
4.5288694279
 20
3.7946112801
 30
0.0
 11
4.5288694279
 21
3.5762063351
 31
0.0
 11
4.5144718292
 21
3.608055976
 31
0.0
 11
4.504736957
 21
3.6391250272
 31
0.0
 11
4.4997717232
 21
3.669991141
 31
0.0
 11
4.499773354
 21
3.7008465491
 31
0.0
 11
4.5047413429
 21
3.7317109344
 31
0.0
 11
4.5144746653
 21
3.7627690065
 31
0.0
 11
4.5288694279
 21
3.7946112801
 31
0.0
  0
SPLINE
  5
4FC
100
AcDbEntity
  8
0
100
AcDbSpline
 62
7
  6
CONTINUOUS
 70
0
 71
3
 72
10
 73
6
 74
4
 42
0.0000001
 43
0.0000001
 44
0.0000000001
 12
-0.0269069688
 22
0.0821754212
 32
0.0
 13
-0.057604196
 23
0.0644867538
 33
0.0
 40
0.0
 40
0.0
 40
0.0
 40
0.0
 40
0.2969375899
 40
0.6260768679
 40
1.0
 40
1.0
 40
1.0
 40
1.0
 10
4.9638057621
 20
3.721712974
 30
0.0
 10
4.9611425319
 20
3.7298466312
 30
0.0
 10
4.9538528488
 20
3.7464687872
 30
0.0
 10
4.9383487399
 20
3.7708571768
 30
0.0
 10
4.9254856092
 20
3.7865735838
 30
0.0
 10
4.9183057621
 20
3.7946112801
 30
0.0
 11
4.9638057621
 21
3.721712974
 31
0.0
 11
4.9536840783
 21
3.7453094586
 31
0.0
 11
4.9386129017
 21
3.7694515309
 31
0.0
 11
4.9183057621
 21
3.7946112801
 31
0.0
  0
SPLINE
  5
4FD
100
AcDbEntity
  8
0
100
AcDbSpline
 62
7
  6
CONTINUOUS
 70
0
 71
3
 72
10
 73
6
 74
4
 42
0.0000001
 43
0.0000001
 44
0.0000000001
 12
0.0576042823
 22
0.0644868504
 32
0.0
 13
0.0269070091
 23
0.0821755443
 33
0.0
 40
0.0
 40
0.0
 40
0.0
 40
0.0
 40
0.3754689865
 40
0.7043414437
 40
1.0
 40
1.0
 40
1.0
 40
1.0
 10
4.9183057621
 20
3.5762063351
 30
0.0
 10
4.9255153026
 20
3.5842772726
 30
0.0
 10
4.9383995019
 20
3.6000248547
 30
0.0
 10
4.9538895241
 20
3.6244225839
 30
0.0
 10
4.9611539996
 20
3.6410060069
 30
0.0
 10
4.9638057621
 20
3.6491046412
 30
0.0
 11
4.9183057621
 21
3.5762063351
 31
0.0
 11
4.9386909337
 21
3.6014749387
 31
0.0
 11
4.9537358516
 21
3.6256062499
 31
0.0
 11
4.9638057621
 21
3.6491046412
 31
0.0
  0
SPLINE
  5
4FE
100
AcDbEntity
  8
0
100
AcDbSpline
 62
7
  6
CONTINUOUS
 70
0
 71
3
 72
14
 73
10
 74
8
 42
0.0000001
 43
0.0000001
 44
0.0000000001
 12
-0.1103507163
 22
0.4279393037
 32
0.0
 13
0.1103507163
 23
0.4279393037
 33
0.0
 40
0.0
 40
0.0
 40
0.0
 40
0.0
 40
0.1477720816
 40
0.2900907235
 40
0.430227046
 40
0.569863817
 40
0.7099928421
 40
0.8522618536
 40
1.0
 40
1.0
 40
1.0
 40
1.0
 10
4.5288694279
 20
3.8459038626
 30
0.0
 10
4.5234338429
 20
3.8669830232
 30
0.0
 10
4.5139184908
 20
3.9086770621
 30
0.0
 10
4.5039914074
 20
3.9713257011
 30
0.0
 10
4.4989368646
 20
4.033365136
 30
0.0
 10
4.4989385233
 20
4.095291597
 30
0.0
 10
4.5039954412
 20
4.1573224034
 30
0.0
 10
4.5139222166
 20
4.2199574788
 30
0.0
 10
4.5234350912
 20
4.2616394328
 30
0.0
 10
4.5288694279
 20
4.2827137526
 30
0.0
 11
4.5288694279
 21
3.8459038626
 31
0.0
 11
4.5144718292
 21
3.9096031444
 31
0.0
 11
4.504736957
 21
3.9717412468
 31
0.0
 11
4.4997717232
 21
4.0334734745
 31
0.0
 11
4.499773354
 21
4.0951842907
 31
0.0
 11
4.5047413429
 21
4.1569130613
 31
0.0
 11
4.5144746653
 21
4.2190292053
 31
0.0
 11
4.5288694279
 21
4.2827137526
 31
0.0
  0
SPLINE
  5
4FF
100
AcDbEntity
  8
0
100
AcDbSpline
 62
7
  6
CONTINUOUS
 70
0
 71
3
 72
10
 73
6
 74
4
 42
0.0000001
 43
0.0000001
 44
0.0000000001
 12
-0.0247373957
 22
0.1510988417
 32
0.0
 13
-0.0624397533
 23
0.1398001285
 33
0.0
 40
0.0
 40
0.0
 40
0.0
 40
0.0
 40
0.3152377815
 40
0.6455981143
 40
1.0
 40
1.0
 40
1.0
 40
1.0
 10
4.9638057621
 20
4.1369171405
 30
0.0
 10
4.9612063748
 20
4.152794495
 30
0.0
 10
4.9542168103
 20
4.1850565702
 30
0.0
 10
4.9388657225
 20
4.2337897213
 30
0.0
 10
4.9256820175
 20
4.2661986095
 30
0.0
 10
4.9183057621
 20
4.2827137526
 30
0.0
 11
4.9638057621
 21
4.1369171405
 31
0.0
 11
4.9536840783
 21
4.1841101095
 31
0.0
 11
4.9386129017
 21
4.2323942541
 31
0.0
 11
4.9183057621
 21
4.2827137526
 31
0.0
  0
SPLINE
  5
500
100
AcDbEntity
  8
0
100
AcDbSpline
 62
7
  6
CONTINUOUS
 70
0
 71
3
 72
10
 73
6
 74
4
 42
0.0000001
 43
0.0000001
 44
0.0000000001
 12
0.0624397721
 22
0.1398001705
 32
0.0
 13
0.0247374031
 23
0.1510988872
 33
0.0
 40
0.0
 40
0.0
 40
0.0
 40
0.0
 40
0.3559110928
 40
0.6860860661
 40
1.0
 40
1.0
 40
1.0
 40
1.0
 10
4.9183057621
 20
3.8459038626
 30
0.0
 10
4.9257134312
 20
3.8624893398
 30
0.0
 10
4.9389181563
 20
3.8949631592
 30
0.0
 10
4.9542511195
 20
3.9437021129
 30
0.0
 10
4.9612172902
 20
3.9758897927
 30
0.0
 10
4.9638057621
 20
3.9917004747
 30
0.0
 11
4.9183057621
 21
3.8459038626
 31
0.0
 11
4.9386909337
 21
3.8964410698
 31
0.0
 11
4.9537358516
 21
3.9447036921
 31
0.0
 11
4.9638057621
 21
3.9917004747
 31
0.0
  0
SPLINE
  5
501
100
AcDbEntity
  8
0
100
AcDbSpline
 62
7
  6
CONTINUOUS
 70
0
 71
3
 72
14
 73
10
 74
8
 42
0.0000001
 43
0.0000001
 44
0.0000000001
 12
-0.1046826132
 22
0.2029792199
 32
0.0
 13
0.1046826132
 23
0.2029792199
 33
0.0
 40
0.0
 40
0.0
 40
0.0
 40
0.0
 40
0.1530438599
 40
0.2956043717
 40
0.4324922324
 40
0.5675957362
 40
0.7044780411
 40
0.8469906498
 40
1.0
 40
1.0
 40
1.0
 40
1.0
 10
4.5288694279
 20
4.3340063351
 30
0.0
 10
4.5235290842
 20
4.3443612429
 30
0.0
 10
4.5141240908
 20
4.3648609712
 30
0.0
 10
4.5040824727
 20
4.3963164955
 30
0.0
 10
4.4989387626
 20
4.4275841643
 30
0.0
 10
4.4989404557
 20
4.4588531885
 30
0.0
 10
4.5040865362
 20
4.4901162935
 30
0.0
 10
4.5141277186
 20
4.5215648085
 30
0.0
 10
4.5235302884
 20
4.5420587072
 30
0.0
 10
4.5288694279
 20
4.5524112801
 30
0.0
 11
4.5288694279
 21
4.3340063351
 31
0.0
 11
4.5144718292
 21
4.365855976
 31
0.0
 11
4.504736957
 21
4.3969250272
 31
0.0
 11
4.4997717232
 21
4.427791141
 31
0.0
 11
4.499773354
 21
4.4586465491
 31
0.0
 11
4.5047413429
 21
4.4895109344
 31
0.0
 11
4.5144746653
 21
4.5205690065
 31
0.0
 11
4.5288694279
 21
4.5524112801
 31
0.0
  0
SPLINE
  5
502
100
AcDbEntity
  8
0
100
AcDbSpline
 62
7
  6
CONTINUOUS
 70
0
 71
3
 72
10
 73
6
 74
4
 42
0.0000001
 43
0.0000001
 44
0.0000000001
 12
-0.0269069688
 22
0.0821754212
 32
0.0
 13
-0.057604196
 23
0.0644867538
 33
0.0
 40
0.0
 40
0.0
 40
0.0
 40
0.0
 40
0.2969375899
 40
0.6260768679
 40
1.0
 40
1.0
 40
1.0
 40
1.0
 10
4.9638057621
 20
4.479512974
 30
0.0
 10
4.9611425319
 20
4.4876466312
 30
0.0
 10
4.9538528488
 20
4.5042687872
 30
0.0
 10
4.9383487399
 20
4.5286571768
 30
0.0
 10
4.9254856092
 20
4.5443735838
 30
0.0
 10
4.9183057621
 20
4.5524112801
 30
0.0
 11
4.9638057621
 21
4.479512974
 31
0.0
 11
4.9536840783
 21
4.5031094586
 31
0.0
 11
4.9386129017
 21
4.5272515309
 31
0.0
 11
4.9183057621
 21
4.5524112801
 31
0.0
  0
SPLINE
  5
503
100
AcDbEntity
  8
0
100
AcDbSpline
 62
7
  6
CONTINUOUS
 70
0
 71
3
 72
10
 73
6
 74
4
 42
0.0000001
 43
0.0000001
 44
0.0000000001
 12
0.0576042823
 22
0.0644868504
 32
0.0
 13
0.0269070091
 23
0.0821755443
 33
0.0
 40
0.0
 40
0.0
 40
0.0
 40
0.0
 40
0.3754689865
 40
0.7043414437
 40
1.0
 40
1.0
 40
1.0
 40
1.0
 10
4.9183057621
 20
4.3340063351
 30
0.0
 10
4.9255153026
 20
4.3420772726
 30
0.0
 10
4.9383995019
 20
4.3578248547
 30
0.0
 10
4.9538895241
 20
4.3822225839
 30
0.0
 10
4.9611539996
 20
4.3988060069
 30
0.0
 10
4.9638057621
 20
4.4069046412
 30
0.0
 11
4.9183057621
 21
4.3340063351
 31
0.0
 11
4.9386909337
 21
4.3592749387
 31
0.0
 11
4.9537358516
 21
4.3834062499
 31
0.0
 11
4.9638057621
 21
4.4069046412
 31
0.0
  0
ENDSEC
  0
SECTION
  2
OBJECTS
  0
DICTIONARY
  5
C
100
AcDbDictionary
280
0
281
1
  3
ACAD_GROUP
350
D
  3
ACAD_MLINESTYLE
350
17
  3
ACAD_LAYOUT
350
1A
  3
ACAD_PLOTSETTINGS
350
19
  3
ACAD_PLOTSTYLENAME
350
E
  0
DICTIONARY
  5
D
102
{ACAD_REACTORS
330
C
102
}
100
AcDbDictionary
280
0
281
1
  0
ACDBDICTIONARYWDFLT
  5
E
102
{ACAD_REACTORS
330
C
102
}
100
AcDbDictionary
281
1
  3
Normal
350
F
100
AcDbDictionaryWithDefault
340
F
  0
DICTIONARY
  5
17
102
{ACAD_REACTORS
330
C
102
}
100
AcDbDictionary
280
0
281
1
  3
Standard
350
18
  0
DICTIONARY
  5
19
102
{ACAD_REACTORS
330
C
102
}
100
AcDbDictionary
281
1
  0
DICTIONARY
  5
1A
102
{ACAD_REACTORS
330
C
102
}
100
AcDbDictionary
281
1
  3
Layout1
350
1E
  3
Model
350
22
  0
ACDBPLACEHOLDER
  5
F
102
{ACAD_REACTORS
330
E
102
}
  0
MLINESTYLE
  5
18
102
{ACAD_REACTORS
330
17
102
}
100
AcDbMlineStyle
  2
STANDARD
 70
0
  3

 62
256
 51
90.0
 52
90.0
 71
2
 49
0.5
 62
256
  6
BYLAYER
 49
-0.5
 62
256
  6
BYLAYER
  0
LAYOUT
  5
1E
102
{ACAD_REACTORS
330
1A
102
}
100
AcDbPlotSettings
  1

  2

  4

  6

 40
0.0
 41
0.0
 42
0.0
 43
0.0
 44
0.0
 45
0.0
 46
0.0
 47
0.0
 48
0.0
 49
0.0
140
0.0
141
0.0
142
1.0
143
1.0
 70
0
 72
0
 73
0
 74
0
  7

 75
0
147
1.0
148
0.0
149
0.0
100
AcDbLayout
  1
Layout1
 70
0
 71
0
 10
0.0
 20
0.0
 11
0.0
 21
0.0
 12
0.0
 22
0.0
 32
0.0
 14
0.0
 24
0.0
 34
0.0
 15
0.0
 25
0.0
 35
0.0
146
0.0
 13
0.0
 23
0.0
 33
0.0
 16
0.0
 26
0.0
 36
0.0
 17
0.0
 27
0.0
 37
0.0
 76
0
330
1B
331
0
345
0
346
0
  0
LAYOUT
  5
22
102
{ACAD_REACTORS
330
1A
102
}
100
AcDbPlotSettings
  1

  2

  4

  6

 40
0.0
 41
0.0
 42
0.0
 43
0.0
 44
0.0
 45
0.0
 46
0.0
 47
0.0
 48
0.0
 49
0.0
140
0.0
141
0.0
142
1.0
143
1.0
 70
0
 72
0
 73
0
 74
0
  7

 75
0
147
1.0
148
0.0
149
0.0
100
AcDbLayout
  1
Model
 70
0
 71
0
 10
0.0
 20
0.0
 11
0.0
 21
0.0
 12
0.0
 22
0.0
 32
0.0
 14
0.0
 24
0.0
 34
0.0
 15
0.0
 25
0.0
 35
0.0
146
0.0
 13
0.0
 23
0.0
 33
0.0
 16
0.0
 26
0.0
 36
0.0
 17
0.0
 27
0.0
 37
0.0
 76
0
330
1F
331
0
345
0
346
0
  0
ENDSEC
  0
EOF
