999
DXF file: PVHA-LAN.dxf
999
Pro/ENGINEER 2006240 by Parametric Technology Corporation
  0
SECTION
  2
HEADER
  9
$ACADVER
  1
AC1015
  9
$DWGCODEPAGE
  3
ANSI_1252
  9
$EXTMAX
 10
11.6929133858
 20
8.2677165354
 30
0.0
  9
$EXTMIN
 10
0.0
 20
0.0
 30
0.0
  9
$LIMMIN
 10
0.0
 20
0.0
  9
$LIMMAX
 10
11.6929133858
 20
8.2677165354
  9
$VIEWCTR
 10
5.8464566929
 20
4.1338582677
  9
$VIEWSIZE
 40
8.2677165354
  9
$CLAYER
  8
0
  9
$LTSCALE
 40
0.6431102362
  9
$CELTYPE
  6
BYLAYER
  9
$DIMSCALE
 40
1.0
  9
$DIMASZ
 40
0.1875
  9
$DIMEXO
 40
0.0730807087
  9
$DIMDLI
 40
0.4443307087
  9
$DIMEXE
 40
0.2104724409
  9
$DIMCEN
 40
0.1052362205
  9
$DIMLFAC
 40
1.0
  9
$DIMBLK
  1
_CLOSED
  9
$DIMTXT
 40
0.15625
  9
$DIMTOL
 70
0
  9
$DIMLIM
 70
0
  9
$DIMTFAC
 40
1.0
  9
$PDMODE
 70
3
  9
$PDSIZE
 40
0.3125
  9
$HANDSEED
  5
591
  9
$MEASUREMENT
 70
0
  9
$INSUNITS
 70
1
  0
ENDSEC
  0
SECTION
  2
CLASSES
  0
CLASS
  1
ACDBDICTIONARYWDFLT
  2
AcDbDictionaryWithDefault
  3
AutoCAD 2000
 90
0
280
0
281
0
  0
CLASS
  1
ACDBPLACEHOLDER
  2
AcDbPlaceHolder
  3
AutoCAD 2000
 90
0
280
0
281
0
  0
CLASS
  1
LAYOUT
  2
AcDbLayout
  3
AutoCAD 2000
 90
0
280
0
281
0
  0
ENDSEC
  0
SECTION
  2
TABLES
  0
TABLE
  2
VPORT
  5
8
100
AcDbSymbolTable
 70
2
  0
VPORT
  5
1F4
100
AcDbSymbolTableRecord
100
AcDbViewportTableRecord
  2
*ACTIVE
 70
0
 10
0.0
 20
0.0
 11
1.0
 21
1.0
 12
5.8464566929
 22
4.1338582677
 13
0.0
 23
0.0
 14
1.0
 24
1.0
 15
0.0
 25
0.0
 16
0.0
 26
0.0
 36
1.0
 17
0.0
 27
0.0
 37
0.0
 40
8.2677165354
 41
1.4142857143
 42
50.0
 43
0.0
 44
0.0
 50
0.0
 51
0.0
 71
0
 72
100
 73
1
 74
1
 75
0
 76
0
 77
0
 78
0
  0
ENDTAB
  0
TABLE
  2
LTYPE
  5
5
100
AcDbSymbolTable
 70
6
  0
LTYPE
  5
14
100
AcDbSymbolTableRecord
100
AcDbLinetypeTableRecord
  2
BYBLOCK
 70
0
  3

 72
65
 73
0
 40
0.0
  0
LTYPE
  5
15
100
AcDbSymbolTableRecord
100
AcDbLinetypeTableRecord
  2
BYLAYER
 70
0
  3

 72
65
 73
0
 40
0.0
  0
LTYPE
  5
16
100
AcDbSymbolTableRecord
100
AcDbLinetypeTableRecord
  2
CONTINUOUS
 70
64
  3
Solid line
 72
65
 73
0
 40
0.0
  0
LTYPE
  5
1F5
100
AcDbSymbolTableRecord
100
AcDbLinetypeTableRecord
  2
CENTER
 70
64
  3
____ _ ____ _ ____ _ ____ _ ____ _ ____ _ ____
 72
65
 73
4
 40
0.6
 49
0.375
 74
0
 49
-0.075
 74
0
 49
0.075
 74
0
 49
-0.075
 74
0
  0
LTYPE
  5
1F6
100
AcDbSymbolTableRecord
100
AcDbLinetypeTableRecord
  2
HIDDEN
 70
64
  3
- - - - - - - - - - - - - - - - - - - -
 72
65
 73
2
 40
0.2
 49
0.1
 74
0
 49
-0.1
 74
0
  0
LTYPE
  5
1F7
100
AcDbSymbolTableRecord
100
AcDbLinetypeTableRecord
  2
PHANTOM
 70
64
  3
_____ _ _ _____ _ _ _____ _ _ _____
 72
65
 73
6
 40
0.8
 49
0.45
 74
0
 49
-0.05
 74
0
 49
0.1
 74
0
 49
-0.05
 74
0
 49
0.1
 74
0
 49
-0.05
 74
0
  0
LTYPE
  5
1F8
100
AcDbSymbolTableRecord
100
AcDbLinetypeTableRecord
  2
DOT
 70
64
  3
. . . . . . . . . . . . . . . . . . . .
 72
65
 73
2
 40
0.2
 49
0.1
 74
0
 49
-0.1
 74
0
  0
LTYPE
  5
1F9
100
AcDbSymbolTableRecord
100
AcDbLinetypeTableRecord
  2
DASHED
 70
64
  3
- - - - - - - - - - - - - - - - - - - -
 72
65
 73
2
 40
0.2
 49
0.1
 74
0
 49
-0.1
 74
0
  0
ENDTAB
  0
TABLE
  2
LAYER
  5
2
100
AcDbSymbolTable
 70
36
  0
LAYER
  5
10
100
AcDbSymbolTableRecord
100
AcDbLayerTableRecord
  2
0
 70
0
 62
7
  6
CONTINUOUS
370
-3
390
F
  0
LAYER
  5
1FA
100
AcDbSymbolTableRecord
100
AcDbLayerTableRecord
  2
DEFAULT_1
 70
0
 62
7
  6
CENTER
370
-3
390
F
  0
LAYER
  5
1FB
100
AcDbSymbolTableRecord
100
AcDbLayerTableRecord
  2
DEFAULT_2
 70
0
 62
8
  6
HIDDEN
370
-3
390
F
  0
LAYER
  5
1FC
100
AcDbSymbolTableRecord
100
AcDbLayerTableRecord
  2
DEFAULT_3
 70
0
 62
7
  6
PHANTOM
370
-3
390
F
  0
LAYER
  5
1FD
100
AcDbSymbolTableRecord
100
AcDbLayerTableRecord
  2
01_ALL_DTM_PLN
 70
0
 62
7
  6
CONTINUOUS
370
-3
390
F
  0
LAYER
  5
1FE
100
AcDbSymbolTableRecord
100
AcDbLayerTableRecord
  2
01__ASM_ALL_DTM_PLN
 70
0
 62
7
  6
CONTINUOUS
370
-3
390
F
  0
LAYER
  5
1FF
100
AcDbSymbolTableRecord
100
AcDbLayerTableRecord
  2
01__ASM_DEF_DTM_PLN
 70
0
 62
7
  6
CONTINUOUS
370
-3
390
F
  0
LAYER
  5
200
100
AcDbSymbolTableRecord
100
AcDbLayerTableRecord
  2
01___PRT_ALL_DTM_PLN
 70
0
 62
7
  6
CONTINUOUS
370
-3
390
F
  0
LAYER
  5
201
100
AcDbSymbolTableRecord
100
AcDbLayerTableRecord
  2
01___PRT_DEF_DTM_PLN
 70
0
 62
7
  6
CONTINUOUS
370
-3
390
F
  0
LAYER
  5
202
100
AcDbSymbolTableRecord
100
AcDbLayerTableRecord
  2
02_ALL_AXES
 70
0
 62
7
  6
CONTINUOUS
370
-3
390
F
  0
LAYER
  5
203
100
AcDbSymbolTableRecord
100
AcDbLayerTableRecord
  2
02__ASM_ALL_AXES
 70
0
 62
7
  6
CONTINUOUS
370
-3
390
F
  0
LAYER
  5
204
100
AcDbSymbolTableRecord
100
AcDbLayerTableRecord
  2
02___PRT_ALL_AXES
 70
0
 62
7
  6
CONTINUOUS
370
-3
390
F
  0
LAYER
  5
205
100
AcDbSymbolTableRecord
100
AcDbLayerTableRecord
  2
03_ALL_CURVES
 70
0
 62
7
  6
CONTINUOUS
370
-3
390
F
  0
LAYER
  5
206
100
AcDbSymbolTableRecord
100
AcDbLayerTableRecord
  2
03__ASM_ALL_CURVES
 70
0
 62
7
  6
CONTINUOUS
370
-3
390
F
  0
LAYER
  5
207
100
AcDbSymbolTableRecord
100
AcDbLayerTableRecord
  2
03___PRT_ALL_CURVES
 70
0
 62
7
  6
CONTINUOUS
370
-3
390
F
  0
LAYER
  5
208
100
AcDbSymbolTableRecord
100
AcDbLayerTableRecord
  2
04_ALL_DTM_PNT
 70
0
 62
7
  6
CONTINUOUS
370
-3
390
F
  0
LAYER
  5
209
100
AcDbSymbolTableRecord
100
AcDbLayerTableRecord
  2
04__ASM_ALL_DTM_PNT
 70
0
 62
7
  6
CONTINUOUS
370
-3
390
F
  0
LAYER
  5
20A
100
AcDbSymbolTableRecord
100
AcDbLayerTableRecord
  2
04___PRT_ALL_DTM_PNT
 70
0
 62
7
  6
CONTINUOUS
370
-3
390
F
  0
LAYER
  5
20B
100
AcDbSymbolTableRecord
100
AcDbLayerTableRecord
  2
05_ALL_DTM_CSYS
 70
0
 62
7
  6
CONTINUOUS
370
-3
390
F
  0
LAYER
  5
20C
100
AcDbSymbolTableRecord
100
AcDbLayerTableRecord
  2
05__ASM_ALL_DTM_CSYS
 70
0
 62
7
  6
CONTINUOUS
370
-3
390
F
  0
LAYER
  5
20D
100
AcDbSymbolTableRecord
100
AcDbLayerTableRecord
  2
05__ASM_DEF_DTM_CSYS
 70
0
 62
7
  6
CONTINUOUS
370
-3
390
F
  0
LAYER
  5
20E
100
AcDbSymbolTableRecord
100
AcDbLayerTableRecord
  2
05___PRT_ALL_DTM_CSYS
 70
0
 62
7
  6
CONTINUOUS
370
-3
390
F
  0
LAYER
  5
20F
100
AcDbSymbolTableRecord
100
AcDbLayerTableRecord
  2
05___PRT_DEF_DTM_CSYS
 70
0
 62
7
  6
CONTINUOUS
370
-3
390
F
  0
LAYER
  5
210
100
AcDbSymbolTableRecord
100
AcDbLayerTableRecord
  2
06_ALL_SURFS
 70
0
 62
7
  6
CONTINUOUS
370
-3
390
F
  0
LAYER
  5
211
100
AcDbSymbolTableRecord
100
AcDbLayerTableRecord
  2
06__ASM_ALL_SURFS
 70
0
 62
7
  6
CONTINUOUS
370
-3
390
F
  0
LAYER
  5
212
100
AcDbSymbolTableRecord
100
AcDbLayerTableRecord
  2
06___PRT_ALL_SURFS
 70
0
 62
7
  6
CONTINUOUS
370
-3
390
F
  0
LAYER
  5
213
100
AcDbSymbolTableRecord
100
AcDbLayerTableRecord
  2
07__ASM_ALL_SKELETONS
 70
0
 62
7
  6
CONTINUOUS
370
-3
390
F
  0
LAYER
  5
214
100
AcDbSymbolTableRecord
100
AcDbLayerTableRecord
  2
128-006_FEATURES
 70
0
 62
7
  6
CONTINUOUS
370
-3
390
F
  0
LAYER
  5
215
100
AcDbSymbolTableRecord
100
AcDbLayerTableRecord
  2
128-006_REF_GEOMETRY
 70
0
 62
7
  6
CONTINUOUS
370
-3
390
F
  0
LAYER
  5
216
100
AcDbSymbolTableRecord
100
AcDbLayerTableRecord
  2
128-600_FEATURES
 70
0
 62
7
  6
CONTINUOUS
370
-3
390
F
  0
LAYER
  5
217
100
AcDbSymbolTableRecord
100
AcDbLayerTableRecord
  2
128-600_REF_GEOMETRY
 70
0
 62
7
  6
CONTINUOUS
370
-3
390
F
  0
LAYER
  5
218
100
AcDbSymbolTableRecord
100
AcDbLayerTableRecord
  2
128-601_FEATURES
 70
0
 62
7
  6
CONTINUOUS
370
-3
390
F
  0
LAYER
  5
219
100
AcDbSymbolTableRecord
100
AcDbLayerTableRecord
  2
128-601_REF_GEOMETRY
 70
0
 62
7
  6
CONTINUOUS
370
-3
390
F
  0
LAYER
  5
21A
100
AcDbSymbolTableRecord
100
AcDbLayerTableRecord
  2
128-602_FEATURES
 70
0
 62
7
  6
CONTINUOUS
370
-3
390
F
  0
LAYER
  5
21B
100
AcDbSymbolTableRecord
100
AcDbLayerTableRecord
  2
128-602_REF_GEOMETRY
 70
0
 62
7
  6
CONTINUOUS
370
-3
390
F
  0
LAYER
  5
21C
100
AcDbSymbolTableRecord
100
AcDbLayerTableRecord
  2
128-603_FEATURES
 70
0
 62
7
  6
CONTINUOUS
370
-3
390
F
  0
LAYER
  5
21D
100
AcDbSymbolTableRecord
100
AcDbLayerTableRecord
  2
128-603_REF_GEOMETRY
 70
0
 62
7
  6
CONTINUOUS
370
-3
390
F
  0
LAYER
  5
21E
100
AcDbSymbolTableRecord
100
AcDbLayerTableRecord
  2
COPY_GEO_FET
 70
0
 62
7
  6
CONTINUOUS
370
-3
390
F
  0
LAYER
  5
21F
100
AcDbSymbolTableRecord
100
AcDbLayerTableRecord
  2
COSMETIC
 70
0
 62
7
  6
CONTINUOUS
370
-3
390
F
  0
LAYER
  5
220
100
AcDbSymbolTableRecord
100
AcDbLayerTableRecord
  2
COSM_REF
 70
0
 62
7
  6
CONTINUOUS
370
-3
390
F
  0
LAYER
  5
221
100
AcDbSymbolTableRecord
100
AcDbLayerTableRecord
  2
CURVES
 70
0
 62
7
  6
CONTINUOUS
370
-3
390
F
  0
LAYER
  5
222
100
AcDbSymbolTableRecord
100
AcDbLayerTableRecord
  2
CUT_REF_SURF
 70
0
 62
7
  6
CONTINUOUS
370
-3
390
F
  0
LAYER
  5
223
100
AcDbSymbolTableRecord
100
AcDbLayerTableRecord
  2
DATUM
 70
0
 62
7
  6
CONTINUOUS
370
-3
390
F
  0
LAYER
  5
224
100
AcDbSymbolTableRecord
100
AcDbLayerTableRecord
  2
DATUMCURVES
 70
0
 62
7
  6
CONTINUOUS
370
-3
390
F
  0
LAYER
  5
225
100
AcDbSymbolTableRecord
100
AcDbLayerTableRecord
  2
DATUM_PLANES
 70
0
 62
7
  6
CONTINUOUS
370
-3
390
F
  0
LAYER
  5
226
100
AcDbSymbolTableRecord
100
AcDbLayerTableRecord
  2
DIMENSIONS
 70
0
 62
7
  6
CONTINUOUS
370
-3
390
F
  0
LAYER
  5
227
100
AcDbSymbolTableRecord
100
AcDbLayerTableRecord
  2
DRAWINGNOTES
 70
0
 62
7
  6
CONTINUOUS
370
-3
390
F
  0
LAYER
  5
228
100
AcDbSymbolTableRecord
100
AcDbLayerTableRecord
  2
DTM
 70
0
 62
7
  6
CONTINUOUS
370
-3
390
F
  0
LAYER
  5
229
100
AcDbSymbolTableRecord
100
AcDbLayerTableRecord
  2
DTM230
 70
0
 62
7
  6
CONTINUOUS
370
-3
390
F
  0
LAYER
  5
22A
100
AcDbSymbolTableRecord
100
AcDbLayerTableRecord
  2
DTM_500001
 70
0
 62
7
  6
CONTINUOUS
370
-3
390
F
  0
LAYER
  5
22B
100
AcDbSymbolTableRecord
100
AcDbLayerTableRecord
  2
DTM_500002
 70
0
 62
7
  6
CONTINUOUS
370
-3
390
F
  0
LAYER
  5
22C
100
AcDbSymbolTableRecord
100
AcDbLayerTableRecord
  2
DTM_515002
 70
0
 62
7
  6
CONTINUOUS
370
-3
390
F
  0
LAYER
  5
22D
100
AcDbSymbolTableRecord
100
AcDbLayerTableRecord
  2
DTM_525001
 70
0
 62
7
  6
CONTINUOUS
370
-3
390
F
  0
LAYER
  5
22E
100
AcDbSymbolTableRecord
100
AcDbLayerTableRecord
  2
DTM_530-102
 70
0
 62
7
  6
CONTINUOUS
370
-3
390
F
  0
LAYER
  5
22F
100
AcDbSymbolTableRecord
100
AcDbLayerTableRecord
  2
DTM_800001
 70
0
 62
7
  6
CONTINUOUS
370
-3
390
F
  0
LAYER
  5
230
100
AcDbSymbolTableRecord
100
AcDbLayerTableRecord
  2
DTM_BALLHOLDER
 70
0
 62
7
  6
CONTINUOUS
370
-3
390
F
  0
LAYER
  5
231
100
AcDbSymbolTableRecord
100
AcDbLayerTableRecord
  2
DTM_SPRING_RH
 70
0
 62
7
  6
CONTINUOUS
370
-3
390
F
  0
LAYER
  5
232
100
AcDbSymbolTableRecord
100
AcDbLayerTableRecord
  2
DTM_SP_RH_CONSTR
 70
0
 62
7
  6
CONTINUOUS
370
-3
390
F
  0
LAYER
  5
233
100
AcDbSymbolTableRecord
100
AcDbLayerTableRecord
  2
FACE1
 70
0
 62
7
  6
CONTINUOUS
370
-3
390
F
  0
LAYER
  5
234
100
AcDbSymbolTableRecord
100
AcDbLayerTableRecord
  2
FACE2
 70
0
 62
7
  6
CONTINUOUS
370
-3
390
F
  0
LAYER
  5
235
100
AcDbSymbolTableRecord
100
AcDbLayerTableRecord
  2
FACE3
 70
0
 62
7
  6
CONTINUOUS
370
-3
390
F
  0
LAYER
  5
236
100
AcDbSymbolTableRecord
100
AcDbLayerTableRecord
  2
FACE4
 70
0
 62
7
  6
CONTINUOUS
370
-3
390
F
  0
LAYER
  5
237
100
AcDbSymbolTableRecord
100
AcDbLayerTableRecord
  2
GEOMETRICTOLERANCES
 70
0
 62
7
  6
CONTINUOUS
370
-3
390
F
  0
LAYER
  5
238
100
AcDbSymbolTableRecord
100
AcDbLayerTableRecord
  2
LAY0001
 70
0
 62
7
  6
CONTINUOUS
370
-3
390
F
  0
LAYER
  5
239
100
AcDbSymbolTableRecord
100
AcDbLayerTableRecord
  2
PARAMETERDIMENSIONS
 70
0
 62
7
  6
CONTINUOUS
370
-3
390
F
  0
LAYER
  5
23A
100
AcDbSymbolTableRecord
100
AcDbLayerTableRecord
  2
PART
 70
0
 62
7
  6
CONTINUOUS
370
-3
390
F
  0
LAYER
  5
23B
100
AcDbSymbolTableRecord
100
AcDbLayerTableRecord
  2
PLANE
 70
0
 62
7
  6
CONTINUOUS
370
-3
390
F
  0
LAYER
  5
23C
100
AcDbSymbolTableRecord
100
AcDbLayerTableRecord
  2
PROTRUSIONS
 70
0
 62
7
  6
CONTINUOUS
370
-3
390
F
  0
LAYER
  5
23D
100
AcDbSymbolTableRecord
100
AcDbLayerTableRecord
  2
T-8A_CAVITY
 70
0
 62
7
  6
CONTINUOUS
370
-3
390
F
  0
LAYER
  5
23E
100
AcDbSymbolTableRecord
100
AcDbLayerTableRecord
  2
TEXT
 70
0
 62
7
  6
CONTINUOUS
370
-3
390
F
  0
LAYER
  5
23F
100
AcDbSymbolTableRecord
100
AcDbLayerTableRecord
  2
THREAD
 70
0
 62
7
  6
CONTINUOUS
370
-3
390
F
  0
ENDTAB
  0
TABLE
  2
STYLE
  5
3
100
AcDbSymbolTable
 70
1
  0
STYLE
  5
11
100
AcDbSymbolTableRecord
100
AcDbTextStyleTableRecord
  2
STANDARD
 70
0
 40
0.0
 41
0.8
 50
0.0
 71
0
 42
0.2
  3
txt
  4

  0
ENDTAB
  0
TABLE
  2
VIEW
  5
6
100
AcDbSymbolTable
 70
0
  0
ENDTAB
  0
TABLE
  2
UCS
  5
7
100
AcDbSymbolTable
 70
0
  0
ENDTAB
  0
TABLE
  2
APPID
  5
9
100
AcDbSymbolTable
 70
1
  0
APPID
  5
240
100
AcDbSymbolTableRecord
100
AcDbRegAppTableRecord
  2
ACAD
 70
0
  0
ENDTAB
  0
TABLE
  2
BLOCK_RECORD
  5
1
100
AcDbSymbolTable
 70
0
  0
BLOCK_RECORD
  5
1F
100
AcDbSymbolTableRecord
100
AcDbBlockTableRecord
  2
*MODEL_SPACE
  0
BLOCK_RECORD
  5
1B
100
AcDbSymbolTableRecord
100
AcDbBlockTableRecord
  2
*PAPER_SPACE
  0
ENDTAB
  0
TABLE
  2
DIMSTYLE
  5
A
100
AcDbSymbolTable
 70
1
100
AcDbDimStyleTable
 71
0
  0
DIMSTYLE
105
241
100
AcDbSymbolTableRecord
100
AcDbDimStyleTableRecord
  2
STANDARD
 70
0
  3

  4

 40
1.0
 41
0.1875
 42
0.0625
 43
0.38
 44
0.18
 45
0.0
 46
0.0
 47
0.01
 48
0.01
140
0.15625
141
0.09
142
0.0
143
25.4
144
1.0
145
0.0
146
1.0
147
0.09
 71
0.0
 72
0.0
 73
1
 74
1
 75
0
 76
0
 77
0
 78
4
170
0
171
2
172
0
173
0
174
0
175
0
176
0
177
0
178
0
270
2
271
2
272
2
273
2
274
2
275
0
280
0
281
0
282
0
283
1
284
4
285
0
286
0
287
3
288
0
340
11
  0
ENDTAB
  0
ENDSEC
  0
SECTION
  2
BLOCKS
  0
BLOCK
  5
20
100
AcDbEntity
  8
0
100
AcDbBlockBegin
  2
*MODEL_SPACE
 70
0
 10
0.0
 20
0.0
 30
0.0
  3
*MODEL_SPACE
  1

  0
ENDBLK
  5
21
100
AcDbEntity
  8
0
100
AcDbBlockEnd
  0
BLOCK
  5
1C
100
AcDbEntity
  8
0
100
AcDbBlockBegin
  2
*PAPER_SPACE
 70
0
 10
0.0
 20
0.0
 30
0.0
  3
*PAPER_SPACE
  1

  0
ENDBLK
  5
1D
100
AcDbEntity
  8
0
100
AcDbBlockEnd
  0
ENDSEC
  0
SECTION
  2
ENTITIES
  0
LINE
  5
242
100
AcDbEntity
  8
0
100
AcDbLine
 62
7
  6
CONTINUOUS
 10
1.9609641994
 20
4.521879808
 11
1.9609641994
 21
4.2158935572
  0
LINE
  5
243
100
AcDbEntity
  8
03__ASM_ALL_CURVES
100
AcDbLine
 62
40
  6
CONTINUOUS
 10
1.9609641994
 20
4.521879808
 11
1.9609641994
 21
5.4598006826
  0
LINE
  5
244
100
AcDbEntity
  8
0
100
AcDbLine
 62
7
  6
CONTINUOUS
 10
1.9919641994
 20
4.5528866826
 11
1.9919641994
 21
4.1848866826
  0
LINE
  5
245
100
AcDbEntity
  8
03__ASM_ALL_CURVES
100
AcDbLine
 62
40
  6
CONTINUOUS
 10
2.1334341994
 20
5.4310556826
 11
2.1334341994
 21
5.3735656826
  0
LINE
  5
246
100
AcDbEntity
  8
0
100
AcDbLine
 62
7
  6
CONTINUOUS
 10
2.1909641994
 20
4.5528816673
 11
2.1909641994
 21
4.1848916979
  0
LINE
  5
247
100
AcDbEntity
  8
0
100
AcDbLine
 62
7
  6
CONTINUOUS
 10
2.1924641994
 20
4.2077436896
 11
2.1924641994
 21
4.4450102514
  0
LINE
  5
248
100
AcDbEntity
  8
0
100
AcDbLine
 62
7
  6
CONTINUOUS
 10
2.2274641994
 20
4.2077436896
 11
2.2274641994
 21
4.4450102514
  0
LINE
  5
249
100
AcDbEntity
  8
0
100
AcDbLine
 62
7
  6
CONTINUOUS
 10
2.2289641994
 20
4.5528816673
 11
2.2289641994
 21
4.1848916979
  0
LINE
  5
24A
100
AcDbEntity
  8
0
100
AcDbLine
 62
7
  6
CONTINUOUS
 10
2.4619641994
 20
4.1212354975
 11
2.4619641994
 21
4.6165378677
  0
LINE
  5
24B
100
AcDbEntity
  8
0
100
AcDbLine
 62
7
  6
CONTINUOUS
 10
2.5239641994
 20
4.0978866826
 11
2.5239641994
 21
4.6398866826
  0
LINE
  5
24C
100
AcDbEntity
  8
0
100
AcDbLine
 62
7
  6
CONTINUOUS
 10
2.5299641994
 20
4.0978866826
 11
2.5299641994
 21
4.6398866826
  0
LINE
  5
24D
100
AcDbEntity
  8
0
100
AcDbLine
 62
7
  6
CONTINUOUS
 10
2.5354641994
 20
4.1033866826
 11
2.5354641994
 21
4.6343866826
  0
LINE
  5
24E
100
AcDbEntity
  8
0
100
AcDbLine
 62
7
  6
CONTINUOUS
 10
2.5514641994
 20
4.1033866826
 11
2.5514641994
 21
4.6343866826
  0
LINE
  5
24F
100
AcDbEntity
  8
0
100
AcDbLine
 62
7
  6
CONTINUOUS
 10
2.7429641994
 20
4.0978866826
 11
2.7429641994
 21
4.6398866826
  0
LINE
  5
250
100
AcDbEntity
  8
0
100
AcDbLine
 62
7
  6
CONTINUOUS
 10
2.7739641994
 20
3.8368866826
 11
2.7739641994
 21
4.9008866826
  0
LINE
  5
251
100
AcDbEntity
  8
0
100
AcDbLine
 62
7
  6
CONTINUOUS
 10
2.8359641994
 20
3.7748866826
 11
2.8359641994
 21
4.9628866826
  0
LINE
  5
252
100
AcDbEntity
  8
03__ASM_ALL_CURVES
100
AcDbLine
 62
40
  6
CONTINUOUS
 10
3.2472704494
 20
5.5675944326
 11
3.2382876369
 21
5.5556173521
  0
LINE
  5
253
100
AcDbEntity
  8
03__ASM_ALL_CURVES
100
AcDbLine
 62
40
  6
CONTINUOUS
 10
3.2562532619
 20
5.4957319326
 11
3.2382876369
 21
5.4717777663
  0
LINE
  5
254
100
AcDbEntity
  8
0
100
AcDbLine
 62
7
  6
CONTINUOUS
 10
1.9609641994
 20
4.5218866826
 11
1.9919641994
 21
4.5528866826
  0
LINE
  5
255
100
AcDbEntity
  8
0
100
AcDbLine
 62
7
  6
CONTINUOUS
 10
1.9609641994
 20
4.2158866826
 11
1.9919641994
 21
4.1848866826
  0
LINE
  5
256
100
AcDbEntity
  8
03__ASM_ALL_CURVES
100
AcDbLine
 62
40
  6
CONTINUOUS
 10
3.2472704494
 20
5.5795715131
 11
3.2472704494
 21
5.5675944326
  0
LINE
  5
257
100
AcDbEntity
  8
03__ASM_ALL_CURVES
100
AcDbLine
 62
40
  6
CONTINUOUS
 10
3.2562532619
 20
5.5077090174
 11
3.2562532619
 21
5.4957319326
  0
LINE
  5
258
100
AcDbEntity
  8
03__ASM_ALL_CURVES
100
AcDbLine
 62
40
  6
CONTINUOUS
 10
3.3460813869
 20
5.4598006826
 11
3.3460813869
 21
5.4717777663
  0
LINE
  5
259
100
AcDbEntity
  8
03__ASM_ALL_CURVES
100
AcDbLine
 62
40
  6
CONTINUOUS
 10
3.4628579494
 20
5.5556173521
 11
3.4718407619
 21
5.5795715131
  0
LINE
  5
25A
100
AcDbEntity
  8
03__ASM_ALL_CURVES
100
AcDbLine
 62
40
  6
CONTINUOUS
 10
3.5347204494
 20
5.5556173521
 11
3.5257376369
 21
5.5316631826
  0
LINE
  5
25B
100
AcDbEntity
  8
03__ASM_ALL_CURVES
100
AcDbLine
 62
40
  6
CONTINUOUS
 10
3.5347204494
 20
5.5077090174
 11
3.5257376369
 21
5.48375485
  0
LINE
  5
25C
100
AcDbEntity
  8
0
100
AcDbLine
 62
7
  6
CONTINUOUS
 10
2.7429641994
 20
4.0978866826
 11
2.7368694272
 21
4.0873302276
  0
LINE
  5
25D
100
AcDbEntity
  8
0
100
AcDbLine
 62
7
  6
CONTINUOUS
 10
3.4813483733
 20
5.0778866826
 11
3.4299641994
 21
4.9888866826
  0
LINE
  5
25E
100
AcDbEntity
  8
03__ASM_ALL_CURVES
100
AcDbLine
 62
40
  6
CONTINUOUS
 10
3.4718407619
 20
5.5795715131
 11
3.4808235744
 21
5.5915486021
  0
LINE
  5
25F
100
AcDbEntity
  8
03__ASM_ALL_CURVES
100
AcDbLine
 62
40
  6
CONTINUOUS
 10
3.5257376369
 20
5.48375485
 11
3.5167548244
 21
5.4717777663
  0
LINE
  5
260
100
AcDbEntity
  8
03__ASM_ALL_CURVES
100
AcDbLine
 62
40
  6
CONTINUOUS
 10
3.6784454494
 20
5.5675944326
 11
3.6694626369
 21
5.5556173521
  0
LINE
  5
261
100
AcDbEntity
  8
03__ASM_ALL_CURVES
100
AcDbLine
 62
40
  6
CONTINUOUS
 10
3.6874282619
 20
5.4957319326
 11
3.6694626369
 21
5.4717777663
  0
LINE
  5
262
100
AcDbEntity
  8
0
100
AcDbLine
 62
7
  6
CONTINUOUS
 10
2.8359641994
 20
4.9628866826
 11
2.7739641994
 21
4.9008866826
  0
LINE
  5
263
100
AcDbEntity
  8
0
100
AcDbLine
 62
7
  6
CONTINUOUS
 10
2.5669649849
 20
4.6498874682
 11
2.5514641994
 21
4.6343866826
  0
LINE
  5
264
100
AcDbEntity
  8
03__ASM_ALL_CURVES
100
AcDbLine
 62
40
  6
CONTINUOUS
 10
3.1843907619
 20
5.5915486021
 11
3.2023563869
 21
5.6035256826
  0
LINE
  5
265
100
AcDbEntity
  8
03__ASM_ALL_CURVES
100
AcDbLine
 62
40
  6
CONTINUOUS
 10
3.2382876369
 20
5.5556173521
 11
3.2203220119
 21
5.5436402631
  0
LINE
  5
266
100
AcDbEntity
  8
03__ASM_ALL_CURVES
100
AcDbLine
 62
40
  6
CONTINUOUS
 10
3.2382876369
 20
5.4717777663
 11
3.2203220119
 21
5.4598006826
  0
LINE
  5
267
100
AcDbEntity
  8
0
100
AcDbLine
 62
7
  6
CONTINUOUS
 10
2.8359641994
 20
3.7748866826
 11
2.7739641994
 21
3.8368866826
  0
LINE
  5
268
100
AcDbEntity
  8
0
100
AcDbLine
 62
7
  6
CONTINUOUS
 10
2.5669649849
 20
4.087885897
 11
2.5514641994
 21
4.1033866826
  0
LINE
  5
269
100
AcDbEntity
  8
0
100
AcDbLine
 62
7
  6
CONTINUOUS
 10
2.7429641994
 20
4.6398866826
 11
2.7368694272
 21
4.6504431376
  0
LINE
  5
26A
100
AcDbEntity
  8
0
100
AcDbLine
 62
7
  6
CONTINUOUS
 10
3.4299641994
 20
3.7488866826
 11
3.4299641994
 21
4.9888866826
  0
LINE
  5
26B
100
AcDbEntity
  8
0
100
AcDbLine
 62
7
  6
CONTINUOUS
 10
3.4813483733
 20
3.6598866826
 11
3.4813483733
 21
3.6602476837
  0
LINE
  5
26C
100
AcDbEntity
  8
0
100
AcDbLine
 62
7
  6
CONTINUOUS
 10
3.4813483733
 20
3.9949756815
 11
3.4813483733
 21
4.0341586848
  0
LINE
  5
26D
100
AcDbEntity
  8
0
100
AcDbLine
 62
7
  6
CONTINUOUS
 10
3.4813483733
 20
4.7036146804
 11
3.4813483733
 21
4.7427976837
  0
LINE
  5
26E
100
AcDbEntity
  8
0
100
AcDbLine
 62
7
  6
CONTINUOUS
 10
3.4813483733
 20
5.0775256815
 11
3.4813483733
 21
5.0778866826
  0
LINE
  5
26F
100
AcDbEntity
  8
03__ASM_ALL_CURVES
100
AcDbLine
 62
40
  6
CONTINUOUS
 10
3.5347204494
 20
5.5556173521
 11
3.5347204494
 21
5.5077090174
  0
LINE
  5
270
100
AcDbEntity
  8
03__ASM_ALL_CURVES
100
AcDbLine
 62
40
  6
CONTINUOUS
 10
3.7772563869
 20
5.5795715131
 11
3.7682735744
 21
5.5436402631
  0
LINE
  5
271
100
AcDbEntity
  8
03__ASM_ALL_CURVES
100
AcDbLine
 62
40
  6
CONTINUOUS
 10
3.8940329494
 20
5.5556173521
 11
3.9030157619
 21
5.5795715131
  0
LINE
  5
272
100
AcDbEntity
  8
03__ASM_ALL_CURVES
100
AcDbLine
 62
40
  6
CONTINUOUS
 10
3.9658954494
 20
5.5556173521
 11
3.9569126369
 21
5.5316631826
  0
LINE
  5
273
100
AcDbEntity
  8
03__ASM_ALL_CURVES
100
AcDbLine
 62
40
  6
CONTINUOUS
 10
3.9658954494
 20
5.5077090174
 11
3.9569126369
 21
5.48375485
  0
LINE
  5
274
100
AcDbEntity
  8
03__ASM_ALL_CURVES
100
AcDbLine
 62
40
  6
CONTINUOUS
 10
3.7952220119
 20
5.6035256826
 11
3.7772563869
 21
5.5795715131
  0
LINE
  5
275
100
AcDbEntity
  8
03__ASM_ALL_CURVES
100
AcDbLine
 62
40
  6
CONTINUOUS
 10
3.9030157619
 20
5.5795715131
 11
3.9119985744
 21
5.5915486021
  0
LINE
  5
276
100
AcDbEntity
  8
03__ASM_ALL_CURVES
100
AcDbLine
 62
40
  6
CONTINUOUS
 10
3.9569126369
 20
5.48375485
 11
3.9479298244
 21
5.4717777663
  0
LINE
  5
277
100
AcDbEntity
  8
03__ASM_ALL_CURVES
100
AcDbLine
 62
40
  6
CONTINUOUS
 10
4.0467407619
 20
5.5795715131
 11
4.0557235744
 21
5.5915486021
  0
LINE
  5
278
100
AcDbEntity
  8
0
100
AcDbLine
 62
7
  6
CONTINUOUS
 10
2.5354641994
 20
4.1033866826
 11
2.5299641994
 21
4.0978866826
  0
LINE
  5
279
100
AcDbEntity
  8
03__ASM_ALL_CURVES
100
AcDbLine
 62
40
  6
CONTINUOUS
 10
3.4808235744
 20
5.5915486021
 11
3.4987891994
 21
5.6035256826
  0
LINE
  5
27A
100
AcDbEntity
  8
03__ASM_ALL_CURVES
100
AcDbLine
 62
40
  6
CONTINUOUS
 10
3.6155657619
 20
5.5915486021
 11
3.6335313869
 21
5.6035256826
  0
LINE
  5
27B
100
AcDbEntity
  8
03__ASM_ALL_CURVES
100
AcDbLine
 62
40
  6
CONTINUOUS
 10
3.5167548244
 20
5.4717777663
 11
3.4987891994
 21
5.4598006826
  0
LINE
  5
27C
100
AcDbEntity
  8
03__ASM_ALL_CURVES
100
AcDbLine
 62
40
  6
CONTINUOUS
 10
3.6694626369
 20
5.5556173521
 11
3.6514970119
 21
5.5436402631
  0
LINE
  5
27D
100
AcDbEntity
  8
03__ASM_ALL_CURVES
100
AcDbLine
 62
40
  6
CONTINUOUS
 10
3.6694626369
 20
5.4717777663
 11
3.6514970119
 21
5.4598006826
  0
LINE
  5
27E
100
AcDbEntity
  8
03__ASM_ALL_CURVES
100
AcDbLine
 62
40
  6
CONTINUOUS
 10
3.9119985744
 20
5.5915486021
 11
3.9299641994
 21
5.6035256826
  0
LINE
  5
27F
100
AcDbEntity
  8
0
100
AcDbLine
 62
7
  6
CONTINUOUS
 10
3.4813483733
 20
3.6598866826
 11
3.4299641994
 21
3.7488866826
  0
LINE
  5
280
100
AcDbEntity
  8
03__ASM_ALL_CURVES
100
AcDbLine
 62
40
  6
CONTINUOUS
 10
3.6784454494
 20
5.5795715131
 11
3.6784454494
 21
5.5675944326
  0
LINE
  5
281
100
AcDbEntity
  8
03__ASM_ALL_CURVES
100
AcDbLine
 62
40
  6
CONTINUOUS
 10
3.6874282619
 20
5.5077090174
 11
3.6874282619
 21
5.4957319326
  0
LINE
  5
282
100
AcDbEntity
  8
03__ASM_ALL_CURVES
100
AcDbLine
 62
40
  6
CONTINUOUS
 10
3.7682735744
 20
5.5436402631
 11
3.7682735744
 21
5.5196860978
  0
LINE
  5
283
100
AcDbEntity
  8
03__ASM_ALL_CURVES
100
AcDbLine
 62
40
  6
CONTINUOUS
 10
4.0377579494
 20
5.5556173521
 11
4.0467407619
 21
5.5795715131
  0
LINE
  5
284
100
AcDbEntity
  8
03__ASM_ALL_CURVES
100
AcDbLine
 62
40
  6
CONTINUOUS
 10
4.1096204494
 20
5.5556173521
 11
4.1006376369
 21
5.5316631826
  0
LINE
  5
285
100
AcDbEntity
  8
03__ASM_ALL_CURVES
100
AcDbLine
 62
40
  6
CONTINUOUS
 10
4.1096204494
 20
5.5077090174
 11
4.1006376369
 21
5.48375485
  0
LINE
  5
286
100
AcDbEntity
  8
03__ASM_ALL_CURVES
100
AcDbLine
 62
40
  6
CONTINUOUS
 10
4.1006376369
 20
5.48375485
 11
4.0916548244
 21
5.4717777663
  0
LINE
  5
287
100
AcDbEntity
  8
03__ASM_ALL_CURVES
100
AcDbLine
 62
40
  6
CONTINUOUS
 10
4.3252079494
 20
5.5795715131
 11
4.3341907619
 21
5.5915486021
  0
LINE
  5
288
100
AcDbEntity
  8
03__ASM_ALL_CURVES
100
AcDbLine
 62
40
  6
CONTINUOUS
 10
4.3162251369
 20
5.5077090174
 11
4.3341907619
 21
5.5316631826
  0
LINE
  5
289
100
AcDbEntity
  8
03__ASM_ALL_CURVES
100
AcDbLine
 62
40
  6
CONTINUOUS
 10
4.3970704494
 20
5.5675944326
 11
4.3880876369
 21
5.5556173521
  0
LINE
  5
28A
100
AcDbEntity
  8
03__ASM_ALL_CURVES
100
AcDbLine
 62
40
  6
CONTINUOUS
 10
4.0557235744
 20
5.5915486021
 11
4.0736891994
 21
5.6035256826
  0
LINE
  5
28B
100
AcDbEntity
  8
03__ASM_ALL_CURVES
100
AcDbLine
 62
40
  6
CONTINUOUS
 10
3.9479298244
 20
5.4717777663
 11
3.9299641994
 21
5.4598006826
  0
LINE
  5
28C
100
AcDbEntity
  8
03__ASM_ALL_CURVES
100
AcDbLine
 62
40
  6
CONTINUOUS
 10
4.0916548244
 20
5.4717777663
 11
4.0736891994
 21
5.4598006826
  0
LINE
  5
28D
100
AcDbEntity
  8
03__ASM_ALL_CURVES
100
AcDbLine
 62
40
  6
CONTINUOUS
 10
4.3341907619
 20
5.5915486021
 11
4.3521563869
 21
5.6035256826
  0
LINE
  5
28E
100
AcDbEntity
  8
03__ASM_ALL_CURVES
100
AcDbLine
 62
40
  6
CONTINUOUS
 10
3.5257376369
 20
5.5316631826
 11
3.4987891994
 21
5.5196860978
  0
LINE
  5
28F
100
AcDbEntity
  8
03__ASM_ALL_CURVES
100
AcDbLine
 62
40
  6
CONTINUOUS
 10
3.9569126369
 20
5.5316631826
 11
3.9299641994
 21
5.5196860978
  0
LINE
  5
290
100
AcDbEntity
  8
0
100
AcDbLine
 62
7
  6
CONTINUOUS
 10
2.5354641994
 20
4.6343866826
 11
2.5299641994
 21
4.6398866826
  0
LINE
  5
291
100
AcDbEntity
  8
03__ASM_ALL_CURVES
100
AcDbLine
 62
40
  6
CONTINUOUS
 10
3.9658954494
 20
5.5556173521
 11
3.9658954494
 21
5.5077090174
  0
LINE
  5
292
100
AcDbEntity
  8
03__ASM_ALL_CURVES
100
AcDbLine
 62
40
  6
CONTINUOUS
 10
4.1096204494
 20
5.5556173521
 11
4.1096204494
 21
5.5077090174
  0
LINE
  5
293
100
AcDbEntity
  8
0
100
AcDbLine
 62
7
  6
CONTINUOUS
 10
4.1613120762
 20
3.6598866826
 11
4.1613120762
 21
5.0778866826
  0
LINE
  5
294
100
AcDbEntity
  8
03__ASM_ALL_CURVES
100
AcDbLine
 62
40
  6
CONTINUOUS
 10
4.2084313869
 20
5.4598006826
 11
4.2084313869
 21
5.4717777663
  0
LINE
  5
295
100
AcDbEntity
  8
0
100
AcDbLine
 62
7
  6
CONTINUOUS
 10
4.2109641994
 20
3.5738866826
 11
4.2109641994
 21
5.1638866826
  0
LINE
  5
296
100
AcDbEntity
  8
0
100
AcDbLine
 62
7
  6
CONTINUOUS
 10
4.2109641994
 20
5.1638866826
 11
4.1613120762
 21
5.0778866826
  0
LINE
  5
297
100
AcDbEntity
  8
03__ASM_ALL_CURVES
100
AcDbLine
 62
40
  6
CONTINUOUS
 10
4.4060532619
 20
5.4957319326
 11
4.3880876369
 21
5.4717777663
  0
LINE
  5
298
100
AcDbEntity
  8
03__ASM_ALL_CURVES
100
AcDbLine
 62
40
  6
CONTINUOUS
 10
4.4689329494
 20
5.5795715131
 11
4.4779157619
 21
5.5915486021
  0
LINE
  5
299
100
AcDbEntity
  8
03__ASM_ALL_CURVES
100
AcDbLine
 62
40
  6
CONTINUOUS
 10
4.4958813869
 20
5.5196860978
 11
4.4779157619
 21
5.4957319326
  0
LINE
  5
29A
100
AcDbEntity
  8
03__ASM_ALL_CURVES
100
AcDbLine
 62
40
  6
CONTINUOUS
 10
4.5407954494
 20
5.5556173521
 11
4.5318126369
 21
5.5436402631
  0
LINE
  5
29B
100
AcDbEntity
  8
03__ASM_ALL_CURVES
100
AcDbLine
 62
40
  6
CONTINUOUS
 10
4.6575720119
 20
5.48375485
 11
4.6396063869
 21
5.4598006826
  0
LINE
  5
29C
100
AcDbEntity
  8
03__ASM_ALL_CURVES
100
AcDbLine
 62
40
  6
CONTINUOUS
 10
4.3341907619
 20
5.5316631826
 11
4.3521563869
 21
5.5436402631
  0
LINE
  5
29D
100
AcDbEntity
  8
03__ASM_ALL_CURVES
100
AcDbLine
 62
40
  6
CONTINUOUS
 10
4.3880876369
 20
5.5556173521
 11
4.3701220119
 21
5.5436402631
  0
LINE
  5
29E
100
AcDbEntity
  8
03__ASM_ALL_CURVES
100
AcDbLine
 62
40
  6
CONTINUOUS
 10
4.4779157619
 20
5.5915486021
 11
4.4958813869
 21
5.6035256826
  0
LINE
  5
29F
100
AcDbEntity
  8
03__ASM_ALL_CURVES
100
AcDbLine
 62
40
  6
CONTINUOUS
 10
4.3880876369
 20
5.4717777663
 11
4.3701220119
 21
5.4598006826
  0
LINE
  5
2A0
100
AcDbEntity
  8
03__ASM_ALL_CURVES
100
AcDbLine
 62
40
  6
CONTINUOUS
 10
4.5318126369
 20
5.5436402631
 11
4.4958813869
 21
5.5196860978
  0
LINE
  5
2A1
100
AcDbEntity
  8
03__ASM_ALL_CURVES
100
AcDbLine
 62
40
  6
CONTINUOUS
 10
4.1006376369
 20
5.5316631826
 11
4.0736891994
 21
5.5196860978
  0
LINE
  5
2A2
100
AcDbEntity
  8
03__ASM_ALL_CURVES
100
AcDbLine
 62
40
  6
CONTINUOUS
 10
4.5783766885
 20
3.0786029326
 11
4.5918509073
 21
3.0696201222
  0
LINE
  5
2A3
100
AcDbEntity
  8
03__ASM_ALL_CURVES
100
AcDbLine
 62
40
  6
CONTINUOUS
 10
4.6929075479
 20
3.0786029326
 11
4.7063817666
 21
3.0696201222
  0
LINE
  5
2A4
100
AcDbEntity
  8
03__ASM_ALL_CURVES
100
AcDbLine
 62
40
  6
CONTINUOUS
 10
4.5918509073
 20
3.0696201222
 11
4.605325126
 21
3.0516544951
  0
LINE
  5
2A5
100
AcDbEntity
  8
03__ASM_ALL_CURVES
100
AcDbLine
 62
40
  6
CONTINUOUS
 10
4.7063817666
 20
3.0696201222
 11
4.713118876
 21
3.0606373055
  0
LINE
  5
2A6
100
AcDbEntity
  8
03__ASM_ALL_CURVES
100
AcDbLine
 62
40
  6
CONTINUOUS
 10
4.5952194601
 20
3.2349038722
 11
4.6019565695
 21
3.2259210555
  0
LINE
  5
2A7
100
AcDbEntity
  8
03__ASM_ALL_CURVES
100
AcDbLine
 62
40
  6
CONTINUOUS
 10
4.6625905539
 20
3.1450757454
 11
4.6491163351
 21
3.1630413701
  0
LINE
  5
2A8
100
AcDbEntity
  8
0
100
AcDbLine
 62
7
  6
CONTINUOUS
 10
4.2109641994
 20
3.5738866826
 11
4.1613120762
 21
3.6598866826
  0
LINE
  5
2A9
100
AcDbEntity
  8
03__ASM_ALL_CURVES
100
AcDbLine
 62
40
  6
CONTINUOUS
 10
3.4718407619
 20
5.5316631826
 11
3.4628579494
 21
5.5556173521
  0
LINE
  5
2AA
100
AcDbEntity
  8
03__ASM_ALL_CURVES
100
AcDbLine
 62
40
  6
CONTINUOUS
 10
3.5257376369
 20
5.5795715131
 11
3.5347204494
 21
5.5556173521
  0
LINE
  5
2AB
100
AcDbEntity
  8
03__ASM_ALL_CURVES
100
AcDbLine
 62
40
  6
CONTINUOUS
 10
3.7682735744
 20
5.5196860978
 11
3.7772563869
 21
5.48375485
  0
LINE
  5
2AC
100
AcDbEntity
  8
03__ASM_ALL_CURVES
100
AcDbLine
 62
40
  6
CONTINUOUS
 10
4.3162251369
 20
5.4957319326
 11
4.3162251369
 21
5.5077090174
  0
LINE
  5
2AD
100
AcDbEntity
  8
03__ASM_ALL_CURVES
100
AcDbLine
 62
40
  6
CONTINUOUS
 10
4.3252079494
 20
5.5675944326
 11
4.3252079494
 21
5.5795715131
  0
LINE
  5
2AE
100
AcDbEntity
  8
03__ASM_ALL_CURVES
100
AcDbLine
 62
40
  6
CONTINUOUS
 10
4.3970704494
 20
5.5795715131
 11
4.3970704494
 21
5.5675944326
  0
LINE
  5
2AF
100
AcDbEntity
  8
0
100
AcDbLine
 62
7
  6
CONTINUOUS
 10
4.3989641994
 20
3.5738866826
 11
4.3989641994
 21
5.1638866826
  0
LINE
  5
2B0
100
AcDbEntity
  8
03__ASM_ALL_CURVES
100
AcDbLine
 62
40
  6
CONTINUOUS
 10
4.4060532619
 20
5.5077090174
 11
4.4060532619
 21
5.4957319326
  0
LINE
  5
2B1
100
AcDbEntity
  8
0
100
AcDbLine
 62
7
  6
CONTINUOUS
 10
4.4489641994
 20
3.5893866826
 11
4.4489641994
 21
5.1483866826
  0
LINE
  5
2B2
100
AcDbEntity
  8
03__ASM_ALL_CURVES
100
AcDbLine
 62
40
  6
CONTINUOUS
 10
4.4779157619
 20
5.4957319326
 11
4.4689329494
 21
5.4598006826
  0
LINE
  5
2B3
100
AcDbEntity
  8
03__ASM_ALL_CURVES
100
AcDbLine
 62
40
  6
CONTINUOUS
 10
4.6665548244
 20
5.5196860978
 11
4.6575720119
 21
5.48375485
  0
LINE
  5
2B4
100
AcDbEntity
  8
03__ASM_ALL_CURVES
100
AcDbLine
 62
40
  6
CONTINUOUS
 10
4.6760647726
 20
3.1360929326
 11
4.6625905539
 21
3.1450757454
  0
LINE
  5
2B5
100
AcDbEntity
  8
03__ASM_ALL_CURVES
100
AcDbLine
 62
40
  6
CONTINUOUS
 10
4.5817452414
 20
3.2438866826
 11
4.5952194601
 21
3.2349038722
  0
LINE
  5
2B6
100
AcDbEntity
  8
03__ASM_ALL_CURVES
100
AcDbLine
 62
40
  6
CONTINUOUS
 10
4.6895389914
 20
3.2438866826
 11
4.7030132101
 21
3.2349038722
  0
LINE
  5
2B7
100
AcDbEntity
  8
03__ASM_ALL_CURVES
100
AcDbLine
 62
40
  6
CONTINUOUS
 10
4.7973327414
 20
3.2438866826
 11
4.8108069601
 21
3.2349038722
  0
LINE
  5
2B8
100
AcDbEntity
  8
03__ASM_ALL_CURVES
100
AcDbLine
 62
40
  6
CONTINUOUS
 10
4.7030132101
 20
3.2349038722
 11
4.7164874289
 21
3.2169382451
  0
LINE
  5
2B9
100
AcDbEntity
  8
03__ASM_ALL_CURVES
100
AcDbLine
 62
40
  6
CONTINUOUS
 10
4.8108069601
 20
3.2349038722
 11
4.8175440695
 21
3.2259210555
  0
LINE
  5
2BA
100
AcDbEntity
  8
03__ASM_ALL_CURVES
100
AcDbLine
 62
40
  6
CONTINUOUS
 10
3.1843907619
 20
5.4717777663
 11
3.1754079494
 21
5.48375485
  0
LINE
  5
2BB
100
AcDbEntity
  8
03__ASM_ALL_CURVES
100
AcDbLine
 62
40
  6
CONTINUOUS
 10
4.6929075479
 20
3.0247060576
 11
4.713118876
 21
2.9708091826
  0
LINE
  5
2BC
100
AcDbEntity
  8
03__ASM_ALL_CURVES
100
AcDbLine
 62
40
  6
CONTINUOUS
 10
3.9030157619
 20
5.5316631826
 11
3.8940329494
 21
5.5556173521
  0
LINE
  5
2BD
100
AcDbEntity
  8
03__ASM_ALL_CURVES
100
AcDbLine
 62
40
  6
CONTINUOUS
 10
4.7973327414
 20
3.1899898076
 11
4.8175440695
 21
3.1360929326
  0
LINE
  5
2BE
100
AcDbEntity
  8
03__ASM_ALL_CURVES
100
AcDbLine
 62
40
  6
CONTINUOUS
 10
4.7939641885
 20
3.0786029326
 11
4.8276497354
 21
2.9708091826
  0
LINE
  5
2BF
100
AcDbEntity
  8
03__ASM_ALL_CURVES
100
AcDbLine
 62
40
  6
CONTINUOUS
 10
4.605325126
 20
3.0516544951
 11
4.6120622354
 21
3.0247060576
  0
LINE
  5
2C0
100
AcDbEntity
  8
03__ASM_ALL_CURVES
100
AcDbLine
 62
40
  6
CONTINUOUS
 10
4.6491163351
 20
3.1630413701
 11
4.6423792258
 21
3.1899898076
  0
LINE
  5
2C1
100
AcDbEntity
  8
03__ASM_ALL_CURVES
100
AcDbLine
 62
40
  6
CONTINUOUS
 10
4.5407954494
 20
5.5795715131
 11
4.5407954494
 21
5.5556173521
  0
LINE
  5
2C2
100
AcDbEntity
  8
03__ASM_ALL_CURVES
100
AcDbLine
 62
40
  6
CONTINUOUS
 10
4.5480596945
 20
3.1360929326
 11
4.5480596945
 21
3.2438866826
  0
LINE
  5
2C3
100
AcDbEntity
  8
03__ASM_ALL_CURVES
100
AcDbLine
 62
40
  6
CONTINUOUS
 10
4.551428251
 20
2.9708091826
 11
4.551428251
 21
3.0786029326
  0
LINE
  5
2C4
100
AcDbEntity
  8
0
100
AcDbLine
 62
7
  6
CONTINUOUS
 10
4.5519641994
 20
5.1118866826
 11
4.5519641994
 21
3.6258866826
  0
LINE
  5
2C5
100
AcDbEntity
  8
0
100
AcDbLine
 62
7
  6
CONTINUOUS
 10
4.5729641994
 20
3.5738866826
 11
4.5729641994
 21
5.1638866826
  0
LINE
  5
2C6
100
AcDbEntity
  8
03__ASM_ALL_CURVES
100
AcDbLine
 62
40
  6
CONTINUOUS
 10
4.6019565695
 20
3.2259210555
 11
4.6019565695
 21
3.2079554347
  0
LINE
  5
2C7
100
AcDbEntity
  8
0
100
AcDbLine
 62
7
  6
CONTINUOUS
 10
4.6349641994
 20
3.5738866826
 11
4.6349641994
 21
5.1638866826
  0
LINE
  5
2C8
100
AcDbEntity
  8
03__ASM_ALL_CURVES
100
AcDbLine
 62
40
  6
CONTINUOUS
 10
4.659222001
 20
2.9708091826
 11
4.659222001
 21
3.0786029326
  0
LINE
  5
2C9
100
AcDbEntity
  8
03__ASM_ALL_CURVES
100
AcDbLine
 62
40
  6
CONTINUOUS
 10
4.6665548244
 20
5.5436402631
 11
4.6665548244
 21
5.5196860978
  0
LINE
  5
2CA
100
AcDbEntity
  8
128-600_FEATURES
100
AcDbLine
 62
7
  6
CONTINUOUS
 10
4.6970293533
 20
3.6820858583
 11
4.6970293533
 21
5.0563866826
  0
LINE
  5
2CB
100
AcDbEntity
  8
03__ASM_ALL_CURVES
100
AcDbLine
 62
40
  6
CONTINUOUS
 10
4.713118876
 20
3.0606373055
 11
4.713118876
 21
3.0426716847
  0
LINE
  5
2CC
100
AcDbEntity
  8
0
100
AcDbLine
 62
7
  6
CONTINUOUS
 10
5.0239641994
 20
5.1483866826
 11
4.9708479746
 21
5.0563866826
  0
LINE
  5
2CD
100
AcDbEntity
  8
03__ASM_ALL_CURVES
100
AcDbLine
 62
40
  6
CONTINUOUS
 10
7.0668636084
 20
2.9708091826
 11
7.0129667334
 21
2.9708091826
  0
LINE
  5
2CE
100
AcDbEntity
  8
03__ASM_ALL_CURVES
100
AcDbLine
 62
40
  6
CONTINUOUS
 10
4.5783766885
 20
2.9708091826
 11
4.551428251
 21
2.9708091826
  0
LINE
  5
2CF
100
AcDbEntity
  8
03__ASM_ALL_CURVES
100
AcDbLine
 62
40
  6
CONTINUOUS
 10
6.9051729834
 20
2.9708091826
 11
6.9590698584
 21
2.9708091826
  0
LINE
  5
2D0
100
AcDbEntity
  8
03__ASM_ALL_CURVES
100
AcDbLine
 62
40
  6
CONTINUOUS
 10
4.7737528604
 20
3.0067404337
 11
4.8141755166
 21
3.0067404337
  0
LINE
  5
2D1
100
AcDbEntity
  8
03__ASM_ALL_CURVES
100
AcDbLine
 62
40
  6
CONTINUOUS
 10
5.3972245448
 20
3.0067404337
 11
5.4376472011
 21
3.0067404337
  0
LINE
  5
2D2
100
AcDbEntity
  8
03__ASM_ALL_CURVES
100
AcDbLine
 62
40
  6
CONTINUOUS
 10
4.6929075479
 20
3.0247060576
 11
4.659222001
 21
3.0247060576
  0
LINE
  5
2D3
100
AcDbEntity
  8
03__ASM_ALL_CURVES
100
AcDbLine
 62
40
  6
CONTINUOUS
 10
7.0129667334
 20
3.0247060576
 11
7.0466522803
 21
3.0247060576
  0
LINE
  5
2D4
100
AcDbEntity
  8
03__ASM_ALL_CURVES
100
AcDbLine
 62
40
  6
CONTINUOUS
 10
4.551428251
 20
3.0786029326
 11
4.5783766885
 21
3.0786029326
  0
LINE
  5
2D5
100
AcDbEntity
  8
03__ASM_ALL_CURVES
100
AcDbLine
 62
40
  6
CONTINUOUS
 10
4.659222001
 20
3.0786029326
 11
4.6929075479
 21
3.0786029326
  0
LINE
  5
2D6
100
AcDbEntity
  8
03__ASM_ALL_CURVES
100
AcDbLine
 62
40
  6
CONTINUOUS
 10
5.2759565761
 20
3.0786029326
 11
5.3433276698
 21
3.0786029326
  0
LINE
  5
2D7
100
AcDbEntity
  8
03__ASM_ALL_CURVES
100
AcDbLine
 62
40
  6
CONTINUOUS
 10
7.0129667334
 20
3.0786029326
 11
7.0668636084
 21
3.0786029326
  0
LINE
  5
2D8
100
AcDbEntity
  8
03__ASM_ALL_CURVES
100
AcDbLine
 62
40
  6
CONTINUOUS
 10
7.114023374
 20
3.0786029326
 11
7.1813944678
 21
3.0786029326
  0
LINE
  5
2D9
100
AcDbEntity
  8
03__ASM_ALL_CURVES
100
AcDbLine
 62
40
  6
CONTINUOUS
 10
6.8479075479
 20
3.1360929326
 11
6.8344333291
 21
3.1360929326
  0
LINE
  5
2DA
100
AcDbEntity
  8
03__ASM_ALL_CURVES
100
AcDbLine
 62
40
  6
CONTINUOUS
 10
5.6869202488
 20
3.1360929326
 11
5.6734460301
 21
3.1360929326
  0
LINE
  5
2DB
100
AcDbEntity
  8
03__ASM_ALL_CURVES
100
AcDbLine
 62
40
  6
CONTINUOUS
 10
5.3635389988
 20
3.1360929326
 11
5.3500647801
 21
3.1360929326
  0
LINE
  5
2DC
100
AcDbEntity
  8
03__ASM_ALL_CURVES
100
AcDbLine
 62
40
  6
CONTINUOUS
 10
4.6895389914
 20
3.1360929326
 11
4.6760647726
 21
3.1360929326
  0
LINE
  5
2DD
100
AcDbEntity
  8
03__ASM_ALL_CURVES
100
AcDbLine
 62
40
  6
CONTINUOUS
 10
7.137603251
 20
3.1360929326
 11
7.191500126
 21
3.1360929326
  0
LINE
  5
2DE
100
AcDbEntity
  8
03__ASM_ALL_CURVES
100
AcDbLine
 62
40
  6
CONTINUOUS
 10
4.9792346945
 20
3.1630413701
 11
5.0398686789
 21
3.1630413701
  0
LINE
  5
2DF
100
AcDbEntity
  8
03__ASM_ALL_CURVES
100
AcDbLine
 62
40
  6
CONTINUOUS
 10
6.9557012979
 20
3.1899898076
 11
6.922015751
 21
3.1899898076
  0
LINE
  5
2E0
100
AcDbEntity
  8
03__ASM_ALL_CURVES
100
AcDbLine
 62
40
  6
CONTINUOUS
 10
6.7401137979
 20
3.1899898076
 11
6.706428251
 21
3.1899898076
  0
LINE
  5
2E1
100
AcDbEntity
  8
03__ASM_ALL_CURVES
100
AcDbLine
 62
40
  6
CONTINUOUS
 10
5.4713327488
 20
3.1899898076
 11
5.437647202
 21
3.1899898076
  0
LINE
  5
2E2
100
AcDbEntity
  8
03__ASM_ALL_CURVES
100
AcDbLine
 62
40
  6
CONTINUOUS
 10
5.2557452488
 20
3.1899898076
 11
5.222059702
 21
3.1899898076
  0
LINE
  5
2E3
100
AcDbEntity
  8
03__ASM_ALL_CURVES
100
AcDbLine
 62
40
  6
CONTINUOUS
 10
4.7973327414
 20
3.1899898076
 11
4.7636471945
 21
3.1899898076
  0
LINE
  5
2E4
100
AcDbEntity
  8
03__ASM_ALL_CURVES
100
AcDbLine
 62
40
  6
CONTINUOUS
 10
4.5817452414
 20
3.1899898076
 11
4.5480596945
 21
3.1899898076
  0
LINE
  5
2E5
100
AcDbEntity
  8
03__ASM_ALL_CURVES
100
AcDbLine
 62
40
  6
CONTINUOUS
 10
5.6734460301
 20
3.198972618
 11
5.6869202488
 21
3.198972618
  0
LINE
  5
2E6
100
AcDbEntity
  8
03__ASM_ALL_CURVES
100
AcDbLine
 62
40
  6
CONTINUOUS
 10
5.3500647801
 20
3.1360929326
 11
5.3365905613
 21
3.1450757454
  0
LINE
  5
2E7
100
AcDbEntity
  8
03__ASM_ALL_CURVES
100
AcDbLine
 62
40
  6
CONTINUOUS
 10
5.2557452488
 20
3.2438866826
 11
5.2692194676
 21
3.2349038722
  0
LINE
  5
2E8
100
AcDbEntity
  8
03__ASM_ALL_CURVES
100
AcDbLine
 62
40
  6
CONTINUOUS
 10
5.3635389988
 20
3.2438866826
 11
5.3770132176
 21
3.2349038722
  0
LINE
  5
2E9
100
AcDbEntity
  8
03__ASM_ALL_CURVES
100
AcDbLine
 62
40
  6
CONTINUOUS
 10
5.4713327488
 20
3.2438866826
 11
5.4848069676
 21
3.2349038722
  0
LINE
  5
2EA
100
AcDbEntity
  8
03__ASM_ALL_CURVES
100
AcDbLine
 62
40
  6
CONTINUOUS
 10
3.2382876369
 20
5.5316631826
 11
3.2562532619
 21
5.5077090174
  0
LINE
  5
2EB
100
AcDbEntity
  8
03__ASM_ALL_CURVES
100
AcDbLine
 62
40
  6
CONTINUOUS
 10
3.2382876369
 20
5.5915486021
 11
3.2472704494
 21
5.5795715131
  0
LINE
  5
2EC
100
AcDbEntity
  8
03__ASM_ALL_CURVES
100
AcDbLine
 62
40
  6
CONTINUOUS
 10
3.3460813869
 20
5.4717777663
 11
3.3550641994
 21
5.4598006826
  0
LINE
  5
2ED
100
AcDbEntity
  8
03__ASM_ALL_CURVES
100
AcDbLine
 62
40
  6
CONTINUOUS
 10
3.4808235744
 20
5.4717777663
 11
3.4718407619
 21
5.48375485
  0
LINE
  5
2EE
100
AcDbEntity
  8
03__ASM_ALL_CURVES
100
AcDbLine
 62
40
  6
CONTINUOUS
 10
5.3365905613
 20
3.1450757454
 11
5.3231163426
 21
3.1630413701
  0
LINE
  5
2EF
100
AcDbEntity
  8
03__ASM_ALL_CURVES
100
AcDbLine
 62
40
  6
CONTINUOUS
 10
5.2692194676
 20
3.2349038722
 11
5.275956577
 21
3.2259210555
  0
LINE
  5
2F0
100
AcDbEntity
  8
03__ASM_ALL_CURVES
100
AcDbLine
 62
40
  6
CONTINUOUS
 10
4.982603251
 20
3.0786029326
 11
5.036500126
 21
2.9708091826
  0
LINE
  5
2F1
100
AcDbEntity
  8
03__ASM_ALL_CURVES
100
AcDbLine
 62
40
  6
CONTINUOUS
 10
3.9569126369
 20
5.5795715131
 11
3.9658954494
 21
5.5556173521
  0
LINE
  5
2F2
100
AcDbEntity
  8
03__ASM_ALL_CURVES
100
AcDbLine
 62
40
  6
CONTINUOUS
 10
4.0467407619
 20
5.5316631826
 11
4.0377579494
 21
5.5556173521
  0
LINE
  5
2F3
100
AcDbEntity
  8
03__ASM_ALL_CURVES
100
AcDbLine
 62
40
  6
CONTINUOUS
 10
4.1006376369
 20
5.5795715131
 11
4.1096204494
 21
5.5556173521
  0
LINE
  5
2F4
100
AcDbEntity
  8
03__ASM_ALL_CURVES
100
AcDbLine
 62
40
  6
CONTINUOUS
 10
4.7164874289
 20
3.2169382451
 11
4.7232245383
 21
3.1899898076
  0
LINE
  5
2F5
100
AcDbEntity
  8
03__ASM_ALL_CURVES
100
AcDbLine
 62
40
  6
CONTINUOUS
 10
4.7636471945
 20
3.1360929326
 11
4.7636471945
 21
3.2438866826
  0
LINE
  5
2F6
100
AcDbEntity
  8
03__ASM_ALL_CURVES
100
AcDbLine
 62
40
  6
CONTINUOUS
 10
4.8175440695
 20
3.2259210555
 11
4.8175440695
 21
3.2079554347
  0
LINE
  5
2F7
100
AcDbEntity
  8
03__ASM_ALL_CURVES
100
AcDbLine
 62
40
  6
CONTINUOUS
 10
4.898389382
 20
3.2438866826
 11
4.898389382
 21
3.1360929326
  0
LINE
  5
2F8
100
AcDbEntity
  8
03__ASM_ALL_CURVES
100
AcDbLine
 62
40
  6
CONTINUOUS
 10
4.9017579385
 20
3.0786029326
 11
4.9017579385
 21
2.9708091826
  0
LINE
  5
2F9
100
AcDbEntity
  8
0
100
AcDbLine
 62
7
  6
CONTINUOUS
 10
4.9708479746
 20
3.6813866826
 11
4.9708479746
 21
5.0563866826
  0
LINE
  5
2FA
100
AcDbEntity
  8
03__ASM_ALL_CURVES
100
AcDbLine
 62
40
  6
CONTINUOUS
 10
4.982603251
 20
2.9708091826
 11
4.982603251
 21
3.0786029326
  0
LINE
  5
2FB
100
AcDbEntity
  8
0
100
AcDbLine
 62
7
  6
CONTINUOUS
 10
5.0239641994
 20
3.5893866826
 11
5.0239641994
 21
5.1483866826
  0
LINE
  5
2FC
100
AcDbEntity
  8
03__ASM_ALL_CURVES
100
AcDbLine
 62
40
  6
CONTINUOUS
 10
4.6423792258
 20
3.1899898076
 11
4.6491163351
 21
3.2169382451
  0
LINE
  5
2FD
100
AcDbEntity
  8
03__ASM_ALL_CURVES
100
AcDbLine
 62
40
  6
CONTINUOUS
 10
4.6120622354
 20
3.0247060576
 11
4.605325126
 21
2.9977576201
  0
LINE
  5
2FE
100
AcDbEntity
  8
03__ASM_ALL_CURVES
100
AcDbLine
 62
40
  6
CONTINUOUS
 10
4.7232245383
 20
3.1899898076
 11
4.7164874289
 21
3.1630413701
  0
LINE
  5
2FF
100
AcDbEntity
  8
03__ASM_ALL_CURVES
100
AcDbLine
 62
40
  6
CONTINUOUS
 10
6.2816320136
 20
5.5915486021
 11
6.2995976386
 21
5.6035256826
  0
LINE
  5
300
100
AcDbEntity
  8
03__ASM_ALL_CURVES
100
AcDbLine
 62
40
  6
CONTINUOUS
 10
4.5480596945
 20
3.2438866826
 11
4.5817452414
 21
3.2438866826
  0
LINE
  5
301
100
AcDbEntity
  8
03__ASM_ALL_CURVES
100
AcDbLine
 62
40
  6
CONTINUOUS
 10
4.6760647726
 20
3.2438866826
 11
4.6895389914
 21
3.2438866826
  0
LINE
  5
302
100
AcDbEntity
  8
03__ASM_ALL_CURVES
100
AcDbLine
 62
40
  6
CONTINUOUS
 10
4.7636471945
 20
3.2438866826
 11
4.7973327414
 21
3.2438866826
  0
LINE
  5
303
100
AcDbEntity
  8
03__ASM_ALL_CURVES
100
AcDbLine
 62
40
  6
CONTINUOUS
 10
4.8647038351
 20
3.2438866826
 11
4.9320749289
 21
3.2438866826
  0
LINE
  5
304
100
AcDbEntity
  8
03__ASM_ALL_CURVES
100
AcDbLine
 62
40
  6
CONTINUOUS
 10
5.222059702
 20
3.2438866826
 11
5.2557452488
 21
3.2438866826
  0
LINE
  5
305
100
AcDbEntity
  8
03__ASM_ALL_CURVES
100
AcDbLine
 62
40
  6
CONTINUOUS
 10
5.3500647801
 20
3.2438866826
 11
5.3635389988
 21
3.2438866826
  0
LINE
  5
306
100
AcDbEntity
  8
03__ASM_ALL_CURVES
100
AcDbLine
 62
40
  6
CONTINUOUS
 10
5.437647202
 20
3.2438866826
 11
5.4713327488
 21
3.2438866826
  0
LINE
  5
307
100
AcDbEntity
  8
03__ASM_ALL_CURVES
100
AcDbLine
 62
40
  6
CONTINUOUS
 10
5.5387038426
 20
3.2438866826
 11
5.6060749363
 21
3.2438866826
  0
LINE
  5
308
100
AcDbEntity
  8
03__ASM_ALL_CURVES
100
AcDbLine
 62
40
  6
CONTINUOUS
 10
5.6734460301
 20
3.2438866826
 11
5.6869202488
 21
3.2438866826
  0
LINE
  5
309
100
AcDbEntity
  8
03__ASM_ALL_CURVES
100
AcDbLine
 62
40
  6
CONTINUOUS
 10
6.706428251
 20
3.2438866826
 11
6.7401137979
 21
3.2438866826
  0
LINE
  5
30A
100
AcDbEntity
  8
03__ASM_ALL_CURVES
100
AcDbLine
 62
40
  6
CONTINUOUS
 10
6.8344333291
 20
3.2438866826
 11
6.8479075479
 21
3.2438866826
  0
LINE
  5
30B
100
AcDbEntity
  8
03__ASM_ALL_CURVES
100
AcDbLine
 62
40
  6
CONTINUOUS
 10
6.922015751
 20
3.2438866826
 11
6.9557012979
 21
3.2438866826
  0
LINE
  5
30C
100
AcDbEntity
  8
03__ASM_ALL_CURVES
100
AcDbLine
 62
40
  6
CONTINUOUS
 10
7.0230723916
 20
3.2438866826
 11
7.0904434854
 21
3.2438866826
  0
LINE
  5
30D
100
AcDbEntity
  8
03__ASM_ALL_CURVES
100
AcDbLine
 62
40
  6
CONTINUOUS
 10
7.1578145791
 20
3.2438866826
 11
7.1712887979
 21
3.2438866826
  0
LINE
  5
30E
100
AcDbEntity
  8
03__ASM_ALL_CURVES
100
AcDbLine
 62
40
  6
CONTINUOUS
 10
5.6734460301
 20
3.1360929326
 11
5.6599718113
 21
3.1450757454
  0
LINE
  5
30F
100
AcDbEntity
  8
03__ASM_ALL_CURVES
100
AcDbLine
 62
40
  6
CONTINUOUS
 10
5.6869202488
 20
3.198972618
 11
5.7003944676
 21
3.1899898076
  0
LINE
  5
310
100
AcDbEntity
  8
03__ASM_ALL_CURVES
100
AcDbLine
 62
40
  6
CONTINUOUS
 10
5.6869202488
 20
3.2438866826
 11
5.7003944676
 21
3.2349038722
  0
LINE
  5
311
100
AcDbEntity
  8
03__ASM_ALL_CURVES
100
AcDbLine
 62
40
  6
CONTINUOUS
 10
3.5167548244
 20
5.5915486021
 11
3.5257376369
 21
5.5795715131
  0
LINE
  5
312
100
AcDbEntity
  8
03__ASM_ALL_CURVES
100
AcDbLine
 62
40
  6
CONTINUOUS
 10
3.6155657619
 20
5.4717777663
 11
3.6065829494
 21
5.48375485
  0
LINE
  5
313
100
AcDbEntity
  8
03__ASM_ALL_CURVES
100
AcDbLine
 62
40
  6
CONTINUOUS
 10
5.3770132176
 20
3.2349038722
 11
5.3904874363
 21
3.2169382451
  0
LINE
  5
314
100
AcDbEntity
  8
03__ASM_ALL_CURVES
100
AcDbLine
 62
40
  6
CONTINUOUS
 10
3.6694626369
 20
5.5316631826
 11
3.6874282619
 21
5.5077090174
  0
LINE
  5
315
100
AcDbEntity
  8
03__ASM_ALL_CURVES
100
AcDbLine
 62
40
  6
CONTINUOUS
 10
3.6694626369
 20
5.5915486021
 11
3.6784454494
 21
5.5795715131
  0
LINE
  5
316
100
AcDbEntity
  8
03__ASM_ALL_CURVES
100
AcDbLine
 62
40
  6
CONTINUOUS
 10
3.7772563869
 20
5.48375485
 11
3.7952220119
 21
5.4598006826
  0
LINE
  5
317
100
AcDbEntity
  8
03__ASM_ALL_CURVES
100
AcDbLine
 62
40
  6
CONTINUOUS
 10
5.4848069676
 20
3.2349038722
 11
5.491544077
 21
3.2259210555
  0
LINE
  5
318
100
AcDbEntity
  8
03__ASM_ALL_CURVES
100
AcDbLine
 62
40
  6
CONTINUOUS
 10
3.9119985744
 20
5.4717777663
 11
3.9030157619
 21
5.48375485
  0
LINE
  5
319
100
AcDbEntity
  8
03__ASM_ALL_CURVES
100
AcDbLine
 62
40
  6
CONTINUOUS
 10
5.6599718113
 20
3.1450757454
 11
5.653234702
 21
3.1540585581
  0
LINE
  5
31A
100
AcDbEntity
  8
0
100
AcDbLine
 62
7
  6
CONTINUOUS
 10
5.0239641994
 20
3.5893866826
 11
4.9708479746
 21
3.6813866826
  0
LINE
  5
31B
100
AcDbEntity
  8
03__ASM_ALL_CURVES
100
AcDbLine
 62
40
  6
CONTINUOUS
 10
5.4982811854
 20
3.0786029326
 11
5.5521780604
 21
2.9708091826
  0
LINE
  5
31C
100
AcDbEntity
  8
03__ASM_ALL_CURVES
100
AcDbLine
 62
40
  6
CONTINUOUS
 10
4.6575720119
 20
5.5795715131
 11
4.6665548244
 21
5.5436402631
  0
LINE
  5
31D
100
AcDbEntity
  8
03__ASM_ALL_CURVES
100
AcDbLine
 62
40
  6
CONTINUOUS
 10
5.0263944601
 20
3.1360929326
 11
5.0263944601
 21
3.2438866826
  0
LINE
  5
31E
100
AcDbEntity
  8
03__ASM_ALL_CURVES
100
AcDbLine
 62
40
  6
CONTINUOUS
 10
5.036500126
 20
2.9708091826
 11
5.036500126
 21
3.0786029326
  0
LINE
  5
31F
100
AcDbEntity
  8
0
100
AcDbLine
 62
7
  6
CONTINUOUS
 10
5.0869641994
 20
3.5893866826
 11
5.0869641994
 21
5.1483866826
  0
LINE
  5
320
100
AcDbEntity
  8
0
100
AcDbLine
 62
7
  6
CONTINUOUS
 10
5.1369641994
 20
3.5893866826
 11
5.1369641994
 21
5.1483866826
  0
LINE
  5
321
100
AcDbEntity
  8
03__ASM_ALL_CURVES
100
AcDbLine
 62
40
  6
CONTINUOUS
 10
5.222059702
 20
3.1360929326
 11
5.222059702
 21
3.2438866826
  0
LINE
  5
322
100
AcDbEntity
  8
0
100
AcDbLine
 62
7
  6
CONTINUOUS
 10
5.2399641994
 20
3.5893866826
 11
5.2399641994
 21
5.1483866826
  0
LINE
  5
323
100
AcDbEntity
  8
03__ASM_ALL_CURVES
100
AcDbLine
 62
40
  6
CONTINUOUS
 10
5.275956577
 20
3.2259210555
 11
5.275956577
 21
3.2079554347
  0
LINE
  5
324
100
AcDbEntity
  8
0
100
AcDbLine
 62
7
  6
CONTINUOUS
 10
5.2899641994
 20
3.5893866826
 11
5.2899641994
 21
5.1483866826
  0
LINE
  5
325
100
AcDbEntity
  8
03__ASM_ALL_CURVES
100
AcDbLine
 62
40
  6
CONTINUOUS
 10
4.7602786416
 20
2.9708091826
 11
4.7939641885
 21
3.0786029326
  0
LINE
  5
326
100
AcDbEntity
  8
0
100
AcDbLine
 62
7
  6
CONTINUOUS
 10
4.679131495
 20
3.6503866826
 11
4.6349641994
 21
3.5738866826
  0
LINE
  5
327
100
AcDbEntity
  8
03__ASM_ALL_CURVES
100
AcDbLine
 62
40
  6
CONTINUOUS
 10
6.4253570136
 20
5.5915486021
 11
6.4433226386
 21
5.6035256826
  0
LINE
  5
328
100
AcDbEntity
  8
03__ASM_ALL_CURVES
100
AcDbLine
 62
40
  6
CONTINUOUS
 10
6.3355288886
 20
5.4717777663
 11
6.3175632636
 21
5.4598006826
  0
LINE
  5
329
100
AcDbEntity
  8
03__ASM_ALL_CURVES
100
AcDbLine
 62
40
  6
CONTINUOUS
 10
6.4792538886
 20
5.4717777663
 11
6.4612882636
 21
5.4598006826
  0
LINE
  5
32A
100
AcDbEntity
  8
0
100
AcDbLine
 62
7
  6
CONTINUOUS
 10
4.6349641994
 20
3.5738866826
 11
4.5729641994
 21
3.5738866826
  0
LINE
  5
32B
100
AcDbEntity
  8
0
100
AcDbLine
 62
7
  6
CONTINUOUS
 10
4.3989641994
 20
3.5738866826
 11
4.2109641994
 21
3.5738866826
  0
LINE
  5
32C
100
AcDbEntity
  8
0
100
AcDbLine
 62
7
  6
CONTINUOUS
 10
5.3869641994
 20
3.5893866826
 11
5.3249641994
 21
3.5893866826
  0
LINE
  5
32D
100
AcDbEntity
  8
0
100
AcDbLine
 62
7
  6
CONTINUOUS
 10
4.3989641994
 20
3.5893866826
 11
4.4489641994
 21
3.5893866826
  0
LINE
  5
32E
100
AcDbEntity
  8
0
100
AcDbLine
 62
7
  6
CONTINUOUS
 10
5.0239641994
 20
3.5893866826
 11
5.1369641994
 21
3.5893866826
  0
LINE
  5
32F
100
AcDbEntity
  8
0
100
AcDbLine
 62
7
  6
CONTINUOUS
 10
5.2399641994
 20
3.5893866826
 11
5.2899641994
 21
3.5893866826
  0
LINE
  5
330
100
AcDbEntity
  8
0
100
AcDbLine
 62
7
  6
CONTINUOUS
 10
5.8989641994
 20
3.5908866826
 11
5.8129641994
 21
3.5908866826
  0
LINE
  5
331
100
AcDbEntity
  8
0
100
AcDbLine
 62
7
  6
CONTINUOUS
 10
6.0489641994
 20
3.6508866826
 11
6.0989641994
 21
3.6508866826
  0
LINE
  5
332
100
AcDbEntity
  8
THREAD
100
AcDbLine
 62
7
  6
CONTINUOUS
 10
5.9459641994
 20
3.6513866826
 11
5.8989641994
 21
3.6513866826
  0
LINE
  5
333
100
AcDbEntity
  8
0
100
AcDbLine
 62
7
  6
CONTINUOUS
 10
4.1613120762
 20
3.6598866826
 11
3.4813483733
 21
3.6598866826
  0
LINE
  5
334
100
AcDbEntity
  8
0
100
AcDbLine
 62
7
  6
CONTINUOUS
 10
4.1613120762
 20
3.6602476837
 11
3.4813483733
 21
3.6602476837
  0
LINE
  5
335
100
AcDbEntity
  8
0
100
AcDbLine
 62
7
  6
CONTINUOUS
 10
4.5729641994
 20
3.6613866826
 11
4.5519641994
 21
3.6613866826
  0
LINE
  5
336
100
AcDbEntity
  8
THREAD
100
AcDbLine
 62
7
  6
CONTINUOUS
 10
6.4469641994
 20
3.6673866826
 11
6.1466770123
 21
3.6673866826
  0
LINE
  5
337
100
AcDbEntity
  8
0
100
AcDbLine
 62
7
  6
CONTINUOUS
 10
5.3249641994
 20
3.6773866826
 11
5.2899641994
 21
3.6773866826
  0
LINE
  5
338
100
AcDbEntity
  8
0
100
AcDbLine
 62
7
  6
CONTINUOUS
 10
4.9708479746
 20
3.6813866826
 11
4.73282507
 21
3.6813866826
  0
LINE
  5
339
100
AcDbEntity
  8
0
100
AcDbLine
 62
7
  6
CONTINUOUS
 10
5.4929641994
 20
3.7128866826
 11
5.4582669576
 21
3.7128866826
  0
LINE
  5
33A
100
AcDbEntity
  8
THREAD
100
AcDbLine
 62
7
  6
CONTINUOUS
 10
6.6049641994
 20
3.7283866826
 11
6.5079641994
 21
3.7283866826
  0
LINE
  5
33B
100
AcDbEntity
  8
THREAD
100
AcDbLine
 62
7
  6
CONTINUOUS
 10
6.1189641994
 20
3.7388866826
 11
6.0989641994
 21
3.7388866826
  0
LINE
  5
33C
100
AcDbEntity
  8
0
100
AcDbLine
 62
7
  6
CONTINUOUS
 10
7.3159641994
 20
3.7453866826
 11
7.4089641994
 21
3.7453866826
  0
LINE
  5
33D
100
AcDbEntity
  8
0
100
AcDbLine
 62
7
  6
CONTINUOUS
 10
7.6054641994
 20
3.7453866826
 11
7.6794641994
 21
3.7453866826
  0
LINE
  5
33E
100
AcDbEntity
  8
0
100
AcDbLine
 62
7
  6
CONTINUOUS
 10
7.4089641994
 20
3.7513866826
 11
7.4589641994
 21
3.7513866826
  0
LINE
  5
33F
100
AcDbEntity
  8
0
100
AcDbLine
 62
7
  6
CONTINUOUS
 10
7.5619641994
 20
3.7513866826
 11
7.6054641994
 21
3.7513866826
  0
LINE
  5
340
100
AcDbEntity
  8
0
100
AcDbLine
 62
7
  6
CONTINUOUS
 10
3.4299641994
 20
3.7748866826
 11
2.8359641994
 21
3.7748866826
  0
LINE
  5
341
100
AcDbEntity
  8
03__ASM_ALL_CURVES
100
AcDbLine
 62
40
  6
CONTINUOUS
 10
5.7003944676
 20
3.1899898076
 11
5.7138686863
 21
3.1720241837
  0
LINE
  5
342
100
AcDbEntity
  8
03__ASM_ALL_CURVES
100
AcDbLine
 62
40
  6
CONTINUOUS
 10
5.7003944676
 20
3.2349038722
 11
5.707131577
 21
3.2259210555
  0
LINE
  5
343
100
AcDbEntity
  8
03__ASM_ALL_CURVES
100
AcDbLine
 62
40
  6
CONTINUOUS
 10
3.9479298244
 20
5.5915486021
 11
3.9569126369
 21
5.5795715131
  0
LINE
  5
344
100
AcDbEntity
  8
03__ASM_ALL_CURVES
100
AcDbLine
 62
40
  6
CONTINUOUS
 10
4.0557235744
 20
5.4717777663
 11
4.0467407619
 21
5.48375485
  0
LINE
  5
345
100
AcDbEntity
  8
03__ASM_ALL_CURVES
100
AcDbLine
 62
40
  6
CONTINUOUS
 10
4.0916548244
 20
5.5915486021
 11
4.1006376369
 21
5.5795715131
  0
LINE
  5
346
100
AcDbEntity
  8
03__ASM_ALL_CURVES
100
AcDbLine
 62
40
  6
CONTINUOUS
 10
4.2084313869
 20
5.4717777663
 11
4.2174141994
 21
5.4598006826
  0
LINE
  5
347
100
AcDbEntity
  8
0
100
AcDbLine
 62
7
  6
CONTINUOUS
 10
4.6970293533
 20
5.0563866826
 11
4.6349641994
 21
5.1638866826
  0
LINE
  5
348
100
AcDbEntity
  8
03__ASM_ALL_CURVES
100
AcDbLine
 62
40
  6
CONTINUOUS
 10
5.4713327488
 20
3.1899898076
 11
5.491544077
 21
3.1360929326
  0
LINE
  5
349
100
AcDbEntity
  8
03__ASM_ALL_CURVES
100
AcDbLine
 62
40
  6
CONTINUOUS
 10
5.6330233729
 20
3.0426716847
 11
5.6599718104
 21
2.9708091826
  0
LINE
  5
34A
100
AcDbEntity
  8
03__ASM_ALL_CURVES
100
AcDbLine
 62
40
  6
CONTINUOUS
 10
5.4174358729
 20
3.0786029326
 11
5.4511214198
 21
2.9708091826
  0
LINE
  5
34B
100
AcDbEntity
  8
03__ASM_ALL_CURVES
100
AcDbLine
 62
40
  6
CONTINUOUS
 10
5.3231163426
 20
3.1630413701
 11
5.3163792332
 21
3.1899898076
  0
LINE
  5
34C
100
AcDbEntity
  8
03__ASM_ALL_CURVES
100
AcDbLine
 62
40
  6
CONTINUOUS
 10
5.3904874363
 20
3.2169382451
 11
5.3972245457
 21
3.1899898076
  0
LINE
  5
34D
100
AcDbEntity
  8
03__ASM_ALL_CURVES
100
AcDbLine
 62
40
  6
CONTINUOUS
 10
5.3096421229
 20
3.0786029326
 11
5.3096421229
 21
2.9708091826
  0
LINE
  5
34E
100
AcDbEntity
  8
0
100
AcDbLine
 62
7
  6
CONTINUOUS
 10
5.3249641994
 20
3.5893866826
 11
5.3249641994
 21
5.1483866826
  0
LINE
  5
34F
100
AcDbEntity
  8
0
100
AcDbLine
 62
7
  6
CONTINUOUS
 10
5.3869641994
 20
3.5893866826
 11
5.3869641994
 21
5.1483866826
  0
LINE
  5
350
100
AcDbEntity
  8
03__ASM_ALL_CURVES
100
AcDbLine
 62
40
  6
CONTINUOUS
 10
5.437647202
 20
3.1360929326
 11
5.437647202
 21
3.2438866826
  0
LINE
  5
351
100
AcDbEntity
  8
0
100
AcDbLine
 62
7
  6
CONTINUOUS
 10
5.4582669576
 20
3.7128866826
 11
5.4582669576
 21
5.0248866826
  0
LINE
  5
352
100
AcDbEntity
  8
03__ASM_ALL_CURVES
100
AcDbLine
 62
40
  6
CONTINUOUS
 10
5.491544077
 20
3.2259210555
 11
5.491544077
 21
3.2079554347
  0
LINE
  5
353
100
AcDbEntity
  8
03__ASM_ALL_CURVES
100
AcDbLine
 62
40
  6
CONTINUOUS
 10
5.4982811854
 20
2.9708091826
 11
5.4982811854
 21
3.0786029326
  0
LINE
  5
354
100
AcDbEntity
  8
03__ASM_ALL_CURVES
100
AcDbLine
 62
40
  6
CONTINUOUS
 10
5.5521780604
 20
2.9708091826
 11
5.5521780604
 21
3.0786029326
  0
LINE
  5
355
100
AcDbEntity
  8
0
100
AcDbLine
 62
7
  6
CONTINUOUS
 10
5.8129641994
 20
5.1468866826
 11
5.7429641994
 21
5.0256431261
  0
LINE
  5
356
100
AcDbEntity
  8
03__ASM_ALL_CURVES
100
AcDbLine
 62
40
  6
CONTINUOUS
 10
6.2636663886
 20
5.5675944326
 11
6.2816320136
 21
5.5915486021
  0
LINE
  5
357
100
AcDbEntity
  8
03__ASM_ALL_CURVES
100
AcDbLine
 62
40
  6
CONTINUOUS
 10
4.6019565695
 20
3.2079554347
 11
4.5952194601
 21
3.198972618
  0
LINE
  5
358
100
AcDbEntity
  8
03__ASM_ALL_CURVES
100
AcDbLine
 62
40
  6
CONTINUOUS
 10
6.3534945136
 20
5.4957319326
 11
6.3355288886
 21
5.4717777663
  0
LINE
  5
359
100
AcDbEntity
  8
03__ASM_ALL_CURVES
100
AcDbLine
 62
40
  6
CONTINUOUS
 10
6.4073913886
 20
5.5675944326
 11
6.4253570136
 21
5.5915486021
  0
LINE
  5
35A
100
AcDbEntity
  8
03__ASM_ALL_CURVES
100
AcDbLine
 62
40
  6
CONTINUOUS
 10
4.6491163351
 20
3.2169382451
 11
4.6625905539
 21
3.2349038722
  0
LINE
  5
35B
100
AcDbEntity
  8
03__ASM_ALL_CURVES
100
AcDbLine
 62
40
  6
CONTINUOUS
 10
7.1439820136
 20
5.5915486021
 11
7.1619476386
 21
5.6035256826
  0
LINE
  5
35C
100
AcDbEntity
  8
0
100
AcDbLine
 62
7
  6
CONTINUOUS
 10
7.3159641994
 20
3.8393866826
 11
7.0074641994
 21
3.8393866826
  0
LINE
  5
35D
100
AcDbEntity
  8
0
100
AcDbLine
 62
7
  6
CONTINUOUS
 10
6.7884641994
 20
3.8393866826
 11
6.6179641994
 21
3.8393866826
  0
LINE
  5
35E
100
AcDbEntity
  8
0
100
AcDbLine
 62
7
  6
CONTINUOUS
 10
4.1613120762
 20
3.9949756815
 11
3.4813483733
 21
3.9949756815
  0
LINE
  5
35F
100
AcDbEntity
  8
0
100
AcDbLine
 62
7
  6
CONTINUOUS
 10
4.1613120762
 20
4.0341586848
 11
3.4813483733
 21
4.0341586848
  0
LINE
  5
360
100
AcDbEntity
  8
0
100
AcDbLine
 62
7
  6
CONTINUOUS
 10
6.9289641994
 20
4.0408866826
 11
6.9129641994
 21
4.0408866826
  0
LINE
  5
361
100
AcDbEntity
  8
03__ASM_ALL_CURVES
100
AcDbLine
 62
40
  6
CONTINUOUS
 10
3.2023563869
 20
5.4598006826
 11
3.1843907619
 21
5.4717777663
  0
LINE
  5
362
100
AcDbEntity
  8
03__ASM_ALL_CURVES
100
AcDbLine
 62
40
  6
CONTINUOUS
 10
3.2203220119
 20
5.5436402631
 11
3.2382876369
 21
5.5316631826
  0
LINE
  5
363
100
AcDbEntity
  8
03__ASM_ALL_CURVES
100
AcDbLine
 62
40
  6
CONTINUOUS
 10
6.8344333291
 20
3.1360929326
 11
6.8209591104
 21
3.1450757454
  0
LINE
  5
364
100
AcDbEntity
  8
03__ASM_ALL_CURVES
100
AcDbLine
 62
40
  6
CONTINUOUS
 10
6.7401137979
 20
3.2438866826
 11
6.7535880166
 21
3.2349038722
  0
LINE
  5
365
100
AcDbEntity
  8
03__ASM_ALL_CURVES
100
AcDbLine
 62
40
  6
CONTINUOUS
 10
3.2203220119
 20
5.6035256826
 11
3.2382876369
 21
5.5915486021
  0
LINE
  5
366
100
AcDbEntity
  8
03__ASM_ALL_CURVES
100
AcDbLine
 62
40
  6
CONTINUOUS
 10
3.4987891994
 20
5.4598006826
 11
3.4808235744
 21
5.4717777663
  0
LINE
  5
367
100
AcDbEntity
  8
03__ASM_ALL_CURVES
100
AcDbLine
 62
40
  6
CONTINUOUS
 10
6.8479075479
 20
3.2438866826
 11
6.8613817666
 21
3.2349038722
  0
LINE
  5
368
100
AcDbEntity
  8
03__ASM_ALL_CURVES
100
AcDbLine
 62
40
  6
CONTINUOUS
 10
4.3341907619
 20
5.4717777663
 11
4.3162251369
 21
5.4957319326
  0
LINE
  5
369
100
AcDbEntity
  8
03__ASM_ALL_CURVES
100
AcDbLine
 62
40
  6
CONTINUOUS
 10
4.3341907619
 20
5.5556173521
 11
4.3252079494
 21
5.5675944326
  0
LINE
  5
36A
100
AcDbEntity
  8
03__ASM_ALL_CURVES
100
AcDbLine
 62
40
  6
CONTINUOUS
 10
4.3880876369
 20
5.5316631826
 11
4.4060532619
 21
5.5077090174
  0
LINE
  5
36B
100
AcDbEntity
  8
03__ASM_ALL_CURVES
100
AcDbLine
 62
40
  6
CONTINUOUS
 10
4.3880876369
 20
5.5915486021
 11
4.3970704494
 21
5.5795715131
  0
LINE
  5
36C
100
AcDbEntity
  8
0
100
AcDbLine
 62
7
  6
CONTINUOUS
 10
5.8129641994
 20
3.5908866826
 11
5.7429641994
 21
3.7121302391
  0
LINE
  5
36D
100
AcDbEntity
  8
128-600_FEATURES
100
AcDbLine
 62
7
  6
CONTINUOUS
 10
5.7425274665
 20
4.8400721422
 11
5.7429641994
 21
4.8332835037
  0
LINE
  5
36E
100
AcDbEntity
  8
128-600_FEATURES
100
AcDbLine
 62
7
  6
CONTINUOUS
 10
5.7425274665
 20
3.9124655364
 11
5.7429641994
 21
3.9044896657
  0
LINE
  5
36F
100
AcDbEntity
  8
03__ASM_ALL_CURVES
100
AcDbLine
 62
40
  6
CONTINUOUS
 10
5.5723893895
 20
3.2438866826
 11
5.5723893895
 21
3.1360929326
  0
LINE
  5
370
100
AcDbEntity
  8
03__ASM_ALL_CURVES
100
AcDbLine
 62
40
  6
CONTINUOUS
 10
5.6060749354
 20
3.0786029326
 11
5.6060749354
 21
2.9708091826
  0
LINE
  5
371
100
AcDbEntity
  8
03__ASM_ALL_CURVES
100
AcDbLine
 62
40
  6
CONTINUOUS
 10
5.707131577
 20
3.2259210555
 11
5.707131577
 21
3.2169382451
  0
LINE
  5
372
100
AcDbEntity
  8
03__ASM_ALL_CURVES
100
AcDbLine
 62
40
  6
CONTINUOUS
 10
5.7138686863
 20
3.1720241837
 11
5.7138686863
 21
3.1630413701
  0
LINE
  5
373
100
AcDbEntity
  8
03__ASM_ALL_CURVES
100
AcDbLine
 62
40
  6
CONTINUOUS
 10
5.7264941994
 20
5.4310556826
 11
5.7264941994
 21
5.3735656826
  0
LINE
  5
374
100
AcDbEntity
  8
128-600_FEATURES
100
AcDbLine
 62
7
  6
CONTINUOUS
 10
5.7425274665
 20
3.7129697614
 11
5.7425274665
 21
3.897701223
  0
LINE
  5
375
100
AcDbEntity
  8
128-600_FEATURES
100
AcDbLine
 62
7
  6
CONTINUOUS
 10
5.7425274665
 20
3.9124655364
 11
5.7425274665
 21
4.3584467365
  0
LINE
  5
376
100
AcDbEntity
  8
128-600_FEATURES
100
AcDbLine
 62
7
  6
CONTINUOUS
 10
5.7425274665
 20
4.3793266287
 11
5.7425274665
 21
4.8253078288
  0
LINE
  5
377
100
AcDbEntity
  8
128-600_FEATURES
100
AcDbLine
 62
7
  6
CONTINUOUS
 10
5.7425274665
 20
4.8400721422
 11
5.7425274665
 21
5.0248036038
  0
LINE
  5
378
100
AcDbEntity
  8
0
100
AcDbLine
 62
7
  6
CONTINUOUS
 10
5.8129641994
 20
3.5908866826
 11
5.8129641994
 21
5.1468866826
  0
LINE
  5
379
100
AcDbEntity
  8
128-600_FEATURES
100
AcDbLine
 62
7
  6
CONTINUOUS
 10
5.7429641994
 20
4.8332835037
 11
5.7425274665
 21
4.8253078288
  0
LINE
  5
37A
100
AcDbEntity
  8
128-600_FEATURES
100
AcDbLine
 62
7
  6
CONTINUOUS
 10
5.7429641994
 20
3.9044896657
 11
5.7425274665
 21
3.897701223
  0
LINE
  5
37B
100
AcDbEntity
  8
03__ASM_ALL_CURVES
100
AcDbLine
 62
40
  6
CONTINUOUS
 10
5.3163792332
 20
3.1899898076
 11
5.3231163426
 21
3.2169382451
  0
LINE
  5
37C
100
AcDbEntity
  8
03__ASM_ALL_CURVES
100
AcDbLine
 62
40
  6
CONTINUOUS
 10
5.3972245457
 20
3.1899898076
 11
5.3904874363
 21
3.1630413701
  0
LINE
  5
37D
100
AcDbEntity
  8
03__ASM_ALL_CURVES
100
AcDbLine
 62
40
  6
CONTINUOUS
 10
5.3837503261
 20
2.9708091826
 11
5.4174358729
 21
3.0786029326
  0
LINE
  5
37E
100
AcDbEntity
  8
THREAD
100
AcDbLine
 62
7
  6
CONTINUOUS
 10
6.1466770123
 20
5.0703866826
 11
6.1189641994
 21
5.0223866826
  0
LINE
  5
37F
100
AcDbEntity
  8
0
100
AcDbLine
 62
7
  6
CONTINUOUS
 10
5.4582669576
 20
3.7128866826
 11
5.3869641994
 21
3.5893866826
  0
LINE
  5
380
100
AcDbEntity
  8
03__ASM_ALL_CURVES
100
AcDbLine
 62
40
  6
CONTINUOUS
 10
5.0263944601
 20
3.2438866826
 11
4.9792346945
 21
3.1630413701
  0
LINE
  5
381
100
AcDbEntity
  8
03__ASM_ALL_CURVES
100
AcDbLine
 62
40
  6
CONTINUOUS
 10
4.7164874289
 20
3.1630413701
 11
4.7030132101
 21
3.1450757454
  0
LINE
  5
382
100
AcDbEntity
  8
03__ASM_ALL_CURVES
100
AcDbLine
 62
40
  6
CONTINUOUS
 10
4.605325126
 20
2.9977576201
 11
4.5918509073
 21
2.9797919954
  0
LINE
  5
383
100
AcDbEntity
  8
03__ASM_ALL_CURVES
100
AcDbLine
 62
40
  6
CONTINUOUS
 10
6.4882367011
 20
5.48375485
 11
6.4792538886
 21
5.4717777663
  0
LINE
  5
384
100
AcDbEntity
  8
03__ASM_ALL_CURVES
100
AcDbLine
 62
40
  6
CONTINUOUS
 10
4.8175440695
 20
3.2079554347
 11
4.8108069601
 21
3.198972618
  0
LINE
  5
385
100
AcDbEntity
  8
03__ASM_ALL_CURVES
100
AcDbLine
 62
40
  6
CONTINUOUS
 10
4.713118876
 20
3.0426716847
 11
4.7063817666
 21
3.033688868
  0
LINE
  5
386
100
AcDbEntity
  8
03__ASM_ALL_CURVES
100
AcDbLine
 62
40
  6
CONTINUOUS
 10
7.1978788886
 20
5.4717777663
 11
7.1799132636
 21
5.4598006826
  0
LINE
  5
387
100
AcDbEntity
  8
03__ASM_ALL_CURVES
100
AcDbLine
 62
40
  6
CONTINUOUS
 10
7.4493976386
 20
5.6035256826
 11
7.4314320136
 21
5.5915486021
  0
LINE
  5
388
100
AcDbEntity
  8
03__ASM_ALL_CURVES
100
AcDbLine
 62
40
  6
CONTINUOUS
 10
7.4853288886
 20
5.4717777663
 11
7.4673632636
 21
5.4598006826
  0
LINE
  5
389
100
AcDbEntity
  8
03__ASM_ALL_CURVES
100
AcDbLine
 62
40
  6
CONTINUOUS
 10
7.7188820136
 20
5.5915486021
 11
7.7368476386
 21
5.6035256826
  0
LINE
  5
38A
100
AcDbEntity
  8
0
100
AcDbLine
 62
7
  6
CONTINUOUS
 10
2.5669641994
 20
4.0878866826
 11
2.7371879211
 21
4.0878866826
  0
LINE
  5
38B
100
AcDbEntity
  8
0
100
AcDbLine
 62
7
  6
CONTINUOUS
 10
2.7739641994
 20
4.0978866826
 11
2.7429641994
 21
4.0978866826
  0
LINE
  5
38C
100
AcDbEntity
  8
0
100
AcDbLine
 62
7
  6
CONTINUOUS
 10
2.5299641994
 20
4.0978866826
 11
2.5239641994
 21
4.0978866826
  0
LINE
  5
38D
100
AcDbEntity
  8
0
100
AcDbLine
 62
7
  6
CONTINUOUS
 10
2.5514641994
 20
4.1033866826
 11
2.5354641994
 21
4.1033866826
  0
LINE
  5
38E
100
AcDbEntity
  8
0
100
AcDbLine
 62
7
  6
CONTINUOUS
 10
1.9919641994
 20
4.1848866826
 11
2.1909641994
 21
4.1848866826
  0
LINE
  5
38F
100
AcDbEntity
  8
0
100
AcDbLine
 62
7
  6
CONTINUOUS
 10
2.2289641994
 20
4.1848866826
 11
2.4619641994
 21
4.1848866826
  0
LINE
  5
390
100
AcDbEntity
  8
0
100
AcDbLine
 62
7
  6
CONTINUOUS
 10
2.1909641994
 20
4.2178866826
 11
2.1924641994
 21
4.2178866826
  0
LINE
  5
391
100
AcDbEntity
  8
0
100
AcDbLine
 62
7
  6
CONTINUOUS
 10
2.2274641994
 20
4.2178866826
 11
2.2289641994
 21
4.2178866826
  0
LINE
  5
392
100
AcDbEntity
  8
03__ASM_ALL_CURVES
100
AcDbLine
 62
40
  6
CONTINUOUS
 10
9.6417673248
 20
4.2323479326
 11
9.5878704498
 21
4.2323479326
  0
LINE
  5
393
100
AcDbEntity
  8
03__ASM_ALL_CURVES
100
AcDbLine
 62
40
  6
CONTINUOUS
 10
9.4059684966
 20
4.2323479326
 11
9.3924942779
 21
4.2323479326
  0
LINE
  5
394
100
AcDbEntity
  8
03__ASM_ALL_CURVES
100
AcDbLine
 62
40
  6
CONTINUOUS
 10
9.2981747466
 20
4.2323479326
 11
9.2847005279
 21
4.2323479326
  0
LINE
  5
395
100
AcDbEntity
  8
03__ASM_ALL_CURVES
100
AcDbLine
 62
40
  6
CONTINUOUS
 10
9.1903809966
 20
4.2323479326
 11
9.1769067779
 21
4.2323479326
  0
LINE
  5
396
100
AcDbEntity
  8
03__ASM_ALL_CURVES
100
AcDbLine
 62
40
  6
CONTINUOUS
 10
9.1027985748
 20
4.2323479326
 11
9.0489016998
 21
4.2323479326
  0
LINE
  5
397
100
AcDbEntity
  8
03__ASM_ALL_CURVES
100
AcDbLine
 62
40
  6
CONTINUOUS
 10
8.6446751373
 20
4.2323479326
 11
8.6177266998
 21
4.2323479326
  0
LINE
  5
398
100
AcDbEntity
  8
03__ASM_ALL_CURVES
100
AcDbLine
 62
40
  6
CONTINUOUS
 10
8.5638298248
 20
4.2323479326
 11
8.5099329498
 21
4.2323479326
  0
LINE
  5
399
100
AcDbEntity
  8
03__ASM_ALL_CURVES
100
AcDbLine
 62
40
  6
CONTINUOUS
 10
8.4358247466
 20
4.2323479326
 11
8.4223505279
 21
4.2323479326
  0
LINE
  5
39A
100
AcDbEntity
  8
03__ASM_ALL_CURVES
100
AcDbLine
 62
40
  6
CONTINUOUS
 10
8.3280309966
 20
4.2323479326
 11
8.3145567779
 21
4.2323479326
  0
LINE
  5
39B
100
AcDbEntity
  8
03__ASM_ALL_CURVES
100
AcDbLine
 62
40
  6
CONTINUOUS
 10
8.2135001373
 20
4.2323479326
 11
8.1865516998
 21
4.2323479326
  0
LINE
  5
39C
100
AcDbEntity
  8
03__ASM_ALL_CURVES
100
AcDbLine
 62
40
  6
CONTINUOUS
 10
8.1326548248
 20
4.2323479326
 11
8.0787579498
 21
4.2323479326
  0
LINE
  5
39D
100
AcDbEntity
  8
03__ASM_ALL_CURVES
100
AcDbLine
 62
40
  6
CONTINUOUS
 10
9.5137622466
 20
4.2862448076
 11
9.4800766998
 21
4.2862448076
  0
LINE
  5
39E
100
AcDbEntity
  8
03__ASM_ALL_CURVES
100
AcDbLine
 62
40
  6
CONTINUOUS
 10
8.9747934966
 20
4.2862448076
 11
8.9411079498
 21
4.2862448076
  0
LINE
  5
39F
100
AcDbEntity
  8
03__ASM_ALL_CURVES
100
AcDbLine
 62
40
  6
CONTINUOUS
 10
8.8669997466
 20
4.2862448076
 11
8.8333141998
 21
4.2862448076
  0
LINE
  5
3A0
100
AcDbEntity
  8
03__ASM_ALL_CURVES
100
AcDbLine
 62
40
  6
CONTINUOUS
 10
8.0046497466
 20
4.2862448076
 11
7.9709641998
 21
4.2862448076
  0
LINE
  5
3A1
100
AcDbEntity
  8
03__ASM_ALL_CURVES
100
AcDbLine
 62
40
  6
CONTINUOUS
 10
8.0787579498
 20
4.2862448076
 11
8.1124434966
 21
4.2862448076
  0
LINE
  5
3A2
100
AcDbEntity
  8
03__ASM_ALL_CURVES
100
AcDbLine
 62
40
  6
CONTINUOUS
 10
8.5099329498
 20
4.2862448076
 11
8.5436184966
 21
4.2862448076
  0
LINE
  5
3A3
100
AcDbEntity
  8
03__ASM_ALL_CURVES
100
AcDbLine
 62
40
  6
CONTINUOUS
 10
9.0489016998
 20
4.2862448076
 11
9.0825872466
 21
4.2862448076
  0
LINE
  5
3A4
100
AcDbEntity
  8
03__ASM_ALL_CURVES
100
AcDbLine
 62
40
  6
CONTINUOUS
 10
9.5878704498
 20
4.2862448076
 11
9.6215559966
 21
4.2862448076
  0
LINE
  5
3A5
100
AcDbEntity
  8
03__ASM_ALL_CURVES
100
AcDbLine
 62
40
  6
CONTINUOUS
 10
6.9557012979
 20
3.2438866826
 11
6.9691755166
 21
3.2349038722
  0
LINE
  5
3A6
100
AcDbEntity
  8
03__ASM_ALL_CURVES
100
AcDbLine
 62
40
  6
CONTINUOUS
 10
3.6335313869
 20
5.4598006826
 11
3.6155657619
 21
5.4717777663
  0
LINE
  5
3A7
100
AcDbEntity
  8
03__ASM_ALL_CURVES
100
AcDbLine
 62
40
  6
CONTINUOUS
 10
3.4987891994
 20
5.6035256826
 11
3.5167548244
 21
5.5915486021
  0
LINE
  5
3A8
100
AcDbEntity
  8
03__ASM_ALL_CURVES
100
AcDbLine
 62
40
  6
CONTINUOUS
 10
3.6514970119
 20
5.5436402631
 11
3.6694626369
 21
5.5316631826
  0
LINE
  5
3A9
100
AcDbEntity
  8
03__ASM_ALL_CURVES
100
AcDbLine
 62
40
  6
CONTINUOUS
 10
7.1712887979
 20
3.2438866826
 11
7.1847630166
 21
3.2349038722
  0
LINE
  5
3AA
100
AcDbEntity
  8
03__ASM_ALL_CURVES
100
AcDbLine
 62
40
  6
CONTINUOUS
 10
3.6514970119
 20
5.6035256826
 11
3.6694626369
 21
5.5915486021
  0
LINE
  5
3AB
100
AcDbEntity
  8
03__ASM_ALL_CURVES
100
AcDbLine
 62
40
  6
CONTINUOUS
 10
3.9299641994
 20
5.4598006826
 11
3.9119985744
 21
5.4717777663
  0
LINE
  5
3AC
100
AcDbEntity
  8
03__ASM_ALL_CURVES
100
AcDbLine
 62
40
  6
CONTINUOUS
 10
4.0736891994
 20
5.4598006826
 11
4.0557235744
 21
5.4717777663
  0
LINE
  5
3AD
100
AcDbEntity
  8
03__ASM_ALL_CURVES
100
AcDbLine
 62
40
  6
CONTINUOUS
 10
4.5318126369
 20
5.5915486021
 11
4.5407954494
 21
5.5795715131
  0
LINE
  5
3AE
100
AcDbEntity
  8
03__ASM_ALL_CURVES
100
AcDbLine
 62
40
  6
CONTINUOUS
 10
4.6396063869
 20
5.6035256826
 11
4.6575720119
 21
5.5795715131
  0
LINE
  5
3AF
100
AcDbEntity
  8
THREAD
100
AcDbLine
 62
7
  6
CONTINUOUS
 10
6.1466770123
 20
3.6673866826
 11
6.1189641994
 21
3.7153866826
  0
LINE
  5
3B0
100
AcDbEntity
  8
0
100
AcDbLine
 62
7
  6
CONTINUOUS
 10
5.8989641994
 20
3.5908866826
 11
5.8989641994
 21
5.1468866826
  0
LINE
  5
3B1
100
AcDbEntity
  8
03__ASM_ALL_CURVES
100
AcDbLine
 62
40
  6
CONTINUOUS
 10
5.8989641994
 20
5.1926316826
 11
5.8989641994
 21
5.4598006826
  0
LINE
  5
3B2
100
AcDbEntity
  8
THREAD
100
AcDbLine
 62
7
  6
CONTINUOUS
 10
5.9459641994
 20
3.6513866826
 11
5.9459641994
 21
5.0863866826
  0
LINE
  5
3B3
100
AcDbEntity
  8
0
100
AcDbLine
 62
7
  6
CONTINUOUS
 10
6.0489641994
 20
3.6508866826
 11
6.0489641994
 21
5.0868866826
  0
LINE
  5
3B4
100
AcDbEntity
  8
03__ASM_ALL_CURVES
100
AcDbLine
 62
40
  6
CONTINUOUS
 10
6.0714341994
 20
5.4310556826
 11
6.0714341994
 21
5.3735656826
  0
LINE
  5
3B5
100
AcDbEntity
  8
0
100
AcDbLine
 62
7
  6
CONTINUOUS
 10
6.0989641994
 20
3.6508866826
 11
6.0989641994
 21
5.0868866826
  0
LINE
  5
3B6
100
AcDbEntity
  8
03__ASM_ALL_CURVES
100
AcDbLine
 62
40
  6
CONTINUOUS
 10
6.2546835761
 20
5.5316631826
 11
6.2636663886
 21
5.5675944326
  0
LINE
  5
3B7
100
AcDbEntity
  8
03__ASM_ALL_CURVES
100
AcDbLine
 62
40
  6
CONTINUOUS
 10
6.3624773261
 20
5.5316631826
 11
6.3534945136
 21
5.4957319326
  0
LINE
  5
3B8
100
AcDbEntity
  8
03__ASM_ALL_CURVES
100
AcDbLine
 62
40
  6
CONTINUOUS
 10
6.3984085761
 20
5.5316631826
 11
6.4073913886
 21
5.5675944326
  0
LINE
  5
3B9
100
AcDbEntity
  8
03__ASM_ALL_CURVES
100
AcDbLine
 62
40
  6
CONTINUOUS
 10
5.275956577
 20
3.2079554347
 11
5.2692194676
 21
3.198972618
  0
LINE
  5
3BA
100
AcDbEntity
  8
03__ASM_ALL_CURVES
100
AcDbLine
 62
40
  6
CONTINUOUS
 10
5.3231163426
 20
3.2169382451
 11
5.3365905613
 21
3.2349038722
  0
LINE
  5
3BB
100
AcDbEntity
  8
03__ASM_ALL_CURVES
100
AcDbLine
 62
40
  6
CONTINUOUS
 10
7.1260163886
 20
5.5675944326
 11
7.1439820136
 21
5.5915486021
  0
LINE
  5
3BC
100
AcDbEntity
  8
03__ASM_ALL_CURVES
100
AcDbLine
 62
40
  6
CONTINUOUS
 10
7.7727788886
 20
5.4717777663
 11
7.7548132636
 21
5.4598006826
  0
LINE
  5
3BD
100
AcDbEntity
  8
03__ASM_ALL_CURVES
100
AcDbLine
 62
40
  6
CONTINUOUS
 10
7.9165038886
 20
5.4717777663
 11
7.8985382636
 21
5.4598006826
  0
LINE
  5
3BE
100
AcDbEntity
  8
03__ASM_ALL_CURVES
100
AcDbLine
 62
40
  6
CONTINUOUS
 10
4.5952194601
 20
3.198972618
 11
4.5817452414
 21
3.1899898076
  0
LINE
  5
3BF
100
AcDbEntity
  8
03__ASM_ALL_CURVES
100
AcDbLine
 62
40
  6
CONTINUOUS
 10
4.6625905539
 20
3.2349038722
 11
4.6760647726
 21
3.2438866826
  0
LINE
  5
3C0
100
AcDbEntity
  8
03__ASM_ALL_CURVES
100
AcDbLine
 62
40
  6
CONTINUOUS
 10
9.2981747466
 20
4.3401416826
 11
9.2847005279
 21
4.3401416826
  0
LINE
  5
3C1
100
AcDbEntity
  8
03__ASM_ALL_CURVES
100
AcDbLine
 62
40
  6
CONTINUOUS
 10
9.1903809966
 20
4.3401416826
 11
9.1769067779
 21
4.3401416826
  0
LINE
  5
3C2
100
AcDbEntity
  8
03__ASM_ALL_CURVES
100
AcDbLine
 62
40
  6
CONTINUOUS
 10
7.9709641998
 20
4.3401416826
 11
8.0046497466
 21
4.3401416826
  0
LINE
  5
3C3
100
AcDbEntity
  8
03__ASM_ALL_CURVES
100
AcDbLine
 62
40
  6
CONTINUOUS
 10
8.0787579498
 20
4.3401416826
 11
8.1326548248
 21
4.3401416826
  0
LINE
  5
3C4
100
AcDbEntity
  8
03__ASM_ALL_CURVES
100
AcDbLine
 62
40
  6
CONTINUOUS
 10
8.1865516998
 20
4.3401416826
 11
8.2135001373
 21
4.3401416826
  0
LINE
  5
3C5
100
AcDbEntity
  8
03__ASM_ALL_CURVES
100
AcDbLine
 62
40
  6
CONTINUOUS
 10
8.4223505279
 20
4.3401416826
 11
8.4358247466
 21
4.3401416826
  0
LINE
  5
3C6
100
AcDbEntity
  8
03__ASM_ALL_CURVES
100
AcDbLine
 62
40
  6
CONTINUOUS
 10
8.5099329498
 20
4.3401416826
 11
8.5638298248
 21
4.3401416826
  0
LINE
  5
3C7
100
AcDbEntity
  8
03__ASM_ALL_CURVES
100
AcDbLine
 62
40
  6
CONTINUOUS
 10
8.6177266998
 20
4.3401416826
 11
8.6446751373
 21
4.3401416826
  0
LINE
  5
3C8
100
AcDbEntity
  8
03__ASM_ALL_CURVES
100
AcDbLine
 62
40
  6
CONTINUOUS
 10
8.8333141998
 20
4.3401416826
 11
8.8669997466
 21
4.3401416826
  0
LINE
  5
3C9
100
AcDbEntity
  8
03__ASM_ALL_CURVES
100
AcDbLine
 62
40
  6
CONTINUOUS
 10
8.9411079498
 20
4.3401416826
 11
8.9747934966
 21
4.3401416826
  0
LINE
  5
3CA
100
AcDbEntity
  8
03__ASM_ALL_CURVES
100
AcDbLine
 62
40
  6
CONTINUOUS
 10
9.0489016998
 20
4.3401416826
 11
9.1027985748
 21
4.3401416826
  0
LINE
  5
3CB
100
AcDbEntity
  8
03__ASM_ALL_CURVES
100
AcDbLine
 62
40
  6
CONTINUOUS
 10
9.4800766998
 20
4.3401416826
 11
9.5137622466
 21
4.3401416826
  0
LINE
  5
3CC
100
AcDbEntity
  8
03__ASM_ALL_CURVES
100
AcDbLine
 62
40
  6
CONTINUOUS
 10
9.5878704498
 20
4.3401416826
 11
9.6417673248
 21
4.3401416826
  0
LINE
  5
3CD
100
AcDbEntity
  8
0
100
AcDbLine
 62
7
  6
CONTINUOUS
 10
2.712092789
 20
4.3688866826
 11
2.6104350506
 21
4.3688866826
  0
LINE
  5
3CE
100
AcDbEntity
  8
03__ASM_ALL_CURVES
100
AcDbLine
 62
40
  6
CONTINUOUS
 10
8.1124434966
 20
4.3976316826
 11
8.0989692779
 21
4.3976316826
  0
LINE
  5
3CF
100
AcDbEntity
  8
03__ASM_ALL_CURVES
100
AcDbLine
 62
40
  6
CONTINUOUS
 10
8.2202372466
 20
4.4515285576
 11
8.1865516998
 21
4.4515285576
  0
LINE
  5
3D0
100
AcDbEntity
  8
03__ASM_ALL_CURVES
100
AcDbLine
 62
40
  6
CONTINUOUS
 10
8.0046497466
 20
4.4515285576
 11
7.9709641998
 21
4.4515285576
  0
LINE
  5
3D1
100
AcDbEntity
  8
03__ASM_ALL_CURVES
100
AcDbLine
 62
40
  6
CONTINUOUS
 10
7.9709641998
 20
4.5054254326
 11
8.0046497466
 21
4.5054254326
  0
LINE
  5
3D2
100
AcDbEntity
  8
03__ASM_ALL_CURVES
100
AcDbLine
 62
40
  6
CONTINUOUS
 10
8.0989692779
 20
4.5054254326
 11
8.1124434966
 21
4.5054254326
  0
LINE
  5
3D3
100
AcDbEntity
  8
03__ASM_ALL_CURVES
100
AcDbLine
 62
40
  6
CONTINUOUS
 10
8.1865516998
 20
4.5054254326
 11
8.2202372466
 21
4.5054254326
  0
LINE
  5
3D4
100
AcDbEntity
  8
03__ASM_ALL_CURVES
100
AcDbLine
 62
40
  6
CONTINUOUS
 10
8.2876083404
 20
4.5054254326
 11
8.3549794341
 21
4.5054254326
  0
LINE
  5
3D5
100
AcDbEntity
  8
0
100
AcDbLine
 62
7
  6
CONTINUOUS
 10
2.1909641994
 20
4.5198866826
 11
2.2289641994
 21
4.5198866826
  0
LINE
  5
3D6
100
AcDbEntity
  8
0
100
AcDbLine
 62
7
  6
CONTINUOUS
 10
1.9919641994
 20
4.5528866826
 11
2.1909641994
 21
4.5528866826
  0
LINE
  5
3D7
100
AcDbEntity
  8
0
100
AcDbLine
 62
7
  6
CONTINUOUS
 10
2.2289641994
 20
4.5528866826
 11
2.4619641994
 21
4.5528866826
  0
LINE
  5
3D8
100
AcDbEntity
  8
03__ASM_ALL_CURVES
100
AcDbLine
 62
40
  6
CONTINUOUS
 10
3.4987891994
 20
5.5196860978
 11
3.4718407619
 21
5.5316631826
  0
LINE
  5
3D9
100
AcDbEntity
  8
03__ASM_ALL_CURVES
100
AcDbLine
 62
40
  6
CONTINUOUS
 10
3.9299641994
 20
5.6035256826
 11
3.9479298244
 21
5.5915486021
  0
LINE
  5
3DA
100
AcDbEntity
  8
03__ASM_ALL_CURVES
100
AcDbLine
 62
40
  6
CONTINUOUS
 10
4.0736891994
 20
5.6035256826
 11
4.0916548244
 21
5.5915486021
  0
LINE
  5
3DB
100
AcDbEntity
  8
03__ASM_ALL_CURVES
100
AcDbLine
 62
40
  6
CONTINUOUS
 10
4.3521563869
 20
5.4598006826
 11
4.3341907619
 21
5.4717777663
  0
LINE
  5
3DC
100
AcDbEntity
  8
03__ASM_ALL_CURVES
100
AcDbLine
 62
40
  6
CONTINUOUS
 10
4.3521563869
 20
5.5436402631
 11
4.3341907619
 21
5.5556173521
  0
LINE
  5
3DD
100
AcDbEntity
  8
03__ASM_ALL_CURVES
100
AcDbLine
 62
40
  6
CONTINUOUS
 10
4.3701220119
 20
5.5436402631
 11
4.3880876369
 21
5.5316631826
  0
LINE
  5
3DE
100
AcDbEntity
  8
03__ASM_ALL_CURVES
100
AcDbLine
 62
40
  6
CONTINUOUS
 10
4.3701220119
 20
5.6035256826
 11
4.3880876369
 21
5.5915486021
  0
LINE
  5
3DF
100
AcDbEntity
  8
03__ASM_ALL_CURVES
100
AcDbLine
 62
40
  6
CONTINUOUS
 10
6.8209591104
 20
3.1450757454
 11
6.8074848916
 21
3.1630413701
  0
LINE
  5
3E0
100
AcDbEntity
  8
03__ASM_ALL_CURVES
100
AcDbLine
 62
40
  6
CONTINUOUS
 10
6.7535880166
 20
3.2349038722
 11
6.760325126
 21
3.2259210555
  0
LINE
  5
3E1
100
AcDbEntity
  8
03__ASM_ALL_CURVES
100
AcDbLine
 62
40
  6
CONTINUOUS
 10
6.8613817666
 20
3.2349038722
 11
6.8748559854
 21
3.2169382451
  0
LINE
  5
3E2
100
AcDbEntity
  8
03__ASM_ALL_CURVES
100
AcDbLine
 62
40
  6
CONTINUOUS
 10
6.9691755166
 20
3.2349038722
 11
6.975912626
 21
3.2259210555
  0
LINE
  5
3E3
100
AcDbEntity
  8
0
100
AcDbLine
 62
7
  6
CONTINUOUS
 10
5.4582669576
 20
5.0248866826
 11
5.3869641994
 21
5.1483866826
  0
LINE
  5
3E4
100
AcDbEntity
  8
THREAD
100
AcDbLine
 62
7
  6
CONTINUOUS
 10
6.1189641994
 20
3.7153866826
 11
6.1189641994
 21
5.0223866826
  0
LINE
  5
3E5
100
AcDbEntity
  8
03__ASM_ALL_CURVES
100
AcDbLine
 62
40
  6
CONTINUOUS
 10
6.1289242011
 20
5.6035256826
 11
6.1289242011
 21
5.4598006826
  0
LINE
  5
3E6
100
AcDbEntity
  8
THREAD
100
AcDbLine
 62
7
  6
CONTINUOUS
 10
6.1466770123
 20
3.6673866826
 11
6.1466770123
 21
5.0703866826
  0
LINE
  5
3E7
100
AcDbEntity
  8
03__ASM_ALL_CURVES
100
AcDbLine
 62
40
  6
CONTINUOUS
 10
6.5511163886
 20
5.4598006826
 11
6.5960304511
 21
5.6035256826
  0
LINE
  5
3E8
100
AcDbEntity
  8
03__ASM_ALL_CURVES
100
AcDbLine
 62
40
  6
CONTINUOUS
 10
5.3904874363
 20
3.1630413701
 11
5.3770132176
 21
3.1450757454
  0
LINE
  5
3E9
100
AcDbEntity
  8
03__ASM_ALL_CURVES
100
AcDbLine
 62
40
  6
CONTINUOUS
 10
5.491544077
 20
3.2079554347
 11
5.4848069676
 21
3.198972618
  0
LINE
  5
3EA
100
AcDbEntity
  8
03__ASM_ALL_CURVES
100
AcDbLine
 62
40
  6
CONTINUOUS
 10
7.2068617011
 20
5.48375485
 11
7.1978788886
 21
5.4717777663
  0
LINE
  5
3EB
100
AcDbEntity
  8
03__ASM_ALL_CURVES
100
AcDbLine
 62
40
  6
CONTINUOUS
 10
7.4314320136
 20
5.5915486021
 11
7.4224492011
 21
5.5795715131
  0
LINE
  5
3EC
100
AcDbEntity
  8
03__ASM_ALL_CURVES
100
AcDbLine
 62
40
  6
CONTINUOUS
 10
5.707131577
 20
3.2169382451
 11
5.7003944676
 21
3.2079554347
  0
LINE
  5
3ED
100
AcDbEntity
  8
03__ASM_ALL_CURVES
100
AcDbLine
 62
40
  6
CONTINUOUS
 10
4.7030132101
 20
3.1450757454
 11
4.6895389914
 21
3.1360929326
  0
LINE
  5
3EE
100
AcDbEntity
  8
03__ASM_ALL_CURVES
100
AcDbLine
 62
40
  6
CONTINUOUS
 10
8.1949710761
 20
5.4717777663
 11
8.1770054511
 21
5.4598006826
  0
LINE
  5
3EF
100
AcDbEntity
  8
03__ASM_ALL_CURVES
100
AcDbLine
 62
40
  6
CONTINUOUS
 10
4.8108069601
 20
3.198972618
 11
4.7973327414
 21
3.1899898076
  0
LINE
  5
3F0
100
AcDbEntity
  8
03__ASM_ALL_CURVES
100
AcDbLine
 62
40
  6
CONTINUOUS
 10
4.5918509073
 20
2.9797919954
 11
4.5783766885
 21
2.9708091826
  0
LINE
  5
3F1
100
AcDbEntity
  8
03__ASM_ALL_CURVES
100
AcDbLine
 62
40
  6
CONTINUOUS
 10
4.7063817666
 20
3.033688868
 11
4.6929075479
 21
3.0247060576
  0
LINE
  5
3F2
100
AcDbEntity
  8
03__ASM_ALL_CURVES
100
AcDbLine
 62
40
  6
CONTINUOUS
 10
8.4914038886
 20
5.5436402631
 11
8.4734382636
 21
5.5316631826
  0
LINE
  5
3F3
100
AcDbEntity
  8
0
100
AcDbLine
 62
7
  6
CONTINUOUS
 10
2.5514641994
 20
4.6343866826
 11
2.5354641994
 21
4.6343866826
  0
LINE
  5
3F4
100
AcDbEntity
  8
0
100
AcDbLine
 62
7
  6
CONTINUOUS
 10
2.7739641994
 20
4.6398866826
 11
2.7429641994
 21
4.6398866826
  0
LINE
  5
3F5
100
AcDbEntity
  8
0
100
AcDbLine
 62
7
  6
CONTINUOUS
 10
2.5299641994
 20
4.6398866826
 11
2.5239641994
 21
4.6398866826
  0
LINE
  5
3F6
100
AcDbEntity
  8
0
100
AcDbLine
 62
7
  6
CONTINUOUS
 10
2.5669641994
 20
4.6498866826
 11
2.7371879211
 21
4.6498866826
  0
LINE
  5
3F7
100
AcDbEntity
  8
0
100
AcDbLine
 62
7
  6
CONTINUOUS
 10
6.9289641994
 20
4.6968866826
 11
6.9129641994
 21
4.6968866826
  0
LINE
  5
3F8
100
AcDbEntity
  8
0
100
AcDbLine
 62
7
  6
CONTINUOUS
 10
4.1613120762
 20
4.7036146804
 11
3.4813483733
 21
4.7036146804
  0
LINE
  5
3F9
100
AcDbEntity
  8
0
100
AcDbLine
 62
7
  6
CONTINUOUS
 10
4.1613120762
 20
4.7427976837
 11
3.4813483733
 21
4.7427976837
  0
LINE
  5
3FA
100
AcDbEntity
  8
03__ASM_ALL_CURVES
100
AcDbLine
 62
40
  6
CONTINUOUS
 10
2.1334341994
 20
5.3783565159
 11
1.9609641994
 21
5.4023106826
  0
LINE
  5
3FB
100
AcDbEntity
  8
03__ASM_ALL_CURVES
100
AcDbLine
 62
40
  6
CONTINUOUS
 10
2.1334341994
 20
5.3735656826
 11
1.9609641994
 21
5.4023106826
  0
LINE
  5
3FC
100
AcDbEntity
  8
03__ASM_ALL_CURVES
100
AcDbLine
 62
40
  6
CONTINUOUS
 10
3.9299641994
 20
5.5196860978
 11
3.9030157619
 21
5.5316631826
  0
LINE
  5
3FD
100
AcDbEntity
  8
03__ASM_ALL_CURVES
100
AcDbLine
 62
40
  6
CONTINUOUS
 10
4.0736891994
 20
5.5196860978
 11
4.0467407619
 21
5.5316631826
  0
LINE
  5
3FE
100
AcDbEntity
  8
03__ASM_ALL_CURVES
100
AcDbLine
 62
40
  6
CONTINUOUS
 10
4.5138470119
 20
5.6035256826
 11
4.5318126369
 21
5.5915486021
  0
LINE
  5
3FF
100
AcDbEntity
  8
03__ASM_ALL_CURVES
100
AcDbLine
 62
40
  6
CONTINUOUS
 10
7.1847630166
 20
3.2349038722
 11
7.191500126
 21
3.2259210555
  0
LINE
  5
400
100
AcDbEntity
  8
03__ASM_ALL_CURVES
100
AcDbLine
 62
40
  6
CONTINUOUS
 10
6.7973792334
 20
3.0786029326
 11
6.8512761084
 21
2.9708091826
  0
LINE
  5
401
100
AcDbEntity
  8
THREAD
100
AcDbLine
 62
7
  6
CONTINUOUS
 10
6.4469641994
 20
3.6673866826
 11
6.4469641994
 21
5.0703866826
  0
LINE
  5
402
100
AcDbEntity
  8
THREAD
100
AcDbLine
 62
7
  6
CONTINUOUS
 10
6.5079641994
 20
3.7283866826
 11
6.5079641994
 21
5.0093866826
  0
LINE
  5
403
100
AcDbEntity
  8
0
100
AcDbLine
 62
7
  6
CONTINUOUS
 10
6.6049641994
 20
3.7283866826
 11
6.6049641994
 21
5.0093866826
  0
LINE
  5
404
100
AcDbEntity
  8
0
100
AcDbLine
 62
7
  6
CONTINUOUS
 10
6.6179641994
 20
3.7413866826
 11
6.6179641994
 21
4.9963866826
  0
LINE
  5
405
100
AcDbEntity
  8
03__ASM_ALL_CURVES
100
AcDbLine
 62
40
  6
CONTINUOUS
 10
5.7138686863
 20
3.1630413701
 11
5.7003944676
 21
3.1450757454
  0
LINE
  5
406
100
AcDbEntity
  8
03__ASM_ALL_CURVES
100
AcDbLine
 62
40
  6
CONTINUOUS
 10
7.4943117011
 20
5.48375485
 11
7.4853288886
 21
5.4717777663
  0
LINE
  5
407
100
AcDbEntity
  8
03__ASM_ALL_CURVES
100
AcDbLine
 62
40
  6
CONTINUOUS
 10
7.7009163886
 20
5.5675944326
 11
7.7188820136
 21
5.5915486021
  0
LINE
  5
408
100
AcDbEntity
  8
03__ASM_ALL_CURVES
100
AcDbLine
 62
40
  6
CONTINUOUS
 10
5.6060749354
 20
3.015723244
 11
5.6599718104
 21
3.0786029326
  0
LINE
  5
409
100
AcDbEntity
  8
03__ASM_ALL_CURVES
100
AcDbLine
 62
40
  6
CONTINUOUS
 10
5.2692194676
 20
3.198972618
 11
5.2557452488
 21
3.1899898076
  0
LINE
  5
40A
100
AcDbEntity
  8
03__ASM_ALL_CURVES
100
AcDbLine
 62
40
  6
CONTINUOUS
 10
5.3365905613
 20
3.2349038722
 11
5.3500647801
 21
3.2438866826
  0
LINE
  5
40B
100
AcDbEntity
  8
03__ASM_ALL_CURVES
100
AcDbLine
 62
40
  6
CONTINUOUS
 10
5.3770132176
 20
3.1450757454
 11
5.3635389988
 21
3.1360929326
  0
LINE
  5
40C
100
AcDbEntity
  8
03__ASM_ALL_CURVES
100
AcDbLine
 62
40
  6
CONTINUOUS
 10
5.4848069676
 20
3.198972618
 11
5.4713327488
 21
3.1899898076
  0
LINE
  5
40D
100
AcDbEntity
  8
03__ASM_ALL_CURVES
100
AcDbLine
 62
40
  6
CONTINUOUS
 10
5.6599718113
 20
3.2349038722
 11
5.6734460301
 21
3.2438866826
  0
LINE
  5
40E
100
AcDbEntity
  8
03__ASM_ALL_CURVES
100
AcDbLine
 62
40
  6
CONTINUOUS
 10
5.7003944676
 20
3.2079554347
 11
5.6869202488
 21
3.198972618
  0
LINE
  5
40F
100
AcDbEntity
  8
0
100
AcDbLine
 62
7
  6
CONTINUOUS
 10
7.3159641994
 20
4.8983866826
 11
7.0074641994
 21
4.8983866826
  0
LINE
  5
410
100
AcDbEntity
  8
0
100
AcDbLine
 62
7
  6
CONTINUOUS
 10
6.7884641994
 20
4.8983866826
 11
6.6179641994
 21
4.8983866826
  0
LINE
  5
411
100
AcDbEntity
  8
0
100
AcDbLine
 62
7
  6
CONTINUOUS
 10
3.4299641994
 20
4.9628866826
 11
2.8359641994
 21
4.9628866826
  0
LINE
  5
412
100
AcDbEntity
  8
0
100
AcDbLine
 62
7
  6
CONTINUOUS
 10
7.4089641994
 20
4.9863866826
 11
7.4589641994
 21
4.9863866826
  0
LINE
  5
413
100
AcDbEntity
  8
0
100
AcDbLine
 62
7
  6
CONTINUOUS
 10
7.5619641994
 20
4.9863866826
 11
7.6054641994
 21
4.9863866826
  0
LINE
  5
414
100
AcDbEntity
  8
0
100
AcDbLine
 62
7
  6
CONTINUOUS
 10
7.3159641994
 20
4.9923866826
 11
7.4089641994
 21
4.9923866826
  0
LINE
  5
415
100
AcDbEntity
  8
0
100
AcDbLine
 62
7
  6
CONTINUOUS
 10
7.6054641994
 20
4.9923866826
 11
7.6794641994
 21
4.9923866826
  0
LINE
  5
416
100
AcDbEntity
  8
THREAD
100
AcDbLine
 62
7
  6
CONTINUOUS
 10
6.1189641994
 20
4.9988866826
 11
6.0989641994
 21
4.9988866826
  0
LINE
  5
417
100
AcDbEntity
  8
THREAD
100
AcDbLine
 62
7
  6
CONTINUOUS
 10
6.6049641994
 20
5.0093866826
 11
6.5079641994
 21
5.0093866826
  0
LINE
  5
418
100
AcDbEntity
  8
0
100
AcDbLine
 62
7
  6
CONTINUOUS
 10
5.4929641994
 20
5.0248866826
 11
5.4582669576
 21
5.0248866826
  0
LINE
  5
419
100
AcDbEntity
  8
0
100
AcDbLine
 62
7
  6
CONTINUOUS
 10
4.9708479746
 20
5.0563866826
 11
4.6970293533
 21
5.0563866826
  0
LINE
  5
41A
100
AcDbEntity
  8
0
100
AcDbLine
 62
7
  6
CONTINUOUS
 10
5.3249641994
 20
5.0603866826
 11
5.2899641994
 21
5.0603866826
  0
LINE
  5
41B
100
AcDbEntity
  8
THREAD
100
AcDbLine
 62
7
  6
CONTINUOUS
 10
6.4469641994
 20
5.0703866826
 11
6.1466770123
 21
5.0703866826
  0
LINE
  5
41C
100
AcDbEntity
  8
0
100
AcDbLine
 62
7
  6
CONTINUOUS
 10
4.5729641994
 20
5.0763866826
 11
4.5519641994
 21
5.0763866826
  0
LINE
  5
41D
100
AcDbEntity
  8
0
100
AcDbLine
 62
7
  6
CONTINUOUS
 10
4.1613120762
 20
5.0775256815
 11
3.4813483733
 21
5.0775256815
  0
LINE
  5
41E
100
AcDbEntity
  8
0
100
AcDbLine
 62
7
  6
CONTINUOUS
 10
4.1613120762
 20
5.0778866826
 11
3.4813483733
 21
5.0778866826
  0
LINE
  5
41F
100
AcDbEntity
  8
THREAD
100
AcDbLine
 62
7
  6
CONTINUOUS
 10
5.9459641994
 20
5.0863866826
 11
5.8989641994
 21
5.0863866826
  0
LINE
  5
420
100
AcDbEntity
  8
0
100
AcDbLine
 62
7
  6
CONTINUOUS
 10
6.0489641994
 20
5.0868866826
 11
6.0989641994
 21
5.0868866826
  0
LINE
  5
421
100
AcDbEntity
  8
03__ASM_ALL_CURVES
100
AcDbLine
 62
40
  6
CONTINUOUS
 10
2.1334341994
 20
5.3879381826
 11
1.9609641994
 21
5.4023106826
  0
LINE
  5
422
100
AcDbEntity
  8
03__ASM_ALL_CURVES
100
AcDbLine
 62
40
  6
CONTINUOUS
 10
2.1334341994
 20
5.3831473493
 11
1.9609641994
 21
5.4023106826
  0
LINE
  5
423
100
AcDbEntity
  8
03__ASM_ALL_CURVES
100
AcDbLine
 62
40
  6
CONTINUOUS
 10
6.9557012979
 20
3.1899898076
 11
6.975912626
 21
3.1360929326
  0
LINE
  5
424
100
AcDbEntity
  8
03__ASM_ALL_CURVES
100
AcDbLine
 62
40
  6
CONTINUOUS
 10
6.8074848916
 20
3.1630413701
 11
6.8007477823
 21
3.1899898076
  0
LINE
  5
425
100
AcDbEntity
  8
03__ASM_ALL_CURVES
100
AcDbLine
 62
40
  6
CONTINUOUS
 10
6.2636663886
 20
5.4957319326
 11
6.2546835761
 21
5.5316631826
  0
LINE
  5
426
100
AcDbEntity
  8
03__ASM_ALL_CURVES
100
AcDbLine
 62
40
  6
CONTINUOUS
 10
6.8748559854
 20
3.2169382451
 11
6.8815930948
 21
3.1899898076
  0
LINE
  5
427
100
AcDbEntity
  8
03__ASM_ALL_CURVES
100
AcDbLine
 62
40
  6
CONTINUOUS
 10
6.3534945136
 20
5.5675944326
 11
6.3624773261
 21
5.5316631826
  0
LINE
  5
428
100
AcDbEntity
  8
03__ASM_ALL_CURVES
100
AcDbLine
 62
40
  6
CONTINUOUS
 10
6.706428251
 20
3.1360929326
 11
6.706428251
 21
3.2438866826
  0
LINE
  5
429
100
AcDbEntity
  8
03__ASM_ALL_CURVES
100
AcDbLine
 62
40
  6
CONTINUOUS
 10
6.7165339209
 20
3.0786029326
 11
6.7165339209
 21
2.9708091826
  0
LINE
  5
42A
100
AcDbEntity
  8
03__ASM_ALL_CURVES
100
AcDbLine
 62
40
  6
CONTINUOUS
 10
6.7397554511
 20
5.6035256826
 11
6.7397554511
 21
5.4598006826
  0
LINE
  5
42B
100
AcDbEntity
  8
03__ASM_ALL_CURVES
100
AcDbLine
 62
40
  6
CONTINUOUS
 10
6.760325126
 20
3.2259210555
 11
6.760325126
 21
3.2079554347
  0
LINE
  5
42C
100
AcDbEntity
  8
03__ASM_ALL_CURVES
100
AcDbLine
 62
40
  6
CONTINUOUS
 10
6.7973792334
 20
2.9708091826
 11
6.7973792334
 21
3.0786029326
  0
LINE
  5
42D
100
AcDbEntity
  8
03__ASM_ALL_CURVES
100
AcDbLine
 62
40
  6
CONTINUOUS
 10
6.8512761084
 20
2.9708091826
 11
6.8512761084
 21
3.0786029326
  0
LINE
  5
42E
100
AcDbEntity
  8
03__ASM_ALL_CURVES
100
AcDbLine
 62
40
  6
CONTINUOUS
 10
6.8834804511
 20
5.6035256826
 11
6.8834804511
 21
5.4598006826
  0
LINE
  5
42F
100
AcDbEntity
  8
03__ASM_ALL_CURVES
100
AcDbLine
 62
40
  6
CONTINUOUS
 10
6.9051729834
 20
3.0786029326
 11
6.9051729834
 21
2.9708091826
  0
LINE
  5
430
100
AcDbEntity
  8
03__ASM_ALL_CURVES
100
AcDbLine
 62
40
  6
CONTINUOUS
 10
7.1170335761
 20
5.5316631826
 11
7.1260163886
 21
5.5675944326
  0
LINE
  5
431
100
AcDbEntity
  8
03__ASM_ALL_CURVES
100
AcDbLine
 62
40
  6
CONTINUOUS
 10
7.7907445136
 20
5.4957319326
 11
7.7727788886
 21
5.4717777663
  0
LINE
  5
432
100
AcDbEntity
  8
03__ASM_ALL_CURVES
100
AcDbLine
 62
40
  6
CONTINUOUS
 10
7.9254867011
 20
5.48375485
 11
7.9165038886
 21
5.4717777663
  0
LINE
  5
433
100
AcDbEntity
  8
THREAD
100
AcDbLine
 62
7
  6
CONTINUOUS
 10
6.5079641994
 20
3.7283866826
 11
6.4469641994
 21
3.6673866826
  0
LINE
  5
434
100
AcDbEntity
  8
0
100
AcDbLine
 62
7
  6
CONTINUOUS
 10
6.6179641994
 20
3.7413866826
 11
6.6049641994
 21
3.7283866826
  0
LINE
  5
435
100
AcDbEntity
  8
03__ASM_ALL_CURVES
100
AcDbLine
 62
40
  6
CONTINUOUS
 10
5.7003944676
 20
3.1450757454
 11
5.6869202488
 21
3.1360929326
  0
LINE
  5
436
100
AcDbEntity
  8
03__ASM_ALL_CURVES
100
AcDbLine
 62
40
  6
CONTINUOUS
 10
8.0181239654
 20
4.460511368
 11
8.0046497466
 21
4.4515285576
  0
LINE
  5
437
100
AcDbEntity
  8
03__ASM_ALL_CURVES
100
AcDbLine
 62
40
  6
CONTINUOUS
 10
8.0854950591
 20
4.4964426222
 11
8.0989692779
 21
4.5054254326
  0
LINE
  5
438
100
AcDbEntity
  8
03__ASM_ALL_CURVES
100
AcDbLine
 62
40
  6
CONTINUOUS
 10
5.7264941994
 20
5.3735656826
 11
6.0714341994
 21
5.4310556826
  0
LINE
  5
439
100
AcDbEntity
  8
03__ASM_ALL_CURVES
100
AcDbLine
 62
40
  6
CONTINUOUS
 10
5.7264941994
 20
5.3783565159
 11
6.0714341994
 21
5.4262648493
  0
LINE
  5
43A
100
AcDbEntity
  8
03__ASM_ALL_CURVES
100
AcDbLine
 62
40
  6
CONTINUOUS
 10
5.7264941994
 20
5.3831473493
 11
6.0714341994
 21
5.4214740159
  0
LINE
  5
43B
100
AcDbEntity
  8
03__ASM_ALL_CURVES
100
AcDbLine
 62
40
  6
CONTINUOUS
 10
5.7264941994
 20
5.3879381826
 11
6.0714341994
 21
5.4166831826
  0
LINE
  5
43C
100
AcDbEntity
  8
03__ASM_ALL_CURVES
100
AcDbLine
 62
40
  6
CONTINUOUS
 10
5.7264941994
 20
5.3927290159
 11
6.0714341994
 21
5.4118923493
  0
LINE
  5
43D
100
AcDbEntity
  8
03__ASM_ALL_CURVES
100
AcDbLine
 62
40
  6
CONTINUOUS
 10
5.7264941994
 20
5.3975198493
 11
6.0714341994
 21
5.4071015159
  0
LINE
  5
43E
100
AcDbEntity
  8
0
100
AcDbLine
 62
7
  6
CONTINUOUS
 10
5.8989641994
 20
5.1468866826
 11
5.8129641994
 21
5.1468866826
  0
LINE
  5
43F
100
AcDbEntity
  8
0
100
AcDbLine
 62
7
  6
CONTINUOUS
 10
5.3869641994
 20
5.1483866826
 11
5.3249641994
 21
5.1483866826
  0
LINE
  5
440
100
AcDbEntity
  8
0
100
AcDbLine
 62
7
  6
CONTINUOUS
 10
4.3989641994
 20
5.1483866826
 11
4.4489641994
 21
5.1483866826
  0
LINE
  5
441
100
AcDbEntity
  8
0
100
AcDbLine
 62
7
  6
CONTINUOUS
 10
5.0239641994
 20
5.1483866826
 11
5.1369641994
 21
5.1483866826
  0
LINE
  5
442
100
AcDbEntity
  8
0
100
AcDbLine
 62
7
  6
CONTINUOUS
 10
5.2399641994
 20
5.1483866826
 11
5.2899641994
 21
5.1483866826
  0
LINE
  5
443
100
AcDbEntity
  8
0
100
AcDbLine
 62
7
  6
CONTINUOUS
 10
4.6349641994
 20
5.1638866826
 11
4.5729641994
 21
5.1638866826
  0
LINE
  5
444
100
AcDbEntity
  8
0
100
AcDbLine
 62
7
  6
CONTINUOUS
 10
4.3989641994
 20
5.1638866826
 11
4.2109641994
 21
5.1638866826
  0
LINE
  5
445
100
AcDbEntity
  8
03__ASM_ALL_CURVES
100
AcDbLine
 62
40
  6
CONTINUOUS
 10
1.9609641994
 20
5.4023106826
 11
8.6584841994
 21
5.4023106826
  0
LINE
  5
446
100
AcDbEntity
  8
03__ASM_ALL_CURVES
100
AcDbLine
 62
40
  6
CONTINUOUS
 10
2.1334341994
 20
5.3975198493
 11
1.9609641994
 21
5.4023106826
  0
LINE
  5
447
100
AcDbEntity
  8
03__ASM_ALL_CURVES
100
AcDbLine
 62
40
  6
CONTINUOUS
 10
5.7264941994
 20
5.4071015159
 11
6.0714341994
 21
5.3975198493
  0
LINE
  5
448
100
AcDbEntity
  8
03__ASM_ALL_CURVES
100
AcDbLine
 62
40
  6
CONTINUOUS
 10
2.1334341994
 20
5.3927290159
 11
1.9609641994
 21
5.4023106826
  0
LINE
  5
449
100
AcDbEntity
  8
03__ASM_ALL_CURVES
100
AcDbLine
 62
40
  6
CONTINUOUS
 10
5.7264941994
 20
5.4118923493
 11
6.0714341994
 21
5.3927290159
  0
LINE
  5
44A
100
AcDbEntity
  8
03__ASM_ALL_CURVES
100
AcDbLine
 62
40
  6
CONTINUOUS
 10
5.7264941994
 20
5.4262648493
 11
6.0714341994
 21
5.3783565159
  0
LINE
  5
44B
100
AcDbEntity
  8
03__ASM_ALL_CURVES
100
AcDbLine
 62
40
  6
CONTINUOUS
 10
6.0714341994
 20
5.3735656826
 11
5.7264941994
 21
5.4310556826
  0
LINE
  5
44C
100
AcDbEntity
  8
THREAD
100
AcDbLine
 62
7
  6
CONTINUOUS
 10
6.5079641994
 20
5.0093866826
 11
6.4469641994
 21
5.0703866826
  0
LINE
  5
44D
100
AcDbEntity
  8
0
100
AcDbLine
 62
7
  6
CONTINUOUS
 10
6.6179641994
 20
4.9963866826
 11
6.6049641994
 21
5.0093866826
  0
LINE
  5
44E
100
AcDbEntity
  8
03__ASM_ALL_CURVES
100
AcDbLine
 62
40
  6
CONTINUOUS
 10
6.2816320136
 20
5.4717777663
 11
6.2636663886
 21
5.4957319326
  0
LINE
  5
44F
100
AcDbEntity
  8
03__ASM_ALL_CURVES
100
AcDbLine
 62
40
  6
CONTINUOUS
 10
6.4073913886
 20
5.4957319326
 11
6.3984085761
 21
5.5316631826
  0
LINE
  5
450
100
AcDbEntity
  8
03__ASM_ALL_CURVES
100
AcDbLine
 62
40
  6
CONTINUOUS
 10
6.922015751
 20
3.1360929326
 11
6.922015751
 21
3.2438866826
  0
LINE
  5
451
100
AcDbEntity
  8
0
100
AcDbLine
 62
7
  6
CONTINUOUS
 10
6.9289641994
 20
4.0402149577
 11
6.9289641994
 21
4.0757266468
  0
LINE
  5
452
100
AcDbEntity
  8
0
100
AcDbLine
 62
7
  6
CONTINUOUS
 10
6.9289641994
 20
4.2641022017
 11
6.9289641994
 21
4.4735502946
  0
LINE
  5
453
100
AcDbEntity
  8
0
100
AcDbLine
 62
7
  6
CONTINUOUS
 10
6.9289641994
 20
4.6620466644
 11
6.9289641994
 21
4.6975584433
  0
LINE
  5
454
100
AcDbEntity
  8
03__ASM_ALL_CURVES
100
AcDbLine
 62
40
  6
CONTINUOUS
 10
6.975912626
 20
3.2259210555
 11
6.975912626
 21
3.2079554347
  0
LINE
  5
455
100
AcDbEntity
  8
0
100
AcDbLine
 62
7
  6
CONTINUOUS
 10
6.9839641994
 20
4.3016180375
 11
6.9839641994
 21
4.4360802141
  0
LINE
  5
456
100
AcDbEntity
  8
0
100
AcDbLine
 62
7
  6
CONTINUOUS
 10
6.9909641994
 20
4.31218967
 11
6.9909641994
 21
4.425645703
  0
LINE
  5
457
100
AcDbEntity
  8
03__ASM_ALL_CURVES
100
AcDbLine
 62
40
  6
CONTINUOUS
 10
6.9912742011
 20
5.4598006826
 11
6.9912742011
 21
5.6035256826
  0
LINE
  5
458
100
AcDbEntity
  8
0
100
AcDbLine
 62
7
  6
CONTINUOUS
 10
7.0009641994
 20
4.3335067162
 11
7.0009641994
 21
4.4043348702
  0
LINE
  5
459
100
AcDbEntity
  8
03__ASM_ALL_CURVES
100
AcDbLine
 62
40
  6
CONTINUOUS
 10
7.0129667334
 20
2.9708091826
 11
7.0129667334
 21
3.0786029326
  0
LINE
  5
45A
100
AcDbEntity
  8
03__ASM_ALL_CURVES
100
AcDbLine
 62
40
  6
CONTINUOUS
 10
7.0567579385
 20
3.2438866826
 11
7.0567579385
 21
3.1360929326
  0
LINE
  5
45B
100
AcDbEntity
  8
03__ASM_ALL_CURVES
100
AcDbLine
 62
40
  6
CONTINUOUS
 10
7.0631367011
 20
5.4598006826
 11
7.0631367011
 21
5.6035256826
  0
LINE
  5
45C
100
AcDbEntity
  8
03__ASM_ALL_CURVES
100
AcDbLine
 62
40
  6
CONTINUOUS
 10
7.1477089209
 20
3.0786029326
 11
7.1477089209
 21
2.9708091826
  0
LINE
  5
45D
100
AcDbEntity
  8
03__ASM_ALL_CURVES
100
AcDbLine
 62
40
  6
CONTINUOUS
 10
6.8007477823
 20
3.1899898076
 11
6.8074848916
 21
3.2169382451
  0
LINE
  5
45E
100
AcDbEntity
  8
03__ASM_ALL_CURVES
100
AcDbLine
 62
40
  6
CONTINUOUS
 10
6.8815930948
 20
3.1899898076
 11
6.8748559854
 21
3.1630413701
  0
LINE
  5
45F
100
AcDbEntity
  8
03__ASM_ALL_CURVES
100
AcDbLine
 62
40
  6
CONTINUOUS
 10
8.2129367011
 20
5.4957319326
 11
8.1949710761
 21
5.4717777663
  0
LINE
  5
460
100
AcDbEntity
  8
03__ASM_ALL_CURVES
100
AcDbLine
 62
40
  6
CONTINUOUS
 10
8.1259177154
 20
4.4066144954
 11
8.1124434966
 21
4.3976316826
  0
LINE
  5
461
100
AcDbEntity
  8
03__ASM_ALL_CURVES
100
AcDbLine
 62
40
  6
CONTINUOUS
 10
8.2337114654
 20
4.460511368
 11
8.2202372466
 21
4.4515285576
  0
LINE
  5
462
100
AcDbEntity
  8
03__ASM_ALL_CURVES
100
AcDbLine
 62
40
  6
CONTINUOUS
 10
8.0181239654
 20
4.295227618
 11
8.0046497466
 21
4.2862448076
  0
LINE
  5
463
100
AcDbEntity
  8
03__ASM_ALL_CURVES
100
AcDbLine
 62
40
  6
CONTINUOUS
 10
8.226974356
 20
4.2413307454
 11
8.2135001373
 21
4.2323479326
  0
LINE
  5
464
100
AcDbEntity
  8
03__ASM_ALL_CURVES
100
AcDbLine
 62
40
  6
CONTINUOUS
 10
2.1334341994
 20
5.4118923493
 11
1.9609641994
 21
5.4023106826
  0
LINE
  5
465
100
AcDbEntity
  8
03__ASM_ALL_CURVES
100
AcDbLine
 62
40
  6
CONTINUOUS
 10
2.1334341994
 20
5.4071015159
 11
1.9609641994
 21
5.4023106826
  0
LINE
  5
466
100
AcDbEntity
  8
03__ASM_ALL_CURVES
100
AcDbLine
 62
40
  6
CONTINUOUS
 10
8.3566617011
 20
5.4598006826
 11
8.2847992011
 21
5.4598006826
  0
LINE
  5
467
100
AcDbEntity
  8
03__ASM_ALL_CURVES
100
AcDbLine
 62
40
  6
CONTINUOUS
 10
8.1770054511
 20
5.4598006826
 11
8.1410742011
 21
5.4598006826
  0
LINE
  5
468
100
AcDbEntity
  8
03__ASM_ALL_CURVES
100
AcDbLine
 62
40
  6
CONTINUOUS
 10
7.8985382636
 20
5.4598006826
 11
7.8805726386
 21
5.4598006826
  0
LINE
  5
469
100
AcDbEntity
  8
03__ASM_ALL_CURVES
100
AcDbLine
 62
40
  6
CONTINUOUS
 10
7.7548132636
 20
5.4598006826
 11
7.7368476386
 21
5.4598006826
  0
LINE
  5
46A
100
AcDbEntity
  8
03__ASM_ALL_CURVES
100
AcDbLine
 62
40
  6
CONTINUOUS
 10
7.4673632636
 20
5.4598006826
 11
7.4493976386
 21
5.4598006826
  0
LINE
  5
46B
100
AcDbEntity
  8
03__ASM_ALL_CURVES
100
AcDbLine
 62
40
  6
CONTINUOUS
 10
7.1799132636
 20
5.4598006826
 11
7.1619476386
 21
5.4598006826
  0
LINE
  5
46C
100
AcDbEntity
  8
03__ASM_ALL_CURVES
100
AcDbLine
 62
40
  6
CONTINUOUS
 10
6.4612882636
 20
5.4598006826
 11
6.4433226386
 21
5.4598006826
  0
LINE
  5
46D
100
AcDbEntity
  8
03__ASM_ALL_CURVES
100
AcDbLine
 62
40
  6
CONTINUOUS
 10
6.3175632636
 20
5.4598006826
 11
6.2995976386
 21
5.4598006826
  0
LINE
  5
46E
100
AcDbEntity
  8
03__ASM_ALL_CURVES
100
AcDbLine
 62
40
  6
CONTINUOUS
 10
4.3701220119
 20
5.4598006826
 11
4.3521563869
 21
5.4598006826
  0
LINE
  5
46F
100
AcDbEntity
  8
03__ASM_ALL_CURVES
100
AcDbLine
 62
40
  6
CONTINUOUS
 10
4.2174141994
 20
5.4598006826
 11
4.2084313869
 21
5.4598006826
  0
LINE
  5
470
100
AcDbEntity
  8
03__ASM_ALL_CURVES
100
AcDbLine
 62
40
  6
CONTINUOUS
 10
3.6514970119
 20
5.4598006826
 11
3.6335313869
 21
5.4598006826
  0
LINE
  5
471
100
AcDbEntity
  8
03__ASM_ALL_CURVES
100
AcDbLine
 62
40
  6
CONTINUOUS
 10
3.3550641994
 20
5.4598006826
 11
3.3460813869
 21
5.4598006826
  0
LINE
  5
472
100
AcDbEntity
  8
03__ASM_ALL_CURVES
100
AcDbLine
 62
40
  6
CONTINUOUS
 10
3.2203220119
 20
5.4598006826
 11
3.2023563869
 21
5.4598006826
  0
LINE
  5
473
100
AcDbEntity
  8
03__ASM_ALL_CURVES
100
AcDbLine
 62
40
  6
CONTINUOUS
 10
4.4689329494
 20
5.4598006826
 11
4.5407954494
 21
5.4598006826
  0
LINE
  5
474
100
AcDbEntity
  8
03__ASM_ALL_CURVES
100
AcDbLine
 62
40
  6
CONTINUOUS
 10
6.1289242011
 20
5.4598006826
 11
6.2007867011
 21
5.4598006826
  0
LINE
  5
475
100
AcDbEntity
  8
03__ASM_ALL_CURVES
100
AcDbLine
 62
40
  6
CONTINUOUS
 10
7.9973492011
 20
5.4598006826
 11
8.0692117011
 21
5.4598006826
  0
LINE
  5
476
100
AcDbEntity
  8
03__ASM_ALL_CURVES
100
AcDbLine
 62
40
  6
CONTINUOUS
 10
6.5690820136
 20
5.5077090174
 11
6.6229788886
 21
5.5077090174
  0
LINE
  5
477
100
AcDbEntity
  8
03__ASM_ALL_CURVES
100
AcDbLine
 62
40
  6
CONTINUOUS
 10
8.4734382636
 20
5.5316631826
 11
8.4285242011
 21
5.5316631826
  0
LINE
  5
478
100
AcDbEntity
  8
03__ASM_ALL_CURVES
100
AcDbLine
 62
40
  6
CONTINUOUS
 10
7.1709304511
 20
5.5316631826
 11
7.2068617011
 21
5.5316631826
  0
LINE
  5
479
100
AcDbEntity
  8
03__ASM_ALL_CURVES
100
AcDbLine
 62
40
  6
CONTINUOUS
 10
7.5661742011
 20
5.5316631826
 11
7.6380367011
 21
5.5316631826
  0
LINE
  5
47A
100
AcDbEntity
  8
03__ASM_ALL_CURVES
100
AcDbLine
 62
40
  6
CONTINUOUS
 10
8.2847992011
 20
5.5316631826
 11
8.3297132636
 21
5.5316631826
  0
LINE
  5
47B
100
AcDbEntity
  8
03__ASM_ALL_CURVES
100
AcDbLine
 62
40
  6
CONTINUOUS
 10
3.2023563869
 20
5.5436402631
 11
3.2203220119
 21
5.5436402631
  0
LINE
  5
47C
100
AcDbEntity
  8
03__ASM_ALL_CURVES
100
AcDbLine
 62
40
  6
CONTINUOUS
 10
3.6335313869
 20
5.5436402631
 11
3.6514970119
 21
5.5436402631
  0
LINE
  5
47D
100
AcDbEntity
  8
03__ASM_ALL_CURVES
100
AcDbLine
 62
40
  6
CONTINUOUS
 10
4.3521563869
 20
5.5436402631
 11
4.3701220119
 21
5.5436402631
  0
LINE
  5
47E
100
AcDbEntity
  8
03__ASM_ALL_CURVES
100
AcDbLine
 62
40
  6
CONTINUOUS
 10
7.4673632636
 20
5.6035256826
 11
7.4493976386
 21
5.6035256826
  0
LINE
  5
47F
100
AcDbEntity
  8
03__ASM_ALL_CURVES
100
AcDbLine
 62
40
  6
CONTINUOUS
 10
3.2023563869
 20
5.6035256826
 11
3.2203220119
 21
5.6035256826
  0
LINE
  5
480
100
AcDbEntity
  8
03__ASM_ALL_CURVES
100
AcDbLine
 62
40
  6
CONTINUOUS
 10
3.6335313869
 20
5.6035256826
 11
3.6514970119
 21
5.6035256826
  0
LINE
  5
481
100
AcDbEntity
  8
03__ASM_ALL_CURVES
100
AcDbLine
 62
40
  6
CONTINUOUS
 10
4.3521563869
 20
5.6035256826
 11
4.3701220119
 21
5.6035256826
  0
LINE
  5
482
100
AcDbEntity
  8
03__ASM_ALL_CURVES
100
AcDbLine
 62
40
  6
CONTINUOUS
 10
4.4958813869
 20
5.6035256826
 11
4.5138470119
 21
5.6035256826
  0
LINE
  5
483
100
AcDbEntity
  8
03__ASM_ALL_CURVES
100
AcDbLine
 62
40
  6
CONTINUOUS
 10
6.2995976386
 20
5.6035256826
 11
6.3175632636
 21
5.6035256826
  0
LINE
  5
484
100
AcDbEntity
  8
03__ASM_ALL_CURVES
100
AcDbLine
 62
40
  6
CONTINUOUS
 10
6.4433226386
 20
5.6035256826
 11
6.4612882636
 21
5.6035256826
  0
LINE
  5
485
100
AcDbEntity
  8
03__ASM_ALL_CURVES
100
AcDbLine
 62
40
  6
CONTINUOUS
 10
6.6948413886
 20
5.6035256826
 11
6.7846695136
 21
5.6035256826
  0
LINE
  5
486
100
AcDbEntity
  8
03__ASM_ALL_CURVES
100
AcDbLine
 62
40
  6
CONTINUOUS
 10
7.1619476386
 20
5.6035256826
 11
7.1799132636
 21
5.6035256826
  0
LINE
  5
487
100
AcDbEntity
  8
03__ASM_ALL_CURVES
100
AcDbLine
 62
40
  6
CONTINUOUS
 10
7.7368476386
 20
5.6035256826
 11
7.7548132636
 21
5.6035256826
  0
LINE
  5
488
100
AcDbEntity
  8
03__ASM_ALL_CURVES
100
AcDbLine
 62
40
  6
CONTINUOUS
 10
8.1410742011
 20
5.6035256826
 11
8.1770054511
 21
5.6035256826
  0
LINE
  5
489
100
AcDbEntity
  8
03__ASM_ALL_CURVES
100
AcDbLine
 62
40
  6
CONTINUOUS
 10
8.2847992011
 20
5.6035256826
 11
8.3566617011
 21
5.6035256826
  0
LINE
  5
48A
100
AcDbEntity
  8
03__ASM_ALL_CURVES
100
AcDbLine
 62
40
  6
CONTINUOUS
 10
8.4285242011
 20
5.6035256826
 11
8.4734382636
 21
5.6035256826
  0
LINE
  5
48B
100
AcDbEntity
  8
03__ASM_ALL_CURVES
100
AcDbLine
 62
40
  6
CONTINUOUS
 10
5.7264941994
 20
5.4166831826
 11
6.0714341994
 21
5.3879381826
  0
LINE
  5
48C
100
AcDbEntity
  8
03__ASM_ALL_CURVES
100
AcDbLine
 62
40
  6
CONTINUOUS
 10
5.7264941994
 20
5.4214740159
 11
6.0714341994
 21
5.3831473493
  0
LINE
  5
48D
100
AcDbEntity
  8
03__ASM_ALL_CURVES
100
AcDbLine
 62
40
  6
CONTINUOUS
 10
6.2995976386
 20
5.4598006826
 11
6.2816320136
 21
5.4717777663
  0
LINE
  5
48E
100
AcDbEntity
  8
03__ASM_ALL_CURVES
100
AcDbLine
 62
40
  6
CONTINUOUS
 10
8.0046497466
 20
4.3401416826
 11
8.0181239654
 21
4.3311588722
  0
LINE
  5
48F
100
AcDbEntity
  8
03__ASM_ALL_CURVES
100
AcDbLine
 62
40
  6
CONTINUOUS
 10
6.4433226386
 20
5.4598006826
 11
6.4253570136
 21
5.4717777663
  0
LINE
  5
490
100
AcDbEntity
  8
03__ASM_ALL_CURVES
100
AcDbLine
 62
40
  6
CONTINUOUS
 10
8.3145567779
 20
4.2323479326
 11
8.3010825591
 21
4.2413307454
  0
LINE
  5
491
100
AcDbEntity
  8
03__ASM_ALL_CURVES
100
AcDbLine
 62
40
  6
CONTINUOUS
 10
8.0989692779
 20
4.3976316826
 11
8.0854950591
 21
4.4066144954
  0
LINE
  5
492
100
AcDbEntity
  8
03__ASM_ALL_CURVES
100
AcDbLine
 62
40
  6
CONTINUOUS
 10
6.3175632636
 20
5.6035256826
 11
6.3355288886
 21
5.5915486021
  0
LINE
  5
493
100
AcDbEntity
  8
03__ASM_ALL_CURVES
100
AcDbLine
 62
40
  6
CONTINUOUS
 10
8.2135001373
 20
4.3401416826
 11
8.226974356
 21
4.3311588722
  0
LINE
  5
494
100
AcDbEntity
  8
03__ASM_ALL_CURVES
100
AcDbLine
 62
40
  6
CONTINUOUS
 10
6.3355288886
 20
5.5915486021
 11
6.3534945136
 21
5.5675944326
  0
LINE
  5
495
100
AcDbEntity
  8
03__ASM_ALL_CURVES
100
AcDbLine
 62
40
  6
CONTINUOUS
 10
6.4253570136
 20
5.4717777663
 11
6.4073913886
 21
5.4957319326
  0
LINE
  5
496
100
AcDbEntity
  8
03__ASM_ALL_CURVES
100
AcDbLine
 62
40
  6
CONTINUOUS
 10
6.4792538886
 20
5.5915486021
 11
6.4882367011
 21
5.5795715131
  0
LINE
  5
497
100
AcDbEntity
  8
03__ASM_ALL_CURVES
100
AcDbLine
 62
40
  6
CONTINUOUS
 10
6.5960304511
 20
5.6035256826
 11
6.6409445136
 21
5.4598006826
  0
LINE
  5
498
100
AcDbEntity
  8
03__ASM_ALL_CURVES
100
AcDbLine
 62
40
  6
CONTINUOUS
 10
7.191500126
 20
3.2259210555
 11
7.191500126
 21
3.2079554347
  0
LINE
  5
499
100
AcDbEntity
  8
03__ASM_ALL_CURVES
100
AcDbLine
 62
40
  6
CONTINUOUS
 10
7.2068617011
 20
5.5316631826
 11
7.2068617011
 21
5.48375485
  0
LINE
  5
49A
100
AcDbEntity
  8
0
100
AcDbLine
 62
7
  6
CONTINUOUS
 10
7.3159641994
 20
4.9923866826
 11
7.3159641994
 21
3.7453866826
  0
LINE
  5
49B
100
AcDbEntity
  8
0
100
AcDbLine
 62
7
  6
CONTINUOUS
 10
7.4089641994
 20
4.9923866826
 11
7.4089641994
 21
3.7453866826
  0
LINE
  5
49C
100
AcDbEntity
  8
03__ASM_ALL_CURVES
100
AcDbLine
 62
40
  6
CONTINUOUS
 10
7.4224492011
 20
5.5795715131
 11
7.4224492011
 21
5.5675944326
  0
LINE
  5
49D
100
AcDbEntity
  8
0
100
AcDbLine
 62
7
  6
CONTINUOUS
 10
7.4589641994
 20
3.7513866826
 11
7.4589641994
 21
4.9863866826
  0
LINE
  5
49E
100
AcDbEntity
  8
03__ASM_ALL_CURVES
100
AcDbLine
 62
40
  6
CONTINUOUS
 10
7.6919335761
 20
5.5316631826
 11
7.7009163886
 21
5.5675944326
  0
LINE
  5
49F
100
AcDbEntity
  8
03__ASM_ALL_CURVES
100
AcDbLine
 62
40
  6
CONTINUOUS
 10
7.1443403604
 20
3.1630413701
 11
7.137603251
 21
3.1360929326
  0
LINE
  5
4A0
100
AcDbEntity
  8
03__ASM_ALL_CURVES
100
AcDbLine
 62
40
  6
CONTINUOUS
 10
7.7997273261
 20
5.5316631826
 11
7.7907445136
 21
5.4957319326
  0
LINE
  5
4A1
100
AcDbEntity
  8
03__ASM_ALL_CURVES
100
AcDbLine
 62
40
  6
CONTINUOUS
 10
8.5003867011
 20
5.5556173521
 11
8.4914038886
 21
5.5436402631
  0
LINE
  5
4A2
100
AcDbEntity
  8
03__ASM_ALL_CURVES
100
AcDbLine
 62
40
  6
CONTINUOUS
 10
6.760325126
 20
3.2079554347
 11
6.7535880166
 21
3.198972618
  0
LINE
  5
4A3
100
AcDbEntity
  8
03__ASM_ALL_CURVES
100
AcDbLine
 62
40
  6
CONTINUOUS
 10
6.8074848916
 20
3.2169382451
 11
6.8209591104
 21
3.2349038722
  0
LINE
  5
4A4
100
AcDbEntity
  8
03__ASM_ALL_CURVES
100
AcDbLine
 62
40
  6
CONTINUOUS
 10
6.8748559854
 20
3.1630413701
 11
6.8613817666
 21
3.1450757454
  0
LINE
  5
4A5
100
AcDbEntity
  8
03__ASM_ALL_CURVES
100
AcDbLine
 62
40
  6
CONTINUOUS
 10
6.975912626
 20
3.2079554347
 11
6.9691755166
 21
3.198972618
  0
LINE
  5
4A6
100
AcDbEntity
  8
03__ASM_ALL_CURVES
100
AcDbLine
 62
40
  6
CONTINUOUS
 10
8.4088763091
 20
4.3311588722
 11
8.4223505279
 21
4.3401416826
  0
LINE
  5
4A7
100
AcDbEntity
  8
03__ASM_ALL_CURVES
100
AcDbLine
 62
40
  6
CONTINUOUS
 10
6.7535880166
 20
3.198972618
 11
6.7401137979
 21
3.1899898076
  0
LINE
  5
4A8
100
AcDbEntity
  8
03__ASM_ALL_CURVES
100
AcDbLine
 62
40
  6
CONTINUOUS
 10
6.8209591104
 20
3.2349038722
 11
6.8344333291
 21
3.2438866826
  0
LINE
  5
4A9
100
AcDbEntity
  8
03__ASM_ALL_CURVES
100
AcDbLine
 62
40
  6
CONTINUOUS
 10
8.3415052154
 20
4.2413307454
 11
8.3280309966
 21
4.2323479326
  0
LINE
  5
4AA
100
AcDbEntity
  8
03__ASM_ALL_CURVES
100
AcDbLine
 62
40
  6
CONTINUOUS
 10
8.4492989654
 20
4.2413307454
 11
8.4358247466
 21
4.2323479326
  0
LINE
  5
4AB
100
AcDbEntity
  8
03__ASM_ALL_CURVES
100
AcDbLine
 62
40
  6
CONTINUOUS
 10
6.8613817666
 20
3.1450757454
 11
6.8479075479
 21
3.1360929326
  0
LINE
  5
4AC
100
AcDbEntity
  8
03__ASM_ALL_CURVES
100
AcDbLine
 62
40
  6
CONTINUOUS
 10
6.9691755166
 20
3.198972618
 11
6.9557012979
 21
3.1899898076
  0
LINE
  5
4AD
100
AcDbEntity
  8
03__ASM_ALL_CURVES
100
AcDbLine
 62
40
  6
CONTINUOUS
 10
7.1443403604
 20
3.2349038722
 11
7.1578145791
 21
3.2438866826
  0
LINE
  5
4AE
100
AcDbEntity
  8
03__ASM_ALL_CURVES
100
AcDbLine
 62
40
  6
CONTINUOUS
 10
8.658149356
 20
4.2413307454
 11
8.6446751373
 21
4.2323479326
  0
LINE
  5
4AF
100
AcDbEntity
  8
03__ASM_ALL_CURVES
100
AcDbLine
 62
40
  6
CONTINUOUS
 10
2.1334341994
 20
5.4262648493
 11
1.9609641994
 21
5.4023106826
  0
LINE
  5
4B0
100
AcDbEntity
  8
03__ASM_ALL_CURVES
100
AcDbLine
 62
40
  6
CONTINUOUS
 10
2.1334341994
 20
5.4214740159
 11
1.9609641994
 21
5.4023106826
  0
LINE
  5
4B1
100
AcDbEntity
  8
03__ASM_ALL_CURVES
100
AcDbLine
 62
40
  6
CONTINUOUS
 10
2.1334341994
 20
5.4166831826
 11
1.9609641994
 21
5.4023106826
  0
LINE
  5
4B2
100
AcDbEntity
  8
03__ASM_ALL_CURVES
100
AcDbLine
 62
40
  6
CONTINUOUS
 10
8.0046497466
 20
4.5054254326
 11
8.0181239654
 21
4.4964426222
  0
LINE
  5
4B3
100
AcDbEntity
  8
03__ASM_ALL_CURVES
100
AcDbLine
 62
40
  6
CONTINUOUS
 10
8.4223505279
 20
4.2323479326
 11
8.4088763091
 21
4.2413307454
  0
LINE
  5
4B4
100
AcDbEntity
  8
03__ASM_ALL_CURVES
100
AcDbLine
 62
40
  6
CONTINUOUS
 10
6.4612882636
 20
5.6035256826
 11
6.4792538886
 21
5.5915486021
  0
LINE
  5
4B5
100
AcDbEntity
  8
03__ASM_ALL_CURVES
100
AcDbLine
 62
40
  6
CONTINUOUS
 10
8.1124434966
 20
4.5054254326
 11
8.1259177154
 21
4.4964426222
  0
LINE
  5
4B6
100
AcDbEntity
  8
03__ASM_ALL_CURVES
100
AcDbLine
 62
40
  6
CONTINUOUS
 10
8.4358247466
 20
4.3401416826
 11
8.4492989654
 21
4.3311588722
  0
LINE
  5
4B7
100
AcDbEntity
  8
03__ASM_ALL_CURVES
100
AcDbLine
 62
40
  6
CONTINUOUS
 10
8.2202372466
 20
4.5054254326
 11
8.2337114654
 21
4.4964426222
  0
LINE
  5
4B8
100
AcDbEntity
  8
03__ASM_ALL_CURVES
100
AcDbLine
 62
40
  6
CONTINUOUS
 10
8.6446751373
 20
4.3401416826
 11
8.658149356
 21
4.3311588722
  0
LINE
  5
4B9
100
AcDbEntity
  8
03__ASM_ALL_CURVES
100
AcDbLine
 62
40
  6
CONTINUOUS
 10
6.9912742011
 20
5.6035256826
 11
7.0631367011
 21
5.4598006826
  0
LINE
  5
4BA
100
AcDbEntity
  8
03__ASM_ALL_CURVES
100
AcDbLine
 62
40
  6
CONTINUOUS
 10
7.1260163886
 20
5.4957319326
 11
7.1170335761
 21
5.5316631826
  0
LINE
  5
4BB
100
AcDbEntity
  8
03__ASM_ALL_CURVES
100
AcDbLine
 62
40
  6
CONTINUOUS
 10
7.4943117011
 20
5.5077090174
 11
7.4943117011
 21
5.48375485
  0
LINE
  5
4BC
100
AcDbEntity
  8
0
100
AcDbLine
 62
7
  6
CONTINUOUS
 10
7.5619641994
 20
3.7513866826
 11
7.5619641994
 21
4.9863866826
  0
LINE
  5
4BD
100
AcDbEntity
  8
03__ASM_ALL_CURVES
100
AcDbLine
 62
40
  6
CONTINUOUS
 10
7.5661742011
 20
5.6035256826
 11
7.5661742011
 21
5.4598006826
  0
LINE
  5
4BE
100
AcDbEntity
  8
0
100
AcDbLine
 62
7
  6
CONTINUOUS
 10
7.6054641994
 20
3.7453876305
 11
7.6054641994
 21
4.9923857347
  0
LINE
  5
4BF
100
AcDbEntity
  8
03__ASM_ALL_CURVES
100
AcDbLine
 62
40
  6
CONTINUOUS
 10
7.6380367011
 20
5.6035256826
 11
7.6380367011
 21
5.4598006826
  0
LINE
  5
4C0
100
AcDbEntity
  8
0
100
AcDbLine
 62
7
  6
CONTINUOUS
 10
7.6794641994
 20
3.7453866826
 11
7.6794641994
 21
4.9923866826
  0
LINE
  5
4C1
100
AcDbEntity
  8
0
100
AcDbLine
 62
7
  6
CONTINUOUS
 10
7.7104641994
 20
3.776393625
 11
7.7104641994
 21
4.9613797402
  0
LINE
  5
4C2
100
AcDbEntity
  8
03__ASM_ALL_CURVES
100
AcDbLine
 62
40
  6
CONTINUOUS
 10
8.0248610748
 20
4.4694941847
 11
8.0181239654
 21
4.460511368
  0
LINE
  5
4C3
100
AcDbEntity
  8
03__ASM_ALL_CURVES
100
AcDbLine
 62
40
  6
CONTINUOUS
 10
8.0720208404
 20
4.4784769951
 11
8.0854950591
 21
4.4964426222
  0
LINE
  5
4C4
100
AcDbEntity
  8
03__ASM_ALL_CURVES
100
AcDbLine
 62
40
  6
CONTINUOUS
 10
7.137603251
 20
3.2259210555
 11
7.1443403604
 21
3.2349038722
  0
LINE
  5
4C5
100
AcDbEntity
  8
03__ASM_ALL_CURVES
100
AcDbLine
 62
40
  6
CONTINUOUS
 10
7.1578145791
 20
3.181006994
 11
7.1443403604
 21
3.1630413701
  0
LINE
  5
4C6
100
AcDbEntity
  8
03__ASM_ALL_CURVES
100
AcDbLine
 62
40
  6
CONTINUOUS
 10
7.191500126
 20
3.2079554347
 11
7.1847630166
 21
3.198972618
  0
LINE
  5
4C7
100
AcDbEntity
  8
03__ASM_ALL_CURVES
100
AcDbLine
 62
40
  6
CONTINUOUS
 10
8.0248610748
 20
4.3042104347
 11
8.0181239654
 21
4.295227618
  0
LINE
  5
4C8
100
AcDbEntity
  8
03__ASM_ALL_CURVES
100
AcDbLine
 62
40
  6
CONTINUOUS
 10
8.1393919341
 20
4.4245801201
 11
8.1259177154
 21
4.4066144954
  0
LINE
  5
4C9
100
AcDbEntity
  8
03__ASM_ALL_CURVES
100
AcDbLine
 62
40
  6
CONTINUOUS
 10
8.2404485748
 20
4.4694941847
 11
8.2337114654
 21
4.460511368
  0
LINE
  5
4CA
100
AcDbEntity
  8
0
100
AcDbLine
 62
7
  6
CONTINUOUS
 10
7.6794641994
 20
3.7453866826
 11
7.7104641994
 21
3.7763866826
  0
LINE
  5
4CB
100
AcDbEntity
  8
03__ASM_ALL_CURVES
100
AcDbLine
 62
40
  6
CONTINUOUS
 10
7.1847630166
 20
3.198972618
 11
7.1578145791
 21
3.181006994
  0
LINE
  5
4CC
100
AcDbEntity
  8
03__ASM_ALL_CURVES
100
AcDbLine
 62
40
  6
CONTINUOUS
 10
8.8804739654
 20
4.295227618
 11
8.8669997466
 21
4.2862448076
  0
LINE
  5
4CD
100
AcDbEntity
  8
03__ASM_ALL_CURVES
100
AcDbLine
 62
40
  6
CONTINUOUS
 10
8.9882677154
 20
4.295227618
 11
8.9747934966
 21
4.2862448076
  0
LINE
  5
4CE
100
AcDbEntity
  8
03__ASM_ALL_CURVES
100
AcDbLine
 62
40
  6
CONTINUOUS
 10
9.1769067779
 20
4.3401416826
 11
9.1634325591
 21
4.3311588722
  0
LINE
  5
4CF
100
AcDbEntity
  8
03__ASM_ALL_CURVES
100
AcDbLine
 62
40
  6
CONTINUOUS
 10
9.2847005279
 20
4.3401416826
 11
9.2712263091
 21
4.3311588722
  0
LINE
  5
4D0
100
AcDbEntity
  8
03__ASM_ALL_CURVES
100
AcDbLine
 62
40
  6
CONTINUOUS
 10
9.2038552154
 20
4.2413307454
 11
9.1903809966
 21
4.2323479326
  0
LINE
  5
4D1
100
AcDbEntity
  8
03__ASM_ALL_CURVES
100
AcDbLine
 62
40
  6
CONTINUOUS
 10
1.9609641994
 20
5.4023106826
 11
2.1334341994
 21
5.4310556826
  0
LINE
  5
4D2
100
AcDbEntity
  8
03__ASM_ALL_CURVES
100
AcDbLine
 62
40
  6
CONTINUOUS
 10
7.1619476386
 20
5.4598006826
 11
7.1439820136
 21
5.4717777663
  0
LINE
  5
4D3
100
AcDbEntity
  8
03__ASM_ALL_CURVES
100
AcDbLine
 62
40
  6
CONTINUOUS
 10
8.8669997466
 20
4.3401416826
 11
8.8804739654
 21
4.3311588722
  0
LINE
  5
4D4
100
AcDbEntity
  8
03__ASM_ALL_CURVES
100
AcDbLine
 62
40
  6
CONTINUOUS
 10
8.9747934966
 20
4.3401416826
 11
8.9882677154
 21
4.3311588722
  0
LINE
  5
4D5
100
AcDbEntity
  8
03__ASM_ALL_CURVES
100
AcDbLine
 62
40
  6
CONTINUOUS
 10
9.1769067779
 20
4.2323479326
 11
9.1634325591
 21
4.2413307454
  0
LINE
  5
4D6
100
AcDbEntity
  8
03__ASM_ALL_CURVES
100
AcDbLine
 62
40
  6
CONTINUOUS
 10
7.1799132636
 20
5.6035256826
 11
7.1978788886
 21
5.5915486021
  0
LINE
  5
4D7
100
AcDbEntity
  8
03__ASM_ALL_CURVES
100
AcDbLine
 62
40
  6
CONTINUOUS
 10
9.1634325591
 20
4.3042104347
 11
9.2038552154
 21
4.277261994
  0
LINE
  5
4D8
100
AcDbEntity
  8
03__ASM_ALL_CURVES
100
AcDbLine
 62
40
  6
CONTINUOUS
 10
9.2847005279
 20
4.2323479326
 11
9.2712263091
 21
4.2413307454
  0
LINE
  5
4D9
100
AcDbEntity
  8
03__ASM_ALL_CURVES
100
AcDbLine
 62
40
  6
CONTINUOUS
 10
7.4493976386
 20
5.4598006826
 11
7.4314320136
 21
5.4717777663
  0
LINE
  5
4DA
100
AcDbEntity
  8
03__ASM_ALL_CURVES
100
AcDbLine
 62
40
  6
CONTINUOUS
 10
9.2038552154
 20
4.3311588722
 11
9.1903809966
 21
4.3401416826
  0
LINE
  5
4DB
100
AcDbEntity
  8
0
100
AcDbLine
 62
7
  6
CONTINUOUS
 10
7.6794641994
 20
4.9923866826
 11
7.7104641994
 21
4.9613866826
  0
LINE
  5
4DC
100
AcDbEntity
  8
03__ASM_ALL_CURVES
100
AcDbLine
 62
40
  6
CONTINUOUS
 10
7.1439820136
 20
5.4717777663
 11
7.1260163886
 21
5.4957319326
  0
LINE
  5
4DD
100
AcDbEntity
  8
03__ASM_ALL_CURVES
100
AcDbLine
 62
40
  6
CONTINUOUS
 10
8.0181239654
 20
4.3311588722
 11
8.0248610748
 21
4.3221760555
  0
LINE
  5
4DE
100
AcDbEntity
  8
03__ASM_ALL_CURVES
100
AcDbLine
 62
40
  6
CONTINUOUS
 10
8.0854950591
 20
4.4066144954
 11
8.0720208404
 21
4.4245801201
  0
LINE
  5
4DF
100
AcDbEntity
  8
03__ASM_ALL_CURVES
100
AcDbLine
 62
40
  6
CONTINUOUS
 10
8.0181239654
 20
4.4964426222
 11
8.0248610748
 21
4.4874598055
  0
LINE
  5
4E0
100
AcDbEntity
  8
03__ASM_ALL_CURVES
100
AcDbLine
 62
40
  6
CONTINUOUS
 10
7.1978788886
 20
5.5915486021
 11
7.2068617011
 21
5.5795715131
  0
LINE
  5
4E1
100
AcDbEntity
  8
03__ASM_ALL_CURVES
100
AcDbLine
 62
40
  6
CONTINUOUS
 10
7.8536242011
 20
5.48375485
 11
7.8536242011
 21
5.6035256826
  0
LINE
  5
4E2
100
AcDbEntity
  8
03__ASM_ALL_CURVES
100
AcDbLine
 62
40
  6
CONTINUOUS
 10
7.9254867011
 20
5.6035256826
 11
7.9254867011
 21
5.48375485
  0
LINE
  5
4E3
100
AcDbEntity
  8
03__ASM_ALL_CURVES
100
AcDbLine
 62
40
  6
CONTINUOUS
 10
7.9709641998
 20
4.2323479326
 11
7.9709641998
 21
4.3401416826
  0
LINE
  5
4E4
100
AcDbEntity
  8
03__ASM_ALL_CURVES
100
AcDbLine
 62
40
  6
CONTINUOUS
 10
7.9709641998
 20
4.3976316826
 11
7.9709641998
 21
4.5054254326
  0
LINE
  5
4E5
100
AcDbEntity
  8
03__ASM_ALL_CURVES
100
AcDbLine
 62
40
  6
CONTINUOUS
 10
7.9973492011
 20
5.6035256826
 11
7.9973492011
 21
5.4598006826
  0
LINE
  5
4E6
100
AcDbEntity
  8
03__ASM_ALL_CURVES
100
AcDbLine
 62
40
  6
CONTINUOUS
 10
8.2219195136
 20
5.5316631826
 11
8.2129367011
 21
5.4957319326
  0
LINE
  5
4E7
100
AcDbEntity
  8
03__ASM_ALL_CURVES
100
AcDbLine
 62
40
  6
CONTINUOUS
 10
8.065283731
 20
4.4515285576
 11
8.0720208404
 21
4.4784769951
  0
LINE
  5
4E8
100
AcDbEntity
  8
03__ASM_ALL_CURVES
100
AcDbLine
 62
40
  6
CONTINUOUS
 10
8.2404485748
 20
4.2592963701
 11
8.226974356
 21
4.2413307454
  0
LINE
  5
4E9
100
AcDbEntity
  8
03__ASM_ALL_CURVES
100
AcDbLine
 62
40
  6
CONTINUOUS
 10
8.3482423248
 20
4.2503135581
 11
8.3415052154
 21
4.2413307454
  0
LINE
  5
4EA
100
AcDbEntity
  8
03__ASM_ALL_CURVES
100
AcDbLine
 62
40
  6
CONTINUOUS
 10
8.3954020904
 20
4.3131932451
 11
8.4088763091
 21
4.3311588722
  0
LINE
  5
4EB
100
AcDbEntity
  8
03__ASM_ALL_CURVES
100
AcDbLine
 62
40
  6
CONTINUOUS
 10
8.4560360748
 20
4.2503135581
 11
8.4492989654
 21
4.2413307454
  0
LINE
  5
4EC
100
AcDbEntity
  8
03__ASM_ALL_CURVES
100
AcDbLine
 62
40
  6
CONTINUOUS
 10
9.3116489654
 20
4.2413307454
 11
9.2981747466
 21
4.2323479326
  0
LINE
  5
4ED
100
AcDbEntity
  8
03__ASM_ALL_CURVES
100
AcDbLine
 62
40
  6
CONTINUOUS
 10
9.4194427154
 20
4.2413307454
 11
9.4059684966
 21
4.2323479326
  0
LINE
  5
4EE
100
AcDbEntity
  8
03__ASM_ALL_CURVES
100
AcDbLine
 62
40
  6
CONTINUOUS
 10
9.5272364654
 20
4.295227618
 11
9.5137622466
 21
4.2862448076
  0
LINE
  5
4EF
100
AcDbEntity
  8
03__ASM_ALL_CURVES
100
AcDbLine
 62
40
  6
CONTINUOUS
 10
9.2712263091
 20
4.3042104347
 11
9.3116489654
 21
4.277261994
  0
LINE
  5
4F0
100
AcDbEntity
  8
03__ASM_ALL_CURVES
100
AcDbLine
 62
40
  6
CONTINUOUS
 10
9.3924942779
 20
4.2323479326
 11
9.3790200591
 21
4.2413307454
  0
LINE
  5
4F1
100
AcDbEntity
  8
03__ASM_ALL_CURVES
100
AcDbLine
 62
40
  6
CONTINUOUS
 10
7.4314320136
 20
5.5556173521
 11
7.4853288886
 21
5.5196860978
  0
LINE
  5
4F2
100
AcDbEntity
  8
03__ASM_ALL_CURVES
100
AcDbLine
 62
40
  6
CONTINUOUS
 10
9.3116489654
 20
4.3311588722
 11
9.2981747466
 21
4.3401416826
  0
LINE
  5
4F3
100
AcDbEntity
  8
03__ASM_ALL_CURVES
100
AcDbLine
 62
40
  6
CONTINUOUS
 10
7.4853288886
 20
5.5915486021
 11
7.4673632636
 21
5.6035256826
  0
LINE
  5
4F4
100
AcDbEntity
  8
03__ASM_ALL_CURVES
100
AcDbLine
 62
40
  6
CONTINUOUS
 10
7.7368476386
 20
5.4598006826
 11
7.7188820136
 21
5.4717777663
  0
LINE
  5
4F5
100
AcDbEntity
  8
03__ASM_ALL_CURVES
100
AcDbLine
 62
40
  6
CONTINUOUS
 10
9.5137622466
 20
4.3401416826
 11
9.5272364654
 21
4.3311588722
  0
LINE
  5
4F6
100
AcDbEntity
  8
03__ASM_ALL_CURVES
100
AcDbLine
 62
40
  6
CONTINUOUS
 10
7.8805726386
 20
5.4598006826
 11
7.8626070136
 21
5.4717777663
  0
LINE
  5
4F7
100
AcDbEntity
  8
03__ASM_ALL_CURVES
100
AcDbLine
 62
40
  6
CONTINUOUS
 10
7.7548132636
 20
5.6035256826
 11
7.7727788886
 21
5.5915486021
  0
LINE
  5
4F8
100
AcDbEntity
  8
03__ASM_ALL_CURVES
100
AcDbLine
 62
40
  6
CONTINUOUS
 10
8.226974356
 20
4.3311588722
 11
8.2404485748
 21
4.3131932451
  0
LINE
  5
4F9
100
AcDbEntity
  8
03__ASM_ALL_CURVES
100
AcDbLine
 62
40
  6
CONTINUOUS
 10
8.3010825591
 20
4.2413307454
 11
8.2943454498
 21
4.2503135581
  0
LINE
  5
4FA
100
AcDbEntity
  8
03__ASM_ALL_CURVES
100
AcDbLine
 62
40
  6
CONTINUOUS
 10
8.1259177154
 20
4.4964426222
 11
8.1393919341
 21
4.4784769951
  0
LINE
  5
4FB
100
AcDbEntity
  8
03__ASM_ALL_CURVES
100
AcDbLine
 62
40
  6
CONTINUOUS
 10
7.4314320136
 20
5.4717777663
 11
7.4134663886
 21
5.4957319326
  0
LINE
  5
4FC
100
AcDbEntity
  8
03__ASM_ALL_CURVES
100
AcDbLine
 62
40
  6
CONTINUOUS
 10
8.4088763091
 20
4.2413307454
 11
8.3954020904
 21
4.2592963701
  0
LINE
  5
4FD
100
AcDbEntity
  8
03__ASM_ALL_CURVES
100
AcDbLine
 62
40
  6
CONTINUOUS
 10
7.4224492011
 20
5.5675944326
 11
7.4314320136
 21
5.5556173521
  0
LINE
  5
4FE
100
AcDbEntity
  8
03__ASM_ALL_CURVES
100
AcDbLine
 62
40
  6
CONTINUOUS
 10
8.2337114654
 20
4.4964426222
 11
8.2404485748
 21
4.4874598055
  0
LINE
  5
4FF
100
AcDbEntity
  8
03__ASM_ALL_CURVES
100
AcDbLine
 62
40
  6
CONTINUOUS
 10
7.4853288886
 20
5.5196860978
 11
7.4943117011
 21
5.5077090174
  0
LINE
  5
500
100
AcDbEntity
  8
03__ASM_ALL_CURVES
100
AcDbLine
 62
40
  6
CONTINUOUS
 10
7.4943117011
 20
5.5795715131
 11
7.4853288886
 21
5.5915486021
  0
LINE
  5
501
100
AcDbEntity
  8
03__ASM_ALL_CURVES
100
AcDbLine
 62
40
  6
CONTINUOUS
 10
8.4492989654
 20
4.3311588722
 11
8.4560360748
 21
4.3221760555
  0
LINE
  5
502
100
AcDbEntity
  8
03__ASM_ALL_CURVES
100
AcDbLine
 62
40
  6
CONTINUOUS
 10
8.0046497466
 20
4.2862448076
 11
8.0248610748
 21
4.2323479326
  0
LINE
  5
503
100
AcDbEntity
  8
03__ASM_ALL_CURVES
100
AcDbLine
 62
40
  6
CONTINUOUS
 10
7.7009163886
 20
5.4957319326
 11
7.6919335761
 21
5.5316631826
  0
LINE
  5
504
100
AcDbEntity
  8
03__ASM_ALL_CURVES
100
AcDbLine
 62
40
  6
CONTINUOUS
 10
8.0248610748
 20
4.4874598055
 11
8.0248610748
 21
4.4694941847
  0
LINE
  5
505
100
AcDbEntity
  8
03__ASM_ALL_CURVES
100
AcDbLine
 62
40
  6
CONTINUOUS
 10
8.0248610748
 20
4.3221760555
 11
8.0248610748
 21
4.3042104347
  0
LINE
  5
506
100
AcDbEntity
  8
03__ASM_ALL_CURVES
100
AcDbLine
 62
40
  6
CONTINUOUS
 10
8.0787579498
 20
4.2323479326
 11
8.0787579498
 21
4.3401416826
  0
LINE
  5
507
100
AcDbEntity
  8
03__ASM_ALL_CURVES
100
AcDbLine
 62
40
  6
CONTINUOUS
 10
8.1410742011
 20
5.4598006826
 11
8.1410742011
 21
5.6035256826
  0
LINE
  5
508
100
AcDbEntity
  8
03__ASM_ALL_CURVES
100
AcDbLine
 62
40
  6
CONTINUOUS
 10
8.1865516998
 20
4.2323479326
 11
8.1865516998
 21
4.3401416826
  0
LINE
  5
509
100
AcDbEntity
  8
03__ASM_ALL_CURVES
100
AcDbLine
 62
40
  6
CONTINUOUS
 10
8.1865516998
 20
4.3976316826
 11
8.1865516998
 21
4.5054254326
  0
LINE
  5
50A
100
AcDbEntity
  8
03__ASM_ALL_CURVES
100
AcDbLine
 62
40
  6
CONTINUOUS
 10
8.2404485748
 20
4.4874598055
 11
8.2404485748
 21
4.4694941847
  0
LINE
  5
50B
100
AcDbEntity
  8
03__ASM_ALL_CURVES
100
AcDbLine
 62
40
  6
CONTINUOUS
 10
8.1461290435
 20
4.4515285576
 11
8.1393919341
 21
4.4245801201
  0
LINE
  5
50C
100
AcDbEntity
  8
03__ASM_ALL_CURVES
100
AcDbLine
 62
40
  6
CONTINUOUS
 10
8.2471856841
 20
4.2862448076
 11
8.2404485748
 21
4.2592963701
  0
LINE
  5
50D
100
AcDbEntity
  8
03__ASM_ALL_CURVES
100
AcDbLine
 62
40
  6
CONTINUOUS
 10
8.6716235748
 20
4.2592963701
 11
8.658149356
 21
4.2413307454
  0
LINE
  5
50E
100
AcDbEntity
  8
03__ASM_ALL_CURVES
100
AcDbLine
 62
40
  6
CONTINUOUS
 10
8.8872110748
 20
4.3042104347
 11
8.8804739654
 21
4.295227618
  0
LINE
  5
50F
100
AcDbEntity
  8
03__ASM_ALL_CURVES
100
AcDbLine
 62
40
  6
CONTINUOUS
 10
8.1770054511
 20
5.6035256826
 11
8.1949710761
 21
5.5915486021
  0
LINE
  5
510
100
AcDbEntity
  8
03__ASM_ALL_CURVES
100
AcDbLine
 62
40
  6
CONTINUOUS
 10
7.7188820136
 20
5.4717777663
 11
7.7009163886
 21
5.4957319326
  0
LINE
  5
511
100
AcDbEntity
  8
03__ASM_ALL_CURVES
100
AcDbLine
 62
40
  6
CONTINUOUS
 10
8.658149356
 20
4.3311588722
 11
8.6716235748
 21
4.3131932451
  0
LINE
  5
512
100
AcDbEntity
  8
03__ASM_ALL_CURVES
100
AcDbLine
 62
40
  6
CONTINUOUS
 10
7.8626070136
 20
5.4717777663
 11
7.8536242011
 21
5.48375485
  0
LINE
  5
513
100
AcDbEntity
  8
03__ASM_ALL_CURVES
100
AcDbLine
 62
40
  6
CONTINUOUS
 10
7.7727788886
 20
5.5915486021
 11
7.7907445136
 21
5.5675944326
  0
LINE
  5
514
100
AcDbEntity
  8
03__ASM_ALL_CURVES
100
AcDbLine
 62
40
  6
CONTINUOUS
 10
8.2202372466
 20
4.4515285576
 11
8.2404485748
 21
4.3976316826
  0
LINE
  5
515
100
AcDbEntity
  8
03__ASM_ALL_CURVES
100
AcDbLine
 62
40
  6
CONTINUOUS
 10
8.0720208404
 20
4.4245801201
 11
8.065283731
 21
4.4515285576
  0
LINE
  5
516
100
AcDbEntity
  8
03__ASM_ALL_CURVES
100
AcDbLine
 62
40
  6
CONTINUOUS
 10
7.7907445136
 20
5.5675944326
 11
7.7997273261
 21
5.5316631826
  0
LINE
  5
517
100
AcDbEntity
  8
03__ASM_ALL_CURVES
100
AcDbLine
 62
40
  6
CONTINUOUS
 10
8.1393919341
 20
4.4784769951
 11
8.1461290435
 21
4.4515285576
  0
LINE
  5
518
100
AcDbEntity
  8
03__ASM_ALL_CURVES
100
AcDbLine
 62
40
  6
CONTINUOUS
 10
8.2404485748
 20
4.3131932451
 11
8.2471856841
 21
4.2862448076
  0
LINE
  5
519
100
AcDbEntity
  8
03__ASM_ALL_CURVES
100
AcDbLine
 62
40
  6
CONTINUOUS
 10
8.2847992011
 20
5.4598006826
 11
8.2847992011
 21
5.6035256826
  0
LINE
  5
51A
100
AcDbEntity
  8
03__ASM_ALL_CURVES
100
AcDbLine
 62
40
  6
CONTINUOUS
 10
8.2943454498
 20
4.2503135581
 11
8.2943454498
 21
4.3401416826
  0
LINE
  5
51B
100
AcDbEntity
  8
03__ASM_ALL_CURVES
100
AcDbLine
 62
40
  6
CONTINUOUS
 10
8.3212938873
 20
4.5054254326
 11
8.3212938873
 21
4.3976316826
  0
LINE
  5
51C
100
AcDbEntity
  8
03__ASM_ALL_CURVES
100
AcDbLine
 62
40
  6
CONTINUOUS
 10
8.3482423248
 20
4.3401416826
 11
8.3482423248
 21
4.2503135581
  0
LINE
  5
51D
100
AcDbEntity
  8
03__ASM_ALL_CURVES
100
AcDbLine
 62
40
  6
CONTINUOUS
 10
8.4285242011
 20
5.4598006826
 11
8.4285242011
 21
5.6035256826
  0
LINE
  5
51E
100
AcDbEntity
  8
03__ASM_ALL_CURVES
100
AcDbLine
 62
40
  6
CONTINUOUS
 10
8.4290876373
 20
4.5054254326
 11
8.4290876373
 21
4.3976316826
  0
LINE
  5
51F
100
AcDbEntity
  8
03__ASM_ALL_CURVES
100
AcDbLine
 62
40
  6
CONTINUOUS
 10
8.5003867011
 20
5.5795715131
 11
8.5003867011
 21
5.5556173521
  0
LINE
  5
520
100
AcDbEntity
  8
03__ASM_ALL_CURVES
100
AcDbLine
 62
40
  6
CONTINUOUS
 10
8.5099329498
 20
4.2323479326
 11
8.5099329498
 21
4.3401416826
  0
LINE
  5
521
100
AcDbEntity
  8
03__ASM_ALL_CURVES
100
AcDbLine
 62
40
  6
CONTINUOUS
 10
8.388664981
 20
4.2862448076
 11
8.3954020904
 21
4.3131932451
  0
LINE
  5
522
100
AcDbEntity
  8
03__ASM_ALL_CURVES
100
AcDbLine
 62
40
  6
CONTINUOUS
 10
8.9950048248
 20
4.3042104347
 11
8.9882677154
 21
4.295227618
  0
LINE
  5
523
100
AcDbEntity
  8
03__ASM_ALL_CURVES
100
AcDbLine
 62
40
  6
CONTINUOUS
 10
9.1634325591
 20
4.3311588722
 11
9.1566954498
 21
4.3221760555
  0
LINE
  5
524
100
AcDbEntity
  8
03__ASM_ALL_CURVES
100
AcDbLine
 62
40
  6
CONTINUOUS
 10
8.4734382636
 20
5.6035256826
 11
8.4914038886
 21
5.5915486021
  0
LINE
  5
525
100
AcDbEntity
  8
03__ASM_ALL_CURVES
100
AcDbLine
 62
40
  6
CONTINUOUS
 10
8.8804739654
 20
4.3311588722
 11
8.8872110748
 21
4.3221760555
  0
LINE
  5
526
100
AcDbEntity
  8
03__ASM_ALL_CURVES
100
AcDbLine
 62
40
  6
CONTINUOUS
 10
8.9882677154
 20
4.3311588722
 11
8.9950048248
 21
4.3221760555
  0
LINE
  5
527
100
AcDbEntity
  8
03__ASM_ALL_CURVES
100
AcDbLine
 62
40
  6
CONTINUOUS
 10
9.1634325591
 20
4.2413307454
 11
9.1499583404
 21
4.2592963701
  0
LINE
  5
528
100
AcDbEntity
  8
03__ASM_ALL_CURVES
100
AcDbLine
 62
40
  6
CONTINUOUS
 10
8.1949710761
 20
5.5915486021
 11
8.2129367011
 21
5.5675944326
  0
LINE
  5
529
100
AcDbEntity
  8
03__ASM_ALL_CURVES
100
AcDbLine
 62
40
  6
CONTINUOUS
 10
9.1566954498
 20
4.3131932451
 11
9.1634325591
 21
4.3042104347
  0
LINE
  5
52A
100
AcDbEntity
  8
03__ASM_ALL_CURVES
100
AcDbLine
 62
40
  6
CONTINUOUS
 10
9.2038552154
 20
4.277261994
 11
9.2105923248
 21
4.2682791837
  0
LINE
  5
52B
100
AcDbEntity
  8
03__ASM_ALL_CURVES
100
AcDbLine
 62
40
  6
CONTINUOUS
 10
8.3954020904
 20
4.2592963701
 11
8.388664981
 21
4.2862448076
  0
LINE
  5
52C
100
AcDbEntity
  8
03__ASM_ALL_CURVES
100
AcDbLine
 62
40
  6
CONTINUOUS
 10
8.2129367011
 20
5.5675944326
 11
8.2219195136
 21
5.5316631826
  0
LINE
  5
52D
100
AcDbEntity
  8
03__ASM_ALL_CURVES
100
AcDbLine
 62
40
  6
CONTINUOUS
 10
8.6177266998
 20
4.2323479326
 11
8.6177266998
 21
4.3401416826
  0
LINE
  5
52E
100
AcDbEntity
  8
03__ASM_ALL_CURVES
100
AcDbLine
 62
40
  6
CONTINUOUS
 10
8.6783606841
 20
4.2862448076
 11
8.6716235748
 21
4.2592963701
  0
LINE
  5
52F
100
AcDbEntity
  8
03__ASM_ALL_CURVES
100
AcDbLine
 62
40
  6
CONTINUOUS
 10
9.2105923248
 20
4.2503135581
 11
9.2038552154
 21
4.2413307454
  0
LINE
  5
530
100
AcDbEntity
  8
03__ASM_ALL_CURVES
100
AcDbLine
 62
40
  6
CONTINUOUS
 10
9.2712263091
 20
4.3311588722
 11
9.2644891998
 21
4.3221760555
  0
LINE
  5
531
100
AcDbEntity
  8
03__ASM_ALL_CURVES
100
AcDbLine
 62
40
  6
CONTINUOUS
 10
9.3183860748
 20
4.2503135581
 11
9.3116489654
 21
4.2413307454
  0
LINE
  5
532
100
AcDbEntity
  8
03__ASM_ALL_CURVES
100
AcDbLine
 62
40
  6
CONTINUOUS
 10
9.4261798248
 20
4.2503135581
 11
9.4194427154
 21
4.2413307454
  0
LINE
  5
533
100
AcDbEntity
  8
03__ASM_ALL_CURVES
100
AcDbLine
 62
40
  6
CONTINUOUS
 10
9.5339735748
 20
4.3042104347
 11
9.5272364654
 21
4.295227618
  0
LINE
  5
534
100
AcDbEntity
  8
03__ASM_ALL_CURVES
100
AcDbLine
 62
40
  6
CONTINUOUS
 10
9.2712263091
 20
4.2413307454
 11
9.2577520904
 21
4.2592963701
  0
LINE
  5
535
100
AcDbEntity
  8
03__ASM_ALL_CURVES
100
AcDbLine
 62
40
  6
CONTINUOUS
 10
9.2105923248
 20
4.3221760555
 11
9.2038552154
 21
4.3311588722
  0
LINE
  5
536
100
AcDbEntity
  8
03__ASM_ALL_CURVES
100
AcDbLine
 62
40
  6
CONTINUOUS
 10
9.2644891998
 20
4.3131932451
 11
9.2712263091
 21
4.3042104347
  0
LINE
  5
537
100
AcDbEntity
  8
03__ASM_ALL_CURVES
100
AcDbLine
 62
40
  6
CONTINUOUS
 10
9.3116489654
 20
4.277261994
 11
9.3183860748
 21
4.2682791837
  0
LINE
  5
538
100
AcDbEntity
  8
03__ASM_ALL_CURVES
100
AcDbLine
 62
40
  6
CONTINUOUS
 10
9.3790200591
 20
4.2413307454
 11
9.3722829498
 21
4.2503135581
  0
LINE
  5
539
100
AcDbEntity
  8
03__ASM_ALL_CURVES
100
AcDbLine
 62
40
  6
CONTINUOUS
 10
9.3183860748
 20
4.3221760555
 11
9.3116489654
 21
4.3311588722
  0
LINE
  5
53A
100
AcDbEntity
  8
03__ASM_ALL_CURVES
100
AcDbLine
 62
40
  6
CONTINUOUS
 10
8.4914038886
 20
5.5915486021
 11
8.5003867011
 21
5.5795715131
  0
LINE
  5
53B
100
AcDbEntity
  8
03__ASM_ALL_CURVES
100
AcDbLine
 62
40
  6
CONTINUOUS
 10
9.5272364654
 20
4.3311588722
 11
9.5339735748
 21
4.3221760555
  0
LINE
  5
53C
100
AcDbEntity
  8
03__ASM_ALL_CURVES
100
AcDbLine
 62
40
  6
CONTINUOUS
 10
8.4734382636
 20
5.5316631826
 11
8.5003867011
 21
5.4598006826
  0
LINE
  5
53D
100
AcDbEntity
  8
03__ASM_ALL_CURVES
100
AcDbLine
 62
40
  6
CONTINUOUS
 10
8.9747934966
 20
4.2862448076
 11
8.9950048248
 21
4.2323479326
  0
LINE
  5
53E
100
AcDbEntity
  8
03__ASM_ALL_CURVES
100
AcDbLine
 62
40
  6
CONTINUOUS
 10
8.6716235748
 20
4.3131932451
 11
8.6783606841
 21
4.2862448076
  0
LINE
  5
53F
100
AcDbEntity
  8
03__ASM_ALL_CURVES
100
AcDbLine
 62
40
  6
CONTINUOUS
 10
8.8333141998
 20
4.2323479326
 11
8.8333141998
 21
4.3401416826
  0
LINE
  5
540
100
AcDbEntity
  8
03__ASM_ALL_CURVES
100
AcDbLine
 62
40
  6
CONTINUOUS
 10
8.8872110748
 20
4.3221760555
 11
8.8872110748
 21
4.3042104347
  0
LINE
  5
541
100
AcDbEntity
  8
03__ASM_ALL_CURVES
100
AcDbLine
 62
40
  6
CONTINUOUS
 10
8.9411079498
 20
4.2323479326
 11
8.9411079498
 21
4.3401416826
  0
LINE
  5
542
100
AcDbEntity
  8
03__ASM_ALL_CURVES
100
AcDbLine
 62
40
  6
CONTINUOUS
 10
8.9950048248
 20
4.3221760555
 11
8.9950048248
 21
4.3042104347
  0
LINE
  5
543
100
AcDbEntity
  8
03__ASM_ALL_CURVES
100
AcDbLine
 62
40
  6
CONTINUOUS
 10
9.0489016998
 20
4.2323479326
 11
9.0489016998
 21
4.3401416826
  0
LINE
  5
544
100
AcDbEntity
  8
03__ASM_ALL_CURVES
100
AcDbLine
 62
40
  6
CONTINUOUS
 10
9.1566954498
 20
4.3221760555
 11
9.1566954498
 21
4.3131932451
  0
LINE
  5
545
100
AcDbEntity
  8
03__ASM_ALL_CURVES
100
AcDbLine
 62
40
  6
CONTINUOUS
 10
9.2105923248
 20
4.2682791837
 11
9.2105923248
 21
4.2503135581
  0
LINE
  5
546
100
AcDbEntity
  8
03__ASM_ALL_CURVES
100
AcDbLine
 62
40
  6
CONTINUOUS
 10
9.2644891998
 20
4.3221760555
 11
9.2644891998
 21
4.3131932451
  0
LINE
  5
547
100
AcDbEntity
  8
03__ASM_ALL_CURVES
100
AcDbLine
 62
40
  6
CONTINUOUS
 10
9.3183860748
 20
4.2682791837
 11
9.3183860748
 21
4.2503135581
  0
LINE
  5
548
100
AcDbEntity
  8
03__ASM_ALL_CURVES
100
AcDbLine
 62
40
  6
CONTINUOUS
 10
9.5137622466
 20
4.2862448076
 11
9.5339735748
 21
4.2323479326
  0
LINE
  5
549
100
AcDbEntity
  8
03__ASM_ALL_CURVES
100
AcDbLine
 62
40
  6
CONTINUOUS
 10
9.3722829498
 20
4.2503135581
 11
9.3722829498
 21
4.3401416826
  0
LINE
  5
54A
100
AcDbEntity
  8
03__ASM_ALL_CURVES
100
AcDbLine
 62
40
  6
CONTINUOUS
 10
9.4261798248
 20
4.3401416826
 11
9.4261798248
 21
4.2503135581
  0
LINE
  5
54B
100
AcDbEntity
  8
03__ASM_ALL_CURVES
100
AcDbLine
 62
40
  6
CONTINUOUS
 10
9.4800766998
 20
4.2323479326
 11
9.4800766998
 21
4.3401416826
  0
LINE
  5
54C
100
AcDbEntity
  8
03__ASM_ALL_CURVES
100
AcDbLine
 62
40
  6
CONTINUOUS
 10
9.5339735748
 20
4.3221760555
 11
9.5339735748
 21
4.3042104347
  0
LINE
  5
54D
100
AcDbEntity
  8
03__ASM_ALL_CURVES
100
AcDbLine
 62
40
  6
CONTINUOUS
 10
9.5878704498
 20
4.2323479326
 11
9.5878704498
 21
4.3401416826
  0
CIRCLE
  5
54E
100
AcDbEntity
  8
128-600_FEATURES
100
AcDbCircle
 62
7
  6
CONTINUOUS
 10
5.6179641994
 20
4.3688866826
 40
0.125
  0
CIRCLE
  5
54F
100
AcDbEntity
  8
0
100
AcDbCircle
 62
7
  6
CONTINUOUS
 10
6.8979641994
 20
4.3688866826
 40
0.1095
  0
ARC
  5
550
100
AcDbEntity
  8
0
100
AcDbCircle
 62
7
  6
CONTINUOUS
 10
2.5239641994
 20
4.5458866826
 40
0.094
100
AcDbArc
 50
90.0
 51
131.267427381
  0
ARC
  5
551
100
AcDbEntity
  8
0
100
AcDbCircle
 62
7
  6
CONTINUOUS
 10
2.5239641994
 20
4.1918866826
 40
0.094
100
AcDbArc
 50
228.732572619
 51
270.0
  0
ARC
  5
552
100
AcDbEntity
  8
0
100
AcDbCircle
 62
7
  6
CONTINUOUS
 10
2.2099641994
 20
4.2073866826
 40
0.0175
100
AcDbArc
 50
180.0
 51
360.0
  0
SPLINE
  5
553
100
AcDbEntity
  8
0
100
AcDbSpline
 62
7
  6
CONTINUOUS
 70
0
 71
3
 72
20
 73
16
 74
14
 42
0.0000001
 43
0.0000001
 44
0.0000000001
 12
0.0
 22
0.0416605862
 32
0.0
 13
0.0
 23
-0.0416605862
 33
0.0
 40
0.0
 40
0.0
 40
0.0
 40
0.0
 40
0.0489307848
 40
0.1062135912
 40
0.175871992
 40
0.2580136346
 40
0.3503828832
 40
0.4493672053
 40
0.5506327947
 40
0.6496171168
 40
0.7419863654
 40
0.824128008
 40
0.8937864088
 40
0.9510692152
 40
1.0
 40
1.0
 40
1.0
 40
1.0
 10
2.2274641994
 20
4.4450102514
 30
0.0
 10
2.2274641994
 20
4.4456897465
 30
0.0
 10
2.2270426654
 20
4.4471757575
 30
0.0
 10
2.2254073976
 20
4.4490541848
 30
0.0
 10
2.2229554771
 20
4.4506531851
 30
0.0
 10
2.2197962447
 20
4.4519279362
 30
0.0
 10
2.2160931511
 20
4.452819924
 30
0.0
 10
2.2120462422
 20
4.4532791617
 30
0.0
 10
2.2078821566
 20
4.4532791617
 30
0.0
 10
2.2038352476
 20
4.452819924
 30
0.0
 10
2.200132154
 20
4.4519279362
 30
0.0
 10
2.1969729216
 20
4.4506531851
 30
0.0
 10
2.1945210011
 20
4.4490541848
 30
0.0
 10
2.1928857333
 20
4.4471757575
 30
0.0
 10
2.1924641994
 20
4.4456897465
 30
0.0
 10
2.1924641994
 20
4.4450102514
 30
0.0
 11
2.2274641994
 21
4.4450102514
 31
0.0
 11
2.2269556812
 21
4.4469842907
 31
0.0
 11
2.2254596798
 21
4.448843606
 31
0.0
 11
2.2230631375
 21
4.4504801406
 31
0.0
 11
2.2199053324
 21
4.4517987852
 31
0.0
 11
2.2161697849
 21
4.4527229049
 31
0.0
 11
2.2120735913
 21
4.4531987932
 31
0.0
 11
2.2078548075
 21
4.4531987932
 31
0.0
 11
2.2037586138
 21
4.4527229049
 31
0.0
 11
2.2000230663
 21
4.4517987852
 31
0.0
 11
2.1968652613
 21
4.4504801406
 31
0.0
 11
2.1944687189
 21
4.448843606
 31
0.0
 11
2.1929727176
 21
4.4469842907
 31
0.0
 11
2.1924641994
 21
4.4450102514
 31
0.0
  0
SPLINE
  5
554
100
AcDbEntity
  8
0
100
AcDbSpline
 62
7
  6
CONTINUOUS
 70
0
 71
3
 72
15
 73
11
 74
9
 42
0.0000001
 43
0.0000001
 44
0.0000000001
 12
0.0
 22
0.1617702498
 32
0.0
 13
0.0
 23
-0.1617702498
 33
0.0
 40
0.0
 40
0.0
 40
0.0
 40
0.0
 40
0.125
 40
0.25
 40
0.375
 40
0.5
 40
0.625
 40
0.75
 40
0.875
 40
1.0
 40
1.0
 40
1.0
 40
1.0
 10
7.5619641994
 20
4.9498866826
 30
0.0
 10
7.5619641994
 20
4.9566271097
 30
0.0
 10
7.5592826908
 20
4.9701079638
 30
0.0
 10
7.5478282551
 20
4.9872507383
 30
0.0
 10
7.5306854806
 20
4.998705174
 30
0.0
 10
7.5104641994
 20
5.0027274369
 30
0.0
 10
7.4902429181
 20
4.998705174
 30
0.0
 10
7.4731001437
 20
4.9872507383
 30
0.0
 10
7.461645708
 20
4.9701079638
 30
0.0
 10
7.4589641994
 20
4.9566271097
 30
0.0
 10
7.4589641994
 20
4.9498866826
 30
0.0
 11
7.5619641994
 21
4.9498866826
 31
0.0
 11
7.5580439953
 21
4.9695948794
 31
0.0
 11
7.5468801986
 21
4.9863026818
 31
0.0
 11
7.5301723961
 21
4.9974664785
 31
0.0
 11
7.5104641994
 21
5.0013866826
 31
0.0
 11
7.4907560026
 21
4.9974664785
 31
0.0
 11
7.4740482001
 21
4.9863026818
 31
0.0
 11
7.4628844034
 21
4.9695948794
 31
0.0
 11
7.4589641994
 21
4.9498866826
 31
0.0
  0
SPLINE
  5
555
100
AcDbEntity
  8
0
100
AcDbSpline
 62
7
  6
CONTINUOUS
 70
0
 71
3
 72
15
 73
11
 74
9
 42
0.0000001
 43
0.0000001
 44
0.0000000001
 12
0.0
 22
-0.1617702498
 32
0.0
 13
0.0
 23
0.1617702498
 33
0.0
 40
0.0
 40
0.0
 40
0.0
 40
0.0
 40
0.125
 40
0.25
 40
0.375
 40
0.5
 40
0.625
 40
0.75
 40
0.875
 40
1.0
 40
1.0
 40
1.0
 40
1.0
 10
7.5619641994
 20
3.7878866826
 30
0.0
 10
7.5619641994
 20
3.7811462555
 30
0.0
 10
7.5592826908
 20
3.7676654014
 30
0.0
 10
7.5478282551
 20
3.7505226269
 30
0.0
 10
7.5306854806
 20
3.7390681912
 30
0.0
 10
7.5104641994
 20
3.7350459283
 30
0.0
 10
7.4902429181
 20
3.7390681912
 30
0.0
 10
7.4731001437
 20
3.7505226269
 30
0.0
 10
7.461645708
 20
3.7676654014
 30
0.0
 10
7.4589641994
 20
3.7811462555
 30
0.0
 10
7.4589641994
 20
3.7878866826
 30
0.0
 11
7.5619641994
 21
3.7878866826
 31
0.0
 11
7.5580439953
 21
3.7681784858
 31
0.0
 11
7.5468801986
 21
3.7514706834
 31
0.0
 11
7.5301723961
 21
3.7403068867
 31
0.0
 11
7.5104641994
 21
3.7363866826
 31
0.0
 11
7.4907560026
 21
3.7403068867
 31
0.0
 11
7.4740482001
 21
3.7514706834
 31
0.0
 11
7.4628844034
 21
3.7681784858
 31
0.0
 11
7.4589641994
 21
3.7878866826
 31
0.0
  0
SPLINE
  5
556
100
AcDbEntity
  8
0
100
AcDbSpline
 62
7
  6
CONTINUOUS
 70
0
 71
3
 72
16
 73
12
 74
10
 42
0.0000001
 43
0.0000001
 44
0.0000000001
 12
0.0906480335
 22
0.2719441006
 32
0.0
 13
-0.0906480335
 23
0.2719441006
 33
0.0
 40
0.0
 40
0.0
 40
0.0
 40
0.0
 40
0.1184548733
 40
0.230565332
 40
0.3393089466
 40
0.4465959239
 40
0.5535015371
 40
0.6607803311
 40
0.769505023
 40
0.8815660643
 40
1.0
 40
1.0
 40
1.0
 40
1.0
 10
2.712092789
 20
4.0878866826
 30
0.0
 10
2.7156720228
 20
4.0986243839
 30
0.0
 10
2.7221031094
 20
4.1197104308
 30
0.0
 10
2.7296225391
 20
4.1512714856
 30
0.0
 10
2.7347107665
 20
4.1822403037
 30
0.0
 10
2.7372976287
 20
4.2130233733
 30
0.0
 10
2.7372964404
 20
4.2437771743
 30
0.0
 10
2.7347075998
 20
4.2745574657
 30
0.0
 10
2.7296188651
 20
4.3055187675
 30
0.0
 10
2.7221006083
 20
4.3370712991
 30
0.0
 10
2.7156713901
 20
4.3581508792
 30
0.0
 10
2.712092789
 20
4.3688866826
 30
0.0
 11
2.712092789
 21
4.0878866826
 31
0.0
 11
2.7219312586
 21
4.1203857105
 31
0.0
 11
2.7293184291
 21
4.1516621009
 31
0.0
 11
2.7343230465
 21
4.1824295534
 31
0.0
 11
2.7368700118
 21
4.2130781746
 31
0.0
 11
2.7368688416
 21
4.2437231231
 31
0.0
 11
2.7343199015
 21
4.2743692262
 31
0.0
 11
2.7293144625
 21
4.3051310494
 31
0.0
 11
2.721929691
 21
4.336393451
 31
0.0
 11
2.712092789
 21
4.3688866826
 31
0.0
  0
SPLINE
  5
557
100
AcDbEntity
  8
0
100
AcDbSpline
 62
7
  6
CONTINUOUS
 70
0
 71
3
 72
17
 73
13
 74
11
 42
0.0000001
 43
0.0000001
 44
0.0000000001
 12
-0.1487434696
 22
0.2576312467
 32
0.0
 13
0.1487434696
 23
0.2576312467
 33
0.0
 40
0.0
 40
0.0
 40
0.0
 40
0.0
 40
0.1169386465
 40
0.2216811606
 40
0.3184580982
 40
0.4103908543
 40
0.5000417254
 40
0.5896883004
 40
0.6816074548
 40
0.7783545182
 40
0.8830694657
 40
1.0
 40
1.0
 40
1.0
 40
1.0
 10
2.6104350506
 20
4.0878866826
 30
0.0
 10
2.6046370973
 20
4.0979290324
 30
0.0
 10
2.5942972697
 20
4.1173588798
 30
0.0
 10
2.5819236463
 20
4.1464609574
 30
0.0
 10
2.5732701996
 20
4.1743025201
 30
0.0
 10
2.568113095
 20
4.2014858397
 30
0.0
 10
2.5663962146
 20
4.2283987246
 30
0.0
 10
2.5681161003
 20
4.2553100494
 30
0.0
 10
2.5732748519
 20
4.28248819
 30
0.0
 10
2.5819277037
 20
4.310322496
 30
0.0
 10
2.5942992911
 20
4.3394183357
 30
0.0
 10
2.6046374995
 20
4.3588450295
 30
0.0
 10
2.6104350506
 20
4.3688866826
 30
0.0
 11
2.6104350506
 21
4.0878866826
 31
0.0
 11
2.5942088192
 21
4.1186583396
 31
0.0
 11
2.5821240627
 21
4.1473789762
 31
0.0
 11
2.5736713894
 21
4.1749000448
 31
0.0
 11
2.5686385041
 21
4.20178176
 31
0.0
 11
2.5669641997
 21
4.2283991161
 31
0.0
 11
2.568641442
 21
4.2550150066
 31
0.0
 11
2.5736760887
 21
4.2818922753
 31
0.0
 11
2.5821277037
 21
4.3094043719
 31
0.0
 11
2.5942098549
 21
4.3381172076
 31
0.0
 11
2.6104350506
 21
4.3688866826
 31
0.0
  0
SPLINE
  5
558
100
AcDbEntity
  8
0
100
AcDbSpline
 62
7
  6
CONTINUOUS
 70
0
 71
3
 72
16
 73
12
 74
10
 42
0.0000001
 43
0.0000001
 44
0.0000000001
 12
0.0906480335
 22
0.2719441006
 32
0.0
 13
-0.0906480335
 23
0.2719441006
 33
0.0
 40
0.0
 40
0.0
 40
0.0
 40
0.0
 40
0.1184548733
 40
0.230565332
 40
0.3393089466
 40
0.4465959239
 40
0.5535015371
 40
0.6607803311
 40
0.769505023
 40
0.8815660643
 40
1.0
 40
1.0
 40
1.0
 40
1.0
 10
2.712092789
 20
4.3688866826
 30
0.0
 10
2.7156720228
 20
4.3796243839
 30
0.0
 10
2.7221031094
 20
4.4007104308
 30
0.0
 10
2.7296225391
 20
4.4322714856
 30
0.0
 10
2.7347107665
 20
4.4632403037
 30
0.0
 10
2.7372976287
 20
4.4940233733
 30
0.0
 10
2.7372964404
 20
4.5247771743
 30
0.0
 10
2.7347075998
 20
4.5555574657
 30
0.0
 10
2.7296188651
 20
4.5865187675
 30
0.0
 10
2.7221006083
 20
4.6180712991
 30
0.0
 10
2.7156713901
 20
4.6391508792
 30
0.0
 10
2.712092789
 20
4.6498866826
 30
0.0
 11
2.712092789
 21
4.3688866826
 31
0.0
 11
2.7219312586
 21
4.4013857105
 31
0.0
 11
2.7293184291
 21
4.4326621009
 31
0.0
 11
2.7343230465
 21
4.4634295534
 31
0.0
 11
2.7368700118
 21
4.4940781746
 31
0.0
 11
2.7368688416
 21
4.5247231231
 31
0.0
 11
2.7343199015
 21
4.5553692262
 31
0.0
 11
2.7293144625
 21
4.5861310494
 31
0.0
 11
2.721929691
 21
4.617393451
 31
0.0
 11
2.712092789
 21
4.6498866826
 31
0.0
  0
SPLINE
  5
559
100
AcDbEntity
  8
0
100
AcDbSpline
 62
7
  6
CONTINUOUS
 70
0
 71
3
 72
17
 73
13
 74
11
 42
0.0000001
 43
0.0000001
 44
0.0000000001
 12
-0.1487434696
 22
0.2576312467
 32
0.0
 13
0.1487434696
 23
0.2576312467
 33
0.0
 40
0.0
 40
0.0
 40
0.0
 40
0.0
 40
0.1169386465
 40
0.2216811606
 40
0.3184580982
 40
0.4103908543
 40
0.5000417254
 40
0.5896883004
 40
0.6816074548
 40
0.7783545182
 40
0.8830694657
 40
1.0
 40
1.0
 40
1.0
 40
1.0
 10
2.6104350506
 20
4.3688866826
 30
0.0
 10
2.6046370973
 20
4.3789290324
 30
0.0
 10
2.5942972697
 20
4.3983588798
 30
0.0
 10
2.5819236463
 20
4.4274609574
 30
0.0
 10
2.5732701996
 20
4.4553025201
 30
0.0
 10
2.568113095
 20
4.4824858397
 30
0.0
 10
2.5663962146
 20
4.5093987246
 30
0.0
 10
2.5681161003
 20
4.5363100494
 30
0.0
 10
2.5732748519
 20
4.56348819
 30
0.0
 10
2.5819277037
 20
4.591322496
 30
0.0
 10
2.5942992911
 20
4.6204183357
 30
0.0
 10
2.6046374995
 20
4.6398450295
 30
0.0
 10
2.6104350506
 20
4.6498866826
 30
0.0
 11
2.6104350506
 21
4.3688866826
 31
0.0
 11
2.5942088192
 21
4.3996583396
 31
0.0
 11
2.5821240627
 21
4.4283789762
 31
0.0
 11
2.5736713894
 21
4.4559000448
 31
0.0
 11
2.5686385041
 21
4.48278176
 31
0.0
 11
2.5669641997
 21
4.5093991161
 31
0.0
 11
2.568641442
 21
4.5360150066
 31
0.0
 11
2.5736760887
 21
4.5628922753
 31
0.0
 11
2.5821277037
 21
4.5904043719
 31
0.0
 11
2.5942098549
 21
4.6191172076
 31
0.0
 11
2.6104350506
 21
4.6498866826
 31
0.0
  0
SPLINE
  5
55A
100
AcDbEntity
  8
0
100
AcDbSpline
 62
7
  6
CONTINUOUS
 70
0
 71
3
 72
15
 73
11
 74
9
 42
0.0000001
 43
0.0000001
 44
0.0000000001
 12
0.0
 22
0.1617702498
 32
0.0
 13
0.0
 23
-0.1617702498
 33
0.0
 40
0.0
 40
0.0
 40
0.0
 40
0.0
 40
0.125
 40
0.25
 40
0.375
 40
0.5
 40
0.625
 40
0.75
 40
0.875
 40
1.0
 40
1.0
 40
1.0
 40
1.0
 10
6.0489641994
 20
5.0503866826
 30
0.0
 10
6.0489641994
 20
5.0571271097
 30
0.0
 10
6.0462826908
 20
5.0706079638
 30
0.0
 10
6.0348282551
 20
5.0877507383
 30
0.0
 10
6.0176854806
 20
5.099205174
 30
0.0
 10
5.9974641994
 20
5.1032274369
 30
0.0
 10
5.9772429181
 20
5.099205174
 30
0.0
 10
5.9601001437
 20
5.0877507383
 30
0.0
 10
5.948645708
 20
5.0706079638
 30
0.0
 10
5.9459641994
 20
5.0571271097
 30
0.0
 10
5.9459641994
 20
5.0503866826
 30
0.0
 11
6.0489641994
 21
5.0503866826
 31
0.0
 11
6.0450439953
 21
5.0700948794
 31
0.0
 11
6.0338801986
 21
5.0868026818
 31
0.0
 11
6.0171723961
 21
5.0979664785
 31
0.0
 11
5.9974641994
 21
5.1018866826
 31
0.0
 11
5.9777560026
 21
5.0979664785
 31
0.0
 11
5.9610482001
 21
5.0868026818
 31
0.0
 11
5.9498844034
 21
5.0700948794
 31
0.0
 11
5.9459641994
 21
5.0503866826
 31
0.0
  0
SPLINE
  5
55B
100
AcDbEntity
  8
0
100
AcDbSpline
 62
7
  6
CONTINUOUS
 70
0
 71
3
 72
15
 73
11
 74
9
 42
0.0000001
 43
0.0000001
 44
0.0000000001
 12
0.0
 22
-0.1617702498
 32
0.0
 13
0.0
 23
0.1617702498
 33
0.0
 40
0.0
 40
0.0
 40
0.0
 40
0.0
 40
0.125
 40
0.25
 40
0.375
 40
0.5
 40
0.625
 40
0.75
 40
0.875
 40
1.0
 40
1.0
 40
1.0
 40
1.0
 10
6.0489641994
 20
3.6873866826
 30
0.0
 10
6.0489641994
 20
3.6806462555
 30
0.0
 10
6.0462826908
 20
3.6671654014
 30
0.0
 10
6.0348282551
 20
3.6500226269
 30
0.0
 10
6.0176854806
 20
3.6385681912
 30
0.0
 10
5.9974641994
 20
3.6345459283
 30
0.0
 10
5.9772429181
 20
3.6385681912
 30
0.0
 10
5.9601001437
 20
3.6500226269
 30
0.0
 10
5.948645708
 20
3.6671654014
 30
0.0
 10
5.9459641994
 20
3.6806462555
 30
0.0
 10
5.9459641994
 20
3.6873866826
 30
0.0
 11
6.0489641994
 21
3.6873866826
 31
0.0
 11
6.0450439953
 21
3.6676784858
 31
0.0
 11
6.0338801986
 21
3.6509706834
 31
0.0
 11
6.0171723961
 21
3.6398068867
 31
0.0
 11
5.9974641994
 21
3.6358866826
 31
0.0
 11
5.9777560026
 21
3.6398068867
 31
0.0
 11
5.9610482001
 21
3.6509706834
 31
0.0
 11
5.9498844034
 21
3.6676784858
 31
0.0
 11
5.9459641994
 21
3.6873866826
 31
0.0
  0
SPLINE
  5
55C
100
AcDbEntity
  8
0
100
AcDbSpline
 62
7
  6
CONTINUOUS
 70
0
 71
3
 72
15
 73
11
 74
9
 42
0.0000001
 43
0.0000001
 44
0.0000000001
 12
0.0
 22
0.1617702498
 32
0.0
 13
0.0
 23
-0.1617702498
 33
0.0
 40
0.0
 40
0.0
 40
0.0
 40
0.0
 40
0.125
 40
0.25
 40
0.375
 40
0.5
 40
0.625
 40
0.75
 40
0.875
 40
1.0
 40
1.0
 40
1.0
 40
1.0
 10
5.2399641994
 20
5.1118866826
 30
0.0
 10
5.2399641994
 20
5.1186271097
 30
0.0
 10
5.2372826908
 20
5.1321079638
 30
0.0
 10
5.2258282551
 20
5.1492507383
 30
0.0
 10
5.2086854806
 20
5.160705174
 30
0.0
 10
5.1884641994
 20
5.1647274369
 30
0.0
 10
5.1682429181
 20
5.160705174
 30
0.0
 10
5.1511001437
 20
5.1492507383
 30
0.0
 10
5.139645708
 20
5.1321079638
 30
0.0
 10
5.1369641994
 20
5.1186271097
 30
0.0
 10
5.1369641994
 20
5.1118866826
 30
0.0
 11
5.2399641994
 21
5.1118866826
 31
0.0
 11
5.2360439953
 21
5.1315948794
 31
0.0
 11
5.2248801986
 21
5.1483026818
 31
0.0
 11
5.2081723961
 21
5.1594664785
 31
0.0
 11
5.1884641994
 21
5.1633866826
 31
0.0
 11
5.1687560026
 21
5.1594664785
 31
0.0
 11
5.1520482001
 21
5.1483026818
 31
0.0
 11
5.1408844034
 21
5.1315948794
 31
0.0
 11
5.1369641994
 21
5.1118866826
 31
0.0
  0
SPLINE
  5
55D
100
AcDbEntity
  8
0
100
AcDbSpline
 62
7
  6
CONTINUOUS
 70
0
 71
3
 72
15
 73
11
 74
9
 42
0.0000001
 43
0.0000001
 44
0.0000000001
 12
0.0
 22
-0.1617702498
 32
0.0
 13
0.0
 23
0.1617702498
 33
0.0
 40
0.0
 40
0.0
 40
0.0
 40
0.0
 40
0.125
 40
0.25
 40
0.375
 40
0.5
 40
0.625
 40
0.75
 40
0.875
 40
1.0
 40
1.0
 40
1.0
 40
1.0
 10
5.2399641994
 20
3.6258866826
 30
0.0
 10
5.2399641994
 20
3.6191462555
 30
0.0
 10
5.2372826908
 20
3.6056654014
 30
0.0
 10
5.2258282551
 20
3.5885226269
 30
0.0
 10
5.2086854806
 20
3.5770681912
 30
0.0
 10
5.1884641994
 20
3.5730459283
 30
0.0
 10
5.1682429181
 20
3.5770681912
 30
0.0
 10
5.1511001437
 20
3.5885226269
 30
0.0
 10
5.139645708
 20
3.6056654014
 30
0.0
 10
5.1369641994
 20
3.6191462555
 30
0.0
 10
5.1369641994
 20
3.6258866826
 30
0.0
 11
5.2399641994
 21
3.6258866826
 31
0.0
 11
5.2360439953
 21
3.6061784858
 31
0.0
 11
5.2248801986
 21
3.5894706834
 31
0.0
 11
5.2081723961
 21
3.5783068867
 31
0.0
 11
5.1884641994
 21
3.5743866826
 31
0.0
 11
5.1687560026
 21
3.5783068867
 31
0.0
 11
5.1520482001
 21
3.5894706834
 31
0.0
 11
5.1408844034
 21
3.6061784858
 31
0.0
 11
5.1369641994
 21
3.6258866826
 31
0.0
  0
SPLINE
  5
55E
100
AcDbEntity
  8
0
100
AcDbSpline
 62
7
  6
CONTINUOUS
 70
0
 71
3
 72
15
 73
11
 74
9
 42
0.0000001
 43
0.0000001
 44
0.0000000001
 12
0.0
 22
0.1617702498
 32
0.0
 13
0.0
 23
-0.1617702498
 33
0.0
 40
0.0
 40
0.0
 40
0.0
 40
0.0
 40
0.125
 40
0.25
 40
0.375
 40
0.5
 40
0.625
 40
0.75
 40
0.875
 40
1.0
 40
1.0
 40
1.0
 40
1.0
 10
4.5519641994
 20
5.1118866826
 30
0.0
 10
4.5519641994
 20
5.1186271097
 30
0.0
 10
4.5492826908
 20
5.1321079638
 30
0.0
 10
4.5378282551
 20
5.1492507383
 30
0.0
 10
4.5206854806
 20
5.160705174
 30
0.0
 10
4.5004641994
 20
5.1647274369
 30
0.0
 10
4.4802429181
 20
5.160705174
 30
0.0
 10
4.4631001437
 20
5.1492507383
 30
0.0
 10
4.451645708
 20
5.1321079638
 30
0.0
 10
4.4489641994
 20
5.1186271097
 30
0.0
 10
4.4489641994
 20
5.1118866826
 30
0.0
 11
4.5519641994
 21
5.1118866826
 31
0.0
 11
4.5480439953
 21
5.1315948794
 31
0.0
 11
4.5368801986
 21
5.1483026818
 31
0.0
 11
4.5201723961
 21
5.1594664785
 31
0.0
 11
4.5004641994
 21
5.1633866826
 31
0.0
 11
4.4807560026
 21
5.1594664785
 31
0.0
 11
4.4640482001
 21
5.1483026818
 31
0.0
 11
4.4528844034
 21
5.1315948794
 31
0.0
 11
4.4489641994
 21
5.1118866826
 31
0.0
  0
SPLINE
  5
55F
100
AcDbEntity
  8
0
100
AcDbSpline
 62
7
  6
CONTINUOUS
 70
0
 71
3
 72
15
 73
11
 74
9
 42
0.0000001
 43
0.0000001
 44
0.0000000001
 12
0.0
 22
-0.1617702498
 32
0.0
 13
0.0
 23
0.1617702498
 33
0.0
 40
0.0
 40
0.0
 40
0.0
 40
0.0
 40
0.125
 40
0.25
 40
0.375
 40
0.5
 40
0.625
 40
0.75
 40
0.875
 40
1.0
 40
1.0
 40
1.0
 40
1.0
 10
4.5519641994
 20
3.6258866826
 30
0.0
 10
4.5519641994
 20
3.6191462555
 30
0.0
 10
4.5492826908
 20
3.6056654014
 30
0.0
 10
4.5378282551
 20
3.5885226269
 30
0.0
 10
4.5206854806
 20
3.5770681912
 30
0.0
 10
4.5004641994
 20
3.5730459283
 30
0.0
 10
4.4802429181
 20
3.5770681912
 30
0.0
 10
4.4631001437
 20
3.5885226269
 30
0.0
 10
4.451645708
 20
3.6056654014
 30
0.0
 10
4.4489641994
 20
3.6191462555
 30
0.0
 10
4.4489641994
 20
3.6258866826
 30
0.0
 11
4.5519641994
 21
3.6258866826
 31
0.0
 11
4.5480439953
 21
3.6061784858
 31
0.0
 11
4.5368801986
 21
3.5894706834
 31
0.0
 11
4.5201723961
 21
3.5783068867
 31
0.0
 11
4.5004641994
 21
3.5743866826
 31
0.0
 11
4.4807560026
 21
3.5783068867
 31
0.0
 11
4.4640482001
 21
3.5894706834
 31
0.0
 11
4.4528844034
 21
3.6061784858
 31
0.0
 11
4.4489641994
 21
3.6258866826
 31
0.0
  0
SPLINE
  5
560
100
AcDbEntity
  8
0
100
AcDbSpline
 62
7
  6
CONTINUOUS
 70
0
 71
3
 72
8
 73
4
 74
2
 42
0.0000001
 43
0.0000001
 44
0.0000000001
 12
0.0006369877
 22
0.0
 32
0.0
 13
0.0006371079
 23
-0.0000044287
 33
0.0
 40
0.0
 40
0.0
 40
0.0
 40
0.0
 40
1.0
 40
1.0
 40
1.0
 40
1.0
 10
6.8189641994
 20
4.293172098
 30
0.0
 10
6.8191765286
 20
4.293172098
 30
0.0
 10
6.8193888808
 20
4.2931713595
 30
0.0
 10
6.8196012501
 20
4.2931698833
 30
0.0
 11
6.8189641994
 21
4.293172098
 31
0.0
 11
6.8196012501
 21
4.2931698833
 31
0.0
  0
SPLINE
  5
561
100
AcDbEntity
  8
0
100
AcDbSpline
 62
7
  6
CONTINUOUS
 70
0
 71
3
 72
11
 73
7
 74
5
 42
0.0000001
 43
0.0000001
 44
0.0000000001
 12
0.0806666871
 22
-0.0005607369
 32
0.0
 13
0.0533443299
 23
-0.0606878877
 33
0.0
 40
0.0
 40
0.0
 40
0.0
 40
0.0
 40
0.2508810193
 40
0.5169923056
 40
0.780100995
 40
1.0
 40
1.0
 40
1.0
 40
1.0
 10
6.8196012501
 20
4.2931698833
 30
0.0
 10
6.8263471636
 20
4.2931229905
 30
0.0
 10
6.840284086
 20
4.2914925111
 30
0.0
 10
6.8602189588
 20
4.2844435116
 30
0.0
 10
6.8774094881
 20
4.2736475586
 30
0.0
 10
6.8868906565
 20
4.2646645777
 30
0.0
 10
6.8908007782
 20
4.2602161756
 30
0.0
 11
6.8196012501
 21
4.2931698833
 31
0.0
 11
6.8397026466
 21
4.2908244113
 31
0.0
 11
6.8599469028
 21
4.2836970783
 31
0.0
 11
6.8779254706
 21
4.272424822
 31
0.0
 11
6.8908007782
 21
4.2602161756
 31
0.0
  0
SPLINE
  5
562
100
AcDbEntity
  8
0
100
AcDbSpline
 62
7
  6
CONTINUOUS
 70
0
 71
3
 72
14
 73
10
 74
8
 42
0.0000001
 43
0.0000001
 44
0.0000000001
 12
0.0915795116
 22
-0.0010899893
 32
0.0
 13
0.0880256576
 23
-0.0252268952
 33
0.0
 40
0.0
 40
0.0
 40
0.0
 40
0.0
 40
0.1863733598
 40
0.4069035293
 40
0.6043641201
 40
0.7667763433
 40
0.8932318802
 40
0.9733599263
 40
1.0
 40
1.0
 40
1.0
 40
1.0
 10
6.8226994857
 20
4.0546224998
 30
0.0
 10
6.8283888128
 20
4.0545547848
 30
0.0
 10
6.8408061655
 20
4.0540696217
 30
0.0
 10
6.8591773499
 20
4.0522690108
 30
0.0
 10
6.8766870351
 20
4.0495199738
 30
0.0
 10
6.8912301977
 20
4.0465241957
 30
0.0
 10
6.9021741353
 20
4.0438552132
 30
0.0
 10
6.9090470152
 20
4.0419990109
 30
0.0
 10
6.9121825294
 20
4.041110698
 30
0.0
 10
6.9129641994
 20
4.0408866826
 30
0.0
 11
6.8226994857
 21
4.0546224998
 31
0.0
 11
6.8397536407
 21
4.0539578004
 31
0.0
 11
6.8598519185
 21
4.0519958409
 31
0.0
 11
6.8777157598
 21
4.0491997328
 31
0.0
 11
6.8922830475
 21
4.046204713
 31
0.0
 11
6.9035334682
 21
4.0434639403
 31
0.0
 11
6.910617149
 21
4.0415515895
 31
0.0
 11
6.9129641994
 21
4.0408866826
 31
0.0
  0
SPLINE
  5
563
100
AcDbEntity
  8
0
100
AcDbSpline
 62
7
  6
CONTINUOUS
 70
0
 71
3
 72
11
 73
7
 74
5
 42
0.0000001
 43
0.0000001
 44
0.0000000001
 12
-0.053294496
 22
-0.0608111305
 32
0.0
 13
-0.0807274269
 23
-0.0006342761
 33
0.0
 40
0.0
 40
0.0
 40
0.0
 40
0.0
 40
0.2209343987
 40
0.4835779628
 40
0.7497612611
 40
1.0
 40
1.0
 40
1.0
 40
1.0
 10
6.890894831
 20
4.4776643464
 30
0.0
 10
6.8869699685
 20
4.4731859229
 30
0.0
 10
6.8774787592
 20
4.4641762822
 30
0.0
 10
6.8602675343
 20
4.4533534597
 30
0.0
 10
6.8403485042
 20
4.4462964952
 30
0.0
 10
6.8264180089
 20
4.4446570038
 30
0.0
 10
6.819684299
 20
4.444604097
 30
0.0
 11
6.890894831
 21
4.4776643464
 31
0.0
 11
6.8779614051
 21
4.4653769337
 31
0.0
 11
6.8600080432
 21
4.4541059183
 31
0.0
 11
6.8397477707
 21
4.4469592908
 31
0.0
 11
6.819684299
 21
4.444604097
 31
0.0
  0
SPLINE
  5
564
100
AcDbEntity
  8
0
100
AcDbSpline
 62
7
  6
CONTINUOUS
 70
0
 71
3
 72
14
 73
10
 74
8
 42
0.0000001
 43
0.0000001
 44
0.0000000001
 12
-0.088024294
 22
-0.025226504
 32
0.0
 13
-0.0915781009
 23
-0.0010903932
 33
0.0
 40
0.0
 40
0.0
 40
0.0
 40
0.0
 40
0.0265775158
 40
0.1066369807
 40
0.2332875183
 40
0.3956285743
 40
0.5929659853
 40
0.8137460966
 40
1.0
 40
1.0
 40
1.0
 40
1.0
 10
6.9129641994
 20
4.6968866826
 30
0.0
 10
6.912184377
 20
4.6966631967
 30
0.0
 10
6.9090527692
 20
4.6957759662
 30
0.0
 10
6.9021781574
 20
4.6939191282
 30
0.0
 10
6.8912327696
 20
4.6912496828
 30
0.0
 10
6.8766897984
 20
4.6882540396
 30
0.0
 10
6.859178778
 20
4.6855044275
 30
0.0
 10
6.8408076368
 20
4.683703721
 30
0.0
 10
6.8283864881
 20
4.6832185796
 30
0.0
 10
6.8227008952
 20
4.683150883
 30
0.0
 11
6.9129641994
 21
4.6968866826
 31
0.0
 11
6.9106227016
 21
4.6962233305
 31
0.0
 11
6.9035452374
 21
4.6943124837
 31
0.0
 11
6.8922776667
 21
4.6915674296
 31
0.0
 11
6.8777169704
 21
4.6885738549
 31
0.0
 11
6.8598646084
 21
4.6857791619
 31
0.0
 11
6.8397438728
 21
4.6838149202
 31
0.0
 11
6.8227008952
 21
4.683150883
 31
0.0
  0
SPLINE
  5
565
100
AcDbEntity
  8
0
100
AcDbSpline
 62
7
  6
CONTINUOUS
 70
0
 71
3
 72
14
 73
10
 74
8
 42
0.0000001
 43
0.0000001
 44
0.0000000001
 12
-0.152291562
 22
0.0
 32
0.0
 13
-0.0000472391
 23
-0.1530523127
 33
0.0
 40
0.0
 40
0.0
 40
0.0
 40
0.0
 40
0.1716420249
 40
0.3416972294
 40
0.5070944245
 40
0.663542408
 40
0.8075324124
 40
0.9384698388
 40
1.0
 40
1.0
 40
1.0
 40
1.0
 10
6.8979641994
 20
4.0799953425
 30
0.0
 10
6.8892509887
 20
4.0799953425
 30
0.0
 10
6.8718523884
 20
4.0782115394
 30
0.0
 10
6.8471512977
 20
4.0703663987
 30
0.0
 10
6.8252578193
 20
4.0579699906
 30
0.0
 10
6.807511716
 20
4.0420412183
 30
0.0
 10
6.7949522295
 20
4.0238215681
 30
0.0
 10
6.7893076422
 20
4.0074373217
 30
0.0
 10
6.7884702543
 20
3.9976124813
 30
0.0
 10
6.7884692855
 20
3.9944733701
 30
0.0
 11
6.8979641994
 21
4.0799953425
 31
0.0
 11
6.8719618899
 21
4.0773194749
 31
0.0
 11
6.8472867412
 21
4.0694555046
 31
0.0
 11
6.8254045766
 21
4.0569800769
 31
0.0
 11
6.8077687268
 21
4.0409600533
 31
0.0
 11
6.7955026851
 21
4.0227830982
 31
0.0
 11
6.789250087
 21
4.003848074
 31
0.0
 11
6.7884692855
 21
3.9944733701
 31
0.0
  0
SPLINE
  5
566
100
AcDbEntity
  8
0
100
AcDbSpline
 62
7
  6
CONTINUOUS
 70
0
 71
3
 72
14
 73
10
 74
8
 42
0.0000001
 43
0.0000001
 44
0.0000000001
 12
0.1522915827
 22
0.0
 32
0.0
 13
0.0000471752
 23
0.1530523486
 33
0.0
 40
0.0
 40
0.0
 40
0.0
 40
0.0
 40
0.1716403365
 40
0.3416936693
 40
0.5070884272
 40
0.6635364119
 40
0.8075290483
 40
0.9384692213
 40
1.0
 40
1.0
 40
1.0
 40
1.0
 10
6.8979641994
 20
4.6577780227
 30
0.0
 10
6.9066773255
 20
4.6577780227
 30
0.0
 10
6.9240757458
 20
4.65956179
 30
0.0
 10
6.9487765688
 20
4.6674067603
 30
0.0
 10
6.9706699266
 20
4.6798029273
 30
0.0
 10
6.988416173
 20
4.695731556
 30
0.0
 10
7.0009759709
 20
4.7139513359
 30
0.0
 10
7.0066207384
 20
4.7303358595
 30
0.0
 10
7.0074581453
 20
4.7401608748
 30
0.0
 10
7.0074591129
 20
4.7433000182
 30
0.0
 11
6.8979641994
 21
4.6577780227
 31
0.0
 11
6.9239662593
 21
4.6604538383
 31
0.0
 11
6.9486411647
 21
4.6683176447
 31
0.0
 11
6.9705230865
 21
4.6807927559
 31
0.0
 11
6.9881590774
 21
4.6968126292
 31
0.0
 11
7.0004254916
 21
4.7149898201
 31
0.0
 11
7.0066782996
 21
4.7339252184
 31
0.0
 11
7.0074591129
 21
4.7433000182
 31
0.0
  0
SPLINE
  5
567
100
AcDbEntity
  8
0
100
AcDbSpline
 62
7
  6
CONTINUOUS
 70
0
 71
3
 72
11
 73
7
 74
5
 42
0.0000001
 43
0.0000001
 44
0.0000000001
 12
-0.0782908878
 22
0.0
 32
0.0
 13
-0.0691390847
 23
-0.036959423
 33
0.0
 40
0.0
 40
0.0
 40
0.0
 40
0.0
 40
0.2933543565
 40
0.5770278342
 40
0.8423085658
 40
1.0
 40
1.0
 40
1.0
 40
1.0
 10
6.8979641994
 20
4.7000899238
 30
0.0
 10
6.8903085417
 20
4.7000899238
 30
0.0
 10
6.8752372787
 20
4.6993231933
 30
0.0
 10
6.8534866327
 20
4.6958304585
 30
0.0
 10
6.8357435025
 20
4.6905737326
 30
0.0
 10
6.8256526059
 20
4.6860045943
 30
0.0
 10
6.8220183921
 20
4.6840618662
 30
0.0
 11
6.8979641994
 21
4.7000899238
 31
0.0
 11
6.875028589
 21
4.6988900793
 31
0.0
 11
6.8531163048
 21
4.6952715666
 31
0.0
 11
6.8332503274
 21
4.689213765
 31
0.0
 11
6.8220183921
 21
4.6840618662
 31
0.0
  0
SPLINE
  5
568
100
AcDbEntity
  8
0
100
AcDbSpline
 62
7
  6
CONTINUOUS
 70
0
 71
3
 72
14
 73
10
 74
8
 42
0.0000001
 43
0.0000001
 44
0.0000000001
 12
0.0000492241
 22
-0.1530513531
 32
0.0
 13
0.1522912063
 23
-0.0
 33
0.0
 40
0.0
 40
0.0
 40
0.0
 40
0.0
 40
0.061651744
 40
0.1925569621
 40
0.3365148396
 40
0.4930206385
 40
0.658375536
 40
0.8283960964
 40
1.0
 40
1.0
 40
1.0
 40
1.0
 10
6.7884692673
 20
4.7432995238
 30
0.0
 10
6.7884702789
 20
4.7401542296
 30
0.0
 10
6.7893098555
 20
4.7303248724
 30
0.0
 10
6.7949591974
 20
4.7139394594
 30
0.0
 10
6.8075206773
 20
4.6957218554
 30
0.0
 10
6.8252682812
 20
4.6797958661
 30
0.0
 10
6.8471622151
 20
4.6674026844
 30
0.0
 10
6.8718581166
 20
4.6595610349
 30
0.0
 10
6.8892529442
 20
4.6577780227
 30
0.0
 10
6.8979641994
 20
4.6577780227
 30
0.0
 11
6.7884692673
 21
4.7432995238
 31
0.0
 11
6.7892532131
 21
4.733906505
 31
0.0
 11
6.7955089186
 21
4.7149777221
 31
0.0
 11
6.8077746433
 21
4.6968065175
 31
0.0
 11
6.8254190024
 21
4.6807828498
 31
0.0
 11
6.8472970592
 21
4.6683133417
 31
0.0
 11
6.8719676637
 21
4.6604526877
 31
0.0
 11
6.8979641994
 21
4.6577780227
 31
0.0
  0
SPLINE
  5
569
100
AcDbEntity
  8
0
100
AcDbSpline
 62
7
  6
CONTINUOUS
 70
0
 71
3
 72
10
 73
6
 74
4
 42
0.0000001
 43
0.0000001
 44
0.0000000001
 12
-0.0416431843
 22
0.0222616726
 32
0.0
 13
-0.0466750894
 23
0.0069083419
 33
0.0
 40
0.0
 40
0.0
 40
0.0
 40
0.0
 40
0.2610152737
 40
0.701676091
 40
1.0
 40
1.0
 40
1.0
 40
1.0
 10
6.9739111966
 20
4.6840612344
 30
0.0
 10
6.9702880275
 20
4.6859981133
 30
0.0
 10
6.9602063272
 20
4.6905656077
 30
0.0
 10
6.9450837105
 20
4.6950496529
 30
0.0
 10
6.9336505132
 20
4.6971747074
 30
0.0
 10
6.9290090815
 20
4.6978616819
 30
0.0
 11
6.9739111966
 21
4.6840612344
 31
0.0
 11
6.9627142123
 21
4.6891995704
 31
0.0
 11
6.9428395302
 21
4.6952652599
 31
0.0
 11
6.9290090815
 21
4.6978616819
 31
0.0
  0
SPLINE
  5
56A
100
AcDbEntity
  8
0
100
AcDbSpline
 62
7
  6
CONTINUOUS
 70
0
 71
3
 72
9
 73
5
 74
3
 42
0.0000001
 43
0.0000001
 44
0.0000000001
 12
-0.0308190601
 22
0.0045615039
 32
0.0
 13
-0.0311364354
 23
0.0
 33
0.0
 40
0.0
 40
0.0
 40
0.0
 40
0.0
 40
0.2617350178
 40
1.0
 40
1.0
 40
1.0
 40
1.0
 10
6.9290090815
 20
4.6978616819
 30
0.0
 10
6.9263202724
 20
4.6982596504
 30
0.0
 10
6.9160140239
 20
4.6995610273
 30
0.0
 10
6.9056265127
 20
4.7000899238
 30
0.0
 10
6.8979641994
 20
4.7000899238
 30
0.0
 11
6.9290090815
 21
4.6978616819
 31
0.0
 11
6.9209196932
 21
4.6988879632
 31
0.0
 11
6.8979641994
 21
4.7000899238
 31
0.0
  0
SPLINE
  5
56B
100
AcDbEntity
  8
0
100
AcDbSpline
 62
7
  6
CONTINUOUS
 70
0
 71
3
 72
11
 73
7
 74
5
 42
0.0000001
 43
0.0000001
 44
0.0000000001
 12
0.0691397999
 22
-0.0369612726
 32
0.0
 13
0.0782925573
 23
-0.0
 33
0.0
 40
0.0
 40
0.0
 40
0.0
 40
0.0
 40
0.1574182848
 40
0.4227709554
 40
0.7064706557
 40
1.0
 40
1.0
 40
1.0
 40
1.0
 10
6.8220169096
 20
4.0537122919
 30
0.0
 10
6.8256448659
 20
4.0517728318
 30
0.0
 10
6.835730537
 20
4.0472045264
 30
0.0
 10
6.8534690577
 20
4.0419466025
 30
0.0
 10
6.8752269457
 20
4.0384509158
 30
0.0
 10
6.8903038117
 20
4.0376834414
 30
0.0
 10
6.8979641994
 20
4.0376834414
 30
0.0
 11
6.8220169096
 21
4.0537122919
 31
0.0
 11
6.8332290588
 21
4.0485679519
 31
0.0
 11
6.8530999844
 21
4.0425055495
 31
0.0
 11
6.8750144583
 21
4.0388847895
 31
0.0
 11
6.8979641994
 21
4.0376834414
 31
0.0
  0
SPLINE
  5
56C
100
AcDbEntity
  8
0
100
AcDbSpline
 62
7
  6
CONTINUOUS
 70
0
 71
3
 72
14
 73
10
 74
8
 42
0.0000001
 43
0.0000001
 44
0.0000000001
 12
-0.0000469929
 22
0.1530524491
 32
0.0
 13
-0.1522916407
 23
0.0
 33
0.0
 40
0.0
 40
0.0
 40
0.0
 40
0.0
 40
0.0615318361
 40
0.1924800427
 40
0.3364791815
 40
0.4929247711
 40
0.6583152662
 40
0.8283660885
 40
1.0
 40
1.0
 40
1.0
 40
1.0
 10
7.0074591119
 20
3.9944732822
 30
0.0
 10
7.007458148
 20
3.9976124816
 30
0.0
 10
7.0066206985
 20
4.0074379693
 30
0.0
 10
7.0009754637
 20
4.023823219
 30
0.0
 10
6.9884149055
 20
4.0420432545
 30
0.0
 10
6.9706683474
 20
4.0579715161
 30
0.0
 10
6.9487752278
 20
4.0703671482
 30
0.0
 10
6.9240749699
 20
4.0782116883
 30
0.0
 10
6.9066770027
 20
4.0799953425
 30
0.0
 10
6.8979641994
 20
4.0799953425
 30
0.0
 11
7.0074591119
 21
3.9944732822
 31
0.0
 11
7.0066782826
 21
4.0038482491
 31
0.0
 11
7.0004248922
 21
4.0227847516
 31
0.0
 11
6.9881575332
 21
4.0409625095
 31
0.0
 11
6.9705214727
 21
4.0569817772
 31
0.0
 11
6.9486399297
 21
4.0694562614
 31
0.0
 11
6.9239653061
 21
4.0773197255
 31
0.0
 11
6.8979641994
 21
4.0799953425
 31
0.0
  0
SPLINE
  5
56D
100
AcDbEntity
  8
0
100
AcDbSpline
 62
7
  6
CONTINUOUS
 70
0
 71
3
 72
9
 73
5
 74
3
 42
0.0000001
 43
0.0000001
 44
0.0000000001
 12
0.0311364718
 22
0.0
 32
0.0
 13
0.0308190478
 23
0.0045615416
 33
0.0
 40
0.0
 40
0.0
 40
0.0
 40
0.0
 40
0.7374340896
 40
1.0
 40
1.0
 40
1.0
 40
1.0
 10
6.8979641994
 20
4.0376834414
 30
0.0
 10
6.9056178979
 20
4.0376834414
 30
0.0
 10
6.916005394
 20
4.0382117597
 30
0.0
 10
6.9263117433
 20
4.0395124488
 30
0.0
 10
6.9290090871
 20
4.0399116839
 30
0.0
 11
6.8979641994
 21
4.0376834414
 31
0.0
 11
6.920893957
 21
4.0388826634
 31
0.0
 11
6.9290090871
 21
4.0399116839
 31
0.0
  0
SPLINE
  5
56E
100
AcDbEntity
  8
0
100
AcDbSpline
 62
7
  6
CONTINUOUS
 70
0
 71
3
 72
10
 73
6
 74
4
 42
0.0000001
 43
0.0000001
 44
0.0000000001
 12
0.0466753097
 22
0.0069084343
 32
0.0
 13
0.0416432917
 23
0.0222620716
 33
0.0
 40
0.0
 40
0.0
 40
0.0
 40
0.0
 40
0.2974802012
 40
0.7378165877
 40
1.0
 40
1.0
 40
1.0
 40
1.0
 10
6.9290090871
 20
4.0399116839
 30
0.0
 10
6.9336374139
 20
4.0405967247
 30
0.0
 10
6.9450527742
 20
4.0427172609
 30
0.0
 10
6.960176729
 20
4.0471964812
 30
0.0
 10
6.9702720179
 20
4.0517666728
 30
0.0
 10
6.9739114113
 20
4.0537122548
 30
0.0
 11
6.9290090871
 21
4.0399116839
 31
0.0
 11
6.9428008076
 21
4.0424992057
 31
0.0
 11
6.9626630455
 21
4.0485537027
 31
0.0
 11
6.9739114113
 21
4.0537122548
 31
0.0
  0
SPLINE
  5
56F
100
AcDbEntity
  8
0
100
AcDbSpline
 62
7
  6
CONTINUOUS
 70
0
 71
3
 72
22
 73
18
 74
16
 42
0.0000001
 43
0.0000001
 44
0.0000000001
 12
0.2159963006
 22
0.044667833
 32
0.0
 13
0.2159963006
 23
-0.0446678328
 33
0.0
 40
0.0
 40
0.0
 40
0.0
 40
0.0
 40
0.0110651418
 40
0.043742559
 40
0.0964402203
 40
0.1663918845
 40
0.250986295
 40
0.3459465776
 40
0.4481166485
 40
0.5520578949
 40
0.6542493574
 40
0.7492510038
 40
0.8338134737
 40
0.9037261374
 40
0.9563349038
 40
0.9889614681
 40
1.0
 40
1.0
 40
1.0
 40
1.0
 10
6.7884641994
 20
3.8393866826
 30
0.0
 10
6.7892608759
 20
3.8395514346
 30
0.0
 10
6.792411641
 20
3.840196205
 30
0.0
 10
6.7993698305
 20
3.841560532
 30
0.0
 10
6.8106115533
 20
3.843574853
 30
0.0
 10
6.825671768
 20
3.8459021464
 30
0.0
 10
6.8438826529
 20
3.8481403197
 30
0.0
 10
6.8645257951
 20
3.849905257
 30
0.0
 10
6.8866469622
 20
3.8508752716
 30
0.0
 10
6.909321512
 20
3.8508744278
 30
0.0
 10
6.9314472162
 20
3.8499024731
 30
0.0
 10
6.9520924617
 20
3.8481354754
 30
0.0
 10
6.9703009823
 20
3.845895928
 30
0.0
 10
6.9853494085
 20
3.8435693224
 30
0.0
 10
6.9965780971
 20
3.8415567927
 30
0.0
 10
7.0035242565
 20
3.8401946827
 30
0.0
 10
7.0066694387
 20
3.8395510384
 30
0.0
 10
7.0074641994
 20
3.8393866826
 30
0.0
 11
6.7884641994
 21
3.8393866826
 31
0.0
 11
6.7908552519
 21
3.839875977
 31
0.0
 11
6.7979281707
 21
3.8412625673
 31
0.0
 11
6.8093694667
 21
3.8433117339
 31
0.0
 11
6.8246177792
 21
3.8456661771
 31
0.0
 11
6.8431374903
 21
3.8479394991
 31
0.0
 11
6.8640066812
 21
3.8497208969
 31
0.0
 11
6.8865204515
 21
3.8507062513
 31
0.0
 11
6.9094464369
 21
3.8507053999
 31
0.0
 11
6.9319648437
 21
3.8497180743
 31
0.0
 11
6.9528429642
 21
3.8479340179
 31
0.0
 11
6.971355478
 21
3.8456598869
 31
0.0
 11
6.9865951156
 21
3.8433056334
 31
0.0
 11
6.9980170149
 21
3.8412593843
 31
0.0
 11
7.0050788994
 21
3.8398748123
 31
0.0
 11
7.0074641994
 21
3.8393866826
 31
0.0
  0
SPLINE
  5
570
100
AcDbEntity
  8
0
100
AcDbSpline
 62
7
  6
CONTINUOUS
 70
0
 71
3
 72
22
 73
18
 74
16
 42
0.0000001
 43
0.0000001
 44
0.0000000001
 12
-0.2159963006
 22
-0.044667833
 32
0.0
 13
-0.2159963006
 23
0.0446678328
 33
0.0
 40
0.0
 40
0.0
 40
0.0
 40
0.0
 40
0.0110651418
 40
0.043742559
 40
0.0964402203
 40
0.1663918845
 40
0.250986295
 40
0.3459465776
 40
0.4481166485
 40
0.5520578949
 40
0.6542493574
 40
0.7492510038
 40
0.8338134737
 40
0.9037261374
 40
0.9563349038
 40
0.9889614681
 40
1.0
 40
1.0
 40
1.0
 40
1.0
 10
7.0074641994
 20
4.8983866826
 30
0.0
 10
7.0066675228
 20
4.8982219306
 30
0.0
 10
7.0035167577
 20
4.8975771602
 30
0.0
 10
6.9965585683
 20
4.8962128332
 30
0.0
 10
6.9853168454
 20
4.8941985122
 30
0.0
 10
6.9702566308
 20
4.8918712188
 30
0.0
 10
6.9520457459
 20
4.8896330455
 30
0.0
 10
6.9314026037
 20
4.8878681082
 30
0.0
 10
6.9092814366
 20
4.8868980936
 30
0.0
 10
6.8866068867
 20
4.8868989374
 30
0.0
 10
6.8644811826
 20
4.8878708921
 30
0.0
 10
6.8438359371
 20
4.8896378898
 30
0.0
 10
6.8256274165
 20
4.8918774372
 30
0.0
 10
6.8105789902
 20
4.8942040428
 30
0.0
 10
6.7993503017
 20
4.8962165725
 30
0.0
 10
6.7924041423
 20
4.8975786825
 30
0.0
 10
6.78925896
 20
4.8982223268
 30
0.0
 10
6.7884641994
 20
4.8983866826
 30
0.0
 11
7.0074641994
 21
4.8983866826
 31
0.0
 11
7.0050731468
 21
4.8978973882
 31
0.0
 11
6.9980002281
 21
4.8965107979
 31
0.0
 11
6.9865589321
 21
4.8944616313
 31
0.0
 11
6.9713106195
 21
4.8921071881
 31
0.0
 11
6.9527909085
 21
4.8898338661
 31
0.0
 11
6.9319217175
 21
4.8880524683
 31
0.0
 11
6.9094079472
 21
4.8870671139
 31
0.0
 11
6.8864819618
 21
4.8870679653
 31
0.0
 11
6.863963555
 21
4.8880552909
 31
0.0
 11
6.8430854345
 21
4.8898393473
 31
0.0
 11
6.8245729207
 21
4.8921134783
 31
0.0
 11
6.8093332831
 21
4.8944677318
 31
0.0
 11
6.7979113838
 21
4.8965139809
 31
0.0
 11
6.7908494993
 21
4.8978985529
 31
0.0
 11
6.7884641994
 21
4.8983866826
 31
0.0
  0
SPLINE
  5
571
100
AcDbEntity
  8
0
100
AcDbSpline
 62
7
  6
CONTINUOUS
 70
0
 71
3
 72
14
 73
10
 74
8
 42
0.0000001
 43
0.0000001
 44
0.0000000001
 12
-0.1431096845
 22
0.0
 32
0.0
 13
0.0000462564
 23
-0.1438240027
 33
0.0
 40
0.0
 40
0.0
 40
0.0
 40
0.0
 40
0.182162214
 40
0.3585276456
 40
0.5234350135
 40
0.6731243453
 40
0.8085173177
 40
0.9361851662
 40
1.0
 40
1.0
 40
1.0
 40
1.0
 10
6.8979641994
 20
4.8126344078
 30
0.0
 10
6.8892744737
 20
4.8126344078
 30
0.0
 10
6.8721478717
 20
4.8115114622
 30
0.0
 10
6.8476141697
 20
4.8064020627
 30
0.0
 10
6.8256708442
 20
4.7978283531
 30
0.0
 10
6.8076286534
 20
4.7858017857
 30
0.0
 10
6.7947306074
 20
4.7704863121
 30
0.0
 10
6.7892255834
 20
4.7555336865
 30
0.0
 10
6.7884682833
 20
4.7463588921
 30
0.0
 10
6.7884692673
 20
4.7432995238
 30
0.0
 11
6.8979641994
 21
4.8126344078
 31
0.0
 11
6.8719541404
 21
4.8108797504
 31
0.0
 11
6.8472754554
 21
4.8055882499
 31
0.0
 11
6.8253883033
 21
4.7967618641
 31
0.0
 11
6.8077506948
 21
4.784603881
 31
0.0
 11
6.7954931978
 21
4.7695977186
 31
0.0
 11
6.7892471095
 21
4.7524280432
 31
0.0
 11
6.7884692673
 21
4.7432995238
 31
0.0
  0
SPLINE
  5
572
100
AcDbEntity
  8
0
100
AcDbSpline
 62
7
  6
CONTINUOUS
 70
0
 71
3
 72
14
 73
10
 74
8
 42
0.0000001
 43
0.0000001
 44
0.0000000001
 12
0.1431092297
 22
0.0
 32
0.0
 13
-0.0000441595
 23
0.1438241652
 33
0.0
 40
0.0
 40
0.0
 40
0.0
 40
0.0
 40
0.18213146
 40
0.3584691162
 40
0.5233544717
 40
0.6730280151
 40
0.808407264
 40
0.9360551615
 40
1.0
 40
1.0
 40
1.0
 40
1.0
 10
6.8979641994
 20
3.9251389574
 30
0.0
 10
6.9066524303
 20
3.9251389574
 30
0.0
 10
6.9237761733
 20
3.9262615273
 30
0.0
 10
6.9483061754
 20
3.9313691988
 30
0.0
 10
6.9702471007
 20
3.939939992
 30
0.0
 10
6.988288788
 20
3.9519624469
 30
0.0
 10
7.0011888428
 20
3.967272709
 30
0.0
 10
7.0067006639
 20
3.9822276082
 30
0.0
 10
7.0074600531
 20
3.9914076779
 30
0.0
 10
7.0074591119
 20
3.9944732822
 30
0.0
 11
6.8979641994
 21
3.9251389574
 31
0.0
 11
6.9239698054
 21
3.9268930028
 31
0.0
 11
6.9486447402
 21
3.9321826512
 31
0.0
 11
6.9705296449
 21
3.9410059862
 31
0.0
 11
6.9881671921
 21
3.9531599568
 31
0.0
 11
7.0004270912
 21
3.9681615409
 31
0.0
 11
7.0066779814
 21
3.9853263683
 31
0.0
 11
7.0074591119
 21
3.9944732822
 31
0.0
  0
SPLINE
  5
573
100
AcDbEntity
  8
0
100
AcDbSpline
 62
7
  6
CONTINUOUS
 70
0
 71
3
 72
14
 73
10
 74
8
 42
0.0000001
 43
0.0000001
 44
0.0000000001
 12
0.0000443308
 22
0.1438241903
 32
0.0
 13
-0.1431092941
 23
0.0
 33
0.0
 40
0.0
 40
0.0
 40
0.0
 40
0.0
 40
0.0639427906
 40
0.1915906705
 40
0.3269695885
 40
0.476643353
 40
0.6415291642
 40
0.817867376
 40
1.0
 40
1.0
 40
1.0
 40
1.0
 10
7.0074591129
 20
4.7433000182
 30
0.0
 10
7.0074600578
 20
4.7463655249
 30
0.0
 10
7.0067007111
 20
4.7555454989
 30
0.0
 10
7.0011890328
 20
4.7705003356
 30
0.0
 10
6.988289067
 20
4.7858106793
 30
0.0
 10
6.9702474041
 20
4.7978332259
 30
0.0
 10
6.9483064324
 20
4.8064040973
 30
0.0
 10
6.923776323
 20
4.8115118246
 30
0.0
 10
6.9066524898
 20
4.8126344078
 30
0.0
 10
6.8979641994
 20
4.8126344078
 30
0.0
 11
7.0074591129
 21
4.7433000182
 31
0.0
 11
7.0066780428
 21
4.7524466457
 31
0.0
 11
7.000427266
 21
4.7696115205
 31
0.0
 11
6.9881674802
 21
4.7846131473
 31
0.0
 11
6.9705299514
 21
4.7967672173
 31
0.0
 11
6.9486449988
 21
4.8055906363
 31
0.0
 11
6.9239699824
 21
4.810880338
 31
0.0
 11
6.8979641994
 21
4.8126344078
 31
0.0
  0
SPLINE
  5
574
100
AcDbEntity
  8
0
100
AcDbSpline
 62
7
  6
CONTINUOUS
 70
0
 71
3
 72
14
 73
10
 74
8
 42
0.0000001
 43
0.0000001
 44
0.0000000001
 12
-0.0000443909
 22
-0.1438241991
 32
0.0
 13
0.143109317
 23
0.0
 33
0.0
 40
0.0
 40
0.0
 40
0.0
 40
0.0
 40
0.063942248
 40
0.1915902386
 40
0.3269692233
 40
0.4766430239
 40
0.6415289181
 40
0.8178672368
 40
1.0
 40
1.0
 40
1.0
 40
1.0
 10
6.7884692855
 20
3.9944733701
 30
0.0
 10
6.7884683393
 20
3.9914078892
 30
0.0
 10
6.7892276742
 20
3.9822279346
 30
0.0
 10
6.7947393206
 20
3.9672731012
 30
0.0
 10
6.8076392778
 20
3.9519627309
 30
0.0
 10
6.8256809429
 20
3.9399401642
 30
0.0
 10
6.8476219253
 20
3.9313692786
 30
0.0
 10
6.8721520532
 20
3.9262615426
 30
0.0
 10
6.8892759009
 20
3.9251389574
 30
0.0
 10
6.8979641994
 20
3.9251389574
 30
0.0
 11
6.7884692855
 21
3.9944733701
 31
0.0
 11
6.7892503387
 21
3.9853268182
 31
0.0
 11
6.7955010923
 21
3.968161915
 31
0.0
 11
6.8077608681
 21
3.9531602636
 31
0.0
 11
6.8253983948
 21
3.9410061756
 31
0.0
 11
6.8472833583
 21
3.9321827414
 31
0.0
 11
6.8719583924
 21
3.9268930304
 31
0.0
 11
6.8979641994
 21
3.9251389574
 31
0.0
  0
SPLINE
  5
575
100
AcDbEntity
  8
128-600_FEATURES
100
AcDbSpline
 62
7
  6
CONTINUOUS
 70
0
 71
3
 72
12
 73
8
 74
6
 42
0.0000001
 43
0.0000001
 44
0.0000000001
 12
-0.0801275063
 22
0.0852806679
 32
0.0
 13
-0.1164526271
 23
0.0
 33
0.0
 40
0.0
 40
0.0
 40
0.0
 40
0.0
 40
0.0618716069
 40
0.2656059939
 40
0.4939230207
 40
0.7445838832
 40
1.0
 40
1.0
 40
1.0
 40
1.0
 10
5.7258551023
 20
4.7866839383
 30
0.0
 10
5.7242025631
 20
4.7884427556
 30
0.0
 10
5.7167364795
 20
4.7956462195
 30
0.0
 10
5.7005031672
 20
4.8061889099
 30
0.0
 10
5.6755938905
 20
4.8156746014
 30
0.0
 10
5.6475481986
 20
4.821323018
 30
0.0
 10
5.6278788253
 20
4.8225607061
 30
0.0
 10
5.6179641994
 20
4.8225607061
 30
0.0
 11
5.7258551023
 21
4.7866839383
 31
0.0
 11
5.720655635
 21
4.7917155299
 31
0.0
 11
5.7009633548
 21
4.8049484027
 31
0.0
 11
5.6762237655
 21
4.814689076
 31
0.0
 11
5.6476456859
 21
4.820635187
 31
0.0
 11
5.6179641994
 21
4.8225607061
 31
0.0
  0
SPLINE
  5
576
100
AcDbEntity
  8
128-600_FEATURES
100
AcDbSpline
 62
7
  6
CONTINUOUS
 70
0
 71
3
 72
12
 73
8
 74
6
 42
0.0000001
 43
0.0000001
 44
0.0000000001
 12
0.0801853487
 22
-0.0850596457
 32
0.0
 13
0.1163308336
 23
-0.0
 33
0.0
 40
0.0
 40
0.0
 40
0.0
 40
0.0
 40
0.0607832662
 40
0.2647487509
 40
0.4933245006
 40
0.7442782738
 40
1.0
 40
1.0
 40
1.0
 40
1.0
 10
5.5101571521
 20
3.9510003366
 30
0.0
 10
5.5117817946
 20
3.9492769356
 30
0.0
 10
5.5192203054
 20
3.9421096188
 30
0.0
 10
5.5354158948
 20
3.9315888459
 30
0.0
 10
5.5603271184
 20
3.9221006512
 30
0.0
 10
5.5883760444
 20
3.9164506953
 30
0.0
 10
5.6080480922
 20
3.9152126591
 30
0.0
 10
5.6179641994
 20
3.9152126591
 30
0.0
 11
5.5101571521
 21
3.9510003366
 31
0.0
 11
5.5152634371
 21
3.9460660532
 31
0.0
 11
5.5349558692
 21
3.9328296948
 31
0.0
 11
5.5596969441
 21
3.9230865443
 31
0.0
 11
5.5882782976
 21
3.9171387623
 31
0.0
 11
5.6179641994
 21
3.9152126591
 31
0.0
  0
SPLINE
  5
577
100
AcDbEntity
  8
128-600_FEATURES
100
AcDbSpline
 62
7
  6
CONTINUOUS
 70
0
 71
3
 72
14
 73
10
 74
8
 42
0.0000001
 43
0.0000001
 44
0.0000000001
 12
0.0000361266
 22
0.1742669605
 32
0.0
 13
0.1733982654
 23
0.0
 33
0.0
 40
0.0
 40
0.0
 40
0.0
 40
0.0
 40
0.0581443829
 40
0.1905406363
 40
0.3359817028
 40
0.489348514
 40
0.6534727878
 40
0.8267544745
 40
1.0
 40
1.0
 40
1.0
 40
1.0
 10
5.4929700791
 20
3.9050259085
 30
0.0
 10
5.4929707793
 20
3.9084034568
 30
0.0
 10
5.4938589767
 20
3.9194766443
 30
0.0
 10
5.5001864796
 20
3.9381534
 30
0.0
 10
5.5145249797
 20
3.9588749569
 30
0.0
 10
5.5346480402
 20
3.9768387903
 30
0.0
 10
5.5595274723
 20
3.9908990339
 30
0.0
 10
5.587862018
 20
3.9998694282
 30
0.0
 10
5.6079507082
 20
4.0019119883
 30
0.0
 10
5.6179641994
 20
4.0019119883
 30
0.0
 11
5.4929700791
 21
3.9050259085
 31
0.0
 11
5.4937642987
 21
3.9151167104
 31
0.0
 11
5.5008505258
 21
3.9369529674
 31
0.0
 11
5.5149846718
 21
3.9578392167
 31
0.0
 11
5.5347157443
 21
3.9756689979
 31
0.0
 11
5.5594458636
 21
3.989751901
 31
0.0
 11
5.5880792986
 21
3.9988586689
 31
0.0
 11
5.6179641994
 21
4.0019119883
 31
0.0
  0
SPLINE
  5
578
100
AcDbEntity
  8
128-600_FEATURES
100
AcDbSpline
 62
7
  6
CONTINUOUS
 70
0
 71
3
 72
14
 73
10
 74
8
 42
0.0000001
 43
0.0000001
 44
0.0000000001
 12
-0.1257571561
 22
0.0
 32
0.0
 13
-0.1235343301
 23
0.0235393451
 33
0.0
 40
0.0
 40
0.0
 40
0.0
 40
0.0
 40
0.2187501566
 40
0.4324686142
 40
0.6228585185
 40
0.7792367814
 40
0.9003440192
 40
0.975494993
 40
1.0
 40
1.0
 40
1.0
 40
1.0
 10
5.6179641994
 20
5.0128672724
 30
0.0
 10
5.6087944002
 20
5.0128672724
 30
0.0
 10
5.5906633415
 20
5.0132549536
 30
0.0
 10
5.5645991093
 20
5.0149101178
 30
0.0
 10
5.5412211785
 20
5.0173047952
 30
0.0
 10
5.5217827733
 20
5.0199353458
 30
0.0
 10
5.5071878544
 20
5.0222883415
 30
0.0
 10
5.4980785997
 20
5.0239212648
 30
0.0
 10
5.4939732692
 20
5.0246944053
 30
0.0
 10
5.4929641994
 20
5.0248866826
 30
0.0
 11
5.6179641994
 21
5.0128672724
 31
0.0
 11
5.590461066
 21
5.0134543069
 31
0.0
 11
5.5636382813
 21
5.0151546652
 31
0.0
 11
5.5398196884
 21
5.0175912105
 31
0.0
 11
5.5203313334
 21
5.0202262074
 31
0.0
 11
5.5052951914
 21
5.0226491053
 31
0.0
 11
5.4959926449
 21
5.0243163585
 31
0.0
 11
5.4929641994
 21
5.0248866826
 31
0.0
  0
SPLINE
  5
579
100
AcDbEntity
  8
128-600_FEATURES
100
AcDbSpline
 62
7
  6
CONTINUOUS
 70
0
 71
3
 72
14
 73
10
 74
8
 42
0.0000001
 43
0.0000001
 44
0.0000000001
 12
-0.1231128957
 22
-0.0233800105
 32
0.0
 13
-0.1253132474
 23
0.0
 33
0.0
 40
0.0
 40
0.0
 40
0.0
 40
0.0
 40
0.040016653
 40
0.1248662421
 40
0.2490055639
 40
0.4034677101
 40
0.5875856136
 40
0.791857391
 40
1.0
 40
1.0
 40
1.0
 40
1.0
 10
5.7425274665
 20
5.0248036038
 30
0.0
 10
5.7408852778
 20
5.0244917405
 30
0.0
 10
5.7357576533
 20
5.0235365183
 30
0.0
 10
5.7255116297
 20
5.0217440918
 30
0.0
 10
5.7105094141
 20
5.0194078694
 30
0.0
 10
5.6913391633
 20
5.0169209415
 30
0.0
 10
5.6687663257
 20
5.0147169071
 30
0.0
 10
5.6438875713
 20
5.0132165258
 30
0.0
 10
5.6266585415
 20
5.0128672724
 30
0.0
 10
5.6179641994
 20
5.0128672724
 30
0.0
 11
5.7425274665
 21
5.0248036038
 31
0.0
 11
5.7375976528
 21
5.0238852804
 31
0.0
 11
5.7271238584
 21
5.0220534539
 31
0.0
 11
5.7117526226
 21
5.0196610431
 31
0.0
 11
5.6925570479
 21
5.0171729566
 31
0.0
 11
5.6695935682
 21
5.0149335785
 31
0.0
 11
5.6440418853
 21
5.0133950578
 31
0.0
 11
5.6179641994
 21
5.0128672724
 31
0.0
  0
SPLINE
  5
57A
100
AcDbEntity
  8
128-600_FEATURES
100
AcDbSpline
 62
7
  6
CONTINUOUS
 70
0
 71
3
 72
14
 73
10
 74
8
 42
0.0000001
 43
0.0000001
 44
0.0000000001
 12
-0.173403927
 22
0.0
 32
0.0
 13
-0.0000226166
 23
0.1742701592
 33
0.0
 40
0.0
 40
0.0
 40
0.0
 40
0.0
 40
0.1727208904
 40
0.3460542192
 40
0.5104393361
 40
0.6635000475
 40
0.8088885094
 40
0.9415245694
 40
1.0
 40
1.0
 40
1.0
 40
1.0
 10
5.6179641994
 20
4.7358613769
 30
0.0
 10
5.6079807058
 20
4.7358613769
 30
0.0
 10
5.5879192411
 20
4.7378950175
 30
0.0
 10
5.5595900876
 20
4.7468452152
 30
0.0
 10
5.5347027993
 20
4.7608958597
 30
0.0
 10
5.514575562
 20
4.7788460536
 30
0.0
 10
5.5002220659
 20
4.7995487248
 30
0.0
 10
5.4938656796
 20
4.8182493639
 30
0.0
 10
5.4929705062
 20
4.829356123
 30
0.0
 10
5.4929700654
 20
4.8327529639
 30
0.0
 11
5.6179641994
 21
4.7358613769
 31
0.0
 11
5.5881678917
 21
4.7388963965
 31
0.0
 11
5.5595195808
 21
4.7479891565
 31
0.0
 11
5.5347433825
 21
4.7620844195
 31
0.0
 11
5.5150418685
 21
4.7798690325
 31
0.0
 11
5.5008927635
 21
4.8007351254
 31
0.0
 11
5.493772477
 21
4.8226048247
 31
0.0
 11
5.4929700654
 21
4.8327529639
 31
0.0
  0
SPLINE
  5
57B
100
AcDbEntity
  8
128-600_FEATURES
100
AcDbSpline
 62
7
  6
CONTINUOUS
 70
0
 71
3
 72
13
 73
9
 74
7
 42
0.0000001
 43
0.0000001
 44
0.0000000001
 12
-0.019232887
 22
-0.1648463207
 32
0.0
 13
-0.1659644944
 23
0.0
 33
0.0
 40
0.0
 40
0.0
 40
0.0
 40
0.0
 40
0.1394736611
 40
0.2933099515
 40
0.456310953
 40
0.6306799437
 40
0.8152068862
 40
1.0
 40
1.0
 40
1.0
 40
1.0
 10
5.7425274665
 20
4.8253078288
 30
0.0
 10
5.7416333061
 20
4.8176439222
 30
0.0
 10
5.7368762682
 20
4.8017964684
 30
0.0
 10
5.7228368431
 20
4.7804802692
 30
0.0
 10
5.702683743
 20
4.7618979128
 30
0.0
 10
5.6775060997
 20
4.7473163562
 30
0.0
 10
5.648682016
 20
4.7379888953
 30
0.0
 10
5.6281872313
 20
4.7358613769
 30
0.0
 10
5.6179641994
 20
4.7358613769
 30
0.0
 11
5.7425274665
 21
4.8253078288
 31
0.0
 11
5.7361443049
 21
4.8030576572
 31
0.0
 11
5.7223524228
 21
4.7815719772
 31
0.0
 11
5.7025819512
 21
4.7631068845
 31
0.0
 11
5.6775917752
 21
4.7485137226
 31
0.0
 11
5.6484677058
 21
4.7390440682
 31
0.0
 11
5.6179641994
 21
4.7358613769
 31
0.0
  0
SPLINE
  5
57C
100
AcDbEntity
  8
128-600_FEATURES
100
AcDbSpline
 62
7
  6
CONTINUOUS
 70
0
 71
3
 72
13
 73
9
 74
7
 42
0.0000001
 43
0.0000001
 44
0.0000000001
 12
0.1659642988
 22
0.0
 32
0.0
 13
0.0192328643
 23
-0.1648461265
 33
0.0
 40
0.0
 40
0.0
 40
0.0
 40
0.0
 40
0.184298793
 40
0.3689553603
 40
0.5436630192
 40
0.7062858078
 40
0.8601439367
 40
1.0
 40
1.0
 40
1.0
 40
1.0
 10
5.6179641994
 20
4.0019119883
 30
0.0
 10
5.6281598727
 20
4.0019119883
 30
0.0
 10
5.6486339465
 20
3.9997923476
 30
0.0
 10
5.67746157
 20
3.9904796606
 30
0.0
 10
5.7026481321
 20
3.9759013616
 30
0.0
 10
5.7228045797
 20
3.9573262272
 30
0.0
 10
5.7368591782
 20
3.9360190062
 30
0.0
 10
5.7416308556
 20
3.9201504465
 30
0.0
 10
5.7425274665
 20
3.9124655364
 30
0.0
 11
5.6179641994
 21
4.0019119883
 31
0.0
 11
5.6483869617
 21
3.9987463416
 31
0.0
 11
5.6775361801
 21
3.989284589
 31
0.0
 11
5.7025783834
 21
3.9746691296
 31
0.0
 11
5.7223087816
 21
3.9562531403
 31
0.0
 11
5.7361175247
 21
3.9347740199
 31
0.0
 11
5.7425274665
 21
3.9124655364
 31
0.0
  0
SPLINE
  5
57D
100
AcDbEntity
  8
128-600_FEATURES
100
AcDbSpline
 62
7
  6
CONTINUOUS
 70
0
 71
3
 72
14
 73
10
 74
8
 42
0.0000001
 43
0.0000001
 44
0.0000000001
 12
0.1253132565
 22
0.0
 32
0.0
 13
0.1231129046
 23
-0.0233800122
 33
0.0
 40
0.0
 40
0.0
 40
0.0
 40
0.0
 40
0.2075635887
 40
0.4118273096
 40
0.5962161839
 40
0.7507784365
 40
0.8746833683
 40
0.959754101
 40
1.0
 40
1.0
 40
1.0
 40
1.0
 10
5.6179641994
 20
3.7249060928
 30
0.0
 10
5.6266343558
 20
3.7249060928
 30
0.0
 10
5.643838847
 20
3.7245583094
 30
0.0
 10
5.6687045918
 20
3.7230615183
 30
0.0
 10
5.6912927285
 20
3.7208579333
 30
0.0
 10
5.71046877
 20
3.7183712123
 30
0.0
 10
5.7254747075
 20
3.7160353409
 30
0.0
 10
5.7357297302
 20
3.7142419761
 30
0.0
 10
5.74087587
 20
3.7132834113
 30
0.0
 10
5.7425274665
 20
3.7129697614
 30
0.0
 11
5.6179641994
 21
3.7249060928
 31
0.0
 11
5.6439693726
 21
3.7243812373
 31
0.0
 11
5.6695202221
 21
3.7228456441
 31
0.0
 11
5.692517691
 21
3.7206049359
 31
0.0
 11
5.7117258303
 21
3.7181161828
 31
0.0
 11
5.7270681882
 21
3.7157292128
 31
0.0
 11
5.7375693921
 21
3.7138932459
 31
0.0
 11
5.7425274665
 21
3.7129697614
 31
0.0
  0
SPLINE
  5
57E
100
AcDbEntity
  8
128-600_FEATURES
100
AcDbSpline
 62
7
  6
CONTINUOUS
 70
0
 71
3
 72
9
 73
5
 74
3
 42
0.0000001
 43
0.0000001
 44
0.0000000001
 12
-0.0004367147
 22
-0.0008395317
 32
0.0
 13
-0.000436751
 23
-0.0008395128
 33
0.0
 40
0.0
 40
0.0
 40
0.0
 40
0.0
 40
0.2431232169
 40
1.0
 40
1.0
 40
1.0
 40
1.0
 10
5.7429641994
 20
5.0256431261
 30
0.0
 10
5.7429288075
 20
5.0255750895
 30
0.0
 10
5.7427832345
 20
5.0252952464
 30
0.0
 10
5.7426376554
 20
5.0250154064
 30
0.0
 10
5.7425274665
 20
5.0248036038
 30
0.0
 11
5.7429641994
 21
5.0256431261
 31
0.0
 11
5.7428580228
 21
5.025439017
 31
0.0
 11
5.7425274665
 21
5.0248036038
 31
0.0
  0
SPLINE
  5
57F
100
AcDbEntity
  8
128-600_FEATURES
100
AcDbSpline
 62
7
  6
CONTINUOUS
 70
0
 71
3
 72
8
 73
4
 74
2
 42
0.0000001
 43
0.0000001
 44
0.0000000001
 12
0.0003309233
 22
-0.0006360933
 32
0.0
 13
0.0003309025
 23
-0.0006361041
 33
0.0
 40
0.0
 40
0.0
 40
0.0
 40
0.0
 40
1.0
 40
1.0
 40
1.0
 40
1.0
 10
5.7425274665
 20
3.7129697614
 30
0.0
 10
5.7426377743
 20
3.7127577303
 30
0.0
 10
5.7427480786
 20
3.7125456974
 30
0.0
 10
5.7428583794
 20
3.7123336627
 30
0.0
 11
5.7425274665
 21
3.7129697614
 31
0.0
 11
5.7428583794
 21
3.7123336627
 31
0.0
  0
SPLINE
  5
580
100
AcDbEntity
  8
128-600_FEATURES
100
AcDbSpline
 62
7
  6
CONTINUOUS
 70
0
 71
3
 72
8
 73
4
 74
2
 42
0.0000001
 43
0.0000001
 44
0.0000000001
 12
0.000105821
 22
-0.000203423
 32
0.0
 13
0.0001058189
 23
-0.0002034241
 33
0.0
 40
0.0
 40
0.0
 40
0.0
 40
0.0
 40
1.0
 40
1.0
 40
1.0
 40
1.0
 10
5.7428583794
 20
3.7123336627
 30
0.0
 10
5.7428936531
 20
3.712265855
 30
0.0
 10
5.7429289264
 20
3.7121980472
 30
0.0
 10
5.7429641994
 20
3.7121302391
 30
0.0
 11
5.7428583794
 21
3.7123336627
 31
0.0
 11
5.7429641994
 21
3.7121302391
 31
0.0
  0
SPLINE
  5
581
100
AcDbEntity
  8
128-600_FEATURES
100
AcDbSpline
 62
7
  6
CONTINUOUS
 70
0
 71
3
 72
11
 73
7
 74
5
 42
0.0000001
 43
0.0000001
 44
0.0000000001
 12
0.0326109924
 22
-0.0000143718
 32
0.0
 13
0.0325911457
 23
-0.0011383765
 33
0.0
 40
0.0
 40
0.0
 40
0.0
 40
0.0
 40
0.3588721367
 40
0.6669057095
 40
0.901537561
 40
1.0
 40
1.0
 40
1.0
 40
1.0
 10
4.6970293533
 20
3.6820858583
 30
0.0
 10
4.7009304121
 20
3.6820841391
 30
0.0
 10
4.7081799638
 20
3.6820346525
 30
0.0
 10
4.7179784831
 20
3.68185407
 30
0.0
 10
4.7249451613
 20
3.6816611779
 30
0.0
 10
4.728564012
 20
3.6815407243
 30
0.0
 10
4.7296336799
 20
3.6815033619
 30
0.0
 11
4.6970293533
 21
3.6820858583
 31
0.0
 11
4.7087322621
 21
3.682006528
 31
0.0
 11
4.7187758446
 21
3.6818217846
 31
0.0
 11
4.726424496
 21
3.681610168
 31
0.0
 11
4.7296336799
 21
3.6815033619
 31
0.0
  0
SPLINE
  5
582
100
AcDbEntity
  8
128-600_FEATURES
100
AcDbSpline
 62
7
  6
CONTINUOUS
 70
0
 71
3
 72
8
 73
4
 74
2
 42
0.0000001
 43
0.0000001
 44
0.0000000001
 12
0.0016015207
 22
-0.0000559395
 32
0.0
 13
0.0016014263
 23
-0.00005856
 33
0.0
 40
0.0
 40
0.0
 40
0.0
 40
0.0
 40
1.0
 40
1.0
 40
1.0
 40
1.0
 10
4.7296336799
 20
3.6815033619
 30
0.0
 10
4.7301675201
 20
3.6814847154
 30
0.0
 10
4.730701345
 20
3.6814656314
 30
0.0
 10
4.7312351537
 20
3.6814461114
 30
0.0
 11
4.7296336799
 21
3.6815033619
 31
0.0
 11
4.7312351537
 21
3.6814461114
 31
0.0
  0
SPLINE
  5
583
100
AcDbEntity
  8
128-600_FEATURES
100
AcDbSpline
 62
7
  6
CONTINUOUS
 70
0
 71
3
 72
8
 73
4
 74
2
 42
0.0000001
 43
0.0000001
 44
0.0000000001
 12
0.0015899644
 22
-0.0000581409
 32
0.0
 13
0.0015898675
 23
-0.0000607153
 33
0.0
 40
0.0
 40
0.0
 40
0.0
 40
0.0
 40
1.0
 40
1.0
 40
1.0
 40
1.0
 10
4.7312351537
 20
3.6814461114
 30
0.0
 10
4.7317651419
 20
3.6814267311
 30
0.0
 10
4.7322951142
 20
3.681406921
 30
0.0
 10
4.73282507
 20
3.6813866826
 30
0.0
 11
4.7312351537
 21
3.6814461114
 31
0.0
 11
4.73282507
 21
3.6813866826
 31
0.0
  0
SPLINE
  5
584
100
AcDbEntity
  8
128-600_FEATURES
100
AcDbSpline
 62
7
  6
CONTINUOUS
 70
0
 71
3
 72
8
 73
4
 74
2
 42
0.0000001
 43
0.0000001
 44
0.0000000001
 12
0.0007940729
 22
0.0014360241
 32
0.0
 13
0.0007951642
 23
0.0014354202
 33
0.0
 40
0.0
 40
0.0
 40
0.0
 40
0.0
 40
1.0
 40
1.0
 40
1.0
 40
1.0
 10
4.679131495
 20
3.6503866826
 30
0.0
 10
4.6793961859
 20
3.6508653573
 30
0.0
 10
4.6796610582
 20
3.6513439318
 30
0.0
 10
4.6799261129
 20
3.6518224052
 30
0.0
 11
4.679131495
 21
3.6503866826
 31
0.0
 11
4.6799261129
 21
3.6518224052
 31
0.0
  0
SPLINE
  5
585
100
AcDbEntity
  8
128-600_FEATURES
100
AcDbSpline
 62
7
  6
CONTINUOUS
 70
0
 71
3
 72
8
 73
4
 74
2
 42
0.0000001
 43
0.0000001
 44
0.0000000001
 12
0.001008761
 22
0.0018210023
 32
0.0
 13
0.0010105312
 23
0.0018200209
 33
0.0
 40
0.0
 40
0.0
 40
0.0
 40
0.0
 40
1.0
 40
1.0
 40
1.0
 40
1.0
 10
4.6799261129
 20
3.6518224052
 30
0.0
 10
4.6802623666
 20
3.652429406
 30
0.0
 10
4.680598914
 20
3.6530362441
 30
0.0
 10
4.6809357577
 20
3.6536429177
 30
0.0
 11
4.6799261129
 21
3.6518224052
 31
0.0
 11
4.6809357577
 21
3.6536429177
 31
0.0
  0
SPLINE
  5
586
100
AcDbEntity
  8
128-600_FEATURES
100
AcDbSpline
 62
7
  6
CONTINUOUS
 70
0
 71
3
 72
11
 73
7
 74
5
 42
0.0000001
 43
0.0000001
 44
0.0000000001
 12
0.0158640467
 22
0.0285719987
 32
0.0
 13
0.0163341042
 23
0.0283058953
 33
0.0
 40
0.0
 40
0.0
 40
0.0
 40
0.0
 40
0.0893710947
 40
0.330810364
 40
0.6423085132
 40
1.0
 40
1.0
 40
1.0
 40
1.0
 10
4.6809357577
 20
3.6536429177
 30
0.0
 10
4.6814083535
 20
3.654494088
 30
0.0
 10
4.6831598429
 20
3.6576435273
 30
0.0
 10
4.6865762791
 20
3.6637498009
 30
0.0
 10
4.6914583867
 20
3.67238531
 30
0.0
 10
4.69508183
 20
3.6787109324
 30
0.0
 10
4.6970293533
 20
3.6820858583
 30
0.0
 11
4.6809357577
 21
3.6536429177
 31
0.0
 11
4.6823553019
 21
3.6561954522
 31
0.0
 11
4.6862080907
 21
3.6630812647
 31
0.0
 11
4.6912184793
 21
3.6719428562
 31
0.0
 11
4.6970293533
 21
3.6820858583
 31
0.0
  0
SPLINE
  5
587
100
AcDbEntity
  8
128-600_FEATURES
100
AcDbSpline
 62
7
  6
CONTINUOUS
 70
0
 71
3
 72
12
 73
8
 74
6
 42
0.0000001
 43
0.0000001
 44
0.0000000001
 12
-0.1163268529
 22
0.0
 32
0.0
 13
-0.0801866157
 23
-0.0850529144
 33
0.0
 40
0.0
 40
0.0
 40
0.0
 40
0.0
 40
0.256319697
 40
0.5070313845
 40
0.7350903667
 40
0.9393159254
 40
1.0
 40
1.0
 40
1.0
 40
1.0
 10
5.6179641994
 20
4.8225607061
 30
0.0
 10
5.6080252448
 20
4.8225607061
 30
0.0
 10
5.5883398846
 20
4.8213190941
 30
0.0
 10
5.5602996551
 20
4.8156626337
 30
0.0
 10
5.535409309
 20
4.8061795423
 30
0.0
 10
5.5192244182
 20
4.7956680248
 30
0.0
 10
5.5117819425
 20
4.7884963581
 30
0.0
 10
5.5101599256
 20
4.7867759057
 30
0.0
 11
5.6179641994
 21
4.8225607061
 31
0.0
 11
5.5882101971
 21
4.8206255815
 31
0.0
 11
5.5596590652
 21
4.8146757058
 31
0.0
 11
5.53497526
 21
4.804953671
 31
0.0
 11
5.5152575583
 21
4.7917021307
 31
0.0
 11
5.5101599256
 21
4.7867759057
 31
0.0
  0
SPLINE
  5
588
100
AcDbEntity
  8
128-600_FEATURES
100
AcDbSpline
 62
7
  6
CONTINUOUS
 70
0
 71
3
 72
12
 73
8
 74
6
 42
0.0000001
 43
0.0000001
 44
0.0000000001
 12
0.1164468839
 22
0.0
 32
0.0
 13
0.0801296668
 23
0.0852718076
 33
0.0
 40
0.0
 40
0.0
 40
0.0
 40
0.0
 40
0.256095999
 40
0.5065811027
 40
0.734426058
 40
0.9384600175
 40
1.0
 40
1.0
 40
1.0
 40
1.0
 10
5.6179641994
 20
3.9152126591
 30
0.0
 10
5.6279047264
 20
3.9152126591
 30
0.0
 10
5.6475929073
 20
3.9164546399
 30
0.0
 10
5.675636558
 20
3.9221127299
 30
0.0
 10
5.7005289638
 20
3.9315984667
 30
0.0
 10
5.7167441938
 20
3.9421324246
 30
0.0
 10
5.7242074373
 20
3.9493361142
 30
0.0
 10
5.7258511634
 20
3.9510853227
 30
0.0
 11
5.6179641994
 21
3.9152126591
 31
0.0
 11
5.6477228886
 21
3.9171484054
 31
0.0
 11
5.6762774418
 21
3.9231000399
 31
0.0
 11
5.7009628473
 21
3.9328247007
 31
0.0
 11
5.720680716
 21
3.9460799404
 31
0.0
 11
5.7258511634
 21
3.9510853227
 31
0.0
  0
SPLINE
  5
589
100
AcDbEntity
  8
128-600_FEATURES
100
AcDbSpline
 62
7
  6
CONTINUOUS
 70
0
 71
3
 72
14
 73
10
 74
8
 42
0.0000001
 43
0.0000001
 44
0.0000000001
 12
0.1235343209
 22
0.0235393426
 32
0.0
 13
0.1257571438
 23
0.0
 33
0.0
 40
0.0
 40
0.0
 40
0.0
 40
0.0
 40
0.0243434134
 40
0.099199137
 40
0.2204072508
 40
0.3768556776
 40
0.5667836799
 40
0.7805392937
 40
1.0
 40
1.0
 40
1.0
 40
1.0
 10
5.4929641994
 20
3.7128866826
 30
0.0
 10
5.493966615
 20
3.7130776919
 30
0.0
 10
5.4980531143
 20
3.7138473459
 30
0.0
 10
5.5071475885
 20
3.7154781326
 30
0.0
 10
5.5217371942
 20
3.7178313726
 30
0.0
 10
5.5411633611
 20
3.7204614422
 30
0.0
 10
5.564526238
 20
3.7228568768
 30
0.0
 10
5.5906021925
 20
3.7245164762
 30
0.0
 10
5.6087646155
 20
3.7249060928
 30
0.0
 10
5.6179641994
 20
3.7249060928
 30
0.0
 11
5.4929641994
 21
3.7128866826
 31
0.0
 11
5.495972666
 21
3.7134532884
 31
0.0
 11
5.505238573
 21
3.7151144999
 31
0.0
 11
5.5202870599
 21
3.71754052
 31
0.0
 11
5.5397840007
 21
3.7201778546
 31
0.0
 11
5.5635445672
 21
3.7226108155
 31
0.0
 11
5.5903717731
 21
3.724315242
 31
0.0
 11
5.6179641994
 21
3.7249060928
 31
0.0
  0
SPLINE
  5
58A
100
AcDbEntity
  8
0
100
AcDbSpline
 62
7
  6
CONTINUOUS
 70
0
 71
3
 72
14
 73
10
 74
8
 42
0.0000001
 43
0.0000001
 44
0.0000000001
 12
-0.1684527097
 22
0.3090030944
 32
0.0
 13
0.1684527097
 23
0.3090030944
 33
0.0
 40
0.0
 40
0.0
 40
0.0
 40
0.0
 40
0.1546757524
 40
0.2971498922
 40
0.4331013552
 40
0.5670155335
 40
0.7029600408
 40
0.8453689352
 40
1.0
 40
1.0
 40
1.0
 40
1.0
 10
3.4813483733
 20
3.6602476837
 30
0.0
 10
3.4726631901
 20
3.6761794457
 30
0.0
 10
3.4573717065
 20
3.7075961809
 30
0.0
 10
3.4409498591
 20
3.7558447052
 30
0.0
 10
3.4325206298
 20
3.8037036135
 30
0.0
 10
3.4325243554
 20
3.8515602336
 30
0.0
 10
3.4409587171
 20
3.8994095154
 30
0.0
 10
3.4573794863
 20
3.9476436446
 30
0.0
 10
3.4726656994
 20
3.9790485223
 30
0.0
 10
3.4813483733
 20
3.9949756815
 30
0.0
 11
3.4813483733
 21
3.6602476837
 31
0.0
 11
3.4578342514
 21
3.7093431734
 31
0.0
 11
3.4419765296
 21
3.7569114015
 31
0.0
 11
3.4338796914
 21
3.8040675949
 31
0.0
 11
3.4338832597
 21
3.8511968683
 31
0.0
 11
3.4419861078
 21
3.8983495456
 31
0.0
 11
3.457840212
 21
3.945894775
 31
0.0
 11
3.4813483733
 21
3.9949756815
 31
0.0
  0
SPLINE
  5
58B
100
AcDbEntity
  8
0
100
AcDbSpline
 62
7
  6
CONTINUOUS
 70
0
 71
3
 72
14
 73
10
 74
8
 42
0.0000001
 43
0.0000001
 44
0.0000000001
 12
-0.1783866806
 22
0.6544511679
 32
0.0
 13
0.1783866806
 23
0.6544511679
 33
0.0
 40
0.0
 40
0.0
 40
0.0
 40
0.0
 40
0.1488473348
 40
0.2910338478
 40
0.4305819521
 40
0.5695392444
 40
0.7090777779
 40
0.8511965268
 40
1.0
 40
1.0
 40
1.0
 40
1.0
 10
3.4813483733
 20
4.0341586848
 30
0.0
 10
3.4724975793
 20
4.0666297888
 30
0.0
 10
3.4570042125
 20
4.1306396897
 30
0.0
 10
3.4407823141
 20
4.2267274786
 30
0.0
 10
3.4325169219
 20
4.3216040405
 30
0.0
 10
3.4325205608
 20
4.4162494569
 30
0.0
 10
3.4407911056
 20
4.5111079661
 30
0.0
 10
3.4570122345
 20
4.6071679523
 30
0.0
 10
3.4725001874
 20
4.6711531448
 30
0.0
 10
3.4813483733
 20
4.7036146804
 30
0.0
 11
3.4813483733
 21
4.0341586848
 31
0.0
 11
3.4578342514
 21
4.1323496642
 31
0.0
 11
3.4419765296
 21
4.2274861204
 31
0.0
 11
3.4338796914
 21
4.3217985073
 31
0.0
 11
3.4338832597
 21
4.416057054
 31
0.0
 11
3.4419861078
 21
4.5103624086
 31
0.0
 11
3.457840212
 21
4.6054528673
 31
0.0
 11
3.4813483733
 21
4.7036146804
 31
0.0
  0
SPLINE
  5
58C
100
AcDbEntity
  8
0
100
AcDbSpline
 62
7
  6
CONTINUOUS
 70
0
 71
3
 72
14
 73
10
 74
8
 42
0.0000001
 43
0.0000001
 44
0.0000000001
 12
-0.1684527097
 22
0.3090030944
 32
0.0
 13
0.1684527097
 23
0.3090030944
 33
0.0
 40
0.0
 40
0.0
 40
0.0
 40
0.0
 40
0.1546757524
 40
0.2971498922
 40
0.4331013552
 40
0.5670155335
 40
0.7029600408
 40
0.8453689352
 40
1.0
 40
1.0
 40
1.0
 40
1.0
 10
3.4813483733
 20
4.7427976837
 30
0.0
 10
3.4726631901
 20
4.7587294457
 30
0.0
 10
3.4573717065
 20
4.7901461809
 30
0.0
 10
3.4409498591
 20
4.8383947052
 30
0.0
 10
3.4325206298
 20
4.8862536135
 30
0.0
 10
3.4325243554
 20
4.9341102336
 30
0.0
 10
3.4409587171
 20
4.9819595154
 30
0.0
 10
3.4573794863
 20
5.0301936446
 30
0.0
 10
3.4726656994
 20
5.0615985223
 30
0.0
 10
3.4813483733
 20
5.0775256815
 30
0.0
 11
3.4813483733
 21
4.7427976837
 31
0.0
 11
3.4578342514
 21
4.7918931734
 31
0.0
 11
3.4419765296
 21
4.8394614015
 31
0.0
 11
3.4338796914
 21
4.8866175949
 31
0.0
 11
3.4338832597
 21
4.9337468683
 31
0.0
 11
3.4419861078
 21
4.9808995456
 31
0.0
 11
3.457840212
 21
5.028444775
 31
0.0
 11
3.4813483733
 21
5.0775256815
 31
0.0
  0
SPLINE
  5
58D
100
AcDbEntity
  8
128-600_FEATURES
100
AcDbSpline
 62
7
  6
CONTINUOUS
 70
0
 71
3
 72
13
 73
9
 74
7
 42
0.0000001
 43
0.0000001
 44
0.0000000001
 12
0.1564221992
 22
0.0
 32
0.0
 13
0.018705192
 23
-0.1552997752
 33
0.0
 40
0.0
 40
0.0
 40
0.0
 40
0.0
 40
0.1933331829
 40
0.3826995109
 40
0.555919438
 40
0.7140348422
 40
0.86100836
 40
1.0
 40
1.0
 40
1.0
 40
1.0
 10
5.6179641994
 20
4.9126380722
 30
0.0
 10
5.6280447332
 20
4.9126380722
 30
0.0
 10
5.6480280739
 20
4.9112769565
 30
0.0
 10
5.6764681855
 20
4.9050983834
 30
0.0
 10
5.701758453
 20
4.8947712881
 30
0.0
 10
5.7224375195
 20
4.8803570826
 30
0.0
 10
5.7370623737
 20
4.8618731563
 30
0.0
 10
5.7416608448
 20
4.8472672656
 30
0.0
 10
5.7425274665
 20
4.8400721422
 30
0.0
 11
5.6179641994
 21
4.9126380722
 31
0.0
 11
5.6481318673
 21
4.9105247142
 31
0.0
 11
5.6770381535
 21
4.9040566363
 31
0.0
 11
5.7020088655
 21
4.8935387222
 31
0.0
 11
5.7220751245
 21
4.8790800006
 31
0.0
 11
5.7360522479
 21
4.860826878
 31
0.0
 11
5.7425274665
 21
4.8400721422
 31
0.0
  0
SPLINE
  5
58E
100
AcDbEntity
  8
128-600_FEATURES
100
AcDbSpline
 62
7
  6
CONTINUOUS
 70
0
 71
3
 72
14
 73
10
 74
8
 42
0.0000001
 43
0.0000001
 44
0.0000000001
 12
-0.0000213575
 22
0.1645681381
 32
0.0
 13
0.163750131
 23
0.0
 33
0.0
 40
0.0
 40
0.0
 40
0.0
 40
0.0
 40
0.0663112528
 40
0.1957909551
 40
0.3335287652
 40
0.4816812651
 40
0.6435687972
 40
0.8200422435
 40
1.0
 40
1.0
 40
1.0
 40
1.0
 10
5.4929700654
 20
4.8327529639
 30
0.0
 10
5.4929695933
 20
4.836390537
 30
0.0
 10
5.4938941177
 20
4.8471255891
 30
0.0
 10
5.5004780028
 20
4.8645281607
 30
0.0
 10
5.5154698756
 20
4.8820392238
 30
0.0
 10
5.5360267927
 20
4.895682004
 30
0.0
 10
5.5608733719
 20
4.9054769543
 30
0.0
 10
5.588659353
 20
4.9113441311
 30
0.0
 10
5.6081414973
 20
4.9126380722
 30
0.0
 10
5.6179641994
 20
4.9126380722
 30
0.0
 11
5.4929700654
 21
4.8327529639
 31
0.0
 11
5.493933121
 21
4.8436025559
 31
0.0
 11
5.5013409433
 21
4.8634686694
 31
0.0
 11
5.5157453659
 21
4.8808244145
 31
0.0
 11
5.5357616729
 21
4.8945318808
 31
0.0
 11
5.5603249778
 21
4.904500666
 31
0.0
 11
5.588564398
 21
4.9106328384
 31
0.0
 11
5.6179641994
 21
4.9126380722
 31
0.0
  0
SPLINE
  5
58F
100
AcDbEntity
  8
128-600_FEATURES
100
AcDbSpline
 62
7
  6
CONTINUOUS
 70
0
 71
3
 72
14
 73
10
 74
8
 42
0.0000001
 43
0.0000001
 44
0.0000000001
 12
-0.1637552062
 22
0.0
 32
0.0
 13
0.0000341175
 23
0.1645755913
 33
0.0
 40
0.0
 40
0.0
 40
0.0
 40
0.0
 40
0.1794402716
 40
0.3556665541
 40
0.5175107408
 40
0.6655475458
 40
0.8034230349
 40
0.9332781149
 40
1.0
 40
1.0
 40
1.0
 40
1.0
 10
5.6179641994
 20
3.825135293
 30
0.0
 10
5.6081694398
 20
3.825135293
 30
0.0
 10
5.5887286677
 20
3.8264229101
 30
0.0
 10
5.5609824921
 20
3.8322661489
 30
0.0
 10
5.5361477223
 20
3.8420313699
 30
0.0
 10
5.5155741165
 20
3.8556454878
 30
0.0
 10
5.5005340095
 20
3.8731442174
 30
0.0
 10
5.4939024741
 20
3.8905868678
 30
0.0
 10
5.4929693203
 20
3.9013656439
 30
0.0
 10
5.4929700791
 20
3.9050259085
 30
0.0
 11
5.6179641994
 21
3.825135293
 31
0.0
 11
5.5886476337
 21
3.827128986
 31
0.0
 11
5.5604434075
 21
3.8332366964
 31
0.0
 11
5.5358768621
 21
3.8431807774
 31
0.0
 11
5.5158563799
 21
3.8568499047
 31
0.0
 11
5.5014045112
 21
3.8741964277
 31
0.0
 11
5.4939443145
 21
3.8941092905
 31
0.0
 11
5.4929700791
 21
3.9050259085
 31
0.0
  0
SPLINE
  5
590
100
AcDbEntity
  8
128-600_FEATURES
100
AcDbSpline
 62
7
  6
CONTINUOUS
 70
0
 71
3
 72
13
 73
9
 74
7
 42
0.0000001
 43
0.0000001
 44
0.0000000001
 12
-0.0187052617
 22
-0.1553003538
 32
0.0
 13
-0.1564227819
 23
0.0
 33
0.0
 40
0.0
 40
0.0
 40
0.0
 40
0.0
 40
0.1385252662
 40
0.2853707331
 40
0.4437368411
 40
0.6169040248
 40
0.8061800937
 40
1.0
 40
1.0
 40
1.0
 40
1.0
 10
5.7425274665
 20
3.897701223
 30
0.0
 10
5.7416637494
 20
3.8905302154
 30
0.0
 10
5.7370853042
 20
3.8759541976
 30
0.0
 10
5.7224945342
 20
3.8574660364
 30
0.0
 10
5.7018211955
 20
3.8430339818
 30
0.0
 10
5.676529996
 20
3.8326942116
 30
0.0
 10
5.6480744967
 20
3.8265011568
 30
0.0
 10
5.628070149
 20
3.825135293
 30
0.0
 10
5.6179641994
 20
3.825135293
 30
0.0
 11
5.7425274665
 21
3.897701223
 31
0.0
 11
5.7360865687
 21
3.8770121183
 31
0.0
 11
5.7221432523
 21
3.858758249
 31
0.0
 11
5.7020564223
 21
3.8442608502
 31
0.0
 11
5.6770976987
 21
3.8337354743
 31
0.0
 11
5.6482075431
 21
3.8272594693
 31
0.0
 11
5.6179641994
 21
3.825135293
 31
0.0
  0
ENDSEC
  0
SECTION
  2
OBJECTS
  0
DICTIONARY
  5
C
100
AcDbDictionary
280
0
281
1
  3
ACAD_GROUP
350
D
  3
ACAD_MLINESTYLE
350
17
  3
ACAD_LAYOUT
350
1A
  3
ACAD_PLOTSETTINGS
350
19
  3
ACAD_PLOTSTYLENAME
350
E
  0
DICTIONARY
  5
D
102
{ACAD_REACTORS
330
C
102
}
100
AcDbDictionary
280
0
281
1
  0
ACDBDICTIONARYWDFLT
  5
E
102
{ACAD_REACTORS
330
C
102
}
100
AcDbDictionary
281
1
  3
Normal
350
F
100
AcDbDictionaryWithDefault
340
F
  0
DICTIONARY
  5
17
102
{ACAD_REACTORS
330
C
102
}
100
AcDbDictionary
280
0
281
1
  3
Standard
350
18
  0
DICTIONARY
  5
19
102
{ACAD_REACTORS
330
C
102
}
100
AcDbDictionary
281
1
  0
DICTIONARY
  5
1A
102
{ACAD_REACTORS
330
C
102
}
100
AcDbDictionary
281
1
  3
Layout1
350
1E
  3
Model
350
22
  0
ACDBPLACEHOLDER
  5
F
102
{ACAD_REACTORS
330
E
102
}
  0
MLINESTYLE
  5
18
102
{ACAD_REACTORS
330
17
102
}
100
AcDbMlineStyle
  2
STANDARD
 70
0
  3

 62
256
 51
90.0
 52
90.0
 71
2
 49
0.5
 62
256
  6
BYLAYER
 49
-0.5
 62
256
  6
BYLAYER
  0
LAYOUT
  5
1E
102
{ACAD_REACTORS
330
1A
102
}
100
AcDbPlotSettings
  1

  2

  4

  6

 40
0.0
 41
0.0
 42
0.0
 43
0.0
 44
0.0
 45
0.0
 46
0.0
 47
0.0
 48
0.0
 49
0.0
140
0.0
141
0.0
142
1.0
143
1.0
 70
0
 72
0
 73
0
 74
0
  7

 75
0
147
1.0
148
0.0
149
0.0
100
AcDbLayout
  1
Layout1
 70
0
 71
0
 10
0.0
 20
0.0
 11
0.0
 21
0.0
 12
0.0
 22
0.0
 32
0.0
 14
0.0
 24
0.0
 34
0.0
 15
0.0
 25
0.0
 35
0.0
146
0.0
 13
0.0
 23
0.0
 33
0.0
 16
0.0
 26
0.0
 36
0.0
 17
0.0
 27
0.0
 37
0.0
 76
0
330
1B
331
0
345
0
346
0
  0
LAYOUT
  5
22
102
{ACAD_REACTORS
330
1A
102
}
100
AcDbPlotSettings
  1

  2

  4

  6

 40
0.0
 41
0.0
 42
0.0
 43
0.0
 44
0.0
 45
0.0
 46
0.0
 47
0.0
 48
0.0
 49
0.0
140
0.0
141
0.0
142
1.0
143
1.0
 70
0
 72
0
 73
0
 74
0
  7

 75
0
147
1.0
148
0.0
149
0.0
100
AcDbLayout
  1
Model
 70
0
 71
0
 10
0.0
 20
0.0
 11
0.0
 21
0.0
 12
0.0
 22
0.0
 32
0.0
 14
0.0
 24
0.0
 34
0.0
 15
0.0
 25
0.0
 35
0.0
146
0.0
 13
0.0
 23
0.0
 33
0.0
 16
0.0
 26
0.0
 36
0.0
 17
0.0
 27
0.0
 37
0.0
 76
0
330
1F
331
0
345
0
346
0
  0
ENDSEC
  0
EOF
