999
DXF file: PVFA-LAN.dxf
999
Pro/ENGINEER 2006240 by Parametric Technology Corporation
  0
SECTION
  2
HEADER
  9
$ACADVER
  1
AC1015
  9
$DWGCODEPAGE
  3
ANSI_1252
  9
$EXTMAX
 10
11.6929133858
 20
8.2677165354
 30
0.0
  9
$EXTMIN
 10
0.0
 20
0.0
 30
0.0
  9
$LIMMIN
 10
0.0
 20
0.0
  9
$LIMMAX
 10
11.6929133858
 20
8.2677165354
  9
$VIEWCTR
 10
5.8464566929
 20
4.1338582677
  9
$VIEWSIZE
 40
8.2677165354
  9
$CLAYER
  8
0
  9
$LTSCALE
 40
0.6431102362
  9
$CELTYPE
  6
BYLAYER
  9
$DIMSCALE
 40
1.0
  9
$DIMASZ
 40
0.1875
  9
$DIMEXO
 40
0.0730807087
  9
$DIMDLI
 40
0.4443307087
  9
$DIMEXE
 40
0.2104724409
  9
$DIMCEN
 40
0.1052362205
  9
$DIMLFAC
 40
1.0
  9
$DIMBLK
  1
_CLOSED
  9
$DIMTXT
 40
0.15625
  9
$DIMTOL
 70
0
  9
$DIMLIM
 70
0
  9
$DIMTFAC
 40
1.0
  9
$PDMODE
 70
3
  9
$PDSIZE
 40
0.3125
  9
$HANDSEED
  5
5AC
  9
$MEASUREMENT
 70
0
  9
$INSUNITS
 70
1
  0
ENDSEC
  0
SECTION
  2
CLASSES
  0
CLASS
  1
ACDBDICTIONARYWDFLT
  2
AcDbDictionaryWithDefault
  3
AutoCAD 2000
 90
0
280
0
281
0
  0
CLASS
  1
ACDBPLACEHOLDER
  2
AcDbPlaceHolder
  3
AutoCAD 2000
 90
0
280
0
281
0
  0
CLASS
  1
LAYOUT
  2
AcDbLayout
  3
AutoCAD 2000
 90
0
280
0
281
0
  0
ENDSEC
  0
SECTION
  2
TABLES
  0
TABLE
  2
VPORT
  5
8
100
AcDbSymbolTable
 70
2
  0
VPORT
  5
1F4
100
AcDbSymbolTableRecord
100
AcDbViewportTableRecord
  2
*ACTIVE
 70
0
 10
0.0
 20
0.0
 11
1.0
 21
1.0
 12
5.8464566929
 22
4.1338582677
 13
0.0
 23
0.0
 14
1.0
 24
1.0
 15
0.0
 25
0.0
 16
0.0
 26
0.0
 36
1.0
 17
0.0
 27
0.0
 37
0.0
 40
8.2677165354
 41
1.4142857143
 42
50.0
 43
0.0
 44
0.0
 50
0.0
 51
0.0
 71
0
 72
100
 73
1
 74
1
 75
0
 76
0
 77
0
 78
0
  0
ENDTAB
  0
TABLE
  2
LTYPE
  5
5
100
AcDbSymbolTable
 70
6
  0
LTYPE
  5
14
100
AcDbSymbolTableRecord
100
AcDbLinetypeTableRecord
  2
BYBLOCK
 70
0
  3

 72
65
 73
0
 40
0.0
  0
LTYPE
  5
15
100
AcDbSymbolTableRecord
100
AcDbLinetypeTableRecord
  2
BYLAYER
 70
0
  3

 72
65
 73
0
 40
0.0
  0
LTYPE
  5
16
100
AcDbSymbolTableRecord
100
AcDbLinetypeTableRecord
  2
CONTINUOUS
 70
64
  3
Solid line
 72
65
 73
0
 40
0.0
  0
LTYPE
  5
1F5
100
AcDbSymbolTableRecord
100
AcDbLinetypeTableRecord
  2
CENTER
 70
64
  3
____ _ ____ _ ____ _ ____ _ ____ _ ____ _ ____
 72
65
 73
4
 40
0.6
 49
0.375
 74
0
 49
-0.075
 74
0
 49
0.075
 74
0
 49
-0.075
 74
0
  0
LTYPE
  5
1F6
100
AcDbSymbolTableRecord
100
AcDbLinetypeTableRecord
  2
HIDDEN
 70
64
  3
- - - - - - - - - - - - - - - - - - - -
 72
65
 73
2
 40
0.2
 49
0.1
 74
0
 49
-0.1
 74
0
  0
LTYPE
  5
1F7
100
AcDbSymbolTableRecord
100
AcDbLinetypeTableRecord
  2
PHANTOM
 70
64
  3
_____ _ _ _____ _ _ _____ _ _ _____
 72
65
 73
6
 40
0.8
 49
0.45
 74
0
 49
-0.05
 74
0
 49
0.1
 74
0
 49
-0.05
 74
0
 49
0.1
 74
0
 49
-0.05
 74
0
  0
LTYPE
  5
1F8
100
AcDbSymbolTableRecord
100
AcDbLinetypeTableRecord
  2
DOT
 70
64
  3
. . . . . . . . . . . . . . . . . . . .
 72
65
 73
2
 40
0.2
 49
0.1
 74
0
 49
-0.1
 74
0
  0
LTYPE
  5
1F9
100
AcDbSymbolTableRecord
100
AcDbLinetypeTableRecord
  2
DASHED
 70
64
  3
- - - - - - - - - - - - - - - - - - - -
 72
65
 73
2
 40
0.2
 49
0.1
 74
0
 49
-0.1
 74
0
  0
ENDTAB
  0
TABLE
  2
LAYER
  5
2
100
AcDbSymbolTable
 70
36
  0
LAYER
  5
10
100
AcDbSymbolTableRecord
100
AcDbLayerTableRecord
  2
0
 70
0
 62
7
  6
CONTINUOUS
370
-3
390
F
  0
LAYER
  5
1FA
100
AcDbSymbolTableRecord
100
AcDbLayerTableRecord
  2
DEFAULT_1
 70
0
 62
7
  6
CENTER
370
-3
390
F
  0
LAYER
  5
1FB
100
AcDbSymbolTableRecord
100
AcDbLayerTableRecord
  2
DEFAULT_2
 70
0
 62
8
  6
HIDDEN
370
-3
390
F
  0
LAYER
  5
1FC
100
AcDbSymbolTableRecord
100
AcDbLayerTableRecord
  2
DEFAULT_3
 70
0
 62
7
  6
PHANTOM
370
-3
390
F
  0
LAYER
  5
1FD
100
AcDbSymbolTableRecord
100
AcDbLayerTableRecord
  2
_BLACK_HOLE
 70
0
 62
7
  6
CONTINUOUS
370
-3
390
F
  0
LAYER
  5
1FE
100
AcDbSymbolTableRecord
100
AcDbLayerTableRecord
  2
01_ALL_DTM_PLN
 70
0
 62
7
  6
CONTINUOUS
370
-3
390
F
  0
LAYER
  5
1FF
100
AcDbSymbolTableRecord
100
AcDbLayerTableRecord
  2
01__ASM_ALL_DTM_PLN
 70
0
 62
7
  6
CONTINUOUS
370
-3
390
F
  0
LAYER
  5
200
100
AcDbSymbolTableRecord
100
AcDbLayerTableRecord
  2
01__ASM_DEF_DTM_PLN
 70
0
 62
7
  6
CONTINUOUS
370
-3
390
F
  0
LAYER
  5
201
100
AcDbSymbolTableRecord
100
AcDbLayerTableRecord
  2
01___PRT_ALL_DTM_PLN
 70
0
 62
7
  6
CONTINUOUS
370
-3
390
F
  0
LAYER
  5
202
100
AcDbSymbolTableRecord
100
AcDbLayerTableRecord
  2
01___PRT_DEF_DTM_PLN
 70
0
 62
7
  6
CONTINUOUS
370
-3
390
F
  0
LAYER
  5
203
100
AcDbSymbolTableRecord
100
AcDbLayerTableRecord
  2
02_ALL_AXES
 70
0
 62
7
  6
CONTINUOUS
370
-3
390
F
  0
LAYER
  5
204
100
AcDbSymbolTableRecord
100
AcDbLayerTableRecord
  2
02__ASM_ALL_AXES
 70
0
 62
7
  6
CONTINUOUS
370
-3
390
F
  0
LAYER
  5
205
100
AcDbSymbolTableRecord
100
AcDbLayerTableRecord
  2
02___PRT_ALL_AXES
 70
0
 62
7
  6
CONTINUOUS
370
-3
390
F
  0
LAYER
  5
206
100
AcDbSymbolTableRecord
100
AcDbLayerTableRecord
  2
03_ALL_CURVES
 70
0
 62
7
  6
CONTINUOUS
370
-3
390
F
  0
LAYER
  5
207
100
AcDbSymbolTableRecord
100
AcDbLayerTableRecord
  2
03__ASM_ALL_CURVES
 70
0
 62
7
  6
CONTINUOUS
370
-3
390
F
  0
LAYER
  5
208
100
AcDbSymbolTableRecord
100
AcDbLayerTableRecord
  2
03___PRT_ALL_CURVES
 70
0
 62
7
  6
CONTINUOUS
370
-3
390
F
  0
LAYER
  5
209
100
AcDbSymbolTableRecord
100
AcDbLayerTableRecord
  2
04_ALL_DTM_PNT
 70
0
 62
7
  6
CONTINUOUS
370
-3
390
F
  0
LAYER
  5
20A
100
AcDbSymbolTableRecord
100
AcDbLayerTableRecord
  2
04__ASM_ALL_DTM_PNT
 70
0
 62
7
  6
CONTINUOUS
370
-3
390
F
  0
LAYER
  5
20B
100
AcDbSymbolTableRecord
100
AcDbLayerTableRecord
  2
04___PRT_ALL_DTM_PNT
 70
0
 62
7
  6
CONTINUOUS
370
-3
390
F
  0
LAYER
  5
20C
100
AcDbSymbolTableRecord
100
AcDbLayerTableRecord
  2
05_ALL_DTM_CSYS
 70
0
 62
7
  6
CONTINUOUS
370
-3
390
F
  0
LAYER
  5
20D
100
AcDbSymbolTableRecord
100
AcDbLayerTableRecord
  2
05__ASM_ALL_DTM_CSYS
 70
0
 62
7
  6
CONTINUOUS
370
-3
390
F
  0
LAYER
  5
20E
100
AcDbSymbolTableRecord
100
AcDbLayerTableRecord
  2
05__ASM_DEF_DTM_CSYS
 70
0
 62
7
  6
CONTINUOUS
370
-3
390
F
  0
LAYER
  5
20F
100
AcDbSymbolTableRecord
100
AcDbLayerTableRecord
  2
05___PRT_ALL_DTM_CSYS
 70
0
 62
7
  6
CONTINUOUS
370
-3
390
F
  0
LAYER
  5
210
100
AcDbSymbolTableRecord
100
AcDbLayerTableRecord
  2
05___PRT_DEF_DTM_CSYS
 70
0
 62
7
  6
CONTINUOUS
370
-3
390
F
  0
LAYER
  5
211
100
AcDbSymbolTableRecord
100
AcDbLayerTableRecord
  2
06_ALL_SURFS
 70
0
 62
7
  6
CONTINUOUS
370
-3
390
F
  0
LAYER
  5
212
100
AcDbSymbolTableRecord
100
AcDbLayerTableRecord
  2
06__ASM_ALL_SURFS
 70
0
 62
7
  6
CONTINUOUS
370
-3
390
F
  0
LAYER
  5
213
100
AcDbSymbolTableRecord
100
AcDbLayerTableRecord
  2
06___PRT_ALL_SURFS
 70
0
 62
7
  6
CONTINUOUS
370
-3
390
F
  0
LAYER
  5
214
100
AcDbSymbolTableRecord
100
AcDbLayerTableRecord
  2
07__ASM_ALL_SKELETONS
 70
0
 62
7
  6
CONTINUOUS
370
-3
390
F
  0
LAYER
  5
215
100
AcDbSymbolTableRecord
100
AcDbLayerTableRecord
  2
127-010_FEATURES
 70
0
 62
7
  6
CONTINUOUS
370
-3
390
F
  0
LAYER
  5
216
100
AcDbSymbolTableRecord
100
AcDbLayerTableRecord
  2
127-010_REF_GEOMETRY
 70
0
 62
7
  6
CONTINUOUS
370
-3
390
F
  0
LAYER
  5
217
100
AcDbSymbolTableRecord
100
AcDbLayerTableRecord
  2
127-610_FEATURES
 70
0
 62
7
  6
CONTINUOUS
370
-3
390
F
  0
LAYER
  5
218
100
AcDbSymbolTableRecord
100
AcDbLayerTableRecord
  2
127-610_REF_GEOMETRY
 70
0
 62
7
  6
CONTINUOUS
370
-3
390
F
  0
LAYER
  5
219
100
AcDbSymbolTableRecord
100
AcDbLayerTableRecord
  2
127-611_FEATURES
 70
0
 62
7
  6
CONTINUOUS
370
-3
390
F
  0
LAYER
  5
21A
100
AcDbSymbolTableRecord
100
AcDbLayerTableRecord
  2
127-611_REF_GEOMETRY
 70
0
 62
7
  6
CONTINUOUS
370
-3
390
F
  0
LAYER
  5
21B
100
AcDbSymbolTableRecord
100
AcDbLayerTableRecord
  2
127-612_FEATURES
 70
0
 62
7
  6
CONTINUOUS
370
-3
390
F
  0
LAYER
  5
21C
100
AcDbSymbolTableRecord
100
AcDbLayerTableRecord
  2
127-612_REF_GEOMETRY
 70
0
 62
7
  6
CONTINUOUS
370
-3
390
F
  0
LAYER
  5
21D
100
AcDbSymbolTableRecord
100
AcDbLayerTableRecord
  2
127-613_FEATURES
 70
0
 62
7
  6
CONTINUOUS
370
-3
390
F
  0
LAYER
  5
21E
100
AcDbSymbolTableRecord
100
AcDbLayerTableRecord
  2
127-613_REF_GEOMETRY
 70
0
 62
7
  6
CONTINUOUS
370
-3
390
F
  0
LAYER
  5
21F
100
AcDbSymbolTableRecord
100
AcDbLayerTableRecord
  2
127-615_FEATURES
 70
0
 62
7
  6
CONTINUOUS
370
-3
390
F
  0
LAYER
  5
220
100
AcDbSymbolTableRecord
100
AcDbLayerTableRecord
  2
127-615_REF_GEOMETRY
 70
0
 62
7
  6
CONTINUOUS
370
-3
390
F
  0
LAYER
  5
221
100
AcDbSymbolTableRecord
100
AcDbLayerTableRecord
  2
COPY_GEO_FET
 70
0
 62
7
  6
CONTINUOUS
370
-3
390
F
  0
LAYER
  5
222
100
AcDbSymbolTableRecord
100
AcDbLayerTableRecord
  2
COSMETIC
 70
0
 62
7
  6
CONTINUOUS
370
-3
390
F
  0
LAYER
  5
223
100
AcDbSymbolTableRecord
100
AcDbLayerTableRecord
  2
COSM_REF
 70
0
 62
7
  6
CONTINUOUS
370
-3
390
F
  0
LAYER
  5
224
100
AcDbSymbolTableRecord
100
AcDbLayerTableRecord
  2
CURVES
 70
0
 62
7
  6
CONTINUOUS
370
-3
390
F
  0
LAYER
  5
225
100
AcDbSymbolTableRecord
100
AcDbLayerTableRecord
  2
CUT_REF_SURF
 70
0
 62
7
  6
CONTINUOUS
370
-3
390
F
  0
LAYER
  5
226
100
AcDbSymbolTableRecord
100
AcDbLayerTableRecord
  2
DATUM
 70
0
 62
7
  6
CONTINUOUS
370
-3
390
F
  0
LAYER
  5
227
100
AcDbSymbolTableRecord
100
AcDbLayerTableRecord
  2
DATUMCURVES
 70
0
 62
7
  6
CONTINUOUS
370
-3
390
F
  0
LAYER
  5
228
100
AcDbSymbolTableRecord
100
AcDbLayerTableRecord
  2
DATUM_ADDED_280-022
 70
0
 62
7
  6
CONTINUOUS
370
-3
390
F
  0
LAYER
  5
229
100
AcDbSymbolTableRecord
100
AcDbLayerTableRecord
  2
DIM
 70
0
 62
7
  6
CONTINUOUS
370
-3
390
F
  0
LAYER
  5
22A
100
AcDbSymbolTableRecord
100
AcDbLayerTableRecord
  2
DIMENSIONS
 70
0
 62
7
  6
CONTINUOUS
370
-3
390
F
  0
LAYER
  5
22B
100
AcDbSymbolTableRecord
100
AcDbLayerTableRecord
  2
DRAWINGNOTES
 70
0
 62
7
  6
CONTINUOUS
370
-3
390
F
  0
LAYER
  5
22C
100
AcDbSymbolTableRecord
100
AcDbLayerTableRecord
  2
DTM
 70
0
 62
7
  6
CONTINUOUS
370
-3
390
F
  0
LAYER
  5
22D
100
AcDbSymbolTableRecord
100
AcDbLayerTableRecord
  2
DTM230
 70
0
 62
7
  6
CONTINUOUS
370
-3
390
F
  0
LAYER
  5
22E
100
AcDbSymbolTableRecord
100
AcDbLayerTableRecord
  2
DTM_280-022
 70
0
 62
7
  6
CONTINUOUS
370
-3
390
F
  0
LAYER
  5
22F
100
AcDbSymbolTableRecord
100
AcDbLayerTableRecord
  2
DTM_500001
 70
0
 62
7
  6
CONTINUOUS
370
-3
390
F
  0
LAYER
  5
230
100
AcDbSymbolTableRecord
100
AcDbLayerTableRecord
  2
DTM_500002
 70
0
 62
7
  6
CONTINUOUS
370
-3
390
F
  0
LAYER
  5
231
100
AcDbSymbolTableRecord
100
AcDbLayerTableRecord
  2
DTM_515002
 70
0
 62
7
  6
CONTINUOUS
370
-3
390
F
  0
LAYER
  5
232
100
AcDbSymbolTableRecord
100
AcDbLayerTableRecord
  2
DTM_530-102
 70
0
 62
7
  6
CONTINUOUS
370
-3
390
F
  0
LAYER
  5
233
100
AcDbSymbolTableRecord
100
AcDbLayerTableRecord
  2
DTM_700-003
 70
0
 62
7
  6
CONTINUOUS
370
-3
390
F
  0
LAYER
  5
234
100
AcDbSymbolTableRecord
100
AcDbLayerTableRecord
  2
DTM_800001
 70
0
 62
7
  6
CONTINUOUS
370
-3
390
F
  0
LAYER
  5
235
100
AcDbSymbolTableRecord
100
AcDbLayerTableRecord
  2
DTM_BALLHOLDER
 70
0
 62
7
  6
CONTINUOUS
370
-3
390
F
  0
LAYER
  5
236
100
AcDbSymbolTableRecord
100
AcDbLayerTableRecord
  2
DTM_ORIFICE_SEAT
 70
0
 62
7
  6
CONTINUOUS
370
-3
390
F
  0
LAYER
  5
237
100
AcDbSymbolTableRecord
100
AcDbLayerTableRecord
  2
DTM_SPRING_RH
 70
0
 62
7
  6
CONTINUOUS
370
-3
390
F
  0
LAYER
  5
238
100
AcDbSymbolTableRecord
100
AcDbLayerTableRecord
  2
DTM_SP_RH_CONSTR
 70
0
 62
7
  6
CONTINUOUS
370
-3
390
F
  0
LAYER
  5
239
100
AcDbSymbolTableRecord
100
AcDbLayerTableRecord
  2
FACE1
 70
0
 62
7
  6
CONTINUOUS
370
-3
390
F
  0
LAYER
  5
23A
100
AcDbSymbolTableRecord
100
AcDbLayerTableRecord
  2
FACE2
 70
0
 62
7
  6
CONTINUOUS
370
-3
390
F
  0
LAYER
  5
23B
100
AcDbSymbolTableRecord
100
AcDbLayerTableRecord
  2
FACE3
 70
0
 62
7
  6
CONTINUOUS
370
-3
390
F
  0
LAYER
  5
23C
100
AcDbSymbolTableRecord
100
AcDbLayerTableRecord
  2
FACE4
 70
0
 62
7
  6
CONTINUOUS
370
-3
390
F
  0
LAYER
  5
23D
100
AcDbSymbolTableRecord
100
AcDbLayerTableRecord
  2
GEOMETRICTOLERANCES
 70
0
 62
7
  6
CONTINUOUS
370
-3
390
F
  0
LAYER
  5
23E
100
AcDbSymbolTableRecord
100
AcDbLayerTableRecord
  2
HOLE_FEATURES
 70
0
 62
7
  6
CONTINUOUS
370
-3
390
F
  0
LAYER
  5
23F
100
AcDbSymbolTableRecord
100
AcDbLayerTableRecord
  2
LAY0001
 70
0
 62
7
  6
CONTINUOUS
370
-3
390
F
  0
LAYER
  5
240
100
AcDbSymbolTableRecord
100
AcDbLayerTableRecord
  2
PARAMETERDIMENSIONS
 70
0
 62
7
  6
CONTINUOUS
370
-3
390
F
  0
LAYER
  5
241
100
AcDbSymbolTableRecord
100
AcDbLayerTableRecord
  2
PART
 70
0
 62
7
  6
CONTINUOUS
370
-3
390
F
  0
LAYER
  5
242
100
AcDbSymbolTableRecord
100
AcDbLayerTableRecord
  2
PLANE
 70
0
 62
7
  6
CONTINUOUS
370
-3
390
F
  0
LAYER
  5
243
100
AcDbSymbolTableRecord
100
AcDbLayerTableRecord
  2
PROTRUSIONS
 70
0
 62
7
  6
CONTINUOUS
370
-3
390
F
  0
LAYER
  5
244
100
AcDbSymbolTableRecord
100
AcDbLayerTableRecord
  2
SURFACES
 70
0
 62
7
  6
CONTINUOUS
370
-3
390
F
  0
LAYER
  5
245
100
AcDbSymbolTableRecord
100
AcDbLayerTableRecord
  2
TEXT
 70
0
 62
7
  6
CONTINUOUS
370
-3
390
F
  0
LAYER
  5
246
100
AcDbSymbolTableRecord
100
AcDbLayerTableRecord
  2
THREAD
 70
0
 62
7
  6
CONTINUOUS
370
-3
390
F
  0
LAYER
  5
247
100
AcDbSymbolTableRecord
100
AcDbLayerTableRecord
  2
XSEC_DATUMS
 70
0
 62
7
  6
CONTINUOUS
370
-3
390
F
  0
ENDTAB
  0
TABLE
  2
STYLE
  5
3
100
AcDbSymbolTable
 70
1
  0
STYLE
  5
11
100
AcDbSymbolTableRecord
100
AcDbTextStyleTableRecord
  2
STANDARD
 70
0
 40
0.0
 41
0.8
 50
0.0
 71
0
 42
0.2
  3
txt
  4

  0
ENDTAB
  0
TABLE
  2
VIEW
  5
6
100
AcDbSymbolTable
 70
0
  0
ENDTAB
  0
TABLE
  2
UCS
  5
7
100
AcDbSymbolTable
 70
0
  0
ENDTAB
  0
TABLE
  2
APPID
  5
9
100
AcDbSymbolTable
 70
1
  0
APPID
  5
248
100
AcDbSymbolTableRecord
100
AcDbRegAppTableRecord
  2
ACAD
 70
0
  0
ENDTAB
  0
TABLE
  2
BLOCK_RECORD
  5
1
100
AcDbSymbolTable
 70
0
  0
BLOCK_RECORD
  5
1F
100
AcDbSymbolTableRecord
100
AcDbBlockTableRecord
  2
*MODEL_SPACE
  0
BLOCK_RECORD
  5
1B
100
AcDbSymbolTableRecord
100
AcDbBlockTableRecord
  2
*PAPER_SPACE
  0
ENDTAB
  0
TABLE
  2
DIMSTYLE
  5
A
100
AcDbSymbolTable
 70
1
100
AcDbDimStyleTable
 71
0
  0
DIMSTYLE
105
249
100
AcDbSymbolTableRecord
100
AcDbDimStyleTableRecord
  2
STANDARD
 70
0
  3

  4

 40
1.0
 41
0.1875
 42
0.0625
 43
0.38
 44
0.18
 45
0.0
 46
0.0
 47
0.01
 48
0.01
140
0.15625
141
0.09
142
0.0
143
25.4
144
1.0
145
0.0
146
1.0
147
0.09
 71
0.0
 72
0.0
 73
1
 74
1
 75
0
 76
0
 77
0
 78
4
170
0
171
2
172
0
173
0
174
0
175
0
176
0
177
0
178
0
270
2
271
2
272
2
273
2
274
2
275
0
280
0
281
0
282
0
283
1
284
4
285
0
286
0
287
3
288
0
340
11
  0
ENDTAB
  0
ENDSEC
  0
SECTION
  2
BLOCKS
  0
BLOCK
  5
20
100
AcDbEntity
  8
0
100
AcDbBlockBegin
  2
*MODEL_SPACE
 70
0
 10
0.0
 20
0.0
 30
0.0
  3
*MODEL_SPACE
  1

  0
ENDBLK
  5
21
100
AcDbEntity
  8
0
100
AcDbBlockEnd
  0
BLOCK
  5
1C
100
AcDbEntity
  8
0
100
AcDbBlockBegin
  2
*PAPER_SPACE
 70
0
 10
0.0
 20
0.0
 30
0.0
  3
*PAPER_SPACE
  1

  0
ENDBLK
  5
1D
100
AcDbEntity
  8
0
100
AcDbBlockEnd
  0
ENDSEC
  0
SECTION
  2
ENTITIES
  0
LINE
  5
24A
100
AcDbEntity
  8
0
100
AcDbLine
 62
7
  6
CONTINUOUS
 10
2.388617325
 20
4.411775308
 11
2.388617325
 21
4.1057890572
  0
LINE
  5
24B
100
AcDbEntity
  8
03__ASM_ALL_CURVES
100
AcDbLine
 62
40
  6
CONTINUOUS
 10
2.388617325
 20
4.411775308
 11
2.388617325
 21
5.1905201826
  0
LINE
  5
24C
100
AcDbEntity
  8
0
100
AcDbLine
 62
7
  6
CONTINUOUS
 10
2.419617325
 20
4.4427821826
 11
2.419617325
 21
4.0747821826
  0
LINE
  5
24D
100
AcDbEntity
  8
03__ASM_ALL_CURVES
100
AcDbLine
 62
40
  6
CONTINUOUS
 10
2.533907325
 20
5.1663051826
 11
2.533907325
 21
5.1178751826
  0
LINE
  5
24E
100
AcDbEntity
  8
0
100
AcDbLine
 62
7
  6
CONTINUOUS
 10
2.618617325
 20
4.4427821826
 11
2.618617325
 21
4.0747821826
  0
LINE
  5
24F
100
AcDbEntity
  8
0
100
AcDbLine
 62
7
  6
CONTINUOUS
 10
2.620117325
 20
4.0976391896
 11
2.620117325
 21
4.3349057514
  0
LINE
  5
250
100
AcDbEntity
  8
0
100
AcDbLine
 62
7
  6
CONTINUOUS
 10
2.655117325
 20
4.0976391896
 11
2.655117325
 21
4.3349057514
  0
LINE
  5
251
100
AcDbEntity
  8
0
100
AcDbLine
 62
7
  6
CONTINUOUS
 10
2.656617325
 20
4.4427821826
 11
2.656617325
 21
4.0747821826
  0
LINE
  5
252
100
AcDbEntity
  8
0
100
AcDbLine
 62
7
  6
CONTINUOUS
 10
2.888617325
 20
4.0111309975
 11
2.888617325
 21
4.5064333677
  0
LINE
  5
253
100
AcDbEntity
  8
0
100
AcDbLine
 62
7
  6
CONTINUOUS
 10
2.950617325
 20
3.9877821826
 11
2.950617325
 21
4.5297821826
  0
LINE
  5
254
100
AcDbEntity
  8
0
100
AcDbLine
 62
7
  6
CONTINUOUS
 10
2.956617325
 20
3.9877821826
 11
2.956617325
 21
4.5297821826
  0
LINE
  5
255
100
AcDbEntity
  8
0
100
AcDbLine
 62
7
  6
CONTINUOUS
 10
2.962117325
 20
3.9932821826
 11
2.962117325
 21
4.5242821826
  0
LINE
  5
256
100
AcDbEntity
  8
0
100
AcDbLine
 62
7
  6
CONTINUOUS
 10
2.978117325
 20
3.9932821826
 11
2.978117325
 21
4.5242821826
  0
LINE
  5
257
100
AcDbEntity
  8
0
100
AcDbLine
 62
7
  6
CONTINUOUS
 10
3.169617325
 20
3.9877821826
 11
3.169617325
 21
4.5297821826
  0
LINE
  5
258
100
AcDbEntity
  8
0
100
AcDbLine
 62
7
  6
CONTINUOUS
 10
3.200617325
 20
3.8237821826
 11
3.200617325
 21
4.6937821826
  0
LINE
  5
259
100
AcDbEntity
  8
0
100
AcDbLine
 62
7
  6
CONTINUOUS
 10
3.262617325
 20
3.7617821826
 11
3.262617325
 21
4.7557821826
  0
LINE
  5
25A
100
AcDbEntity
  8
03__ASM_ALL_CURVES
100
AcDbLine
 62
40
  6
CONTINUOUS
 10
3.547511075
 20
5.2813264326
 11
3.5399438875
 21
5.2712368517
  0
LINE
  5
25B
100
AcDbEntity
  8
03__ASM_ALL_CURVES
100
AcDbLine
 62
40
  6
CONTINUOUS
 10
3.5550782625
 20
5.2207889326
 11
3.5399438875
 21
5.2006097662
  0
LINE
  5
25C
100
AcDbEntity
  8
0
100
AcDbLine
 62
7
  6
CONTINUOUS
 10
2.388617325
 20
4.4117821826
 11
2.419617325
 21
4.4427821826
  0
LINE
  5
25D
100
AcDbEntity
  8
0
100
AcDbLine
 62
7
  6
CONTINUOUS
 10
2.388617325
 20
4.1057821826
 11
2.419617325
 21
4.0747821826
  0
LINE
  5
25E
100
AcDbEntity
  8
03__ASM_ALL_CURVES
100
AcDbLine
 62
40
  6
CONTINUOUS
 10
3.547511075
 20
5.2914160135
 11
3.547511075
 21
5.2813264326
  0
LINE
  5
25F
100
AcDbEntity
  8
03__ASM_ALL_CURVES
100
AcDbLine
 62
40
  6
CONTINUOUS
 10
3.5550782625
 20
5.2308785171
 11
3.5550782625
 21
5.2207889326
  0
LINE
  5
260
100
AcDbEntity
  8
03__ASM_ALL_CURVES
100
AcDbLine
 62
40
  6
CONTINUOUS
 10
3.6307501375
 20
5.1905201826
 11
3.6307501375
 21
5.2006097662
  0
LINE
  5
261
100
AcDbEntity
  8
03__ASM_ALL_CURVES
100
AcDbLine
 62
40
  6
CONTINUOUS
 10
3.850198575
 20
5.2712368517
 11
3.8577657625
 21
5.2914160135
  0
LINE
  5
262
100
AcDbEntity
  8
03__ASM_ALL_CURVES
100
AcDbLine
 62
40
  6
CONTINUOUS
 10
3.850198575
 20
5.2308785171
 11
3.8577657625
 21
5.2510576826
  0
LINE
  5
263
100
AcDbEntity
  8
0
100
AcDbLine
 62
7
  6
CONTINUOUS
 10
3.169617325
 20
3.9877821826
 11
3.1635225528
 21
3.9772257276
  0
LINE
  5
264
100
AcDbEntity
  8
03__ASM_ALL_CURVES
100
AcDbLine
 62
40
  6
CONTINUOUS
 10
3.7820938875
 20
5.3115951826
 11
3.729123575
 21
5.2207889326
  0
LINE
  5
265
100
AcDbEntity
  8
03__ASM_ALL_CURVES
100
AcDbLine
 62
40
  6
CONTINUOUS
 10
3.8577657625
 20
5.2914160135
 11
3.86533295
 21
5.3015056017
  0
LINE
  5
266
100
AcDbEntity
  8
0
100
AcDbLine
 62
7
  6
CONTINUOUS
 10
2.9936181105
 20
4.5397829682
 11
2.978117325
 21
4.5242821826
  0
LINE
  5
267
100
AcDbEntity
  8
0
100
AcDbLine
 62
7
  6
CONTINUOUS
 10
3.262617325
 20
4.7557821826
 11
3.200617325
 21
4.6937821826
  0
LINE
  5
268
100
AcDbEntity
  8
03__ASM_ALL_CURVES
100
AcDbLine
 62
40
  6
CONTINUOUS
 10
3.4945407625
 20
5.3015056017
 11
3.5096751375
 21
5.3115951826
  0
LINE
  5
269
100
AcDbEntity
  8
0
100
AcDbLine
 62
7
  6
CONTINUOUS
 10
2.9936181105
 20
3.977781397
 11
2.978117325
 21
3.9932821826
  0
LINE
  5
26A
100
AcDbEntity
  8
0
100
AcDbLine
 62
7
  6
CONTINUOUS
 10
3.262617325
 20
3.7617821826
 11
3.200617325
 21
3.8237821826
  0
LINE
  5
26B
100
AcDbEntity
  8
0
100
AcDbLine
 62
7
  6
CONTINUOUS
 10
3.169617325
 20
4.5297821826
 11
3.1635225528
 21
4.5403386376
  0
LINE
  5
26C
100
AcDbEntity
  8
0
100
AcDbLine
 62
7
  6
CONTINUOUS
 10
3.7462279962
 20
3.6247821826
 11
3.700617325
 21
3.7037821826
  0
LINE
  5
26D
100
AcDbEntity
  8
0
100
AcDbLine
 62
7
  6
CONTINUOUS
 10
3.700617325
 20
3.7037821826
 11
3.700617325
 21
4.8137821826
  0
LINE
  5
26E
100
AcDbEntity
  8
0
100
AcDbLine
 62
7
  6
CONTINUOUS
 10
3.7462279962
 20
3.6247821826
 11
3.7462279962
 21
3.6253968731
  0
LINE
  5
26F
100
AcDbEntity
  8
0
100
AcDbLine
 62
7
  6
CONTINUOUS
 10
3.7462279962
 20
3.9179174921
 11
3.7462279962
 21
3.9662615637
  0
LINE
  5
270
100
AcDbEntity
  8
0
100
AcDbLine
 62
7
  6
CONTINUOUS
 10
3.7462279962
 20
4.5513028015
 11
3.7462279962
 21
4.5996468731
  0
LINE
  5
271
100
AcDbEntity
  8
0
100
AcDbLine
 62
7
  6
CONTINUOUS
 10
3.7462279962
 20
4.8921674921
 11
3.7462279962
 21
4.8927821826
  0
LINE
  5
272
100
AcDbEntity
  8
03__ASM_ALL_CURVES
100
AcDbLine
 62
40
  6
CONTINUOUS
 10
3.7820938875
 20
5.1905201826
 11
3.7820938875
 21
5.3115951826
  0
LINE
  5
273
100
AcDbEntity
  8
03__ASM_ALL_CURVES
100
AcDbLine
 62
40
  6
CONTINUOUS
 10
3.850198575
 20
5.2308785171
 11
3.850198575
 21
5.2712368517
  0
LINE
  5
274
100
AcDbEntity
  8
03__ASM_ALL_CURVES
100
AcDbLine
 62
40
  6
CONTINUOUS
 10
3.9939751375
 20
5.2914160135
 11
3.98640795
 21
5.2611472635
  0
LINE
  5
275
100
AcDbEntity
  8
03__ASM_ALL_CURVES
100
AcDbLine
 62
40
  6
CONTINUOUS
 10
3.910736075
 20
5.2308785171
 11
3.9031688875
 21
5.2106993499
  0
LINE
  5
276
100
AcDbEntity
  8
0
100
AcDbLine
 62
7
  6
CONTINUOUS
 10
3.7459618274
 20
4.8923211647
 11
3.700617325
 21
4.8137821826
  0
LINE
  5
277
100
AcDbEntity
  8
03__ASM_ALL_CURVES
100
AcDbLine
 62
40
  6
CONTINUOUS
 10
3.9031688875
 20
5.2106993499
 11
3.8956017
 21
5.2006097662
  0
LINE
  5
278
100
AcDbEntity
  8
03__ASM_ALL_CURVES
100
AcDbLine
 62
40
  6
CONTINUOUS
 10
4.0091095125
 20
5.3115951826
 11
3.9939751375
 21
5.2914160135
  0
LINE
  5
279
100
AcDbEntity
  8
03__ASM_ALL_CURVES
100
AcDbLine
 62
40
  6
CONTINUOUS
 10
4.092348575
 20
5.2914160135
 11
4.0999157625
 21
5.3015056017
  0
LINE
  5
27A
100
AcDbEntity
  8
03__ASM_ALL_CURVES
100
AcDbLine
 62
40
  6
CONTINUOUS
 10
4.0847813875
 20
5.2308785171
 11
4.0999157625
 21
5.2510576826
  0
LINE
  5
27B
100
AcDbEntity
  8
03__ASM_ALL_CURVES
100
AcDbLine
 62
40
  6
CONTINUOUS
 10
4.152886075
 20
5.2813264326
 11
4.1453188875
 21
5.2712368517
  0
LINE
  5
27C
100
AcDbEntity
  8
03__ASM_ALL_CURVES
100
AcDbLine
 62
40
  6
CONTINUOUS
 10
4.1604532625
 20
5.2207889326
 11
4.1453188875
 21
5.2006097662
  0
LINE
  5
27D
100
AcDbEntity
  8
03__ASM_ALL_CURVES
100
AcDbLine
 62
40
  6
CONTINUOUS
 10
3.5399438875
 20
5.2712368517
 11
3.5248095125
 21
5.2611472635
  0
LINE
  5
27E
100
AcDbEntity
  8
03__ASM_ALL_CURVES
100
AcDbLine
 62
40
  6
CONTINUOUS
 10
3.5399438875
 20
5.2006097662
 11
3.5248095125
 21
5.1905201826
  0
LINE
  5
27F
100
AcDbEntity
  8
03__ASM_ALL_CURVES
100
AcDbLine
 62
40
  6
CONTINUOUS
 10
3.86533295
 20
5.3015056017
 11
3.880467325
 21
5.3115951826
  0
LINE
  5
280
100
AcDbEntity
  8
03__ASM_ALL_CURVES
100
AcDbLine
 62
40
  6
CONTINUOUS
 10
3.98640795
 20
5.2611472635
 11
3.98640795
 21
5.2409680981
  0
LINE
  5
281
100
AcDbEntity
  8
03__ASM_ALL_CURVES
100
AcDbLine
 62
40
  6
CONTINUOUS
 10
4.0847813875
 20
5.2207889326
 11
4.0847813875
 21
5.2308785171
  0
LINE
  5
282
100
AcDbEntity
  8
03__ASM_ALL_CURVES
100
AcDbLine
 62
40
  6
CONTINUOUS
 10
4.092348575
 20
5.2813264326
 11
4.092348575
 21
5.2914160135
  0
LINE
  5
283
100
AcDbEntity
  8
03__ASM_ALL_CURVES
100
AcDbLine
 62
40
  6
CONTINUOUS
 10
4.152886075
 20
5.2914160135
 11
4.152886075
 21
5.2813264326
  0
LINE
  5
284
100
AcDbEntity
  8
03__ASM_ALL_CURVES
100
AcDbLine
 62
40
  6
CONTINUOUS
 10
4.1604532625
 20
5.2308785171
 11
4.1604532625
 21
5.2207889326
  0
LINE
  5
285
100
AcDbEntity
  8
03__ASM_ALL_CURVES
100
AcDbLine
 62
40
  6
CONTINUOUS
 10
4.243692325
 20
5.1905201826
 11
4.2512595125
 21
5.2409680981
  0
LINE
  5
286
100
AcDbEntity
  8
03__ASM_ALL_CURVES
100
AcDbLine
 62
40
  6
CONTINUOUS
 10
4.2512595125
 20
5.2409680981
 11
4.2588267
 21
5.2712368517
  0
LINE
  5
287
100
AcDbEntity
  8
03__ASM_ALL_CURVES
100
AcDbLine
 62
40
  6
CONTINUOUS
 10
4.2588267
 20
5.2712368517
 11
4.273961075
 21
5.3115951826
  0
LINE
  5
288
100
AcDbEntity
  8
03__ASM_ALL_CURVES
100
AcDbLine
 62
40
  6
CONTINUOUS
 10
4.455573575
 20
5.2914160135
 11
4.4631407625
 21
5.3015056017
  0
LINE
  5
289
100
AcDbEntity
  8
03__ASM_ALL_CURVES
100
AcDbLine
 62
40
  6
CONTINUOUS
 10
4.4480063875
 20
5.2308785171
 11
4.4631407625
 21
5.2510576826
  0
LINE
  5
28A
100
AcDbEntity
  8
0
100
AcDbLine
 62
7
  6
CONTINUOUS
 10
2.962117325
 20
3.9932821826
 11
2.956617325
 21
3.9877821826
  0
LINE
  5
28B
100
AcDbEntity
  8
03__ASM_ALL_CURVES
100
AcDbLine
 62
40
  6
CONTINUOUS
 10
3.8956017
 20
5.2006097662
 11
3.880467325
 21
5.1905201826
  0
LINE
  5
28C
100
AcDbEntity
  8
03__ASM_ALL_CURVES
100
AcDbLine
 62
40
  6
CONTINUOUS
 10
4.0999157625
 20
5.3015056017
 11
4.1150501375
 21
5.3115951826
  0
LINE
  5
28D
100
AcDbEntity
  8
03__ASM_ALL_CURVES
100
AcDbLine
 62
40
  6
CONTINUOUS
 10
4.0999157625
 20
5.2510576826
 11
4.1150501375
 21
5.2611472635
  0
LINE
  5
28E
100
AcDbEntity
  8
03__ASM_ALL_CURVES
100
AcDbLine
 62
40
  6
CONTINUOUS
 10
4.1453188875
 20
5.2712368517
 11
4.1301845125
 21
5.2611472635
  0
LINE
  5
28F
100
AcDbEntity
  8
03__ASM_ALL_CURVES
100
AcDbLine
 62
40
  6
CONTINUOUS
 10
4.1453188875
 20
5.2006097662
 11
4.1301845125
 21
5.1905201826
  0
LINE
  5
290
100
AcDbEntity
  8
03__ASM_ALL_CURVES
100
AcDbLine
 62
40
  6
CONTINUOUS
 10
3.8577657625
 20
5.2510576826
 11
3.880467325
 21
5.2611472635
  0
LINE
  5
291
100
AcDbEntity
  8
0
100
AcDbLine
 62
7
  6
CONTINUOUS
 10
2.962117325
 20
4.5242821826
 11
2.956617325
 21
4.5297821826
  0
LINE
  5
292
100
AcDbEntity
  8
03__ASM_ALL_CURVES
100
AcDbLine
 62
40
  6
CONTINUOUS
 10
4.3572001375
 20
5.1905201826
 11
4.3572001375
 21
5.2006097662
  0
LINE
  5
293
100
AcDbEntity
  8
0
100
AcDbLine
 62
7
  6
CONTINUOUS
 10
4.3717076156
 20
3.6247821826
 11
4.3717076156
 21
3.6253968731
  0
LINE
  5
294
100
AcDbEntity
  8
0
100
AcDbLine
 62
7
  6
CONTINUOUS
 10
4.3717076156
 20
3.9179174921
 11
4.3717076156
 21
3.9662615637
  0
LINE
  5
295
100
AcDbEntity
  8
0
100
AcDbLine
 62
7
  6
CONTINUOUS
 10
4.3717076156
 20
4.5513028015
 11
4.3717076156
 21
4.5996468731
  0
LINE
  5
296
100
AcDbEntity
  8
0
100
AcDbLine
 62
7
  6
CONTINUOUS
 10
4.3717076156
 20
4.8921674921
 11
4.3717076156
 21
4.8927821826
  0
LINE
  5
297
100
AcDbEntity
  8
03__ASM_ALL_CURVES
100
AcDbLine
 62
40
  6
CONTINUOUS
 10
4.516111075
 20
5.2813264326
 11
4.5085438875
 21
5.2712368517
  0
LINE
  5
298
100
AcDbEntity
  8
03__ASM_ALL_CURVES
100
AcDbLine
 62
40
  6
CONTINUOUS
 10
4.5236782625
 20
5.2207889326
 11
4.5085438875
 21
5.2006097662
  0
LINE
  5
299
100
AcDbEntity
  8
03__ASM_ALL_CURVES
100
AcDbLine
 62
40
  6
CONTINUOUS
 10
4.576648575
 20
5.2914160135
 11
4.5842157625
 21
5.3015056017
  0
LINE
  5
29A
100
AcDbEntity
  8
03__ASM_ALL_CURVES
100
AcDbLine
 62
40
  6
CONTINUOUS
 10
4.5690813875
 20
5.2308785171
 11
4.5842157625
 21
5.2510576826
  0
LINE
  5
29B
100
AcDbEntity
  8
03__ASM_ALL_CURVES
100
AcDbLine
 62
40
  6
CONTINUOUS
 10
4.637186075
 20
5.2813264326
 11
4.6296188875
 21
5.2712368517
  0
LINE
  5
29C
100
AcDbEntity
  8
03__ASM_ALL_CURVES
100
AcDbLine
 62
40
  6
CONTINUOUS
 10
4.6447532625
 20
5.2207889326
 11
4.6296188875
 21
5.2006097662
  0
LINE
  5
29D
100
AcDbEntity
  8
03__ASM_ALL_CURVES
100
AcDbLine
 62
40
  6
CONTINUOUS
 10
4.7355595125
 20
5.2106993499
 11
4.7204251375
 21
5.1905201826
  0
LINE
  5
29E
100
AcDbEntity
  8
03__ASM_ALL_CURVES
100
AcDbLine
 62
40
  6
CONTINUOUS
 10
4.4631407625
 20
5.3015056017
 11
4.4782751375
 21
5.3115951826
  0
LINE
  5
29F
100
AcDbEntity
  8
03__ASM_ALL_CURVES
100
AcDbLine
 62
40
  6
CONTINUOUS
 10
4.4631407625
 20
5.2510576826
 11
4.4782751375
 21
5.2611472635
  0
LINE
  5
2A0
100
AcDbEntity
  8
03__ASM_ALL_CURVES
100
AcDbLine
 62
40
  6
CONTINUOUS
 10
4.5085438875
 20
5.2712368517
 11
4.4934095125
 21
5.2611472635
  0
LINE
  5
2A1
100
AcDbEntity
  8
03__ASM_ALL_CURVES
100
AcDbLine
 62
40
  6
CONTINUOUS
 10
4.5842157625
 20
5.3015056017
 11
4.5993501375
 21
5.3115951826
  0
LINE
  5
2A2
100
AcDbEntity
  8
03__ASM_ALL_CURVES
100
AcDbLine
 62
40
  6
CONTINUOUS
 10
4.5085438875
 20
5.2006097662
 11
4.4934095125
 21
5.1905201826
  0
LINE
  5
2A3
100
AcDbEntity
  8
03__ASM_ALL_CURVES
100
AcDbLine
 62
40
  6
CONTINUOUS
 10
4.5842157625
 20
5.2510576826
 11
4.5993501375
 21
5.2611472635
  0
LINE
  5
2A4
100
AcDbEntity
  8
03__ASM_ALL_CURVES
100
AcDbLine
 62
40
  6
CONTINUOUS
 10
4.6296188875
 20
5.2712368517
 11
4.6144845125
 21
5.2611472635
  0
LINE
  5
2A5
100
AcDbEntity
  8
03__ASM_ALL_CURVES
100
AcDbLine
 62
40
  6
CONTINUOUS
 10
4.6296188875
 20
5.2006097662
 11
4.6144845125
 21
5.1905201826
  0
LINE
  5
2A6
100
AcDbEntity
  8
03__ASM_ALL_CURVES
100
AcDbLine
 62
40
  6
CONTINUOUS
 10
4.7363556149
 20
3.3459787469
 11
4.7477063961
 21
3.3308443701
  0
LINE
  5
2A7
100
AcDbEntity
  8
03__ASM_ALL_CURVES
100
AcDbLine
 62
40
  6
CONTINUOUS
 10
3.8577657625
 20
5.2106993499
 11
3.850198575
 21
5.2308785171
  0
LINE
  5
2A8
100
AcDbEntity
  8
03__ASM_ALL_CURVES
100
AcDbLine
 62
40
  6
CONTINUOUS
 10
3.9031688875
 20
5.2510576826
 11
3.910736075
 21
5.2308785171
  0
LINE
  5
2A9
100
AcDbEntity
  8
03__ASM_ALL_CURVES
100
AcDbLine
 62
40
  6
CONTINUOUS
 10
3.98640795
 20
5.2409680981
 11
3.9939751375
 21
5.2106993499
  0
LINE
  5
2AA
100
AcDbEntity
  8
0
100
AcDbLine
 62
7
  6
CONTINUOUS
 10
4.418617325
 20
3.7060321826
 11
4.418617325
 21
4.8115321826
  0
LINE
  5
2AB
100
AcDbEntity
  8
03__ASM_ALL_CURVES
100
AcDbLine
 62
40
  6
CONTINUOUS
 10
4.4480063875
 20
5.2207889326
 11
4.4480063875
 21
5.2308785171
  0
LINE
  5
2AC
100
AcDbEntity
  8
03__ASM_ALL_CURVES
100
AcDbLine
 62
40
  6
CONTINUOUS
 10
4.455573575
 20
5.2813264326
 11
4.455573575
 21
5.2914160135
  0
LINE
  5
2AD
100
AcDbEntity
  8
03__ASM_ALL_CURVES
100
AcDbLine
 62
40
  6
CONTINUOUS
 10
4.516111075
 20
5.2914160135
 11
4.516111075
 21
5.2813264326
  0
LINE
  5
2AE
100
AcDbEntity
  8
03__ASM_ALL_CURVES
100
AcDbLine
 62
40
  6
CONTINUOUS
 10
4.5236782625
 20
5.2308785171
 11
4.5236782625
 21
5.2207889326
  0
LINE
  5
2AF
100
AcDbEntity
  8
03__ASM_ALL_CURVES
100
AcDbLine
 62
40
  6
CONTINUOUS
 10
4.5690813875
 20
5.2207889326
 11
4.5690813875
 21
5.2308785171
  0
LINE
  5
2B0
100
AcDbEntity
  8
03__ASM_ALL_CURVES
100
AcDbLine
 62
40
  6
CONTINUOUS
 10
4.576648575
 20
5.2813264326
 11
4.576648575
 21
5.2914160135
  0
LINE
  5
2B1
100
AcDbEntity
  8
03__ASM_ALL_CURVES
100
AcDbLine
 62
40
  6
CONTINUOUS
 10
4.637186075
 20
5.2914160135
 11
4.637186075
 21
5.2813264326
  0
LINE
  5
2B2
100
AcDbEntity
  8
0
100
AcDbLine
 62
7
  6
CONTINUOUS
 10
4.637617325
 20
3.7060321826
 11
4.637617325
 21
4.8115321826
  0
LINE
  5
2B3
100
AcDbEntity
  8
03__ASM_ALL_CURVES
100
AcDbLine
 62
40
  6
CONTINUOUS
 10
4.6447532625
 20
5.2308785171
 11
4.6447532625
 21
5.2207889326
  0
LINE
  5
2B4
100
AcDbEntity
  8
03__ASM_ALL_CURVES
100
AcDbLine
 62
40
  6
CONTINUOUS
 10
4.7431267
 20
5.2409680981
 11
4.7355595125
 21
5.2106993499
  0
LINE
  5
2B5
100
AcDbEntity
  8
03__ASM_ALL_CURVES
100
AcDbLine
 62
40
  6
CONTINUOUS
 10
4.7250048336
 20
3.3535459326
 11
4.7363556149
 21
3.3459787469
  0
LINE
  5
2B6
100
AcDbEntity
  8
03__ASM_ALL_CURVES
100
AcDbLine
 62
40
  6
CONTINUOUS
 10
4.8214864742
 20
3.3535459326
 11
4.8328372555
 21
3.3459787469
  0
LINE
  5
2B7
100
AcDbEntity
  8
03__ASM_ALL_CURVES
100
AcDbLine
 62
40
  6
CONTINUOUS
 10
4.8072980052
 20
3.4019759326
 11
4.795947224
 21
3.4095431203
  0
LINE
  5
2B8
100
AcDbEntity
  8
03__ASM_ALL_CURVES
100
AcDbLine
 62
40
  6
CONTINUOUS
 10
4.7278425365
 20
3.4927821826
 11
4.7391933177
 21
3.4852149969
  0
LINE
  5
2B9
100
AcDbEntity
  8
03__ASM_ALL_CURVES
100
AcDbLine
 62
40
  6
CONTINUOUS
 10
4.8186487865
 20
3.4927821826
 11
4.8299995677
 21
3.4852149969
  0
LINE
  5
2BA
100
AcDbEntity
  8
03__ASM_ALL_CURVES
100
AcDbLine
 62
40
  6
CONTINUOUS
 10
4.8328372555
 20
3.3459787469
 11
4.8385126461
 21
3.3384115558
  0
LINE
  5
2BB
100
AcDbEntity
  8
03__ASM_ALL_CURVES
100
AcDbLine
 62
40
  6
CONTINUOUS
 10
4.7391933177
 20
3.4852149969
 11
4.7448687084
 21
3.4776478058
  0
LINE
  5
2BC
100
AcDbEntity
  8
03__ASM_ALL_CURVES
100
AcDbLine
 62
40
  6
CONTINUOUS
 10
4.795947224
 20
3.4095431203
 11
4.7845964427
 21
3.4246774951
  0
LINE
  5
2BD
100
AcDbEntity
  8
03__ASM_ALL_CURVES
100
AcDbLine
 62
40
  6
CONTINUOUS
 10
3.4945407625
 20
5.2006097662
 11
3.486973575
 21
5.2106993499
  0
LINE
  5
2BE
100
AcDbEntity
  8
03__ASM_ALL_CURVES
100
AcDbLine
 62
40
  6
CONTINUOUS
 10
4.8299995677
 20
3.4852149969
 11
4.841350349
 21
3.4700806201
  0
LINE
  5
2BF
100
AcDbEntity
  8
03__ASM_ALL_CURVES
100
AcDbLine
 62
40
  6
CONTINUOUS
 10
3.5399438875
 20
5.2510576826
 11
3.5550782625
 21
5.2308785171
  0
LINE
  5
2C0
100
AcDbEntity
  8
03__ASM_ALL_CURVES
100
AcDbLine
 62
40
  6
CONTINUOUS
 10
3.5399438875
 20
5.3015056017
 11
3.547511075
 21
5.2914160135
  0
LINE
  5
2C1
100
AcDbEntity
  8
03__ASM_ALL_CURVES
100
AcDbLine
 62
40
  6
CONTINUOUS
 10
3.6307501375
 20
5.2006097662
 11
3.638317325
 21
5.1905201826
  0
LINE
  5
2C2
100
AcDbEntity
  8
03__ASM_ALL_CURVES
100
AcDbLine
 62
40
  6
CONTINUOUS
 10
4.9208058177
 20
3.4852149969
 11
4.9264812084
 21
3.4776478058
  0
LINE
  5
2C3
100
AcDbEntity
  8
03__ASM_ALL_CURVES
100
AcDbLine
 62
40
  6
CONTINUOUS
 10
4.8214864742
 20
3.3081428076
 11
4.8385126461
 21
3.2627396826
  0
LINE
  5
2C4
100
AcDbEntity
  8
03__ASM_ALL_CURVES
100
AcDbLine
 62
40
  6
CONTINUOUS
 10
4.7477063961
 20
3.3308443701
 11
4.7533817867
 21
3.3081428076
  0
LINE
  5
2C5
100
AcDbEntity
  8
03__ASM_ALL_CURVES
100
AcDbLine
 62
40
  6
CONTINUOUS
 10
4.7845964427
 20
3.4246774951
 11
4.7789210521
 21
3.4473790576
  0
LINE
  5
2C6
100
AcDbEntity
  8
0
100
AcDbLine
 62
7
  6
CONTINUOUS
 10
4.687617325
 20
3.7077821826
 11
4.687617325
 21
4.8097821826
  0
LINE
  5
2C7
100
AcDbEntity
  8
03__ASM_ALL_CURVES
100
AcDbLine
 62
40
  6
CONTINUOUS
 10
4.6994655834
 20
3.4019759326
 11
4.6994655834
 21
3.4927821826
  0
LINE
  5
2C8
100
AcDbEntity
  8
03__ASM_ALL_CURVES
100
AcDbLine
 62
40
  6
CONTINUOUS
 10
4.7023032711
 20
3.2627396826
 11
4.7023032711
 21
3.3535459326
  0
LINE
  5
2C9
100
AcDbEntity
  8
03__ASM_ALL_CURVES
100
AcDbLine
 62
40
  6
CONTINUOUS
 10
4.7431267
 20
5.2611472635
 11
4.7431267
 21
5.2409680981
  0
LINE
  5
2CA
100
AcDbEntity
  8
03__ASM_ALL_CURVES
100
AcDbLine
 62
40
  6
CONTINUOUS
 10
4.7448687084
 20
3.4776478058
 11
4.7448687084
 21
3.4625134344
  0
LINE
  5
2CB
100
AcDbEntity
  8
0
100
AcDbLine
 62
7
  6
CONTINUOUS
 10
4.757617325
 20
4.7907821826
 11
4.757617325
 21
3.7267821826
  0
LINE
  5
2CC
100
AcDbEntity
  8
0
100
AcDbLine
 62
7
  6
CONTINUOUS
 10
4.778617325
 20
3.7057821826
 11
4.778617325
 21
4.8117821826
  0
LINE
  5
2CD
100
AcDbEntity
  8
03__ASM_ALL_CURVES
100
AcDbLine
 62
40
  6
CONTINUOUS
 10
4.7931095211
 20
3.2627396826
 11
4.7931095211
 21
3.3535459326
  0
LINE
  5
2CE
100
AcDbEntity
  8
0
100
AcDbLine
 62
7
  6
CONTINUOUS
 10
4.837617325
 20
3.7057821826
 11
4.837617325
 21
4.8117821826
  0
LINE
  5
2CF
100
AcDbEntity
  8
03__ASM_ALL_CURVES
100
AcDbLine
 62
40
  6
CONTINUOUS
 10
4.8385126461
 20
3.3384115558
 11
4.8385126461
 21
3.3232771844
  0
LINE
  5
2D0
100
AcDbEntity
  8
127-610_FEATURES
100
AcDbLine
 62
7
  6
CONTINUOUS
 10
4.852932964
 20
3.7633607819
 11
4.852932964
 21
4.7546234398
  0
LINE
  5
2D1
100
AcDbEntity
  8
127-610_FEATURES
100
AcDbLine
 62
7
  6
CONTINUOUS
 10
4.8703196288
 20
3.7767490495
 11
4.8703196288
 21
4.7412821826
  0
LINE
  5
2D2
100
AcDbEntity
  8
03__ASM_ALL_CURVES
100
AcDbLine
 62
40
  6
CONTINUOUS
 10
4.8810780834
 20
3.4019759326
 11
4.8810780834
 21
3.4927821826
  0
LINE
  5
2D3
100
AcDbEntity
  8
03__ASM_ALL_CURVES
100
AcDbLine
 62
40
  6
CONTINUOUS
 10
6.8559366758
 20
3.2627396826
 11
6.8105335508
 21
3.2627396826
  0
LINE
  5
2D4
100
AcDbEntity
  8
03__ASM_ALL_CURVES
100
AcDbLine
 62
40
  6
CONTINUOUS
 10
4.7250048336
 20
3.2627396826
 11
4.7023032711
 21
3.2627396826
  0
LINE
  5
2D5
100
AcDbEntity
  8
03__ASM_ALL_CURVES
100
AcDbLine
 62
40
  6
CONTINUOUS
 10
6.7197273008
 20
3.2627396826
 11
6.7651304258
 21
3.2627396826
  0
LINE
  5
2D6
100
AcDbEntity
  8
03__ASM_ALL_CURVES
100
AcDbLine
 62
40
  6
CONTINUOUS
 10
4.8895911617
 20
3.2930084335
 11
4.9236435055
 21
3.2930084335
  0
LINE
  5
2D7
100
AcDbEntity
  8
03__ASM_ALL_CURVES
100
AcDbLine
 62
40
  6
CONTINUOUS
 10
5.3970257279
 20
3.2930084335
 11
5.4310780717
 21
3.2930084335
  0
LINE
  5
2D8
100
AcDbEntity
  8
03__ASM_ALL_CURVES
100
AcDbLine
 62
40
  6
CONTINUOUS
 10
4.8214864742
 20
3.3081428076
 11
4.7931095211
 21
3.3081428076
  0
LINE
  5
2D9
100
AcDbEntity
  8
03__ASM_ALL_CURVES
100
AcDbLine
 62
40
  6
CONTINUOUS
 10
6.8105335508
 20
3.3081428076
 11
6.8389105039
 21
3.3081428076
  0
LINE
  5
2DA
100
AcDbEntity
  8
03__ASM_ALL_CURVES
100
AcDbLine
 62
40
  6
CONTINUOUS
 10
4.7023032711
 20
3.3535459326
 11
4.7250048336
 21
3.3535459326
  0
LINE
  5
2DB
100
AcDbEntity
  8
03__ASM_ALL_CURVES
100
AcDbLine
 62
40
  6
CONTINUOUS
 10
4.7931095211
 20
3.3535459326
 11
4.8214864742
 21
3.3535459326
  0
LINE
  5
2DC
100
AcDbEntity
  8
03__ASM_ALL_CURVES
100
AcDbLine
 62
40
  6
CONTINUOUS
 10
5.2948686967
 20
3.3535459326
 11
5.3516226029
 21
3.3535459326
  0
LINE
  5
2DD
100
AcDbEntity
  8
03__ASM_ALL_CURVES
100
AcDbLine
 62
40
  6
CONTINUOUS
 10
6.8105335508
 20
3.3535459326
 11
6.8559366758
 21
3.3535459326
  0
LINE
  5
2DE
100
AcDbEntity
  8
03__ASM_ALL_CURVES
100
AcDbLine
 62
40
  6
CONTINUOUS
 10
6.8956644102
 20
3.3535459326
 11
6.9524183164
 21
3.3535459326
  0
LINE
  5
2DF
100
AcDbEntity
  8
03__ASM_ALL_CURVES
100
AcDbLine
 62
40
  6
CONTINUOUS
 10
4.9094550365
 20
3.4927821826
 11
4.9208058177
 21
3.4852149969
  0
LINE
  5
2E0
100
AcDbEntity
  8
03__ASM_ALL_CURVES
100
AcDbLine
 62
40
  6
CONTINUOUS
 10
5.3572979848
 20
3.4019759326
 11
5.3459472035
 21
3.4095431203
  0
LINE
  5
2E1
100
AcDbEntity
  8
03__ASM_ALL_CURVES
100
AcDbLine
 62
40
  6
CONTINUOUS
 10
5.277842516
 20
3.4927821826
 11
5.2891932973
 21
3.4852149969
  0
LINE
  5
2E2
100
AcDbEntity
  8
03__ASM_ALL_CURVES
100
AcDbLine
 62
40
  6
CONTINUOUS
 10
3.86533295
 20
5.2006097662
 11
3.8577657625
 21
5.2106993499
  0
LINE
  5
2E3
100
AcDbEntity
  8
0
100
AcDbLine
 62
7
  6
CONTINUOUS
 10
4.418617325
 20
4.8115321826
 11
4.3719737844
 21
4.8923211647
  0
LINE
  5
2E4
100
AcDbEntity
  8
03__ASM_ALL_CURVES
100
AcDbLine
 62
40
  6
CONTINUOUS
 10
5.0655282711
 20
3.3535459326
 11
5.1109313961
 21
3.2627396826
  0
LINE
  5
2E5
100
AcDbEntity
  8
03__ASM_ALL_CURVES
100
AcDbLine
 62
40
  6
CONTINUOUS
 10
4.9094550365
 20
3.4473790576
 11
4.9264812084
 21
3.4019759326
  0
LINE
  5
2E6
100
AcDbEntity
  8
03__ASM_ALL_CURVES
100
AcDbLine
 62
40
  6
CONTINUOUS
 10
4.9066173336
 20
3.3535459326
 11
4.9349942867
 21
3.2627396826
  0
LINE
  5
2E7
100
AcDbEntity
  8
03__ASM_ALL_CURVES
100
AcDbLine
 62
40
  6
CONTINUOUS
 10
4.841350349
 20
3.4700806201
 11
4.8470257396
 21
3.4473790576
  0
LINE
  5
2E8
100
AcDbEntity
  8
03__ASM_ALL_CURVES
100
AcDbLine
 62
40
  6
CONTINUOUS
 10
4.9264812084
 20
3.4776478058
 11
4.9264812084
 21
3.4625134344
  0
LINE
  5
2E9
100
AcDbEntity
  8
03__ASM_ALL_CURVES
100
AcDbLine
 62
40
  6
CONTINUOUS
 10
4.9945858959
 20
3.4927821826
 11
4.9945858959
 21
3.4019759326
  0
LINE
  5
2EA
100
AcDbEntity
  8
03__ASM_ALL_CURVES
100
AcDbLine
 62
40
  6
CONTINUOUS
 10
4.9974235836
 20
3.3535459326
 11
4.9974235836
 21
3.2627396826
  0
LINE
  5
2EB
100
AcDbEntity
  8
03__ASM_ALL_CURVES
100
AcDbLine
 62
40
  6
CONTINUOUS
 10
5.0655282711
 20
3.2627396826
 11
5.0655282711
 21
3.3535459326
  0
LINE
  5
2EC
100
AcDbEntity
  8
03__ASM_ALL_CURVES
100
AcDbLine
 62
40
  6
CONTINUOUS
 10
5.1024183177
 20
3.4019759326
 11
5.1024183177
 21
3.4927821826
  0
LINE
  5
2ED
100
AcDbEntity
  8
03__ASM_ALL_CURVES
100
AcDbLine
 62
40
  6
CONTINUOUS
 10
5.1109313961
 20
3.2627396826
 11
5.1109313961
 21
3.3535459326
  0
LINE
  5
2EE
100
AcDbEntity
  8
03__ASM_ALL_CURVES
100
AcDbLine
 62
40
  6
CONTINUOUS
 10
4.7789210521
 20
3.4473790576
 11
4.7845964427
 21
3.4700806201
  0
LINE
  5
2EF
100
AcDbEntity
  8
03__ASM_ALL_CURVES
100
AcDbLine
 62
40
  6
CONTINUOUS
 10
4.7533817867
 20
3.3081428076
 11
4.7477063961
 21
3.2854412451
  0
LINE
  5
2F0
100
AcDbEntity
  8
03__ASM_ALL_CURVES
100
AcDbLine
 62
40
  6
CONTINUOUS
 10
4.8470257396
 20
3.4473790576
 11
4.841350349
 21
3.4246774951
  0
LINE
  5
2F1
100
AcDbEntity
  8
0
100
AcDbLine
 62
7
  6
CONTINUOUS
 10
4.8494845685
 20
3.7500713384
 11
4.837617325
 21
3.7057821826
  0
LINE
  5
2F2
100
AcDbEntity
  8
0
100
AcDbLine
 62
7
  6
CONTINUOUS
 10
5.178617325
 20
4.7967821826
 11
5.1673209239
 21
4.7546234398
  0
LINE
  5
2F3
100
AcDbEntity
  8
0
100
AcDbLine
 62
7
  6
CONTINUOUS
 10
4.418617325
 20
3.7060321826
 11
4.3719737844
 21
3.6252432005
  0
LINE
  5
2F4
100
AcDbEntity
  8
03__ASM_ALL_CURVES
100
AcDbLine
 62
40
  6
CONTINUOUS
 10
6.6714864444
 20
3.4019759326
 11
6.6601356632
 21
3.4019759326
  0
LINE
  5
2F5
100
AcDbEntity
  8
03__ASM_ALL_CURVES
100
AcDbLine
 62
40
  6
CONTINUOUS
 10
5.641067516
 20
3.4019759326
 11
5.6297167348
 21
3.4019759326
  0
LINE
  5
2F6
100
AcDbEntity
  8
03__ASM_ALL_CURVES
100
AcDbLine
 62
40
  6
CONTINUOUS
 10
5.368648766
 20
3.4019759326
 11
5.3572979848
 21
3.4019759326
  0
LINE
  5
2F7
100
AcDbEntity
  8
03__ASM_ALL_CURVES
100
AcDbLine
 62
40
  6
CONTINUOUS
 10
4.8186487865
 20
3.4019759326
 11
4.8072980052
 21
3.4019759326
  0
LINE
  5
2F8
100
AcDbEntity
  8
03__ASM_ALL_CURVES
100
AcDbLine
 62
40
  6
CONTINUOUS
 10
6.9155282413
 20
3.4019759326
 11
6.9609313663
 21
3.4019759326
  0
LINE
  5
2F9
100
AcDbEntity
  8
03__ASM_ALL_CURVES
100
AcDbLine
 62
40
  6
CONTINUOUS
 10
5.0626905834
 20
3.4246774951
 11
5.113769099
 21
3.4246774951
  0
LINE
  5
2FA
100
AcDbEntity
  8
03__ASM_ALL_CURVES
100
AcDbLine
 62
40
  6
CONTINUOUS
 10
6.7622926944
 20
3.4473790576
 11
6.7339157413
 21
3.4473790576
  0
LINE
  5
2FB
100
AcDbEntity
  8
03__ASM_ALL_CURVES
100
AcDbLine
 62
40
  6
CONTINUOUS
 10
6.5806801944
 20
3.4473790576
 11
6.5523032413
 21
3.4473790576
  0
LINE
  5
2FC
100
AcDbEntity
  8
03__ASM_ALL_CURVES
100
AcDbLine
 62
40
  6
CONTINUOUS
 10
5.459455016
 20
3.4473790576
 11
5.4310780629
 21
3.4473790576
  0
LINE
  5
2FD
100
AcDbEntity
  8
03__ASM_ALL_CURVES
100
AcDbLine
 62
40
  6
CONTINUOUS
 10
5.277842516
 20
3.4473790576
 11
5.2494655629
 21
3.4473790576
  0
LINE
  5
2FE
100
AcDbEntity
  8
03__ASM_ALL_CURVES
100
AcDbLine
 62
40
  6
CONTINUOUS
 10
4.9094550365
 20
3.4473790576
 11
4.8810780834
 21
3.4473790576
  0
LINE
  5
2FF
100
AcDbEntity
  8
03__ASM_ALL_CURVES
100
AcDbLine
 62
40
  6
CONTINUOUS
 10
4.7278425365
 20
3.4473790576
 11
4.6994655834
 21
3.4473790576
  0
LINE
  5
300
100
AcDbEntity
  8
03__ASM_ALL_CURVES
100
AcDbLine
 62
40
  6
CONTINUOUS
 10
5.6297167348
 20
3.4549462433
 11
5.641067516
 21
3.4549462433
  0
LINE
  5
301
100
AcDbEntity
  8
03__ASM_ALL_CURVES
100
AcDbLine
 62
40
  6
CONTINUOUS
 10
4.6994655834
 20
3.4927821826
 11
4.7278425365
 21
3.4927821826
  0
LINE
  5
302
100
AcDbEntity
  8
03__ASM_ALL_CURVES
100
AcDbLine
 62
40
  6
CONTINUOUS
 10
4.8072980052
 20
3.4927821826
 11
4.8186487865
 21
3.4927821826
  0
LINE
  5
303
100
AcDbEntity
  8
03__ASM_ALL_CURVES
100
AcDbLine
 62
40
  6
CONTINUOUS
 10
4.8810780834
 20
3.4927821826
 11
4.9094550365
 21
3.4927821826
  0
LINE
  5
304
100
AcDbEntity
  8
03__ASM_ALL_CURVES
100
AcDbLine
 62
40
  6
CONTINUOUS
 10
4.9662089427
 20
3.4927821826
 11
5.022962849
 21
3.4927821826
  0
LINE
  5
305
100
AcDbEntity
  8
03__ASM_ALL_CURVES
100
AcDbLine
 62
40
  6
CONTINUOUS
 10
5.2494655629
 20
3.4927821826
 11
5.277842516
 21
3.4927821826
  0
LINE
  5
306
100
AcDbEntity
  8
03__ASM_ALL_CURVES
100
AcDbLine
 62
40
  6
CONTINUOUS
 10
5.3572979848
 20
3.4927821826
 11
5.368648766
 21
3.4927821826
  0
LINE
  5
307
100
AcDbEntity
  8
03__ASM_ALL_CURVES
100
AcDbLine
 62
40
  6
CONTINUOUS
 10
5.4310780629
 20
3.4927821826
 11
5.459455016
 21
3.4927821826
  0
LINE
  5
308
100
AcDbEntity
  8
03__ASM_ALL_CURVES
100
AcDbLine
 62
40
  6
CONTINUOUS
 10
5.5162089223
 20
3.4927821826
 11
5.5729628285
 21
3.4927821826
  0
LINE
  5
309
100
AcDbEntity
  8
03__ASM_ALL_CURVES
100
AcDbLine
 62
40
  6
CONTINUOUS
 10
5.6297167348
 20
3.4927821826
 11
5.641067516
 21
3.4927821826
  0
LINE
  5
30A
100
AcDbEntity
  8
03__ASM_ALL_CURVES
100
AcDbLine
 62
40
  6
CONTINUOUS
 10
6.5523032413
 20
3.4927821826
 11
6.5806801944
 21
3.4927821826
  0
LINE
  5
30B
100
AcDbEntity
  8
03__ASM_ALL_CURVES
100
AcDbLine
 62
40
  6
CONTINUOUS
 10
6.6601356632
 20
3.4927821826
 11
6.6714864444
 21
3.4927821826
  0
LINE
  5
30C
100
AcDbEntity
  8
03__ASM_ALL_CURVES
100
AcDbLine
 62
40
  6
CONTINUOUS
 10
6.7339157413
 20
3.4927821826
 11
6.7622926944
 21
3.4927821826
  0
LINE
  5
30D
100
AcDbEntity
  8
03__ASM_ALL_CURVES
100
AcDbLine
 62
40
  6
CONTINUOUS
 10
6.8190466007
 20
3.4927821826
 11
6.8758005069
 21
3.4927821826
  0
LINE
  5
30E
100
AcDbEntity
  8
03__ASM_ALL_CURVES
100
AcDbLine
 62
40
  6
CONTINUOUS
 10
6.9325544132
 20
3.4927821826
 11
6.9439051944
 21
3.4927821826
  0
LINE
  5
30F
100
AcDbEntity
  8
03__ASM_ALL_CURVES
100
AcDbLine
 62
40
  6
CONTINUOUS
 10
5.368648766
 20
3.4927821826
 11
5.3799995473
 21
3.4852149969
  0
LINE
  5
310
100
AcDbEntity
  8
03__ASM_ALL_CURVES
100
AcDbLine
 62
40
  6
CONTINUOUS
 10
5.459455016
 20
3.4927821826
 11
5.4708057973
 21
3.4852149969
  0
LINE
  5
311
100
AcDbEntity
  8
03__ASM_ALL_CURVES
100
AcDbLine
 62
40
  6
CONTINUOUS
 10
5.6297167348
 20
3.4019759326
 11
5.6183659535
 21
3.4095431203
  0
LINE
  5
312
100
AcDbEntity
  8
03__ASM_ALL_CURVES
100
AcDbLine
 62
40
  6
CONTINUOUS
 10
5.641067516
 20
3.4549462433
 11
5.6524182973
 21
3.4473790576
  0
LINE
  5
313
100
AcDbEntity
  8
03__ASM_ALL_CURVES
100
AcDbLine
 62
40
  6
CONTINUOUS
 10
5.641067516
 20
3.4927821826
 11
5.6524182973
 21
3.4852149969
  0
LINE
  5
314
100
AcDbEntity
  8
03__ASM_ALL_CURVES
100
AcDbLine
 62
40
  6
CONTINUOUS
 10
3.8956017
 20
5.3015056017
 11
3.9031688875
 21
5.2914160135
  0
LINE
  5
315
100
AcDbEntity
  8
03__ASM_ALL_CURVES
100
AcDbLine
 62
40
  6
CONTINUOUS
 10
3.9939751375
 20
5.2106993499
 11
4.0091095125
 21
5.1905201826
  0
LINE
  5
316
100
AcDbEntity
  8
03__ASM_ALL_CURVES
100
AcDbLine
 62
40
  6
CONTINUOUS
 10
5.3459472035
 20
3.4095431203
 11
5.3345964223
 21
3.4246774951
  0
LINE
  5
317
100
AcDbEntity
  8
03__ASM_ALL_CURVES
100
AcDbLine
 62
40
  6
CONTINUOUS
 10
5.2891932973
 20
3.4852149969
 11
5.2948686879
 21
3.4776478058
  0
LINE
  5
318
100
AcDbEntity
  8
03__ASM_ALL_CURVES
100
AcDbLine
 62
40
  6
CONTINUOUS
 10
5.3799995473
 20
3.4852149969
 11
5.3913503285
 21
3.4700806201
  0
LINE
  5
319
100
AcDbEntity
  8
03__ASM_ALL_CURVES
100
AcDbLine
 62
40
  6
CONTINUOUS
 10
4.0999157625
 20
5.2006097662
 11
4.0847813875
 21
5.2207889326
  0
LINE
  5
31A
100
AcDbEntity
  8
03__ASM_ALL_CURVES
100
AcDbLine
 62
40
  6
CONTINUOUS
 10
4.0999157625
 20
5.2712368517
 11
4.092348575
 21
5.2813264326
  0
LINE
  5
31B
100
AcDbEntity
  8
03__ASM_ALL_CURVES
100
AcDbLine
 62
40
  6
CONTINUOUS
 10
4.1453188875
 20
5.2510576826
 11
4.1604532625
 21
5.2308785171
  0
LINE
  5
31C
100
AcDbEntity
  8
03__ASM_ALL_CURVES
100
AcDbLine
 62
40
  6
CONTINUOUS
 10
5.4708057973
 20
3.4852149969
 11
5.4764811879
 21
3.4776478058
  0
LINE
  5
31D
100
AcDbEntity
  8
03__ASM_ALL_CURVES
100
AcDbLine
 62
40
  6
CONTINUOUS
 10
4.1453188875
 20
5.3015056017
 11
4.152886075
 21
5.2914160135
  0
LINE
  5
31E
100
AcDbEntity
  8
03__ASM_ALL_CURVES
100
AcDbLine
 62
40
  6
CONTINUOUS
 10
5.4821565873
 20
3.3535459326
 11
5.5275597123
 21
3.2627396826
  0
LINE
  5
31F
100
AcDbEntity
  8
0
100
AcDbLine
 62
7
  6
CONTINUOUS
 10
4.852932964
 20
4.7546234398
 11
4.837617325
 21
4.8117821826
  0
LINE
  5
320
100
AcDbEntity
  8
0
100
AcDbLine
 62
7
  6
CONTINUOUS
 10
5.178617325
 20
3.7207821826
 11
5.1673209239
 21
3.7629409254
  0
LINE
  5
321
100
AcDbEntity
  8
03__ASM_ALL_CURVES
100
AcDbLine
 62
40
  6
CONTINUOUS
 10
4.7355595125
 20
5.2914160135
 11
4.7431267
 21
5.2611472635
  0
LINE
  5
322
100
AcDbEntity
  8
0
100
AcDbLine
 62
7
  6
CONTINUOUS
 10
5.149934259
 20
3.7762821826
 11
5.149934259
 21
4.7412821826
  0
LINE
  5
323
100
AcDbEntity
  8
0
100
AcDbLine
 62
7
  6
CONTINUOUS
 10
5.1673209239
 20
3.7629409254
 11
5.1673209239
 21
4.7546234398
  0
LINE
  5
324
100
AcDbEntity
  8
0
100
AcDbLine
 62
7
  6
CONTINUOUS
 10
5.178617325
 20
3.7207821826
 11
5.178617325
 21
4.7967821826
  0
LINE
  5
325
100
AcDbEntity
  8
0
100
AcDbLine
 62
7
  6
CONTINUOUS
 10
5.231617325
 20
3.7077821826
 11
5.231617325
 21
4.8097821826
  0
LINE
  5
326
100
AcDbEntity
  8
03__ASM_ALL_CURVES
100
AcDbLine
 62
40
  6
CONTINUOUS
 10
5.2494655629
 20
3.4019759326
 11
5.2494655629
 21
3.4927821826
  0
LINE
  5
327
100
AcDbEntity
  8
0
100
AcDbLine
 62
7
  6
CONTINUOUS
 10
5.281617325
 20
3.7077821826
 11
5.281617325
 21
4.8097821826
  0
LINE
  5
328
100
AcDbEntity
  8
03__ASM_ALL_CURVES
100
AcDbLine
 62
40
  6
CONTINUOUS
 10
5.2948686879
 20
3.4776478058
 11
5.2948686879
 21
3.4625134344
  0
LINE
  5
329
100
AcDbEntity
  8
03__ASM_ALL_CURVES
100
AcDbLine
 62
40
  6
CONTINUOUS
 10
5.3232456498
 20
3.3535459326
 11
5.3232456498
 21
3.2627396826
  0
LINE
  5
32A
100
AcDbEntity
  8
0
100
AcDbLine
 62
7
  6
CONTINUOUS
 10
5.351617325
 20
3.7077821826
 11
5.351617325
 21
4.8097821826
  0
LINE
  5
32B
100
AcDbEntity
  8
03__ASM_ALL_CURVES
100
AcDbLine
 62
40
  6
CONTINUOUS
 10
4.8782403805
 20
3.2627396826
 11
4.9066173336
 21
3.3535459326
  0
LINE
  5
32C
100
AcDbEntity
  8
03__ASM_ALL_CURVES
100
AcDbLine
 62
40
  6
CONTINUOUS
 10
6.1789795133
 20
5.3015056017
 11
6.1941138883
 21
5.3115951826
  0
LINE
  5
32D
100
AcDbEntity
  8
03__ASM_ALL_CURVES
100
AcDbLine
 62
40
  6
CONTINUOUS
 10
6.3000545133
 20
5.3015056017
 11
6.3151888883
 21
5.3115951826
  0
LINE
  5
32E
100
AcDbEntity
  8
03__ASM_ALL_CURVES
100
AcDbLine
 62
40
  6
CONTINUOUS
 10
6.2243826383
 20
5.2006097662
 11
6.2092482633
 21
5.1905201826
  0
LINE
  5
32F
100
AcDbEntity
  8
03__ASM_ALL_CURVES
100
AcDbLine
 62
40
  6
CONTINUOUS
 10
6.3454576383
 20
5.2006097662
 11
6.3303232633
 21
5.1905201826
  0
LINE
  5
330
100
AcDbEntity
  8
0
100
AcDbLine
 62
7
  6
CONTINUOUS
 10
4.3717076156
 20
3.6247821826
 11
3.7462279962
 21
3.6247821826
  0
LINE
  5
331
100
AcDbEntity
  8
0
100
AcDbLine
 62
7
  6
CONTINUOUS
 10
4.3717076156
 20
3.6253968731
 11
3.7462279962
 21
3.6253968731
  0
LINE
  5
332
100
AcDbEntity
  8
0
100
AcDbLine
 62
7
  6
CONTINUOUS
 10
4.837617325
 20
3.7057821826
 11
4.778617325
 21
3.7057821826
  0
LINE
  5
333
100
AcDbEntity
  8
0
100
AcDbLine
 62
7
  6
CONTINUOUS
 10
4.637617325
 20
3.7060321826
 11
4.418617325
 21
3.7060321826
  0
LINE
  5
334
100
AcDbEntity
  8
0
100
AcDbLine
 62
7
  6
CONTINUOUS
 10
4.637617325
 20
3.7077821826
 11
4.687617325
 21
3.7077821826
  0
LINE
  5
335
100
AcDbEntity
  8
0
100
AcDbLine
 62
7
  6
CONTINUOUS
 10
5.231617325
 20
3.7077821826
 11
5.281617325
 21
3.7077821826
  0
LINE
  5
336
100
AcDbEntity
  8
0
100
AcDbLine
 62
7
  6
CONTINUOUS
 10
5.351617325
 20
3.7077821826
 11
5.401617325
 21
3.7077821826
  0
LINE
  5
337
100
AcDbEntity
  8
0
100
AcDbLine
 62
7
  6
CONTINUOUS
 10
5.856617325
 20
3.7207821826
 11
5.794617325
 21
3.7207821826
  0
LINE
  5
338
100
AcDbEntity
  8
0
100
AcDbLine
 62
7
  6
CONTINUOUS
 10
5.476617325
 20
3.7207821826
 11
5.429617325
 21
3.7207821826
  0
LINE
  5
339
100
AcDbEntity
  8
0
100
AcDbLine
 62
7
  6
CONTINUOUS
 10
5.231617325
 20
3.7207821826
 11
5.178617325
 21
3.7207821826
  0
LINE
  5
33A
100
AcDbEntity
  8
THREAD
100
AcDbLine
 62
7
  6
CONTINUOUS
 10
5.903617325
 20
3.7442821826
 11
5.8722057822
 21
3.7442821826
  0
LINE
  5
33B
100
AcDbEntity
  8
0
100
AcDbLine
 62
7
  6
CONTINUOUS
 10
5.973617325
 20
3.7467821826
 11
6.023617325
 21
3.7467821826
  0
LINE
  5
33C
100
AcDbEntity
  8
0
100
AcDbLine
 62
7
  6
CONTINUOUS
 10
4.778617325
 20
3.7617821826
 11
4.757617325
 21
3.7617821826
  0
LINE
  5
33D
100
AcDbEntity
  8
0
100
AcDbLine
 62
7
  6
CONTINUOUS
 10
3.700617325
 20
3.7617821826
 11
3.262617325
 21
3.7617821826
  0
LINE
  5
33E
100
AcDbEntity
  8
THREAD
100
AcDbLine
 62
7
  6
CONTINUOUS
 10
6.337617325
 20
3.7627821826
 11
6.0665566352
 21
3.7627821826
  0
LINE
  5
33F
100
AcDbEntity
  8
0
100
AcDbLine
 62
7
  6
CONTINUOUS
 10
5.429617325
 20
3.7762821826
 11
5.401617325
 21
3.7762821826
  0
LINE
  5
340
100
AcDbEntity
  8
0
100
AcDbLine
 62
7
  6
CONTINUOUS
 10
5.149934259
 20
3.7762821826
 11
4.8897417618
 21
3.7762821826
  0
LINE
  5
341
100
AcDbEntity
  8
THREAD
100
AcDbLine
 62
7
  6
CONTINUOUS
 10
6.0371117715
 20
3.8007821826
 11
6.023617325
 21
3.8007821826
  0
LINE
  5
342
100
AcDbEntity
  8
0
100
AcDbLine
 62
7
  6
CONTINUOUS
 10
5.7593695038
 20
3.8007821826
 11
5.723117325
 21
3.8007821826
  0
LINE
  5
343
100
AcDbEntity
  8
0
100
AcDbLine
 62
7
  6
CONTINUOUS
 10
5.552117325
 20
3.8007821826
 11
5.5118651462
 21
3.8007821826
  0
LINE
  5
344
100
AcDbEntity
  8
THREAD
100
AcDbLine
 62
7
  6
CONTINUOUS
 10
6.465617325
 20
3.8067821826
 11
6.381617325
 21
3.8067821826
  0
LINE
  5
345
100
AcDbEntity
  8
0
100
AcDbLine
 62
7
  6
CONTINUOUS
 10
6.910617325
 20
3.8222821826
 11
6.970617325
 21
3.8222821826
  0
LINE
  5
346
100
AcDbEntity
  8
0
100
AcDbLine
 62
7
  6
CONTINUOUS
 10
7.165117325
 20
3.8225321826
 11
7.226117325
 21
3.8225321826
  0
LINE
  5
347
100
AcDbEntity
  8
0
100
AcDbLine
 62
7
  6
CONTINUOUS
 10
6.970617325
 20
3.8267821826
 11
7.020617325
 21
3.8267821826
  0
LINE
  5
348
100
AcDbEntity
  8
0
100
AcDbLine
 62
7
  6
CONTINUOUS
 10
7.090617325
 20
3.8267821826
 11
7.140617325
 21
3.8267821826
  0
LINE
  5
349
100
AcDbEntity
  8
03__ASM_ALL_CURVES
100
AcDbLine
 62
40
  6
CONTINUOUS
 10
3.5096751375
 20
5.1905201826
 11
3.4945407625
 21
5.2006097662
  0
LINE
  5
34A
100
AcDbEntity
  8
03__ASM_ALL_CURVES
100
AcDbLine
 62
40
  6
CONTINUOUS
 10
3.5248095125
 20
5.2611472635
 11
3.5399438875
 21
5.2510576826
  0
LINE
  5
34B
100
AcDbEntity
  8
03__ASM_ALL_CURVES
100
AcDbLine
 62
40
  6
CONTINUOUS
 10
5.6183659535
 20
3.4095431203
 11
5.6126905629
 21
3.417110308
  0
LINE
  5
34C
100
AcDbEntity
  8
03__ASM_ALL_CURVES
100
AcDbLine
 62
40
  6
CONTINUOUS
 10
5.6524182973
 20
3.4473790576
 11
5.6637690785
 21
3.4322446835
  0
LINE
  5
34D
100
AcDbEntity
  8
03__ASM_ALL_CURVES
100
AcDbLine
 62
40
  6
CONTINUOUS
 10
4.3572001375
 20
5.2006097662
 11
4.364767325
 21
5.1905201826
  0
LINE
  5
34E
100
AcDbEntity
  8
03__ASM_ALL_CURVES
100
AcDbLine
 62
40
  6
CONTINUOUS
 10
5.6524182973
 20
3.4852149969
 11
5.6580936879
 21
3.4776478058
  0
LINE
  5
34F
100
AcDbEntity
  8
03__ASM_ALL_CURVES
100
AcDbLine
 62
40
  6
CONTINUOUS
 10
4.4631407625
 20
5.2006097662
 11
4.4480063875
 21
5.2207889326
  0
LINE
  5
350
100
AcDbEntity
  8
03__ASM_ALL_CURVES
100
AcDbLine
 62
40
  6
CONTINUOUS
 10
4.4631407625
 20
5.2712368517
 11
4.455573575
 21
5.2813264326
  0
LINE
  5
351
100
AcDbEntity
  8
03__ASM_ALL_CURVES
100
AcDbLine
 62
40
  6
CONTINUOUS
 10
4.5085438875
 20
5.2510576826
 11
4.5236782625
 21
5.2308785171
  0
LINE
  5
352
100
AcDbEntity
  8
03__ASM_ALL_CURVES
100
AcDbLine
 62
40
  6
CONTINUOUS
 10
5.459455016
 20
3.4473790576
 11
5.4764811879
 21
3.4019759326
  0
LINE
  5
353
100
AcDbEntity
  8
03__ASM_ALL_CURVES
100
AcDbLine
 62
40
  6
CONTINUOUS
 10
5.5956643998
 20
3.3232771844
 11
5.6183659623
 21
3.2627396826
  0
LINE
  5
354
100
AcDbEntity
  8
03__ASM_ALL_CURVES
100
AcDbLine
 62
40
  6
CONTINUOUS
 10
5.4140518998
 20
3.3535459326
 11
5.4424288529
 21
3.2627396826
  0
LINE
  5
355
100
AcDbEntity
  8
03__ASM_ALL_CURVES
100
AcDbLine
 62
40
  6
CONTINUOUS
 10
5.3345964223
 20
3.4246774951
 11
5.3289210316
 21
3.4473790576
  0
LINE
  5
356
100
AcDbEntity
  8
03__ASM_ALL_CURVES
100
AcDbLine
 62
40
  6
CONTINUOUS
 10
5.3913503285
 20
3.4700806201
 11
5.3970257191
 21
3.4473790576
  0
LINE
  5
357
100
AcDbEntity
  8
0
100
AcDbLine
 62
7
  6
CONTINUOUS
 10
5.401617325
 20
3.7077821826
 11
5.401617325
 21
4.8097821826
  0
LINE
  5
358
100
AcDbEntity
  8
0
100
AcDbLine
 62
7
  6
CONTINUOUS
 10
5.429617325
 20
3.7207821826
 11
5.429617325
 21
4.7967821826
  0
LINE
  5
359
100
AcDbEntity
  8
03__ASM_ALL_CURVES
100
AcDbLine
 62
40
  6
CONTINUOUS
 10
5.4310780629
 20
3.4019759326
 11
5.4310780629
 21
3.4927821826
  0
LINE
  5
35A
100
AcDbEntity
  8
03__ASM_ALL_CURVES
100
AcDbLine
 62
40
  6
CONTINUOUS
 10
5.4764811879
 20
3.4776478058
 11
5.4764811879
 21
3.4625134344
  0
LINE
  5
35B
100
AcDbEntity
  8
0
100
AcDbLine
 62
7
  6
CONTINUOUS
 10
5.476617325
 20
3.7207821826
 11
5.476617325
 21
4.7967821826
  0
LINE
  5
35C
100
AcDbEntity
  8
03__ASM_ALL_CURVES
100
AcDbLine
 62
40
  6
CONTINUOUS
 10
5.4821565873
 20
3.2627396826
 11
5.4821565873
 21
3.3535459326
  0
LINE
  5
35D
100
AcDbEntity
  8
0
100
AcDbLine
 62
7
  6
CONTINUOUS
 10
5.4944784813
 20
3.7874409254
 11
5.4944784813
 21
4.7301234398
  0
LINE
  5
35E
100
AcDbEntity
  8
0
100
AcDbLine
 62
7
  6
CONTINUOUS
 10
5.5118651462
 20
3.8007821826
 11
5.5118651462
 21
4.7167821826
  0
LINE
  5
35F
100
AcDbEntity
  8
03__ASM_ALL_CURVES
100
AcDbLine
 62
40
  6
CONTINUOUS
 10
5.5275597123
 20
3.2627396826
 11
5.5275597123
 21
3.3535459326
  0
LINE
  5
360
100
AcDbEntity
  8
03__ASM_ALL_CURVES
100
AcDbLine
 62
40
  6
CONTINUOUS
 10
5.5445858754
 20
3.4927821826
 11
5.5445858754
 21
3.4019759326
  0
LINE
  5
361
100
AcDbEntity
  8
03__ASM_ALL_CURVES
100
AcDbLine
 62
40
  6
CONTINUOUS
 10
5.5729628373
 20
3.3535459326
 11
5.5729628373
 21
3.2627396826
  0
LINE
  5
362
100
AcDbEntity
  8
03__ASM_ALL_CURVES
100
AcDbLine
 62
40
  6
CONTINUOUS
 10
5.3289210316
 20
3.4473790576
 11
5.3345964223
 21
3.4700806201
  0
LINE
  5
363
100
AcDbEntity
  8
03__ASM_ALL_CURVES
100
AcDbLine
 62
40
  6
CONTINUOUS
 10
4.7448687084
 20
3.4625134344
 11
4.7391933177
 21
3.4549462433
  0
LINE
  5
364
100
AcDbEntity
  8
03__ASM_ALL_CURVES
100
AcDbLine
 62
40
  6
CONTINUOUS
 10
4.7845964427
 20
3.4700806201
 11
4.795947224
 21
3.4852149969
  0
LINE
  5
365
100
AcDbEntity
  8
03__ASM_ALL_CURVES
100
AcDbLine
 62
40
  6
CONTINUOUS
 10
6.1638451383
 20
5.2813264326
 11
6.1789795133
 21
5.3015056017
  0
LINE
  5
366
100
AcDbEntity
  8
03__ASM_ALL_CURVES
100
AcDbLine
 62
40
  6
CONTINUOUS
 10
4.841350349
 20
3.4246774951
 11
4.8299995677
 21
3.4095431203
  0
LINE
  5
367
100
AcDbEntity
  8
03__ASM_ALL_CURVES
100
AcDbLine
 62
40
  6
CONTINUOUS
 10
4.7477063961
 20
3.2854412451
 11
4.7363556149
 21
3.2703068703
  0
LINE
  5
368
100
AcDbEntity
  8
03__ASM_ALL_CURVES
100
AcDbLine
 62
40
  6
CONTINUOUS
 10
6.2395170133
 20
5.2207889326
 11
6.2243826383
 21
5.2006097662
  0
LINE
  5
369
100
AcDbEntity
  8
03__ASM_ALL_CURVES
100
AcDbLine
 62
40
  6
CONTINUOUS
 10
6.2849201383
 20
5.2813264326
 11
6.3000545133
 21
5.3015056017
  0
LINE
  5
36A
100
AcDbEntity
  8
03__ASM_ALL_CURVES
100
AcDbLine
 62
40
  6
CONTINUOUS
 10
6.9054295133
 20
5.3015056017
 11
6.9205638883
 21
5.3115951826
  0
LINE
  5
36B
100
AcDbEntity
  8
0
100
AcDbLine
 62
7
  6
CONTINUOUS
 10
7.149117325
 20
3.8807821826
 11
7.140617325
 21
3.8807821826
  0
LINE
  5
36C
100
AcDbEntity
  8
0
100
AcDbLine
 62
7
  6
CONTINUOUS
 10
6.910617325
 20
3.8847821826
 11
6.721617325
 21
3.8847821826
  0
LINE
  5
36D
100
AcDbEntity
  8
0
100
AcDbLine
 62
7
  6
CONTINUOUS
 10
6.565617325
 20
3.8847821826
 11
6.481617325
 21
3.8847821826
  0
LINE
  5
36E
100
AcDbEntity
  8
0
100
AcDbLine
 62
7
  6
CONTINUOUS
 10
4.3717076156
 20
3.9179174921
 11
3.7462279962
 21
3.9179174921
  0
LINE
  5
36F
100
AcDbEntity
  8
0
100
AcDbLine
 62
7
  6
CONTINUOUS
 10
4.3717076156
 20
3.9662615637
 11
3.7462279962
 21
3.9662615637
  0
LINE
  5
370
100
AcDbEntity
  8
0
100
AcDbLine
 62
7
  6
CONTINUOUS
 10
2.993617325
 20
3.9777821826
 11
3.1638410467
 21
3.9777821826
  0
LINE
  5
371
100
AcDbEntity
  8
0
100
AcDbLine
 62
7
  6
CONTINUOUS
 10
3.200617325
 20
3.9877821826
 11
3.169617325
 21
3.9877821826
  0
LINE
  5
372
100
AcDbEntity
  8
0
100
AcDbLine
 62
7
  6
CONTINUOUS
 10
2.956617325
 20
3.9877821826
 11
2.950617325
 21
3.9877821826
  0
LINE
  5
373
100
AcDbEntity
  8
0
100
AcDbLine
 62
7
  6
CONTINUOUS
 10
2.978117325
 20
3.9932821826
 11
2.962117325
 21
3.9932821826
  0
LINE
  5
374
100
AcDbEntity
  8
0
100
AcDbLine
 62
7
  6
CONTINUOUS
 10
2.419617325
 20
4.0747821826
 11
2.618617325
 21
4.0747821826
  0
LINE
  5
375
100
AcDbEntity
  8
0
100
AcDbLine
 62
7
  6
CONTINUOUS
 10
2.656617325
 20
4.0747821826
 11
2.888617325
 21
4.0747821826
  0
LINE
  5
376
100
AcDbEntity
  8
03__ASM_ALL_CURVES
100
AcDbLine
 62
40
  6
CONTINUOUS
 10
3.5248095125
 20
5.3115951826
 11
3.5399438875
 21
5.3015056017
  0
LINE
  5
377
100
AcDbEntity
  8
03__ASM_ALL_CURVES
100
AcDbLine
 62
40
  6
CONTINUOUS
 10
3.880467325
 20
5.1905201826
 11
3.86533295
 21
5.2006097662
  0
LINE
  5
378
100
AcDbEntity
  8
03__ASM_ALL_CURVES
100
AcDbLine
 62
40
  6
CONTINUOUS
 10
6.6601356632
 20
3.4019759326
 11
6.6487848819
 21
3.4095431203
  0
LINE
  5
379
100
AcDbEntity
  8
03__ASM_ALL_CURVES
100
AcDbLine
 62
40
  6
CONTINUOUS
 10
6.5806801944
 20
3.4927821826
 11
6.5920309757
 21
3.4852149969
  0
LINE
  5
37A
100
AcDbEntity
  8
03__ASM_ALL_CURVES
100
AcDbLine
 62
40
  6
CONTINUOUS
 10
3.880467325
 20
5.3115951826
 11
3.8956017
 21
5.3015056017
  0
LINE
  5
37B
100
AcDbEntity
  8
03__ASM_ALL_CURVES
100
AcDbLine
 62
40
  6
CONTINUOUS
 10
4.5085438875
 20
5.3015056017
 11
4.516111075
 21
5.2914160135
  0
LINE
  5
37C
100
AcDbEntity
  8
03__ASM_ALL_CURVES
100
AcDbLine
 62
40
  6
CONTINUOUS
 10
4.5842157625
 20
5.2006097662
 11
4.5690813875
 21
5.2207889326
  0
LINE
  5
37D
100
AcDbEntity
  8
03__ASM_ALL_CURVES
100
AcDbLine
 62
40
  6
CONTINUOUS
 10
4.5842157625
 20
5.2712368517
 11
4.576648575
 21
5.2813264326
  0
LINE
  5
37E
100
AcDbEntity
  8
03__ASM_ALL_CURVES
100
AcDbLine
 62
40
  6
CONTINUOUS
 10
4.6296188875
 20
5.2510576826
 11
4.6447532625
 21
5.2308785171
  0
LINE
  5
37F
100
AcDbEntity
  8
03__ASM_ALL_CURVES
100
AcDbLine
 62
40
  6
CONTINUOUS
 10
4.6296188875
 20
5.3015056017
 11
4.637186075
 21
5.2914160135
  0
LINE
  5
380
100
AcDbEntity
  8
03__ASM_ALL_CURVES
100
AcDbLine
 62
40
  6
CONTINUOUS
 10
4.7204251375
 20
5.3115951826
 11
4.7355595125
 21
5.2914160135
  0
LINE
  5
381
100
AcDbEntity
  8
03__ASM_ALL_CURVES
100
AcDbLine
 62
40
  6
CONTINUOUS
 10
5.6580936879
 20
3.4776478058
 11
5.6580936879
 21
3.4700806201
  0
LINE
  5
382
100
AcDbEntity
  8
03__ASM_ALL_CURVES
100
AcDbLine
 62
40
  6
CONTINUOUS
 10
5.6637690785
 20
3.4322446835
 11
5.6637690785
 21
3.4246774951
  0
LINE
  5
383
100
AcDbEntity
  8
03__ASM_ALL_CURVES
100
AcDbLine
 62
40
  6
CONTINUOUS
 10
5.711327325
 20
5.1663051826
 11
5.711327325
 21
5.1178751826
  0
LINE
  5
384
100
AcDbEntity
  8
0
100
AcDbLine
 62
7
  6
CONTINUOUS
 10
5.7593695038
 20
3.8007821826
 11
5.7593695038
 21
4.7167821826
  0
LINE
  5
385
100
AcDbEntity
  8
0
100
AcDbLine
 62
7
  6
CONTINUOUS
 10
5.7767561687
 20
3.7874409254
 11
5.7767561687
 21
4.7301234398
  0
LINE
  5
386
100
AcDbEntity
  8
0
100
AcDbLine
 62
7
  6
CONTINUOUS
 10
5.794617325
 20
3.7207821826
 11
5.794617325
 21
4.7967821826
  0
LINE
  5
387
100
AcDbEntity
  8
03__ASM_ALL_CURVES
100
AcDbLine
 62
40
  6
CONTINUOUS
 10
5.3970257191
 20
3.4473790576
 11
5.3913503285
 21
3.4246774951
  0
LINE
  5
388
100
AcDbEntity
  8
0
100
AcDbLine
 62
7
  6
CONTINUOUS
 10
5.4944784813
 20
3.7874409254
 11
5.476617325
 21
3.7207821826
  0
LINE
  5
389
100
AcDbEntity
  8
0
100
AcDbLine
 62
7
  6
CONTINUOUS
 10
5.794617325
 20
4.7967821826
 11
5.7767561687
 21
4.7301234398
  0
LINE
  5
38A
100
AcDbEntity
  8
03__ASM_ALL_CURVES
100
AcDbLine
 62
40
  6
CONTINUOUS
 10
5.3856749467
 20
3.2627396826
 11
5.4140518998
 21
3.3535459326
  0
LINE
  5
38B
100
AcDbEntity
  8
THREAD
100
AcDbLine
 62
7
  6
CONTINUOUS
 10
6.0665566352
 20
4.7547821826
 11
6.0483701017
 21
4.7232821826
  0
LINE
  5
38C
100
AcDbEntity
  8
03__ASM_ALL_CURVES
100
AcDbLine
 62
40
  6
CONTINUOUS
 10
5.1024183177
 20
3.4927821826
 11
5.0626905834
 21
3.4246774951
  0
LINE
  5
38D
100
AcDbEntity
  8
03__ASM_ALL_CURVES
100
AcDbLine
 62
40
  6
CONTINUOUS
 10
4.9264812084
 20
3.4625134344
 11
4.9208058177
 21
3.4549462433
  0
LINE
  5
38E
100
AcDbEntity
  8
03__ASM_ALL_CURVES
100
AcDbLine
 62
40
  6
CONTINUOUS
 10
4.8385126461
 20
3.3232771844
 11
4.8328372555
 21
3.3157099933
  0
LINE
  5
38F
100
AcDbEntity
  8
03__ASM_ALL_CURVES
100
AcDbLine
 62
40
  6
CONTINUOUS
 10
6.3530248258
 20
5.2106993499
 11
6.3454576383
 21
5.2006097662
  0
LINE
  5
390
100
AcDbEntity
  8
03__ASM_ALL_CURVES
100
AcDbLine
 62
40
  6
CONTINUOUS
 10
6.9508326383
 20
5.2006097662
 11
6.9356982633
 21
5.1905201826
  0
LINE
  5
391
100
AcDbEntity
  8
03__ASM_ALL_CURVES
100
AcDbLine
 62
40
  6
CONTINUOUS
 10
7.1627138883
 20
5.3115951826
 11
7.1475795133
 21
5.3015056017
  0
LINE
  5
392
100
AcDbEntity
  8
03__ASM_ALL_CURVES
100
AcDbLine
 62
40
  6
CONTINUOUS
 10
7.1929826383
 20
5.2006097662
 11
7.1778482633
 21
5.1905201826
  0
LINE
  5
393
100
AcDbEntity
  8
0
100
AcDbLine
 62
7
  6
CONTINUOUS
 10
2.618617325
 20
4.1077821826
 11
2.620117325
 21
4.1077821826
  0
LINE
  5
394
100
AcDbEntity
  8
0
100
AcDbLine
 62
7
  6
CONTINUOUS
 10
2.655117325
 20
4.1077821826
 11
2.656617325
 21
4.1077821826
  0
LINE
  5
395
100
AcDbEntity
  8
03__ASM_ALL_CURVES
100
AcDbLine
 62
40
  6
CONTINUOUS
 10
9.2141141992
 20
4.1437609326
 11
9.1687110742
 21
4.1437609326
  0
LINE
  5
396
100
AcDbEntity
  8
03__ASM_ALL_CURVES
100
AcDbLine
 62
40
  6
CONTINUOUS
 10
9.0154755273
 20
4.1437609326
 11
9.004124746
 21
4.1437609326
  0
LINE
  5
397
100
AcDbEntity
  8
03__ASM_ALL_CURVES
100
AcDbLine
 62
40
  6
CONTINUOUS
 10
8.9246692773
 20
4.1437609326
 11
8.913318496
 21
4.1437609326
  0
LINE
  5
398
100
AcDbEntity
  8
03__ASM_ALL_CURVES
100
AcDbLine
 62
40
  6
CONTINUOUS
 10
8.8338630273
 20
4.1437609326
 11
8.822512246
 21
4.1437609326
  0
LINE
  5
399
100
AcDbEntity
  8
03__ASM_ALL_CURVES
100
AcDbLine
 62
40
  6
CONTINUOUS
 10
8.7600829492
 20
4.1437609326
 11
8.7146798242
 21
4.1437609326
  0
LINE
  5
39A
100
AcDbEntity
  8
03__ASM_ALL_CURVES
100
AcDbLine
 62
40
  6
CONTINUOUS
 10
8.3741563867
 20
4.1437609326
 11
8.3514548242
 21
4.1437609326
  0
LINE
  5
39B
100
AcDbEntity
  8
03__ASM_ALL_CURVES
100
AcDbLine
 62
40
  6
CONTINUOUS
 10
8.3060516992
 20
4.1437609326
 11
8.2606485742
 21
4.1437609326
  0
LINE
  5
39C
100
AcDbEntity
  8
03__ASM_ALL_CURVES
100
AcDbLine
 62
40
  6
CONTINUOUS
 10
8.1982192773
 20
4.1437609326
 11
8.186868496
 21
4.1437609326
  0
LINE
  5
39D
100
AcDbEntity
  8
03__ASM_ALL_CURVES
100
AcDbLine
 62
40
  6
CONTINUOUS
 10
8.1074130273
 20
4.1437609326
 11
8.096062246
 21
4.1437609326
  0
LINE
  5
39E
100
AcDbEntity
  8
03__ASM_ALL_CURVES
100
AcDbLine
 62
40
  6
CONTINUOUS
 10
8.0109313867
 20
4.1437609326
 11
7.9882298242
 21
4.1437609326
  0
LINE
  5
39F
100
AcDbEntity
  8
03__ASM_ALL_CURVES
100
AcDbLine
 62
40
  6
CONTINUOUS
 10
7.9428266992
 20
4.1437609326
 11
7.8974235742
 21
4.1437609326
  0
LINE
  5
3A0
100
AcDbEntity
  8
03__ASM_ALL_CURVES
100
AcDbLine
 62
40
  6
CONTINUOUS
 10
9.1062817773
 20
4.1891640576
 11
9.0779048242
 21
4.1891640576
  0
LINE
  5
3A1
100
AcDbEntity
  8
03__ASM_ALL_CURVES
100
AcDbLine
 62
40
  6
CONTINUOUS
 10
8.6522505273
 20
4.1891640576
 11
8.6238735742
 21
4.1891640576
  0
LINE
  5
3A2
100
AcDbEntity
  8
03__ASM_ALL_CURVES
100
AcDbLine
 62
40
  6
CONTINUOUS
 10
8.5614442773
 20
4.1891640576
 11
8.5330673242
 21
4.1891640576
  0
LINE
  5
3A3
100
AcDbEntity
  8
03__ASM_ALL_CURVES
100
AcDbLine
 62
40
  6
CONTINUOUS
 10
7.8349942773
 20
4.1891640576
 11
7.8066173242
 21
4.1891640576
  0
LINE
  5
3A4
100
AcDbEntity
  8
03__ASM_ALL_CURVES
100
AcDbLine
 62
40
  6
CONTINUOUS
 10
7.8974235742
 20
4.1891640576
 11
7.9258005273
 21
4.1891640576
  0
LINE
  5
3A5
100
AcDbEntity
  8
03__ASM_ALL_CURVES
100
AcDbLine
 62
40
  6
CONTINUOUS
 10
8.2606485742
 20
4.1891640576
 11
8.2890255273
 21
4.1891640576
  0
LINE
  5
3A6
100
AcDbEntity
  8
03__ASM_ALL_CURVES
100
AcDbLine
 62
40
  6
CONTINUOUS
 10
8.7146798242
 20
4.1891640576
 11
8.7430567773
 21
4.1891640576
  0
LINE
  5
3A7
100
AcDbEntity
  8
03__ASM_ALL_CURVES
100
AcDbLine
 62
40
  6
CONTINUOUS
 10
9.1687110742
 20
4.1891640576
 11
9.1970880273
 21
4.1891640576
  0
LINE
  5
3A8
100
AcDbEntity
  8
03__ASM_ALL_CURVES
100
AcDbLine
 62
40
  6
CONTINUOUS
 10
8.9246692773
 20
4.2345671826
 11
8.913318496
 21
4.2345671826
  0
LINE
  5
3A9
100
AcDbEntity
  8
03__ASM_ALL_CURVES
100
AcDbLine
 62
40
  6
CONTINUOUS
 10
8.8338630273
 20
4.2345671826
 11
8.822512246
 21
4.2345671826
  0
LINE
  5
3AA
100
AcDbEntity
  8
03__ASM_ALL_CURVES
100
AcDbLine
 62
40
  6
CONTINUOUS
 10
7.8066173242
 20
4.2345671826
 11
7.8349942773
 21
4.2345671826
  0
LINE
  5
3AB
100
AcDbEntity
  8
03__ASM_ALL_CURVES
100
AcDbLine
 62
40
  6
CONTINUOUS
 10
7.8974235742
 20
4.2345671826
 11
7.9428266992
 21
4.2345671826
  0
LINE
  5
3AC
100
AcDbEntity
  8
03__ASM_ALL_CURVES
100
AcDbLine
 62
40
  6
CONTINUOUS
 10
7.9882298242
 20
4.2345671826
 11
8.0109313867
 21
4.2345671826
  0
LINE
  5
3AD
100
AcDbEntity
  8
03__ASM_ALL_CURVES
100
AcDbLine
 62
40
  6
CONTINUOUS
 10
8.186868496
 20
4.2345671826
 11
8.1982192773
 21
4.2345671826
  0
LINE
  5
3AE
100
AcDbEntity
  8
03__ASM_ALL_CURVES
100
AcDbLine
 62
40
  6
CONTINUOUS
 10
8.2606485742
 20
4.2345671826
 11
8.3060516992
 21
4.2345671826
  0
LINE
  5
3AF
100
AcDbEntity
  8
03__ASM_ALL_CURVES
100
AcDbLine
 62
40
  6
CONTINUOUS
 10
8.3514548242
 20
4.2345671826
 11
8.3741563867
 21
4.2345671826
  0
LINE
  5
3B0
100
AcDbEntity
  8
03__ASM_ALL_CURVES
100
AcDbLine
 62
40
  6
CONTINUOUS
 10
8.5330673242
 20
4.2345671826
 11
8.5614442773
 21
4.2345671826
  0
LINE
  5
3B1
100
AcDbEntity
  8
03__ASM_ALL_CURVES
100
AcDbLine
 62
40
  6
CONTINUOUS
 10
8.6238735742
 20
4.2345671826
 11
8.6522505273
 21
4.2345671826
  0
LINE
  5
3B2
100
AcDbEntity
  8
03__ASM_ALL_CURVES
100
AcDbLine
 62
40
  6
CONTINUOUS
 10
8.7146798242
 20
4.2345671826
 11
8.7600829492
 21
4.2345671826
  0
LINE
  5
3B3
100
AcDbEntity
  8
03__ASM_ALL_CURVES
100
AcDbLine
 62
40
  6
CONTINUOUS
 10
9.0779048242
 20
4.2345671826
 11
9.1062817773
 21
4.2345671826
  0
LINE
  5
3B4
100
AcDbEntity
  8
03__ASM_ALL_CURVES
100
AcDbLine
 62
40
  6
CONTINUOUS
 10
9.1687110742
 20
4.2345671826
 11
9.2141141992
 21
4.2345671826
  0
LINE
  5
3B5
100
AcDbEntity
  8
0
100
AcDbLine
 62
7
  6
CONTINUOUS
 10
3.1387459146
 20
4.2587821826
 11
3.0370881763
 21
4.2587821826
  0
LINE
  5
3B6
100
AcDbEntity
  8
03__ASM_ALL_CURVES
100
AcDbLine
 62
40
  6
CONTINUOUS
 10
7.9258005273
 20
4.2829971826
 11
7.914449746
 21
4.2829971826
  0
LINE
  5
3B7
100
AcDbEntity
  8
03__ASM_ALL_CURVES
100
AcDbLine
 62
40
  6
CONTINUOUS
 10
4.1150501375
 20
5.1905201826
 11
4.0999157625
 21
5.2006097662
  0
LINE
  5
3B8
100
AcDbEntity
  8
03__ASM_ALL_CURVES
100
AcDbLine
 62
40
  6
CONTINUOUS
 10
6.6714864444
 20
3.4927821826
 11
6.6828372257
 21
3.4852149969
  0
LINE
  5
3B9
100
AcDbEntity
  8
03__ASM_ALL_CURVES
100
AcDbLine
 62
40
  6
CONTINUOUS
 10
6.7622926944
 20
3.4927821826
 11
6.7736434757
 21
3.4852149969
  0
LINE
  5
3BA
100
AcDbEntity
  8
03__ASM_ALL_CURVES
100
AcDbLine
 62
40
  6
CONTINUOUS
 10
4.1150501375
 20
5.2611472635
 11
4.0999157625
 21
5.2712368517
  0
LINE
  5
3BB
100
AcDbEntity
  8
03__ASM_ALL_CURVES
100
AcDbLine
 62
40
  6
CONTINUOUS
 10
4.1301845125
 20
5.2611472635
 11
4.1453188875
 21
5.2510576826
  0
LINE
  5
3BC
100
AcDbEntity
  8
03__ASM_ALL_CURVES
100
AcDbLine
 62
40
  6
CONTINUOUS
 10
4.1301845125
 20
5.3115951826
 11
4.1453188875
 21
5.3015056017
  0
LINE
  5
3BD
100
AcDbEntity
  8
03__ASM_ALL_CURVES
100
AcDbLine
 62
40
  6
CONTINUOUS
 10
6.9439051944
 20
3.4927821826
 11
6.9552559757
 21
3.4852149969
  0
LINE
  5
3BE
100
AcDbEntity
  8
03__ASM_ALL_CURVES
100
AcDbLine
 62
40
  6
CONTINUOUS
 10
4.4782751375
 20
5.1905201826
 11
4.4631407625
 21
5.2006097662
  0
LINE
  5
3BF
100
AcDbEntity
  8
THREAD
100
AcDbLine
 62
7
  6
CONTINUOUS
 10
6.0665566352
 20
3.7627821826
 11
6.0483701017
 21
3.7942821826
  0
LINE
  5
3C0
100
AcDbEntity
  8
0
100
AcDbLine
 62
7
  6
CONTINUOUS
 10
5.4944784813
 20
4.7301234398
 11
5.476617325
 21
4.7967821826
  0
LINE
  5
3C1
100
AcDbEntity
  8
0
100
AcDbLine
 62
7
  6
CONTINUOUS
 10
5.794617325
 20
3.7207821826
 11
5.7767561687
 21
3.7874409254
  0
LINE
  5
3C2
100
AcDbEntity
  8
0
100
AcDbLine
 62
7
  6
CONTINUOUS
 10
5.856617325
 20
3.7207821826
 11
5.856617325
 21
4.7967821826
  0
LINE
  5
3C3
100
AcDbEntity
  8
03__ASM_ALL_CURVES
100
AcDbLine
 62
40
  6
CONTINUOUS
 10
5.856617325
 20
4.8357471826
 11
5.856617325
 21
5.1905201826
  0
LINE
  5
3C4
100
AcDbEntity
  8
THREAD
100
AcDbLine
 62
7
  6
CONTINUOUS
 10
5.8722057822
 20
3.7442821826
 11
5.8722057822
 21
4.7732821826
  0
LINE
  5
3C5
100
AcDbEntity
  8
THREAD
100
AcDbLine
 62
7
  6
CONTINUOUS
 10
5.903617325
 20
3.7442821826
 11
5.903617325
 21
4.7732821826
  0
LINE
  5
3C6
100
AcDbEntity
  8
0
100
AcDbLine
 62
7
  6
CONTINUOUS
 10
5.973617325
 20
3.7467821826
 11
5.973617325
 21
4.7707821826
  0
LINE
  5
3C7
100
AcDbEntity
  8
03__ASM_ALL_CURVES
100
AcDbLine
 62
40
  6
CONTINUOUS
 10
6.001907325
 20
5.1663051826
 11
6.001907325
 21
5.1178751826
  0
LINE
  5
3C8
100
AcDbEntity
  8
0
100
AcDbLine
 62
7
  6
CONTINUOUS
 10
6.023617325
 20
3.7467821826
 11
6.023617325
 21
4.7707821826
  0
LINE
  5
3C9
100
AcDbEntity
  8
THREAD
100
AcDbLine
 62
7
  6
CONTINUOUS
 10
6.0371117715
 20
3.8007821826
 11
6.0371117715
 21
4.7167821826
  0
LINE
  5
3CA
100
AcDbEntity
  8
THREAD
100
AcDbLine
 62
7
  6
CONTINUOUS
 10
6.0483701017
 20
3.7942821826
 11
6.0483701017
 21
4.7232821826
  0
LINE
  5
3CB
100
AcDbEntity
  8
03__ASM_ALL_CURVES
100
AcDbLine
 62
40
  6
CONTINUOUS
 10
6.0503373258
 20
5.3115951826
 11
6.0503373258
 21
5.1905201826
  0
LINE
  5
3CC
100
AcDbEntity
  8
THREAD
100
AcDbLine
 62
7
  6
CONTINUOUS
 10
6.0665566352
 20
3.7627821826
 11
6.0665566352
 21
4.7547821826
  0
LINE
  5
3CD
100
AcDbEntity
  8
03__ASM_ALL_CURVES
100
AcDbLine
 62
40
  6
CONTINUOUS
 10
6.1562779508
 20
5.2510576826
 11
6.1638451383
 21
5.2813264326
  0
LINE
  5
3CE
100
AcDbEntity
  8
03__ASM_ALL_CURVES
100
AcDbLine
 62
40
  6
CONTINUOUS
 10
6.2470842008
 20
5.2510576826
 11
6.2395170133
 21
5.2207889326
  0
LINE
  5
3CF
100
AcDbEntity
  8
03__ASM_ALL_CURVES
100
AcDbLine
 62
40
  6
CONTINUOUS
 10
6.2773529508
 20
5.2510576826
 11
6.2849201383
 21
5.2813264326
  0
LINE
  5
3D0
100
AcDbEntity
  8
03__ASM_ALL_CURVES
100
AcDbLine
 62
40
  6
CONTINUOUS
 10
5.2948686879
 20
3.4625134344
 11
5.2891932973
 21
3.4549462433
  0
LINE
  5
3D1
100
AcDbEntity
  8
03__ASM_ALL_CURVES
100
AcDbLine
 62
40
  6
CONTINUOUS
 10
5.3345964223
 20
3.4700806201
 11
5.3459472035
 21
3.4852149969
  0
LINE
  5
3D2
100
AcDbEntity
  8
03__ASM_ALL_CURVES
100
AcDbLine
 62
40
  6
CONTINUOUS
 10
5.3913503285
 20
3.4246774951
 11
5.3799995473
 21
3.4095431203
  0
LINE
  5
3D3
100
AcDbEntity
  8
03__ASM_ALL_CURVES
100
AcDbLine
 62
40
  6
CONTINUOUS
 10
5.4764811879
 20
3.4625134344
 11
5.4708057973
 21
3.4549462433
  0
LINE
  5
3D4
100
AcDbEntity
  8
03__ASM_ALL_CURVES
100
AcDbLine
 62
40
  6
CONTINUOUS
 10
7.3897295133
 20
5.3015056017
 11
7.4048638883
 21
5.3115951826
  0
LINE
  5
3D5
100
AcDbEntity
  8
03__ASM_ALL_CURVES
100
AcDbLine
 62
40
  6
CONTINUOUS
 10
4.7391933177
 20
3.4549462433
 11
4.7278425365
 21
3.4473790576
  0
LINE
  5
3D6
100
AcDbEntity
  8
03__ASM_ALL_CURVES
100
AcDbLine
 62
40
  6
CONTINUOUS
 10
4.795947224
 20
3.4852149969
 11
4.8072980052
 21
3.4927821826
  0
LINE
  5
3D7
100
AcDbEntity
  8
03__ASM_ALL_CURVES
100
AcDbLine
 62
40
  6
CONTINUOUS
 10
7.4351326383
 20
5.2006097662
 11
7.4199982633
 21
5.1905201826
  0
LINE
  5
3D8
100
AcDbEntity
  8
03__ASM_ALL_CURVES
100
AcDbLine
 62
40
  6
CONTINUOUS
 10
4.8299995677
 20
3.4095431203
 11
4.8186487865
 21
3.4019759326
  0
LINE
  5
3D9
100
AcDbEntity
  8
03__ASM_ALL_CURVES
100
AcDbLine
 62
40
  6
CONTINUOUS
 10
4.9208058177
 20
3.4549462433
 11
4.9094550365
 21
3.4473790576
  0
LINE
  5
3DA
100
AcDbEntity
  8
03__ASM_ALL_CURVES
100
AcDbLine
 62
40
  6
CONTINUOUS
 10
7.5562076383
 20
5.2006097662
 11
7.5410732633
 21
5.1905201826
  0
LINE
  5
3DB
100
AcDbEntity
  8
03__ASM_ALL_CURVES
100
AcDbLine
 62
40
  6
CONTINUOUS
 10
4.7363556149
 20
3.2703068703
 11
4.7250048336
 21
3.2627396826
  0
LINE
  5
3DC
100
AcDbEntity
  8
03__ASM_ALL_CURVES
100
AcDbLine
 62
40
  6
CONTINUOUS
 10
8.0166067773
 20
4.3284003076
 11
7.9882298242
 21
4.3284003076
  0
LINE
  5
3DD
100
AcDbEntity
  8
03__ASM_ALL_CURVES
100
AcDbLine
 62
40
  6
CONTINUOUS
 10
7.8349942773
 20
4.3284003076
 11
7.8066173242
 21
4.3284003076
  0
LINE
  5
3DE
100
AcDbEntity
  8
03__ASM_ALL_CURVES
100
AcDbLine
 62
40
  6
CONTINUOUS
 10
7.8066173242
 20
4.3738034326
 11
7.8349942773
 21
4.3738034326
  0
LINE
  5
3DF
100
AcDbEntity
  8
03__ASM_ALL_CURVES
100
AcDbLine
 62
40
  6
CONTINUOUS
 10
7.914449746
 20
4.3738034326
 11
7.9258005273
 21
4.3738034326
  0
LINE
  5
3E0
100
AcDbEntity
  8
03__ASM_ALL_CURVES
100
AcDbLine
 62
40
  6
CONTINUOUS
 10
7.9882298242
 20
4.3738034326
 11
8.0166067773
 21
4.3738034326
  0
LINE
  5
3E1
100
AcDbEntity
  8
03__ASM_ALL_CURVES
100
AcDbLine
 62
40
  6
CONTINUOUS
 10
8.0733606835
 20
4.3738034326
 11
8.1301145898
 21
4.3738034326
  0
LINE
  5
3E2
100
AcDbEntity
  8
0
100
AcDbLine
 62
7
  6
CONTINUOUS
 10
2.618617325
 20
4.4097821826
 11
2.656617325
 21
4.4097821826
  0
LINE
  5
3E3
100
AcDbEntity
  8
0
100
AcDbLine
 62
7
  6
CONTINUOUS
 10
2.419617325
 20
4.4427821826
 11
2.618617325
 21
4.4427821826
  0
LINE
  5
3E4
100
AcDbEntity
  8
0
100
AcDbLine
 62
7
  6
CONTINUOUS
 10
2.656617325
 20
4.4427821826
 11
2.888617325
 21
4.4427821826
  0
LINE
  5
3E5
100
AcDbEntity
  8
0
100
AcDbLine
 62
7
  6
CONTINUOUS
 10
2.978117325
 20
4.5242821826
 11
2.962117325
 21
4.5242821826
  0
LINE
  5
3E6
100
AcDbEntity
  8
0
100
AcDbLine
 62
7
  6
CONTINUOUS
 10
3.200617325
 20
4.5297821826
 11
3.169617325
 21
4.5297821826
  0
LINE
  5
3E7
100
AcDbEntity
  8
0
100
AcDbLine
 62
7
  6
CONTINUOUS
 10
2.956617325
 20
4.5297821826
 11
2.950617325
 21
4.5297821826
  0
LINE
  5
3E8
100
AcDbEntity
  8
0
100
AcDbLine
 62
7
  6
CONTINUOUS
 10
2.993617325
 20
4.5397821826
 11
3.1638410467
 21
4.5397821826
  0
LINE
  5
3E9
100
AcDbEntity
  8
0
100
AcDbLine
 62
7
  6
CONTINUOUS
 10
4.3717076156
 20
4.5513028015
 11
3.7462279962
 21
4.5513028015
  0
LINE
  5
3EA
100
AcDbEntity
  8
03__ASM_ALL_CURVES
100
AcDbLine
 62
40
  6
CONTINUOUS
 10
3.880467325
 20
5.2611472635
 11
3.9031688875
 21
5.2510576826
  0
LINE
  5
3EB
100
AcDbEntity
  8
03__ASM_ALL_CURVES
100
AcDbLine
 62
40
  6
CONTINUOUS
 10
4.4782751375
 20
5.2611472635
 11
4.4631407625
 21
5.2712368517
  0
LINE
  5
3EC
100
AcDbEntity
  8
03__ASM_ALL_CURVES
100
AcDbLine
 62
40
  6
CONTINUOUS
 10
4.5993501375
 20
5.1905201826
 11
4.5842157625
 21
5.2006097662
  0
LINE
  5
3ED
100
AcDbEntity
  8
03__ASM_ALL_CURVES
100
AcDbLine
 62
40
  6
CONTINUOUS
 10
4.4934095125
 20
5.2611472635
 11
4.5085438875
 21
5.2510576826
  0
LINE
  5
3EE
100
AcDbEntity
  8
03__ASM_ALL_CURVES
100
AcDbLine
 62
40
  6
CONTINUOUS
 10
4.4934095125
 20
5.3115951826
 11
4.5085438875
 21
5.3015056017
  0
LINE
  5
3EF
100
AcDbEntity
  8
03__ASM_ALL_CURVES
100
AcDbLine
 62
40
  6
CONTINUOUS
 10
4.5993501375
 20
5.2611472635
 11
4.5842157625
 21
5.2712368517
  0
LINE
  5
3F0
100
AcDbEntity
  8
03__ASM_ALL_CURVES
100
AcDbLine
 62
40
  6
CONTINUOUS
 10
4.6144845125
 20
5.2611472635
 11
4.6296188875
 21
5.2510576826
  0
LINE
  5
3F1
100
AcDbEntity
  8
03__ASM_ALL_CURVES
100
AcDbLine
 62
40
  6
CONTINUOUS
 10
4.6144845125
 20
5.3115951826
 11
4.6296188875
 21
5.3015056017
  0
LINE
  5
3F2
100
AcDbEntity
  8
03__ASM_ALL_CURVES
100
AcDbLine
 62
40
  6
CONTINUOUS
 10
6.6487848819
 20
3.4095431203
 11
6.6374341007
 21
3.4246774951
  0
LINE
  5
3F3
100
AcDbEntity
  8
03__ASM_ALL_CURVES
100
AcDbLine
 62
40
  6
CONTINUOUS
 10
6.5920309757
 20
3.4852149969
 11
6.5977063663
 21
3.4776478058
  0
LINE
  5
3F4
100
AcDbEntity
  8
03__ASM_ALL_CURVES
100
AcDbLine
 62
40
  6
CONTINUOUS
 10
6.6828372257
 20
3.4852149969
 11
6.6941880069
 21
3.4700806201
  0
LINE
  5
3F5
100
AcDbEntity
  8
03__ASM_ALL_CURVES
100
AcDbLine
 62
40
  6
CONTINUOUS
 10
6.4059951383
 20
5.1905201826
 11
6.4438310758
 21
5.3115951826
  0
LINE
  5
3F6
100
AcDbEntity
  8
03__ASM_ALL_CURVES
100
AcDbLine
 62
40
  6
CONTINUOUS
 10
6.8902951383
 20
5.2813264326
 11
6.9054295133
 21
5.3015056017
  0
LINE
  5
3F7
100
AcDbEntity
  8
03__ASM_ALL_CURVES
100
AcDbLine
 62
40
  6
CONTINUOUS
 10
6.9583998258
 20
5.2106993499
 11
6.9508326383
 21
5.2006097662
  0
LINE
  5
3F8
100
AcDbEntity
  8
03__ASM_ALL_CURVES
100
AcDbLine
 62
40
  6
CONTINUOUS
 10
5.6580936879
 20
3.4700806201
 11
5.6524182973
 21
3.4625134344
  0
LINE
  5
3F9
100
AcDbEntity
  8
03__ASM_ALL_CURVES
100
AcDbLine
 62
40
  6
CONTINUOUS
 10
5.6637690785
 20
3.4246774951
 11
5.6524182973
 21
3.4095431203
  0
LINE
  5
3FA
100
AcDbEntity
  8
03__ASM_ALL_CURVES
100
AcDbLine
 62
40
  6
CONTINUOUS
 10
7.1475795133
 20
5.3015056017
 11
7.1400123258
 21
5.2914160135
  0
LINE
  5
3FB
100
AcDbEntity
  8
03__ASM_ALL_CURVES
100
AcDbLine
 62
40
  6
CONTINUOUS
 10
5.5729628373
 20
3.3005756192
 11
5.6183659623
 21
3.3535459326
  0
LINE
  5
3FC
100
AcDbEntity
  8
03__ASM_ALL_CURVES
100
AcDbLine
 62
40
  6
CONTINUOUS
 10
4.8328372555
 20
3.3157099933
 11
4.8214864742
 21
3.3081428076
  0
LINE
  5
3FD
100
AcDbEntity
  8
03__ASM_ALL_CURVES
100
AcDbLine
 62
40
  6
CONTINUOUS
 10
7.7907904508
 20
5.2006097662
 11
7.7756560758
 21
5.1905201826
  0
LINE
  5
3FE
100
AcDbEntity
  8
03__ASM_ALL_CURVES
100
AcDbLine
 62
40
  6
CONTINUOUS
 10
5.2891932973
 20
3.4549462433
 11
5.277842516
 21
3.4473790576
  0
LINE
  5
3FF
100
AcDbEntity
  8
03__ASM_ALL_CURVES
100
AcDbLine
 62
40
  6
CONTINUOUS
 10
5.3459472035
 20
3.4852149969
 11
5.3572979848
 21
3.4927821826
  0
LINE
  5
400
100
AcDbEntity
  8
03__ASM_ALL_CURVES
100
AcDbLine
 62
40
  6
CONTINUOUS
 10
8.0405076383
 20
5.2611472635
 11
8.0253732633
 21
5.2510576826
  0
LINE
  5
401
100
AcDbEntity
  8
03__ASM_ALL_CURVES
100
AcDbLine
 62
40
  6
CONTINUOUS
 10
5.3799995473
 20
3.4095431203
 11
5.368648766
 21
3.4019759326
  0
LINE
  5
402
100
AcDbEntity
  8
THREAD
100
AcDbLine
 62
7
  6
CONTINUOUS
 10
5.8722057822
 20
3.7442821826
 11
5.856617325
 21
3.7352821826
  0
LINE
  5
403
100
AcDbEntity
  8
0
100
AcDbLine
 62
7
  6
CONTINUOUS
 10
4.3717076156
 20
4.5996468731
 11
3.7462279962
 21
4.5996468731
  0
LINE
  5
404
100
AcDbEntity
  8
0
100
AcDbLine
 62
7
  6
CONTINUOUS
 10
6.910617325
 20
4.6327821826
 11
6.721617325
 21
4.6327821826
  0
LINE
  5
405
100
AcDbEntity
  8
0
100
AcDbLine
 62
7
  6
CONTINUOUS
 10
6.565617325
 20
4.6327821826
 11
6.481617325
 21
4.6327821826
  0
LINE
  5
406
100
AcDbEntity
  8
0
100
AcDbLine
 62
7
  6
CONTINUOUS
 10
7.149117325
 20
4.6367821826
 11
7.140617325
 21
4.6367821826
  0
LINE
  5
407
100
AcDbEntity
  8
0
100
AcDbLine
 62
7
  6
CONTINUOUS
 10
6.970617325
 20
4.6907821826
 11
7.020617325
 21
4.6907821826
  0
LINE
  5
408
100
AcDbEntity
  8
0
100
AcDbLine
 62
7
  6
CONTINUOUS
 10
7.090617325
 20
4.6907821826
 11
7.140617325
 21
4.6907821826
  0
LINE
  5
409
100
AcDbEntity
  8
0
100
AcDbLine
 62
7
  6
CONTINUOUS
 10
7.165117325
 20
4.6950321826
 11
7.226117325
 21
4.6950321826
  0
LINE
  5
40A
100
AcDbEntity
  8
0
100
AcDbLine
 62
7
  6
CONTINUOUS
 10
6.910617325
 20
4.6952821826
 11
6.970617325
 21
4.6952821826
  0
LINE
  5
40B
100
AcDbEntity
  8
THREAD
100
AcDbLine
 62
7
  6
CONTINUOUS
 10
6.465617325
 20
4.7107821826
 11
6.381617325
 21
4.7107821826
  0
LINE
  5
40C
100
AcDbEntity
  8
THREAD
100
AcDbLine
 62
7
  6
CONTINUOUS
 10
6.0371117715
 20
4.7167821826
 11
6.023617325
 21
4.7167821826
  0
LINE
  5
40D
100
AcDbEntity
  8
0
100
AcDbLine
 62
7
  6
CONTINUOUS
 10
5.7593695038
 20
4.7167821826
 11
5.723117325
 21
4.7167821826
  0
LINE
  5
40E
100
AcDbEntity
  8
0
100
AcDbLine
 62
7
  6
CONTINUOUS
 10
5.552117325
 20
4.7167821826
 11
5.5118651462
 21
4.7167821826
  0
LINE
  5
40F
100
AcDbEntity
  8
0
100
AcDbLine
 62
7
  6
CONTINUOUS
 10
5.429617325
 20
4.7412821826
 11
5.401617325
 21
4.7412821826
  0
LINE
  5
410
100
AcDbEntity
  8
0
100
AcDbLine
 62
7
  6
CONTINUOUS
 10
5.149934259
 20
4.7412821826
 11
4.8703196288
 21
4.7412821826
  0
LINE
  5
411
100
AcDbEntity
  8
THREAD
100
AcDbLine
 62
7
  6
CONTINUOUS
 10
6.337617325
 20
4.7547821826
 11
6.0665566352
 21
4.7547821826
  0
LINE
  5
412
100
AcDbEntity
  8
0
100
AcDbLine
 62
7
  6
CONTINUOUS
 10
4.778617325
 20
4.7557821826
 11
4.757617325
 21
4.7557821826
  0
LINE
  5
413
100
AcDbEntity
  8
0
100
AcDbLine
 62
7
  6
CONTINUOUS
 10
3.700617325
 20
4.7557821826
 11
3.262617325
 21
4.7557821826
  0
LINE
  5
414
100
AcDbEntity
  8
0
100
AcDbLine
 62
7
  6
CONTINUOUS
 10
5.973617325
 20
4.7707821826
 11
6.023617325
 21
4.7707821826
  0
LINE
  5
415
100
AcDbEntity
  8
THREAD
100
AcDbLine
 62
7
  6
CONTINUOUS
 10
5.903617325
 20
4.7732821826
 11
5.8722057822
 21
4.7732821826
  0
LINE
  5
416
100
AcDbEntity
  8
03__ASM_ALL_CURVES
100
AcDbLine
 62
40
  6
CONTINUOUS
 10
2.533907325
 20
5.1259468493
 11
2.388617325
 21
5.1420901826
  0
LINE
  5
417
100
AcDbEntity
  8
03__ASM_ALL_CURVES
100
AcDbLine
 62
40
  6
CONTINUOUS
 10
2.533907325
 20
5.1219110159
 11
2.388617325
 21
5.1420901826
  0
LINE
  5
418
100
AcDbEntity
  8
03__ASM_ALL_CURVES
100
AcDbLine
 62
40
  6
CONTINUOUS
 10
2.533907325
 20
5.1178751826
 11
2.388617325
 21
5.1420901826
  0
LINE
  5
419
100
AcDbEntity
  8
THREAD
100
AcDbLine
 62
7
  6
CONTINUOUS
 10
5.8722057822
 20
4.7732821826
 11
5.856617325
 21
4.7822821826
  0
LINE
  5
41A
100
AcDbEntity
  8
03__ASM_ALL_CURVES
100
AcDbLine
 62
40
  6
CONTINUOUS
 10
6.7736434757
 20
3.4852149969
 11
6.7793188663
 21
3.4776478058
  0
LINE
  5
41B
100
AcDbEntity
  8
03__ASM_ALL_CURVES
100
AcDbLine
 62
40
  6
CONTINUOUS
 10
6.9552559757
 20
3.4852149969
 11
6.9609313663
 21
3.4776478058
  0
LINE
  5
41C
100
AcDbEntity
  8
03__ASM_ALL_CURVES
100
AcDbLine
 62
40
  6
CONTINUOUS
 10
6.6289210508
 20
3.3535459326
 11
6.6743241758
 21
3.2627396826
  0
LINE
  5
41D
100
AcDbEntity
  8
THREAD
100
AcDbLine
 62
7
  6
CONTINUOUS
 10
6.337617325
 20
3.7627821826
 11
6.337617325
 21
4.7547821826
  0
LINE
  5
41E
100
AcDbEntity
  8
THREAD
100
AcDbLine
 62
7
  6
CONTINUOUS
 10
6.381617325
 20
3.8067821826
 11
6.381617325
 21
4.7107821826
  0
LINE
  5
41F
100
AcDbEntity
  8
0
100
AcDbLine
 62
7
  6
CONTINUOUS
 10
6.465617325
 20
3.8067821826
 11
6.465617325
 21
4.7107821826
  0
LINE
  5
420
100
AcDbEntity
  8
0
100
AcDbLine
 62
7
  6
CONTINUOUS
 10
6.481617325
 20
3.8227821826
 11
6.481617325
 21
4.6947821826
  0
LINE
  5
421
100
AcDbEntity
  8
03__ASM_ALL_CURVES
100
AcDbLine
 62
40
  6
CONTINUOUS
 10
7.2005498258
 20
5.2106993499
 11
7.1929826383
 21
5.2006097662
  0
LINE
  5
422
100
AcDbEntity
  8
03__ASM_ALL_CURVES
100
AcDbLine
 62
40
  6
CONTINUOUS
 10
7.3745951383
 20
5.2813264326
 11
7.3897295133
 21
5.3015056017
  0
LINE
  5
423
100
AcDbEntity
  8
0
100
AcDbLine
 62
7
  6
CONTINUOUS
 10
7.149117325
 20
4.6790321826
 11
7.165117325
 21
4.6950321826
  0
LINE
  5
424
100
AcDbEntity
  8
03__ASM_ALL_CURVES
100
AcDbLine
 62
40
  6
CONTINUOUS
 10
5.4708057973
 20
3.4549462433
 11
5.459455016
 21
3.4473790576
  0
LINE
  5
425
100
AcDbEntity
  8
03__ASM_ALL_CURVES
100
AcDbLine
 62
40
  6
CONTINUOUS
 10
5.6183659535
 20
3.4852149969
 11
5.6297167348
 21
3.4927821826
  0
LINE
  5
426
100
AcDbEntity
  8
03__ASM_ALL_CURVES
100
AcDbLine
 62
40
  6
CONTINUOUS
 10
5.6524182973
 20
3.4625134344
 11
5.641067516
 21
3.4549462433
  0
LINE
  5
427
100
AcDbEntity
  8
03__ASM_ALL_CURVES
100
AcDbLine
 62
40
  6
CONTINUOUS
 10
5.6524182973
 20
3.4095431203
 11
5.641067516
 21
3.4019759326
  0
LINE
  5
428
100
AcDbEntity
  8
0
100
AcDbLine
 62
7
  6
CONTINUOUS
 10
5.856617325
 20
4.7967821826
 11
5.794617325
 21
4.7967821826
  0
LINE
  5
429
100
AcDbEntity
  8
0
100
AcDbLine
 62
7
  6
CONTINUOUS
 10
5.476617325
 20
4.7967821826
 11
5.429617325
 21
4.7967821826
  0
LINE
  5
42A
100
AcDbEntity
  8
0
100
AcDbLine
 62
7
  6
CONTINUOUS
 10
5.231617325
 20
4.7967821826
 11
5.178617325
 21
4.7967821826
  0
LINE
  5
42B
100
AcDbEntity
  8
0
100
AcDbLine
 62
7
  6
CONTINUOUS
 10
4.637617325
 20
4.8097821826
 11
4.687617325
 21
4.8097821826
  0
LINE
  5
42C
100
AcDbEntity
  8
0
100
AcDbLine
 62
7
  6
CONTINUOUS
 10
5.231617325
 20
4.8097821826
 11
5.281617325
 21
4.8097821826
  0
LINE
  5
42D
100
AcDbEntity
  8
0
100
AcDbLine
 62
7
  6
CONTINUOUS
 10
5.351617325
 20
4.8097821826
 11
5.401617325
 21
4.8097821826
  0
LINE
  5
42E
100
AcDbEntity
  8
0
100
AcDbLine
 62
7
  6
CONTINUOUS
 10
4.637617325
 20
4.8115321826
 11
4.418617325
 21
4.8115321826
  0
LINE
  5
42F
100
AcDbEntity
  8
0
100
AcDbLine
 62
7
  6
CONTINUOUS
 10
4.837617325
 20
4.8117821826
 11
4.778617325
 21
4.8117821826
  0
LINE
  5
430
100
AcDbEntity
  8
0
100
AcDbLine
 62
7
  6
CONTINUOUS
 10
4.3717076156
 20
4.8921674921
 11
3.7462279962
 21
4.8921674921
  0
LINE
  5
431
100
AcDbEntity
  8
0
100
AcDbLine
 62
7
  6
CONTINUOUS
 10
4.3717076156
 20
4.8927821826
 11
3.7462279962
 21
4.8927821826
  0
LINE
  5
432
100
AcDbEntity
  8
03__ASM_ALL_CURVES
100
AcDbLine
 62
40
  6
CONTINUOUS
 10
2.533907325
 20
5.1340185159
 11
2.388617325
 21
5.1420901826
  0
LINE
  5
433
100
AcDbEntity
  8
03__ASM_ALL_CURVES
100
AcDbLine
 62
40
  6
CONTINUOUS
 10
2.533907325
 20
5.1299826826
 11
2.388617325
 21
5.1420901826
  0
LINE
  5
434
100
AcDbEntity
  8
0
100
AcDbLine
 62
7
  6
CONTINUOUS
 10
7.149117325
 20
3.8385321826
 11
7.165117325
 21
3.8225321826
  0
LINE
  5
435
100
AcDbEntity
  8
THREAD
100
AcDbLine
 62
7
  6
CONTINUOUS
 10
6.381617325
 20
4.7107821826
 11
6.337617325
 21
4.7547821826
  0
LINE
  5
436
100
AcDbEntity
  8
03__ASM_ALL_CURVES
100
AcDbLine
 62
40
  6
CONTINUOUS
 10
6.7622926944
 20
3.4473790576
 11
6.7793188663
 21
3.4019759326
  0
LINE
  5
437
100
AcDbEntity
  8
03__ASM_ALL_CURVES
100
AcDbLine
 62
40
  6
CONTINUOUS
 10
6.1638451383
 20
5.2207889326
 11
6.1562779508
 21
5.2510576826
  0
LINE
  5
438
100
AcDbEntity
  8
03__ASM_ALL_CURVES
100
AcDbLine
 62
40
  6
CONTINUOUS
 10
6.6374341007
 20
3.4246774951
 11
6.63175871
 21
3.4473790576
  0
LINE
  5
439
100
AcDbEntity
  8
03__ASM_ALL_CURVES
100
AcDbLine
 62
40
  6
CONTINUOUS
 10
6.2395170133
 20
5.2813264326
 11
6.2470842008
 21
5.2510576826
  0
LINE
  5
43A
100
AcDbEntity
  8
03__ASM_ALL_CURVES
100
AcDbLine
 62
40
  6
CONTINUOUS
 10
6.6941880069
 20
3.4700806201
 11
6.6998633975
 21
3.4473790576
  0
LINE
  5
43B
100
AcDbEntity
  8
03__ASM_ALL_CURVES
100
AcDbLine
 62
40
  6
CONTINUOUS
 10
6.2849201383
 20
5.2207889326
 11
6.2773529508
 21
5.2510576826
  0
LINE
  5
43C
100
AcDbEntity
  8
03__ASM_ALL_CURVES
100
AcDbLine
 62
40
  6
CONTINUOUS
 10
6.5523032413
 20
3.4019759326
 11
6.5523032413
 21
3.4927821826
  0
LINE
  5
43D
100
AcDbEntity
  8
03__ASM_ALL_CURVES
100
AcDbLine
 62
40
  6
CONTINUOUS
 10
6.5608163633
 20
3.3535459326
 11
6.5608163633
 21
3.2627396826
  0
LINE
  5
43E
100
AcDbEntity
  8
03__ASM_ALL_CURVES
100
AcDbLine
 62
40
  6
CONTINUOUS
 10
6.5649060758
 20
5.3115951826
 11
6.5649060758
 21
5.1905201826
  0
LINE
  5
43F
100
AcDbEntity
  8
03__ASM_ALL_CURVES
100
AcDbLine
 62
40
  6
CONTINUOUS
 10
6.5977063663
 20
3.4776478058
 11
6.5977063663
 21
3.4625134344
  0
LINE
  5
440
100
AcDbEntity
  8
03__ASM_ALL_CURVES
100
AcDbLine
 62
40
  6
CONTINUOUS
 10
6.6289210508
 20
3.2627396826
 11
6.6289210508
 21
3.3535459326
  0
LINE
  5
441
100
AcDbEntity
  8
03__ASM_ALL_CURVES
100
AcDbLine
 62
40
  6
CONTINUOUS
 10
6.6743241758
 20
3.2627396826
 11
6.6743241758
 21
3.3535459326
  0
LINE
  5
442
100
AcDbEntity
  8
0
100
AcDbLine
 62
7
  6
CONTINUOUS
 10
6.685617325
 20
4.0409986246
 11
6.685617325
 21
4.0444063001
  0
LINE
  5
443
100
AcDbEntity
  8
0
100
AcDbLine
 62
7
  6
CONTINUOUS
 10
6.685617325
 20
4.193437819
 11
6.685617325
 21
4.3242074905
  0
LINE
  5
444
100
AcDbEntity
  8
0
100
AcDbLine
 62
7
  6
CONTINUOUS
 10
6.685617325
 20
4.4731580575
 11
6.685617325
 21
4.4765632863
  0
LINE
  5
445
100
AcDbEntity
  8
03__ASM_ALL_CURVES
100
AcDbLine
 62
40
  6
CONTINUOUS
 10
6.6859810758
 20
5.3115951826
 11
6.6859810758
 21
5.1905201826
  0
LINE
  5
446
100
AcDbEntity
  8
03__ASM_ALL_CURVES
100
AcDbLine
 62
40
  6
CONTINUOUS
 10
6.7197273008
 20
3.3535459326
 11
6.7197273008
 21
3.2627396826
  0
LINE
  5
447
100
AcDbEntity
  8
03__ASM_ALL_CURVES
100
AcDbLine
 62
40
  6
CONTINUOUS
 10
6.7339157413
 20
3.4019759326
 11
6.7339157413
 21
3.4927821826
  0
LINE
  5
448
100
AcDbEntity
  8
03__ASM_ALL_CURVES
100
AcDbLine
 62
40
  6
CONTINUOUS
 10
6.7767873258
 20
5.1905201826
 11
6.7767873258
 21
5.3115951826
  0
LINE
  5
449
100
AcDbEntity
  8
03__ASM_ALL_CURVES
100
AcDbLine
 62
40
  6
CONTINUOUS
 10
6.7793188663
 20
3.4776478058
 11
6.7793188663
 21
3.4625134344
  0
LINE
  5
44A
100
AcDbEntity
  8
03__ASM_ALL_CURVES
100
AcDbLine
 62
40
  6
CONTINUOUS
 10
6.8827279508
 20
5.2510576826
 11
6.8902951383
 21
5.2813264326
  0
LINE
  5
44B
100
AcDbEntity
  8
03__ASM_ALL_CURVES
100
AcDbLine
 62
40
  6
CONTINUOUS
 10
7.4502670133
 20
5.2207889326
 11
7.4351326383
 21
5.2006097662
  0
LINE
  5
44C
100
AcDbEntity
  8
03__ASM_ALL_CURVES
100
AcDbLine
 62
40
  6
CONTINUOUS
 10
7.5637748258
 20
5.2106993499
 11
7.5562076383
 21
5.2006097662
  0
LINE
  5
44D
100
AcDbEntity
  8
THREAD
100
AcDbLine
 62
7
  6
CONTINUOUS
 10
6.381617325
 20
3.8067821826
 11
6.337617325
 21
3.7627821826
  0
LINE
  5
44E
100
AcDbEntity
  8
0
100
AcDbLine
 62
7
  6
CONTINUOUS
 10
6.481617325
 20
3.8227821826
 11
6.465617325
 21
3.8067821826
  0
LINE
  5
44F
100
AcDbEntity
  8
03__ASM_ALL_CURVES
100
AcDbLine
 62
40
  6
CONTINUOUS
 10
5.711327325
 20
5.1178751826
 11
6.001907325
 21
5.1663051826
  0
LINE
  5
450
100
AcDbEntity
  8
03__ASM_ALL_CURVES
100
AcDbLine
 62
40
  6
CONTINUOUS
 10
5.711327325
 20
5.1219110159
 11
6.001907325
 21
5.1622693493
  0
LINE
  5
451
100
AcDbEntity
  8
03__ASM_ALL_CURVES
100
AcDbLine
 62
40
  6
CONTINUOUS
 10
5.711327325
 20
5.1259468493
 11
6.001907325
 21
5.1582335159
  0
LINE
  5
452
100
AcDbEntity
  8
03__ASM_ALL_CURVES
100
AcDbLine
 62
40
  6
CONTINUOUS
 10
5.711327325
 20
5.1299826826
 11
6.001907325
 21
5.1541976826
  0
LINE
  5
453
100
AcDbEntity
  8
03__ASM_ALL_CURVES
100
AcDbLine
 62
40
  6
CONTINUOUS
 10
5.711327325
 20
5.1340185159
 11
6.001907325
 21
5.1501618493
  0
LINE
  5
454
100
AcDbEntity
  8
03__ASM_ALL_CURVES
100
AcDbLine
 62
40
  6
CONTINUOUS
 10
5.711327325
 20
5.1380543493
 11
6.001907325
 21
5.1461260159
  0
LINE
  5
455
100
AcDbEntity
  8
03__ASM_ALL_CURVES
100
AcDbLine
 62
40
  6
CONTINUOUS
 10
2.533907325
 20
5.1461260159
 11
2.388617325
 21
5.1420901826
  0
LINE
  5
456
100
AcDbEntity
  8
03__ASM_ALL_CURVES
100
AcDbLine
 62
40
  6
CONTINUOUS
 10
2.388617325
 20
5.1420901826
 11
8.181257325
 21
5.1420901826
  0
LINE
  5
457
100
AcDbEntity
  8
03__ASM_ALL_CURVES
100
AcDbLine
 62
40
  6
CONTINUOUS
 10
7.9269998258
 20
5.1905201826
 11
7.8664623258
 21
5.1905201826
  0
LINE
  5
458
100
AcDbEntity
  8
03__ASM_ALL_CURVES
100
AcDbLine
 62
40
  6
CONTINUOUS
 10
7.7756560758
 20
5.1905201826
 11
7.7453873258
 21
5.1905201826
  0
LINE
  5
459
100
AcDbEntity
  8
03__ASM_ALL_CURVES
100
AcDbLine
 62
40
  6
CONTINUOUS
 10
7.5410732633
 20
5.1905201826
 11
7.5259388883
 21
5.1905201826
  0
LINE
  5
45A
100
AcDbEntity
  8
03__ASM_ALL_CURVES
100
AcDbLine
 62
40
  6
CONTINUOUS
 10
7.4199982633
 20
5.1905201826
 11
7.4048638883
 21
5.1905201826
  0
LINE
  5
45B
100
AcDbEntity
  8
03__ASM_ALL_CURVES
100
AcDbLine
 62
40
  6
CONTINUOUS
 10
7.1778482633
 20
5.1905201826
 11
7.1627138883
 21
5.1905201826
  0
LINE
  5
45C
100
AcDbEntity
  8
03__ASM_ALL_CURVES
100
AcDbLine
 62
40
  6
CONTINUOUS
 10
6.9356982633
 20
5.1905201826
 11
6.9205638883
 21
5.1905201826
  0
LINE
  5
45D
100
AcDbEntity
  8
03__ASM_ALL_CURVES
100
AcDbLine
 62
40
  6
CONTINUOUS
 10
6.3303232633
 20
5.1905201826
 11
6.3151888883
 21
5.1905201826
  0
LINE
  5
45E
100
AcDbEntity
  8
03__ASM_ALL_CURVES
100
AcDbLine
 62
40
  6
CONTINUOUS
 10
6.2092482633
 20
5.1905201826
 11
6.1941138883
 21
5.1905201826
  0
LINE
  5
45F
100
AcDbEntity
  8
03__ASM_ALL_CURVES
100
AcDbLine
 62
40
  6
CONTINUOUS
 10
4.6144845125
 20
5.1905201826
 11
4.5993501375
 21
5.1905201826
  0
LINE
  5
460
100
AcDbEntity
  8
03__ASM_ALL_CURVES
100
AcDbLine
 62
40
  6
CONTINUOUS
 10
4.4934095125
 20
5.1905201826
 11
4.4782751375
 21
5.1905201826
  0
LINE
  5
461
100
AcDbEntity
  8
03__ASM_ALL_CURVES
100
AcDbLine
 62
40
  6
CONTINUOUS
 10
4.364767325
 20
5.1905201826
 11
4.3572001375
 21
5.1905201826
  0
LINE
  5
462
100
AcDbEntity
  8
03__ASM_ALL_CURVES
100
AcDbLine
 62
40
  6
CONTINUOUS
 10
4.1301845125
 20
5.1905201826
 11
4.1150501375
 21
5.1905201826
  0
LINE
  5
463
100
AcDbEntity
  8
03__ASM_ALL_CURVES
100
AcDbLine
 62
40
  6
CONTINUOUS
 10
3.638317325
 20
5.1905201826
 11
3.6307501375
 21
5.1905201826
  0
LINE
  5
464
100
AcDbEntity
  8
03__ASM_ALL_CURVES
100
AcDbLine
 62
40
  6
CONTINUOUS
 10
3.5248095125
 20
5.1905201826
 11
3.5096751375
 21
5.1905201826
  0
LINE
  5
465
100
AcDbEntity
  8
03__ASM_ALL_CURVES
100
AcDbLine
 62
40
  6
CONTINUOUS
 10
6.0503373258
 20
5.1905201826
 11
6.1108748258
 21
5.1905201826
  0
LINE
  5
466
100
AcDbEntity
  8
03__ASM_ALL_CURVES
100
AcDbLine
 62
40
  6
CONTINUOUS
 10
7.6243123258
 20
5.1905201826
 11
7.6848498258
 21
5.1905201826
  0
LINE
  5
467
100
AcDbEntity
  8
03__ASM_ALL_CURVES
100
AcDbLine
 62
40
  6
CONTINUOUS
 10
3.729123575
 20
5.2207889326
 11
3.7972282625
 21
5.2207889326
  0
LINE
  5
468
100
AcDbEntity
  8
03__ASM_ALL_CURVES
100
AcDbLine
 62
40
  6
CONTINUOUS
 10
6.4211295133
 20
5.2308785171
 11
6.4665326383
 21
5.2308785171
  0
LINE
  5
469
100
AcDbEntity
  8
03__ASM_ALL_CURVES
100
AcDbLine
 62
40
  6
CONTINUOUS
 10
8.0253732633
 20
5.2510576826
 11
7.9875373258
 21
5.2510576826
  0
LINE
  5
46A
100
AcDbEntity
  8
03__ASM_ALL_CURVES
100
AcDbLine
 62
40
  6
CONTINUOUS
 10
6.9281310758
 20
5.2510576826
 11
6.9583998258
 21
5.2510576826
  0
LINE
  5
46B
100
AcDbEntity
  8
03__ASM_ALL_CURVES
100
AcDbLine
 62
40
  6
CONTINUOUS
 10
7.2610873258
 20
5.2510576826
 11
7.3216248258
 21
5.2510576826
  0
LINE
  5
46C
100
AcDbEntity
  8
03__ASM_ALL_CURVES
100
AcDbLine
 62
40
  6
CONTINUOUS
 10
7.8664623258
 20
5.2510576826
 11
7.9042982633
 21
5.2510576826
  0
LINE
  5
46D
100
AcDbEntity
  8
03__ASM_ALL_CURVES
100
AcDbLine
 62
40
  6
CONTINUOUS
 10
3.5096751375
 20
5.2611472635
 11
3.5248095125
 21
5.2611472635
  0
LINE
  5
46E
100
AcDbEntity
  8
03__ASM_ALL_CURVES
100
AcDbLine
 62
40
  6
CONTINUOUS
 10
4.1150501375
 20
5.2611472635
 11
4.1301845125
 21
5.2611472635
  0
LINE
  5
46F
100
AcDbEntity
  8
03__ASM_ALL_CURVES
100
AcDbLine
 62
40
  6
CONTINUOUS
 10
4.4782751375
 20
5.2611472635
 11
4.4934095125
 21
5.2611472635
  0
LINE
  5
470
100
AcDbEntity
  8
03__ASM_ALL_CURVES
100
AcDbLine
 62
40
  6
CONTINUOUS
 10
4.5993501375
 20
5.2611472635
 11
4.6144845125
 21
5.2611472635
  0
LINE
  5
471
100
AcDbEntity
  8
03__ASM_ALL_CURVES
100
AcDbLine
 62
40
  6
CONTINUOUS
 10
2.533907325
 20
5.1380543493
 11
2.388617325
 21
5.1420901826
  0
LINE
  5
472
100
AcDbEntity
  8
03__ASM_ALL_CURVES
100
AcDbLine
 62
40
  6
CONTINUOUS
 10
5.711327325
 20
5.1461260159
 11
6.001907325
 21
5.1380543493
  0
LINE
  5
473
100
AcDbEntity
  8
03__ASM_ALL_CURVES
100
AcDbLine
 62
40
  6
CONTINUOUS
 10
5.711327325
 20
5.1501618493
 11
6.001907325
 21
5.1340185159
  0
LINE
  5
474
100
AcDbEntity
  8
03__ASM_ALL_CURVES
100
AcDbLine
 62
40
  6
CONTINUOUS
 10
5.711327325
 20
5.1541976826
 11
6.001907325
 21
5.1299826826
  0
LINE
  5
475
100
AcDbEntity
  8
03__ASM_ALL_CURVES
100
AcDbLine
 62
40
  6
CONTINUOUS
 10
5.711327325
 20
5.1582335159
 11
6.001907325
 21
5.1259468493
  0
LINE
  5
476
100
AcDbEntity
  8
03__ASM_ALL_CURVES
100
AcDbLine
 62
40
  6
CONTINUOUS
 10
5.711327325
 20
5.1622693493
 11
6.001907325
 21
5.1219110159
  0
LINE
  5
477
100
AcDbEntity
  8
03__ASM_ALL_CURVES
100
AcDbLine
 62
40
  6
CONTINUOUS
 10
6.001907325
 20
5.1178751826
 11
5.711327325
 21
5.1663051826
  0
LINE
  5
478
100
AcDbEntity
  8
03__ASM_ALL_CURVES
100
AcDbLine
 62
40
  6
CONTINUOUS
 10
6.1941138883
 20
5.1905201826
 11
6.1789795133
 21
5.2006097662
  0
LINE
  5
479
100
AcDbEntity
  8
0
100
AcDbLine
 62
7
  6
CONTINUOUS
 10
6.481617325
 20
4.6947821826
 11
6.465617325
 21
4.7107821826
  0
LINE
  5
47A
100
AcDbEntity
  8
03__ASM_ALL_CURVES
100
AcDbLine
 62
40
  6
CONTINUOUS
 10
6.1789795133
 20
5.2006097662
 11
6.1638451383
 21
5.2207889326
  0
LINE
  5
47B
100
AcDbEntity
  8
03__ASM_ALL_CURVES
100
AcDbLine
 62
40
  6
CONTINUOUS
 10
6.2243826383
 20
5.3015056017
 11
6.2395170133
 21
5.2813264326
  0
LINE
  5
47C
100
AcDbEntity
  8
03__ASM_ALL_CURVES
100
AcDbLine
 62
40
  6
CONTINUOUS
 10
6.3000545133
 20
5.2006097662
 11
6.2849201383
 21
5.2207889326
  0
LINE
  5
47D
100
AcDbEntity
  8
03__ASM_ALL_CURVES
100
AcDbLine
 62
40
  6
CONTINUOUS
 10
6.4438310758
 20
5.3115951826
 11
6.4816670133
 21
5.1905201826
  0
LINE
  5
47E
100
AcDbEntity
  8
03__ASM_ALL_CURVES
100
AcDbLine
 62
40
  6
CONTINUOUS
 10
6.8105335508
 20
3.2627396826
 11
6.8105335508
 21
3.3535459326
  0
LINE
  5
47F
100
AcDbEntity
  8
03__ASM_ALL_CURVES
100
AcDbLine
 62
40
  6
CONTINUOUS
 10
6.8373248258
 20
5.1905201826
 11
6.8373248258
 21
5.3115951826
  0
LINE
  5
480
100
AcDbEntity
  8
03__ASM_ALL_CURVES
100
AcDbLine
 62
40
  6
CONTINUOUS
 10
6.8474235538
 20
3.4927821826
 11
6.8474235538
 21
3.4019759326
  0
LINE
  5
481
100
AcDbEntity
  8
0
100
AcDbLine
 62
7
  6
CONTINUOUS
 10
6.910617325
 20
4.6952821826
 11
6.910617325
 21
3.8222821826
  0
LINE
  5
482
100
AcDbEntity
  8
03__ASM_ALL_CURVES
100
AcDbLine
 62
40
  6
CONTINUOUS
 10
6.9240413633
 20
3.3535459326
 11
6.9240413633
 21
3.2627396826
  0
LINE
  5
483
100
AcDbEntity
  8
03__ASM_ALL_CURVES
100
AcDbLine
 62
40
  6
CONTINUOUS
 10
6.9583998258
 20
5.2510576826
 11
6.9583998258
 21
5.2106993499
  0
LINE
  5
484
100
AcDbEntity
  8
03__ASM_ALL_CURVES
100
AcDbLine
 62
40
  6
CONTINUOUS
 10
6.9609313663
 20
3.4776478058
 11
6.9609313663
 21
3.4625134344
  0
LINE
  5
485
100
AcDbEntity
  8
0
100
AcDbLine
 62
7
  6
CONTINUOUS
 10
6.970617325
 20
4.6952821826
 11
6.970617325
 21
3.8222821826
  0
LINE
  5
486
100
AcDbEntity
  8
0
100
AcDbLine
 62
7
  6
CONTINUOUS
 10
7.020617325
 20
3.8267828394
 11
7.020617325
 21
4.6907815258
  0
LINE
  5
487
100
AcDbEntity
  8
03__ASM_ALL_CURVES
100
AcDbLine
 62
40
  6
CONTINUOUS
 10
6.63175871
 20
3.4473790576
 11
6.6374341007
 21
3.4700806201
  0
LINE
  5
488
100
AcDbEntity
  8
03__ASM_ALL_CURVES
100
AcDbLine
 62
40
  6
CONTINUOUS
 10
6.6998633975
 20
3.4473790576
 11
6.6941880069
 21
3.4246774951
  0
LINE
  5
489
100
AcDbEntity
  8
03__ASM_ALL_CURVES
100
AcDbLine
 62
40
  6
CONTINUOUS
 10
7.8059248258
 20
5.2207889326
 11
7.7907904508
 21
5.2006097662
  0
LINE
  5
48A
100
AcDbEntity
  8
03__ASM_ALL_CURVES
100
AcDbLine
 62
40
  6
CONTINUOUS
 10
6.5977063663
 20
3.4625134344
 11
6.5920309757
 21
3.4549462433
  0
LINE
  5
48B
100
AcDbEntity
  8
03__ASM_ALL_CURVES
100
AcDbLine
 62
40
  6
CONTINUOUS
 10
6.6374341007
 20
3.4700806201
 11
6.6487848819
 21
3.4852149969
  0
LINE
  5
48C
100
AcDbEntity
  8
03__ASM_ALL_CURVES
100
AcDbLine
 62
40
  6
CONTINUOUS
 10
8.0480748258
 20
5.2712368517
 11
8.0405076383
 21
5.2611472635
  0
LINE
  5
48D
100
AcDbEntity
  8
03__ASM_ALL_CURVES
100
AcDbLine
 62
40
  6
CONTINUOUS
 10
7.8463450585
 20
4.3359674933
 11
7.8349942773
 21
4.3284003076
  0
LINE
  5
48E
100
AcDbEntity
  8
03__ASM_ALL_CURVES
100
AcDbLine
 62
40
  6
CONTINUOUS
 10
7.9030989648
 20
4.3662362469
 11
7.914449746
 21
4.3738034326
  0
LINE
  5
48F
100
AcDbEntity
  8
03__ASM_ALL_CURVES
100
AcDbLine
 62
40
  6
CONTINUOUS
 10
6.5920309757
 20
3.4549462433
 11
6.5806801944
 21
3.4473790576
  0
LINE
  5
490
100
AcDbEntity
  8
03__ASM_ALL_CURVES
100
AcDbLine
 62
40
  6
CONTINUOUS
 10
6.6487848819
 20
3.4852149969
 11
6.6601356632
 21
3.4927821826
  0
LINE
  5
491
100
AcDbEntity
  8
03__ASM_ALL_CURVES
100
AcDbLine
 62
40
  6
CONTINUOUS
 10
7.9371513085
 20
4.2905643703
 11
7.9258005273
 21
4.2829971826
  0
LINE
  5
492
100
AcDbEntity
  8
03__ASM_ALL_CURVES
100
AcDbLine
 62
40
  6
CONTINUOUS
 10
8.0279575585
 20
4.3359674933
 11
8.0166067773
 21
4.3284003076
  0
LINE
  5
493
100
AcDbEntity
  8
03__ASM_ALL_CURVES
100
AcDbLine
 62
40
  6
CONTINUOUS
 10
7.8463450585
 20
4.1967312433
 11
7.8349942773
 21
4.1891640576
  0
LINE
  5
494
100
AcDbEntity
  8
03__ASM_ALL_CURVES
100
AcDbLine
 62
40
  6
CONTINUOUS
 10
6.6828372257
 20
3.4095431203
 11
6.6714864444
 21
3.4019759326
  0
LINE
  5
495
100
AcDbEntity
  8
03__ASM_ALL_CURVES
100
AcDbLine
 62
40
  6
CONTINUOUS
 10
2.533907325
 20
5.1541976826
 11
2.388617325
 21
5.1420901826
  0
LINE
  5
496
100
AcDbEntity
  8
03__ASM_ALL_CURVES
100
AcDbLine
 62
40
  6
CONTINUOUS
 10
2.533907325
 20
5.1501618493
 11
2.388617325
 21
5.1420901826
  0
LINE
  5
497
100
AcDbEntity
  8
03__ASM_ALL_CURVES
100
AcDbLine
 62
40
  6
CONTINUOUS
 10
7.1778482633
 20
5.3115951826
 11
7.1627138883
 21
5.3115951826
  0
LINE
  5
498
100
AcDbEntity
  8
03__ASM_ALL_CURVES
100
AcDbLine
 62
40
  6
CONTINUOUS
 10
4.273961075
 20
5.3115951826
 11
4.213423575
 21
5.3115951826
  0
LINE
  5
499
100
AcDbEntity
  8
03__ASM_ALL_CURVES
100
AcDbLine
 62
40
  6
CONTINUOUS
 10
3.5096751375
 20
5.3115951826
 11
3.5248095125
 21
5.3115951826
  0
LINE
  5
49A
100
AcDbEntity
  8
03__ASM_ALL_CURVES
100
AcDbLine
 62
40
  6
CONTINUOUS
 10
4.1150501375
 20
5.3115951826
 11
4.1301845125
 21
5.3115951826
  0
LINE
  5
49B
100
AcDbEntity
  8
03__ASM_ALL_CURVES
100
AcDbLine
 62
40
  6
CONTINUOUS
 10
4.4782751375
 20
5.3115951826
 11
4.4934095125
 21
5.3115951826
  0
LINE
  5
49C
100
AcDbEntity
  8
03__ASM_ALL_CURVES
100
AcDbLine
 62
40
  6
CONTINUOUS
 10
4.5993501375
 20
5.3115951826
 11
4.6144845125
 21
5.3115951826
  0
LINE
  5
49D
100
AcDbEntity
  8
03__ASM_ALL_CURVES
100
AcDbLine
 62
40
  6
CONTINUOUS
 10
6.1941138883
 20
5.3115951826
 11
6.2092482633
 21
5.3115951826
  0
LINE
  5
49E
100
AcDbEntity
  8
03__ASM_ALL_CURVES
100
AcDbLine
 62
40
  6
CONTINUOUS
 10
6.3151888883
 20
5.3115951826
 11
6.3303232633
 21
5.3115951826
  0
LINE
  5
49F
100
AcDbEntity
  8
03__ASM_ALL_CURVES
100
AcDbLine
 62
40
  6
CONTINUOUS
 10
6.5270701383
 20
5.3115951826
 11
6.6027420133
 21
5.3115951826
  0
LINE
  5
4A0
100
AcDbEntity
  8
03__ASM_ALL_CURVES
100
AcDbLine
 62
40
  6
CONTINUOUS
 10
6.9205638883
 20
5.3115951826
 11
6.9356982633
 21
5.3115951826
  0
LINE
  5
4A1
100
AcDbEntity
  8
03__ASM_ALL_CURVES
100
AcDbLine
 62
40
  6
CONTINUOUS
 10
7.4048638883
 20
5.3115951826
 11
7.4199982633
 21
5.3115951826
  0
LINE
  5
4A2
100
AcDbEntity
  8
03__ASM_ALL_CURVES
100
AcDbLine
 62
40
  6
CONTINUOUS
 10
7.7453873258
 20
5.3115951826
 11
7.7756560758
 21
5.3115951826
  0
LINE
  5
4A3
100
AcDbEntity
  8
03__ASM_ALL_CURVES
100
AcDbLine
 62
40
  6
CONTINUOUS
 10
7.8664623258
 20
5.3115951826
 11
7.9269998258
 21
5.3115951826
  0
LINE
  5
4A4
100
AcDbEntity
  8
03__ASM_ALL_CURVES
100
AcDbLine
 62
40
  6
CONTINUOUS
 10
7.9875373258
 20
5.3115951826
 11
8.0253732633
 21
5.3115951826
  0
LINE
  5
4A5
100
AcDbEntity
  8
03__ASM_ALL_CURVES
100
AcDbLine
 62
40
  6
CONTINUOUS
 10
6.3151888883
 20
5.1905201826
 11
6.3000545133
 21
5.2006097662
  0
LINE
  5
4A6
100
AcDbEntity
  8
03__ASM_ALL_CURVES
100
AcDbLine
 62
40
  6
CONTINUOUS
 10
6.2092482633
 20
5.3115951826
 11
6.2243826383
 21
5.3015056017
  0
LINE
  5
4A7
100
AcDbEntity
  8
03__ASM_ALL_CURVES
100
AcDbLine
 62
40
  6
CONTINUOUS
 10
7.8349942773
 20
4.2345671826
 11
7.8463450585
 21
4.2269999969
  0
LINE
  5
4A8
100
AcDbEntity
  8
03__ASM_ALL_CURVES
100
AcDbLine
 62
40
  6
CONTINUOUS
 10
6.3303232633
 20
5.3115951826
 11
6.3454576383
 21
5.3015056017
  0
LINE
  5
4A9
100
AcDbEntity
  8
03__ASM_ALL_CURVES
100
AcDbLine
 62
40
  6
CONTINUOUS
 10
8.096062246
 20
4.1437609326
 11
8.0847114648
 21
4.1513281203
  0
LINE
  5
4AA
100
AcDbEntity
  8
03__ASM_ALL_CURVES
100
AcDbLine
 62
40
  6
CONTINUOUS
 10
7.914449746
 20
4.2829971826
 11
7.9030989648
 21
4.2905643703
  0
LINE
  5
4AB
100
AcDbEntity
  8
03__ASM_ALL_CURVES
100
AcDbLine
 62
40
  6
CONTINUOUS
 10
8.0109313867
 20
4.2345671826
 11
8.0222821679
 21
4.2269999969
  0
LINE
  5
4AC
100
AcDbEntity
  8
03__ASM_ALL_CURVES
100
AcDbLine
 62
40
  6
CONTINUOUS
 10
7.8349942773
 20
4.3738034326
 11
7.8463450585
 21
4.3662362469
  0
LINE
  5
4AD
100
AcDbEntity
  8
03__ASM_ALL_CURVES
100
AcDbLine
 62
40
  6
CONTINUOUS
 10
8.186868496
 20
4.1437609326
 11
8.1755177148
 21
4.1513281203
  0
LINE
  5
4AE
100
AcDbEntity
  8
03__ASM_ALL_CURVES
100
AcDbLine
 62
40
  6
CONTINUOUS
 10
6.3454576383
 20
5.3015056017
 11
6.3530248258
 21
5.2914160135
  0
LINE
  5
4AF
100
AcDbEntity
  8
0
100
AcDbLine
 62
7
  6
CONTINUOUS
 10
7.090617325
 20
3.8267828394
 11
7.090617325
 21
4.6907815258
  0
LINE
  5
4B0
100
AcDbEntity
  8
03__ASM_ALL_CURVES
100
AcDbLine
 62
40
  6
CONTINUOUS
 10
7.1400123258
 20
5.2914160135
 11
7.1400123258
 21
5.2813264326
  0
LINE
  5
4B1
100
AcDbEntity
  8
0
100
AcDbLine
 62
7
  6
CONTINUOUS
 10
7.140617325
 20
3.8267828394
 11
7.140617325
 21
4.6907815258
  0
LINE
  5
4B2
100
AcDbEntity
  8
0
100
AcDbLine
 62
7
  6
CONTINUOUS
 10
7.149117325
 20
3.8385321826
 11
7.149117325
 21
4.6790321826
  0
LINE
  5
4B3
100
AcDbEntity
  8
0
100
AcDbLine
 62
7
  6
CONTINUOUS
 10
7.165117325
 20
3.8225321826
 11
7.165117325
 21
4.6950321826
  0
LINE
  5
4B4
100
AcDbEntity
  8
03__ASM_ALL_CURVES
100
AcDbLine
 62
40
  6
CONTINUOUS
 10
7.2005498258
 20
5.2308785171
 11
7.2005498258
 21
5.2106993499
  0
LINE
  5
4B5
100
AcDbEntity
  8
0
100
AcDbLine
 62
7
  6
CONTINUOUS
 10
7.226117325
 20
3.8225321826
 11
7.226117325
 21
4.6950321826
  0
LINE
  5
4B6
100
AcDbEntity
  8
0
100
AcDbLine
 62
7
  6
CONTINUOUS
 10
7.242117325
 20
3.8385321826
 11
7.242117325
 21
4.6790321826
  0
LINE
  5
4B7
100
AcDbEntity
  8
03__ASM_ALL_CURVES
100
AcDbLine
 62
40
  6
CONTINUOUS
 10
7.3670279508
 20
5.2510576826
 11
7.3745951383
 21
5.2813264326
  0
LINE
  5
4B8
100
AcDbEntity
  8
03__ASM_ALL_CURVES
100
AcDbLine
 62
40
  6
CONTINUOUS
 10
6.9212036319
 20
3.4246774951
 11
6.9155282413
 21
3.4019759326
  0
LINE
  5
4B9
100
AcDbEntity
  8
03__ASM_ALL_CURVES
100
AcDbLine
 62
40
  6
CONTINUOUS
 10
7.4578342008
 20
5.2510576826
 11
7.4502670133
 21
5.2207889326
  0
LINE
  5
4BA
100
AcDbEntity
  8
03__ASM_ALL_CURVES
100
AcDbLine
 62
40
  6
CONTINUOUS
 10
6.6941880069
 20
3.4246774951
 11
6.6828372257
 21
3.4095431203
  0
LINE
  5
4BB
100
AcDbEntity
  8
03__ASM_ALL_CURVES
100
AcDbLine
 62
40
  6
CONTINUOUS
 10
6.7793188663
 20
3.4625134344
 11
6.7736434757
 21
3.4549462433
  0
LINE
  5
4BC
100
AcDbEntity
  8
03__ASM_ALL_CURVES
100
AcDbLine
 62
40
  6
CONTINUOUS
 10
6.9155282413
 20
3.4776478058
 11
6.9212036319
 21
3.4852149969
  0
LINE
  5
4BD
100
AcDbEntity
  8
03__ASM_ALL_CURVES
100
AcDbLine
 62
40
  6
CONTINUOUS
 10
6.9325544132
 20
3.4398118692
 11
6.9212036319
 21
3.4246774951
  0
LINE
  5
4BE
100
AcDbEntity
  8
03__ASM_ALL_CURVES
100
AcDbLine
 62
40
  6
CONTINUOUS
 10
6.9609313663
 20
3.4625134344
 11
6.9552559757
 21
3.4549462433
  0
LINE
  5
4BF
100
AcDbEntity
  8
0
100
AcDbLine
 62
7
  6
CONTINUOUS
 10
7.226117325
 20
3.8225321826
 11
7.242117325
 21
3.8385321826
  0
LINE
  5
4C0
100
AcDbEntity
  8
03__ASM_ALL_CURVES
100
AcDbLine
 62
40
  6
CONTINUOUS
 10
6.7736434757
 20
3.4549462433
 11
6.7622926944
 21
3.4473790576
  0
LINE
  5
4C1
100
AcDbEntity
  8
03__ASM_ALL_CURVES
100
AcDbLine
 62
40
  6
CONTINUOUS
 10
6.9212036319
 20
3.4852149969
 11
6.9325544132
 21
3.4927821826
  0
LINE
  5
4C2
100
AcDbEntity
  8
03__ASM_ALL_CURVES
100
AcDbLine
 62
40
  6
CONTINUOUS
 10
6.9552559757
 20
3.4549462433
 11
6.9325544132
 21
3.4398118692
  0
LINE
  5
4C3
100
AcDbEntity
  8
03__ASM_ALL_CURVES
100
AcDbLine
 62
40
  6
CONTINUOUS
 10
8.0222821679
 20
4.1513281203
 11
8.0109313867
 21
4.1437609326
  0
LINE
  5
4C4
100
AcDbEntity
  8
03__ASM_ALL_CURVES
100
AcDbLine
 62
40
  6
CONTINUOUS
 10
8.1755177148
 20
4.2269999969
 11
8.186868496
 21
4.2345671826
  0
LINE
  5
4C5
100
AcDbEntity
  8
03__ASM_ALL_CURVES
100
AcDbLine
 62
40
  6
CONTINUOUS
 10
8.1187638085
 20
4.1513281203
 11
8.1074130273
 21
4.1437609326
  0
LINE
  5
4C6
100
AcDbEntity
  8
03__ASM_ALL_CURVES
100
AcDbLine
 62
40
  6
CONTINUOUS
 10
8.2095700585
 20
4.1513281203
 11
8.1982192773
 21
4.1437609326
  0
LINE
  5
4C7
100
AcDbEntity
  8
03__ASM_ALL_CURVES
100
AcDbLine
 62
40
  6
CONTINUOUS
 10
2.388617325
 20
5.1420901826
 11
2.533907325
 21
5.1663051826
  0
LINE
  5
4C8
100
AcDbEntity
  8
03__ASM_ALL_CURVES
100
AcDbLine
 62
40
  6
CONTINUOUS
 10
2.533907325
 20
5.1622693493
 11
2.388617325
 21
5.1420901826
  0
LINE
  5
4C9
100
AcDbEntity
  8
03__ASM_ALL_CURVES
100
AcDbLine
 62
40
  6
CONTINUOUS
 10
2.533907325
 20
5.1582335159
 11
2.388617325
 21
5.1420901826
  0
LINE
  5
4CA
100
AcDbEntity
  8
03__ASM_ALL_CURVES
100
AcDbLine
 62
40
  6
CONTINUOUS
 10
7.9258005273
 20
4.3738034326
 11
7.9371513085
 21
4.3662362469
  0
LINE
  5
4CB
100
AcDbEntity
  8
03__ASM_ALL_CURVES
100
AcDbLine
 62
40
  6
CONTINUOUS
 10
8.1982192773
 20
4.2345671826
 11
8.2095700585
 21
4.2269999969
  0
LINE
  5
4CC
100
AcDbEntity
  8
03__ASM_ALL_CURVES
100
AcDbLine
 62
40
  6
CONTINUOUS
 10
8.0166067773
 20
4.3738034326
 11
8.0279575585
 21
4.3662362469
  0
LINE
  5
4CD
100
AcDbEntity
  8
03__ASM_ALL_CURVES
100
AcDbLine
 62
40
  6
CONTINUOUS
 10
6.9205638883
 20
5.1905201826
 11
6.9054295133
 21
5.2006097662
  0
LINE
  5
4CE
100
AcDbEntity
  8
03__ASM_ALL_CURVES
100
AcDbLine
 62
40
  6
CONTINUOUS
 10
8.3741563867
 20
4.2345671826
 11
8.3855071679
 21
4.2269999969
  0
LINE
  5
4CF
100
AcDbEntity
  8
0
100
AcDbLine
 62
7
  6
CONTINUOUS
 10
7.226117325
 20
4.6950321826
 11
7.242117325
 21
4.6790321826
  0
LINE
  5
4D0
100
AcDbEntity
  8
03__ASM_ALL_CURVES
100
AcDbLine
 62
40
  6
CONTINUOUS
 10
6.9054295133
 20
5.2006097662
 11
6.8902951383
 21
5.2207889326
  0
LINE
  5
4D1
100
AcDbEntity
  8
03__ASM_ALL_CURVES
100
AcDbLine
 62
40
  6
CONTINUOUS
 10
6.7767873258
 20
5.3115951826
 11
6.8373248258
 21
5.1905201826
  0
LINE
  5
4D2
100
AcDbEntity
  8
03__ASM_ALL_CURVES
100
AcDbLine
 62
40
  6
CONTINUOUS
 10
6.8902951383
 20
5.2207889326
 11
6.8827279508
 21
5.2510576826
  0
LINE
  5
4D3
100
AcDbEntity
  8
03__ASM_ALL_CURVES
100
AcDbLine
 62
40
  6
CONTINUOUS
 10
7.2610873258
 20
5.3115951826
 11
7.2610873258
 21
5.1905201826
  0
LINE
  5
4D4
100
AcDbEntity
  8
03__ASM_ALL_CURVES
100
AcDbLine
 62
40
  6
CONTINUOUS
 10
7.3216248258
 20
5.3115951826
 11
7.3216248258
 21
5.1905201826
  0
LINE
  5
4D5
100
AcDbEntity
  8
03__ASM_ALL_CURVES
100
AcDbLine
 62
40
  6
CONTINUOUS
 10
7.8520204492
 20
4.3435346844
 11
7.8463450585
 21
4.3359674933
  0
LINE
  5
4D6
100
AcDbEntity
  8
03__ASM_ALL_CURVES
100
AcDbLine
 62
40
  6
CONTINUOUS
 10
7.8917481835
 20
4.3511018701
 11
7.9030989648
 21
4.3662362469
  0
LINE
  5
4D7
100
AcDbEntity
  8
03__ASM_ALL_CURVES
100
AcDbLine
 62
40
  6
CONTINUOUS
 10
7.8520204492
 20
4.2042984344
 11
7.8463450585
 21
4.1967312433
  0
LINE
  5
4D8
100
AcDbEntity
  8
03__ASM_ALL_CURVES
100
AcDbLine
 62
40
  6
CONTINUOUS
 10
8.3855071679
 20
4.1513281203
 11
8.3741563867
 21
4.1437609326
  0
LINE
  5
4D9
100
AcDbEntity
  8
03__ASM_ALL_CURVES
100
AcDbLine
 62
40
  6
CONTINUOUS
 10
8.5727950585
 20
4.1967312433
 11
8.5614442773
 21
4.1891640576
  0
LINE
  5
4DA
100
AcDbEntity
  8
03__ASM_ALL_CURVES
100
AcDbLine
 62
40
  6
CONTINUOUS
 10
8.6636013085
 20
4.1967312433
 11
8.6522505273
 21
4.1891640576
  0
LINE
  5
4DB
100
AcDbEntity
  8
03__ASM_ALL_CURVES
100
AcDbLine
 62
40
  6
CONTINUOUS
 10
6.9356982633
 20
5.3115951826
 11
6.9508326383
 21
5.3015056017
  0
LINE
  5
4DC
100
AcDbEntity
  8
03__ASM_ALL_CURVES
100
AcDbLine
 62
40
  6
CONTINUOUS
 10
8.5614442773
 20
4.2345671826
 11
8.5727950585
 21
4.2269999969
  0
LINE
  5
4DD
100
AcDbEntity
  8
03__ASM_ALL_CURVES
100
AcDbLine
 62
40
  6
CONTINUOUS
 10
7.1627138883
 20
5.1905201826
 11
7.1475795133
 21
5.2006097662
  0
LINE
  5
4DE
100
AcDbEntity
  8
03__ASM_ALL_CURVES
100
AcDbLine
 62
40
  6
CONTINUOUS
 10
8.6522505273
 20
4.2345671826
 11
8.6636013085
 21
4.2269999969
  0
LINE
  5
4DF
100
AcDbEntity
  8
03__ASM_ALL_CURVES
100
AcDbLine
 62
40
  6
CONTINUOUS
 10
8.822512246
 20
4.1437609326
 11
8.8111614648
 21
4.1513281203
  0
LINE
  5
4E0
100
AcDbEntity
  8
03__ASM_ALL_CURVES
100
AcDbLine
 62
40
  6
CONTINUOUS
 10
7.1475795133
 20
5.2712368517
 11
7.1929826383
 21
5.2409680981
  0
LINE
  5
4E1
100
AcDbEntity
  8
03__ASM_ALL_CURVES
100
AcDbLine
 62
40
  6
CONTINUOUS
 10
8.8111614648
 20
4.2042984344
 11
8.8452138085
 21
4.1815968692
  0
LINE
  5
4E2
100
AcDbEntity
  8
03__ASM_ALL_CURVES
100
AcDbLine
 62
40
  6
CONTINUOUS
 10
8.913318496
 20
4.1437609326
 11
8.9019677148
 21
4.1513281203
  0
LINE
  5
4E3
100
AcDbEntity
  8
03__ASM_ALL_CURVES
100
AcDbLine
 62
40
  6
CONTINUOUS
 10
7.1929826383
 20
5.3015056017
 11
7.1778482633
 21
5.3115951826
  0
LINE
  5
4E4
100
AcDbEntity
  8
03__ASM_ALL_CURVES
100
AcDbLine
 62
40
  6
CONTINUOUS
 10
8.8452138085
 20
4.2269999969
 11
8.8338630273
 21
4.2345671826
  0
LINE
  5
4E5
100
AcDbEntity
  8
03__ASM_ALL_CURVES
100
AcDbLine
 62
40
  6
CONTINUOUS
 10
7.4048638883
 20
5.1905201826
 11
7.3897295133
 21
5.2006097662
  0
LINE
  5
4E6
100
AcDbEntity
  8
03__ASM_ALL_CURVES
100
AcDbLine
 62
40
  6
CONTINUOUS
 10
8.9019677148
 20
4.2042984344
 11
8.9360200585
 21
4.1815968692
  0
LINE
  5
4E7
100
AcDbEntity
  8
03__ASM_ALL_CURVES
100
AcDbLine
 62
40
  6
CONTINUOUS
 10
9.004124746
 20
4.1437609326
 11
8.9927739648
 21
4.1513281203
  0
LINE
  5
4E8
100
AcDbEntity
  8
03__ASM_ALL_CURVES
100
AcDbLine
 62
40
  6
CONTINUOUS
 10
8.9360200585
 20
4.2269999969
 11
8.9246692773
 21
4.2345671826
  0
LINE
  5
4E9
100
AcDbEntity
  8
03__ASM_ALL_CURVES
100
AcDbLine
 62
40
  6
CONTINUOUS
 10
6.9508326383
 20
5.3015056017
 11
6.9583998258
 21
5.2914160135
  0
LINE
  5
4EA
100
AcDbEntity
  8
03__ASM_ALL_CURVES
100
AcDbLine
 62
40
  6
CONTINUOUS
 10
7.8463450585
 20
4.2269999969
 11
7.8520204492
 21
4.2194328058
  0
LINE
  5
4EB
100
AcDbEntity
  8
03__ASM_ALL_CURVES
100
AcDbLine
 62
40
  6
CONTINUOUS
 10
7.1475795133
 20
5.2006097662
 11
7.1324451383
 21
5.2207889326
  0
LINE
  5
4EC
100
AcDbEntity
  8
03__ASM_ALL_CURVES
100
AcDbLine
 62
40
  6
CONTINUOUS
 10
7.1400123258
 20
5.2813264326
 11
7.1475795133
 21
5.2712368517
  0
LINE
  5
4ED
100
AcDbEntity
  8
03__ASM_ALL_CURVES
100
AcDbLine
 62
40
  6
CONTINUOUS
 10
7.9030989648
 20
4.2905643703
 11
7.8917481835
 21
4.3056987451
  0
LINE
  5
4EE
100
AcDbEntity
  8
03__ASM_ALL_CURVES
100
AcDbLine
 62
40
  6
CONTINUOUS
 10
7.8463450585
 20
4.3662362469
 11
7.8520204492
 21
4.3586690558
  0
LINE
  5
4EF
100
AcDbEntity
  8
03__ASM_ALL_CURVES
100
AcDbLine
 62
40
  6
CONTINUOUS
 10
7.1929826383
 20
5.2409680981
 11
7.2005498258
 21
5.2308785171
  0
LINE
  5
4F0
100
AcDbEntity
  8
03__ASM_ALL_CURVES
100
AcDbLine
 62
40
  6
CONTINUOUS
 10
7.5032373258
 20
5.2106993499
 11
7.5032373258
 21
5.3115951826
  0
LINE
  5
4F1
100
AcDbEntity
  8
03__ASM_ALL_CURVES
100
AcDbLine
 62
40
  6
CONTINUOUS
 10
7.5637748258
 20
5.3115951826
 11
7.5637748258
 21
5.2106993499
  0
LINE
  5
4F2
100
AcDbEntity
  8
03__ASM_ALL_CURVES
100
AcDbLine
 62
40
  6
CONTINUOUS
 10
7.6243123258
 20
5.3115951826
 11
7.6243123258
 21
5.1905201826
  0
LINE
  5
4F3
100
AcDbEntity
  8
03__ASM_ALL_CURVES
100
AcDbLine
 62
40
  6
CONTINUOUS
 10
7.8134920133
 20
5.2510576826
 11
7.8059248258
 21
5.2207889326
  0
LINE
  5
4F4
100
AcDbEntity
  8
03__ASM_ALL_CURVES
100
AcDbLine
 62
40
  6
CONTINUOUS
 10
7.9485020898
 20
4.3056987451
 11
7.9371513085
 21
4.2905643703
  0
LINE
  5
4F5
100
AcDbEntity
  8
03__ASM_ALL_CURVES
100
AcDbLine
 62
40
  6
CONTINUOUS
 10
8.0336329492
 20
4.3435346844
 11
8.0279575585
 21
4.3359674933
  0
LINE
  5
4F6
100
AcDbEntity
  8
03__ASM_ALL_CURVES
100
AcDbLine
 62
40
  6
CONTINUOUS
 10
8.0336329492
 20
4.1664624951
 11
8.0222821679
 21
4.1513281203
  0
LINE
  5
4F7
100
AcDbEntity
  8
03__ASM_ALL_CURVES
100
AcDbLine
 62
40
  6
CONTINUOUS
 10
8.822512246
 20
4.2345671826
 11
8.8111614648
 21
4.2269999969
  0
LINE
  5
4F8
100
AcDbEntity
  8
03__ASM_ALL_CURVES
100
AcDbLine
 62
40
  6
CONTINUOUS
 10
8.913318496
 20
4.2345671826
 11
8.9019677148
 21
4.2269999969
  0
LINE
  5
4F9
100
AcDbEntity
  8
03__ASM_ALL_CURVES
100
AcDbLine
 62
40
  6
CONTINUOUS
 10
8.8452138085
 20
4.1513281203
 11
8.8338630273
 21
4.1437609326
  0
LINE
  5
4FA
100
AcDbEntity
  8
03__ASM_ALL_CURVES
100
AcDbLine
 62
40
  6
CONTINUOUS
 10
8.9360200585
 20
4.1513281203
 11
8.9246692773
 21
4.1437609326
  0
LINE
  5
4FB
100
AcDbEntity
  8
03__ASM_ALL_CURVES
100
AcDbLine
 62
40
  6
CONTINUOUS
 10
9.0268263085
 20
4.1513281203
 11
9.0154755273
 21
4.1437609326
  0
LINE
  5
4FC
100
AcDbEntity
  8
03__ASM_ALL_CURVES
100
AcDbLine
 62
40
  6
CONTINUOUS
 10
9.1176325585
 20
4.1967312433
 11
9.1062817773
 21
4.1891640576
  0
LINE
  5
4FD
100
AcDbEntity
  8
03__ASM_ALL_CURVES
100
AcDbLine
 62
40
  6
CONTINUOUS
 10
7.5259388883
 20
5.1905201826
 11
7.5108045133
 21
5.2006097662
  0
LINE
  5
4FE
100
AcDbEntity
  8
03__ASM_ALL_CURVES
100
AcDbLine
 62
40
  6
CONTINUOUS
 10
7.4199982633
 20
5.3115951826
 11
7.4351326383
 21
5.3015056017
  0
LINE
  5
4FF
100
AcDbEntity
  8
03__ASM_ALL_CURVES
100
AcDbLine
 62
40
  6
CONTINUOUS
 10
9.1062817773
 20
4.2345671826
 11
9.1176325585
 21
4.2269999969
  0
LINE
  5
500
100
AcDbEntity
  8
03__ASM_ALL_CURVES
100
AcDbLine
 62
40
  6
CONTINUOUS
 10
7.2005498258
 20
5.2914160135
 11
7.1929826383
 21
5.3015056017
  0
LINE
  5
501
100
AcDbEntity
  8
03__ASM_ALL_CURVES
100
AcDbLine
 62
40
  6
CONTINUOUS
 10
8.0222821679
 20
4.2269999969
 11
8.0336329492
 21
4.2118656201
  0
LINE
  5
502
100
AcDbEntity
  8
03__ASM_ALL_CURVES
100
AcDbLine
 62
40
  6
CONTINUOUS
 10
8.0847114648
 20
4.1513281203
 11
8.0790360742
 21
4.158895308
  0
LINE
  5
503
100
AcDbEntity
  8
03__ASM_ALL_CURVES
100
AcDbLine
 62
40
  6
CONTINUOUS
 10
7.9371513085
 20
4.3662362469
 11
7.9485020898
 21
4.3511018701
  0
LINE
  5
504
100
AcDbEntity
  8
03__ASM_ALL_CURVES
100
AcDbLine
 62
40
  6
CONTINUOUS
 10
8.1755177148
 20
4.1513281203
 11
8.1641669335
 21
4.1664624951
  0
LINE
  5
505
100
AcDbEntity
  8
03__ASM_ALL_CURVES
100
AcDbLine
 62
40
  6
CONTINUOUS
 10
7.3897295133
 20
5.2006097662
 11
7.3745951383
 21
5.2207889326
  0
LINE
  5
506
100
AcDbEntity
  8
03__ASM_ALL_CURVES
100
AcDbLine
 62
40
  6
CONTINUOUS
 10
8.0279575585
 20
4.3662362469
 11
8.0336329492
 21
4.3586690558
  0
LINE
  5
507
100
AcDbEntity
  8
03__ASM_ALL_CURVES
100
AcDbLine
 62
40
  6
CONTINUOUS
 10
8.2095700585
 20
4.2269999969
 11
8.2152454492
 21
4.2194328058
  0
LINE
  5
508
100
AcDbEntity
  8
03__ASM_ALL_CURVES
100
AcDbLine
 62
40
  6
CONTINUOUS
 10
7.4351326383
 20
5.3015056017
 11
7.4502670133
 21
5.2813264326
  0
LINE
  5
509
100
AcDbEntity
  8
03__ASM_ALL_CURVES
100
AcDbLine
 62
40
  6
CONTINUOUS
 10
7.5108045133
 20
5.2006097662
 11
7.5032373258
 21
5.2106993499
  0
LINE
  5
50A
100
AcDbEntity
  8
03__ASM_ALL_CURVES
100
AcDbLine
 62
40
  6
CONTINUOUS
 10
7.8349942773
 20
4.1891640576
 11
7.8520204492
 21
4.1437609326
  0
LINE
  5
50B
100
AcDbEntity
  8
03__ASM_ALL_CURVES
100
AcDbLine
 62
40
  6
CONTINUOUS
 10
7.3745951383
 20
5.2207889326
 11
7.3670279508
 21
5.2510576826
  0
LINE
  5
50C
100
AcDbEntity
  8
03__ASM_ALL_CURVES
100
AcDbLine
 62
40
  6
CONTINUOUS
 10
7.4502670133
 20
5.2813264326
 11
7.4578342008
 21
5.2510576826
  0
LINE
  5
50D
100
AcDbEntity
  8
03__ASM_ALL_CURVES
100
AcDbLine
 62
40
  6
CONTINUOUS
 10
7.7453873258
 20
5.1905201826
 11
7.7453873258
 21
5.3115951826
  0
LINE
  5
50E
100
AcDbEntity
  8
03__ASM_ALL_CURVES
100
AcDbLine
 62
40
  6
CONTINUOUS
 10
7.8066173242
 20
4.1437609326
 11
7.8066173242
 21
4.2345671826
  0
LINE
  5
50F
100
AcDbEntity
  8
03__ASM_ALL_CURVES
100
AcDbLine
 62
40
  6
CONTINUOUS
 10
7.8066173242
 20
4.2829971826
 11
7.8066173242
 21
4.3738034326
  0
LINE
  5
510
100
AcDbEntity
  8
03__ASM_ALL_CURVES
100
AcDbLine
 62
40
  6
CONTINUOUS
 10
7.8520204492
 20
4.3586690558
 11
7.8520204492
 21
4.3435346844
  0
LINE
  5
511
100
AcDbEntity
  8
03__ASM_ALL_CURVES
100
AcDbLine
 62
40
  6
CONTINUOUS
 10
7.8520204492
 20
4.2194328058
 11
7.8520204492
 21
4.2042984344
  0
LINE
  5
512
100
AcDbEntity
  8
03__ASM_ALL_CURVES
100
AcDbLine
 62
40
  6
CONTINUOUS
 10
7.8664623258
 20
5.1905201826
 11
7.8664623258
 21
5.3115951826
  0
LINE
  5
513
100
AcDbEntity
  8
03__ASM_ALL_CURVES
100
AcDbLine
 62
40
  6
CONTINUOUS
 10
7.8974235742
 20
4.1437609326
 11
7.8974235742
 21
4.2345671826
  0
LINE
  5
514
100
AcDbEntity
  8
03__ASM_ALL_CURVES
100
AcDbLine
 62
40
  6
CONTINUOUS
 10
7.8860727929
 20
4.3284003076
 11
7.8917481835
 21
4.3511018701
  0
LINE
  5
515
100
AcDbEntity
  8
03__ASM_ALL_CURVES
100
AcDbLine
 62
40
  6
CONTINUOUS
 10
7.9541774804
 20
4.3284003076
 11
7.9485020898
 21
4.3056987451
  0
LINE
  5
516
100
AcDbEntity
  8
03__ASM_ALL_CURVES
100
AcDbLine
 62
40
  6
CONTINUOUS
 10
8.1244391992
 20
4.158895308
 11
8.1187638085
 21
4.1513281203
  0
LINE
  5
517
100
AcDbEntity
  8
03__ASM_ALL_CURVES
100
AcDbLine
 62
40
  6
CONTINUOUS
 10
8.1641669335
 20
4.2118656201
 11
8.1755177148
 21
4.2269999969
  0
LINE
  5
518
100
AcDbEntity
  8
03__ASM_ALL_CURVES
100
AcDbLine
 62
40
  6
CONTINUOUS
 10
8.2152454492
 20
4.158895308
 11
8.2095700585
 21
4.1513281203
  0
LINE
  5
519
100
AcDbEntity
  8
03__ASM_ALL_CURVES
100
AcDbLine
 62
40
  6
CONTINUOUS
 10
8.3968579492
 20
4.1664624951
 11
8.3855071679
 21
4.1513281203
  0
LINE
  5
51A
100
AcDbEntity
  8
03__ASM_ALL_CURVES
100
AcDbLine
 62
40
  6
CONTINUOUS
 10
7.7756560758
 20
5.3115951826
 11
7.7907904508
 21
5.3015056017
  0
LINE
  5
51B
100
AcDbEntity
  8
03__ASM_ALL_CURVES
100
AcDbLine
 62
40
  6
CONTINUOUS
 10
8.0253732633
 20
5.3115951826
 11
8.0405076383
 21
5.3015056017
  0
LINE
  5
51C
100
AcDbEntity
  8
03__ASM_ALL_CURVES
100
AcDbLine
 62
40
  6
CONTINUOUS
 10
8.3855071679
 20
4.2269999969
 11
8.3968579492
 21
4.2118656201
  0
LINE
  5
51D
100
AcDbEntity
  8
03__ASM_ALL_CURVES
100
AcDbLine
 62
40
  6
CONTINUOUS
 10
8.0166067773
 20
4.3284003076
 11
8.0336329492
 21
4.2829971826
  0
LINE
  5
51E
100
AcDbEntity
  8
03__ASM_ALL_CURVES
100
AcDbLine
 62
40
  6
CONTINUOUS
 10
7.8917481835
 20
4.3056987451
 11
7.8860727929
 21
4.3284003076
  0
LINE
  5
51F
100
AcDbEntity
  8
03__ASM_ALL_CURVES
100
AcDbLine
 62
40
  6
CONTINUOUS
 10
7.9485020898
 20
4.3511018701
 11
7.9541774804
 21
4.3284003076
  0
LINE
  5
520
100
AcDbEntity
  8
03__ASM_ALL_CURVES
100
AcDbLine
 62
40
  6
CONTINUOUS
 10
8.0336329492
 20
4.2118656201
 11
8.0393083398
 21
4.1891640576
  0
LINE
  5
521
100
AcDbEntity
  8
03__ASM_ALL_CURVES
100
AcDbLine
 62
40
  6
CONTINUOUS
 10
7.9875373258
 20
5.1905201826
 11
7.9875373258
 21
5.3115951826
  0
LINE
  5
522
100
AcDbEntity
  8
03__ASM_ALL_CURVES
100
AcDbLine
 62
40
  6
CONTINUOUS
 10
7.9882298242
 20
4.1437609326
 11
7.9882298242
 21
4.2345671826
  0
LINE
  5
523
100
AcDbEntity
  8
03__ASM_ALL_CURVES
100
AcDbLine
 62
40
  6
CONTINUOUS
 10
7.9882298242
 20
4.2829971826
 11
7.9882298242
 21
4.3738034326
  0
LINE
  5
524
100
AcDbEntity
  8
03__ASM_ALL_CURVES
100
AcDbLine
 62
40
  6
CONTINUOUS
 10
8.0336329492
 20
4.3586690558
 11
8.0336329492
 21
4.3435346844
  0
LINE
  5
525
100
AcDbEntity
  8
03__ASM_ALL_CURVES
100
AcDbLine
 62
40
  6
CONTINUOUS
 10
8.0480748258
 20
5.2914160135
 11
8.0480748258
 21
5.2712368517
  0
LINE
  5
526
100
AcDbEntity
  8
03__ASM_ALL_CURVES
100
AcDbLine
 62
40
  6
CONTINUOUS
 10
8.0790360742
 20
4.158895308
 11
8.0790360742
 21
4.2345671826
  0
LINE
  5
527
100
AcDbEntity
  8
03__ASM_ALL_CURVES
100
AcDbLine
 62
40
  6
CONTINUOUS
 10
8.1017376367
 20
4.3738034326
 11
8.1017376367
 21
4.2829971826
  0
LINE
  5
528
100
AcDbEntity
  8
03__ASM_ALL_CURVES
100
AcDbLine
 62
40
  6
CONTINUOUS
 10
8.1244391992
 20
4.2345671826
 11
8.1244391992
 21
4.158895308
  0
LINE
  5
529
100
AcDbEntity
  8
03__ASM_ALL_CURVES
100
AcDbLine
 62
40
  6
CONTINUOUS
 10
8.1925438867
 20
4.3738034326
 11
8.1925438867
 21
4.2829971826
  0
LINE
  5
52A
100
AcDbEntity
  8
03__ASM_ALL_CURVES
100
AcDbLine
 62
40
  6
CONTINUOUS
 10
8.0393083398
 20
4.1891640576
 11
8.0336329492
 21
4.1664624951
  0
LINE
  5
52B
100
AcDbEntity
  8
03__ASM_ALL_CURVES
100
AcDbLine
 62
40
  6
CONTINUOUS
 10
8.1584915429
 20
4.1891640576
 11
8.1641669335
 21
4.2118656201
  0
LINE
  5
52C
100
AcDbEntity
  8
03__ASM_ALL_CURVES
100
AcDbLine
 62
40
  6
CONTINUOUS
 10
8.5784704492
 20
4.2042984344
 11
8.5727950585
 21
4.1967312433
  0
LINE
  5
52D
100
AcDbEntity
  8
03__ASM_ALL_CURVES
100
AcDbLine
 62
40
  6
CONTINUOUS
 10
8.6692766992
 20
4.2042984344
 11
8.6636013085
 21
4.1967312433
  0
LINE
  5
52E
100
AcDbEntity
  8
03__ASM_ALL_CURVES
100
AcDbLine
 62
40
  6
CONTINUOUS
 10
8.5727950585
 20
4.2269999969
 11
8.5784704492
 21
4.2194328058
  0
LINE
  5
52F
100
AcDbEntity
  8
03__ASM_ALL_CURVES
100
AcDbLine
 62
40
  6
CONTINUOUS
 10
7.7907904508
 20
5.3015056017
 11
7.8059248258
 21
5.2813264326
  0
LINE
  5
530
100
AcDbEntity
  8
03__ASM_ALL_CURVES
100
AcDbLine
 62
40
  6
CONTINUOUS
 10
8.6636013085
 20
4.2269999969
 11
8.6692766992
 21
4.2194328058
  0
LINE
  5
531
100
AcDbEntity
  8
03__ASM_ALL_CURVES
100
AcDbLine
 62
40
  6
CONTINUOUS
 10
8.8111614648
 20
4.1513281203
 11
8.7998106835
 21
4.1664624951
  0
LINE
  5
532
100
AcDbEntity
  8
03__ASM_ALL_CURVES
100
AcDbLine
 62
40
  6
CONTINUOUS
 10
8.8054860742
 20
4.2118656201
 11
8.8111614648
 21
4.2042984344
  0
LINE
  5
533
100
AcDbEntity
  8
03__ASM_ALL_CURVES
100
AcDbLine
 62
40
  6
CONTINUOUS
 10
8.8452138085
 20
4.1815968692
 11
8.8508891992
 21
4.1740296835
  0
LINE
  5
534
100
AcDbEntity
  8
03__ASM_ALL_CURVES
100
AcDbLine
 62
40
  6
CONTINUOUS
 10
8.9019677148
 20
4.1513281203
 11
8.8906169335
 21
4.1664624951
  0
LINE
  5
535
100
AcDbEntity
  8
03__ASM_ALL_CURVES
100
AcDbLine
 62
40
  6
CONTINUOUS
 10
8.8508891992
 20
4.2194328058
 11
8.8452138085
 21
4.2269999969
  0
LINE
  5
536
100
AcDbEntity
  8
03__ASM_ALL_CURVES
100
AcDbLine
 62
40
  6
CONTINUOUS
 10
8.0405076383
 20
5.3015056017
 11
8.0480748258
 21
5.2914160135
  0
LINE
  5
537
100
AcDbEntity
  8
03__ASM_ALL_CURVES
100
AcDbLine
 62
40
  6
CONTINUOUS
 10
7.8059248258
 20
5.2813264326
 11
7.8134920133
 21
5.2510576826
  0
LINE
  5
538
100
AcDbEntity
  8
03__ASM_ALL_CURVES
100
AcDbLine
 62
40
  6
CONTINUOUS
 10
8.1641669335
 20
4.1664624951
 11
8.1584915429
 21
4.1891640576
  0
LINE
  5
539
100
AcDbEntity
  8
03__ASM_ALL_CURVES
100
AcDbLine
 62
40
  6
CONTINUOUS
 10
8.2606485742
 20
4.1437609326
 11
8.2606485742
 21
4.2345671826
  0
LINE
  5
53A
100
AcDbEntity
  8
03__ASM_ALL_CURVES
100
AcDbLine
 62
40
  6
CONTINUOUS
 10
8.3514548242
 20
4.1437609326
 11
8.3514548242
 21
4.2345671826
  0
LINE
  5
53B
100
AcDbEntity
  8
03__ASM_ALL_CURVES
100
AcDbLine
 62
40
  6
CONTINUOUS
 10
8.4025333398
 20
4.1891640576
 11
8.3968579492
 21
4.1664624951
  0
LINE
  5
53C
100
AcDbEntity
  8
03__ASM_ALL_CURVES
100
AcDbLine
 62
40
  6
CONTINUOUS
 10
8.8111614648
 20
4.2269999969
 11
8.8054860742
 21
4.2194328058
  0
LINE
  5
53D
100
AcDbEntity
  8
03__ASM_ALL_CURVES
100
AcDbLine
 62
40
  6
CONTINUOUS
 10
8.8508891992
 20
4.158895308
 11
8.8452138085
 21
4.1513281203
  0
LINE
  5
53E
100
AcDbEntity
  8
03__ASM_ALL_CURVES
100
AcDbLine
 62
40
  6
CONTINUOUS
 10
8.9019677148
 20
4.2269999969
 11
8.8962923242
 21
4.2194328058
  0
LINE
  5
53F
100
AcDbEntity
  8
03__ASM_ALL_CURVES
100
AcDbLine
 62
40
  6
CONTINUOUS
 10
8.9416954492
 20
4.158895308
 11
8.9360200585
 21
4.1513281203
  0
LINE
  5
540
100
AcDbEntity
  8
03__ASM_ALL_CURVES
100
AcDbLine
 62
40
  6
CONTINUOUS
 10
8.8962923242
 20
4.2118656201
 11
8.9019677148
 21
4.2042984344
  0
LINE
  5
541
100
AcDbEntity
  8
03__ASM_ALL_CURVES
100
AcDbLine
 62
40
  6
CONTINUOUS
 10
8.9360200585
 20
4.1815968692
 11
8.9416954492
 21
4.1740296835
  0
LINE
  5
542
100
AcDbEntity
  8
03__ASM_ALL_CURVES
100
AcDbLine
 62
40
  6
CONTINUOUS
 10
8.9927739648
 20
4.1513281203
 11
8.9870985742
 21
4.158895308
  0
LINE
  5
543
100
AcDbEntity
  8
03__ASM_ALL_CURVES
100
AcDbLine
 62
40
  6
CONTINUOUS
 10
8.9416954492
 20
4.2194328058
 11
8.9360200585
 21
4.2269999969
  0
LINE
  5
544
100
AcDbEntity
  8
03__ASM_ALL_CURVES
100
AcDbLine
 62
40
  6
CONTINUOUS
 10
9.1176325585
 20
4.2269999969
 11
9.1233079492
 21
4.2194328058
  0
LINE
  5
545
100
AcDbEntity
  8
03__ASM_ALL_CURVES
100
AcDbLine
 62
40
  6
CONTINUOUS
 10
8.0253732633
 20
5.2510576826
 11
8.0480748258
 21
5.1905201826
  0
LINE
  5
546
100
AcDbEntity
  8
03__ASM_ALL_CURVES
100
AcDbLine
 62
40
  6
CONTINUOUS
 10
8.6522505273
 20
4.1891640576
 11
8.6692766992
 21
4.1437609326
  0
LINE
  5
547
100
AcDbEntity
  8
03__ASM_ALL_CURVES
100
AcDbLine
 62
40
  6
CONTINUOUS
 10
8.3968579492
 20
4.2118656201
 11
8.4025333398
 21
4.1891640576
  0
LINE
  5
548
100
AcDbEntity
  8
03__ASM_ALL_CURVES
100
AcDbLine
 62
40
  6
CONTINUOUS
 10
8.5330673242
 20
4.1437609326
 11
8.5330673242
 21
4.2345671826
  0
LINE
  5
549
100
AcDbEntity
  8
03__ASM_ALL_CURVES
100
AcDbLine
 62
40
  6
CONTINUOUS
 10
8.5784704492
 20
4.2194328058
 11
8.5784704492
 21
4.2042984344
  0
LINE
  5
54A
100
AcDbEntity
  8
03__ASM_ALL_CURVES
100
AcDbLine
 62
40
  6
CONTINUOUS
 10
8.6238735742
 20
4.1437609326
 11
8.6238735742
 21
4.2345671826
  0
LINE
  5
54B
100
AcDbEntity
  8
03__ASM_ALL_CURVES
100
AcDbLine
 62
40
  6
CONTINUOUS
 10
8.6692766992
 20
4.2194328058
 11
8.6692766992
 21
4.2042984344
  0
LINE
  5
54C
100
AcDbEntity
  8
03__ASM_ALL_CURVES
100
AcDbLine
 62
40
  6
CONTINUOUS
 10
9.0325016992
 20
4.158895308
 11
9.0268263085
 21
4.1513281203
  0
LINE
  5
54D
100
AcDbEntity
  8
03__ASM_ALL_CURVES
100
AcDbLine
 62
40
  6
CONTINUOUS
 10
9.1233079492
 20
4.2042984344
 11
9.1176325585
 21
4.1967312433
  0
LINE
  5
54E
100
AcDbEntity
  8
03__ASM_ALL_CURVES
100
AcDbLine
 62
40
  6
CONTINUOUS
 10
8.7146798242
 20
4.1437609326
 11
8.7146798242
 21
4.2345671826
  0
LINE
  5
54F
100
AcDbEntity
  8
03__ASM_ALL_CURVES
100
AcDbLine
 62
40
  6
CONTINUOUS
 10
8.8054860742
 20
4.2194328058
 11
8.8054860742
 21
4.2118656201
  0
LINE
  5
550
100
AcDbEntity
  8
03__ASM_ALL_CURVES
100
AcDbLine
 62
40
  6
CONTINUOUS
 10
8.8508891992
 20
4.1740296835
 11
8.8508891992
 21
4.158895308
  0
LINE
  5
551
100
AcDbEntity
  8
03__ASM_ALL_CURVES
100
AcDbLine
 62
40
  6
CONTINUOUS
 10
8.8962923242
 20
4.2194328058
 11
8.8962923242
 21
4.2118656201
  0
LINE
  5
552
100
AcDbEntity
  8
03__ASM_ALL_CURVES
100
AcDbLine
 62
40
  6
CONTINUOUS
 10
9.1062817773
 20
4.1891640576
 11
9.1233079492
 21
4.1437609326
  0
LINE
  5
553
100
AcDbEntity
  8
03__ASM_ALL_CURVES
100
AcDbLine
 62
40
  6
CONTINUOUS
 10
8.9416954492
 20
4.1740296835
 11
8.9416954492
 21
4.158895308
  0
LINE
  5
554
100
AcDbEntity
  8
03__ASM_ALL_CURVES
100
AcDbLine
 62
40
  6
CONTINUOUS
 10
8.9870985742
 20
4.158895308
 11
8.9870985742
 21
4.2345671826
  0
LINE
  5
555
100
AcDbEntity
  8
03__ASM_ALL_CURVES
100
AcDbLine
 62
40
  6
CONTINUOUS
 10
9.0325016992
 20
4.2345671826
 11
9.0325016992
 21
4.158895308
  0
LINE
  5
556
100
AcDbEntity
  8
03__ASM_ALL_CURVES
100
AcDbLine
 62
40
  6
CONTINUOUS
 10
9.0779048242
 20
4.1437609326
 11
9.0779048242
 21
4.2345671826
  0
LINE
  5
557
100
AcDbEntity
  8
03__ASM_ALL_CURVES
100
AcDbLine
 62
40
  6
CONTINUOUS
 10
9.1233079492
 20
4.2194328058
 11
9.1233079492
 21
4.2042984344
  0
LINE
  5
558
100
AcDbEntity
  8
03__ASM_ALL_CURVES
100
AcDbLine
 62
40
  6
CONTINUOUS
 10
9.1687110742
 20
4.1437609326
 11
9.1687110742
 21
4.2345671826
  0
ARC
  5
559
100
AcDbEntity
  8
0
100
AcDbCircle
 62
7
  6
CONTINUOUS
 10
2.950617325
 20
4.4357821826
 40
0.094
100
AcDbArc
 50
90.0
 51
131.267427381
  0
ARC
  5
55A
100
AcDbEntity
  8
0
100
AcDbCircle
 62
7
  6
CONTINUOUS
 10
2.950617325
 20
4.0817821826
 40
0.094
100
AcDbArc
 50
228.732572619
 51
270.0
  0
CIRCLE
  5
55B
100
AcDbEntity
  8
0
100
AcDbCircle
 62
7
  6
CONTINUOUS
 10
6.643617325
 20
4.2587821826
 40
0.078
  0
ARC
  5
55C
100
AcDbEntity
  8
0
100
AcDbCircle
 62
7
  6
CONTINUOUS
 10
4.8703196288
 20
4.7592821826
 40
0.018
100
AcDbArc
 50
194.9999999964
 51
270.0
  0
ARC
  5
55D
100
AcDbEntity
  8
0
100
AcDbCircle
 62
7
  6
CONTINUOUS
 10
5.5118651462
 20
3.7827821826
 40
0.018
100
AcDbArc
 50
90.0
 51
165.0000000037
  0
ARC
  5
55E
100
AcDbEntity
  8
0
100
AcDbCircle
 62
7
  6
CONTINUOUS
 10
5.5118651462
 20
4.7347821826
 40
0.018
100
AcDbArc
 50
194.9999999999
 51
270.0
  0
ARC
  5
55F
100
AcDbEntity
  8
0
100
AcDbCircle
 62
7
  6
CONTINUOUS
 10
5.7593695038
 20
3.7827821826
 40
0.018
100
AcDbArc
 50
14.9999999958
 51
90.0
  0
ARC
  5
560
100
AcDbEntity
  8
0
100
AcDbCircle
 62
7
  6
CONTINUOUS
 10
5.7593695038
 20
4.7347821826
 40
0.018
100
AcDbArc
 50
270.0
 51
345.0000000001
  0
ARC
  5
561
100
AcDbEntity
  8
0
100
AcDbCircle
 62
7
  6
CONTINUOUS
 10
5.149934259
 20
3.7582821826
 40
0.018
100
AcDbArc
 50
14.9999999964
 51
90.0
  0
ARC
  5
562
100
AcDbEntity
  8
0
100
AcDbCircle
 62
7
  6
CONTINUOUS
 10
5.149934259
 20
4.7592821826
 40
0.018
100
AcDbArc
 50
270.0
 51
345.0
  0
ARC
  5
563
100
AcDbEntity
  8
0
100
AcDbCircle
 62
7
  6
CONTINUOUS
 10
2.637617325
 20
4.0972821826
 40
0.0175
100
AcDbArc
 50
180.0
 51
360.0
  0
ARC
  5
564
100
AcDbEntity
  8
THREAD
100
AcDbCircle
 62
7
  6
CONTINUOUS
 10
6.0371117715
 20
3.7877821826
 40
0.013
100
AcDbArc
 50
29.999999987
 51
90.0
  0
ARC
  5
565
100
AcDbEntity
  8
THREAD
100
AcDbCircle
 62
7
  6
CONTINUOUS
 10
6.0371117715
 20
4.7297821826
 40
0.013
100
AcDbArc
 50
270.0
 51
330.0000000154
  0
SPLINE
  5
566
100
AcDbEntity
  8
0
100
AcDbSpline
 62
7
  6
CONTINUOUS
 70
0
 71
3
 72
20
 73
16
 74
14
 42
0.0000001
 43
0.0000001
 44
0.0000000001
 12
0.0
 22
0.0416605862
 32
0.0
 13
0.0
 23
-0.0416605862
 33
0.0
 40
0.0
 40
0.0
 40
0.0
 40
0.0
 40
0.0489307848
 40
0.1062135912
 40
0.175871992
 40
0.2580136346
 40
0.3503828832
 40
0.4493672053
 40
0.5506327947
 40
0.6496171168
 40
0.7419863654
 40
0.824128008
 40
0.8937864088
 40
0.9510692152
 40
1.0
 40
1.0
 40
1.0
 40
1.0
 10
2.655117325
 20
4.3349057514
 30
0.0
 10
2.655117325
 20
4.3355852465
 30
0.0
 10
2.654695791
 20
4.3370712575
 30
0.0
 10
2.6530605232
 20
4.3389496848
 30
0.0
 10
2.6506086028
 20
4.3405486851
 30
0.0
 10
2.6474493703
 20
4.3418234362
 30
0.0
 10
2.6437462767
 20
4.342715424
 30
0.0
 10
2.6396993678
 20
4.3431746617
 30
0.0
 10
2.6355352822
 20
4.3431746617
 30
0.0
 10
2.6314883733
 20
4.342715424
 30
0.0
 10
2.6277852796
 20
4.3418234362
 30
0.0
 10
2.6246260472
 20
4.3405486851
 30
0.0
 10
2.6221741267
 20
4.3389496848
 30
0.0
 10
2.6205388589
 20
4.3370712575
 30
0.0
 10
2.620117325
 20
4.3355852465
 30
0.0
 10
2.620117325
 20
4.3349057514
 30
0.0
 11
2.655117325
 21
4.3349057514
 31
0.0
 11
2.6546088068
 21
4.3368797907
 31
0.0
 11
2.6531128054
 21
4.338739106
 31
0.0
 11
2.6507162631
 21
4.3403756406
 31
0.0
 11
2.647558458
 21
4.3416942852
 31
0.0
 11
2.6438229105
 21
4.3426184049
 31
0.0
 11
2.6397267169
 21
4.3430942932
 31
0.0
 11
2.6355079331
 21
4.3430942932
 31
0.0
 11
2.6314117395
 21
4.3426184049
 31
0.0
 11
2.6276761919
 21
4.3416942852
 31
0.0
 11
2.6245183869
 21
4.3403756406
 31
0.0
 11
2.6221218445
 21
4.338739106
 31
0.0
 11
2.6206258432
 21
4.3368797907
 31
0.0
 11
2.620117325
 21
4.3349057514
 31
0.0
  0
SPLINE
  5
567
100
AcDbEntity
  8
0
100
AcDbSpline
 62
7
  6
CONTINUOUS
 70
0
 71
3
 72
15
 73
11
 74
9
 42
0.0000001
 43
0.0000001
 44
0.0000000001
 12
0.0
 22
0.1099409465
 32
0.0
 13
0.0
 23
-0.1099409465
 33
0.0
 40
0.0
 40
0.0
 40
0.0
 40
0.0
 40
0.125
 40
0.25
 40
0.375
 40
0.5
 40
0.625
 40
0.75
 40
0.875
 40
1.0
 40
1.0
 40
1.0
 40
1.0
 10
7.090617325
 20
4.6717821826
 30
0.0
 10
7.090617325
 20
4.6763630554
 30
0.0
 10
7.0887949405
 20
4.6855248009
 30
0.0
 10
7.0810103725
 20
4.6971752302
 30
0.0
 10
7.0693599433
 20
4.7049597981
 30
0.0
 10
7.055617325
 20
4.7076933748
 30
0.0
 10
7.0418747067
 20
4.7049597981
 30
0.0
 10
7.0302242774
 20
4.6971752302
 30
0.0
 10
7.0224397095
 20
4.6855248009
 30
0.0
 10
7.020617325
 20
4.6763630554
 30
0.0
 10
7.020617325
 20
4.6717821826
 30
0.0
 11
7.090617325
 21
4.6717821826
 31
0.0
 11
7.0879531086
 21
4.6851761027
 31
0.0
 11
7.0803660623
 21
4.6965309199
 31
0.0
 11
7.0690112451
 21
4.7041179662
 31
0.0
 11
7.055617325
 21
4.7067821826
 31
0.0
 11
7.0422234048
 21
4.7041179662
 31
0.0
 11
7.0308685876
 21
4.6965309199
 31
0.0
 11
7.0232815413
 21
4.6851761027
 31
0.0
 11
7.020617325
 21
4.6717821826
 31
0.0
  0
SPLINE
  5
568
100
AcDbEntity
  8
0
100
AcDbSpline
 62
7
  6
CONTINUOUS
 70
0
 71
3
 72
15
 73
11
 74
9
 42
0.0000001
 43
0.0000001
 44
0.0000000001
 12
0.0
 22
-0.1099409465
 32
0.0
 13
0.0
 23
0.1099409465
 33
0.0
 40
0.0
 40
0.0
 40
0.0
 40
0.0
 40
0.125
 40
0.25
 40
0.375
 40
0.5
 40
0.625
 40
0.75
 40
0.875
 40
1.0
 40
1.0
 40
1.0
 40
1.0
 10
7.090617325
 20
3.8457821826
 30
0.0
 10
7.090617325
 20
3.8412013098
 30
0.0
 10
7.0887949405
 20
3.8320395643
 30
0.0
 10
7.0810103725
 20
3.820389135
 30
0.0
 10
7.0693599433
 20
3.8126045671
 30
0.0
 10
7.055617325
 20
3.8098709903
 30
0.0
 10
7.0418747067
 20
3.8126045671
 30
0.0
 10
7.0302242774
 20
3.820389135
 30
0.0
 10
7.0224397095
 20
3.8320395643
 30
0.0
 10
7.020617325
 20
3.8412013098
 30
0.0
 10
7.020617325
 20
3.8457821826
 30
0.0
 11
7.090617325
 21
3.8457821826
 31
0.0
 11
7.0879531086
 21
3.8323882625
 31
0.0
 11
7.0803660623
 21
3.8210334453
 31
0.0
 11
7.0690112451
 21
3.813446399
 31
0.0
 11
7.055617325
 21
3.8107821826
 31
0.0
 11
7.0422234048
 21
3.813446399
 31
0.0
 11
7.0308685876
 21
3.8210334453
 31
0.0
 11
7.0232815413
 21
3.8323882625
 31
0.0
 11
7.020617325
 21
3.8457821826
 31
0.0
  0
SPLINE
  5
569
100
AcDbEntity
  8
0
100
AcDbSpline
 62
7
  6
CONTINUOUS
 70
0
 71
3
 72
14
 73
10
 74
8
 42
0.0000001
 43
0.0000001
 44
0.0000000001
 12
0.0
 22
0.0916172274
 32
0.0
 13
-0.045846371
 23
-0.079336773
 33
0.0
 40
0.0
 40
0.0
 40
0.0
 40
0.0
 40
0.1500003733
 40
0.3000007465
 40
0.4500011198
 40
0.6000014931
 40
0.7500018663
 40
0.9000022396
 40
1.0
 40
1.0
 40
1.0
 40
1.0
 10
5.973617325
 20
4.7517821826
 30
0.0
 10
5.973617325
 20
4.7563630554
 30
0.0
 10
5.9717949405
 20
4.7655248009
 30
0.0
 10
5.9640103725
 20
4.7771752302
 30
0.0
 10
5.9523599433
 20
4.7849597981
 30
0.0
 10
5.938617325
 20
4.7876933748
 30
0.0
 10
5.9248747067
 20
4.7849597981
 30
0.0
 10
5.914518834
 20
4.7780402252
 30
0.0
 10
5.9098361527
 20
4.7719257933
 30
0.0
 10
5.9083079745
 20
4.7692812934
 30
0.0
 11
5.973617325
 21
4.7517821826
 31
0.0
 11
5.9709531086
 21
4.7651761027
 31
0.0
 11
5.9633660623
 21
4.7765309199
 31
0.0
 11
5.9520112451
 21
4.7841179662
 31
0.0
 11
5.938617325
 21
4.7867821826
 31
0.0
 11
5.9252234048
 21
4.7841179662
 31
0.0
 11
5.9138685876
 21
4.7765309199
 31
0.0
 11
5.9083079745
 21
4.7692812934
 31
0.0
  0
SPLINE
  5
56A
100
AcDbEntity
  8
0
100
AcDbSpline
 62
7
  6
CONTINUOUS
 70
0
 71
3
 72
9
 73
5
 74
3
 42
0.0000001
 43
0.0000001
 44
0.0000000001
 12
-0.0091694111
 22
-0.0158675915
 32
0.0
 13
0.0
 23
-0.0183237191
 33
0.0
 40
0.0
 40
0.0
 40
0.0
 40
0.0
 40
0.2500093315
 40
1.0
 40
1.0
 40
1.0
 40
1.0
 10
5.9083079745
 20
4.7692812934
 30
0.0
 10
5.9075438284
 20
4.7679589448
 30
0.0
 10
5.9048322631
 20
4.7624709617
 30
0.0
 10
5.903617325
 20
4.7563630554
 30
0.0
 10
5.903617325
 20
4.7517821826
 30
0.0
 11
5.9083079745
 21
4.7692812934
 31
0.0
 11
5.9062815413
 21
4.7651761027
 31
0.0
 11
5.903617325
 21
4.7517821826
 31
0.0
  0
SPLINE
  5
56B
100
AcDbEntity
  8
0
100
AcDbSpline
 62
7
  6
CONTINUOUS
 70
0
 71
3
 72
14
 73
10
 74
8
 42
0.0000001
 43
0.0000001
 44
0.0000000001
 12
0.0
 22
-0.0916172274
 32
0.0
 13
-0.045846371
 23
0.079336773
 33
0.0
 40
0.0
 40
0.0
 40
0.0
 40
0.0
 40
0.1500003733
 40
0.3000007465
 40
0.4500011198
 40
0.6000014931
 40
0.7500018663
 40
0.9000022396
 40
1.0
 40
1.0
 40
1.0
 40
1.0
 10
5.973617325
 20
3.7657821826
 30
0.0
 10
5.973617325
 20
3.7612013098
 30
0.0
 10
5.9717949405
 20
3.7520395643
 30
0.0
 10
5.9640103725
 20
3.740389135
 30
0.0
 10
5.9523599433
 20
3.7326045671
 30
0.0
 10
5.938617325
 20
3.7298709903
 30
0.0
 10
5.9248747067
 20
3.7326045671
 30
0.0
 10
5.914518834
 20
3.73952414
 30
0.0
 10
5.9098361527
 20
3.7456385719
 30
0.0
 10
5.9083079745
 20
3.7482830718
 30
0.0
 11
5.973617325
 21
3.7657821826
 31
0.0
 11
5.9709531086
 21
3.7523882625
 31
0.0
 11
5.9633660623
 21
3.7410334453
 31
0.0
 11
5.9520112451
 21
3.733446399
 31
0.0
 11
5.938617325
 21
3.7307821826
 31
0.0
 11
5.9252234048
 21
3.733446399
 31
0.0
 11
5.9138685876
 21
3.7410334453
 31
0.0
 11
5.9083079745
 21
3.7482830718
 31
0.0
  0
SPLINE
  5
56C
100
AcDbEntity
  8
0
100
AcDbSpline
 62
7
  6
CONTINUOUS
 70
0
 71
3
 72
9
 73
5
 74
3
 42
0.0000001
 43
0.0000001
 44
0.0000000001
 12
-0.0091694111
 22
0.0158675915
 32
0.0
 13
0.0
 23
0.0183237191
 33
0.0
 40
0.0
 40
0.0
 40
0.0
 40
0.0
 40
0.2500093315
 40
1.0
 40
1.0
 40
1.0
 40
1.0
 10
5.9083079745
 20
3.7482830718
 30
0.0
 10
5.9075438284
 20
3.7496054204
 30
0.0
 10
5.9048322631
 20
3.7550934035
 30
0.0
 10
5.903617325
 20
3.7612013098
 30
0.0
 10
5.903617325
 20
3.7657821826
 30
0.0
 11
5.9083079745
 21
3.7482830718
 31
0.0
 11
5.9062815413
 21
3.7523882625
 31
0.0
 11
5.903617325
 21
3.7657821826
 31
0.0
  0
SPLINE
  5
56D
100
AcDbEntity
  8
0
100
AcDbSpline
 62
7
  6
CONTINUOUS
 70
0
 71
3
 72
15
 73
11
 74
9
 42
0.0000001
 43
0.0000001
 44
0.0000000001
 12
0.0
 22
0.1099409465
 32
0.0
 13
-0.0
 23
-0.1099409465
 33
0.0
 40
0.0
 40
0.0
 40
0.0
 40
0.0
 40
0.125
 40
0.25
 40
0.375
 40
0.5
 40
0.625
 40
0.75
 40
0.875
 40
1.0
 40
1.0
 40
1.0
 40
1.0
 10
5.351617325
 20
4.7907821826
 30
0.0
 10
5.351617325
 20
4.7953630554
 30
0.0
 10
5.3497949405
 20
4.8045248009
 30
0.0
 10
5.3420103725
 20
4.8161752302
 30
0.0
 10
5.3303599433
 20
4.8239597981
 30
0.0
 10
5.316617325
 20
4.8266933748
 30
0.0
 10
5.3028747067
 20
4.8239597981
 30
0.0
 10
5.2912242774
 20
4.8161752302
 30
0.0
 10
5.2834397095
 20
4.8045248009
 30
0.0
 10
5.281617325
 20
4.7953630554
 30
0.0
 10
5.281617325
 20
4.7907821826
 30
0.0
 11
5.351617325
 21
4.7907821826
 31
0.0
 11
5.3489531086
 21
4.8041761027
 31
0.0
 11
5.3413660623
 21
4.8155309199
 31
0.0
 11
5.3300112451
 21
4.8231179662
 31
0.0
 11
5.316617325
 21
4.8257821826
 31
0.0
 11
5.3032234048
 21
4.8231179662
 31
0.0
 11
5.2918685876
 21
4.8155309199
 31
0.0
 11
5.2842815413
 21
4.8041761027
 31
0.0
 11
5.281617325
 21
4.7907821826
 31
0.0
  0
SPLINE
  5
56E
100
AcDbEntity
  8
0
100
AcDbSpline
 62
7
  6
CONTINUOUS
 70
0
 71
3
 72
15
 73
11
 74
9
 42
0.0000001
 43
0.0000001
 44
0.0000000001
 12
0.0
 22
-0.1099409465
 32
0.0
 13
-0.0
 23
0.1099409465
 33
0.0
 40
0.0
 40
0.0
 40
0.0
 40
0.0
 40
0.125
 40
0.25
 40
0.375
 40
0.5
 40
0.625
 40
0.75
 40
0.875
 40
1.0
 40
1.0
 40
1.0
 40
1.0
 10
5.351617325
 20
3.7267821826
 30
0.0
 10
5.351617325
 20
3.7222013098
 30
0.0
 10
5.3497949405
 20
3.7130395643
 30
0.0
 10
5.3420103725
 20
3.701389135
 30
0.0
 10
5.3303599433
 20
3.6936045671
 30
0.0
 10
5.316617325
 20
3.6908709903
 30
0.0
 10
5.3028747067
 20
3.6936045671
 30
0.0
 10
5.2912242774
 20
3.701389135
 30
0.0
 10
5.2834397095
 20
3.7130395643
 30
0.0
 10
5.281617325
 20
3.7222013098
 30
0.0
 10
5.281617325
 20
3.7267821826
 30
0.0
 11
5.351617325
 21
3.7267821826
 31
0.0
 11
5.3489531086
 21
3.7133882625
 31
0.0
 11
5.3413660623
 21
3.7020334453
 31
0.0
 11
5.3300112451
 21
3.694446399
 31
0.0
 11
5.316617325
 21
3.6917821826
 31
0.0
 11
5.3032234048
 21
3.694446399
 31
0.0
 11
5.2918685876
 21
3.7020334453
 31
0.0
 11
5.2842815413
 21
3.7133882625
 31
0.0
 11
5.281617325
 21
3.7267821826
 31
0.0
  0
SPLINE
  5
56F
100
AcDbEntity
  8
0
100
AcDbSpline
 62
7
  6
CONTINUOUS
 70
0
 71
3
 72
15
 73
11
 74
9
 42
0.0000001
 43
0.0000001
 44
0.0000000001
 12
0.0
 22
0.1099409465
 32
0.0
 13
-0.0
 23
-0.1099409465
 33
0.0
 40
0.0
 40
0.0
 40
0.0
 40
0.0
 40
0.125
 40
0.25
 40
0.375
 40
0.5
 40
0.625
 40
0.75
 40
0.875
 40
1.0
 40
1.0
 40
1.0
 40
1.0
 10
4.757617325
 20
4.7907821826
 30
0.0
 10
4.757617325
 20
4.7953630554
 30
0.0
 10
4.7557949405
 20
4.8045248009
 30
0.0
 10
4.7480103725
 20
4.8161752302
 30
0.0
 10
4.7363599433
 20
4.8239597981
 30
0.0
 10
4.722617325
 20
4.8266933748
 30
0.0
 10
4.7088747067
 20
4.8239597981
 30
0.0
 10
4.6972242774
 20
4.8161752302
 30
0.0
 10
4.6894397095
 20
4.8045248009
 30
0.0
 10
4.687617325
 20
4.7953630554
 30
0.0
 10
4.687617325
 20
4.7907821826
 30
0.0
 11
4.757617325
 21
4.7907821826
 31
0.0
 11
4.7549531086
 21
4.8041761027
 31
0.0
 11
4.7473660623
 21
4.8155309199
 31
0.0
 11
4.7360112451
 21
4.8231179662
 31
0.0
 11
4.722617325
 21
4.8257821826
 31
0.0
 11
4.7092234048
 21
4.8231179662
 31
0.0
 11
4.6978685876
 21
4.8155309199
 31
0.0
 11
4.6902815413
 21
4.8041761027
 31
0.0
 11
4.687617325
 21
4.7907821826
 31
0.0
  0
SPLINE
  5
570
100
AcDbEntity
  8
0
100
AcDbSpline
 62
7
  6
CONTINUOUS
 70
0
 71
3
 72
15
 73
11
 74
9
 42
0.0000001
 43
0.0000001
 44
0.0000000001
 12
0.0
 22
-0.1099409465
 32
0.0
 13
-0.0
 23
0.1099409465
 33
0.0
 40
0.0
 40
0.0
 40
0.0
 40
0.0
 40
0.125
 40
0.25
 40
0.375
 40
0.5
 40
0.625
 40
0.75
 40
0.875
 40
1.0
 40
1.0
 40
1.0
 40
1.0
 10
4.757617325
 20
3.7267821826
 30
0.0
 10
4.757617325
 20
3.7222013098
 30
0.0
 10
4.7557949405
 20
3.7130395643
 30
0.0
 10
4.7480103725
 20
3.701389135
 30
0.0
 10
4.7363599433
 20
3.6936045671
 30
0.0
 10
4.722617325
 20
3.6908709903
 30
0.0
 10
4.7088747067
 20
3.6936045671
 30
0.0
 10
4.6972242774
 20
3.701389135
 30
0.0
 10
4.6894397095
 20
3.7130395643
 30
0.0
 10
4.687617325
 20
3.7222013098
 30
0.0
 10
4.687617325
 20
3.7267821826
 30
0.0
 11
4.757617325
 21
3.7267821826
 31
0.0
 11
4.7549531086
 21
3.7133882625
 31
0.0
 11
4.7473660623
 21
3.7020334453
 31
0.0
 11
4.7360112451
 21
3.694446399
 31
0.0
 11
4.722617325
 21
3.6917821826
 31
0.0
 11
4.7092234048
 21
3.694446399
 31
0.0
 11
4.6978685876
 21
3.7020334453
 31
0.0
 11
4.6902815413
 21
3.7133882625
 31
0.0
 11
4.687617325
 21
3.7267821826
 31
0.0
  0
SPLINE
  5
571
100
AcDbEntity
  8
0
100
AcDbSpline
 62
7
  6
CONTINUOUS
 70
0
 71
3
 72
16
 73
12
 74
10
 42
0.0000001
 43
0.0000001
 44
0.0000000001
 12
0.0906480335
 22
0.2719441006
 32
0.0
 13
-0.0906480335
 23
0.2719441006
 33
0.0
 40
0.0
 40
0.0
 40
0.0
 40
0.0
 40
0.1184548733
 40
0.230565332
 40
0.3393089466
 40
0.4465959239
 40
0.5535015371
 40
0.6607803311
 40
0.769505023
 40
0.8815660643
 40
1.0
 40
1.0
 40
1.0
 40
1.0
 10
3.1387459146
 20
3.9777821826
 30
0.0
 10
3.1423251484
 20
3.9885198839
 30
0.0
 10
3.148756235
 20
4.0096059308
 30
0.0
 10
3.1562756647
 20
4.0411669856
 30
0.0
 10
3.1613638921
 20
4.0721358037
 30
0.0
 10
3.1639507543
 20
4.1029188733
 30
0.0
 10
3.163949566
 20
4.1336726743
 30
0.0
 10
3.1613607254
 20
4.1644529657
 30
0.0
 10
3.1562719907
 20
4.1954142675
 30
0.0
 10
3.1487537339
 20
4.2269667991
 30
0.0
 10
3.1423245157
 20
4.2480463792
 30
0.0
 10
3.1387459146
 20
4.2587821826
 30
0.0
 11
3.1387459146
 21
3.9777821826
 31
0.0
 11
3.1485843842
 21
4.0102812105
 31
0.0
 11
3.1559715547
 21
4.0415576009
 31
0.0
 11
3.1609761721
 21
4.0723250534
 31
0.0
 11
3.1635231374
 21
4.1029736746
 31
0.0
 11
3.1635219672
 21
4.1336186231
 31
0.0
 11
3.1609730271
 21
4.1642647262
 31
0.0
 11
3.1559675881
 21
4.1950265494
 31
0.0
 11
3.1485828166
 21
4.226288951
 31
0.0
 11
3.1387459146
 21
4.2587821826
 31
0.0
  0
SPLINE
  5
572
100
AcDbEntity
  8
0
100
AcDbSpline
 62
7
  6
CONTINUOUS
 70
0
 71
3
 72
17
 73
13
 74
11
 42
0.0000001
 43
0.0000001
 44
0.0000000001
 12
-0.1487434696
 22
0.2576312467
 32
0.0
 13
0.1487434696
 23
0.2576312467
 33
0.0
 40
0.0
 40
0.0
 40
0.0
 40
0.0
 40
0.1169386465
 40
0.2216811606
 40
0.3184580982
 40
0.4103908543
 40
0.5000417254
 40
0.5896883004
 40
0.6816074548
 40
0.7783545182
 40
0.8830694657
 40
1.0
 40
1.0
 40
1.0
 40
1.0
 10
3.0370881763
 20
3.9777821826
 30
0.0
 10
3.0312902229
 20
3.9878245324
 30
0.0
 10
3.0209503953
 20
4.0072543798
 30
0.0
 10
3.0085767719
 20
4.0363564574
 30
0.0
 10
2.9999233252
 20
4.0641980201
 30
0.0
 10
2.9947662206
 20
4.0913813397
 30
0.0
 10
2.9930493402
 20
4.1182942246
 30
0.0
 10
2.9947692259
 20
4.1452055494
 30
0.0
 10
2.9999279775
 20
4.17238369
 30
0.0
 10
3.0085808293
 20
4.200217996
 30
0.0
 10
3.0209524167
 20
4.2293138357
 30
0.0
 10
3.0312906251
 20
4.2487405295
 30
0.0
 10
3.0370881763
 20
4.2587821826
 30
0.0
 11
3.0370881763
 21
3.9777821826
 31
0.0
 11
3.0208619448
 21
4.0085538396
 31
0.0
 11
3.0087771883
 21
4.0372744762
 31
0.0
 11
3.0003245151
 21
4.0647955448
 31
0.0
 11
2.9952916297
 21
4.09167726
 31
0.0
 11
2.9936173253
 21
4.1182946161
 31
0.0
 11
2.9952945676
 21
4.1449105066
 31
0.0
 11
3.0003292143
 21
4.1717877753
 31
0.0
 11
3.0087808293
 21
4.1992998719
 31
0.0
 11
3.0208629805
 21
4.2280127076
 31
0.0
 11
3.0370881763
 21
4.2587821826
 31
0.0
  0
SPLINE
  5
573
100
AcDbEntity
  8
0
100
AcDbSpline
 62
7
  6
CONTINUOUS
 70
0
 71
3
 72
16
 73
12
 74
10
 42
0.0000001
 43
0.0000001
 44
0.0000000001
 12
0.0906480335
 22
0.2719441006
 32
0.0
 13
-0.0906480335
 23
0.2719441006
 33
0.0
 40
0.0
 40
0.0
 40
0.0
 40
0.0
 40
0.1184548733
 40
0.230565332
 40
0.3393089466
 40
0.4465959239
 40
0.5535015371
 40
0.6607803311
 40
0.769505023
 40
0.8815660643
 40
1.0
 40
1.0
 40
1.0
 40
1.0
 10
3.1387459146
 20
4.2587821826
 30
0.0
 10
3.1423251484
 20
4.2695198839
 30
0.0
 10
3.148756235
 20
4.2906059308
 30
0.0
 10
3.1562756647
 20
4.3221669856
 30
0.0
 10
3.1613638921
 20
4.3531358037
 30
0.0
 10
3.1639507543
 20
4.3839188733
 30
0.0
 10
3.163949566
 20
4.4146726743
 30
0.0
 10
3.1613607254
 20
4.4454529657
 30
0.0
 10
3.1562719907
 20
4.4764142675
 30
0.0
 10
3.1487537339
 20
4.5079667991
 30
0.0
 10
3.1423245157
 20
4.5290463792
 30
0.0
 10
3.1387459146
 20
4.5397821826
 30
0.0
 11
3.1387459146
 21
4.2587821826
 31
0.0
 11
3.1485843842
 21
4.2912812105
 31
0.0
 11
3.1559715547
 21
4.3225576009
 31
0.0
 11
3.1609761721
 21
4.3533250534
 31
0.0
 11
3.1635231374
 21
4.3839736746
 31
0.0
 11
3.1635219672
 21
4.4146186231
 31
0.0
 11
3.1609730271
 21
4.4452647262
 31
0.0
 11
3.1559675881
 21
4.4760265494
 31
0.0
 11
3.1485828166
 21
4.507288951
 31
0.0
 11
3.1387459146
 21
4.5397821826
 31
0.0
  0
SPLINE
  5
574
100
AcDbEntity
  8
0
100
AcDbSpline
 62
7
  6
CONTINUOUS
 70
0
 71
3
 72
17
 73
13
 74
11
 42
0.0000001
 43
0.0000001
 44
0.0000000001
 12
-0.1487434696
 22
0.2576312467
 32
0.0
 13
0.1487434696
 23
0.2576312467
 33
0.0
 40
0.0
 40
0.0
 40
0.0
 40
0.0
 40
0.1169386465
 40
0.2216811606
 40
0.3184580982
 40
0.4103908543
 40
0.5000417254
 40
0.5896883004
 40
0.6816074548
 40
0.7783545182
 40
0.8830694657
 40
1.0
 40
1.0
 40
1.0
 40
1.0
 10
3.0370881763
 20
4.2587821826
 30
0.0
 10
3.0312902229
 20
4.2688245324
 30
0.0
 10
3.0209503953
 20
4.2882543798
 30
0.0
 10
3.0085767719
 20
4.3173564574
 30
0.0
 10
2.9999233252
 20
4.3451980201
 30
0.0
 10
2.9947662206
 20
4.3723813397
 30
0.0
 10
2.9930493402
 20
4.3992942246
 30
0.0
 10
2.9947692259
 20
4.4262055494
 30
0.0
 10
2.9999279775
 20
4.45338369
 30
0.0
 10
3.0085808293
 20
4.481217996
 30
0.0
 10
3.0209524167
 20
4.5103138357
 30
0.0
 10
3.0312906251
 20
4.5297405295
 30
0.0
 10
3.0370881763
 20
4.5397821826
 30
0.0
 11
3.0370881763
 21
4.2587821826
 31
0.0
 11
3.0208619448
 21
4.2895538396
 31
0.0
 11
3.0087771883
 21
4.3182744762
 31
0.0
 11
3.0003245151
 21
4.3457955448
 31
0.0
 11
2.9952916297
 21
4.37267726
 31
0.0
 11
2.9936173253
 21
4.3992946161
 31
0.0
 11
2.9952945676
 21
4.4259105066
 31
0.0
 11
3.0003292143
 21
4.4527877753
 31
0.0
 11
3.0087808293
 21
4.4802998719
 31
0.0
 11
3.0208629805
 21
4.5090127076
 31
0.0
 11
3.0370881763
 21
4.5397821826
 31
0.0
  0
SPLINE
  5
575
100
AcDbEntity
  8
0
100
AcDbSpline
 62
7
  6
CONTINUOUS
 70
0
 71
3
 72
11
 73
7
 74
5
 42
0.0000001
 43
0.0000001
 44
0.0000000001
 12
0.0493070456
 22
0.0
 32
0.0
 13
0.0353293237
 23
-0.0345225368
 33
0.0
 40
0.0
 40
0.0
 40
0.0
 40
0.0
 40
0.2817746339
 40
0.5708588966
 40
0.8560480209
 40
1.0
 40
1.0
 40
1.0
 40
1.0
 10
6.607617325
 20
4.1998999211
 30
0.0
 10
6.6122484832
 20
4.1998999211
 30
0.0
 10
6.6216636783
 20
4.1988418895
 30
0.0
 10
6.6350511788
 20
4.1941566471
 30
0.0
 10
6.6451538099
 20
4.187871604
 30
0.0
 10
6.650479386
 20
4.1832111782
 30
0.0
 10
6.652174628
 20
4.181554649
 30
0.0
 11
6.607617325
 21
4.1998999211
 31
0.0
 11
6.6214243004
 21
4.1983519968
 31
0.0
 11
6.6348832415
 21
4.1936583511
 31
0.0
 11
6.646826565
 21
4.1862359408
 31
0.0
 11
6.652174628
 21
4.181554649
 31
0.0
  0
SPLINE
  5
576
100
AcDbEntity
  8
0
100
AcDbSpline
 62
7
  6
CONTINUOUS
 70
0
 71
3
 72
8
 73
4
 74
2
 42
0.0000001
 43
0.0000001
 44
0.0000000001
 12
-0.0129761193
 22
0.0
 32
0.0
 13
-0.0127309744
 23
-0.002687386
 33
0.0
 40
0.0
 40
0.0
 40
0.0
 40
0.0
 40
1.0
 40
1.0
 40
1.0
 40
1.0
 10
6.607617325
 20
4.1998999211
 30
0.0
 10
6.6032919519
 20
4.1998999211
 30
0.0
 10
6.5989524431
 20
4.199444343
 30
0.0
 10
6.594708785
 20
4.1985485477
 30
0.0
 11
6.607617325
 21
4.1998999211
 31
0.0
 11
6.594708785
 21
4.1985485477
 31
0.0
  0
SPLINE
  5
577
100
AcDbEntity
  8
0
100
AcDbSpline
 62
7
  6
CONTINUOUS
 70
0
 71
3
 72
8
 73
4
 74
2
 42
0.0000001
 43
0.0000001
 44
0.0000000001
 12
0.0127847929
 22
-0.0027111032
 32
0.0
 13
0.0130337883
 23
0.0
 33
0.0
 40
0.0
 40
0.0
 40
0.0
 40
0.0
 40
1.0
 40
1.0
 40
1.0
 40
1.0
 10
6.5946523138
 20
4.3190277566
 30
0.0
 10
6.5989139114
 20
4.3181240555
 30
0.0
 10
6.6032727289
 20
4.3176644441
 30
0.0
 10
6.607617325
 20
4.3176644441
 30
0.0
 11
6.5946523138
 21
4.3190277566
 31
0.0
 11
6.607617325
 21
4.3176644441
 31
0.0
  0
SPLINE
  5
578
100
AcDbEntity
  8
0
100
AcDbSpline
 62
7
  6
CONTINUOUS
 70
0
 71
3
 72
11
 73
7
 74
5
 42
0.0000001
 43
0.0000001
 44
0.0000000001
 12
-0.0353376004
 22
-0.0345791662
 32
0.0
 13
-0.0493522405
 23
0.0
 33
0.0
 40
0.0
 40
0.0
 40
0.0
 40
0.0
 40
0.1442180141
 40
0.4287732719
 40
0.7178359384
 40
1.0
 40
1.0
 40
1.0
 40
1.0
 10
6.6522070923
 20
4.336041463
 30
0.0
 10
6.6505083195
 20
4.3343791501
 30
0.0
 10
6.6451849148
 20
4.3297154923
 30
0.0
 10
6.6350821417
 20
4.3234228583
 30
0.0
 10
6.6216891961
 20
4.3187266206
 30
0.0
 10
6.6122591345
 20
4.3176644441
 30
0.0
 10
6.607617325
 20
4.3176644441
 30
0.0
 11
6.6522070923
 21
4.336041463
 31
0.0
 11
6.6468468119
 21
4.3313442867
 31
0.0
 11
6.6349231083
 21
4.3239251571
 31
0.0
 11
6.6214556563
 21
4.3192194836
 31
0.0
 11
6.607617325
 21
4.3176644441
 31
0.0
  0
SPLINE
  5
579
100
AcDbEntity
  8
0
100
AcDbSpline
 62
7
  6
CONTINUOUS
 70
0
 71
3
 72
14
 73
10
 74
8
 42
0.0000001
 43
0.0000001
 44
0.0000000001
 12
-0.1085118701
 22
0.0
 32
0.0
 13
-0.0000340041
 23
-0.1090536841
 33
0.0
 40
0.0
 40
0.0
 40
0.0
 40
0.0
 40
0.1715768662
 40
0.3416073522
 40
0.5070332818
 40
0.6635337576
 40
0.8075580364
 40
0.9384900408
 40
1.0
 40
1.0
 40
1.0
 40
1.0
 10
6.643617325
 20
4.055293901
 30
0.0
 10
6.6374112828
 20
4.055293901
 30
0.0
 10
6.6250174773
 20
4.0540212909
 30
0.0
 10
6.6074215108
 20
4.048424585
 30
0.0
 10
6.5918250056
 20
4.0395817714
 30
0.0
 10
6.5791838436
 20
4.0282221287
 30
0.0
 10
6.5702386037
 20
4.0152343157
 30
0.0
 10
6.5662182275
 20
4.0035595913
 30
0.0
 10
6.5656216202
 20
3.9965600436
 30
0.0
 10
6.565620923
 20
3.9943240811
 30
0.0
 11
6.643617325
 21
4.055293901
 31
0.0
 11
6.6250972811
 21
4.0533853379
 31
0.0
 11
6.607520329
 21
4.0477759453
 31
0.0
 11
6.5919307893
 21
4.0388768973
 31
0.0
 11
6.5793667291
 21
4.027451569
 31
0.0
 11
6.5706298269
 21
4.0144934954
 31
0.0
 11
6.5661769729
 21
4.0010016398
 31
0.0
 11
6.565620923
 21
3.9943240811
 31
0.0
  0
SPLINE
  5
57A
100
AcDbEntity
  8
0
100
AcDbSpline
 62
7
  6
CONTINUOUS
 70
0
 71
3
 72
14
 73
10
 74
8
 42
0.0000001
 43
0.0000001
 44
0.0000000001
 12
0.1085118852
 22
0.0
 32
0.0
 13
0.000033958
 23
0.1090537098
 33
0.0
 40
0.0
 40
0.0
 40
0.0
 40
0.0
 40
0.1715751793
 40
0.3416037879
 40
0.5070273993
 40
0.6635274482
 40
0.8075545457
 40
0.9384893619
 40
1.0
 40
1.0
 40
1.0
 40
1.0
 10
6.643617325
 20
4.4622704642
 30
0.0
 10
6.649823307
 20
4.4622704642
 30
0.0
 10
6.6622169841
 20
4.4635430487
 30
0.0
 10
6.6798127639
 20
4.4691396344
 30
0.0
 10
6.6954091731
 20
4.4779822717
 30
0.0
 10
6.7080504342
 20
4.4893418071
 30
0.0
 10
6.7169958978
 20
4.5023297042
 30
0.0
 10
6.7210164086
 20
4.5140046363
 30
0.0
 10
6.7216130304
 20
4.5210043131
 30
0.0
 10
6.7216137267
 20
4.5232403009
 30
0.0
 11
6.643617325
 21
4.4622704642
 31
0.0
 11
6.6621371913
 21
4.4641789902
 31
0.0
 11
6.6797139696
 21
4.4697882658
 31
0.0
 11
6.695303347
 21
4.4786870957
 31
0.0
 11
6.7078674752
 21
4.4901122839
 31
0.0
 11
6.7166046589
 21
4.5030705391
 31
0.0
 11
6.7210576674
 21
4.5165626671
 31
0.0
 11
6.7216137267
 21
4.5232403009
 31
0.0
  0
SPLINE
  5
57B
100
AcDbEntity
  8
0
100
AcDbSpline
 62
7
  6
CONTINUOUS
 70
0
 71
3
 72
14
 73
10
 74
8
 42
0.0000001
 43
0.0000001
 44
0.0000000001
 12
0.0000337781
 22
-0.1090538087
 32
0.0
 13
0.1085119429
 23
0.0
 33
0.0
 40
0.0
 40
0.0
 40
0.0
 40
0.0
 40
0.0615124286
 40
0.192458329
 40
0.3364950373
 40
0.492992175
 40
0.658409111
 40
0.8284332509
 40
1.0
 40
1.0
 40
1.0
 40
1.0
 10
6.5656209243
 20
4.5232403652
 30
0.0
 10
6.5656216169
 20
4.5210043103
 30
0.0
 10
6.5662182848
 20
4.514004157
 30
0.0
 10
6.5702392749
 20
4.5023284805
 30
0.0
 10
6.5791855229
 20
4.48934031
 30
0.0
 10
6.5918271167
 20
4.4779811503
 30
0.0
 10
6.6074232571
 20
4.469139084
 30
0.0
 10
6.6250184331
 20
4.4635429386
 30
0.0
 10
6.6374116445
 20
4.4622704642
 30
0.0
 10
6.643617325
 20
4.4622704642
 30
0.0
 11
6.5656209243
 21
4.5232403652
 31
0.0
 11
6.5661770051
 21
4.5165625314
 31
0.0
 11
6.5706305958
 21
4.5030693211
 31
0.0
 11
6.5793687613
 21
4.49011046
 31
0.0
 11
6.5919330091
 21
4.4786858595
 31
0.0
 11
6.607521951
 21
4.4697877085
 31
0.0
 11
6.6250983492
 21
4.4641788045
 31
0.0
 11
6.643617325
 21
4.4622704642
 31
0.0
  0
SPLINE
  5
57C
100
AcDbEntity
  8
0
100
AcDbSpline
 62
7
  6
CONTINUOUS
 70
0
 71
3
 72
9
 73
5
 74
3
 42
0.0000001
 43
0.0000001
 44
0.0000000001
 12
-0.0036583847
 22
0.0013845035
 32
0.0
 13
-0.0037128186
 23
0.001225378
 33
0.0
 40
0.0
 40
0.0
 40
0.0
 40
0.0
 40
0.4581455571
 40
1.0
 40
1.0
 40
1.0
 40
1.0
 10
6.6893433019
 20
4.475378601
 30
0.0
 10
6.688784611
 20
4.4755900357
 30
0.0
 10
6.6875604167
 20
4.4760388423
 30
0.0
 10
6.6863272629
 20
4.476461145
 30
0.0
 10
6.6856566605
 20
4.4766824705
 30
0.0
 11
6.6893433019
 21
4.475378601
 31
0.0
 11
6.687661012
 21
4.4759957101
 31
0.0
 11
6.6856566605
 21
4.4766824705
 31
0.0
  0
SPLINE
  5
57D
100
AcDbEntity
  8
0
100
AcDbSpline
 62
7
  6
CONTINUOUS
 70
0
 71
3
 72
10
 73
6
 74
4
 42
0.0000001
 43
0.0000001
 44
0.0000000001
 12
-0.0405147441
 22
0.0133714788
 32
0.0
 13
-0.0426301901
 23
0.0
 33
0.0
 40
0.0
 40
0.0
 40
0.0
 40
0.0
 40
0.2819093883
 40
0.6354143845
 40
1.0
 40
1.0
 40
1.0
 40
1.0
 10
6.6856566605
 20
4.4766824705
 30
0.0
 10
6.6818494983
 20
4.4779389856
 30
0.0
 10
6.673093013
 20
4.4802261947
 30
0.0
 10
6.6590094135
 20
4.4823033134
 30
0.0
 10
6.6487981097
 20
4.4827817661
 30
0.0
 10
6.643617325
 20
4.4827817661
 30
0.0
 11
6.6856566605
 21
4.4766824705
 31
0.0
 11
6.6740417755
 21
4.4797780674
 31
0.0
 11
6.659141718
 21
4.4820347771
 31
0.0
 11
6.643617325
 21
4.4827817661
 31
0.0
  0
SPLINE
  5
57E
100
AcDbEntity
  8
0
100
AcDbSpline
 62
7
  6
CONTINUOUS
 70
0
 71
3
 72
11
 73
7
 74
5
 42
0.0000001
 43
0.0000001
 44
0.0000000001
 12
0.0435790209
 22
-0.0164922394
 32
0.0
 13
0.046536718
 23
0.0
 33
0.0
 40
0.0
 40
0.0
 40
0.0
 40
0.0
 40
0.0385183825
 40
0.3422329219
 40
0.6660422564
 40
1.0
 40
1.0
 40
1.0
 40
1.0
 10
6.5978914937
 20
4.0421857085
 30
0.0
 10
6.5984510248
 20
4.0419739571
 30
0.0
 10
6.6034417405
 20
4.0401443913
 30
0.0
 10
6.6134442467
 20
4.0374409544
 30
0.0
 10
6.628226263
 20
4.0352609884
 30
0.0
 10
6.6384368925
 20
4.0347825991
 30
0.0
 10
6.643617325
 20
4.0347825991
 30
0.0
 11
6.5978914937
 21
4.0421857085
 31
0.0
 11
6.5995763228
 21
4.0415677006
 31
0.0
 11
6.6131948525
 21
4.0377858821
 31
0.0
 11
6.628093985
 21
4.0355294851
 31
0.0
 11
6.643617325
 21
4.0347825991
 31
0.0
  0
SPLINE
  5
57F
100
AcDbEntity
  8
0
100
AcDbSpline
 62
7
  6
CONTINUOUS
 70
0
 71
3
 72
14
 73
10
 74
8
 42
0.0000001
 43
0.0000001
 44
0.0000000001
 12
-0.000033825
 22
0.1090537824
 32
0.0
 13
-0.1085119279
 23
-0.0
 33
0.0
 40
0.0
 40
0.0
 40
0.0
 40
0.0
 40
0.0615119146
 40
0.1924550447
 40
0.3364892951
 40
0.4929861139
 40
0.6584056127
 40
0.8284316286
 40
1.0
 40
1.0
 40
1.0
 40
1.0
 10
6.7216137259
 20
3.9943240168
 30
0.0
 10
6.7216130324
 20
3.9965600524
 30
0.0
 10
6.7210163767
 20
4.0035600841
 30
0.0
 10
6.7169955096
 20
4.0152355708
 30
0.0
 10
6.7080494825
 20
4.0282236413
 30
0.0
 10
6.6954079904
 20
4.0395829007
 30
0.0
 10
6.6798117699
 20
4.0484251356
 30
0.0
 10
6.6622164006
 20
4.0540214018
 30
0.0
 10
6.6498230632
 20
4.055293901
 30
0.0
 10
6.643617325
 20
4.055293901
 30
0.0
 11
6.7216137259
 21
3.9943240168
 31
0.0
 11
6.7210576516
 21
4.0010017933
 31
0.0
 11
6.7166042083
 21
4.0144947337
 31
0.0
 11
6.7078662936
 21
4.0274534396
 31
0.0
 11
6.6953021703
 21
4.0388781221
 31
0.0
 11
6.6797130437
 21
4.0477765055
 31
0.0
 11
6.6621364715
 21
4.0533855251
 31
0.0
 11
6.643617325
 21
4.055293901
 31
0.0
  0
SPLINE
  5
580
100
AcDbEntity
  8
0
100
AcDbSpline
 62
7
  6
CONTINUOUS
 70
0
 71
3
 72
22
 73
18
 74
16
 42
0.0000001
 43
0.0000001
 44
0.0000000001
 12
0.1538254178
 22
0.0320812678
 32
0.0
 13
0.1538254178
 23
-0.0320812676
 33
0.0
 40
0.0
 40
0.0
 40
0.0
 40
0.0
 40
0.0110671741
 40
0.0437507038
 40
0.0964532488
 40
0.1664062953
 40
0.2509986076
 40
0.3459538752
 40
0.4481201705
 40
0.5520569274
 40
0.6542454474
 40
0.7492441645
 40
0.8338037733
 40
0.9037172537
 40
0.9563282081
 40
0.9889596561
 40
1.0
 40
1.0
 40
1.0
 40
1.0
 10
6.565617325
 20
3.8847821826
 30
0.0
 10
6.5661847959
 20
3.8849005323
 30
0.0
 10
6.5684290993
 20
3.8853637117
 30
0.0
 10
6.5733853237
 20
3.8863438023
 30
0.0
 10
6.5813926025
 20
3.8877909127
 30
0.0
 10
6.5921197948
 20
3.8894630253
 30
0.0
 10
6.6050915619
 20
3.8910713177
 30
0.0
 10
6.6197966138
 20
3.8923397421
 30
0.0
 10
6.6355552111
 20
3.8930369472
 30
0.0
 10
6.6517084344
 20
3.8930363318
 30
0.0
 10
6.6674704149
 20
3.8923377054
 30
0.0
 10
6.6821770736
 20
3.8910677634
 30
0.0
 10
6.6951471898
 20
3.8894584523
 30
0.0
 10
6.7058657723
 20
3.8877868481
 30
0.0
 10
6.7138635336
 20
3.8863410582
 30
0.0
 10
6.7188109767
 20
3.8853626006
 30
0.0
 10
6.7210512298
 20
3.8849002453
 30
0.0
 10
6.721617325
 20
3.8847821826
 30
0.0
 11
6.565617325
 21
3.8847821826
 31
0.0
 11
6.5673204776
 21
3.8851336727
 31
0.0
 11
6.572358683
 21
3.8861298056
 31
0.0
 11
6.5805082155
 21
3.8876019572
 31
0.0
 11
6.591369369
 21
3.889293551
 31
0.0
 11
6.6045610568
 21
3.8909270588
 31
0.0
 11
6.6194268624
 21
3.8922072537
 31
0.0
 11
6.6354651678
 21
3.8929154614
 31
0.0
 11
6.6517973039
 21
3.8929148404
 31
0.0
 11
6.6678390413
 21
3.8922051899
 31
0.0
 11
6.6827115302
 21
3.890923029
 31
0.0
 11
6.6958979663
 21
3.8892889276
 31
0.0
 11
6.7067528482
 21
3.8875974654
 31
0.0
 11
6.7148881462
 21
3.8861274765
 31
0.0
 11
6.7199183031
 21
3.8851328292
 31
0.0
 11
6.721617325
 21
3.8847821826
 31
0.0
  0
SPLINE
  5
581
100
AcDbEntity
  8
0
100
AcDbSpline
 62
7
  6
CONTINUOUS
 70
0
 71
3
 72
10
 73
6
 74
4
 42
0.0000001
 43
0.0000001
 44
0.0000000001
 12
-0.0466258301
 22
0.0
 32
0.0
 13
-0.0436398738
 23
-0.016580013
 33
0.0
 40
0.0
 40
0.0
 40
0.0
 40
0.0
 40
0.3503853902
 40
0.6888035084
 40
1.0
 40
1.0
 40
1.0
 40
1.0
 10
6.643617325
 20
4.4827817661
 30
0.0
 10
6.6381716551
 20
4.4827817661
 30
0.0
 10
6.6274578952
 20
4.4822547982
 30
0.0
 10
6.6120691299
 20
4.4798607669
 30
0.0
 10
6.6023327798
 20
4.4770658422
 30
0.0
 10
6.5978059212
 20
4.4753459615
 30
0.0
 11
6.643617325
 21
4.4827817661
 31
0.0
 11
6.6273012337
 21
4.4819552984
 31
0.0
 11
6.6117208974
 21
4.4794591466
 31
0.0
 11
6.5978059212
 21
4.4753459615
 31
0.0
  0
SPLINE
  5
582
100
AcDbEntity
  8
0
100
AcDbSpline
 62
7
  6
CONTINUOUS
 70
0
 71
3
 72
10
 73
6
 74
4
 42
0.0000001
 43
0.0000001
 44
0.0000000001
 12
0.042629474
 22
0.0
 32
0.0
 13
0.040514255
 23
0.0133708414
 33
0.0
 40
0.0
 40
0.0
 40
0.0
 40
0.0
 40
0.364221219
 40
0.7173549225
 40
1.0
 40
1.0
 40
1.0
 40
1.0
 10
6.643617325
 20
4.0347825991
 30
0.0
 10
6.6487928446
 20
4.0347825991
 30
0.0
 10
6.6589934999
 20
4.0352600787
 30
0.0
 10
6.6730771327
 20
4.0373348639
 30
0.0
 10
6.6818388743
 20
4.039621928
 30
0.0
 10
6.6856559258
 20
4.0408816622
 30
0.0
 11
6.643617325
 21
4.0347825991
 31
0.0
 11
6.6591259785
 21
4.0355280506
 31
0.0
 11
6.6740105323
 21
4.0377797359
 31
0.0
 11
6.6856559258
 21
4.0408816622
 31
0.0
  0
SPLINE
  5
583
100
AcDbEntity
  8
0
100
AcDbSpline
 62
7
  6
CONTINUOUS
 70
0
 71
3
 72
9
 73
5
 74
3
 42
0.0000001
 43
0.0000001
 44
0.0000000001
 12
0.0037116926
 22
0.0012249627
 32
0.0
 13
0.0036572887
 23
0.0013839843
 33
0.0
 40
0.0
 40
0.0
 40
0.0
 40
0.0
 40
0.5308635515
 40
1.0
 40
1.0
 40
1.0
 40
1.0
 10
6.6856559258
 20
4.0408816622
 30
0.0
 10
6.6863127266
 20
4.0410984248
 30
0.0
 10
6.6875456008
 20
4.0415202979
 30
0.0
 10
6.6887695434
 20
4.0419686337
 30
0.0
 10
6.6893414658
 20
4.0421850596
 30
0.0
 11
6.6856559258
 21
4.0408816622
 31
0.0
 11
6.6876191855
 21
4.0415537965
 31
0.0
 11
6.6893414658
 21
4.0421850596
 31
0.0
  0
SPLINE
  5
584
100
AcDbEntity
  8
0
100
AcDbSpline
 62
7
  6
CONTINUOUS
 70
0
 71
3
 72
22
 73
18
 74
16
 42
0.0000001
 43
0.0000001
 44
0.0000000001
 12
-0.1538254178
 22
-0.0320812678
 32
0.0
 13
-0.1538254178
 23
0.0320812676
 33
0.0
 40
0.0
 40
0.0
 40
0.0
 40
0.0
 40
0.0110671741
 40
0.0437507038
 40
0.0964532488
 40
0.1664062953
 40
0.2509986076
 40
0.3459538752
 40
0.4481201705
 40
0.5520569274
 40
0.6542454474
 40
0.7492441645
 40
0.8338037733
 40
0.9037172537
 40
0.9563282081
 40
0.9889596561
 40
1.0
 40
1.0
 40
1.0
 40
1.0
 10
6.721617325
 20
4.6327821826
 30
0.0
 10
6.7210498541
 20
4.6326638329
 30
0.0
 10
6.7188055506
 20
4.6322006535
 30
0.0
 10
6.7138493262
 20
4.6312205629
 30
0.0
 10
6.7058420474
 20
4.6297734525
 30
0.0
 10
6.6951148551
 20
4.6281013399
 30
0.0
 10
6.6821430881
 20
4.6264930474
 30
0.0
 10
6.6674380362
 20
4.6252246231
 30
0.0
 10
6.6516794389
 20
4.624527418
 30
0.0
 10
6.6355262156
 20
4.6245280334
 30
0.0
 10
6.619764235
 20
4.6252266598
 30
0.0
 10
6.6050575764
 20
4.6264966018
 30
0.0
 10
6.5920874601
 20
4.6281059129
 30
0.0
 10
6.5813688776
 20
4.6297775171
 30
0.0
 10
6.5733711163
 20
4.631223307
 30
0.0
 10
6.5684236732
 20
4.6322017645
 30
0.0
 10
6.5661834201
 20
4.6326641199
 30
0.0
 10
6.565617325
 20
4.6327821826
 30
0.0
 11
6.721617325
 21
4.6327821826
 31
0.0
 11
6.7199141724
 21
4.6324306925
 31
0.0
 11
6.7148759669
 21
4.6314345596
 31
0.0
 11
6.7067264345
 21
4.629962408
 31
0.0
 11
6.6958652809
 21
4.6282708142
 31
0.0
 11
6.6826735931
 21
4.6266373064
 31
0.0
 11
6.6678077875
 21
4.6253571115
 31
0.0
 11
6.6517694821
 21
4.6246489038
 31
0.0
 11
6.635437346
 21
4.6246495248
 31
0.0
 11
6.6193956087
 21
4.6253591752
 31
0.0
 11
6.6045231197
 21
4.6266413362
 31
0.0
 11
6.5913366836
 21
4.6282754376
 31
0.0
 11
6.5804818018
 21
4.6299668998
 31
0.0
 11
6.5723465037
 21
4.6314368887
 31
0.0
 11
6.5673163468
 21
4.632431536
 31
0.0
 11
6.565617325
 21
4.6327821826
 31
0.0
  0
SPLINE
  5
585
100
AcDbEntity
  8
0
100
AcDbSpline
 62
7
  6
CONTINUOUS
 70
0
 71
3
 72
14
 73
10
 74
8
 42
0.0000001
 43
0.0000001
 44
0.0000000001
 12
-0.1019147034
 22
0.0
 32
0.0
 13
0.0000317245
 23
-0.1024236251
 33
0.0
 40
0.0
 40
0.0
 40
0.0
 40
0.0
 40
0.182152011
 40
0.3585160735
 40
0.5234214201
 40
0.6730871348
 40
0.8084327232
 40
0.9360540632
 40
1.0
 40
1.0
 40
1.0
 40
1.0
 10
6.643617325
 20
4.5725791221
 30
0.0
 10
6.6374293356
 20
4.5725791221
 30
0.0
 10
6.6252332095
 20
4.5717816647
 30
0.0
 10
6.6077605146
 20
4.5681521937
 30
0.0
 10
6.5921301086
 20
4.5620587742
 30
0.0
 10
6.5792763398
 20
4.5535062735
 30
0.0
 10
6.5700860276
 20
4.5426085079
 30
0.0
 10
6.5661608548
 20
4.5319601996
 30
0.0
 10
6.5656202481
 20
4.5254235567
 30
0.0
 10
6.5656209243
 20
4.5232403652
 30
0.0
 11
6.643617325
 21
4.5725791221
 31
0.0
 11
6.6250952332
 21
4.5713329156
 31
0.0
 11
6.6075186977
 21
4.5675734808
 31
0.0
 11
6.5919274877
 21
4.5612993115
 31
0.0
 11
6.5793621109
 21
4.552652376
 31
0.0
 11
6.5706290976
 21
4.5419752608
 31
0.0
 11
6.5661772142
 21
4.5297543958
 31
0.0
 11
6.5656209243
 21
4.5232403652
 31
0.0
  0
SPLINE
  5
586
100
AcDbEntity
  8
0
100
AcDbSpline
 62
7
  6
CONTINUOUS
 70
0
 71
3
 72
14
 73
10
 74
8
 42
0.0000001
 43
0.0000001
 44
0.0000000001
 12
0.0000318935
 22
0.102423651
 32
0.0
 13
-0.1019147673
 23
0.0
 33
0.0
 40
0.0
 40
0.0
 40
0.0
 40
0.0
 40
0.063943423
 40
0.1915648604
 40
0.3269101532
 40
0.4765761094
 40
0.641481986
 40
0.8178467069
 40
1.0
 40
1.0
 40
1.0
 40
1.0
 10
6.7216137267
 20
4.5232403009
 30
0.0
 10
6.7216144065
 20
4.5254234071
 30
0.0
 10
6.7210738377
 20
4.5319599709
 30
0.0
 10
6.7171487869
 20
4.5426082335
 30
0.0
 10
6.7079585439
 20
4.5535060742
 30
0.0
 10
6.6951047919
 20
4.5620586529
 30
0.0
 10
6.6794743456
 20
4.5681521375
 30
0.0
 10
6.6620015619
 20
4.5717816539
 30
0.0
 10
6.6498053618
 20
4.5725791221
 30
0.0
 10
6.643617325
 20
4.5725791221
 30
0.0
 11
6.7216137267
 21
4.5232403009
 31
0.0
 11
6.7210574907
 21
4.5297540815
 31
0.0
 11
6.7166057022
 21
4.5419750004
 31
0.0
 11
6.7078727774
 21
4.5526521602
 31
0.0
 11
6.6953074158
 21
4.561299178
 31
0.0
 11
6.6797161643
 21
4.5675734173
 31
0.0
 11
6.6621395581
 21
4.5713328962
 31
0.0
 11
6.643617325
 21
4.5725791221
 31
0.0
  0
SPLINE
  5
587
100
AcDbEntity
  8
0
100
AcDbSpline
 62
7
  6
CONTINUOUS
 70
0
 71
3
 72
14
 73
10
 74
8
 42
0.0000001
 43
0.0000001
 44
0.0000000001
 12
-0.0000319368
 22
-0.1024236578
 32
0.0
 13
0.1019147839
 23
-0.0
 33
0.0
 40
0.0
 40
0.0
 40
0.0
 40
0.0
 40
0.063942938
 40
0.1915644764
 40
0.3269098347
 40
0.4765758152
 40
0.6414817639
 40
0.8178465803
 40
1.0
 40
1.0
 40
1.0
 40
1.0
 10
6.565620923
 20
3.9943240811
 30
0.0
 10
6.5656202423
 20
3.9921409912
 30
0.0
 10
6.5661608033
 20
3.9856044396
 30
0.0
 10
6.5700858335
 20
3.9749561784
 30
0.0
 10
6.5792760709
 20
3.9640583204
 30
0.0
 10
6.5921298244
 20
3.9555057285
 30
0.0
 10
6.6077602773
 20
3.9494122348
 30
0.0
 10
6.6252330732
 20
3.9457827126
 30
0.0
 10
6.6374292828
 20
3.9449852431
 30
0.0
 10
6.643617325
 20
3.9449852431
 30
0.0
 11
6.565620923
 21
3.9943240811
 31
0.0
 11
6.5661771479
 21
3.9878103484
 31
0.0
 11
6.5706289213
 21
3.9755894108
 31
0.0
 11
6.57936184
 21
3.9649122344
 31
0.0
 11
6.5919271998
 21
3.9562652053
 31
0.0
 11
6.6075184582
 21
3.9499909561
 31
0.0
 11
6.625095076
 21
3.9462314711
 31
0.0
 11
6.643617325
 21
3.9449852431
 31
0.0
  0
SPLINE
  5
588
100
AcDbEntity
  8
0
100
AcDbSpline
 62
7
  6
CONTINUOUS
 70
0
 71
3
 72
14
 73
10
 74
8
 42
0.0000001
 43
0.0000001
 44
0.0000000001
 12
0.1019147199
 22
0.0
 32
0.0
 13
-0.0000317685
 23
0.1024236313
 33
0.0
 40
0.0
 40
0.0
 40
0.0
 40
0.0
 40
0.1821521891
 40
0.3585163809
 40
0.5234218269
 40
0.6730875713
 40
0.8084332396
 40
0.9360547228
 40
1.0
 40
1.0
 40
1.0
 40
1.0
 10
6.643617325
 20
3.9449852431
 30
0.0
 10
6.6498053214
 20
3.9449852431
 30
0.0
 10
6.66200146
 20
3.9457827022
 30
0.0
 10
6.6794741706
 20
3.9494121808
 30
0.0
 10
6.6951045848
 20
3.955505612
 30
0.0
 10
6.7079583549
 20
3.9640581291
 30
0.0
 10
6.7171486599
 20
3.9749559166
 30
0.0
 10
6.721073806
 20
3.9856042216
 30
0.0
 10
6.7216144031
 20
3.9921408476
 30
0.0
 10
6.7216137259
 20
3.9943240168
 30
0.0
 11
6.643617325
 21
3.9449852431
 31
0.0
 11
6.6621394378
 21
3.9462314525
 31
0.0
 11
6.6797159881
 21
3.9499908951
 31
0.0
 11
6.6953072068
 21
3.9562650771
 31
0.0
 11
6.7078725805
 21
3.9649120267
 31
0.0
 11
6.7166055856
 21
3.9755891622
 31
0.0
 11
6.7210574502
 21
3.9878100518
 31
0.0
 11
6.7216137259
 21
3.9943240168
 31
0.0
  0
SPLINE
  5
589
100
AcDbEntity
  8
0
100
AcDbSpline
 62
7
  6
CONTINUOUS
 70
0
 71
3
 72
8
 73
4
 74
2
 42
0.0000001
 43
0.0000001
 44
0.0000000001
 12
-0.0043758245
 22
-0.0136378892
 32
0.0
 13
-0.0074157799
 23
-0.0122591458
 33
0.0
 40
0.0
 40
0.0
 40
0.0
 40
0.0
 40
1.0
 40
1.0
 40
1.0
 40
1.0
 10
5.7201932146
 20
4.0471518443
 30
0.0
 10
5.7187346064
 20
4.0426058812
 30
0.0
 10
5.7167286326
 20
4.0382348423
 30
0.0
 10
5.7142567059
 20
4.0341484604
 30
0.0
 11
5.7201932146
 21
4.0471518443
 31
0.0
 11
5.7142567059
 21
4.0341484604
 31
0.0
  0
SPLINE
  5
58A
100
AcDbEntity
  8
0
100
AcDbSpline
 62
7
  6
CONTINUOUS
 70
0
 71
3
 72
12
 73
8
 74
6
 42
0.0000001
 43
0.0000001
 44
0.0000000001
 12
-0.046117811
 22
-0.0762380996
 32
0.0
 13
-0.0887417346
 23
0.0
 33
0.0
 40
0.0
 40
0.0
 40
0.0
 40
0.0
 40
0.0498513299
 40
0.268830348
 40
0.5036431847
 40
0.7540040905
 40
1.0
 40
1.0
 40
1.0
 40
1.0
 10
5.7142567059
 20
4.0341484604
 30
0.0
 10
5.7134903612
 20
4.0328816035
 30
0.0
 10
5.7091162368
 20
4.0261974355
 30
0.0
 10
5.6986137759
 20
4.0153435931
 30
0.0
 10
5.6804613314
 20
4.0046804852
 30
0.0
 10
5.6596159871
 20
3.9983095328
 30
0.0
 10
5.6448940262
 20
3.9969187948
 30
0.0
 10
5.637617325
 20
3.9969187948
 30
0.0
 11
5.7142567059
 21
4.0341484604
 31
0.0
 11
5.7118257467
 21
4.0304332362
 31
0.0
 11
5.6984234161
 21
4.0163618959
 31
0.0
 11
5.680551847
 21
4.0056466407
 31
0.0
 11
5.6593462626
 21
3.9990180083
 31
0.0
 11
5.637617325
 21
3.9969187948
 31
0.0
  0
SPLINE
  5
58B
100
AcDbEntity
  8
0
100
AcDbSpline
 62
7
  6
CONTINUOUS
 70
0
 71
3
 72
13
 73
9
 74
7
 42
0.0000001
 43
0.0000001
 44
0.0000000001
 12
-0.0000333098
 22
0.1281301301
 32
0.0
 13
0.1276684596
 23
0.0
 33
0.0
 40
0.0
 40
0.0
 40
0.0
 40
0.0
 40
0.1519465771
 40
0.3120009322
 40
0.4779428042
 40
0.6487432749
 40
0.8252984242
 40
1.0
 40
1.0
 40
1.0
 40
1.0
 10
5.5521172795
 20
4.0297802837
 30
0.0
 10
5.5521155924
 20
4.0362699286
 30
0.0
 10
5.5541602121
 20
4.0495797017
 30
0.0
 10
5.5627888281
 20
4.0682727497
 30
0.0
 10
5.5764440447
 20
4.084710031
 30
0.0
 10
5.594306887
 20
4.0976729682
 30
0.0
 10
5.61516783
 20
4.1059588703
 30
0.0
 10
5.6301826979
 20
4.1078530505
 30
0.0
 10
5.637617325
 20
4.1078530505
 30
0.0
 11
5.5521172795
 21
4.0297802837
 31
0.0
 11
5.5549580988
 21
4.0489712857
 31
0.0
 11
5.5634237896
 21
4.0675690292
 31
0.0
 11
5.5769085634
 21
4.0839088001
 31
0.0
 11
5.5945398988
 21
4.0967396366
 31
0.0
 11
5.6154892271
 21
4.1050583423
 31
0.0
 11
5.637617325
 21
4.1078530505
 31
0.0
  0
SPLINE
  5
58C
100
AcDbEntity
  8
0
100
AcDbSpline
 62
7
  6
CONTINUOUS
 70
0
 71
3
 72
13
 73
9
 74
7
 42
0.0000001
 43
0.0000001
 44
0.0000000001
 12
0.0000333664
 22
-0.1281303307
 32
0.0
 13
-0.1276684247
 23
-0.0
 33
0.0
 40
0.0
 40
0.0
 40
0.0
 40
0.0
 40
0.1520436074
 40
0.3121117684
 40
0.4780923534
 40
0.6488660385
 40
0.8253330035
 40
1.0
 40
1.0
 40
1.0
 40
1.0
 10
5.7231173681
 20
4.4877839856
 30
0.0
 10
5.7231190592
 20
4.4812901864
 30
0.0
 10
5.7210723514
 20
4.4679757317
 30
0.0
 10
5.712437728
 20
4.4492783755
 30
0.0
 10
5.6987784367
 20
4.4328429206
 30
0.0
 10
5.6809157416
 20
4.41988552
 30
0.0
 10
5.6600600816
 20
4.4116044556
 30
0.0
 10
5.6450504784
 20
4.4097113147
 30
0.0
 10
5.637617325
 20
4.4097113147
 30
0.0
 11
5.7231173681
 21
4.4877839856
 31
0.0
 11
5.7202729804
 21
4.468581066
 31
0.0
 11
5.7118032596
 21
4.4499832269
 31
0.0
 11
5.6983120472
 21
4.4336423694
 31
0.0
 11
5.6806809121
 21
4.4208170803
 31
0.0
 11
5.6597411068
 21
4.4125049155
 31
0.0
 11
5.637617325
 21
4.4097113147
 31
0.0
  0
SPLINE
  5
58D
100
AcDbEntity
  8
0
100
AcDbSpline
 62
7
  6
CONTINUOUS
 70
0
 71
3
 72
8
 73
4
 74
2
 42
0.0000001
 43
0.0000001
 44
0.0000000001
 12
0.0043754588
 22
0.0136360628
 32
0.0
 13
0.0074146617
 23
0.0122576834
 33
0.0
 40
0.0
 40
0.0
 40
0.0
 40
0.0
 40
1.0
 40
1.0
 40
1.0
 40
1.0
 10
5.5550417239
 20
4.4704134285
 30
0.0
 10
5.5565002102
 20
4.4749587828
 30
0.0
 10
5.5585059293
 20
4.4793292467
 30
0.0
 10
5.5609774832
 20
4.4834151412
 30
0.0
 11
5.5550417239
 21
4.4704134285
 31
0.0
 11
5.5609774832
 21
4.4834151412
 31
0.0
  0
SPLINE
  5
58E
100
AcDbEntity
  8
0
100
AcDbSpline
 62
7
  6
CONTINUOUS
 70
0
 71
3
 72
12
 73
8
 74
6
 42
0.0000001
 43
0.0000001
 44
0.0000000001
 12
0.0461172701
 22
0.0762396065
 32
0.0
 13
0.0887426471
 23
0.0
 33
0.0
 40
0.0
 40
0.0
 40
0.0
 40
0.0
 40
0.0499279273
 40
0.2689239402
 40
0.5036650835
 40
0.7539836756
 40
1.0
 40
1.0
 40
1.0
 40
1.0
 10
5.5609774832
 20
4.4834151412
 30
0.0
 10
5.5617449964
 20
4.4846839697
 30
0.0
 10
5.5661209724
 20
4.4913703775
 30
0.0
 10
5.5766251356
 20
4.50222373
 30
0.0
 10
5.5947756544
 20
4.5128844546
 30
0.0
 10
5.6156184662
 20
4.5192547627
 30
0.0
 10
5.630339945
 20
4.5206455703
 30
0.0
 10
5.637617325
 20
4.5206455703
 30
0.0
 11
5.5609774832
 21
4.4834151412
 31
0.0
 11
5.5634123527
 21
4.4871360154
 31
0.0
 11
5.5768172744
 21
4.5012072464
 31
0.0
 11
5.5946841804
 21
4.5119183231
 31
0.0
 11
5.6158863796
 21
4.5185459648
 31
0.0
 11
5.637617325
 21
4.5206455703
 31
0.0
  0
SPLINE
  5
58F
100
AcDbEntity
  8
127-610_FEATURES
100
AcDbSpline
 62
7
  6
CONTINUOUS
 70
0
 71
3
 72
14
 73
10
 74
8
 42
0.0000001
 43
0.0000001
 44
0.0000000001
 12
-0.0859969129
 22
0.0
 32
0.0
 13
-0.0845363923
 23
0.0157813788
 33
0.0
 40
0.0
 40
0.0
 40
0.0
 40
0.0
 40
0.2194161613
 40
0.4307801751
 40
0.6199039667
 40
0.7801174257
 40
0.8997103201
 40
0.9749240453
 40
1.0
 40
1.0
 40
1.0
 40
1.0
 10
5.637617325
 20
4.7087307908
 30
0.0
 10
5.6313276208
 20
4.7087307908
 30
0.0
 10
5.6189774547
 20
4.7089900243
 30
0.0
 10
5.6012371271
 20
4.7100909342
 30
0.0
 10
5.5852404456
 20
4.7116880731
 30
0.0
 10
5.571912551
 20
4.7134516798
 30
0.0
 10
5.5618595005
 20
4.7150392792
 30
0.0
 10
5.5556511221
 20
4.7161288014
 30
0.0
 10
5.5528239352
 20
4.7166502715
 30
0.0
 10
5.552117325
 20
4.7167821826
 30
0.0
 11
5.637617325
 21
4.7087307908
 31
0.0
 11
5.6187523536
 21
4.7091260925
 31
0.0
 11
5.6006104858
 21
4.7102500731
 31
0.0
 11
5.5844266835
 21
4.7118638467
 31
0.0
 11
5.5707676751
 21
4.7136696694
 31
0.0
 11
5.5606088336
 21
4.7152732096
 31
0.0
 11
5.5542380086
 21
4.7163910335
 31
0.0
 11
5.552117325
 21
4.7167821826
 31
0.0
  0
SPLINE
  5
590
100
AcDbEntity
  8
127-610_FEATURES
100
AcDbSpline
 62
7
  6
CONTINUOUS
 70
0
 71
3
 72
14
 73
10
 74
8
 42
0.0000001
 43
0.0000001
 44
0.0000000001
 12
-0.084536397
 22
-0.0157813799
 32
0.0
 13
-0.0859969192
 23
-0.0
 33
0.0
 40
0.0
 40
0.0
 40
0.0
 40
0.0
 40
0.0251129953
 40
0.1006348429
 40
0.2203721379
 40
0.3804851625
 40
0.5696526697
 40
0.780614016
 40
1.0
 40
1.0
 40
1.0
 40
1.0
 10
5.723117325
 20
4.7167821826
 30
0.0
 10
5.7224096709
 20
4.7166500767
 30
0.0
 10
5.7195727519
 20
4.7161268208
 30
0.0
 10
5.7133505125
 20
4.7150350785
 30
0.0
 10
5.7032873717
 20
4.713446648
 30
0.0
 10
5.6899568464
 20
4.711683776
 30
0.0
 10
5.6739731439
 20
4.7100891646
 30
0.0
 10
5.6562439238
 20
4.7089897285
 30
0.0
 10
5.6439061646
 20
4.7087307908
 30
0.0
 10
5.637617325
 20
4.7087307908
 30
0.0
 11
5.723117325
 21
4.7167821826
 31
0.0
 11
5.7209935074
 21
4.7163904624
 31
0.0
 11
5.7145965456
 21
4.7152682726
 31
0.0
 11
5.7044253183
 21
4.7136635495
 31
0.0
 11
5.6907747278
 21
4.7118599458
 31
0.0
 11
5.6745870605
 21
4.7102470332
 31
0.0
 11
5.6564797042
 21
4.7091259839
 31
0.0
 11
5.637617325
 21
4.7087307908
 31
0.0
  0
SPLINE
  5
591
100
AcDbEntity
  8
127-610_FEATURES
100
AcDbSpline
 62
7
  6
CONTINUOUS
 70
0
 71
3
 72
14
 73
10
 74
8
 42
0.0000001
 43
0.0000001
 44
0.0000000001
 12
0.0859969139
 22
0.0
 32
0.0
 13
0.0845363932
 23
-0.015781379
 33
0.0
 40
0.0
 40
0.0
 40
0.0
 40
0.0
 40
0.2193755931
 40
0.430718789
 40
0.6198427989
 40
0.7800473931
 40
0.8996571452
 40
0.974905239
 40
1.0
 40
1.0
 40
1.0
 40
1.0
 10
5.637617325
 20
3.8088335744
 30
0.0
 10
5.6439058663
 20
3.8088335744
 30
0.0
 10
5.6562542721
 20
3.8085744259
 30
0.0
 10
5.6739928591
 20
3.807473796
 30
0.0
 10
5.6899887185
 20
3.805876923
 30
0.0
 10
5.7033168675
 20
3.8041134442
 30
0.0
 10
5.7133711352
 20
3.802525765
 30
0.0
 10
5.719581498
 20
3.8014359346
 30
0.0
 10
5.7224101848
 20
3.8009141926
 30
0.0
 10
5.723117325
 20
3.8007821826
 30
0.0
 11
5.637617325
 21
3.8088335744
 31
0.0
 11
5.6564788101
 21
3.8084384188
 31
0.0
 11
5.6746189021
 21
3.8073147234
 31
0.0
 11
5.6908027416
 21
3.8057011319
 31
0.0
 11
5.7044610158
 21
3.8038955714
 31
0.0
 11
5.714621307
 21
3.8022919163
 31
0.0
 11
5.7209950502
 21
3.8011736216
 31
0.0
 11
5.723117325
 21
3.8007821826
 31
0.0
  0
SPLINE
  5
592
100
AcDbEntity
  8
0
100
AcDbSpline
 62
7
  6
CONTINUOUS
 70
0
 71
3
 72
14
 73
10
 74
8
 42
0.0000001
 43
0.0000001
 44
0.0000000001
 12
-0.1277207071
 22
0.0
 32
0.0
 13
-0.0000098203
 23
0.1281355246
 33
0.0
 40
0.0
 40
0.0
 40
0.0
 40
0.0
 40
0.1599711587
 40
0.3211109311
 40
0.479701987
 40
0.6357214822
 40
0.785100022
 40
0.930193629
 40
1.0
 40
1.0
 40
1.0
 40
1.0
 10
5.637617325
 20
4.4097113147
 30
0.0
 10
5.6308067818
 20
4.4097113147
 30
0.0
 10
5.6170844794
 20
4.4112955241
 30
0.0
 10
5.5977065609
 20
4.4182782796
 30
0.0
 10
5.5805626733
 20
4.4293973618
 30
0.0
 10
5.5667636603
 20
4.4437851222
 30
0.0
 10
5.5570209966
 20
4.4605229926
 30
0.0
 10
5.552756658
 20
4.4756209196
 30
0.0
 10
5.5521191591
 20
4.4848010667
 30
0.0
 10
5.5521189305
 20
4.4877826253
 30
0.0
 11
5.637617325
 21
4.4097113147
 31
0.0
 11
5.617320752
 21
4.4120566522
 31
0.0
 11
5.5979577106
 21
4.4190312837
 31
0.0
 11
5.5809732929
 21
4.4300680059
 31
0.0
 11
5.5672128313
 21
4.4444809114
 31
0.0
 11
5.5576800624
 21
4.461007386
 31
0.0
 11
5.5527314962
 21
4.478865903
 31
0.0
 11
5.5521189305
 21
4.4877826253
 31
0.0
  0
SPLINE
  5
593
100
AcDbEntity
  8
0
100
AcDbSpline
 62
7
  6
CONTINUOUS
 70
0
 71
3
 72
14
 73
10
 74
8
 42
0.0000001
 43
0.0000001
 44
0.0000000001
 12
0.1277207071
 22
0.0
 32
0.0
 13
0.0000098203
 23
-0.1281355246
 33
0.0
 40
0.0
 40
0.0
 40
0.0
 40
0.0
 40
0.1599711587
 40
0.3211109311
 40
0.479701987
 40
0.6357214822
 40
0.785100022
 40
0.930193629
 40
1.0
 40
1.0
 40
1.0
 40
1.0
 10
5.637617325
 20
4.1078530505
 30
0.0
 10
5.6444278681
 20
4.1078530505
 30
0.0
 10
5.6581501705
 20
4.1062688411
 30
0.0
 10
5.677528089
 20
4.0992860856
 30
0.0
 10
5.6946719767
 20
4.0881670034
 30
0.0
 10
5.7084709897
 20
4.073779243
 30
0.0
 10
5.7182136534
 20
4.0570413726
 30
0.0
 10
5.7224779919
 20
4.0419434456
 30
0.0
 10
5.7231154909
 20
4.0327632985
 30
0.0
 10
5.7231157194
 20
4.0297817399
 30
0.0
 11
5.637617325
 21
4.1078530505
 31
0.0
 11
5.657913898
 21
4.105507713
 31
0.0
 11
5.6772769393
 21
4.0985330815
 31
0.0
 11
5.694261357
 21
4.0874963592
 31
0.0
 11
5.7080218187
 21
4.0730834538
 31
0.0
 11
5.7175545875
 21
4.0565569792
 31
0.0
 11
5.7225031537
 21
4.0386984622
 31
0.0
 11
5.7231157194
 21
4.0297817399
 31
0.0
  0
SPLINE
  5
594
100
AcDbEntity
  8
127-610_FEATURES
100
AcDbSpline
 62
7
  6
CONTINUOUS
 70
0
 71
3
 72
10
 73
6
 74
4
 42
0.0000001
 43
0.0000001
 44
0.0000000001
 12
0.015015359
 22
-0.0002191462
 32
0.0
 13
0.0150105917
 23
-0.0004375104
 33
0.0
 40
0.0
 40
0.0
 40
0.0
 40
0.0
 40
0.4313002075
 40
0.7880459298
 40
1.0
 40
1.0
 40
1.0
 40
1.0
 10
4.8703196288
 20
3.7767490495
 30
0.0
 10
4.872478338
 20
3.7767175436
 30
0.0
 10
4.8764224294
 20
3.77664731
 30
0.0
 10
4.8814267139
 20
3.7765294141
 30
0.0
 10
4.884272346
 20
3.776450759
 30
0.0
 10
4.8853328647
 20
3.7764198483
 30
0.0
 11
4.8703196288
 21
3.7767490495
 31
0.0
 11
4.8767954218
 21
3.7766338737
 31
0.0
 11
4.8821511731
 21
3.7765077761
 31
0.0
 11
4.8853328647
 21
3.7764198483
 31
0.0
  0
SPLINE
  5
595
100
AcDbEntity
  8
127-610_FEATURES
100
AcDbSpline
 62
7
  6
CONTINUOUS
 70
0
 71
3
 72
9
 73
5
 74
3
 42
0.0000001
 43
0.0000001
 44
0.0000000001
 12
0.0025630716
 22
-0.0000747053
 32
0.0
 13
0.0025628828
 23
-0.0000808945
 33
0.0
 40
0.0
 40
0.0
 40
0.0
 40
0.0
 40
0.3561582246
 40
1.0
 40
1.0
 40
1.0
 40
1.0
 10
4.8853328647
 20
3.7764198483
 30
0.0
 10
4.885637151
 20
3.7764109794
 30
0.0
 10
4.8864914974
 20
3.7763857087
 30
0.0
 10
4.8873458127
 20
3.7763594053
 30
0.0
 10
4.887895843
 20
3.7763420442
 30
0.0
 11
4.8853328647
 21
3.7764198483
 31
0.0
 11
4.8862457121
 21
3.7763928476
 31
0.0
 11
4.887895843
 21
3.7763420442
 31
0.0
  0
SPLINE
  5
596
100
AcDbEntity
  8
127-610_FEATURES
100
AcDbSpline
 62
7
  6
CONTINUOUS
 70
0
 71
3
 72
8
 73
4
 74
2
 42
0.0000001
 43
0.0000001
 44
0.0000000001
 12
0.0007805457
 22
-0.000024637
 32
0.0
 13
0.0007805273
 23
-0.000025208
 33
0.0
 40
0.0
 40
0.0
 40
0.0
 40
0.0
 40
1.0
 40
1.0
 40
1.0
 40
1.0
 10
4.887895843
 20
3.7763420442
 30
0.0
 10
4.8881560249
 20
3.7763338318
 30
0.0
 10
4.8884162037
 20
3.7763255242
 30
0.0
 10
4.8886763795
 20
3.7763171215
 30
0.0
 11
4.887895843
 21
3.7763420442
 31
0.0
 11
4.8886763795
 21
3.7763171215
 31
0.0
  0
SPLINE
  5
597
100
AcDbEntity
  8
127-610_FEATURES
100
AcDbSpline
 62
7
  6
CONTINUOUS
 70
0
 71
3
 72
9
 73
5
 74
3
 42
0.0000001
 43
0.0000001
 44
0.0000000001
 12
0.0010653996
 22
-0.0000344083
 32
0.0
 13
0.0010653647
 23
-0.000035469
 33
0.0
 40
0.0
 40
0.0
 40
0.0
 40
0.0
 40
0.1422015949
 40
1.0
 40
1.0
 40
1.0
 40
1.0
 10
4.8886763795
 20
3.7763171215
 30
0.0
 10
4.88872688
 20
3.7763154906
 30
0.0
 10
4.8890820124
 20
3.776303996
 30
0.0
 10
4.889437139
 20
3.7762923243
 30
0.0
 10
4.8897417618
 20
3.7762821826
 30
0.0
 11
4.8886763795
 21
3.7763171215
 31
0.0
 11
4.8888278807
 21
3.7763122179
 31
0.0
 11
4.8897417618
 21
3.7762821826
 31
0.0
  0
SPLINE
  5
598
100
AcDbEntity
  8
127-610_FEATURES
100
AcDbSpline
 62
7
  6
CONTINUOUS
 70
0
 71
3
 72
8
 73
4
 74
2
 42
0.0000001
 43
0.0000001
 44
0.0000000001
 12
0.000216709
 22
0.0008433971
 32
0.0
 13
0.0002169568
 23
0.0008433334
 33
0.0
 40
0.0
 40
0.0
 40
0.0
 40
0.0
 40
1.0
 40
1.0
 40
1.0
 40
1.0
 10
4.8494845685
 20
3.7500713384
 30
0.0
 10
4.8495568048
 20
3.7503524708
 30
0.0
 10
4.8496290823
 20
3.7506335926
 30
0.0
 10
4.8497014013
 20
3.7509147037
 30
0.0
 11
4.8494845685
 21
3.7500713384
 31
0.0
 11
4.8497014013
 21
3.7509147037
 31
0.0
  0
SPLINE
  5
599
100
AcDbEntity
  8
127-610_FEATURES
100
AcDbSpline
 62
7
  6
CONTINUOUS
 70
0
 71
3
 72
9
 73
5
 74
3
 42
0.0000001
 43
0.0000001
 44
0.0000000001
 12
0.0003093135
 22
0.0012023333
 32
0.0
 13
0.0003098205
 23
0.0012022028
 33
0.0
 40
0.0
 40
0.0
 40
0.0
 40
0.0
 40
0.0157452216
 40
1.0
 40
1.0
 40
1.0
 40
1.0
 10
4.8497014013
 20
3.7509147037
 30
0.0
 10
4.8497030247
 20
3.7509210141
 30
0.0
 10
4.8498061305
 20
3.7513217915
 30
0.0
 10
4.8499093205
 20
3.7517225473
 30
0.0
 10
4.850010968
 20
3.7521169719
 30
0.0
 11
4.8497014013
 21
3.7509147037
 31
0.0
 11
4.8497062716
 21
3.7509336347
 31
0.0
 11
4.850010968
 21
3.7521169719
 31
0.0
  0
SPLINE
  5
59A
100
AcDbEntity
  8
127-610_FEATURES
100
AcDbSpline
 62
7
  6
CONTINUOUS
 70
0
 71
3
 72
8
 73
4
 74
2
 42
0.0000001
 43
0.0000001
 44
0.0000000001
 12
0.0003476906
 22
0.0013491508
 32
0.0
 13
0.0003483343
 23
0.0013489848
 33
0.0
 40
0.0
 40
0.0
 40
0.0
 40
0.0
 40
1.0
 40
1.0
 40
1.0
 40
1.0
 10
4.850010968
 20
3.7521169719
 30
0.0
 10
4.8501268649
 20
3.7525666888
 30
0.0
 10
4.8502428686
 20
3.7530163782
 30
0.0
 10
4.85035898
 20
3.7534660398
 30
0.0
 11
4.850010968
 21
3.7521169719
 31
0.0
 11
4.85035898
 21
3.7534660398
 31
0.0
  0
SPLINE
  5
59B
100
AcDbEntity
  8
127-610_FEATURES
100
AcDbSpline
 62
7
  6
CONTINUOUS
 70
0
 71
3
 72
9
 73
5
 74
3
 42
0.0000001
 43
0.0000001
 44
0.0000000001
 12
0.0025562073
 22
0.0098993541
 32
0.0
 13
0.0025921395
 23
0.0098900056
 33
0.0
 40
0.0
 40
0.0
 40
0.0
 40
0.0
 40
0.4241612624
 40
1.0
 40
1.0
 40
1.0
 40
1.0
 10
4.85035898
 20
3.7534660398
 30
0.0
 10
4.8507203947
 20
3.7548656806
 30
0.0
 10
4.8515749246
 20
3.7581648299
 30
0.0
 10
4.8524354125
 20
3.7614624324
 30
0.0
 10
4.852932964
 20
3.7633607819
 30
0.0
 11
4.85035898
 21
3.7534660398
 31
0.0
 11
4.8514463836
 21
3.757664145
 31
0.0
 11
4.852932964
 21
3.7633607819
 31
0.0
  0
SPLINE
  5
59C
100
AcDbEntity
  8
127-610_FEATURES
100
AcDbSpline
 62
7
  6
CONTINUOUS
 70
0
 71
3
 72
14
 73
10
 74
8
 42
0.0000001
 43
0.0000001
 44
0.0000000001
 12
0.084536398
 22
0.0157813801
 32
0.0
 13
0.0859969204
 23
-0.0
 33
0.0
 40
0.0
 40
0.0
 40
0.0
 40
0.0
 40
0.0251313859
 40
0.1006886742
 40
0.2204464867
 40
0.3805676049
 40
0.5697280882
 40
0.7806685265
 40
1.0
 40
1.0
 40
1.0
 40
1.0
 10
5.552117325
 20
3.8007821826
 30
0.0
 10
5.5528254973
 20
3.8009143852
 30
0.0
 10
5.5556639347
 20
3.8014379165
 30
0.0
 10
5.5618882804
 20
3.8025299882
 30
0.0
 10
5.5719532535
 20
3.8041185908
 30
0.0
 10
5.5852844178
 20
3.8058813544
 30
0.0
 10
5.6012675777
 20
3.807475675
 30
0.0
 10
5.6189944515
 20
3.8085747465
 30
0.0
 10
5.6313300479
 20
3.8088335744
 30
0.0
 10
5.637617325
 20
3.8088335744
 30
0.0
 11
5.552117325
 21
3.8007821826
 31
0.0
 11
5.5542426985
 21
3.8011741862
 31
0.0
 11
5.5606426694
 21
3.8022968623
 31
0.0
 11
5.570815658
 21
3.8039017448
 31
0.0
 11
5.5844669644
 21
3.8057052456
 31
0.0
 11
5.6006540544
 21
3.8073178613
 31
0.0
 11
5.6187596301
 21
3.8084385775
 31
0.0
 11
5.637617325
 21
3.8088335744
 31
0.0
  0
SPLINE
  5
59D
100
AcDbEntity
  8
127-610_FEATURES
100
AcDbSpline
 62
7
  6
CONTINUOUS
 70
0
 71
3
 72
12
 73
8
 74
6
 42
0.0000001
 43
0.0000001
 44
0.0000000001
 12
0.0059832408
 22
0.0228283563
 32
0.0
 13
0.0235969153
 23
-0.0003443923
 33
0.0
 40
0.0
 40
0.0
 40
0.0
 40
0.0
 40
0.2047970131
 40
0.4042209636
 40
0.6009683999
 40
0.7980985749
 40
1.0
 40
1.0
 40
1.0
 40
1.0
 10
4.852932964
 20
3.7633607819
 30
0.0
 10
4.8533414139
 20
3.7649191749
 30
0.0
 10
4.8545536573
 20
3.7679056724
 30
0.0
 10
4.8574416007
 20
3.7717144754
 30
0.0
 10
4.8611827766
 20
3.7745987311
 30
0.0
 10
4.8655694944
 20
3.7763958207
 30
0.0
 10
4.8687315452
 20
3.7767722273
 30
0.0
 10
4.8703196288
 20
3.7767490495
 30
0.0
 11
4.852932964
 21
3.7633607819
 31
0.0
 11
4.8547572148
 21
3.7678363702
 31
0.0
 11
4.8576050619
 21
3.7715832282
 31
0.0
 11
4.8612842731
 21
3.7744155477
 31
0.0
 11
4.8655890285
 21
3.7761795398
 31
0.0
 11
4.8703196288
 21
3.7767490495
 31
0.0
  0
SPLINE
  5
59E
100
AcDbEntity
  8
0
100
AcDbSpline
 62
7
  6
CONTINUOUS
 70
0
 71
3
 72
12
 73
8
 74
6
 42
0.0000001
 43
0.0000001
 44
0.0000000001
 12
0.0887494829
 22
0.0
 32
0.0
 13
0.0461132327
 23
-0.0762487778
 33
0.0
 40
0.0
 40
0.0
 40
0.0
 40
0.0
 40
0.246194439
 40
0.4965785418
 40
0.7305450469
 40
0.9496000743
 40
1.0
 40
1.0
 40
1.0
 40
1.0
 10
5.637617325
 20
4.5206455703
 30
0.0
 10
5.6449005347
 20
4.5206455703
 30
0.0
 10
5.6596303408
 20
4.5192526392
 30
0.0
 10
5.6804589208
 20
4.5128826523
 30
0.0
 10
5.6985929927
 20
4.5022325883
 30
0.0
 10
5.709099236
 20
4.491389607
 30
0.0
 10
5.71348583
 20
4.4846905216
 30
0.0
 10
5.7142605311
 20
4.4834095441
 30
0.0
 11
5.637617325
 21
4.5206455703
 31
0.0
 11
5.6593655046
 21
4.5185424827
 31
0.0
 11
5.6805735634
 21
4.5119083654
 31
0.0
 11
5.6983840361
 21
4.5012337398
 31
0.0
 11
5.7118015865
 21
4.4871652425
 31
0.0
 11
5.7142605311
 21
4.4834095441
 31
0.0
  0
SPLINE
  5
59F
100
AcDbEntity
  8
0
100
AcDbSpline
 62
7
  6
CONTINUOUS
 70
0
 71
3
 72
9
 73
5
 74
3
 42
0.0000001
 43
0.0000001
 44
0.0000000001
 12
0.007974026
 22
-0.0131851467
 32
0.0
 13
0.0044368597
 23
-0.0147506145
 33
0.0
 40
0.0
 40
0.0
 40
0.0
 40
0.0
 40
0.9398959145
 40
1.0
 40
1.0
 40
1.0
 40
1.0
 10
5.7142605311
 20
4.4834095441
 30
0.0
 10
5.7167587826
 20
4.4792786555
 30
0.0
 10
5.7189102143
 20
4.4745743148
 30
0.0
 10
5.7204272666
 20
4.4696689215
 30
0.0
 10
5.7205161577
 20
4.4693733974
 30
0.0
 11
5.7142605311
 21
4.4834095441
 31
0.0
 11
5.7202426128
 21
4.4702578635
 31
0.0
 11
5.7205161577
 21
4.4693733974
 31
0.0
  0
SPLINE
  5
5A0
100
AcDbEntity
  8
0
100
AcDbSpline
 62
7
  6
CONTINUOUS
 70
0
 71
3
 72
12
 73
8
 74
6
 42
0.0000001
 43
0.0000001
 44
0.0000000001
 12
-0.0887496492
 22
0.0
 32
0.0
 13
-0.0461131325
 23
0.0762490334
 33
0.0
 40
0.0
 40
0.0
 40
0.0
 40
0.0
 40
0.2462077546
 40
0.4965803498
 40
0.7305247622
 40
0.9495825958
 40
1.0
 40
1.0
 40
1.0
 40
1.0
 10
5.637617325
 20
3.9969187948
 30
0.0
 10
5.6303337077
 20
3.9969187948
 30
0.0
 10
5.6156038123
 20
3.9983118051
 30
0.0
 10
5.5947758332
 20
4.0046817941
 30
0.0
 10
5.5766424914
 20
4.0153312542
 30
0.0
 10
5.566136004
 20
4.0261739683
 30
0.0
 10
5.5617490024
 20
4.0328735299
 30
0.0
 10
5.5609740343
 20
4.034154956
 30
0.0
 11
5.637617325
 21
3.9969187948
 31
0.0
 11
5.6158679397
 21
3.9990221178
 31
0.0
 11
5.5946608656
 21
4.0056561016
 31
0.0
 11
5.576851945
 21
4.0163295786
 31
0.0
 11
5.5634338733
 21
4.0303979731
 31
0.0
 11
5.5609740343
 21
4.034154956
 31
0.0
  0
SPLINE
  5
5A1
100
AcDbEntity
  8
0
100
AcDbSpline
 62
7
  6
CONTINUOUS
 70
0
 71
3
 72
9
 73
5
 74
3
 42
0.0000001
 43
0.0000001
 44
0.0000000001
 12
-0.0079772545
 22
0.0131905579
 32
0.0
 13
-0.0044370709
 23
0.014757129
 33
0.0
 40
0.0
 40
0.0
 40
0.0
 40
0.0
 40
0.939397971
 40
1.0
 40
1.0
 40
1.0
 40
1.0
 10
5.5609740343
 20
4.034154956
 30
0.0
 10
5.5584760954
 20
4.0382853504
 30
0.0
 10
5.5563237347
 20
4.0429915811
 30
0.0
 10
5.5548062655
 20
4.0478990457
 30
0.0
 10
5.5547166337
 20
4.0481971497
 30
0.0
 11
5.5609740343
 21
4.034154956
 31
0.0
 11
5.5549925206
 21
4.0473049802
 31
0.0
 11
5.5547166337
 21
4.0481971497
 31
0.0
  0
SPLINE
  5
5A2
100
AcDbEntity
  8
0
100
AcDbSpline
 62
7
  6
CONTINUOUS
 70
0
 71
3
 72
14
 73
10
 74
8
 42
0.0000001
 43
0.0000001
 44
0.0000000001
 12
-0.0000094336
 22
0.1230892838
 32
0.0
 13
0.1226908026
 23
0.0
 33
0.0
 40
0.0
 40
0.0
 40
0.0
 40
0.0
 40
0.071865136
 40
0.2158552199
 40
0.3604761585
 40
0.5117147353
 40
0.6693470418
 40
0.8336690943
 40
1.0
 40
1.0
 40
1.0
 40
1.0
 10
5.5521189305
 20
4.4877826253
 30
0.0
 10
5.5521187046
 20
4.4907312347
 30
0.0
 10
5.552725672
 20
4.4995864125
 30
0.0
 10
5.5569136641
 20
4.5139410557
 30
0.0
 10
5.5667790378
 20
4.5292623526
 30
0.0
 10
5.5807486183
 20
4.5417662504
 30
0.0
 10
5.5979531793
 20
4.5509741978
 30
0.0
 10
5.6172576394
 20
4.5565601007
 30
0.0
 10
5.6308149009
 20
4.5578016587
 30
0.0
 10
5.637617325
 20
4.5578016587
 30
0.0
 11
5.5521189305
 21
4.4877826253
 31
0.0
 11
5.5527335573
 21
4.4965988132
 31
0.0
 11
5.5576829738
 21
4.5135575862
 31
0.0
 11
5.5672227016
 21
4.5285185698
 31
0.0
 11
5.5809629559
 21
4.540989137
 31
0.0
 11
5.597955128
 21
4.5502250999
 31
0.0
 11
5.6172979576
 21
4.555909551
 31
0.0
 11
5.637617325
 21
4.5578016587
 31
0.0
  0
SPLINE
  5
5A3
100
AcDbEntity
  8
0
100
AcDbSpline
 62
7
  6
CONTINUOUS
 70
0
 71
3
 72
14
 73
10
 74
8
 42
0.0000001
 43
0.0000001
 44
0.0000000001
 12
0.0000094336
 22
-0.1230892838
 32
0.0
 13
-0.1226908026
 23
0.0
 33
0.0
 40
0.0
 40
0.0
 40
0.0
 40
0.0
 40
0.071865136
 40
0.2158552199
 40
0.3604761585
 40
0.5117147353
 40
0.6693470418
 40
0.8336690943
 40
1.0
 40
1.0
 40
1.0
 40
1.0
 10
5.7231157194
 20
4.0297817399
 30
0.0
 10
5.7231159454
 20
4.0268331305
 30
0.0
 10
5.722508978
 20
4.0179779527
 30
0.0
 10
5.7183209858
 20
4.0036233094
 30
0.0
 10
5.7084556121
 20
3.9883020126
 30
0.0
 10
5.6944860316
 20
3.9757981148
 30
0.0
 10
5.6772814707
 20
3.9665901674
 30
0.0
 10
5.6579770106
 20
3.9610042645
 30
0.0
 10
5.6444197491
 20
3.9597627065
 30
0.0
 10
5.637617325
 20
3.9597627065
 30
0.0
 11
5.7231157194
 21
4.0297817399
 31
0.0
 11
5.7225010927
 21
4.020965552
 31
0.0
 11
5.7175516761
 21
4.004006779
 31
0.0
 11
5.7080119484
 21
3.9890457954
 31
0.0
 11
5.694271694
 21
3.9765752282
 31
0.0
 11
5.6772795219
 21
3.9673392653
 31
0.0
 11
5.6579366924
 21
3.9616548142
 31
0.0
 11
5.637617325
 21
3.9597627065
 31
0.0
  0
SPLINE
  5
5A4
100
AcDbEntity
  8
0
100
AcDbSpline
 62
7
  6
CONTINUOUS
 70
0
 71
3
 72
14
 73
10
 74
8
 42
0.0000001
 43
0.0000001
 44
0.0000000001
 12
-0.1442757118
 22
0.2708049707
 32
0.0
 13
0.1442757118
 23
0.2708049707
 33
0.0
 40
0.0
 40
0.0
 40
0.0
 40
0.0
 40
0.1539652166
 40
0.2964780264
 40
0.4328366592
 40
0.567267274
 40
0.7036195666
 40
0.846074992
 40
1.0
 40
1.0
 40
1.0
 40
1.0
 10
3.7462279962
 20
3.6253968731
 30
0.0
 10
3.7388235158
 20
3.6392950551
 30
0.0
 10
3.7257843867
 20
3.666749395
 30
0.0
 10
3.711815435
 20
3.7088991781
 30
0.0
 10
3.7046513503
 20
3.7507483814
 30
0.0
 10
3.704654153
 20
3.7925973449
 30
0.0
 10
3.7118221264
 20
3.8344391824
 30
0.0
 10
3.7257903059
 20
3.8765778192
 30
0.0
 10
3.7388254495
 20
3.9040229396
 30
0.0
 10
3.7462279962
 20
3.9179174921
 30
0.0
 11
3.7462279962
 21
3.6253968731
 31
0.0
 11
3.7262167616
 21
3.6681919969
 31
0.0
 11
3.7127048308
 21
3.7097807144
 31
0.0
 11
3.7058086225
 21
3.7510487661
 31
0.0
 11
3.7058113134
 21
3.7922974619
 31
0.0
 11
3.7127120604
 21
3.8335627826
 31
0.0
 11
3.7262213385
 21
3.8751338479
 31
0.0
 11
3.7462279962
 21
3.9179174921
 31
0.0
  0
SPLINE
  5
5A5
100
AcDbEntity
  8
0
100
AcDbSpline
 62
7
  6
CONTINUOUS
 70
0
 71
3
 72
14
 73
10
 74
8
 42
0.0000001
 43
0.0000001
 44
0.0000000001
 12
0.1442757118
 22
0.2708049707
 32
0.0
 13
-0.1442757118
 23
0.2708049707
 33
0.0
 40
0.0
 40
0.0
 40
0.0
 40
0.0
 40
0.1539652166
 40
0.2964780264
 40
0.4328366592
 40
0.567267274
 40
0.7036195666
 40
0.846074992
 40
1.0
 40
1.0
 40
1.0
 40
1.0
 10
4.3717076156
 20
3.6253968731
 30
0.0
 10
4.379112096
 20
3.6392950551
 30
0.0
 10
4.3921512252
 20
3.666749395
 30
0.0
 10
4.4061201769
 20
3.7088991781
 30
0.0
 10
4.4132842615
 20
3.7507483814
 30
0.0
 10
4.4132814589
 20
3.7925973449
 30
0.0
 10
4.4061134854
 20
3.8344391824
 30
0.0
 10
4.3921453059
 20
3.8765778192
 30
0.0
 10
4.3791101623
 20
3.9040229396
 30
0.0
 10
4.3717076156
 20
3.9179174921
 30
0.0
 11
4.3717076156
 21
3.6253968731
 31
0.0
 11
4.3917188503
 21
3.6681919969
 31
0.0
 11
4.405230781
 21
3.7097807144
 31
0.0
 11
4.4121269893
 21
3.7510487661
 31
0.0
 11
4.4121242985
 21
3.7922974619
 31
0.0
 11
4.4052235514
 21
3.8335627826
 31
0.0
 11
4.3917142734
 21
3.8751338479
 31
0.0
 11
4.3717076156
 21
3.9179174921
 31
0.0
  0
SPLINE
  5
5A6
100
AcDbEntity
  8
0
100
AcDbSpline
 62
7
  6
CONTINUOUS
 70
0
 71
3
 72
14
 73
10
 74
8
 42
0.0000001
 43
0.0000001
 44
0.0000000001
 12
-0.1524912644
 22
0.5724510643
 32
0.0
 13
0.1524912644
 23
0.5724510643
 33
0.0
 40
0.0
 40
0.0
 40
0.0
 40
0.0
 40
0.1483734886
 40
0.2906183378
 40
0.4304255817
 40
0.5696820058
 40
0.7094806994
 40
0.8516660081
 40
1.0
 40
1.0
 40
1.0
 40
1.0
 10
3.7462279962
 20
3.9662615637
 30
0.0
 10
3.7386861093
 20
3.9945737508
 30
0.0
 10
3.72548299
 20
4.0504690937
 30
0.0
 10
3.7116797008
 20
4.13441295
 30
0.0
 10
3.7046484226
 20
4.2174062565
 30
0.0
 10
3.7046511636
 20
4.3002202195
 30
0.0
 10
3.7116863424
 20
4.3831996644
 30
0.0
 10
3.725489083
 20
4.4671219769
 30
0.0
 10
3.7386881169
 20
4.522998151
 30
0.0
 10
3.7462279962
 20
4.5513028015
 30
0.0
 11
3.7462279962
 21
3.9662615637
 31
0.0
 11
3.7262167616
 21
4.0518518113
 31
0.0
 11
3.7127048308
 21
4.1350292461
 31
0.0
 11
3.7058086225
 21
4.2175653497
 31
0.0
 11
3.7058113134
 21
4.3000627413
 31
0.0
 11
3.7127120604
 21
4.3825933825
 31
0.0
 11
3.7262213385
 21
4.4657355132
 31
0.0
 11
3.7462279962
 21
4.5513028015
 31
0.0
  0
SPLINE
  5
5A7
100
AcDbEntity
  8
0
100
AcDbSpline
 62
7
  6
CONTINUOUS
 70
0
 71
3
 72
14
 73
10
 74
8
 42
0.0000001
 43
0.0000001
 44
0.0000000001
 12
0.1524912644
 22
0.5724510643
 32
0.0
 13
-0.1524912644
 23
0.5724510643
 33
0.0
 40
0.0
 40
0.0
 40
0.0
 40
0.0
 40
0.1483734886
 40
0.2906183378
 40
0.4304255817
 40
0.5696820058
 40
0.7094806994
 40
0.8516660081
 40
1.0
 40
1.0
 40
1.0
 40
1.0
 10
4.3717076156
 20
3.9662615637
 30
0.0
 10
4.3792495026
 20
3.9945737508
 30
0.0
 10
4.3924526218
 20
4.0504690937
 30
0.0
 10
4.4062559111
 20
4.13441295
 30
0.0
 10
4.4132871892
 20
4.2174062565
 30
0.0
 10
4.4132844482
 20
4.3002202195
 30
0.0
 10
4.4062492695
 20
4.3831996644
 30
0.0
 10
4.3924465289
 20
4.4671219769
 30
0.0
 10
4.3792474949
 20
4.522998151
 30
0.0
 10
4.3717076156
 20
4.5513028015
 30
0.0
 11
4.3717076156
 21
3.9662615637
 31
0.0
 11
4.3917188503
 21
4.0518518113
 31
0.0
 11
4.405230781
 21
4.1350292461
 31
0.0
 11
4.4121269893
 21
4.2175653497
 31
0.0
 11
4.4121242985
 21
4.3000627413
 31
0.0
 11
4.4052235514
 21
4.3825933825
 31
0.0
 11
4.3917142734
 21
4.4657355132
 31
0.0
 11
4.3717076156
 21
4.5513028015
 31
0.0
  0
SPLINE
  5
5A8
100
AcDbEntity
  8
0
100
AcDbSpline
 62
7
  6
CONTINUOUS
 70
0
 71
3
 72
14
 73
10
 74
8
 42
0.0000001
 43
0.0000001
 44
0.0000000001
 12
-0.1442757118
 22
0.2708049707
 32
0.0
 13
0.1442757118
 23
0.2708049707
 33
0.0
 40
0.0
 40
0.0
 40
0.0
 40
0.0
 40
0.1539652166
 40
0.2964780264
 40
0.4328366592
 40
0.567267274
 40
0.7036195666
 40
0.846074992
 40
1.0
 40
1.0
 40
1.0
 40
1.0
 10
3.7462279962
 20
4.5996468731
 30
0.0
 10
3.7388235158
 20
4.6135450551
 30
0.0
 10
3.7257843867
 20
4.640999395
 30
0.0
 10
3.711815435
 20
4.6831491781
 30
0.0
 10
3.7046513503
 20
4.7249983814
 30
0.0
 10
3.704654153
 20
4.7668473449
 30
0.0
 10
3.7118221264
 20
4.8086891824
 30
0.0
 10
3.7257903059
 20
4.8508278192
 30
0.0
 10
3.7388254495
 20
4.8782729396
 30
0.0
 10
3.7462279962
 20
4.8921674921
 30
0.0
 11
3.7462279962
 21
4.5996468731
 31
0.0
 11
3.7262167616
 21
4.6424419969
 31
0.0
 11
3.7127048308
 21
4.6840307144
 31
0.0
 11
3.7058086225
 21
4.7252987661
 31
0.0
 11
3.7058113134
 21
4.7665474619
 31
0.0
 11
3.7127120604
 21
4.8078127826
 31
0.0
 11
3.7262213385
 21
4.8493838479
 31
0.0
 11
3.7462279962
 21
4.8921674921
 31
0.0
  0
SPLINE
  5
5A9
100
AcDbEntity
  8
0
100
AcDbSpline
 62
7
  6
CONTINUOUS
 70
0
 71
3
 72
14
 73
10
 74
8
 42
0.0000001
 43
0.0000001
 44
0.0000000001
 12
0.1442757118
 22
0.2708049707
 32
0.0
 13
-0.1442757118
 23
0.2708049707
 33
0.0
 40
0.0
 40
0.0
 40
0.0
 40
0.0
 40
0.1539652166
 40
0.2964780264
 40
0.4328366592
 40
0.567267274
 40
0.7036195666
 40
0.846074992
 40
1.0
 40
1.0
 40
1.0
 40
1.0
 10
4.3717076156
 20
4.5996468731
 30
0.0
 10
4.379112096
 20
4.6135450551
 30
0.0
 10
4.3921512252
 20
4.640999395
 30
0.0
 10
4.4061201769
 20
4.6831491781
 30
0.0
 10
4.4132842615
 20
4.7249983814
 30
0.0
 10
4.4132814589
 20
4.7668473449
 30
0.0
 10
4.4061134854
 20
4.8086891824
 30
0.0
 10
4.3921453059
 20
4.8508278192
 30
0.0
 10
4.3791101623
 20
4.8782729396
 30
0.0
 10
4.3717076156
 20
4.8921674921
 30
0.0
 11
4.3717076156
 21
4.5996468731
 31
0.0
 11
4.3917188503
 21
4.6424419969
 31
0.0
 11
4.405230781
 21
4.6840307144
 31
0.0
 11
4.4121269893
 21
4.7252987661
 31
0.0
 11
4.4121242985
 21
4.7665474619
 31
0.0
 11
4.4052235514
 21
4.8078127826
 31
0.0
 11
4.3917142734
 21
4.8493838479
 31
0.0
 11
4.3717076156
 21
4.8921674921
 31
0.0
  0
SPLINE
  5
5AA
100
AcDbEntity
  8
0
100
AcDbSpline
 62
7
  6
CONTINUOUS
 70
0
 71
3
 72
13
 73
9
 74
7
 42
0.0000001
 43
0.0000001
 44
0.0000000001
 12
0.1226368965
 22
0.0
 32
0.0
 13
0.0000320514
 23
-0.1230805984
 33
0.0
 40
0.0
 40
0.0
 40
0.0
 40
0.0
 40
0.1795417092
 40
0.3565557375
 40
0.5259091844
 40
0.6871588222
 40
0.8430459351
 40
1.0
 40
1.0
 40
1.0
 40
1.0
 10
5.637617325
 20
4.5578016587
 30
0.0
 10
5.6449568043
 20
4.5578016587
 30
0.0
 10
5.6595761649
 20
4.556358311
 30
0.0
 10
5.68023897
 20
4.5498557875
 30
0.0
 10
5.6982634578
 20
4.5391470137
 30
0.0
 10
5.712268975
 20
4.5246508845
 30
0.0
 10
5.7211523697
 20
4.5070746839
 30
0.0
 10
5.7231156913
 20
4.494223319
 30
0.0
 10
5.7231173681
 20
4.4877839856
 30
0.0
 11
5.637617325
 21
4.5578016587
 31
0.0
 11
5.6595250329
 21
4.5555962234
 31
0.0
 11
5.6801978472
 21
4.5489711498
 31
0.0
 11
5.6979683072
 21
4.5382212043
 31
0.0
 11
5.7115992813
 21
4.5238945402
 31
0.0
 11
5.7201643598
 21
4.5068030602
 31
0.0
 11
5.7231173681
 21
4.4877839856
 31
0.0
  0
SPLINE
  5
5AB
100
AcDbEntity
  8
0
100
AcDbSpline
 62
7
  6
CONTINUOUS
 70
0
 71
3
 72
13
 73
9
 74
7
 42
0.0000001
 43
0.0000001
 44
0.0000000001
 12
-0.1226368629
 22
0.0
 32
0.0
 13
-0.000031997
 23
0.1230803383
 33
0.0
 40
0.0
 40
0.0
 40
0.0
 40
0.0
 40
0.1795266346
 40
0.3565263091
 40
0.5258662742
 40
0.6871053984
 40
0.8429798407
 40
1.0
 40
1.0
 40
1.0
 40
1.0
 10
5.637617325
 20
3.9597627065
 30
0.0
 10
5.6302784639
 20
3.9597627065
 30
0.0
 10
5.6156603218
 20
3.9612058137
 30
0.0
 10
5.5949990645
 20
3.9677072415
 30
0.0
 10
5.57697543
 20
3.9784142354
 30
0.0
 10
5.5629697878
 20
3.9929080364
 30
0.0
 10
5.5540835153
 20
4.0104846954
 30
0.0
 10
5.5521189543
 20
4.0233382523
 30
0.0
 10
5.5521172795
 20
4.0297802837
 30
0.0
 11
5.637617325
 21
3.9597627065
 31
0.0
 11
5.6157114434
 21
3.961967767
 31
0.0
 11
5.5950401247
 21
3.9685917197
 31
0.0
 11
5.5772705038
 21
3.9793398468
 31
0.0
 11
5.5636391995
 21
3.9936644096
 31
0.0
 11
5.5550727987
 21
4.0107534828
 31
0.0
 11
5.5521172795
 21
4.0297802837
 31
0.0
  0
ENDSEC
  0
SECTION
  2
OBJECTS
  0
DICTIONARY
  5
C
100
AcDbDictionary
280
0
281
1
  3
ACAD_GROUP
350
D
  3
ACAD_MLINESTYLE
350
17
  3
ACAD_LAYOUT
350
1A
  3
ACAD_PLOTSETTINGS
350
19
  3
ACAD_PLOTSTYLENAME
350
E
  0
DICTIONARY
  5
D
102
{ACAD_REACTORS
330
C
102
}
100
AcDbDictionary
280
0
281
1
  0
ACDBDICTIONARYWDFLT
  5
E
102
{ACAD_REACTORS
330
C
102
}
100
AcDbDictionary
281
1
  3
Normal
350
F
100
AcDbDictionaryWithDefault
340
F
  0
DICTIONARY
  5
17
102
{ACAD_REACTORS
330
C
102
}
100
AcDbDictionary
280
0
281
1
  3
Standard
350
18
  0
DICTIONARY
  5
19
102
{ACAD_REACTORS
330
C
102
}
100
AcDbDictionary
281
1
  0
DICTIONARY
  5
1A
102
{ACAD_REACTORS
330
C
102
}
100
AcDbDictionary
281
1
  3
Layout1
350
1E
  3
Model
350
22
  0
ACDBPLACEHOLDER
  5
F
102
{ACAD_REACTORS
330
E
102
}
  0
MLINESTYLE
  5
18
102
{ACAD_REACTORS
330
17
102
}
100
AcDbMlineStyle
  2
STANDARD
 70
0
  3

 62
256
 51
90.0
 52
90.0
 71
2
 49
0.5
 62
256
  6
BYLAYER
 49
-0.5
 62
256
  6
BYLAYER
  0
LAYOUT
  5
1E
102
{ACAD_REACTORS
330
1A
102
}
100
AcDbPlotSettings
  1

  2

  4

  6

 40
0.0
 41
0.0
 42
0.0
 43
0.0
 44
0.0
 45
0.0
 46
0.0
 47
0.0
 48
0.0
 49
0.0
140
0.0
141
0.0
142
1.0
143
1.0
 70
0
 72
0
 73
0
 74
0
  7

 75
0
147
1.0
148
0.0
149
0.0
100
AcDbLayout
  1
Layout1
 70
0
 71
0
 10
0.0
 20
0.0
 11
0.0
 21
0.0
 12
0.0
 22
0.0
 32
0.0
 14
0.0
 24
0.0
 34
0.0
 15
0.0
 25
0.0
 35
0.0
146
0.0
 13
0.0
 23
0.0
 33
0.0
 16
0.0
 26
0.0
 36
0.0
 17
0.0
 27
0.0
 37
0.0
 76
0
330
1B
331
0
345
0
346
0
  0
LAYOUT
  5
22
102
{ACAD_REACTORS
330
1A
102
}
100
AcDbPlotSettings
  1

  2

  4

  6

 40
0.0
 41
0.0
 42
0.0
 43
0.0
 44
0.0
 45
0.0
 46
0.0
 47
0.0
 48
0.0
 49
0.0
140
0.0
141
0.0
142
1.0
143
1.0
 70
0
 72
0
 73
0
 74
0
  7

 75
0
147
1.0
148
0.0
149
0.0
100
AcDbLayout
  1
Model
 70
0
 71
0
 10
0.0
 20
0.0
 11
0.0
 21
0.0
 12
0.0
 22
0.0
 32
0.0
 14
0.0
 24
0.0
 34
0.0
 15
0.0
 25
0.0
 35
0.0
146
0.0
 13
0.0
 23
0.0
 33
0.0
 16
0.0
 26
0.0
 36
0.0
 17
0.0
 27
0.0
 37
0.0
 76
0
330
1F
331
0
345
0
346
0
  0
ENDSEC
  0
EOF
