999
DXF file: PVDA-LAN.dxf
999
Pro/ENGINEER 2006240 by Parametric Technology Corporation
  0
SECTION
  2
HEADER
  9
$ACADVER
  1
AC1015
  9
$DWGCODEPAGE
  3
ANSI_1252
  9
$EXTMAX
 10
11.6929133858
 20
8.2677165354
 30
0.0
  9
$EXTMIN
 10
0.0
 20
0.0
 30
0.0
  9
$LIMMIN
 10
0.0
 20
0.0
  9
$LIMMAX
 10
11.6929133858
 20
8.2677165354
  9
$VIEWCTR
 10
5.8464566929
 20
4.1338582677
  9
$VIEWSIZE
 40
8.2677165354
  9
$CLAYER
  8
0
  9
$LTSCALE
 40
0.6431102362
  9
$CELTYPE
  6
BYLAYER
  9
$DIMSCALE
 40
1.0
  9
$DIMASZ
 40
0.1875
  9
$DIMEXO
 40
0.0730807087
  9
$DIMDLI
 40
0.4443307087
  9
$DIMEXE
 40
0.2104724409
  9
$DIMCEN
 40
0.1052362205
  9
$DIMLFAC
 40
1.0
  9
$DIMBLK
  1
_CLOSED
  9
$DIMTXT
 40
0.15625
  9
$DIMTOL
 70
0
  9
$DIMLIM
 70
0
  9
$DIMTFAC
 40
1.0
  9
$PDMODE
 70
3
  9
$PDSIZE
 40
0.3125
  9
$HANDSEED
  5
5B3
  9
$MEASUREMENT
 70
0
  9
$INSUNITS
 70
1
  0
ENDSEC
  0
SECTION
  2
CLASSES
  0
CLASS
  1
ACDBDICTIONARYWDFLT
  2
AcDbDictionaryWithDefault
  3
AutoCAD 2000
 90
0
280
0
281
0
  0
CLASS
  1
ACDBPLACEHOLDER
  2
AcDbPlaceHolder
  3
AutoCAD 2000
 90
0
280
0
281
0
  0
CLASS
  1
LAYOUT
  2
AcDbLayout
  3
AutoCAD 2000
 90
0
280
0
281
0
  0
ENDSEC
  0
SECTION
  2
TABLES
  0
TABLE
  2
VPORT
  5
8
100
AcDbSymbolTable
 70
2
  0
VPORT
  5
1F4
100
AcDbSymbolTableRecord
100
AcDbViewportTableRecord
  2
*ACTIVE
 70
0
 10
0.0
 20
0.0
 11
1.0
 21
1.0
 12
5.8464566929
 22
4.1338582677
 13
0.0
 23
0.0
 14
1.0
 24
1.0
 15
0.0
 25
0.0
 16
0.0
 26
0.0
 36
1.0
 17
0.0
 27
0.0
 37
0.0
 40
8.2677165354
 41
1.4142857143
 42
50.0
 43
0.0
 44
0.0
 50
0.0
 51
0.0
 71
0
 72
100
 73
1
 74
1
 75
0
 76
0
 77
0
 78
0
  0
ENDTAB
  0
TABLE
  2
LTYPE
  5
5
100
AcDbSymbolTable
 70
6
  0
LTYPE
  5
14
100
AcDbSymbolTableRecord
100
AcDbLinetypeTableRecord
  2
BYBLOCK
 70
0
  3

 72
65
 73
0
 40
0.0
  0
LTYPE
  5
15
100
AcDbSymbolTableRecord
100
AcDbLinetypeTableRecord
  2
BYLAYER
 70
0
  3

 72
65
 73
0
 40
0.0
  0
LTYPE
  5
16
100
AcDbSymbolTableRecord
100
AcDbLinetypeTableRecord
  2
CONTINUOUS
 70
64
  3
Solid line
 72
65
 73
0
 40
0.0
  0
LTYPE
  5
1F5
100
AcDbSymbolTableRecord
100
AcDbLinetypeTableRecord
  2
CENTER
 70
64
  3
____ _ ____ _ ____ _ ____ _ ____ _ ____ _ ____
 72
65
 73
4
 40
0.6
 49
0.375
 74
0
 49
-0.075
 74
0
 49
0.075
 74
0
 49
-0.075
 74
0
  0
LTYPE
  5
1F6
100
AcDbSymbolTableRecord
100
AcDbLinetypeTableRecord
  2
HIDDEN
 70
64
  3
- - - - - - - - - - - - - - - - - - - -
 72
65
 73
2
 40
0.2
 49
0.1
 74
0
 49
-0.1
 74
0
  0
LTYPE
  5
1F7
100
AcDbSymbolTableRecord
100
AcDbLinetypeTableRecord
  2
PHANTOM
 70
64
  3
_____ _ _ _____ _ _ _____ _ _ _____
 72
65
 73
6
 40
0.8
 49
0.45
 74
0
 49
-0.05
 74
0
 49
0.1
 74
0
 49
-0.05
 74
0
 49
0.1
 74
0
 49
-0.05
 74
0
  0
LTYPE
  5
1F8
100
AcDbSymbolTableRecord
100
AcDbLinetypeTableRecord
  2
DOT
 70
64
  3
. . . . . . . . . . . . . . . . . . . .
 72
65
 73
2
 40
0.2
 49
0.1
 74
0
 49
-0.1
 74
0
  0
LTYPE
  5
1F9
100
AcDbSymbolTableRecord
100
AcDbLinetypeTableRecord
  2
DASHED
 70
64
  3
- - - - - - - - - - - - - - - - - - - -
 72
65
 73
2
 40
0.2
 49
0.1
 74
0
 49
-0.1
 74
0
  0
ENDTAB
  0
TABLE
  2
LAYER
  5
2
100
AcDbSymbolTable
 70
36
  0
LAYER
  5
10
100
AcDbSymbolTableRecord
100
AcDbLayerTableRecord
  2
0
 70
0
 62
7
  6
CONTINUOUS
370
-3
390
F
  0
LAYER
  5
1FA
100
AcDbSymbolTableRecord
100
AcDbLayerTableRecord
  2
DEFAULT_1
 70
0
 62
7
  6
CENTER
370
-3
390
F
  0
LAYER
  5
1FB
100
AcDbSymbolTableRecord
100
AcDbLayerTableRecord
  2
DEFAULT_2
 70
0
 62
8
  6
HIDDEN
370
-3
390
F
  0
LAYER
  5
1FC
100
AcDbSymbolTableRecord
100
AcDbLayerTableRecord
  2
DEFAULT_3
 70
0
 62
7
  6
PHANTOM
370
-3
390
F
  0
LAYER
  5
1FD
100
AcDbSymbolTableRecord
100
AcDbLayerTableRecord
  2
_BLACK_HOLE
 70
0
 62
7
  6
CONTINUOUS
370
-3
390
F
  0
LAYER
  5
1FE
100
AcDbSymbolTableRecord
100
AcDbLayerTableRecord
  2
01_ALL_DTM_PLN
 70
0
 62
7
  6
CONTINUOUS
370
-3
390
F
  0
LAYER
  5
1FF
100
AcDbSymbolTableRecord
100
AcDbLayerTableRecord
  2
01__ASM_ALL_DTM_PLN
 70
0
 62
7
  6
CONTINUOUS
370
-3
390
F
  0
LAYER
  5
200
100
AcDbSymbolTableRecord
100
AcDbLayerTableRecord
  2
01__ASM_DEF_DTM_PLN
 70
0
 62
7
  6
CONTINUOUS
370
-3
390
F
  0
LAYER
  5
201
100
AcDbSymbolTableRecord
100
AcDbLayerTableRecord
  2
01___PRT_ALL_DTM_PLN
 70
0
 62
7
  6
CONTINUOUS
370
-3
390
F
  0
LAYER
  5
202
100
AcDbSymbolTableRecord
100
AcDbLayerTableRecord
  2
01___PRT_DEF_DTM_PLN
 70
0
 62
7
  6
CONTINUOUS
370
-3
390
F
  0
LAYER
  5
203
100
AcDbSymbolTableRecord
100
AcDbLayerTableRecord
  2
02_ALL_AXES
 70
0
 62
7
  6
CONTINUOUS
370
-3
390
F
  0
LAYER
  5
204
100
AcDbSymbolTableRecord
100
AcDbLayerTableRecord
  2
02__ASM_ALL_AXES
 70
0
 62
7
  6
CONTINUOUS
370
-3
390
F
  0
LAYER
  5
205
100
AcDbSymbolTableRecord
100
AcDbLayerTableRecord
  2
02___PRT_ALL_AXES
 70
0
 62
7
  6
CONTINUOUS
370
-3
390
F
  0
LAYER
  5
206
100
AcDbSymbolTableRecord
100
AcDbLayerTableRecord
  2
03_ALL_CURVES
 70
0
 62
7
  6
CONTINUOUS
370
-3
390
F
  0
LAYER
  5
207
100
AcDbSymbolTableRecord
100
AcDbLayerTableRecord
  2
03__ASM_ALL_CURVES
 70
0
 62
7
  6
CONTINUOUS
370
-3
390
F
  0
LAYER
  5
208
100
AcDbSymbolTableRecord
100
AcDbLayerTableRecord
  2
03___PRT_ALL_CURVES
 70
0
 62
7
  6
CONTINUOUS
370
-3
390
F
  0
LAYER
  5
209
100
AcDbSymbolTableRecord
100
AcDbLayerTableRecord
  2
04_ALL_DTM_PNT
 70
0
 62
7
  6
CONTINUOUS
370
-3
390
F
  0
LAYER
  5
20A
100
AcDbSymbolTableRecord
100
AcDbLayerTableRecord
  2
04__ASM_ALL_DTM_PNT
 70
0
 62
7
  6
CONTINUOUS
370
-3
390
F
  0
LAYER
  5
20B
100
AcDbSymbolTableRecord
100
AcDbLayerTableRecord
  2
04___PRT_ALL_DTM_PNT
 70
0
 62
7
  6
CONTINUOUS
370
-3
390
F
  0
LAYER
  5
20C
100
AcDbSymbolTableRecord
100
AcDbLayerTableRecord
  2
05_ALL_DTM_CSYS
 70
0
 62
7
  6
CONTINUOUS
370
-3
390
F
  0
LAYER
  5
20D
100
AcDbSymbolTableRecord
100
AcDbLayerTableRecord
  2
05__ASM_ALL_DTM_CSYS
 70
0
 62
7
  6
CONTINUOUS
370
-3
390
F
  0
LAYER
  5
20E
100
AcDbSymbolTableRecord
100
AcDbLayerTableRecord
  2
05__ASM_DEF_DTM_CSYS
 70
0
 62
7
  6
CONTINUOUS
370
-3
390
F
  0
LAYER
  5
20F
100
AcDbSymbolTableRecord
100
AcDbLayerTableRecord
  2
05___PRT_ALL_DTM_CSYS
 70
0
 62
7
  6
CONTINUOUS
370
-3
390
F
  0
LAYER
  5
210
100
AcDbSymbolTableRecord
100
AcDbLayerTableRecord
  2
05___PRT_DEF_DTM_CSYS
 70
0
 62
7
  6
CONTINUOUS
370
-3
390
F
  0
LAYER
  5
211
100
AcDbSymbolTableRecord
100
AcDbLayerTableRecord
  2
06_ALL_SURFS
 70
0
 62
7
  6
CONTINUOUS
370
-3
390
F
  0
LAYER
  5
212
100
AcDbSymbolTableRecord
100
AcDbLayerTableRecord
  2
06__ASM_ALL_SURFS
 70
0
 62
7
  6
CONTINUOUS
370
-3
390
F
  0
LAYER
  5
213
100
AcDbSymbolTableRecord
100
AcDbLayerTableRecord
  2
06___PRT_ALL_SURFS
 70
0
 62
7
  6
CONTINUOUS
370
-3
390
F
  0
LAYER
  5
214
100
AcDbSymbolTableRecord
100
AcDbLayerTableRecord
  2
07__ASM_ALL_SKELETONS
 70
0
 62
7
  6
CONTINUOUS
370
-3
390
F
  0
LAYER
  5
215
100
AcDbSymbolTableRecord
100
AcDbLayerTableRecord
  2
126-600_HEX_FEATURES
 70
0
 62
7
  6
CONTINUOUS
370
-3
390
F
  0
LAYER
  5
216
100
AcDbSymbolTableRecord
100
AcDbLayerTableRecord
  2
126-600_REF_GEOMETRY
 70
0
 62
7
  6
CONTINUOUS
370
-3
390
F
  0
LAYER
  5
217
100
AcDbSymbolTableRecord
100
AcDbLayerTableRecord
  2
126-601_HEX_FEATURES
 70
0
 62
7
  6
CONTINUOUS
370
-3
390
F
  0
LAYER
  5
218
100
AcDbSymbolTableRecord
100
AcDbLayerTableRecord
  2
126-601_REF_GEOMETRY
 70
0
 62
7
  6
CONTINUOUS
370
-3
390
F
  0
LAYER
  5
219
100
AcDbSymbolTableRecord
100
AcDbLayerTableRecord
  2
126-602_HEX_FEATURES
 70
0
 62
7
  6
CONTINUOUS
370
-3
390
F
  0
LAYER
  5
21A
100
AcDbSymbolTableRecord
100
AcDbLayerTableRecord
  2
126-602_REF_GEOMETRY
 70
0
 62
7
  6
CONTINUOUS
370
-3
390
F
  0
LAYER
  5
21B
100
AcDbSymbolTableRecord
100
AcDbLayerTableRecord
  2
126-603_HEX_FEATURES
 70
0
 62
7
  6
CONTINUOUS
370
-3
390
F
  0
LAYER
  5
21C
100
AcDbSymbolTableRecord
100
AcDbLayerTableRecord
  2
126-603_REF_GEOMETRY
 70
0
 62
7
  6
CONTINUOUS
370
-3
390
F
  0
LAYER
  5
21D
100
AcDbSymbolTableRecord
100
AcDbLayerTableRecord
  2
COPY_GEO_FET
 70
0
 62
7
  6
CONTINUOUS
370
-3
390
F
  0
LAYER
  5
21E
100
AcDbSymbolTableRecord
100
AcDbLayerTableRecord
  2
COSMETIC
 70
0
 62
7
  6
CONTINUOUS
370
-3
390
F
  0
LAYER
  5
21F
100
AcDbSymbolTableRecord
100
AcDbLayerTableRecord
  2
COSM_REF
 70
0
 62
7
  6
CONTINUOUS
370
-3
390
F
  0
LAYER
  5
220
100
AcDbSymbolTableRecord
100
AcDbLayerTableRecord
  2
CURVES
 70
0
 62
7
  6
CONTINUOUS
370
-3
390
F
  0
LAYER
  5
221
100
AcDbSymbolTableRecord
100
AcDbLayerTableRecord
  2
CUT_REF_SURF
 70
0
 62
7
  6
CONTINUOUS
370
-3
390
F
  0
LAYER
  5
222
100
AcDbSymbolTableRecord
100
AcDbLayerTableRecord
  2
DATUM
 70
0
 62
7
  6
CONTINUOUS
370
-3
390
F
  0
LAYER
  5
223
100
AcDbSymbolTableRecord
100
AcDbLayerTableRecord
  2
DATUMCURVES
 70
0
 62
7
  6
CONTINUOUS
370
-3
390
F
  0
LAYER
  5
224
100
AcDbSymbolTableRecord
100
AcDbLayerTableRecord
  2
DIMENSIONS
 70
0
 62
7
  6
CONTINUOUS
370
-3
390
F
  0
LAYER
  5
225
100
AcDbSymbolTableRecord
100
AcDbLayerTableRecord
  2
DRAWINGNOTES
 70
0
 62
7
  6
CONTINUOUS
370
-3
390
F
  0
LAYER
  5
226
100
AcDbSymbolTableRecord
100
AcDbLayerTableRecord
  2
DTM
 70
0
 62
7
  6
CONTINUOUS
370
-3
390
F
  0
LAYER
  5
227
100
AcDbSymbolTableRecord
100
AcDbLayerTableRecord
  2
DTM230
 70
0
 62
7
  6
CONTINUOUS
370
-3
390
F
  0
LAYER
  5
228
100
AcDbSymbolTableRecord
100
AcDbLayerTableRecord
  2
DTM325
 70
0
 62
7
  6
CONTINUOUS
370
-3
390
F
  0
LAYER
  5
229
100
AcDbSymbolTableRecord
100
AcDbLayerTableRecord
  2
DTM_500001
 70
0
 62
7
  6
CONTINUOUS
370
-3
390
F
  0
LAYER
  5
22A
100
AcDbSymbolTableRecord
100
AcDbLayerTableRecord
  2
DTM_500002
 70
0
 62
7
  6
CONTINUOUS
370
-3
390
F
  0
LAYER
  5
22B
100
AcDbSymbolTableRecord
100
AcDbLayerTableRecord
  2
DTM_515002
 70
0
 62
7
  6
CONTINUOUS
370
-3
390
F
  0
LAYER
  5
22C
100
AcDbSymbolTableRecord
100
AcDbLayerTableRecord
  2
DTM_800001
 70
0
 62
7
  6
CONTINUOUS
370
-3
390
F
  0
LAYER
  5
22D
100
AcDbSymbolTableRecord
100
AcDbLayerTableRecord
  2
DTM_BALLHOLDER
 70
0
 62
7
  6
CONTINUOUS
370
-3
390
F
  0
LAYER
  5
22E
100
AcDbSymbolTableRecord
100
AcDbLayerTableRecord
  2
DTM_ORIFICE_SEAT
 70
0
 62
7
  6
CONTINUOUS
370
-3
390
F
  0
LAYER
  5
22F
100
AcDbSymbolTableRecord
100
AcDbLayerTableRecord
  2
DTM_SPRING_LH
 70
0
 62
7
  6
CONTINUOUS
370
-3
390
F
  0
LAYER
  5
230
100
AcDbSymbolTableRecord
100
AcDbLayerTableRecord
  2
DTM_SPRING_RH
 70
0
 62
7
  6
CONTINUOUS
370
-3
390
F
  0
LAYER
  5
231
100
AcDbSymbolTableRecord
100
AcDbLayerTableRecord
  2
DTM_SP_LH_CONSTR
 70
0
 62
7
  6
CONTINUOUS
370
-3
390
F
  0
LAYER
  5
232
100
AcDbSymbolTableRecord
100
AcDbLayerTableRecord
  2
DTM_SP_RH_CONSTR
 70
0
 62
7
  6
CONTINUOUS
370
-3
390
F
  0
LAYER
  5
233
100
AcDbSymbolTableRecord
100
AcDbLayerTableRecord
  2
FACE1
 70
0
 62
7
  6
CONTINUOUS
370
-3
390
F
  0
LAYER
  5
234
100
AcDbSymbolTableRecord
100
AcDbLayerTableRecord
  2
FACE2
 70
0
 62
7
  6
CONTINUOUS
370
-3
390
F
  0
LAYER
  5
235
100
AcDbSymbolTableRecord
100
AcDbLayerTableRecord
  2
FACE3
 70
0
 62
7
  6
CONTINUOUS
370
-3
390
F
  0
LAYER
  5
236
100
AcDbSymbolTableRecord
100
AcDbLayerTableRecord
  2
FACE4
 70
0
 62
7
  6
CONTINUOUS
370
-3
390
F
  0
LAYER
  5
237
100
AcDbSymbolTableRecord
100
AcDbLayerTableRecord
  2
GEOMETRICTOLERANCES
 70
0
 62
7
  6
CONTINUOUS
370
-3
390
F
  0
LAYER
  5
238
100
AcDbSymbolTableRecord
100
AcDbLayerTableRecord
  2
HOLE_FEATURES
 70
0
 62
7
  6
CONTINUOUS
370
-3
390
F
  0
LAYER
  5
239
100
AcDbSymbolTableRecord
100
AcDbLayerTableRecord
  2
LAY0001
 70
0
 62
7
  6
CONTINUOUS
370
-3
390
F
  0
LAYER
  5
23A
100
AcDbSymbolTableRecord
100
AcDbLayerTableRecord
  2
PARAMETERDIMENSIONS
 70
0
 62
7
  6
CONTINUOUS
370
-3
390
F
  0
LAYER
  5
23B
100
AcDbSymbolTableRecord
100
AcDbLayerTableRecord
  2
PLANE
 70
0
 62
7
  6
CONTINUOUS
370
-3
390
F
  0
LAYER
  5
23C
100
AcDbSymbolTableRecord
100
AcDbLayerTableRecord
  2
PROTRUSIONS
 70
0
 62
7
  6
CONTINUOUS
370
-3
390
F
  0
LAYER
  5
23D
100
AcDbSymbolTableRecord
100
AcDbLayerTableRecord
  2
TEXT
 70
0
 62
7
  6
CONTINUOUS
370
-3
390
F
  0
LAYER
  5
23E
100
AcDbSymbolTableRecord
100
AcDbLayerTableRecord
  2
THREAD
 70
0
 62
7
  6
CONTINUOUS
370
-3
390
F
  0
LAYER
  5
23F
100
AcDbSymbolTableRecord
100
AcDbLayerTableRecord
  2
XSEC_DATUMS
 70
0
 62
7
  6
CONTINUOUS
370
-3
390
F
  0
ENDTAB
  0
TABLE
  2
STYLE
  5
3
100
AcDbSymbolTable
 70
1
  0
STYLE
  5
11
100
AcDbSymbolTableRecord
100
AcDbTextStyleTableRecord
  2
STANDARD
 70
0
 40
0.0
 41
0.8
 50
0.0
 71
0
 42
0.2
  3
txt
  4

  0
ENDTAB
  0
TABLE
  2
VIEW
  5
6
100
AcDbSymbolTable
 70
0
  0
ENDTAB
  0
TABLE
  2
UCS
  5
7
100
AcDbSymbolTable
 70
0
  0
ENDTAB
  0
TABLE
  2
APPID
  5
9
100
AcDbSymbolTable
 70
1
  0
APPID
  5
240
100
AcDbSymbolTableRecord
100
AcDbRegAppTableRecord
  2
ACAD
 70
0
  0
ENDTAB
  0
TABLE
  2
BLOCK_RECORD
  5
1
100
AcDbSymbolTable
 70
0
  0
BLOCK_RECORD
  5
1F
100
AcDbSymbolTableRecord
100
AcDbBlockTableRecord
  2
*MODEL_SPACE
  0
BLOCK_RECORD
  5
1B
100
AcDbSymbolTableRecord
100
AcDbBlockTableRecord
  2
*PAPER_SPACE
  0
ENDTAB
  0
TABLE
  2
DIMSTYLE
  5
A
100
AcDbSymbolTable
 70
1
100
AcDbDimStyleTable
 71
0
  0
DIMSTYLE
105
241
100
AcDbSymbolTableRecord
100
AcDbDimStyleTableRecord
  2
STANDARD
 70
0
  3

  4

 40
1.0
 41
0.1875
 42
0.0625
 43
0.38
 44
0.18
 45
0.0
 46
0.0
 47
0.01
 48
0.01
140
0.15625
141
0.09
142
0.0
143
25.4
144
1.0
145
0.0
146
1.0
147
0.09
 71
0.0
 72
0.0
 73
1
 74
1
 75
0
 76
0
 77
0
 78
4
170
0
171
2
172
0
173
0
174
0
175
0
176
0
177
0
178
0
270
2
271
2
272
2
273
2
274
2
275
0
280
0
281
0
282
0
283
1
284
4
285
0
286
0
287
3
288
0
340
11
  0
ENDTAB
  0
ENDSEC
  0
SECTION
  2
BLOCKS
  0
BLOCK
  5
20
100
AcDbEntity
  8
0
100
AcDbBlockBegin
  2
*MODEL_SPACE
 70
0
 10
0.0
 20
0.0
 30
0.0
  3
*MODEL_SPACE
  1

  0
ENDBLK
  5
21
100
AcDbEntity
  8
0
100
AcDbBlockEnd
  0
BLOCK
  5
1C
100
AcDbEntity
  8
0
100
AcDbBlockBegin
  2
*PAPER_SPACE
 70
0
 10
0.0
 20
0.0
 30
0.0
  3
*PAPER_SPACE
  1

  0
ENDBLK
  5
1D
100
AcDbEntity
  8
0
100
AcDbBlockEnd
  0
ENDSEC
  0
SECTION
  2
ENTITIES
  0
LINE
  5
242
100
AcDbEntity
  8
0
100
AcDbLine
 62
7
  6
CONTINUOUS
 10
2.7873188868
 20
4.2815569326
 11
2.7873188868
 21
3.9755569326
  0
LINE
  5
243
100
AcDbEntity
  8
03__ASM_ALL_CURVES
100
AcDbLine
 62
40
  6
CONTINUOUS
 10
2.7873188868
 20
4.2815569326
 11
2.7873188868
 21
5.1713529326
  0
LINE
  5
244
100
AcDbEntity
  8
0
100
AcDbLine
 62
7
  6
CONTINUOUS
 10
2.8183188868
 20
4.3125569326
 11
2.8183188868
 21
3.9445569326
  0
LINE
  5
245
100
AcDbEntity
  8
03__ASM_ALL_CURVES
100
AcDbLine
 62
40
  6
CONTINUOUS
 10
2.9214188868
 20
5.1490029326
 11
2.9214188868
 21
5.1043029326
  0
LINE
  5
246
100
AcDbEntity
  8
0
100
AcDbLine
 62
7
  6
CONTINUOUS
 10
3.0173188868
 20
4.3125569326
 11
3.0173188868
 21
3.9445569326
  0
LINE
  5
247
100
AcDbEntity
  8
0
100
AcDbLine
 62
7
  6
CONTINUOUS
 10
3.0188188868
 20
3.9674139396
 11
3.0188188868
 21
4.2046805014
  0
LINE
  5
248
100
AcDbEntity
  8
0
100
AcDbLine
 62
7
  6
CONTINUOUS
 10
3.0538188868
 20
3.9674139396
 11
3.0538188868
 21
4.2046805014
  0
LINE
  5
249
100
AcDbEntity
  8
0
100
AcDbLine
 62
7
  6
CONTINUOUS
 10
3.0553188868
 20
4.3125569326
 11
3.0553188868
 21
3.9445569326
  0
LINE
  5
24A
100
AcDbEntity
  8
0
100
AcDbLine
 62
7
  6
CONTINUOUS
 10
3.2883188868
 20
3.8809057475
 11
3.2883188868
 21
4.3762081177
  0
LINE
  5
24B
100
AcDbEntity
  8
0
100
AcDbLine
 62
7
  6
CONTINUOUS
 10
3.3503188868
 20
3.8575569326
 11
3.3503188868
 21
4.3995569326
  0
LINE
  5
24C
100
AcDbEntity
  8
0
100
AcDbLine
 62
7
  6
CONTINUOUS
 10
3.3563188868
 20
3.8575569326
 11
3.3563188868
 21
4.3995569326
  0
LINE
  5
24D
100
AcDbEntity
  8
0
100
AcDbLine
 62
7
  6
CONTINUOUS
 10
3.3618188868
 20
3.8630569326
 11
3.3618188868
 21
4.3940569326
  0
LINE
  5
24E
100
AcDbEntity
  8
0
100
AcDbLine
 62
7
  6
CONTINUOUS
 10
3.3778188868
 20
3.8630569326
 11
3.3778188868
 21
4.3940569326
  0
LINE
  5
24F
100
AcDbEntity
  8
0
100
AcDbLine
 62
7
  6
CONTINUOUS
 10
2.7873188868
 20
3.9755569326
 11
2.8183188868
 21
3.9445569326
  0
LINE
  5
250
100
AcDbEntity
  8
0
100
AcDbLine
 62
7
  6
CONTINUOUS
 10
3.5693188868
 20
3.8575569326
 11
3.5693188868
 21
4.3995569326
  0
LINE
  5
251
100
AcDbEntity
  8
0
100
AcDbLine
 62
7
  6
CONTINUOUS
 10
3.6003188868
 20
3.8050569326
 11
3.6003188868
 21
4.4520569326
  0
LINE
  5
252
100
AcDbEntity
  8
0
100
AcDbLine
 62
7
  6
CONTINUOUS
 10
3.6503188868
 20
3.7550569326
 11
3.6503188868
 21
4.5020569326
  0
LINE
  5
253
100
AcDbEntity
  8
0
100
AcDbLine
 62
7
  6
CONTINUOUS
 10
3.7013188868
 20
3.7550569326
 11
3.7013188868
 21
4.5020569326
  0
LINE
  5
254
100
AcDbEntity
  8
0
100
AcDbLine
 62
7
  6
CONTINUOUS
 10
3.7063188868
 20
3.7600569326
 11
3.7063188868
 21
4.4970569326
  0
LINE
  5
255
100
AcDbEntity
  8
03__ASM_ALL_CURVES
100
AcDbLine
 62
40
  6
CONTINUOUS
 10
3.8035063868
 20
5.2551654326
 11
3.7965220118
 21
5.2458529348
  0
LINE
  5
256
100
AcDbEntity
  8
03__ASM_ALL_CURVES
100
AcDbLine
 62
40
  6
CONTINUOUS
 10
3.8104907618
 20
5.1992904326
 11
3.7965220118
 21
5.1806654329
  0
LINE
  5
257
100
AcDbEntity
  8
0
100
AcDbLine
 62
7
  6
CONTINUOUS
 10
2.7873188868
 20
4.2815569326
 11
2.8183188868
 21
4.3125569326
  0
LINE
  5
258
100
AcDbEntity
  8
0
100
AcDbLine
 62
7
  6
CONTINUOUS
 10
3.7143188868
 20
3.7785569326
 11
3.7143188868
 21
4.4785569326
  0
LINE
  5
259
100
AcDbEntity
  8
0
100
AcDbLine
 62
7
  6
CONTINUOUS
 10
3.7363188868
 20
3.7785569326
 11
3.7363188868
 21
4.4785569326
  0
LINE
  5
25A
100
AcDbEntity
  8
0
100
AcDbLine
 62
7
  6
CONTINUOUS
 10
3.7443188868
 20
3.7600569326
 11
3.7443188868
 21
4.4970569326
  0
LINE
  5
25B
100
AcDbEntity
  8
0
100
AcDbLine
 62
7
  6
CONTINUOUS
 10
3.7493188868
 20
3.7550569326
 11
3.7493188868
 21
4.5020569326
  0
LINE
  5
25C
100
AcDbEntity
  8
03__ASM_ALL_CURVES
100
AcDbLine
 62
40
  6
CONTINUOUS
 10
3.8035063868
 20
5.2644779304
 11
3.8035063868
 21
5.2551654326
  0
LINE
  5
25D
100
AcDbEntity
  8
03__ASM_ALL_CURVES
100
AcDbLine
 62
40
  6
CONTINUOUS
 10
3.8104907618
 20
5.2086029337
 11
3.8104907618
 21
5.1992904326
  0
LINE
  5
25E
100
AcDbEntity
  8
03__ASM_ALL_CURVES
100
AcDbLine
 62
40
  6
CONTINUOUS
 10
3.8803345118
 20
5.1713529326
 11
3.8803345118
 21
5.1806654329
  0
LINE
  5
25F
100
AcDbEntity
  8
03__ASM_ALL_CURVES
100
AcDbLine
 62
40
  6
CONTINUOUS
 10
3.9711313868
 20
5.2458529348
 11
3.9781157618
 21
5.2644779304
  0
LINE
  5
260
100
AcDbEntity
  8
03__ASM_ALL_CURVES
100
AcDbLine
 62
40
  6
CONTINUOUS
 10
4.0270063868
 20
5.2086029337
 11
4.0200220118
 21
5.1899779332
  0
LINE
  5
261
100
AcDbEntity
  8
03__ASM_ALL_CURVES
100
AcDbLine
 62
40
  6
CONTINUOUS
 10
4.0828813868
 20
5.2458529348
 11
4.0898657618
 21
5.2644779304
  0
LINE
  5
262
100
AcDbEntity
  8
03__ASM_ALL_CURVES
100
AcDbLine
 62
40
  6
CONTINUOUS
 10
4.1387563868
 20
5.2458529348
 11
4.1317720118
 21
5.2272279326
  0
LINE
  5
263
100
AcDbEntity
  8
03__ASM_ALL_CURVES
100
AcDbLine
 62
40
  6
CONTINUOUS
 10
4.1387563868
 20
5.2086029337
 11
4.1317720118
 21
5.1899779332
  0
LINE
  5
264
100
AcDbEntity
  8
03__ASM_ALL_CURVES
100
AcDbLine
 62
40
  6
CONTINUOUS
 10
3.9781157618
 20
5.2644779304
 11
3.9851001368
 21
5.2737904348
  0
LINE
  5
265
100
AcDbEntity
  8
03__ASM_ALL_CURVES
100
AcDbLine
 62
40
  6
CONTINUOUS
 10
4.0200220118
 20
5.1899779332
 11
4.0130376368
 21
5.1806654329
  0
LINE
  5
266
100
AcDbEntity
  8
03__ASM_ALL_CURVES
100
AcDbLine
 62
40
  6
CONTINUOUS
 10
4.0898657618
 20
5.2644779304
 11
4.0968501368
 21
5.2737904348
  0
LINE
  5
267
100
AcDbEntity
  8
03__ASM_ALL_CURVES
100
AcDbLine
 62
40
  6
CONTINUOUS
 10
4.1317720118
 20
5.1899779332
 11
4.1247876368
 21
5.1806654329
  0
LINE
  5
268
100
AcDbEntity
  8
03__ASM_ALL_CURVES
100
AcDbLine
 62
40
  6
CONTINUOUS
 10
3.7546157618
 20
5.2737904348
 11
3.7685845118
 21
5.2831029326
  0
LINE
  5
269
100
AcDbEntity
  8
03__ASM_ALL_CURVES
100
AcDbLine
 62
40
  6
CONTINUOUS
 10
3.7965220118
 20
5.2458529348
 11
3.7825532618
 21
5.2365404304
  0
LINE
  5
26A
100
AcDbEntity
  8
0
100
AcDbLine
 62
7
  6
CONTINUOUS
 10
3.3933196723
 20
3.847556147
 11
3.3778188868
 21
3.8630569326
  0
LINE
  5
26B
100
AcDbEntity
  8
0
100
AcDbLine
 62
7
  6
CONTINUOUS
 10
3.6503188868
 20
3.7550569326
 11
3.6003188868
 21
3.8050569326
  0
LINE
  5
26C
100
AcDbEntity
  8
0
100
AcDbLine
 62
7
  6
CONTINUOUS
 10
3.5693188868
 20
4.3995569326
 11
3.5632241146
 21
4.4101133876
  0
LINE
  5
26D
100
AcDbEntity
  8
03__ASM_ALL_CURVES
100
AcDbLine
 62
40
  6
CONTINUOUS
 10
3.9711313868
 20
5.2086029337
 11
3.9711313868
 21
5.2458529348
  0
LINE
  5
26E
100
AcDbEntity
  8
03__ASM_ALL_CURVES
100
AcDbLine
 62
40
  6
CONTINUOUS
 10
4.0270063868
 20
5.2458529348
 11
4.0270063868
 21
5.2086029337
  0
LINE
  5
26F
100
AcDbEntity
  8
0
100
AcDbLine
 62
7
  6
CONTINUOUS
 10
4.1003188868
 20
3.6985569326
 11
4.1003188868
 21
4.5585569326
  0
LINE
  5
270
100
AcDbEntity
  8
0
100
AcDbLine
 62
7
  6
CONTINUOUS
 10
4.1343825526
 20
3.6395569326
 11
4.1343825526
 21
3.6404544601
  0
LINE
  5
271
100
AcDbEntity
  8
0
100
AcDbLine
 62
7
  6
CONTINUOUS
 10
4.1343825526
 20
3.8588594051
 11
4.1343825526
 21
3.9101519876
  0
LINE
  5
272
100
AcDbEntity
  8
0
100
AcDbLine
 62
7
  6
CONTINUOUS
 10
4.1343825526
 20
4.3469618776
 11
4.1343825526
 21
4.3982544601
  0
LINE
  5
273
100
AcDbEntity
  8
0
100
AcDbLine
 62
7
  6
CONTINUOUS
 10
4.1343825526
 20
4.6166594051
 11
4.1343825526
 21
4.6175569326
  0
LINE
  5
274
100
AcDbEntity
  8
03__ASM_ALL_CURVES
100
AcDbLine
 62
40
  6
CONTINUOUS
 10
4.2155845118
 20
5.2644779304
 11
4.2086001368
 21
5.2365404304
  0
LINE
  5
275
100
AcDbEntity
  8
03__ASM_ALL_CURVES
100
AcDbLine
 62
40
  6
CONTINUOUS
 10
4.3482876368
 20
5.2458529348
 11
4.3622563868
 21
5.2831029326
  0
LINE
  5
276
100
AcDbEntity
  8
0
100
AcDbLine
 62
7
  6
CONTINUOUS
 10
3.5693188868
 20
3.8575569326
 11
3.5632241146
 21
3.8470004776
  0
LINE
  5
277
100
AcDbEntity
  8
03__ASM_ALL_CURVES
100
AcDbLine
 62
40
  6
CONTINUOUS
 10
4.2295532618
 20
5.2831029326
 11
4.2155845118
 21
5.2644779304
  0
LINE
  5
278
100
AcDbEntity
  8
03__ASM_ALL_CURVES
100
AcDbLine
 62
40
  6
CONTINUOUS
 10
4.4181313868
 20
5.2644779304
 11
4.4251157618
 21
5.2737904348
  0
LINE
  5
279
100
AcDbEntity
  8
03__ASM_ALL_CURVES
100
AcDbLine
 62
40
  6
CONTINUOUS
 10
4.4111470118
 20
5.2086029337
 11
4.4251157618
 21
5.2272279326
  0
LINE
  5
27A
100
AcDbEntity
  8
0
100
AcDbLine
 62
7
  6
CONTINUOUS
 10
3.3933196723
 20
4.4095577182
 11
3.3778188868
 21
4.3940569326
  0
LINE
  5
27B
100
AcDbEntity
  8
0
100
AcDbLine
 62
7
  6
CONTINUOUS
 10
3.6503188868
 20
4.5020569326
 11
3.6003188868
 21
4.4520569326
  0
LINE
  5
27C
100
AcDbEntity
  8
03__ASM_ALL_CURVES
100
AcDbLine
 62
40
  6
CONTINUOUS
 10
3.7965220118
 20
5.1806654329
 11
3.7825532618
 21
5.1713529326
  0
LINE
  5
27D
100
AcDbEntity
  8
03__ASM_ALL_CURVES
100
AcDbLine
 62
40
  6
CONTINUOUS
 10
3.9851001368
 20
5.2737904348
 11
3.9990688868
 21
5.2831029326
  0
LINE
  5
27E
100
AcDbEntity
  8
03__ASM_ALL_CURVES
100
AcDbLine
 62
40
  6
CONTINUOUS
 10
4.0968501368
 20
5.2737904348
 11
4.1108188868
 21
5.2831029326
  0
LINE
  5
27F
100
AcDbEntity
  8
03__ASM_ALL_CURVES
100
AcDbLine
 62
40
  6
CONTINUOUS
 10
4.0130376368
 20
5.1806654329
 11
3.9990688868
 21
5.1713529326
  0
LINE
  5
280
100
AcDbEntity
  8
03__ASM_ALL_CURVES
100
AcDbLine
 62
40
  6
CONTINUOUS
 10
4.1247876368
 20
5.1806654329
 11
4.1108188868
 21
5.1713529326
  0
LINE
  5
281
100
AcDbEntity
  8
0
100
AcDbLine
 62
7
  6
CONTINUOUS
 10
4.1343825526
 20
3.6395569326
 11
4.1003188868
 21
3.6985569326
  0
LINE
  5
282
100
AcDbEntity
  8
03__ASM_ALL_CURVES
100
AcDbLine
 62
40
  6
CONTINUOUS
 10
4.1387563868
 20
5.2458529348
 11
4.1387563868
 21
5.2086029337
  0
LINE
  5
283
100
AcDbEntity
  8
03__ASM_ALL_CURVES
100
AcDbLine
 62
40
  6
CONTINUOUS
 10
4.2086001368
 20
5.2365404304
 11
4.2086001368
 21
5.2179154315
  0
LINE
  5
284
100
AcDbEntity
  8
03__ASM_ALL_CURVES
100
AcDbLine
 62
40
  6
CONTINUOUS
 10
4.3343188868
 20
5.1713529326
 11
4.3413032618
 21
5.2179154315
  0
LINE
  5
285
100
AcDbEntity
  8
03__ASM_ALL_CURVES
100
AcDbLine
 62
40
  6
CONTINUOUS
 10
4.3413032618
 20
5.2179154315
 11
4.3482876368
 21
5.2458529348
  0
LINE
  5
286
100
AcDbEntity
  8
0
100
AcDbLine
 62
7
  6
CONTINUOUS
 10
4.1339939118
 20
4.616883787
 11
4.1003188868
 21
4.5585569326
  0
LINE
  5
287
100
AcDbEntity
  8
03__ASM_ALL_CURVES
100
AcDbLine
 62
40
  6
CONTINUOUS
 10
4.6905220118
 20
5.2831029326
 11
4.6416313868
 21
5.1992904326
  0
LINE
  5
288
100
AcDbEntity
  8
03__ASM_ALL_CURVES
100
AcDbLine
 62
40
  6
CONTINUOUS
 10
4.4740063868
 20
5.2551654326
 11
4.4670220118
 21
5.2458529348
  0
LINE
  5
289
100
AcDbEntity
  8
03__ASM_ALL_CURVES
100
AcDbLine
 62
40
  6
CONTINUOUS
 10
4.4809907618
 20
5.1992904326
 11
4.4670220118
 21
5.1806654329
  0
LINE
  5
28A
100
AcDbEntity
  8
03__ASM_ALL_CURVES
100
AcDbLine
 62
40
  6
CONTINUOUS
 10
4.4251157618
 20
5.2737904348
 11
4.4390845118
 21
5.2831029326
  0
LINE
  5
28B
100
AcDbEntity
  8
03__ASM_ALL_CURVES
100
AcDbLine
 62
40
  6
CONTINUOUS
 10
4.4251157618
 20
5.2272279326
 11
4.4390845118
 21
5.2365404304
  0
LINE
  5
28C
100
AcDbEntity
  8
03__ASM_ALL_CURVES
100
AcDbLine
 62
40
  6
CONTINUOUS
 10
4.4670220118
 20
5.2458529348
 11
4.4530532618
 21
5.2365404304
  0
LINE
  5
28D
100
AcDbEntity
  8
03__ASM_ALL_CURVES
100
AcDbLine
 62
40
  6
CONTINUOUS
 10
4.4670220118
 20
5.1806654329
 11
4.4530532618
 21
5.1713529326
  0
LINE
  5
28E
100
AcDbEntity
  8
03__ASM_ALL_CURVES
100
AcDbLine
 62
40
  6
CONTINUOUS
 10
4.1317720118
 20
5.2272279326
 11
4.1108188868
 21
5.2179154315
  0
LINE
  5
28F
100
AcDbEntity
  8
0
100
AcDbLine
 62
7
  6
CONTINUOUS
 10
3.3618188868
 20
4.3940569326
 11
3.3563188868
 21
4.3995569326
  0
LINE
  5
290
100
AcDbEntity
  8
03__ASM_ALL_CURVES
100
AcDbLine
 62
40
  6
CONTINUOUS
 10
4.4111470118
 20
5.1992904326
 11
4.4111470118
 21
5.2086029337
  0
LINE
  5
291
100
AcDbEntity
  8
03__ASM_ALL_CURVES
100
AcDbLine
 62
40
  6
CONTINUOUS
 10
4.4181313868
 20
5.2551654326
 11
4.4181313868
 21
5.2644779304
  0
LINE
  5
292
100
AcDbEntity
  8
03__ASM_ALL_CURVES
100
AcDbLine
 62
40
  6
CONTINUOUS
 10
4.4740063868
 20
5.2644779304
 11
4.4740063868
 21
5.2551654326
  0
LINE
  5
293
100
AcDbEntity
  8
03__ASM_ALL_CURVES
100
AcDbLine
 62
40
  6
CONTINUOUS
 10
4.4809907618
 20
5.2086029337
 11
4.4809907618
 21
5.1992904326
  0
LINE
  5
294
100
AcDbEntity
  8
0
100
AcDbLine
 62
7
  6
CONTINUOUS
 10
4.5238188868
 20
3.6395569326
 11
4.5238188868
 21
3.6404544601
  0
LINE
  5
295
100
AcDbEntity
  8
0
100
AcDbLine
 62
7
  6
CONTINUOUS
 10
4.5238188868
 20
3.8588594051
 11
4.5238188868
 21
3.9101519876
  0
LINE
  5
296
100
AcDbEntity
  8
0
100
AcDbLine
 62
7
  6
CONTINUOUS
 10
4.5238188868
 20
4.3469618776
 11
4.5238188868
 21
4.3982544601
  0
LINE
  5
297
100
AcDbEntity
  8
0
100
AcDbLine
 62
7
  6
CONTINUOUS
 10
4.5238188868
 20
4.6166594051
 11
4.5238188868
 21
4.6175569326
  0
LINE
  5
298
100
AcDbEntity
  8
03__ASM_ALL_CURVES
100
AcDbLine
 62
40
  6
CONTINUOUS
 10
4.5508345118
 20
5.1713529326
 11
4.5508345118
 21
5.1806654329
  0
LINE
  5
299
100
AcDbEntity
  8
03__ASM_ALL_CURVES
100
AcDbLine
 62
40
  6
CONTINUOUS
 10
4.7533813868
 20
5.2644779304
 11
4.7603657618
 21
5.2737904348
  0
LINE
  5
29A
100
AcDbEntity
  8
03__ASM_ALL_CURVES
100
AcDbLine
 62
40
  6
CONTINUOUS
 10
4.7463970118
 20
5.2086029337
 11
4.7603657618
 21
5.2272279326
  0
LINE
  5
29B
100
AcDbEntity
  8
03__ASM_ALL_CURVES
100
AcDbLine
 62
40
  6
CONTINUOUS
 10
4.8092563868
 20
5.2551654326
 11
4.8022720118
 21
5.2458529348
  0
LINE
  5
29C
100
AcDbEntity
  8
03__ASM_ALL_CURVES
100
AcDbLine
 62
40
  6
CONTINUOUS
 10
4.8162407618
 20
5.1992904326
 11
4.8022720118
 21
5.1806654329
  0
LINE
  5
29D
100
AcDbEntity
  8
03__ASM_ALL_CURVES
100
AcDbLine
 62
40
  6
CONTINUOUS
 10
4.9000532618
 20
5.1899779332
 11
4.8860845118
 21
5.1713529326
  0
LINE
  5
29E
100
AcDbEntity
  8
0
100
AcDbLine
 62
7
  6
CONTINUOUS
 10
3.3618188868
 20
3.8630569326
 11
3.3563188868
 21
3.8575569326
  0
LINE
  5
29F
100
AcDbEntity
  8
03__ASM_ALL_CURVES
100
AcDbLine
 62
40
  6
CONTINUOUS
 10
4.7603657618
 20
5.2737904348
 11
4.7743345118
 21
5.2831029326
  0
LINE
  5
2A0
100
AcDbEntity
  8
03__ASM_ALL_CURVES
100
AcDbLine
 62
40
  6
CONTINUOUS
 10
4.7603657618
 20
5.2272279326
 11
4.7743345118
 21
5.2365404304
  0
LINE
  5
2A1
100
AcDbEntity
  8
03__ASM_ALL_CURVES
100
AcDbLine
 62
40
  6
CONTINUOUS
 10
4.8022720118
 20
5.2458529348
 11
4.7883032618
 21
5.2365404304
  0
LINE
  5
2A2
100
AcDbEntity
  8
03__ASM_ALL_CURVES
100
AcDbLine
 62
40
  6
CONTINUOUS
 10
4.8022720118
 20
5.1806654329
 11
4.7883032618
 21
5.1713529326
  0
LINE
  5
2A3
100
AcDbEntity
  8
03__ASM_ALL_CURVES
100
AcDbLine
 62
40
  6
CONTINUOUS
 10
4.9036938836
 20
3.3750444326
 11
4.9141704461
 21
3.3680600593
  0
LINE
  5
2A4
100
AcDbEntity
  8
03__ASM_ALL_CURVES
100
AcDbLine
 62
40
  6
CONTINUOUS
 10
4.9141704461
 20
3.3680600593
 11
4.9246470086
 21
3.3540913076
  0
LINE
  5
2A5
100
AcDbEntity
  8
03__ASM_ALL_CURVES
100
AcDbLine
 62
40
  6
CONTINUOUS
 10
3.9781157618
 20
5.1899779332
 11
3.9711313868
 21
5.2086029337
  0
LINE
  5
2A6
100
AcDbEntity
  8
03__ASM_ALL_CURVES
100
AcDbLine
 62
40
  6
CONTINUOUS
 10
4.0200220118
 20
5.2644779304
 11
4.0270063868
 21
5.2458529348
  0
LINE
  5
2A7
100
AcDbEntity
  8
03__ASM_ALL_CURVES
100
AcDbLine
 62
40
  6
CONTINUOUS
 10
4.0898657618
 20
5.2272279326
 11
4.0828813868
 21
5.2458529348
  0
LINE
  5
2A8
100
AcDbEntity
  8
03__ASM_ALL_CURVES
100
AcDbLine
 62
40
  6
CONTINUOUS
 10
4.2086001368
 20
5.2179154315
 11
4.2155845118
 21
5.1899779332
  0
LINE
  5
2A9
100
AcDbEntity
  8
0
100
AcDbLine
 62
7
  6
CONTINUOUS
 10
4.5693188868
 20
3.6850569326
 11
4.5693188868
 21
4.5720569326
  0
LINE
  5
2AA
100
AcDbEntity
  8
03__ASM_ALL_CURVES
100
AcDbLine
 62
40
  6
CONTINUOUS
 10
4.6905220118
 20
5.1713529326
 11
4.6905220118
 21
5.2831029326
  0
LINE
  5
2AB
100
AcDbEntity
  8
0
100
AcDbLine
 62
7
  6
CONTINUOUS
 10
4.7143188868
 20
3.6850569326
 11
4.7143188868
 21
4.5720569326
  0
LINE
  5
2AC
100
AcDbEntity
  8
0
100
AcDbLine
 62
7
  6
CONTINUOUS
 10
4.7228409247
 20
3.6944043851
 11
4.7228409247
 21
4.5627094801
  0
LINE
  5
2AD
100
AcDbEntity
  8
0
100
AcDbLine
 62
7
  6
CONTINUOUS
 10
4.7257968488
 20
3.6944043851
 11
4.7257968488
 21
4.5627094801
  0
LINE
  5
2AE
100
AcDbEntity
  8
0
100
AcDbLine
 62
7
  6
CONTINUOUS
 10
4.7343188868
 20
3.6850569326
 11
4.7343188868
 21
4.5720569326
  0
LINE
  5
2AF
100
AcDbEntity
  8
03__ASM_ALL_CURVES
100
AcDbLine
 62
40
  6
CONTINUOUS
 10
4.7463970118
 20
5.1992904326
 11
4.7463970118
 21
5.2086029337
  0
LINE
  5
2B0
100
AcDbEntity
  8
03__ASM_ALL_CURVES
100
AcDbLine
 62
40
  6
CONTINUOUS
 10
4.7533813868
 20
5.2551654326
 11
4.7533813868
 21
5.2644779304
  0
LINE
  5
2B1
100
AcDbEntity
  8
03__ASM_ALL_CURVES
100
AcDbLine
 62
40
  6
CONTINUOUS
 10
4.9070376368
 20
5.2179154315
 11
4.9000532618
 21
5.1899779332
  0
LINE
  5
2B2
100
AcDbEntity
  8
03__ASM_ALL_CURVES
100
AcDbLine
 62
40
  6
CONTINUOUS
 10
4.9927446648
 20
3.3750444326
 11
5.0032212273
 21
3.3680600593
  0
LINE
  5
2B3
100
AcDbEntity
  8
03__ASM_ALL_CURVES
100
AcDbLine
 62
40
  6
CONTINUOUS
 10
4.979648955
 20
3.4197444326
 11
4.9691723925
 21
3.4267288078
  0
LINE
  5
2B4
100
AcDbEntity
  8
03__ASM_ALL_CURVES
100
AcDbLine
 62
40
  6
CONTINUOUS
 10
4.9063130175
 20
3.5035569326
 11
4.91678958
 21
3.4965725593
  0
LINE
  5
2B5
100
AcDbEntity
  8
03__ASM_ALL_CURVES
100
AcDbLine
 62
40
  6
CONTINUOUS
 10
4.9901255175
 20
3.5035569326
 11
5.00060208
 21
3.4965725593
  0
LINE
  5
2B6
100
AcDbEntity
  8
03__ASM_ALL_CURVES
100
AcDbLine
 62
40
  6
CONTINUOUS
 10
5.0739380175
 20
3.5035569326
 11
5.08441458
 21
3.4965725593
  0
LINE
  5
2B7
100
AcDbEntity
  8
0
100
AcDbLine
 62
7
  6
CONTINUOUS
 10
4.7343188868
 20
3.6850569326
 11
4.7257968488
 21
3.6944043851
  0
LINE
  5
2B8
100
AcDbEntity
  8
03__ASM_ALL_CURVES
100
AcDbLine
 62
40
  6
CONTINUOUS
 10
5.0032212273
 20
3.3680600593
 11
5.0084595086
 21
3.3610756809
  0
LINE
  5
2B9
100
AcDbEntity
  8
03__ASM_ALL_CURVES
100
AcDbLine
 62
40
  6
CONTINUOUS
 10
4.91678958
 20
3.4965725593
 11
4.9220278613
 21
3.4895881809
  0
LINE
  5
2BA
100
AcDbEntity
  8
03__ASM_ALL_CURVES
100
AcDbLine
 62
40
  6
CONTINUOUS
 10
4.9691723925
 20
3.4267288078
 11
4.95869583
 21
3.4406975576
  0
LINE
  5
2BB
100
AcDbEntity
  8
03__ASM_ALL_CURVES
100
AcDbLine
 62
40
  6
CONTINUOUS
 10
5.00060208
 20
3.4965725593
 11
5.0110786425
 21
3.4826038076
  0
LINE
  5
2BC
100
AcDbEntity
  8
03__ASM_ALL_CURVES
100
AcDbLine
 62
40
  6
CONTINUOUS
 10
3.7546157618
 20
5.1806654329
 11
3.7476313868
 21
5.1899779332
  0
LINE
  5
2BD
100
AcDbEntity
  8
03__ASM_ALL_CURVES
100
AcDbLine
 62
40
  6
CONTINUOUS
 10
5.08441458
 20
3.4965725593
 11
5.0896528613
 21
3.4895881809
  0
LINE
  5
2BE
100
AcDbEntity
  8
03__ASM_ALL_CURVES
100
AcDbLine
 62
40
  6
CONTINUOUS
 10
3.7965220118
 20
5.2272279326
 11
3.8104907618
 21
5.2086029337
  0
LINE
  5
2BF
100
AcDbEntity
  8
03__ASM_ALL_CURVES
100
AcDbLine
 62
40
  6
CONTINUOUS
 10
4.1317720118
 20
5.2644779304
 11
4.1387563868
 21
5.2458529348
  0
LINE
  5
2C0
100
AcDbEntity
  8
03__ASM_ALL_CURVES
100
AcDbLine
 62
40
  6
CONTINUOUS
 10
4.9927446648
 20
3.3331381826
 11
5.0084595086
 21
3.2912319326
  0
LINE
  5
2C1
100
AcDbEntity
  8
03__ASM_ALL_CURVES
100
AcDbLine
 62
40
  6
CONTINUOUS
 10
4.9246470086
 20
3.3540913076
 11
4.9298852898
 21
3.3331381826
  0
LINE
  5
2C2
100
AcDbEntity
  8
0
100
AcDbLine
 62
7
  6
CONTINUOUS
 10
4.7873188868
 20
3.6850569326
 11
4.7873188868
 21
4.5720569326
  0
LINE
  5
2C3
100
AcDbEntity
  8
03__ASM_ALL_CURVES
100
AcDbLine
 62
40
  6
CONTINUOUS
 10
4.8092563868
 20
5.2644779304
 11
4.8092563868
 21
5.2551654326
  0
LINE
  5
2C4
100
AcDbEntity
  8
03__ASM_ALL_CURVES
100
AcDbLine
 62
40
  6
CONTINUOUS
 10
4.8162407618
 20
5.2086029337
 11
4.8162407618
 21
5.1992904326
  0
LINE
  5
2C5
100
AcDbEntity
  8
0
100
AcDbLine
 62
7
  6
CONTINUOUS
 10
4.8373188868
 20
3.6860576054
 11
4.8373188868
 21
4.5710562598
  0
LINE
  5
2C6
100
AcDbEntity
  8
03__ASM_ALL_CURVES
100
AcDbLine
 62
40
  6
CONTINUOUS
 10
4.8801216113
 20
3.4197444326
 11
4.8801216113
 21
3.5035569326
  0
LINE
  5
2C7
100
AcDbEntity
  8
03__ASM_ALL_CURVES
100
AcDbLine
 62
40
  6
CONTINUOUS
 10
4.8827407586
 20
3.2912319326
 11
4.8827407586
 21
3.3750444326
  0
LINE
  5
2C8
100
AcDbEntity
  8
03__ASM_ALL_CURVES
100
AcDbLine
 62
40
  6
CONTINUOUS
 10
4.9070376368
 20
5.2365404304
 11
4.9070376368
 21
5.2179154315
  0
LINE
  5
2C9
100
AcDbEntity
  8
0
100
AcDbLine
 62
7
  6
CONTINUOUS
 10
4.9073188868
 20
4.5520569326
 11
4.9073188868
 21
3.7050569326
  0
LINE
  5
2CA
100
AcDbEntity
  8
0
100
AcDbLine
 62
7
  6
CONTINUOUS
 10
4.9153188868
 20
3.7400569326
 11
4.9153188868
 21
4.5170569326
  0
LINE
  5
2CB
100
AcDbEntity
  8
03__ASM_ALL_CURVES
100
AcDbLine
 62
40
  6
CONTINUOUS
 10
4.9220278613
 20
3.4895881809
 11
4.9220278613
 21
3.4756194343
  0
LINE
  5
2CC
100
AcDbEntity
  8
0
100
AcDbLine
 62
7
  6
CONTINUOUS
 10
4.9283188868
 20
3.6850569326
 11
4.9283188868
 21
4.5720569326
  0
LINE
  5
2CD
100
AcDbEntity
  8
03__ASM_ALL_CURVES
100
AcDbLine
 62
40
  6
CONTINUOUS
 10
4.9665532586
 20
3.2912319326
 11
4.9665532586
 21
3.3750444326
  0
LINE
  5
2CE
100
AcDbEntity
  8
0
100
AcDbLine
 62
7
  6
CONTINUOUS
 10
4.9753188868
 20
3.6850569326
 11
4.9753188868
 21
4.5720569326
  0
LINE
  5
2CF
100
AcDbEntity
  8
0
100
AcDbLine
 62
7
  6
CONTINUOUS
 10
4.7343188868
 20
4.5720569326
 11
4.7257968488
 21
4.5627094801
  0
LINE
  5
2D0
100
AcDbEntity
  8
03__ASM_ALL_CURVES
100
AcDbLine
 62
40
  6
CONTINUOUS
 10
6.9419887665
 20
3.2912319326
 11
6.9000825165
 21
3.2912319326
  0
LINE
  5
2D1
100
AcDbEntity
  8
03__ASM_ALL_CURVES
100
AcDbLine
 62
40
  6
CONTINUOUS
 10
4.9036938836
 20
3.2912319326
 11
4.8827407586
 21
3.2912319326
  0
LINE
  5
2D2
100
AcDbEntity
  8
03__ASM_ALL_CURVES
100
AcDbLine
 62
40
  6
CONTINUOUS
 10
6.8162700165
 20
3.2912319326
 11
6.8581762665
 21
3.2912319326
  0
LINE
  5
2D3
100
AcDbEntity
  8
03__ASM_ALL_CURVES
100
AcDbLine
 62
40
  6
CONTINUOUS
 10
5.0556040398
 20
3.3191694334
 11
5.0870337273
 21
3.3191694334
  0
LINE
  5
2D4
100
AcDbEntity
  8
03__ASM_ALL_CURVES
100
AcDbLine
 62
40
  6
CONTINUOUS
 10
5.7013169377
 20
3.3191694334
 11
5.7327466252
 21
3.3191694334
  0
LINE
  5
2D5
100
AcDbEntity
  8
03__ASM_ALL_CURVES
100
AcDbLine
 62
40
  6
CONTINUOUS
 10
4.9927446648
 20
3.3331381826
 11
4.9665532586
 21
3.3331381826
  0
LINE
  5
2D6
100
AcDbEntity
  8
03__ASM_ALL_CURVES
100
AcDbLine
 62
40
  6
CONTINUOUS
 10
6.9000825165
 20
3.3331381826
 11
6.9262739227
 21
3.3331381826
  0
LINE
  5
2D7
100
AcDbEntity
  8
03__ASM_ALL_CURVES
100
AcDbLine
 62
40
  6
CONTINUOUS
 10
4.8827407586
 20
3.3750444326
 11
4.9036938836
 21
3.3750444326
  0
LINE
  5
2D8
100
AcDbEntity
  8
03__ASM_ALL_CURVES
100
AcDbLine
 62
40
  6
CONTINUOUS
 10
4.9665532586
 20
3.3750444326
 11
4.9927446648
 21
3.3750444326
  0
LINE
  5
2D9
100
AcDbEntity
  8
03__ASM_ALL_CURVES
100
AcDbLine
 62
40
  6
CONTINUOUS
 10
5.6070278752
 20
3.3750444326
 11
5.6594106877
 21
3.3750444326
  0
LINE
  5
2DA
100
AcDbEntity
  8
03__ASM_ALL_CURVES
100
AcDbLine
 62
40
  6
CONTINUOUS
 10
6.9000825165
 20
3.3750444326
 11
6.9419887665
 21
3.3750444326
  0
LINE
  5
2DB
100
AcDbEntity
  8
03__ASM_ALL_CURVES
100
AcDbLine
 62
40
  6
CONTINUOUS
 10
6.9786567352
 20
3.3750444326
 11
7.0310395477
 21
3.3750444326
  0
LINE
  5
2DC
100
AcDbEntity
  8
03__ASM_ALL_CURVES
100
AcDbLine
 62
40
  6
CONTINUOUS
 10
6.771744635
 20
3.4197444326
 11
6.7612680725
 21
3.4197444326
  0
LINE
  5
2DD
100
AcDbEntity
  8
03__ASM_ALL_CURVES
100
AcDbLine
 62
40
  6
CONTINUOUS
 10
5.9265630212
 20
3.4197444326
 11
5.9160864587
 21
3.4197444326
  0
LINE
  5
2DE
100
AcDbEntity
  8
03__ASM_ALL_CURVES
100
AcDbLine
 62
40
  6
CONTINUOUS
 10
5.6751255212
 20
3.4197444326
 11
5.6646489587
 21
3.4197444326
  0
LINE
  5
2DF
100
AcDbEntity
  8
03__ASM_ALL_CURVES
100
AcDbLine
 62
40
  6
CONTINUOUS
 10
4.9901255175
 20
3.4197444326
 11
4.979648955
 21
3.4197444326
  0
LINE
  5
2E0
100
AcDbEntity
  8
03__ASM_ALL_CURVES
100
AcDbLine
 62
40
  6
CONTINUOUS
 10
6.9969907288
 20
3.4197444326
 11
7.0388969788
 21
3.4197444326
  0
LINE
  5
2E1
100
AcDbEntity
  8
03__ASM_ALL_CURVES
100
AcDbLine
 62
40
  6
CONTINUOUS
 10
5.2153716113
 20
3.4406975576
 11
5.2625161425
 21
3.4406975576
  0
LINE
  5
2E2
100
AcDbEntity
  8
03__ASM_ALL_CURVES
100
AcDbLine
 62
40
  6
CONTINUOUS
 10
6.855557135
 20
3.4616506826
 11
6.8293657288
 21
3.4616506826
  0
LINE
  5
2E3
100
AcDbEntity
  8
03__ASM_ALL_CURVES
100
AcDbLine
 62
40
  6
CONTINUOUS
 10
6.687932135
 20
3.4616506826
 11
6.6617407288
 21
3.4616506826
  0
LINE
  5
2E4
100
AcDbEntity
  8
03__ASM_ALL_CURVES
100
AcDbLine
 62
40
  6
CONTINUOUS
 10
5.7589380212
 20
3.4616506826
 11
5.732746615
 21
3.4616506826
  0
LINE
  5
2E5
100
AcDbEntity
  8
03__ASM_ALL_CURVES
100
AcDbLine
 62
40
  6
CONTINUOUS
 10
5.5913130212
 20
3.4616506826
 11
5.565121615
 21
3.4616506826
  0
LINE
  5
2E6
100
AcDbEntity
  8
03__ASM_ALL_CURVES
100
AcDbLine
 62
40
  6
CONTINUOUS
 10
5.0739380175
 20
3.4616506826
 11
5.0477466113
 21
3.4616506826
  0
LINE
  5
2E7
100
AcDbEntity
  8
03__ASM_ALL_CURVES
100
AcDbLine
 62
40
  6
CONTINUOUS
 10
4.9063130175
 20
3.4616506826
 11
4.8801216113
 21
3.4616506826
  0
LINE
  5
2E8
100
AcDbEntity
  8
03__ASM_ALL_CURVES
100
AcDbLine
 62
40
  6
CONTINUOUS
 10
5.9160864587
 20
3.4686350559
 11
5.9265630212
 21
3.4686350559
  0
LINE
  5
2E9
100
AcDbEntity
  8
03__ASM_ALL_CURVES
100
AcDbLine
 62
40
  6
CONTINUOUS
 10
3.7965220118
 20
5.2737904348
 11
3.8035063868
 21
5.2644779304
  0
LINE
  5
2EA
100
AcDbEntity
  8
03__ASM_ALL_CURVES
100
AcDbLine
 62
40
  6
CONTINUOUS
 10
3.8803345118
 20
5.1806654329
 11
3.8873188868
 21
5.1713529326
  0
LINE
  5
2EB
100
AcDbEntity
  8
03__ASM_ALL_CURVES
100
AcDbLine
 62
40
  6
CONTINUOUS
 10
3.9851001368
 20
5.1806654329
 11
3.9781157618
 21
5.1899779332
  0
LINE
  5
2EC
100
AcDbEntity
  8
03__ASM_ALL_CURVES
100
AcDbLine
 62
40
  6
CONTINUOUS
 10
4.0130376368
 20
5.2737904348
 11
4.0200220118
 21
5.2644779304
  0
LINE
  5
2ED
100
AcDbEntity
  8
03__ASM_ALL_CURVES
100
AcDbLine
 62
40
  6
CONTINUOUS
 10
4.0968501368
 20
5.1806654329
 11
4.0898657618
 21
5.1899779332
  0
LINE
  5
2EE
100
AcDbEntity
  8
03__ASM_ALL_CURVES
100
AcDbLine
 62
40
  6
CONTINUOUS
 10
5.2179907586
 20
3.3750444326
 11
5.2598970086
 21
3.2912319326
  0
LINE
  5
2EF
100
AcDbEntity
  8
03__ASM_ALL_CURVES
100
AcDbLine
 62
40
  6
CONTINUOUS
 10
5.0739380175
 20
3.4616506826
 11
5.0896528613
 21
3.4197444326
  0
LINE
  5
2F0
100
AcDbEntity
  8
03__ASM_ALL_CURVES
100
AcDbLine
 62
40
  6
CONTINUOUS
 10
5.0713188836
 20
3.3750444326
 11
5.0975102898
 21
3.2912319326
  0
LINE
  5
2F1
100
AcDbEntity
  8
03__ASM_ALL_CURVES
100
AcDbLine
 62
40
  6
CONTINUOUS
 10
4.95869583
 20
3.4406975576
 11
4.9534575488
 21
3.4616506826
  0
LINE
  5
2F2
100
AcDbEntity
  8
03__ASM_ALL_CURVES
100
AcDbLine
 62
40
  6
CONTINUOUS
 10
5.0110786425
 20
3.4826038076
 11
5.0163169238
 21
3.4616506826
  0
LINE
  5
2F3
100
AcDbEntity
  8
0
100
AcDbLine
 62
7
  6
CONTINUOUS
 10
4.9940753302
 20
3.7552179
 11
4.9940753302
 21
4.5018959652
  0
LINE
  5
2F4
100
AcDbEntity
  8
03__ASM_ALL_CURVES
100
AcDbLine
 62
40
  6
CONTINUOUS
 10
5.0084595086
 20
3.3610756809
 11
5.0084595086
 21
3.3471069343
  0
LINE
  5
2F5
100
AcDbEntity
  8
03__ASM_ALL_CURVES
100
AcDbLine
 62
40
  6
CONTINUOUS
 10
5.0477466113
 20
3.4197444326
 11
5.0477466113
 21
3.5035569326
  0
LINE
  5
2F6
100
AcDbEntity
  8
03__ASM_ALL_CURVES
100
AcDbLine
 62
40
  6
CONTINUOUS
 10
5.0896528613
 20
3.4895881809
 11
5.0896528613
 21
3.4756194343
  0
LINE
  5
2F7
100
AcDbEntity
  8
03__ASM_ALL_CURVES
100
AcDbLine
 62
40
  6
CONTINUOUS
 10
5.1525122363
 20
3.5035569326
 11
5.1525122363
 21
3.4197444326
  0
LINE
  5
2F8
100
AcDbEntity
  8
03__ASM_ALL_CURVES
100
AcDbLine
 62
40
  6
CONTINUOUS
 10
5.1551313836
 20
3.3750444326
 11
5.1551313836
 21
3.2912319326
  0
LINE
  5
2F9
100
AcDbEntity
  8
03__ASM_ALL_CURVES
100
AcDbLine
 62
40
  6
CONTINUOUS
 10
4.9534575488
 20
3.4616506826
 11
4.95869583
 21
3.4826038076
  0
LINE
  5
2FA
100
AcDbEntity
  8
03__ASM_ALL_CURVES
100
AcDbLine
 62
40
  6
CONTINUOUS
 10
4.9298852898
 20
3.3331381826
 11
4.9246470086
 21
3.3121850576
  0
LINE
  5
2FB
100
AcDbEntity
  8
0
100
AcDbLine
 62
7
  6
CONTINUOUS
 10
4.9857689053
 20
3.7240569326
 11
4.9753188868
 21
3.6850569326
  0
LINE
  5
2FC
100
AcDbEntity
  8
0
100
AcDbLine
 62
7
  6
CONTINUOUS
 10
5.2373188868
 20
4.5570569326
 11
5.2225816812
 21
4.5020569326
  0
LINE
  5
2FD
100
AcDbEntity
  8
03__ASM_ALL_CURVES
100
AcDbLine
 62
40
  6
CONTINUOUS
 10
6.178853262
 20
5.2737904348
 11
6.192822012
 21
5.2831029326
  0
LINE
  5
2FE
100
AcDbEntity
  8
03__ASM_ALL_CURVES
100
AcDbLine
 62
40
  6
CONTINUOUS
 10
4.8801216113
 20
3.5035569326
 11
4.9063130175
 21
3.5035569326
  0
LINE
  5
2FF
100
AcDbEntity
  8
03__ASM_ALL_CURVES
100
AcDbLine
 62
40
  6
CONTINUOUS
 10
4.979648955
 20
3.5035569326
 11
4.9901255175
 21
3.5035569326
  0
LINE
  5
300
100
AcDbEntity
  8
03__ASM_ALL_CURVES
100
AcDbLine
 62
40
  6
CONTINUOUS
 10
5.0477466113
 20
3.5035569326
 11
5.0739380175
 21
3.5035569326
  0
LINE
  5
301
100
AcDbEntity
  8
03__ASM_ALL_CURVES
100
AcDbLine
 62
40
  6
CONTINUOUS
 10
5.12632083
 20
3.5035569326
 11
5.1787036425
 21
3.5035569326
  0
LINE
  5
302
100
AcDbEntity
  8
03__ASM_ALL_CURVES
100
AcDbLine
 62
40
  6
CONTINUOUS
 10
5.565121615
 20
3.5035569326
 11
5.5913130212
 21
3.5035569326
  0
LINE
  5
303
100
AcDbEntity
  8
03__ASM_ALL_CURVES
100
AcDbLine
 62
40
  6
CONTINUOUS
 10
5.6646489587
 20
3.5035569326
 11
5.6751255212
 21
3.5035569326
  0
LINE
  5
304
100
AcDbEntity
  8
03__ASM_ALL_CURVES
100
AcDbLine
 62
40
  6
CONTINUOUS
 10
5.732746615
 20
3.5035569326
 11
5.7589380212
 21
3.5035569326
  0
LINE
  5
305
100
AcDbEntity
  8
03__ASM_ALL_CURVES
100
AcDbLine
 62
40
  6
CONTINUOUS
 10
5.8113208337
 20
3.5035569326
 11
5.8637036462
 21
3.5035569326
  0
LINE
  5
306
100
AcDbEntity
  8
03__ASM_ALL_CURVES
100
AcDbLine
 62
40
  6
CONTINUOUS
 10
5.9160864587
 20
3.5035569326
 11
5.9265630212
 21
3.5035569326
  0
LINE
  5
307
100
AcDbEntity
  8
03__ASM_ALL_CURVES
100
AcDbLine
 62
40
  6
CONTINUOUS
 10
6.6617407288
 20
3.5035569326
 11
6.687932135
 21
3.5035569326
  0
LINE
  5
308
100
AcDbEntity
  8
03__ASM_ALL_CURVES
100
AcDbLine
 62
40
  6
CONTINUOUS
 10
6.7612680725
 20
3.5035569326
 11
6.771744635
 21
3.5035569326
  0
LINE
  5
309
100
AcDbEntity
  8
03__ASM_ALL_CURVES
100
AcDbLine
 62
40
  6
CONTINUOUS
 10
6.8293657288
 20
3.5035569326
 11
6.855557135
 21
3.5035569326
  0
LINE
  5
30A
100
AcDbEntity
  8
03__ASM_ALL_CURVES
100
AcDbLine
 62
40
  6
CONTINUOUS
 10
6.9079399475
 20
3.5035569326
 11
6.96032276
 21
3.5035569326
  0
LINE
  5
30B
100
AcDbEntity
  8
03__ASM_ALL_CURVES
100
AcDbLine
 62
40
  6
CONTINUOUS
 10
7.0127055725
 20
3.5035569326
 11
7.023182135
 21
3.5035569326
  0
LINE
  5
30C
100
AcDbEntity
  8
0
100
AcDbLine
 62
7
  6
CONTINUOUS
 10
4.5238188868
 20
3.6395569326
 11
4.1343825526
 21
3.6395569326
  0
LINE
  5
30D
100
AcDbEntity
  8
0
100
AcDbLine
 62
7
  6
CONTINUOUS
 10
4.5238188868
 20
3.6404544601
 11
4.1343825526
 21
3.6404544601
  0
LINE
  5
30E
100
AcDbEntity
  8
03__ASM_ALL_CURVES
100
AcDbLine
 62
40
  6
CONTINUOUS
 10
5.6646489587
 20
3.4197444326
 11
5.6541723962
 21
3.4267288078
  0
LINE
  5
30F
100
AcDbEntity
  8
03__ASM_ALL_CURVES
100
AcDbLine
 62
40
  6
CONTINUOUS
 10
5.5913130212
 20
3.5035569326
 11
5.6017895837
 21
3.4965725593
  0
LINE
  5
310
100
AcDbEntity
  8
03__ASM_ALL_CURVES
100
AcDbLine
 62
40
  6
CONTINUOUS
 10
5.6751255212
 20
3.5035569326
 11
5.6856020837
 21
3.4965725593
  0
LINE
  5
311
100
AcDbEntity
  8
03__ASM_ALL_CURVES
100
AcDbLine
 62
40
  6
CONTINUOUS
 10
5.7589380212
 20
3.5035569326
 11
5.7694145837
 21
3.4965725593
  0
LINE
  5
312
100
AcDbEntity
  8
03__ASM_ALL_CURVES
100
AcDbLine
 62
40
  6
CONTINUOUS
 10
5.9160864587
 20
3.4197444326
 11
5.9056098962
 21
3.4267288078
  0
LINE
  5
313
100
AcDbEntity
  8
03__ASM_ALL_CURVES
100
AcDbLine
 62
40
  6
CONTINUOUS
 10
5.9265630212
 20
3.4686350559
 11
5.9370395837
 21
3.4616506826
  0
LINE
  5
314
100
AcDbEntity
  8
0
100
AcDbLine
 62
7
  6
CONTINUOUS
 10
4.5693188868
 20
4.5720569326
 11
4.5238188868
 21
4.6175569326
  0
LINE
  5
315
100
AcDbEntity
  8
0
100
AcDbLine
 62
7
  6
CONTINUOUS
 10
4.7228409247
 20
4.5627094801
 11
4.7143188868
 21
4.5720569326
  0
LINE
  5
316
100
AcDbEntity
  8
03__ASM_ALL_CURVES
100
AcDbLine
 62
40
  6
CONTINUOUS
 10
4.1247876368
 20
5.2737904348
 11
4.1317720118
 21
5.2644779304
  0
LINE
  5
317
100
AcDbEntity
  8
03__ASM_ALL_CURVES
100
AcDbLine
 62
40
  6
CONTINUOUS
 10
4.2155845118
 20
5.1899779332
 11
4.2295532618
 21
5.1713529326
  0
LINE
  5
318
100
AcDbEntity
  8
03__ASM_ALL_CURVES
100
AcDbLine
 62
40
  6
CONTINUOUS
 10
5.6541723962
 20
3.4267288078
 11
5.6436958337
 21
3.4406975576
  0
LINE
  5
319
100
AcDbEntity
  8
03__ASM_ALL_CURVES
100
AcDbLine
 62
40
  6
CONTINUOUS
 10
5.6017895837
 20
3.4965725593
 11
5.607027865
 21
3.4895881809
  0
LINE
  5
31A
100
AcDbEntity
  8
0
100
AcDbLine
 62
7
  6
CONTINUOUS
 10
4.9857689053
 20
4.5330569326
 11
4.9753188868
 21
4.5720569326
  0
LINE
  5
31B
100
AcDbEntity
  8
0
100
AcDbLine
 62
7
  6
CONTINUOUS
 10
5.2373188868
 20
3.7000569326
 11
5.2225816812
 21
3.7550569326
  0
LINE
  5
31C
100
AcDbEntity
  8
03__ASM_ALL_CURVES
100
AcDbLine
 62
40
  6
CONTINUOUS
 10
4.9000532618
 20
5.2644779304
 11
4.9070376368
 21
5.2365404304
  0
LINE
  5
31D
100
AcDbEntity
  8
03__ASM_ALL_CURVES
100
AcDbLine
 62
40
  6
CONTINUOUS
 10
5.2179907586
 20
3.2912319326
 11
5.2179907586
 21
3.3750444326
  0
LINE
  5
31E
100
AcDbEntity
  8
0
100
AcDbLine
 62
7
  6
CONTINUOUS
 10
5.2225816812
 20
3.7550569326
 11
5.2225816812
 21
4.5020569326
  0
LINE
  5
31F
100
AcDbEntity
  8
0
100
AcDbLine
 62
7
  6
CONTINUOUS
 10
5.2373188868
 20
3.7000569326
 11
5.2373188868
 21
4.5570569326
  0
LINE
  5
320
100
AcDbEntity
  8
03__ASM_ALL_CURVES
100
AcDbLine
 62
40
  6
CONTINUOUS
 10
5.25203958
 20
3.4197444326
 11
5.25203958
 21
3.5035569326
  0
LINE
  5
321
100
AcDbEntity
  8
03__ASM_ALL_CURVES
100
AcDbLine
 62
40
  6
CONTINUOUS
 10
5.2598970086
 20
3.2912319326
 11
5.2598970086
 21
3.3750444326
  0
LINE
  5
322
100
AcDbEntity
  8
0
100
AcDbLine
 62
7
  6
CONTINUOUS
 10
5.2873188868
 20
3.7000569326
 11
5.2873188868
 21
4.5570569326
  0
LINE
  5
323
100
AcDbEntity
  8
0
100
AcDbLine
 62
7
  6
CONTINUOUS
 10
5.3373188868
 20
3.7010575826
 11
5.3373188868
 21
4.5560562826
  0
LINE
  5
324
100
AcDbEntity
  8
03__ASM_ALL_CURVES
100
AcDbLine
 62
40
  6
CONTINUOUS
 10
5.0163169238
 20
3.4616506826
 11
5.0110786425
 21
3.4406975576
  0
LINE
  5
325
100
AcDbEntity
  8
03__ASM_ALL_CURVES
100
AcDbLine
 62
40
  6
CONTINUOUS
 10
5.0451274773
 20
3.2912319326
 11
5.0713188836
 21
3.3750444326
  0
LINE
  5
326
100
AcDbEntity
  8
0
100
AcDbLine
 62
7
  6
CONTINUOUS
 10
4.7228409247
 20
3.6944043851
 11
4.7143188868
 21
3.6850569326
  0
LINE
  5
327
100
AcDbEntity
  8
0
100
AcDbLine
 62
7
  6
CONTINUOUS
 10
4.5693188868
 20
3.6850569326
 11
4.5242676505
 21
3.6400056963
  0
LINE
  5
328
100
AcDbEntity
  8
03__ASM_ALL_CURVES
100
AcDbLine
 62
40
  6
CONTINUOUS
 10
6.290603262
 20
5.2737904348
 11
6.304572012
 21
5.2831029326
  0
LINE
  5
329
100
AcDbEntity
  8
03__ASM_ALL_CURVES
100
AcDbLine
 62
40
  6
CONTINUOUS
 10
6.220759512
 20
5.1806654329
 11
6.206790762
 21
5.1713529326
  0
LINE
  5
32A
100
AcDbEntity
  8
03__ASM_ALL_CURVES
100
AcDbLine
 62
40
  6
CONTINUOUS
 10
6.332509512
 20
5.1806654329
 11
6.318540762
 21
5.1713529326
  0
LINE
  5
32B
100
AcDbEntity
  8
0
100
AcDbLine
 62
7
  6
CONTINUOUS
 10
4.9753188868
 20
3.6850569326
 11
4.9283188868
 21
3.6850569326
  0
LINE
  5
32C
100
AcDbEntity
  8
0
100
AcDbLine
 62
7
  6
CONTINUOUS
 10
4.7873188868
 20
3.6850569326
 11
4.7343188868
 21
3.6850569326
  0
LINE
  5
32D
100
AcDbEntity
  8
0
100
AcDbLine
 62
7
  6
CONTINUOUS
 10
4.7143188868
 20
3.6850569326
 11
4.5693188868
 21
3.6850569326
  0
LINE
  5
32E
100
AcDbEntity
  8
0
100
AcDbLine
 62
7
  6
CONTINUOUS
 10
4.7873188868
 20
3.6860569326
 11
4.8373188868
 21
3.6860569326
  0
LINE
  5
32F
100
AcDbEntity
  8
0
100
AcDbLine
 62
7
  6
CONTINUOUS
 10
5.8813188868
 20
3.7000569326
 11
5.8263188868
 21
3.7000569326
  0
LINE
  5
330
100
AcDbEntity
  8
0
100
AcDbLine
 62
7
  6
CONTINUOUS
 10
5.5373188868
 20
3.7000569326
 11
5.4863188868
 21
3.7000569326
  0
LINE
  5
331
100
AcDbEntity
  8
0
100
AcDbLine
 62
7
  6
CONTINUOUS
 10
5.2873188868
 20
3.7000569326
 11
5.2373188868
 21
3.7000569326
  0
LINE
  5
332
100
AcDbEntity
  8
0
100
AcDbLine
 62
7
  6
CONTINUOUS
 10
5.2873188868
 20
3.7010569326
 11
5.3373188868
 21
3.7010569326
  0
LINE
  5
333
100
AcDbEntity
  8
0
100
AcDbLine
 62
7
  6
CONTINUOUS
 10
5.4073188868
 20
3.7010569326
 11
5.4573188868
 21
3.7010569326
  0
LINE
  5
334
100
AcDbEntity
  8
THREAD
100
AcDbLine
 62
7
  6
CONTINUOUS
 10
5.9283188868
 20
3.7235569326
 11
5.896907344
 21
3.7235569326
  0
LINE
  5
335
100
AcDbEntity
  8
0
100
AcDbLine
 62
7
  6
CONTINUOUS
 10
5.9983188868
 20
3.7240569326
 11
6.0483188868
 21
3.7240569326
  0
LINE
  5
336
100
AcDbEntity
  8
0
100
AcDbLine
 62
7
  6
CONTINUOUS
 10
4.9153188868
 20
3.7400569326
 11
4.9073188868
 21
3.7400569326
  0
LINE
  5
337
100
AcDbEntity
  8
THREAD
100
AcDbLine
 62
7
  6
CONTINUOUS
 10
6.3368188868
 20
3.7410569326
 11
6.0896808467
 21
3.7410569326
  0
LINE
  5
338
100
AcDbEntity
  8
0
100
AcDbLine
 62
7
  6
CONTINUOUS
 10
5.4733188868
 20
3.7550569326
 11
5.4573188868
 21
3.7550569326
  0
LINE
  5
339
100
AcDbEntity
  8
0
100
AcDbLine
 62
7
  6
CONTINUOUS
 10
5.2225816812
 20
3.7550569326
 11
5.0020753302
 21
3.7550569326
  0
LINE
  5
33A
100
AcDbEntity
  8
0
100
AcDbLine
 62
7
  6
CONTINUOUS
 10
4.1003188868
 20
3.7550569326
 11
3.7493188868
 21
3.7550569326
  0
LINE
  5
33B
100
AcDbEntity
  8
0
100
AcDbLine
 62
7
  6
CONTINUOUS
 10
3.7013188868
 20
3.7550569326
 11
3.6503188868
 21
3.7550569326
  0
LINE
  5
33C
100
AcDbEntity
  8
0
100
AcDbLine
 62
7
  6
CONTINUOUS
 10
5.8095720622
 20
3.7625569326
 11
5.7878188868
 21
3.7625569326
  0
LINE
  5
33D
100
AcDbEntity
  8
0
100
AcDbLine
 62
7
  6
CONTINUOUS
 10
5.6628188868
 20
3.7625569326
 11
5.5540657113
 21
3.7625569326
  0
LINE
  5
33E
100
AcDbEntity
  8
THREAD
100
AcDbLine
 62
7
  6
CONTINUOUS
 10
6.0608133333
 20
3.7780569326
 11
6.0483188868
 21
3.7780569326
  0
LINE
  5
33F
100
AcDbEntity
  8
0
100
AcDbLine
 62
7
  6
CONTINUOUS
 10
3.7363188868
 20
3.7785569326
 11
3.7143188868
 21
3.7785569326
  0
LINE
  5
340
100
AcDbEntity
  8
THREAD
100
AcDbLine
 62
7
  6
CONTINUOUS
 10
6.5593188868
 20
3.7855569326
 11
6.3813188868
 21
3.7855569326
  0
LINE
  5
341
100
AcDbEntity
  8
0
100
AcDbLine
 62
7
  6
CONTINUOUS
 10
6.9603188868
 20
3.7860569326
 11
7.0203188868
 21
3.7860569326
  0
LINE
  5
342
100
AcDbEntity
  8
0
100
AcDbLine
 62
7
  6
CONTINUOUS
 10
7.1598188868
 20
3.7863069326
 11
7.2528188868
 21
3.7863069326
  0
LINE
  5
343
100
AcDbEntity
  8
0
100
AcDbLine
 62
7
  6
CONTINUOUS
 10
7.0903188868
 20
3.7915569326
 11
7.1403188868
 21
3.7915569326
  0
LINE
  5
344
100
AcDbEntity
  8
0
100
AcDbLine
 62
7
  6
CONTINUOUS
 10
7.1598188868
 20
3.8455569326
 11
7.1403188868
 21
3.8455569326
  0
LINE
  5
345
100
AcDbEntity
  8
0
100
AcDbLine
 62
7
  6
CONTINUOUS
 10
3.3933188868
 20
3.8475569326
 11
3.5635426085
 21
3.8475569326
  0
LINE
  5
346
100
AcDbEntity
  8
0
100
AcDbLine
 62
7
  6
CONTINUOUS
 10
6.9603188868
 20
3.8480569326
 11
6.7648188868
 21
3.8480569326
  0
LINE
  5
347
100
AcDbEntity
  8
0
100
AcDbLine
 62
7
  6
CONTINUOUS
 10
6.6558188868
 20
3.8480569326
 11
6.5693188868
 21
3.8480569326
  0
LINE
  5
348
100
AcDbEntity
  8
0
100
AcDbLine
 62
7
  6
CONTINUOUS
 10
3.6003188868
 20
3.8575569326
 11
3.5693188868
 21
3.8575569326
  0
LINE
  5
349
100
AcDbEntity
  8
0
100
AcDbLine
 62
7
  6
CONTINUOUS
 10
3.3563188868
 20
3.8575569326
 11
3.3503188868
 21
3.8575569326
  0
LINE
  5
34A
100
AcDbEntity
  8
0
100
AcDbLine
 62
7
  6
CONTINUOUS
 10
4.5238188868
 20
3.8588594051
 11
4.1343825526
 21
3.8588594051
  0
LINE
  5
34B
100
AcDbEntity
  8
0
100
AcDbLine
 62
7
  6
CONTINUOUS
 10
3.3778188868
 20
3.8630569326
 11
3.3618188868
 21
3.8630569326
  0
LINE
  5
34C
100
AcDbEntity
  8
03__ASM_ALL_CURVES
100
AcDbLine
 62
40
  6
CONTINUOUS
 10
5.9265630212
 20
3.5035569326
 11
5.9370395837
 21
3.4965725593
  0
LINE
  5
34D
100
AcDbEntity
  8
03__ASM_ALL_CURVES
100
AcDbLine
 62
40
  6
CONTINUOUS
 10
5.6856020837
 20
3.4965725593
 11
5.6960786462
 21
3.4826038076
  0
LINE
  5
34E
100
AcDbEntity
  8
03__ASM_ALL_CURVES
100
AcDbLine
 62
40
  6
CONTINUOUS
 10
4.4251157618
 20
5.1806654329
 11
4.4111470118
 21
5.1992904326
  0
LINE
  5
34F
100
AcDbEntity
  8
03__ASM_ALL_CURVES
100
AcDbLine
 62
40
  6
CONTINUOUS
 10
4.4251157618
 20
5.2458529348
 11
4.4181313868
 21
5.2551654326
  0
LINE
  5
350
100
AcDbEntity
  8
03__ASM_ALL_CURVES
100
AcDbLine
 62
40
  6
CONTINUOUS
 10
4.4670220118
 20
5.2272279326
 11
4.4809907618
 21
5.2086029337
  0
LINE
  5
351
100
AcDbEntity
  8
03__ASM_ALL_CURVES
100
AcDbLine
 62
40
  6
CONTINUOUS
 10
5.7694145837
 20
3.4965725593
 11
5.774652865
 21
3.4895881809
  0
LINE
  5
352
100
AcDbEntity
  8
03__ASM_ALL_CURVES
100
AcDbLine
 62
40
  6
CONTINUOUS
 10
4.4670220118
 20
5.2737904348
 11
4.4740063868
 21
5.2644779304
  0
LINE
  5
353
100
AcDbEntity
  8
03__ASM_ALL_CURVES
100
AcDbLine
 62
40
  6
CONTINUOUS
 10
4.5508345118
 20
5.1806654329
 11
4.5578188868
 21
5.1713529326
  0
LINE
  5
354
100
AcDbEntity
  8
03__ASM_ALL_CURVES
100
AcDbLine
 62
40
  6
CONTINUOUS
 10
5.9056098962
 20
3.4267288078
 11
5.900371615
 21
3.433713183
  0
LINE
  5
355
100
AcDbEntity
  8
03__ASM_ALL_CURVES
100
AcDbLine
 62
40
  6
CONTINUOUS
 10
5.7798911565
 20
3.3750444326
 11
5.8217974065
 21
3.2912319326
  0
LINE
  5
356
100
AcDbEntity
  8
0
100
AcDbLine
 62
7
  6
CONTINUOUS
 10
5.4073188868
 20
3.7010575826
 11
5.4073188868
 21
4.5560562826
  0
LINE
  5
357
100
AcDbEntity
  8
0
100
AcDbLine
 62
7
  6
CONTINUOUS
 10
5.4573188868
 20
3.7010575826
 11
5.4573188868
 21
4.5560562826
  0
LINE
  5
358
100
AcDbEntity
  8
0
100
AcDbLine
 62
7
  6
CONTINUOUS
 10
5.4733188868
 20
3.7550569326
 11
5.4733188868
 21
4.5020569326
  0
LINE
  5
359
100
AcDbEntity
  8
0
100
AcDbLine
 62
7
  6
CONTINUOUS
 10
5.4863188868
 20
3.7000569326
 11
5.4863188868
 21
4.5570569326
  0
LINE
  5
35A
100
AcDbEntity
  8
0
100
AcDbLine
 62
7
  6
CONTINUOUS
 10
5.5373188868
 20
3.7000569326
 11
5.5373188868
 21
4.5570569326
  0
LINE
  5
35B
100
AcDbEntity
  8
0
100
AcDbLine
 62
7
  6
CONTINUOUS
 10
5.5540657113
 20
3.7625569326
 11
5.5540657113
 21
4.4945569326
  0
LINE
  5
35C
100
AcDbEntity
  8
03__ASM_ALL_CURVES
100
AcDbLine
 62
40
  6
CONTINUOUS
 10
5.565121615
 20
3.4197444326
 11
5.565121615
 21
3.5035569326
  0
LINE
  5
35D
100
AcDbEntity
  8
03__ASM_ALL_CURVES
100
AcDbLine
 62
40
  6
CONTINUOUS
 10
5.607027865
 20
3.4895881809
 11
5.607027865
 21
3.4756194343
  0
LINE
  5
35E
100
AcDbEntity
  8
03__ASM_ALL_CURVES
100
AcDbLine
 62
40
  6
CONTINUOUS
 10
6.164884512
 20
5.2551654326
 11
6.178853262
 21
5.2737904348
  0
LINE
  5
35F
100
AcDbEntity
  8
03__ASM_ALL_CURVES
100
AcDbLine
 62
40
  6
CONTINUOUS
 10
4.9220278613
 20
3.4756194343
 11
4.91678958
 21
3.4686350559
  0
LINE
  5
360
100
AcDbEntity
  8
03__ASM_ALL_CURVES
100
AcDbLine
 62
40
  6
CONTINUOUS
 10
6.234728262
 20
5.1992904326
 11
6.220759512
 21
5.1806654329
  0
LINE
  5
361
100
AcDbEntity
  8
03__ASM_ALL_CURVES
100
AcDbLine
 62
40
  6
CONTINUOUS
 10
6.276634512
 20
5.2551654326
 11
6.290603262
 21
5.2737904348
  0
LINE
  5
362
100
AcDbEntity
  8
03__ASM_ALL_CURVES
100
AcDbLine
 62
40
  6
CONTINUOUS
 10
4.95869583
 20
3.4826038076
 11
4.9691723925
 21
3.4965725593
  0
LINE
  5
363
100
AcDbEntity
  8
03__ASM_ALL_CURVES
100
AcDbLine
 62
40
  6
CONTINUOUS
 10
6.849353262
 20
5.2737904348
 11
6.863322012
 21
5.2831029326
  0
LINE
  5
364
100
AcDbEntity
  8
0
100
AcDbLine
 62
7
  6
CONTINUOUS
 10
4.5238188868
 20
3.9101519876
 11
4.1343825526
 21
3.9101519876
  0
LINE
  5
365
100
AcDbEntity
  8
0
100
AcDbLine
 62
7
  6
CONTINUOUS
 10
2.8183188868
 20
3.9445569326
 11
3.0173188868
 21
3.9445569326
  0
LINE
  5
366
100
AcDbEntity
  8
0
100
AcDbLine
 62
7
  6
CONTINUOUS
 10
3.0553188868
 20
3.9445569326
 11
3.2883188868
 21
3.9445569326
  0
LINE
  5
367
100
AcDbEntity
  8
0
100
AcDbLine
 62
7
  6
CONTINUOUS
 10
3.0173188868
 20
3.9775569326
 11
3.0188188868
 21
3.9775569326
  0
LINE
  5
368
100
AcDbEntity
  8
0
100
AcDbLine
 62
7
  6
CONTINUOUS
 10
3.0538188868
 20
3.9775569326
 11
3.0553188868
 21
3.9775569326
  0
LINE
  5
369
100
AcDbEntity
  8
03__ASM_ALL_CURVES
100
AcDbLine
 62
40
  6
CONTINUOUS
 10
8.8154126374
 20
4.0223944326
 11
8.7735063874
 21
4.0223944326
  0
LINE
  5
36A
100
AcDbEntity
  8
03__ASM_ALL_CURVES
100
AcDbLine
 62
40
  6
CONTINUOUS
 10
8.6320727936
 20
4.0223944326
 11
8.6215962311
 21
4.0223944326
  0
LINE
  5
36B
100
AcDbEntity
  8
03__ASM_ALL_CURVES
100
AcDbLine
 62
40
  6
CONTINUOUS
 10
8.5482602936
 20
4.0223944326
 11
8.5377837311
 21
4.0223944326
  0
LINE
  5
36C
100
AcDbEntity
  8
03__ASM_ALL_CURVES
100
AcDbLine
 62
40
  6
CONTINUOUS
 10
8.4644477936
 20
4.0223944326
 11
8.4539712311
 21
4.0223944326
  0
LINE
  5
36D
100
AcDbEntity
  8
03__ASM_ALL_CURVES
100
AcDbLine
 62
40
  6
CONTINUOUS
 10
8.3963501374
 20
4.0223944326
 11
8.3544438874
 21
4.0223944326
  0
LINE
  5
36E
100
AcDbEntity
  8
03__ASM_ALL_CURVES
100
AcDbLine
 62
40
  6
CONTINUOUS
 10
8.0401470124
 20
4.0223944326
 11
8.0191938874
 21
4.0223944326
  0
LINE
  5
36F
100
AcDbEntity
  8
03__ASM_ALL_CURVES
100
AcDbLine
 62
40
  6
CONTINUOUS
 10
7.9772876374
 20
4.0223944326
 11
7.9353813874
 21
4.0223944326
  0
LINE
  5
370
100
AcDbEntity
  8
03__ASM_ALL_CURVES
100
AcDbLine
 62
40
  6
CONTINUOUS
 10
7.8777602936
 20
4.0223944326
 11
7.8672837311
 21
4.0223944326
  0
LINE
  5
371
100
AcDbEntity
  8
03__ASM_ALL_CURVES
100
AcDbLine
 62
40
  6
CONTINUOUS
 10
7.7939477936
 20
4.0223944326
 11
7.7834712311
 21
4.0223944326
  0
LINE
  5
372
100
AcDbEntity
  8
03__ASM_ALL_CURVES
100
AcDbLine
 62
40
  6
CONTINUOUS
 10
7.7048970124
 20
4.0223944326
 11
7.6839438874
 21
4.0223944326
  0
LINE
  5
373
100
AcDbEntity
  8
03__ASM_ALL_CURVES
100
AcDbLine
 62
40
  6
CONTINUOUS
 10
7.6420376374
 20
4.0223944326
 11
7.6001313874
 21
4.0223944326
  0
LINE
  5
374
100
AcDbEntity
  8
03__ASM_ALL_CURVES
100
AcDbLine
 62
40
  6
CONTINUOUS
 10
8.7158852936
 20
4.0643006826
 11
8.6896938874
 21
4.0643006826
  0
LINE
  5
375
100
AcDbEntity
  8
03__ASM_ALL_CURVES
100
AcDbLine
 62
40
  6
CONTINUOUS
 10
8.2968227936
 20
4.0643006826
 11
8.2706313874
 21
4.0643006826
  0
LINE
  5
376
100
AcDbEntity
  8
03__ASM_ALL_CURVES
100
AcDbLine
 62
40
  6
CONTINUOUS
 10
8.2130102936
 20
4.0643006826
 11
8.1868188874
 21
4.0643006826
  0
LINE
  5
377
100
AcDbEntity
  8
03__ASM_ALL_CURVES
100
AcDbLine
 62
40
  6
CONTINUOUS
 10
7.5425102936
 20
4.0643006826
 11
7.5163188874
 21
4.0643006826
  0
LINE
  5
378
100
AcDbEntity
  8
03__ASM_ALL_CURVES
100
AcDbLine
 62
40
  6
CONTINUOUS
 10
7.6001313874
 20
4.0643006826
 11
7.6263227936
 21
4.0643006826
  0
LINE
  5
379
100
AcDbEntity
  8
03__ASM_ALL_CURVES
100
AcDbLine
 62
40
  6
CONTINUOUS
 10
7.9353813874
 20
4.0643006826
 11
7.9615727936
 21
4.0643006826
  0
LINE
  5
37A
100
AcDbEntity
  8
03__ASM_ALL_CURVES
100
AcDbLine
 62
40
  6
CONTINUOUS
 10
8.3544438874
 20
4.0643006826
 11
8.3806352936
 21
4.0643006826
  0
LINE
  5
37B
100
AcDbEntity
  8
03__ASM_ALL_CURVES
100
AcDbLine
 62
40
  6
CONTINUOUS
 10
8.7735063874
 20
4.0643006826
 11
8.7996977936
 21
4.0643006826
  0
LINE
  5
37C
100
AcDbEntity
  8
03__ASM_ALL_CURVES
100
AcDbLine
 62
40
  6
CONTINUOUS
 10
3.7685845118
 20
5.1713529326
 11
3.7546157618
 21
5.1806654329
  0
LINE
  5
37D
100
AcDbEntity
  8
03__ASM_ALL_CURVES
100
AcDbLine
 62
40
  6
CONTINUOUS
 10
3.7825532618
 20
5.2365404304
 11
3.7965220118
 21
5.2272279326
  0
LINE
  5
37E
100
AcDbEntity
  8
03__ASM_ALL_CURVES
100
AcDbLine
 62
40
  6
CONTINUOUS
 10
3.7825532618
 20
5.2831029326
 11
3.7965220118
 21
5.2737904348
  0
LINE
  5
37F
100
AcDbEntity
  8
03__ASM_ALL_CURVES
100
AcDbLine
 62
40
  6
CONTINUOUS
 10
3.9990688868
 20
5.1713529326
 11
3.9851001368
 21
5.1806654329
  0
LINE
  5
380
100
AcDbEntity
  8
03__ASM_ALL_CURVES
100
AcDbLine
 62
40
  6
CONTINUOUS
 10
4.1108188868
 20
5.1713529326
 11
4.0968501368
 21
5.1806654329
  0
LINE
  5
381
100
AcDbEntity
  8
03__ASM_ALL_CURVES
100
AcDbLine
 62
40
  6
CONTINUOUS
 10
6.7612680725
 20
3.4197444326
 11
6.75079151
 21
3.4267288078
  0
LINE
  5
382
100
AcDbEntity
  8
03__ASM_ALL_CURVES
100
AcDbLine
 62
40
  6
CONTINUOUS
 10
5.9370395837
 20
3.4616506826
 11
5.9475161462
 21
3.4476819334
  0
LINE
  5
383
100
AcDbEntity
  8
03__ASM_ALL_CURVES
100
AcDbLine
 62
40
  6
CONTINUOUS
 10
5.9370395837
 20
3.4965725593
 11
5.942277865
 21
3.4895881809
  0
LINE
  5
384
100
AcDbEntity
  8
03__ASM_ALL_CURVES
100
AcDbLine
 62
40
  6
CONTINUOUS
 10
4.7603657618
 20
5.1806654329
 11
4.7463970118
 21
5.1992904326
  0
LINE
  5
385
100
AcDbEntity
  8
03__ASM_ALL_CURVES
100
AcDbLine
 62
40
  6
CONTINUOUS
 10
4.7603657618
 20
5.2458529348
 11
4.7533813868
 21
5.2551654326
  0
LINE
  5
386
100
AcDbEntity
  8
03__ASM_ALL_CURVES
100
AcDbLine
 62
40
  6
CONTINUOUS
 10
4.8022720118
 20
5.2272279326
 11
4.8162407618
 21
5.2086029337
  0
LINE
  5
387
100
AcDbEntity
  8
03__ASM_ALL_CURVES
100
AcDbLine
 62
40
  6
CONTINUOUS
 10
4.8022720118
 20
5.2737904348
 11
4.8092563868
 21
5.2644779304
  0
LINE
  5
388
100
AcDbEntity
  8
03__ASM_ALL_CURVES
100
AcDbLine
 62
40
  6
CONTINUOUS
 10
5.7589380212
 20
3.4616506826
 11
5.774652865
 21
3.4197444326
  0
LINE
  5
389
100
AcDbEntity
  8
03__ASM_ALL_CURVES
100
AcDbLine
 62
40
  6
CONTINUOUS
 10
5.8846567815
 20
3.3471069343
 11
5.9056099065
 21
3.2912319326
  0
LINE
  5
38A
100
AcDbEntity
  8
03__ASM_ALL_CURVES
100
AcDbLine
 62
40
  6
CONTINUOUS
 10
5.7170317815
 20
3.3750444326
 11
5.7432231877
 21
3.2912319326
  0
LINE
  5
38B
100
AcDbEntity
  8
0
100
AcDbLine
 62
7
  6
CONTINUOUS
 10
5.5540657113
 20
4.4945569326
 11
5.5373188868
 21
4.5570569326
  0
LINE
  5
38C
100
AcDbEntity
  8
03__ASM_ALL_CURVES
100
AcDbLine
 62
40
  6
CONTINUOUS
 10
5.6436958337
 20
3.4406975576
 11
5.6384575525
 21
3.4616506826
  0
LINE
  5
38D
100
AcDbEntity
  8
03__ASM_ALL_CURVES
100
AcDbLine
 62
40
  6
CONTINUOUS
 10
5.6960786462
 20
3.4826038076
 11
5.7013169275
 21
3.4616506826
  0
LINE
  5
38E
100
AcDbEntity
  8
03__ASM_ALL_CURVES
100
AcDbLine
 62
40
  6
CONTINUOUS
 10
5.6332192815
 20
3.3750444326
 11
5.6332192815
 21
3.2912319326
  0
LINE
  5
38F
100
AcDbEntity
  8
03__ASM_ALL_CURVES
100
AcDbLine
 62
40
  6
CONTINUOUS
 10
5.732746615
 20
3.4197444326
 11
5.732746615
 21
3.5035569326
  0
LINE
  5
390
100
AcDbEntity
  8
03__ASM_ALL_CURVES
100
AcDbLine
 62
40
  6
CONTINUOUS
 10
5.7472188868
 20
5.1490029326
 11
5.7472188868
 21
5.1043029326
  0
LINE
  5
391
100
AcDbEntity
  8
03__ASM_ALL_CURVES
100
AcDbLine
 62
40
  6
CONTINUOUS
 10
5.774652865
 20
3.4895881809
 11
5.774652865
 21
3.4756194343
  0
LINE
  5
392
100
AcDbEntity
  8
03__ASM_ALL_CURVES
100
AcDbLine
 62
40
  6
CONTINUOUS
 10
5.7798911565
 20
3.2912319326
 11
5.7798911565
 21
3.3750444326
  0
LINE
  5
393
100
AcDbEntity
  8
0
100
AcDbLine
 62
7
  6
CONTINUOUS
 10
5.8095720622
 20
3.7625569326
 11
5.8095720622
 21
4.4945569326
  0
LINE
  5
394
100
AcDbEntity
  8
03__ASM_ALL_CURVES
100
AcDbLine
 62
40
  6
CONTINUOUS
 10
5.8217974065
 20
3.2912319326
 11
5.8217974065
 21
3.3750444326
  0
LINE
  5
395
100
AcDbEntity
  8
0
100
AcDbLine
 62
7
  6
CONTINUOUS
 10
5.8263188868
 20
3.7000569326
 11
5.8263188868
 21
4.5570569326
  0
LINE
  5
396
100
AcDbEntity
  8
0
100
AcDbLine
 62
7
  6
CONTINUOUS
 10
5.5540657113
 20
3.7625569326
 11
5.5373188868
 21
3.7000569326
  0
LINE
  5
397
100
AcDbEntity
  8
0
100
AcDbLine
 62
7
  6
CONTINUOUS
 10
5.8263188868
 20
4.5570569326
 11
5.8095720622
 21
4.4945569326
  0
LINE
  5
398
100
AcDbEntity
  8
03__ASM_ALL_CURVES
100
AcDbLine
 62
40
  6
CONTINUOUS
 10
5.25203958
 20
3.5035569326
 11
5.2153716113
 21
3.4406975576
  0
LINE
  5
399
100
AcDbEntity
  8
03__ASM_ALL_CURVES
100
AcDbLine
 62
40
  6
CONTINUOUS
 10
5.0110786425
 20
3.4406975576
 11
5.00060208
 21
3.4267288078
  0
LINE
  5
39A
100
AcDbEntity
  8
03__ASM_ALL_CURVES
100
AcDbLine
 62
40
  6
CONTINUOUS
 10
4.9246470086
 20
3.3121850576
 11
4.9141704461
 21
3.2982163078
  0
LINE
  5
39B
100
AcDbEntity
  8
03__ASM_ALL_CURVES
100
AcDbLine
 62
40
  6
CONTINUOUS
 10
6.339493887
 20
5.1899779332
 11
6.332509512
 21
5.1806654329
  0
LINE
  5
39C
100
AcDbEntity
  8
03__ASM_ALL_CURVES
100
AcDbLine
 62
40
  6
CONTINUOUS
 10
5.0896528613
 20
3.4756194343
 11
5.08441458
 21
3.4686350559
  0
LINE
  5
39D
100
AcDbEntity
  8
03__ASM_ALL_CURVES
100
AcDbLine
 62
40
  6
CONTINUOUS
 10
5.0084595086
 20
3.3471069343
 11
5.0032212273
 21
3.3401225559
  0
LINE
  5
39E
100
AcDbEntity
  8
03__ASM_ALL_CURVES
100
AcDbLine
 62
40
  6
CONTINUOUS
 10
6.891259512
 20
5.1806654329
 11
6.877290762
 21
5.1713529326
  0
LINE
  5
39F
100
AcDbEntity
  8
03__ASM_ALL_CURVES
100
AcDbLine
 62
40
  6
CONTINUOUS
 10
7.086822012
 20
5.2831029326
 11
7.072853262
 21
5.2737904348
  0
LINE
  5
3A0
100
AcDbEntity
  8
03__ASM_ALL_CURVES
100
AcDbLine
 62
40
  6
CONTINUOUS
 10
7.114759512
 20
5.1806654329
 11
7.100790762
 21
5.1713529326
  0
LINE
  5
3A1
100
AcDbEntity
  8
03__ASM_ALL_CURVES
100
AcDbLine
 62
40
  6
CONTINUOUS
 10
7.296353262
 20
5.2737904348
 11
7.310322012
 21
5.2831029326
  0
LINE
  5
3A2
100
AcDbEntity
  8
03__ASM_ALL_CURVES
100
AcDbLine
 62
40
  6
CONTINUOUS
 10
8.5482602936
 20
4.1062069326
 11
8.5377837311
 21
4.1062069326
  0
LINE
  5
3A3
100
AcDbEntity
  8
03__ASM_ALL_CURVES
100
AcDbLine
 62
40
  6
CONTINUOUS
 10
8.4644477936
 20
4.1062069326
 11
8.4539712311
 21
4.1062069326
  0
LINE
  5
3A4
100
AcDbEntity
  8
03__ASM_ALL_CURVES
100
AcDbLine
 62
40
  6
CONTINUOUS
 10
7.5163188874
 20
4.1062069326
 11
7.5425102936
 21
4.1062069326
  0
LINE
  5
3A5
100
AcDbEntity
  8
03__ASM_ALL_CURVES
100
AcDbLine
 62
40
  6
CONTINUOUS
 10
7.6001313874
 20
4.1062069326
 11
7.6420376374
 21
4.1062069326
  0
LINE
  5
3A6
100
AcDbEntity
  8
03__ASM_ALL_CURVES
100
AcDbLine
 62
40
  6
CONTINUOUS
 10
7.6839438874
 20
4.1062069326
 11
7.7048970124
 21
4.1062069326
  0
LINE
  5
3A7
100
AcDbEntity
  8
03__ASM_ALL_CURVES
100
AcDbLine
 62
40
  6
CONTINUOUS
 10
7.8672837311
 20
4.1062069326
 11
7.8777602936
 21
4.1062069326
  0
LINE
  5
3A8
100
AcDbEntity
  8
03__ASM_ALL_CURVES
100
AcDbLine
 62
40
  6
CONTINUOUS
 10
7.9353813874
 20
4.1062069326
 11
7.9772876374
 21
4.1062069326
  0
LINE
  5
3A9
100
AcDbEntity
  8
03__ASM_ALL_CURVES
100
AcDbLine
 62
40
  6
CONTINUOUS
 10
8.0191938874
 20
4.1062069326
 11
8.0401470124
 21
4.1062069326
  0
LINE
  5
3AA
100
AcDbEntity
  8
03__ASM_ALL_CURVES
100
AcDbLine
 62
40
  6
CONTINUOUS
 10
8.1868188874
 20
4.1062069326
 11
8.2130102936
 21
4.1062069326
  0
LINE
  5
3AB
100
AcDbEntity
  8
03__ASM_ALL_CURVES
100
AcDbLine
 62
40
  6
CONTINUOUS
 10
8.2706313874
 20
4.1062069326
 11
8.2968227936
 21
4.1062069326
  0
LINE
  5
3AC
100
AcDbEntity
  8
03__ASM_ALL_CURVES
100
AcDbLine
 62
40
  6
CONTINUOUS
 10
8.3544438874
 20
4.1062069326
 11
8.3963501374
 21
4.1062069326
  0
LINE
  5
3AD
100
AcDbEntity
  8
03__ASM_ALL_CURVES
100
AcDbLine
 62
40
  6
CONTINUOUS
 10
8.6896938874
 20
4.1062069326
 11
8.7158852936
 21
4.1062069326
  0
LINE
  5
3AE
100
AcDbEntity
  8
03__ASM_ALL_CURVES
100
AcDbLine
 62
40
  6
CONTINUOUS
 10
8.7735063874
 20
4.1062069326
 11
8.8154126374
 21
4.1062069326
  0
LINE
  5
3AF
100
AcDbEntity
  8
0
100
AcDbLine
 62
7
  6
CONTINUOUS
 10
3.5384474764
 20
4.1285569326
 11
3.436789738
 21
4.1285569326
  0
LINE
  5
3B0
100
AcDbEntity
  8
03__ASM_ALL_CURVES
100
AcDbLine
 62
40
  6
CONTINUOUS
 10
7.6263227936
 20
4.1509069326
 11
7.6158462311
 21
4.1509069326
  0
LINE
  5
3B1
100
AcDbEntity
  8
03__ASM_ALL_CURVES
100
AcDbLine
 62
40
  6
CONTINUOUS
 10
7.7101352936
 20
4.1928131826
 11
7.6839438874
 21
4.1928131826
  0
LINE
  5
3B2
100
AcDbEntity
  8
03__ASM_ALL_CURVES
100
AcDbLine
 62
40
  6
CONTINUOUS
 10
7.5425102936
 20
4.1928131826
 11
7.5163188874
 21
4.1928131826
  0
LINE
  5
3B3
100
AcDbEntity
  8
03__ASM_ALL_CURVES
100
AcDbLine
 62
40
  6
CONTINUOUS
 10
7.5163188874
 20
4.2347194326
 11
7.5425102936
 21
4.2347194326
  0
LINE
  5
3B4
100
AcDbEntity
  8
03__ASM_ALL_CURVES
100
AcDbLine
 62
40
  6
CONTINUOUS
 10
7.6158462311
 20
4.2347194326
 11
7.6263227936
 21
4.2347194326
  0
LINE
  5
3B5
100
AcDbEntity
  8
03__ASM_ALL_CURVES
100
AcDbLine
 62
40
  6
CONTINUOUS
 10
7.6839438874
 20
4.2347194326
 11
7.7101352936
 21
4.2347194326
  0
LINE
  5
3B6
100
AcDbEntity
  8
03__ASM_ALL_CURVES
100
AcDbLine
 62
40
  6
CONTINUOUS
 10
7.7625181061
 20
4.2347194326
 11
7.8149009186
 21
4.2347194326
  0
LINE
  5
3B7
100
AcDbEntity
  8
0
100
AcDbLine
 62
7
  6
CONTINUOUS
 10
3.0173188868
 20
4.2795569326
 11
3.0553188868
 21
4.2795569326
  0
LINE
  5
3B8
100
AcDbEntity
  8
0
100
AcDbLine
 62
7
  6
CONTINUOUS
 10
2.8183188868
 20
4.3125569326
 11
3.0173188868
 21
4.3125569326
  0
LINE
  5
3B9
100
AcDbEntity
  8
0
100
AcDbLine
 62
7
  6
CONTINUOUS
 10
3.0553188868
 20
4.3125569326
 11
3.2883188868
 21
4.3125569326
  0
LINE
  5
3BA
100
AcDbEntity
  8
03__ASM_ALL_CURVES
100
AcDbLine
 62
40
  6
CONTINUOUS
 10
3.9990688868
 20
5.2831029326
 11
4.0130376368
 21
5.2737904348
  0
LINE
  5
3BB
100
AcDbEntity
  8
03__ASM_ALL_CURVES
100
AcDbLine
 62
40
  6
CONTINUOUS
 10
6.687932135
 20
3.5035569326
 11
6.6984086975
 21
3.4965725593
  0
LINE
  5
3BC
100
AcDbEntity
  8
03__ASM_ALL_CURVES
100
AcDbLine
 62
40
  6
CONTINUOUS
 10
6.771744635
 20
3.5035569326
 11
6.7822211975
 21
3.4965725593
  0
LINE
  5
3BD
100
AcDbEntity
  8
03__ASM_ALL_CURVES
100
AcDbLine
 62
40
  6
CONTINUOUS
 10
4.1108188868
 20
5.2831029326
 11
4.1247876368
 21
5.2737904348
  0
LINE
  5
3BE
100
AcDbEntity
  8
03__ASM_ALL_CURVES
100
AcDbLine
 62
40
  6
CONTINUOUS
 10
6.855557135
 20
3.5035569326
 11
6.8660336975
 21
3.4965725593
  0
LINE
  5
3BF
100
AcDbEntity
  8
03__ASM_ALL_CURVES
100
AcDbLine
 62
40
  6
CONTINUOUS
 10
4.4390845118
 20
5.1713529326
 11
4.4251157618
 21
5.1806654329
  0
LINE
  5
3C0
100
AcDbEntity
  8
03__ASM_ALL_CURVES
100
AcDbLine
 62
40
  6
CONTINUOUS
 10
7.023182135
 20
3.5035569326
 11
7.0336586975
 21
3.4965725593
  0
LINE
  5
3C1
100
AcDbEntity
  8
03__ASM_ALL_CURVES
100
AcDbLine
 62
40
  6
CONTINUOUS
 10
4.8860845118
 20
5.2831029326
 11
4.9000532618
 21
5.2644779304
  0
LINE
  5
3C2
100
AcDbEntity
  8
THREAD
100
AcDbLine
 62
7
  6
CONTINUOUS
 10
6.0896808467
 20
3.7410569326
 11
6.0720716635
 21
3.7715569326
  0
LINE
  5
3C3
100
AcDbEntity
  8
0
100
AcDbLine
 62
7
  6
CONTINUOUS
 10
5.8263188868
 20
3.7000569326
 11
5.8095720622
 21
3.7625569326
  0
LINE
  5
3C4
100
AcDbEntity
  8
03__ASM_ALL_CURVES
100
AcDbLine
 62
40
  6
CONTINUOUS
 10
5.83751224
 20
3.5035569326
 11
5.83751224
 21
3.4197444326
  0
LINE
  5
3C5
100
AcDbEntity
  8
03__ASM_ALL_CURVES
100
AcDbLine
 62
40
  6
CONTINUOUS
 10
5.8637036565
 20
3.3750444326
 11
5.8637036565
 21
3.2912319326
  0
LINE
  5
3C6
100
AcDbEntity
  8
0
100
AcDbLine
 62
7
  6
CONTINUOUS
 10
5.8813188868
 20
3.7000569326
 11
5.8813188868
 21
4.5570569326
  0
LINE
  5
3C7
100
AcDbEntity
  8
03__ASM_ALL_CURVES
100
AcDbLine
 62
40
  6
CONTINUOUS
 10
5.8813188868
 20
4.5944069326
 11
5.8813188868
 21
5.1713529326
  0
LINE
  5
3C8
100
AcDbEntity
  8
THREAD
100
AcDbLine
 62
7
  6
CONTINUOUS
 10
5.896907344
 20
3.7235569326
 11
5.896907344
 21
4.5335569326
  0
LINE
  5
3C9
100
AcDbEntity
  8
0
100
AcDbLine
 62
7
  6
CONTINUOUS
 10
5.9283188868
 20
4.5370569326
 11
5.9283188868
 21
3.7200569326
  0
LINE
  5
3CA
100
AcDbEntity
  8
THREAD
100
AcDbLine
 62
7
  6
CONTINUOUS
 10
5.9283188868
 20
3.7235569326
 11
5.9283188868
 21
4.5335569326
  0
LINE
  5
3CB
100
AcDbEntity
  8
03__ASM_ALL_CURVES
100
AcDbLine
 62
40
  6
CONTINUOUS
 10
5.942277865
 20
3.4895881809
 11
5.942277865
 21
3.4826038076
  0
LINE
  5
3CC
100
AcDbEntity
  8
03__ASM_ALL_CURVES
100
AcDbLine
 62
40
  6
CONTINUOUS
 10
5.9475161462
 20
3.4476819334
 11
5.9475161462
 21
3.4406975576
  0
LINE
  5
3CD
100
AcDbEntity
  8
0
100
AcDbLine
 62
7
  6
CONTINUOUS
 10
5.9983188868
 20
4.5370569326
 11
5.9983188868
 21
3.7200569326
  0
LINE
  5
3CE
100
AcDbEntity
  8
03__ASM_ALL_CURVES
100
AcDbLine
 62
40
  6
CONTINUOUS
 10
6.0154188868
 20
5.1490029326
 11
6.0154188868
 21
5.1043029326
  0
LINE
  5
3CF
100
AcDbEntity
  8
03__ASM_ALL_CURVES
100
AcDbLine
 62
40
  6
CONTINUOUS
 10
5.6384575525
 20
3.4616506826
 11
5.6436958337
 21
3.4826038076
  0
LINE
  5
3D0
100
AcDbEntity
  8
03__ASM_ALL_CURVES
100
AcDbLine
 62
40
  6
CONTINUOUS
 10
5.7013169275
 20
3.4616506826
 11
5.6960786462
 21
3.4406975576
  0
LINE
  5
3D1
100
AcDbEntity
  8
03__ASM_ALL_CURVES
100
AcDbLine
 62
40
  6
CONTINUOUS
 10
6.157900137
 20
5.2272279326
 11
6.164884512
 21
5.2551654326
  0
LINE
  5
3D2
100
AcDbEntity
  8
03__ASM_ALL_CURVES
100
AcDbLine
 62
40
  6
CONTINUOUS
 10
6.241712637
 20
5.2272279326
 11
6.234728262
 21
5.1992904326
  0
LINE
  5
3D3
100
AcDbEntity
  8
03__ASM_ALL_CURVES
100
AcDbLine
 62
40
  6
CONTINUOUS
 10
6.269650137
 20
5.2272279326
 11
6.276634512
 21
5.2551654326
  0
LINE
  5
3D4
100
AcDbEntity
  8
03__ASM_ALL_CURVES
100
AcDbLine
 62
40
  6
CONTINUOUS
 10
5.6908403752
 20
3.2912319326
 11
5.7170317815
 21
3.3750444326
  0
LINE
  5
3D5
100
AcDbEntity
  8
THREAD
100
AcDbLine
 62
7
  6
CONTINUOUS
 10
6.0896808467
 20
4.5160569326
 11
6.0720716635
 21
4.4855569326
  0
LINE
  5
3D6
100
AcDbEntity
  8
03__ASM_ALL_CURVES
100
AcDbLine
 62
40
  6
CONTINUOUS
 10
7.338259512
 20
5.1806654329
 11
7.324290762
 21
5.1713529326
  0
LINE
  5
3D7
100
AcDbEntity
  8
03__ASM_ALL_CURVES
100
AcDbLine
 62
40
  6
CONTINUOUS
 10
7.450009512
 20
5.1806654329
 11
7.436040762
 21
5.1713529326
  0
LINE
  5
3D8
100
AcDbEntity
  8
03__ASM_ALL_CURVES
100
AcDbLine
 62
40
  6
CONTINUOUS
 10
4.91678958
 20
3.4686350559
 11
4.9063130175
 21
3.4616506826
  0
LINE
  5
3D9
100
AcDbEntity
  8
03__ASM_ALL_CURVES
100
AcDbLine
 62
40
  6
CONTINUOUS
 10
4.9691723925
 20
3.4965725593
 11
4.979648955
 21
3.5035569326
  0
LINE
  5
3DA
100
AcDbEntity
  8
0
100
AcDbLine
 62
7
  6
CONTINUOUS
 10
4.5238188868
 20
4.3469618776
 11
4.1343825526
 21
4.3469618776
  0
LINE
  5
3DB
100
AcDbEntity
  8
0
100
AcDbLine
 62
7
  6
CONTINUOUS
 10
3.3778188868
 20
4.3940569326
 11
3.3618188868
 21
4.3940569326
  0
LINE
  5
3DC
100
AcDbEntity
  8
0
100
AcDbLine
 62
7
  6
CONTINUOUS
 10
4.5238188868
 20
4.3982544601
 11
4.1343825526
 21
4.3982544601
  0
LINE
  5
3DD
100
AcDbEntity
  8
0
100
AcDbLine
 62
7
  6
CONTINUOUS
 10
3.6003188868
 20
4.3995569326
 11
3.5693188868
 21
4.3995569326
  0
LINE
  5
3DE
100
AcDbEntity
  8
0
100
AcDbLine
 62
7
  6
CONTINUOUS
 10
3.3563188868
 20
4.3995569326
 11
3.3503188868
 21
4.3995569326
  0
LINE
  5
3DF
100
AcDbEntity
  8
0
100
AcDbLine
 62
7
  6
CONTINUOUS
 10
6.9603188868
 20
4.4090569326
 11
6.7648188868
 21
4.4090569326
  0
LINE
  5
3E0
100
AcDbEntity
  8
0
100
AcDbLine
 62
7
  6
CONTINUOUS
 10
6.6558188868
 20
4.4090569326
 11
6.5693188868
 21
4.4090569326
  0
LINE
  5
3E1
100
AcDbEntity
  8
0
100
AcDbLine
 62
7
  6
CONTINUOUS
 10
3.3933188868
 20
4.4095569326
 11
3.5635426085
 21
4.4095569326
  0
LINE
  5
3E2
100
AcDbEntity
  8
0
100
AcDbLine
 62
7
  6
CONTINUOUS
 10
7.1598188868
 20
4.4115569326
 11
7.1403188868
 21
4.4115569326
  0
LINE
  5
3E3
100
AcDbEntity
  8
0
100
AcDbLine
 62
7
  6
CONTINUOUS
 10
7.0903188868
 20
4.4655569326
 11
7.1403188868
 21
4.4655569326
  0
LINE
  5
3E4
100
AcDbEntity
  8
0
100
AcDbLine
 62
7
  6
CONTINUOUS
 10
7.1598188868
 20
4.4708069326
 11
7.2528188868
 21
4.4708069326
  0
LINE
  5
3E5
100
AcDbEntity
  8
0
100
AcDbLine
 62
7
  6
CONTINUOUS
 10
6.9603188868
 20
4.4710569326
 11
7.0203188868
 21
4.4710569326
  0
LINE
  5
3E6
100
AcDbEntity
  8
THREAD
100
AcDbLine
 62
7
  6
CONTINUOUS
 10
6.5593188868
 20
4.4715569326
 11
6.3813188868
 21
4.4715569326
  0
LINE
  5
3E7
100
AcDbEntity
  8
0
100
AcDbLine
 62
7
  6
CONTINUOUS
 10
3.7363188868
 20
4.4785569326
 11
3.7143188868
 21
4.4785569326
  0
LINE
  5
3E8
100
AcDbEntity
  8
THREAD
100
AcDbLine
 62
7
  6
CONTINUOUS
 10
6.0608133333
 20
4.4790569326
 11
6.0483188868
 21
4.4790569326
  0
LINE
  5
3E9
100
AcDbEntity
  8
0
100
AcDbLine
 62
7
  6
CONTINUOUS
 10
5.8095720622
 20
4.4945569326
 11
5.7878188868
 21
4.4945569326
  0
LINE
  5
3EA
100
AcDbEntity
  8
0
100
AcDbLine
 62
7
  6
CONTINUOUS
 10
5.6628188868
 20
4.4945569326
 11
5.5540657113
 21
4.4945569326
  0
LINE
  5
3EB
100
AcDbEntity
  8
0
100
AcDbLine
 62
7
  6
CONTINUOUS
 10
5.4733188868
 20
4.5020569326
 11
5.4573188868
 21
4.5020569326
  0
LINE
  5
3EC
100
AcDbEntity
  8
0
100
AcDbLine
 62
7
  6
CONTINUOUS
 10
5.2225816812
 20
4.5020569326
 11
5.0020753302
 21
4.5020569326
  0
LINE
  5
3ED
100
AcDbEntity
  8
0
100
AcDbLine
 62
7
  6
CONTINUOUS
 10
4.1003188868
 20
4.5020569326
 11
3.7493188868
 21
4.5020569326
  0
LINE
  5
3EE
100
AcDbEntity
  8
0
100
AcDbLine
 62
7
  6
CONTINUOUS
 10
3.7013188868
 20
4.5020569326
 11
3.6503188868
 21
4.5020569326
  0
LINE
  5
3EF
100
AcDbEntity
  8
THREAD
100
AcDbLine
 62
7
  6
CONTINUOUS
 10
6.3368188868
 20
4.5160569326
 11
6.0896808467
 21
4.5160569326
  0
LINE
  5
3F0
100
AcDbEntity
  8
0
100
AcDbLine
 62
7
  6
CONTINUOUS
 10
4.9153188868
 20
4.5170569326
 11
4.9073188868
 21
4.5170569326
  0
LINE
  5
3F1
100
AcDbEntity
  8
03__ASM_ALL_CURVES
100
AcDbLine
 62
40
  6
CONTINUOUS
 10
4.1108188868
 20
5.2179154315
 11
4.0898657618
 21
5.2272279326
  0
LINE
  5
3F2
100
AcDbEntity
  8
03__ASM_ALL_CURVES
100
AcDbLine
 62
40
  6
CONTINUOUS
 10
4.4390845118
 20
5.2365404304
 11
4.4251157618
 21
5.2458529348
  0
LINE
  5
3F3
100
AcDbEntity
  8
03__ASM_ALL_CURVES
100
AcDbLine
 62
40
  6
CONTINUOUS
 10
4.4530532618
 20
5.2365404304
 11
4.4670220118
 21
5.2272279326
  0
LINE
  5
3F4
100
AcDbEntity
  8
03__ASM_ALL_CURVES
100
AcDbLine
 62
40
  6
CONTINUOUS
 10
4.4530532618
 20
5.2831029326
 11
4.4670220118
 21
5.2737904348
  0
LINE
  5
3F5
100
AcDbEntity
  8
03__ASM_ALL_CURVES
100
AcDbLine
 62
40
  6
CONTINUOUS
 10
4.7743345118
 20
5.1713529326
 11
4.7603657618
 21
5.1806654329
  0
LINE
  5
3F6
100
AcDbEntity
  8
03__ASM_ALL_CURVES
100
AcDbLine
 62
40
  6
CONTINUOUS
 10
4.7743345118
 20
5.2365404304
 11
4.7603657618
 21
5.2458529348
  0
LINE
  5
3F7
100
AcDbEntity
  8
03__ASM_ALL_CURVES
100
AcDbLine
 62
40
  6
CONTINUOUS
 10
4.7883032618
 20
5.2365404304
 11
4.8022720118
 21
5.2272279326
  0
LINE
  5
3F8
100
AcDbEntity
  8
0
100
AcDbLine
 62
7
  6
CONTINUOUS
 10
6.0483188868
 20
3.7240575476
 11
6.0483188868
 21
4.5330563176
  0
LINE
  5
3F9
100
AcDbEntity
  8
03__ASM_ALL_CURVES
100
AcDbLine
 62
40
  6
CONTINUOUS
 10
6.060118887
 20
5.2831029326
 11
6.060118887
 21
5.1713529326
  0
LINE
  5
3FA
100
AcDbEntity
  8
0
100
AcDbLine
 62
7
  6
CONTINUOUS
 10
6.0608133333
 20
3.7780569326
 11
6.0608133333
 21
4.4790569326
  0
LINE
  5
3FB
100
AcDbEntity
  8
0
100
AcDbLine
 62
7
  6
CONTINUOUS
 10
6.0720716635
 20
3.7715569326
 11
6.0720716635
 21
4.4855569326
  0
LINE
  5
3FC
100
AcDbEntity
  8
THREAD
100
AcDbLine
 62
7
  6
CONTINUOUS
 10
6.0896808467
 20
3.7410569326
 11
6.0896808467
 21
4.5160569326
  0
LINE
  5
3FD
100
AcDbEntity
  8
03__ASM_ALL_CURVES
100
AcDbLine
 62
40
  6
CONTINUOUS
 10
6.388384512
 20
5.1713529326
 11
6.423306387
 21
5.2831029326
  0
LINE
  5
3FE
100
AcDbEntity
  8
03__ASM_ALL_CURVES
100
AcDbLine
 62
40
  6
CONTINUOUS
 10
6.835384512
 20
5.2551654326
 11
6.849353262
 21
5.2737904348
  0
LINE
  5
3FF
100
AcDbEntity
  8
03__ASM_ALL_CURVES
100
AcDbLine
 62
40
  6
CONTINUOUS
 10
5.607027865
 20
3.4756194343
 11
5.6017895837
 21
3.4686350559
  0
LINE
  5
400
100
AcDbEntity
  8
03__ASM_ALL_CURVES
100
AcDbLine
 62
40
  6
CONTINUOUS
 10
6.898243887
 20
5.1899779332
 11
6.891259512
 21
5.1806654329
  0
LINE
  5
401
100
AcDbEntity
  8
03__ASM_ALL_CURVES
100
AcDbLine
 62
40
  6
CONTINUOUS
 10
5.6436958337
 20
3.4826038076
 11
5.6541723962
 21
3.4965725593
  0
LINE
  5
402
100
AcDbEntity
  8
03__ASM_ALL_CURVES
100
AcDbLine
 62
40
  6
CONTINUOUS
 10
5.6960786462
 20
3.4406975576
 11
5.6856020837
 21
3.4267288078
  0
LINE
  5
403
100
AcDbEntity
  8
03__ASM_ALL_CURVES
100
AcDbLine
 62
40
  6
CONTINUOUS
 10
7.072853262
 20
5.2737904348
 11
7.065868887
 21
5.2644779304
  0
LINE
  5
404
100
AcDbEntity
  8
03__ASM_ALL_CURVES
100
AcDbLine
 62
40
  6
CONTINUOUS
 10
5.00060208
 20
3.4267288078
 11
4.9901255175
 21
3.4197444326
  0
LINE
  5
405
100
AcDbEntity
  8
03__ASM_ALL_CURVES
100
AcDbLine
 62
40
  6
CONTINUOUS
 10
5.08441458
 20
3.4686350559
 11
5.0739380175
 21
3.4616506826
  0
LINE
  5
406
100
AcDbEntity
  8
03__ASM_ALL_CURVES
100
AcDbLine
 62
40
  6
CONTINUOUS
 10
7.666525137
 20
5.1806654329
 11
7.652556387
 21
5.1713529326
  0
LINE
  5
407
100
AcDbEntity
  8
03__ASM_ALL_CURVES
100
AcDbLine
 62
40
  6
CONTINUOUS
 10
4.9141704461
 20
3.2982163078
 11
4.9036938836
 21
3.2912319326
  0
LINE
  5
408
100
AcDbEntity
  8
03__ASM_ALL_CURVES
100
AcDbLine
 62
40
  6
CONTINUOUS
 10
5.0032212273
 20
3.3401225559
 11
4.9927446648
 21
3.3331381826
  0
LINE
  5
409
100
AcDbEntity
  8
03__ASM_ALL_CURVES
100
AcDbLine
 62
40
  6
CONTINUOUS
 10
7.897009512
 20
5.2365404304
 11
7.883040762
 21
5.2272279326
  0
LINE
  5
40A
100
AcDbEntity
  8
0
100
AcDbLine
 62
7
  6
CONTINUOUS
 10
5.9983188868
 20
4.5330569326
 11
6.0483188868
 21
4.5330569326
  0
LINE
  5
40B
100
AcDbEntity
  8
THREAD
100
AcDbLine
 62
7
  6
CONTINUOUS
 10
5.9283188868
 20
4.5335569326
 11
5.896907344
 21
4.5335569326
  0
LINE
  5
40C
100
AcDbEntity
  8
0
100
AcDbLine
 62
7
  6
CONTINUOUS
 10
5.2873188868
 20
4.5560569326
 11
5.3373188868
 21
4.5560569326
  0
LINE
  5
40D
100
AcDbEntity
  8
0
100
AcDbLine
 62
7
  6
CONTINUOUS
 10
5.4073188868
 20
4.5560569326
 11
5.4573188868
 21
4.5560569326
  0
LINE
  5
40E
100
AcDbEntity
  8
0
100
AcDbLine
 62
7
  6
CONTINUOUS
 10
5.8813188868
 20
4.5570569326
 11
5.8263188868
 21
4.5570569326
  0
LINE
  5
40F
100
AcDbEntity
  8
0
100
AcDbLine
 62
7
  6
CONTINUOUS
 10
5.5373188868
 20
4.5570569326
 11
5.4863188868
 21
4.5570569326
  0
LINE
  5
410
100
AcDbEntity
  8
0
100
AcDbLine
 62
7
  6
CONTINUOUS
 10
5.2873188868
 20
4.5570569326
 11
5.2373188868
 21
4.5570569326
  0
LINE
  5
411
100
AcDbEntity
  8
0
100
AcDbLine
 62
7
  6
CONTINUOUS
 10
4.7873188868
 20
4.5710569326
 11
4.8373188868
 21
4.5710569326
  0
LINE
  5
412
100
AcDbEntity
  8
0
100
AcDbLine
 62
7
  6
CONTINUOUS
 10
4.9753188868
 20
4.5720569326
 11
4.9283188868
 21
4.5720569326
  0
LINE
  5
413
100
AcDbEntity
  8
0
100
AcDbLine
 62
7
  6
CONTINUOUS
 10
4.7873188868
 20
4.5720569326
 11
4.7343188868
 21
4.5720569326
  0
LINE
  5
414
100
AcDbEntity
  8
0
100
AcDbLine
 62
7
  6
CONTINUOUS
 10
4.7143188868
 20
4.5720569326
 11
4.5693188868
 21
4.5720569326
  0
LINE
  5
415
100
AcDbEntity
  8
0
100
AcDbLine
 62
7
  6
CONTINUOUS
 10
4.5238188868
 20
4.6166594051
 11
4.1343825526
 21
4.6166594051
  0
LINE
  5
416
100
AcDbEntity
  8
0
100
AcDbLine
 62
7
  6
CONTINUOUS
 10
4.5238188868
 20
4.6175569326
 11
4.1343825526
 21
4.6175569326
  0
LINE
  5
417
100
AcDbEntity
  8
03__ASM_ALL_CURVES
100
AcDbLine
 62
40
  6
CONTINUOUS
 10
2.9214188868
 20
5.1080279326
 11
2.7873188868
 21
5.1266529326
  0
LINE
  5
418
100
AcDbEntity
  8
03__ASM_ALL_CURVES
100
AcDbLine
 62
40
  6
CONTINUOUS
 10
2.9214188868
 20
5.1043029326
 11
2.7873188868
 21
5.1266529326
  0
LINE
  5
419
100
AcDbEntity
  8
THREAD
100
AcDbLine
 62
7
  6
CONTINUOUS
 10
5.896907344
 20
4.5335569326
 11
5.8813188868
 21
4.5425569326
  0
LINE
  5
41A
100
AcDbEntity
  8
03__ASM_ALL_CURVES
100
AcDbLine
 62
40
  6
CONTINUOUS
 10
4.7883032618
 20
5.2831029326
 11
4.8022720118
 21
5.2737904348
  0
LINE
  5
41B
100
AcDbEntity
  8
03__ASM_ALL_CURVES
100
AcDbLine
 62
40
  6
CONTINUOUS
 10
6.75079151
 20
3.4267288078
 11
6.7403149475
 21
3.4406975576
  0
LINE
  5
41C
100
AcDbEntity
  8
03__ASM_ALL_CURVES
100
AcDbLine
 62
40
  6
CONTINUOUS
 10
6.6984086975
 20
3.4965725593
 11
6.7036469788
 21
3.4895881809
  0
LINE
  5
41D
100
AcDbEntity
  8
03__ASM_ALL_CURVES
100
AcDbLine
 62
40
  6
CONTINUOUS
 10
6.7822211975
 20
3.4965725593
 11
6.79269776
 21
3.4826038076
  0
LINE
  5
41E
100
AcDbEntity
  8
03__ASM_ALL_CURVES
100
AcDbLine
 62
40
  6
CONTINUOUS
 10
6.8660336975
 20
3.4965725593
 11
6.8712719788
 21
3.4895881809
  0
LINE
  5
41F
100
AcDbEntity
  8
03__ASM_ALL_CURVES
100
AcDbLine
 62
40
  6
CONTINUOUS
 10
6.7324575165
 20
3.3750444326
 11
6.7743637665
 21
3.2912319326
  0
LINE
  5
420
100
AcDbEntity
  8
THREAD
100
AcDbLine
 62
7
  6
CONTINUOUS
 10
6.3368188868
 20
3.7410569326
 11
6.3368188868
 21
4.5160569326
  0
LINE
  5
421
100
AcDbEntity
  8
THREAD
100
AcDbLine
 62
7
  6
CONTINUOUS
 10
6.3813188868
 20
3.7855569326
 11
6.3813188868
 21
4.4715569326
  0
LINE
  5
422
100
AcDbEntity
  8
03__ASM_ALL_CURVES
100
AcDbLine
 62
40
  6
CONTINUOUS
 10
5.774652865
 20
3.4756194343
 11
5.7694145837
 21
3.4686350559
  0
LINE
  5
423
100
AcDbEntity
  8
03__ASM_ALL_CURVES
100
AcDbLine
 62
40
  6
CONTINUOUS
 10
7.121743887
 20
5.1899779332
 11
7.114759512
 21
5.1806654329
  0
LINE
  5
424
100
AcDbEntity
  8
03__ASM_ALL_CURVES
100
AcDbLine
 62
40
  6
CONTINUOUS
 10
5.942277865
 20
3.4826038076
 11
5.9370395837
 21
3.4756194343
  0
LINE
  5
425
100
AcDbEntity
  8
03__ASM_ALL_CURVES
100
AcDbLine
 62
40
  6
CONTINUOUS
 10
7.282384512
 20
5.2551654326
 11
7.296353262
 21
5.2737904348
  0
LINE
  5
426
100
AcDbEntity
  8
03__ASM_ALL_CURVES
100
AcDbLine
 62
40
  6
CONTINUOUS
 10
5.9475161462
 20
3.4406975576
 11
5.9370395837
 21
3.4267288078
  0
LINE
  5
427
100
AcDbEntity
  8
03__ASM_ALL_CURVES
100
AcDbLine
 62
40
  6
CONTINUOUS
 10
5.6017895837
 20
3.4686350559
 11
5.5913130212
 21
3.4616506826
  0
LINE
  5
428
100
AcDbEntity
  8
03__ASM_ALL_CURVES
100
AcDbLine
 62
40
  6
CONTINUOUS
 10
5.6541723962
 20
3.4965725593
 11
5.6646489587
 21
3.5035569326
  0
LINE
  5
429
100
AcDbEntity
  8
03__ASM_ALL_CURVES
100
AcDbLine
 62
40
  6
CONTINUOUS
 10
5.6856020837
 20
3.4267288078
 11
5.6751255212
 21
3.4197444326
  0
LINE
  5
42A
100
AcDbEntity
  8
THREAD
100
AcDbLine
 62
7
  6
CONTINUOUS
 10
5.896907344
 20
3.7235569326
 11
5.8813188868
 21
3.7145569326
  0
LINE
  5
42B
100
AcDbEntity
  8
03__ASM_ALL_CURVES
100
AcDbLine
 62
40
  6
CONTINUOUS
 10
2.9214188868
 20
5.1154779326
 11
2.7873188868
 21
5.1266529326
  0
LINE
  5
42C
100
AcDbEntity
  8
03__ASM_ALL_CURVES
100
AcDbLine
 62
40
  6
CONTINUOUS
 10
2.9214188868
 20
5.1117529326
 11
2.7873188868
 21
5.1266529326
  0
LINE
  5
42D
100
AcDbEntity
  8
THREAD
100
AcDbLine
 62
7
  6
CONTINUOUS
 10
6.3813188868
 20
4.4715569326
 11
6.3368188868
 21
4.5160569326
  0
LINE
  5
42E
100
AcDbEntity
  8
03__ASM_ALL_CURVES
100
AcDbLine
 62
40
  6
CONTINUOUS
 10
7.0336586975
 20
3.4965725593
 11
7.0388969788
 21
3.4895881809
  0
LINE
  5
42F
100
AcDbEntity
  8
03__ASM_ALL_CURVES
100
AcDbLine
 62
40
  6
CONTINUOUS
 10
6.164884512
 20
5.1992904326
 11
6.157900137
 21
5.2272279326
  0
LINE
  5
430
100
AcDbEntity
  8
03__ASM_ALL_CURVES
100
AcDbLine
 62
40
  6
CONTINUOUS
 10
6.234728262
 20
5.2551654326
 11
6.241712637
 21
5.2272279326
  0
LINE
  5
431
100
AcDbEntity
  8
03__ASM_ALL_CURVES
100
AcDbLine
 62
40
  6
CONTINUOUS
 10
6.535056387
 20
5.2831029326
 11
6.535056387
 21
5.1713529326
  0
LINE
  5
432
100
AcDbEntity
  8
0
100
AcDbLine
 62
7
  6
CONTINUOUS
 10
6.5593188868
 20
3.7855569326
 11
6.5593188868
 21
4.4715569326
  0
LINE
  5
433
100
AcDbEntity
  8
0
100
AcDbLine
 62
7
  6
CONTINUOUS
 10
6.5693188868
 20
3.7955569326
 11
6.5693188868
 21
4.4615569326
  0
LINE
  5
434
100
AcDbEntity
  8
03__ASM_ALL_CURVES
100
AcDbLine
 62
40
  6
CONTINUOUS
 10
6.646806387
 20
5.2831029326
 11
6.646806387
 21
5.1713529326
  0
LINE
  5
435
100
AcDbEntity
  8
03__ASM_ALL_CURVES
100
AcDbLine
 62
40
  6
CONTINUOUS
 10
6.6617407288
 20
3.4197444326
 11
6.6617407288
 21
3.5035569326
  0
LINE
  5
436
100
AcDbEntity
  8
03__ASM_ALL_CURVES
100
AcDbLine
 62
40
  6
CONTINUOUS
 10
6.6695981415
 20
3.3750444326
 11
6.6695981415
 21
3.2912319326
  0
LINE
  5
437
100
AcDbEntity
  8
03__ASM_ALL_CURVES
100
AcDbLine
 62
40
  6
CONTINUOUS
 10
6.828400137
 20
5.2272279326
 11
6.835384512
 21
5.2551654326
  0
LINE
  5
438
100
AcDbEntity
  8
03__ASM_ALL_CURVES
100
AcDbLine
 62
40
  6
CONTINUOUS
 10
7.352228262
 20
5.1992904326
 11
7.338259512
 21
5.1806654329
  0
LINE
  5
439
100
AcDbEntity
  8
03__ASM_ALL_CURVES
100
AcDbLine
 62
40
  6
CONTINUOUS
 10
7.456993887
 20
5.1899779332
 11
7.450009512
 21
5.1806654329
  0
LINE
  5
43A
100
AcDbEntity
  8
03__ASM_ALL_CURVES
100
AcDbLine
 62
40
  6
CONTINUOUS
 10
5.8637036565
 20
3.3261538068
 11
5.9056099065
 21
3.3750444326
  0
LINE
  5
43B
100
AcDbEntity
  8
THREAD
100
AcDbLine
 62
7
  6
CONTINUOUS
 10
6.3813188868
 20
3.7855569326
 11
6.3368188868
 21
3.7410569326
  0
LINE
  5
43C
100
AcDbEntity
  8
03__ASM_ALL_CURVES
100
AcDbLine
 62
40
  6
CONTINUOUS
 10
5.7694145837
 20
3.4686350559
 11
5.7589380212
 21
3.4616506826
  0
LINE
  5
43D
100
AcDbEntity
  8
03__ASM_ALL_CURVES
100
AcDbLine
 62
40
  6
CONTINUOUS
 10
5.9056098962
 20
3.4965725593
 11
5.9160864587
 21
3.5035569326
  0
LINE
  5
43E
100
AcDbEntity
  8
03__ASM_ALL_CURVES
100
AcDbLine
 62
40
  6
CONTINUOUS
 10
5.9370395837
 20
3.4756194343
 11
5.9265630212
 21
3.4686350559
  0
LINE
  5
43F
100
AcDbEntity
  8
03__ASM_ALL_CURVES
100
AcDbLine
 62
40
  6
CONTINUOUS
 10
5.9370395837
 20
3.4267288078
 11
5.9265630212
 21
3.4197444326
  0
LINE
  5
440
100
AcDbEntity
  8
03__ASM_ALL_CURVES
100
AcDbLine
 62
40
  6
CONTINUOUS
 10
5.7472188868
 20
5.1043029326
 11
6.0154188868
 21
5.1490029326
  0
LINE
  5
441
100
AcDbEntity
  8
03__ASM_ALL_CURVES
100
AcDbLine
 62
40
  6
CONTINUOUS
 10
5.7472188868
 20
5.1080279326
 11
6.0154188868
 21
5.1452779326
  0
LINE
  5
442
100
AcDbEntity
  8
03__ASM_ALL_CURVES
100
AcDbLine
 62
40
  6
CONTINUOUS
 10
5.7472188868
 20
5.1117529326
 11
6.0154188868
 21
5.1415529326
  0
LINE
  5
443
100
AcDbEntity
  8
03__ASM_ALL_CURVES
100
AcDbLine
 62
40
  6
CONTINUOUS
 10
5.7472188868
 20
5.1154779326
 11
6.0154188868
 21
5.1378279326
  0
LINE
  5
444
100
AcDbEntity
  8
03__ASM_ALL_CURVES
100
AcDbLine
 62
40
  6
CONTINUOUS
 10
5.7472188868
 20
5.1192029326
 11
6.0154188868
 21
5.1341029326
  0
LINE
  5
445
100
AcDbEntity
  8
03__ASM_ALL_CURVES
100
AcDbLine
 62
40
  6
CONTINUOUS
 10
5.7472188868
 20
5.1229279326
 11
6.0154188868
 21
5.1303779326
  0
LINE
  5
446
100
AcDbEntity
  8
03__ASM_ALL_CURVES
100
AcDbLine
 62
40
  6
CONTINUOUS
 10
2.7873188868
 20
5.1266529326
 11
8.0269188868
 21
5.1266529326
  0
LINE
  5
447
100
AcDbEntity
  8
03__ASM_ALL_CURVES
100
AcDbLine
 62
40
  6
CONTINUOUS
 10
2.9214188868
 20
5.1229279326
 11
2.7873188868
 21
5.1266529326
  0
LINE
  5
448
100
AcDbEntity
  8
03__ASM_ALL_CURVES
100
AcDbLine
 62
40
  6
CONTINUOUS
 10
5.7472188868
 20
5.1303779326
 11
6.0154188868
 21
5.1229279326
  0
LINE
  5
449
100
AcDbEntity
  8
03__ASM_ALL_CURVES
100
AcDbLine
 62
40
  6
CONTINUOUS
 10
2.9214188868
 20
5.1192029326
 11
2.7873188868
 21
5.1266529326
  0
LINE
  5
44A
100
AcDbEntity
  8
03__ASM_ALL_CURVES
100
AcDbLine
 62
40
  6
CONTINUOUS
 10
5.7472188868
 20
5.1341029326
 11
6.0154188868
 21
5.1192029326
  0
LINE
  5
44B
100
AcDbEntity
  8
03__ASM_ALL_CURVES
100
AcDbLine
 62
40
  6
CONTINUOUS
 10
5.7472188868
 20
5.1378279326
 11
6.0154188868
 21
5.1154779326
  0
LINE
  5
44C
100
AcDbEntity
  8
03__ASM_ALL_CURVES
100
AcDbLine
 62
40
  6
CONTINUOUS
 10
5.7472188868
 20
5.1415529326
 11
6.0154188868
 21
5.1117529326
  0
LINE
  5
44D
100
AcDbEntity
  8
03__ASM_ALL_CURVES
100
AcDbLine
 62
40
  6
CONTINUOUS
 10
5.7472188868
 20
5.1452779326
 11
6.0154188868
 21
5.1080279326
  0
LINE
  5
44E
100
AcDbEntity
  8
03__ASM_ALL_CURVES
100
AcDbLine
 62
40
  6
CONTINUOUS
 10
6.0154188868
 20
5.1043029326
 11
5.7472188868
 21
5.1490029326
  0
LINE
  5
44F
100
AcDbEntity
  8
03__ASM_ALL_CURVES
100
AcDbLine
 62
40
  6
CONTINUOUS
 10
7.5425102936
 20
4.1062069326
 11
7.5529868561
 21
4.0992225593
  0
LINE
  5
450
100
AcDbEntity
  8
0
100
AcDbLine
 62
7
  6
CONTINUOUS
 10
6.5693188868
 20
4.4615569326
 11
6.5593188868
 21
4.4715569326
  0
LINE
  5
451
100
AcDbEntity
  8
03__ASM_ALL_CURVES
100
AcDbLine
 62
40
  6
CONTINUOUS
 10
6.178853262
 20
5.1806654329
 11
6.164884512
 21
5.1992904326
  0
LINE
  5
452
100
AcDbEntity
  8
03__ASM_ALL_CURVES
100
AcDbLine
 62
40
  6
CONTINUOUS
 10
6.855557135
 20
3.4616506826
 11
6.8712719788
 21
3.4197444326
  0
LINE
  5
453
100
AcDbEntity
  8
03__ASM_ALL_CURVES
100
AcDbLine
 62
40
  6
CONTINUOUS
 10
6.276634512
 20
5.1992904326
 11
6.269650137
 21
5.2272279326
  0
LINE
  5
454
100
AcDbEntity
  8
03__ASM_ALL_CURVES
100
AcDbLine
 62
40
  6
CONTINUOUS
 10
6.7403149475
 20
3.4406975576
 11
6.7350766663
 21
3.4616506826
  0
LINE
  5
455
100
AcDbEntity
  8
03__ASM_ALL_CURVES
100
AcDbLine
 62
40
  6
CONTINUOUS
 10
6.79269776
 20
3.4826038076
 11
6.7979360413
 21
3.4616506826
  0
LINE
  5
456
100
AcDbEntity
  8
03__ASM_ALL_CURVES
100
AcDbLine
 62
40
  6
CONTINUOUS
 10
6.7036469788
 20
3.4895881809
 11
6.7036469788
 21
3.4756194343
  0
LINE
  5
457
100
AcDbEntity
  8
03__ASM_ALL_CURVES
100
AcDbLine
 62
40
  6
CONTINUOUS
 10
6.730618887
 20
5.1713529326
 11
6.730618887
 21
5.2831029326
  0
LINE
  5
458
100
AcDbEntity
  8
03__ASM_ALL_CURVES
100
AcDbLine
 62
40
  6
CONTINUOUS
 10
6.7324575165
 20
3.2912319326
 11
6.7324575165
 21
3.3750444326
  0
LINE
  5
459
100
AcDbEntity
  8
03__ASM_ALL_CURVES
100
AcDbLine
 62
40
  6
CONTINUOUS
 10
6.7743637665
 20
3.2912319326
 11
6.7743637665
 21
3.3750444326
  0
LINE
  5
45A
100
AcDbEntity
  8
03__ASM_ALL_CURVES
100
AcDbLine
 62
40
  6
CONTINUOUS
 10
6.786493887
 20
5.1713529326
 11
6.786493887
 21
5.2831029326
  0
LINE
  5
45B
100
AcDbEntity
  8
03__ASM_ALL_CURVES
100
AcDbLine
 62
40
  6
CONTINUOUS
 10
6.8162700165
 20
3.3750444326
 11
6.8162700165
 21
3.2912319326
  0
LINE
  5
45C
100
AcDbEntity
  8
03__ASM_ALL_CURVES
100
AcDbLine
 62
40
  6
CONTINUOUS
 10
6.8293657288
 20
3.4197444326
 11
6.8293657288
 21
3.5035569326
  0
LINE
  5
45D
100
AcDbEntity
  8
03__ASM_ALL_CURVES
100
AcDbLine
 62
40
  6
CONTINUOUS
 10
6.8712719788
 20
3.4895881809
 11
6.8712719788
 21
3.4756194343
  0
LINE
  5
45E
100
AcDbEntity
  8
03__ASM_ALL_CURVES
100
AcDbLine
 62
40
  6
CONTINUOUS
 10
7.680493887
 20
5.1992904326
 11
7.666525137
 21
5.1806654329
  0
LINE
  5
45F
100
AcDbEntity
  8
0
100
AcDbLine
 62
7
  6
CONTINUOUS
 10
6.5693188868
 20
3.7955569326
 11
6.5593188868
 21
3.7855569326
  0
LINE
  5
460
100
AcDbEntity
  8
03__ASM_ALL_CURVES
100
AcDbLine
 62
40
  6
CONTINUOUS
 10
7.5529868561
 20
4.1997975559
 11
7.5425102936
 21
4.1928131826
  0
LINE
  5
461
100
AcDbEntity
  8
03__ASM_ALL_CURVES
100
AcDbLine
 62
40
  6
CONTINUOUS
 10
7.6053696686
 20
4.2277350593
 11
7.6158462311
 21
4.2347194326
  0
LINE
  5
462
100
AcDbEntity
  8
03__ASM_ALL_CURVES
100
AcDbLine
 62
40
  6
CONTINUOUS
 10
2.9214188868
 20
5.1341029326
 11
2.7873188868
 21
5.1266529326
  0
LINE
  5
463
100
AcDbEntity
  8
03__ASM_ALL_CURVES
100
AcDbLine
 62
40
  6
CONTINUOUS
 10
2.9214188868
 20
5.1303779326
 11
2.7873188868
 21
5.1266529326
  0
LINE
  5
464
100
AcDbEntity
  8
03__ASM_ALL_CURVES
100
AcDbLine
 62
40
  6
CONTINUOUS
 10
7.792243887
 20
5.1713529326
 11
7.736368887
 21
5.1713529326
  0
LINE
  5
465
100
AcDbEntity
  8
03__ASM_ALL_CURVES
100
AcDbLine
 62
40
  6
CONTINUOUS
 10
7.652556387
 20
5.1713529326
 11
7.624618887
 21
5.1713529326
  0
LINE
  5
466
100
AcDbEntity
  8
03__ASM_ALL_CURVES
100
AcDbLine
 62
40
  6
CONTINUOUS
 10
7.436040762
 20
5.1713529326
 11
7.422072012
 21
5.1713529326
  0
LINE
  5
467
100
AcDbEntity
  8
03__ASM_ALL_CURVES
100
AcDbLine
 62
40
  6
CONTINUOUS
 10
7.324290762
 20
5.1713529326
 11
7.310322012
 21
5.1713529326
  0
LINE
  5
468
100
AcDbEntity
  8
03__ASM_ALL_CURVES
100
AcDbLine
 62
40
  6
CONTINUOUS
 10
7.100790762
 20
5.1713529326
 11
7.086822012
 21
5.1713529326
  0
LINE
  5
469
100
AcDbEntity
  8
03__ASM_ALL_CURVES
100
AcDbLine
 62
40
  6
CONTINUOUS
 10
6.877290762
 20
5.1713529326
 11
6.863322012
 21
5.1713529326
  0
LINE
  5
46A
100
AcDbEntity
  8
03__ASM_ALL_CURVES
100
AcDbLine
 62
40
  6
CONTINUOUS
 10
6.318540762
 20
5.1713529326
 11
6.304572012
 21
5.1713529326
  0
LINE
  5
46B
100
AcDbEntity
  8
03__ASM_ALL_CURVES
100
AcDbLine
 62
40
  6
CONTINUOUS
 10
6.206790762
 20
5.1713529326
 11
6.192822012
 21
5.1713529326
  0
LINE
  5
46C
100
AcDbEntity
  8
03__ASM_ALL_CURVES
100
AcDbLine
 62
40
  6
CONTINUOUS
 10
4.7883032618
 20
5.1713529326
 11
4.7743345118
 21
5.1713529326
  0
LINE
  5
46D
100
AcDbEntity
  8
03__ASM_ALL_CURVES
100
AcDbLine
 62
40
  6
CONTINUOUS
 10
4.5578188868
 20
5.1713529326
 11
4.5508345118
 21
5.1713529326
  0
LINE
  5
46E
100
AcDbEntity
  8
03__ASM_ALL_CURVES
100
AcDbLine
 62
40
  6
CONTINUOUS
 10
4.4530532618
 20
5.1713529326
 11
4.4390845118
 21
5.1713529326
  0
LINE
  5
46F
100
AcDbEntity
  8
03__ASM_ALL_CURVES
100
AcDbLine
 62
40
  6
CONTINUOUS
 10
3.8873188868
 20
5.1713529326
 11
3.8803345118
 21
5.1713529326
  0
LINE
  5
470
100
AcDbEntity
  8
03__ASM_ALL_CURVES
100
AcDbLine
 62
40
  6
CONTINUOUS
 10
3.7825532618
 20
5.1713529326
 11
3.7685845118
 21
5.1713529326
  0
LINE
  5
471
100
AcDbEntity
  8
03__ASM_ALL_CURVES
100
AcDbLine
 62
40
  6
CONTINUOUS
 10
6.060118887
 20
5.1713529326
 11
6.115993887
 21
5.1713529326
  0
LINE
  5
472
100
AcDbEntity
  8
03__ASM_ALL_CURVES
100
AcDbLine
 62
40
  6
CONTINUOUS
 10
7.512868887
 20
5.1713529326
 11
7.568743887
 21
5.1713529326
  0
LINE
  5
473
100
AcDbEntity
  8
03__ASM_ALL_CURVES
100
AcDbLine
 62
40
  6
CONTINUOUS
 10
4.6416313868
 20
5.1992904326
 11
4.7044907618
 21
5.1992904326
  0
LINE
  5
474
100
AcDbEntity
  8
03__ASM_ALL_CURVES
100
AcDbLine
 62
40
  6
CONTINUOUS
 10
6.402353262
 20
5.2086029337
 11
6.444259512
 21
5.2086029337
  0
LINE
  5
475
100
AcDbEntity
  8
03__ASM_ALL_CURVES
100
AcDbLine
 62
40
  6
CONTINUOUS
 10
7.883040762
 20
5.2272279326
 11
7.848118887
 21
5.2272279326
  0
LINE
  5
476
100
AcDbEntity
  8
03__ASM_ALL_CURVES
100
AcDbLine
 62
40
  6
CONTINUOUS
 10
6.870306387
 20
5.2272279326
 11
6.898243887
 21
5.2272279326
  0
LINE
  5
477
100
AcDbEntity
  8
03__ASM_ALL_CURVES
100
AcDbLine
 62
40
  6
CONTINUOUS
 10
7.177618887
 20
5.2272279326
 11
7.233493887
 21
5.2272279326
  0
LINE
  5
478
100
AcDbEntity
  8
03__ASM_ALL_CURVES
100
AcDbLine
 62
40
  6
CONTINUOUS
 10
7.736368887
 20
5.2272279326
 11
7.771290762
 21
5.2272279326
  0
LINE
  5
479
100
AcDbEntity
  8
03__ASM_ALL_CURVES
100
AcDbLine
 62
40
  6
CONTINUOUS
 10
3.7685845118
 20
5.2365404304
 11
3.7825532618
 21
5.2365404304
  0
LINE
  5
47A
100
AcDbEntity
  8
03__ASM_ALL_CURVES
100
AcDbLine
 62
40
  6
CONTINUOUS
 10
4.4390845118
 20
5.2365404304
 11
4.4530532618
 21
5.2365404304
  0
LINE
  5
47B
100
AcDbEntity
  8
03__ASM_ALL_CURVES
100
AcDbLine
 62
40
  6
CONTINUOUS
 10
4.7743345118
 20
5.2365404304
 11
4.7883032618
 21
5.2365404304
  0
LINE
  5
47C
100
AcDbEntity
  8
03__ASM_ALL_CURVES
100
AcDbLine
 62
40
  6
CONTINUOUS
 10
7.100790762
 20
5.2831029326
 11
7.086822012
 21
5.2831029326
  0
LINE
  5
47D
100
AcDbEntity
  8
03__ASM_ALL_CURVES
100
AcDbLine
 62
40
  6
CONTINUOUS
 10
4.3622563868
 20
5.2831029326
 11
4.3063813868
 21
5.2831029326
  0
LINE
  5
47E
100
AcDbEntity
  8
03__ASM_ALL_CURVES
100
AcDbLine
 62
40
  6
CONTINUOUS
 10
3.7685845118
 20
5.2831029326
 11
3.7825532618
 21
5.2831029326
  0
LINE
  5
47F
100
AcDbEntity
  8
03__ASM_ALL_CURVES
100
AcDbLine
 62
40
  6
CONTINUOUS
 10
4.4390845118
 20
5.2831029326
 11
4.4530532618
 21
5.2831029326
  0
LINE
  5
480
100
AcDbEntity
  8
03__ASM_ALL_CURVES
100
AcDbLine
 62
40
  6
CONTINUOUS
 10
4.7743345118
 20
5.2831029326
 11
4.7883032618
 21
5.2831029326
  0
LINE
  5
481
100
AcDbEntity
  8
03__ASM_ALL_CURVES
100
AcDbLine
 62
40
  6
CONTINUOUS
 10
6.192822012
 20
5.2831029326
 11
6.206790762
 21
5.2831029326
  0
LINE
  5
482
100
AcDbEntity
  8
03__ASM_ALL_CURVES
100
AcDbLine
 62
40
  6
CONTINUOUS
 10
6.304572012
 20
5.2831029326
 11
6.318540762
 21
5.2831029326
  0
LINE
  5
483
100
AcDbEntity
  8
03__ASM_ALL_CURVES
100
AcDbLine
 62
40
  6
CONTINUOUS
 10
6.500134512
 20
5.2831029326
 11
6.569978262
 21
5.2831029326
  0
LINE
  5
484
100
AcDbEntity
  8
03__ASM_ALL_CURVES
100
AcDbLine
 62
40
  6
CONTINUOUS
 10
6.863322012
 20
5.2831029326
 11
6.877290762
 21
5.2831029326
  0
LINE
  5
485
100
AcDbEntity
  8
03__ASM_ALL_CURVES
100
AcDbLine
 62
40
  6
CONTINUOUS
 10
7.310322012
 20
5.2831029326
 11
7.324290762
 21
5.2831029326
  0
LINE
  5
486
100
AcDbEntity
  8
03__ASM_ALL_CURVES
100
AcDbLine
 62
40
  6
CONTINUOUS
 10
7.624618887
 20
5.2831029326
 11
7.652556387
 21
5.2831029326
  0
LINE
  5
487
100
AcDbEntity
  8
03__ASM_ALL_CURVES
100
AcDbLine
 62
40
  6
CONTINUOUS
 10
7.736368887
 20
5.2831029326
 11
7.792243887
 21
5.2831029326
  0
LINE
  5
488
100
AcDbEntity
  8
03__ASM_ALL_CURVES
100
AcDbLine
 62
40
  6
CONTINUOUS
 10
7.848118887
 20
5.2831029326
 11
7.883040762
 21
5.2831029326
  0
LINE
  5
489
100
AcDbEntity
  8
03__ASM_ALL_CURVES
100
AcDbLine
 62
40
  6
CONTINUOUS
 10
7.7834712311
 20
4.0223944326
 11
7.7729946686
 21
4.0293788078
  0
LINE
  5
48A
100
AcDbEntity
  8
03__ASM_ALL_CURVES
100
AcDbLine
 62
40
  6
CONTINUOUS
 10
7.6158462311
 20
4.1509069326
 11
7.6053696686
 21
4.1578913078
  0
LINE
  5
48B
100
AcDbEntity
  8
03__ASM_ALL_CURVES
100
AcDbLine
 62
40
  6
CONTINUOUS
 10
7.7048970124
 20
4.1062069326
 11
7.7153735749
 21
4.0992225593
  0
LINE
  5
48C
100
AcDbEntity
  8
03__ASM_ALL_CURVES
100
AcDbLine
 62
40
  6
CONTINUOUS
 10
7.5425102936
 20
4.2347194326
 11
7.5529868561
 21
4.2277350593
  0
LINE
  5
48D
100
AcDbEntity
  8
03__ASM_ALL_CURVES
100
AcDbLine
 62
40
  6
CONTINUOUS
 10
7.8672837311
 20
4.0223944326
 11
7.8568071686
 21
4.0293788078
  0
LINE
  5
48E
100
AcDbEntity
  8
03__ASM_ALL_CURVES
100
AcDbLine
 62
40
  6
CONTINUOUS
 10
6.192822012
 20
5.1713529326
 11
6.178853262
 21
5.1806654329
  0
LINE
  5
48F
100
AcDbEntity
  8
03__ASM_ALL_CURVES
100
AcDbLine
 62
40
  6
CONTINUOUS
 10
7.6263227936
 20
4.2347194326
 11
7.6367993561
 21
4.2277350593
  0
LINE
  5
490
100
AcDbEntity
  8
03__ASM_ALL_CURVES
100
AcDbLine
 62
40
  6
CONTINUOUS
 10
7.8777602936
 20
4.1062069326
 11
7.8882368561
 21
4.0992225593
  0
LINE
  5
491
100
AcDbEntity
  8
03__ASM_ALL_CURVES
100
AcDbLine
 62
40
  6
CONTINUOUS
 10
6.304572012
 20
5.1713529326
 11
6.290603262
 21
5.1806654329
  0
LINE
  5
492
100
AcDbEntity
  8
03__ASM_ALL_CURVES
100
AcDbLine
 62
40
  6
CONTINUOUS
 10
7.7101352936
 20
4.2347194326
 11
7.7206118561
 21
4.2277350593
  0
LINE
  5
493
100
AcDbEntity
  8
03__ASM_ALL_CURVES
100
AcDbLine
 62
40
  6
CONTINUOUS
 10
6.206790762
 20
5.2831029326
 11
6.220759512
 21
5.2737904348
  0
LINE
  5
494
100
AcDbEntity
  8
03__ASM_ALL_CURVES
100
AcDbLine
 62
40
  6
CONTINUOUS
 10
6.220759512
 20
5.2737904348
 11
6.234728262
 21
5.2551654326
  0
LINE
  5
495
100
AcDbEntity
  8
03__ASM_ALL_CURVES
100
AcDbLine
 62
40
  6
CONTINUOUS
 10
6.290603262
 20
5.1806654329
 11
6.276634512
 21
5.1992904326
  0
LINE
  5
496
100
AcDbEntity
  8
03__ASM_ALL_CURVES
100
AcDbLine
 62
40
  6
CONTINUOUS
 10
6.332509512
 20
5.2737904348
 11
6.339493887
 21
5.2644779304
  0
LINE
  5
497
100
AcDbEntity
  8
03__ASM_ALL_CURVES
100
AcDbLine
 62
40
  6
CONTINUOUS
 10
6.423306387
 20
5.2831029326
 11
6.458228262
 21
5.1713529326
  0
LINE
  5
498
100
AcDbEntity
  8
03__ASM_ALL_CURVES
100
AcDbLine
 62
40
  6
CONTINUOUS
 10
6.898243887
 20
5.2272279326
 11
6.898243887
 21
5.1899779332
  0
LINE
  5
499
100
AcDbEntity
  8
03__ASM_ALL_CURVES
100
AcDbLine
 62
40
  6
CONTINUOUS
 10
6.9000825165
 20
3.2912319326
 11
6.9000825165
 21
3.3750444326
  0
LINE
  5
49A
100
AcDbEntity
  8
03__ASM_ALL_CURVES
100
AcDbLine
 62
40
  6
CONTINUOUS
 10
6.9341313538
 20
3.5035569326
 11
6.9341313538
 21
3.4197444326
  0
LINE
  5
49B
100
AcDbEntity
  8
0
100
AcDbLine
 62
7
  6
CONTINUOUS
 10
6.9603188868
 20
4.4710569326
 11
6.9603188868
 21
3.7860569326
  0
LINE
  5
49C
100
AcDbEntity
  8
03__ASM_ALL_CURVES
100
AcDbLine
 62
40
  6
CONTINUOUS
 10
7.0048481415
 20
3.3750444326
 11
7.0048481415
 21
3.2912319326
  0
LINE
  5
49D
100
AcDbEntity
  8
0
100
AcDbLine
 62
7
  6
CONTINUOUS
 10
7.0203188868
 20
4.4710569326
 11
7.0203188868
 21
3.7860569326
  0
LINE
  5
49E
100
AcDbEntity
  8
03__ASM_ALL_CURVES
100
AcDbLine
 62
40
  6
CONTINUOUS
 10
7.0388969788
 20
3.4895881809
 11
7.0388969788
 21
3.4756194343
  0
LINE
  5
49F
100
AcDbEntity
  8
03__ASM_ALL_CURVES
100
AcDbLine
 62
40
  6
CONTINUOUS
 10
7.065868887
 20
5.2644779304
 11
7.065868887
 21
5.2551654326
  0
LINE
  5
4A0
100
AcDbEntity
  8
0
100
AcDbLine
 62
7
  6
CONTINUOUS
 10
7.0903188868
 20
3.791557445
 11
7.0903188868
 21
4.4655564202
  0
LINE
  5
4A1
100
AcDbEntity
  8
03__ASM_ALL_CURVES
100
AcDbLine
 62
40
  6
CONTINUOUS
 10
6.7350766663
 20
3.4616506826
 11
6.7403149475
 21
3.4826038076
  0
LINE
  5
4A2
100
AcDbEntity
  8
03__ASM_ALL_CURVES
100
AcDbLine
 62
40
  6
CONTINUOUS
 10
6.7979360413
 20
3.4616506826
 11
6.79269776
 21
3.4406975576
  0
LINE
  5
4A3
100
AcDbEntity
  8
03__ASM_ALL_CURVES
100
AcDbLine
 62
40
  6
CONTINUOUS
 10
7.275400137
 20
5.2272279326
 11
7.282384512
 21
5.2551654326
  0
LINE
  5
4A4
100
AcDbEntity
  8
03__ASM_ALL_CURVES
100
AcDbLine
 62
40
  6
CONTINUOUS
 10
7.359212637
 20
5.2272279326
 11
7.352228262
 21
5.1992904326
  0
LINE
  5
4A5
100
AcDbEntity
  8
03__ASM_ALL_CURVES
100
AcDbLine
 62
40
  6
CONTINUOUS
 10
7.903993887
 20
5.2458529348
 11
7.897009512
 21
5.2365404304
  0
LINE
  5
4A6
100
AcDbEntity
  8
03__ASM_ALL_CURVES
100
AcDbLine
 62
40
  6
CONTINUOUS
 10
6.7036469788
 20
3.4756194343
 11
6.6984086975
 21
3.4686350559
  0
LINE
  5
4A7
100
AcDbEntity
  8
03__ASM_ALL_CURVES
100
AcDbLine
 62
40
  6
CONTINUOUS
 10
6.7403149475
 20
3.4826038076
 11
6.75079151
 21
3.4965725593
  0
LINE
  5
4A8
100
AcDbEntity
  8
03__ASM_ALL_CURVES
100
AcDbLine
 62
40
  6
CONTINUOUS
 10
7.6367993561
 20
4.1578913078
 11
7.6263227936
 21
4.1509069326
  0
LINE
  5
4A9
100
AcDbEntity
  8
03__ASM_ALL_CURVES
100
AcDbLine
 62
40
  6
CONTINUOUS
 10
7.7206118561
 20
4.1997975559
 11
7.7101352936
 21
4.1928131826
  0
LINE
  5
4AA
100
AcDbEntity
  8
03__ASM_ALL_CURVES
100
AcDbLine
 62
40
  6
CONTINUOUS
 10
7.5529868561
 20
4.0712850559
 11
7.5425102936
 21
4.0643006826
  0
LINE
  5
4AB
100
AcDbEntity
  8
03__ASM_ALL_CURVES
100
AcDbLine
 62
40
  6
CONTINUOUS
 10
6.6984086975
 20
3.4686350559
 11
6.687932135
 21
3.4616506826
  0
LINE
  5
4AC
100
AcDbEntity
  8
03__ASM_ALL_CURVES
100
AcDbLine
 62
40
  6
CONTINUOUS
 10
6.75079151
 20
3.4965725593
 11
6.7612680725
 21
3.5035569326
  0
LINE
  5
4AD
100
AcDbEntity
  8
03__ASM_ALL_CURVES
100
AcDbLine
 62
40
  6
CONTINUOUS
 10
6.7822211975
 20
3.4267288078
 11
6.771744635
 21
3.4197444326
  0
LINE
  5
4AE
100
AcDbEntity
  8
03__ASM_ALL_CURVES
100
AcDbLine
 62
40
  6
CONTINUOUS
 10
6.8660336975
 20
3.4686350559
 11
6.855557135
 21
3.4616506826
  0
LINE
  5
4AF
100
AcDbEntity
  8
03__ASM_ALL_CURVES
100
AcDbLine
 62
40
  6
CONTINUOUS
 10
7.7153735749
 20
4.0293788078
 11
7.7048970124
 21
4.0223944326
  0
LINE
  5
4B0
100
AcDbEntity
  8
03__ASM_ALL_CURVES
100
AcDbLine
 62
40
  6
CONTINUOUS
 10
7.8568071686
 20
4.0992225593
 11
7.8672837311
 21
4.1062069326
  0
LINE
  5
4B1
100
AcDbEntity
  8
03__ASM_ALL_CURVES
100
AcDbLine
 62
40
  6
CONTINUOUS
 10
2.9214188868
 20
5.1452779326
 11
2.7873188868
 21
5.1266529326
  0
LINE
  5
4B2
100
AcDbEntity
  8
03__ASM_ALL_CURVES
100
AcDbLine
 62
40
  6
CONTINUOUS
 10
2.9214188868
 20
5.1415529326
 11
2.7873188868
 21
5.1266529326
  0
LINE
  5
4B3
100
AcDbEntity
  8
03__ASM_ALL_CURVES
100
AcDbLine
 62
40
  6
CONTINUOUS
 10
2.9214188868
 20
5.1378279326
 11
2.7873188868
 21
5.1266529326
  0
LINE
  5
4B4
100
AcDbEntity
  8
03__ASM_ALL_CURVES
100
AcDbLine
 62
40
  6
CONTINUOUS
 10
8.0401470124
 20
4.1062069326
 11
8.0506235749
 21
4.0992225593
  0
LINE
  5
4B5
100
AcDbEntity
  8
03__ASM_ALL_CURVES
100
AcDbLine
 62
40
  6
CONTINUOUS
 10
6.318540762
 20
5.2831029326
 11
6.332509512
 21
5.2737904348
  0
LINE
  5
4B6
100
AcDbEntity
  8
03__ASM_ALL_CURVES
100
AcDbLine
 62
40
  6
CONTINUOUS
 10
8.2130102936
 20
4.1062069326
 11
8.2234868561
 21
4.0992225593
  0
LINE
  5
4B7
100
AcDbEntity
  8
03__ASM_ALL_CURVES
100
AcDbLine
 62
40
  6
CONTINUOUS
 10
8.2968227936
 20
4.1062069326
 11
8.3072993561
 21
4.0992225593
  0
LINE
  5
4B8
100
AcDbEntity
  8
03__ASM_ALL_CURVES
100
AcDbLine
 62
40
  6
CONTINUOUS
 10
8.4539712311
 20
4.0223944326
 11
8.4434946686
 21
4.0293788078
  0
LINE
  5
4B9
100
AcDbEntity
  8
03__ASM_ALL_CURVES
100
AcDbLine
 62
40
  6
CONTINUOUS
 10
8.4434946686
 20
4.0782694343
 11
8.4749243561
 21
4.0573163068
  0
LINE
  5
4BA
100
AcDbEntity
  8
03__ASM_ALL_CURVES
100
AcDbLine
 62
40
  6
CONTINUOUS
 10
8.5377837311
 20
4.0223944326
 11
8.5273071686
 21
4.0293788078
  0
LINE
  5
4BB
100
AcDbEntity
  8
0
100
AcDbLine
 62
7
  6
CONTINUOUS
 10
7.2528188868
 20
4.4708069326
 11
7.2678188868
 21
4.4558069326
  0
LINE
  5
4BC
100
AcDbEntity
  8
03__ASM_ALL_CURVES
100
AcDbLine
 62
40
  6
CONTINUOUS
 10
7.5529868561
 20
4.0992225593
 11
7.5582251374
 21
4.0922381809
  0
LINE
  5
4BD
100
AcDbEntity
  8
03__ASM_ALL_CURVES
100
AcDbLine
 62
40
  6
CONTINUOUS
 10
6.730618887
 20
5.2831029326
 11
6.786493887
 21
5.1713529326
  0
LINE
  5
4BE
100
AcDbEntity
  8
03__ASM_ALL_CURVES
100
AcDbLine
 62
40
  6
CONTINUOUS
 10
6.835384512
 20
5.1992904326
 11
6.828400137
 21
5.2272279326
  0
LINE
  5
4BF
100
AcDbEntity
  8
03__ASM_ALL_CURVES
100
AcDbLine
 62
40
  6
CONTINUOUS
 10
7.121743887
 20
5.2086029337
 11
7.121743887
 21
5.1899779332
  0
LINE
  5
4C0
100
AcDbEntity
  8
0
100
AcDbLine
 62
7
  6
CONTINUOUS
 10
7.1403188868
 20
3.791557445
 11
7.1403188868
 21
4.4655564202
  0
LINE
  5
4C1
100
AcDbEntity
  8
0
100
AcDbLine
 62
7
  6
CONTINUOUS
 10
7.1598188868
 20
3.7863074529
 11
7.1598188868
 21
4.4708064123
  0
LINE
  5
4C2
100
AcDbEntity
  8
03__ASM_ALL_CURVES
100
AcDbLine
 62
40
  6
CONTINUOUS
 10
7.177618887
 20
5.2831029326
 11
7.177618887
 21
5.1713529326
  0
LINE
  5
4C3
100
AcDbEntity
  8
03__ASM_ALL_CURVES
100
AcDbLine
 62
40
  6
CONTINUOUS
 10
7.233493887
 20
5.2831029326
 11
7.233493887
 21
5.1713529326
  0
LINE
  5
4C4
100
AcDbEntity
  8
0
100
AcDbLine
 62
7
  6
CONTINUOUS
 10
7.2528188868
 20
3.7863069326
 11
7.2528188868
 21
4.4708069326
  0
LINE
  5
4C5
100
AcDbEntity
  8
0
100
AcDbLine
 62
7
  6
CONTINUOUS
 10
7.2678188868
 20
3.801310767
 11
7.2678188868
 21
4.4558030981
  0
LINE
  5
4C6
100
AcDbEntity
  8
03__ASM_ALL_CURVES
100
AcDbLine
 62
40
  6
CONTINUOUS
 10
7.00222901
 20
3.4406975576
 11
6.9969907288
 21
3.4197444326
  0
LINE
  5
4C7
100
AcDbEntity
  8
03__ASM_ALL_CURVES
100
AcDbLine
 62
40
  6
CONTINUOUS
 10
6.79269776
 20
3.4406975576
 11
6.7822211975
 21
3.4267288078
  0
LINE
  5
4C8
100
AcDbEntity
  8
03__ASM_ALL_CURVES
100
AcDbLine
 62
40
  6
CONTINUOUS
 10
6.8712719788
 20
3.4756194343
 11
6.8660336975
 21
3.4686350559
  0
LINE
  5
4C9
100
AcDbEntity
  8
03__ASM_ALL_CURVES
100
AcDbLine
 62
40
  6
CONTINUOUS
 10
6.9969907288
 20
3.4895881809
 11
7.00222901
 21
3.4965725593
  0
LINE
  5
4CA
100
AcDbEntity
  8
03__ASM_ALL_CURVES
100
AcDbLine
 62
40
  6
CONTINUOUS
 10
7.5582251374
 20
4.2067819343
 11
7.5529868561
 21
4.1997975559
  0
LINE
  5
4CB
100
AcDbEntity
  8
03__ASM_ALL_CURVES
100
AcDbLine
 62
40
  6
CONTINUOUS
 10
7.0127055725
 20
3.4546663068
 11
7.00222901
 21
3.4406975576
  0
LINE
  5
4CC
100
AcDbEntity
  8
03__ASM_ALL_CURVES
100
AcDbLine
 62
40
  6
CONTINUOUS
 10
7.0388969788
 20
3.4756194343
 11
7.0336586975
 21
3.4686350559
  0
LINE
  5
4CD
100
AcDbEntity
  8
03__ASM_ALL_CURVES
100
AcDbLine
 62
40
  6
CONTINUOUS
 10
7.5948931061
 20
4.2137663076
 11
7.6053696686
 21
4.2277350593
  0
LINE
  5
4CE
100
AcDbEntity
  8
0
100
AcDbLine
 62
7
  6
CONTINUOUS
 10
7.2528188868
 20
3.7863069326
 11
7.2678188868
 21
3.8013069326
  0
LINE
  5
4CF
100
AcDbEntity
  8
03__ASM_ALL_CURVES
100
AcDbLine
 62
40
  6
CONTINUOUS
 10
7.00222901
 20
3.4965725593
 11
7.0127055725
 21
3.5035569326
  0
LINE
  5
4D0
100
AcDbEntity
  8
03__ASM_ALL_CURVES
100
AcDbLine
 62
40
  6
CONTINUOUS
 10
7.8044243561
 20
4.0293788078
 11
7.7939477936
 21
4.0223944326
  0
LINE
  5
4D1
100
AcDbEntity
  8
03__ASM_ALL_CURVES
100
AcDbLine
 62
40
  6
CONTINUOUS
 10
7.0336586975
 20
3.4686350559
 11
7.0127055725
 21
3.4546663068
  0
LINE
  5
4D2
100
AcDbEntity
  8
03__ASM_ALL_CURVES
100
AcDbLine
 62
40
  6
CONTINUOUS
 10
7.8882368561
 20
4.0293788078
 11
7.8777602936
 21
4.0223944326
  0
LINE
  5
4D3
100
AcDbEntity
  8
03__ASM_ALL_CURVES
100
AcDbLine
 62
40
  6
CONTINUOUS
 10
8.0506235749
 20
4.0293788078
 11
8.0401470124
 21
4.0223944326
  0
LINE
  5
4D4
100
AcDbEntity
  8
03__ASM_ALL_CURVES
100
AcDbLine
 62
40
  6
CONTINUOUS
 10
2.7873188868
 20
5.1266529326
 11
2.9214188868
 21
5.1490029326
  0
LINE
  5
4D5
100
AcDbEntity
  8
03__ASM_ALL_CURVES
100
AcDbLine
 62
40
  6
CONTINUOUS
 10
6.863322012
 20
5.1713529326
 11
6.849353262
 21
5.1806654329
  0
LINE
  5
4D6
100
AcDbEntity
  8
03__ASM_ALL_CURVES
100
AcDbLine
 62
40
  6
CONTINUOUS
 10
8.4749243561
 20
4.0992225593
 11
8.4644477936
 21
4.1062069326
  0
LINE
  5
4D7
100
AcDbEntity
  8
03__ASM_ALL_CURVES
100
AcDbLine
 62
40
  6
CONTINUOUS
 10
8.5273071686
 20
4.0782694343
 11
8.5587368561
 21
4.0573163068
  0
LINE
  5
4D8
100
AcDbEntity
  8
03__ASM_ALL_CURVES
100
AcDbLine
 62
40
  6
CONTINUOUS
 10
8.6215962311
 20
4.0223944326
 11
8.6111196686
 21
4.0293788078
  0
LINE
  5
4D9
100
AcDbEntity
  8
03__ASM_ALL_CURVES
100
AcDbLine
 62
40
  6
CONTINUOUS
 10
8.5587368561
 20
4.0992225593
 11
8.5482602936
 21
4.1062069326
  0
LINE
  5
4DA
100
AcDbEntity
  8
03__ASM_ALL_CURVES
100
AcDbLine
 62
40
  6
CONTINUOUS
 10
6.877290762
 20
5.2831029326
 11
6.891259512
 21
5.2737904348
  0
LINE
  5
4DB
100
AcDbEntity
  8
03__ASM_ALL_CURVES
100
AcDbLine
 62
40
  6
CONTINUOUS
 10
7.086822012
 20
5.1713529326
 11
7.072853262
 21
5.1806654329
  0
LINE
  5
4DC
100
AcDbEntity
  8
03__ASM_ALL_CURVES
100
AcDbLine
 62
40
  6
CONTINUOUS
 10
8.7158852936
 20
4.1062069326
 11
8.7263618561
 21
4.0992225593
  0
LINE
  5
4DD
100
AcDbEntity
  8
03__ASM_ALL_CURVES
100
AcDbLine
 62
40
  6
CONTINUOUS
 10
7.072853262
 20
5.2458529348
 11
7.114759512
 21
5.2179154315
  0
LINE
  5
4DE
100
AcDbEntity
  8
03__ASM_ALL_CURVES
100
AcDbLine
 62
40
  6
CONTINUOUS
 10
7.6053696686
 20
4.1578913078
 11
7.5948931061
 21
4.1718600576
  0
LINE
  5
4DF
100
AcDbEntity
  8
03__ASM_ALL_CURVES
100
AcDbLine
 62
40
  6
CONTINUOUS
 10
7.5529868561
 20
4.2277350593
 11
7.5582251374
 21
4.2207506809
  0
LINE
  5
4E0
100
AcDbEntity
  8
03__ASM_ALL_CURVES
100
AcDbLine
 62
40
  6
CONTINUOUS
 10
6.849353262
 20
5.1806654329
 11
6.835384512
 21
5.1992904326
  0
LINE
  5
4E1
100
AcDbEntity
  8
03__ASM_ALL_CURVES
100
AcDbLine
 62
40
  6
CONTINUOUS
 10
7.7153735749
 20
4.0992225593
 11
7.7258501374
 21
4.0852538076
  0
LINE
  5
4E2
100
AcDbEntity
  8
03__ASM_ALL_CURVES
100
AcDbLine
 62
40
  6
CONTINUOUS
 10
7.7729946686
 20
4.0293788078
 11
7.7677563874
 21
4.036363183
  0
LINE
  5
4E3
100
AcDbEntity
  8
03__ASM_ALL_CURVES
100
AcDbLine
 62
40
  6
CONTINUOUS
 10
7.6367993561
 20
4.2277350593
 11
7.6472759186
 21
4.2137663076
  0
LINE
  5
4E4
100
AcDbEntity
  8
03__ASM_ALL_CURVES
100
AcDbLine
 62
40
  6
CONTINUOUS
 10
6.891259512
 20
5.2737904348
 11
6.898243887
 21
5.2644779304
  0
LINE
  5
4E5
100
AcDbEntity
  8
03__ASM_ALL_CURVES
100
AcDbLine
 62
40
  6
CONTINUOUS
 10
7.8568071686
 20
4.0293788078
 11
7.8463306061
 21
4.0433475576
  0
LINE
  5
4E6
100
AcDbEntity
  8
03__ASM_ALL_CURVES
100
AcDbLine
 62
40
  6
CONTINUOUS
 10
7.7206118561
 20
4.2277350593
 11
7.7258501374
 21
4.2207506809
  0
LINE
  5
4E7
100
AcDbEntity
  8
03__ASM_ALL_CURVES
100
AcDbLine
 62
40
  6
CONTINUOUS
 10
7.401118887
 20
5.1899779332
 11
7.401118887
 21
5.2831029326
  0
LINE
  5
4E8
100
AcDbEntity
  8
03__ASM_ALL_CURVES
100
AcDbLine
 62
40
  6
CONTINUOUS
 10
7.456993887
 20
5.2831029326
 11
7.456993887
 21
5.1899779332
  0
LINE
  5
4E9
100
AcDbEntity
  8
03__ASM_ALL_CURVES
100
AcDbLine
 62
40
  6
CONTINUOUS
 10
7.512868887
 20
5.2831029326
 11
7.512868887
 21
5.1713529326
  0
LINE
  5
4EA
100
AcDbEntity
  8
03__ASM_ALL_CURVES
100
AcDbLine
 62
40
  6
CONTINUOUS
 10
7.5163188874
 20
4.0223944326
 11
7.5163188874
 21
4.1062069326
  0
LINE
  5
4EB
100
AcDbEntity
  8
03__ASM_ALL_CURVES
100
AcDbLine
 62
40
  6
CONTINUOUS
 10
7.5163188874
 20
4.1509069326
 11
7.5163188874
 21
4.2347194326
  0
LINE
  5
4EC
100
AcDbEntity
  8
03__ASM_ALL_CURVES
100
AcDbLine
 62
40
  6
CONTINUOUS
 10
7.687478262
 20
5.2272279326
 11
7.680493887
 21
5.1992904326
  0
LINE
  5
4ED
100
AcDbEntity
  8
03__ASM_ALL_CURVES
100
AcDbLine
 62
40
  6
CONTINUOUS
 10
7.5582251374
 20
4.0782694343
 11
7.5529868561
 21
4.0712850559
  0
LINE
  5
4EE
100
AcDbEntity
  8
03__ASM_ALL_CURVES
100
AcDbLine
 62
40
  6
CONTINUOUS
 10
7.6472759186
 20
4.1718600576
 11
7.6367993561
 21
4.1578913078
  0
LINE
  5
4EF
100
AcDbEntity
  8
03__ASM_ALL_CURVES
100
AcDbLine
 62
40
  6
CONTINUOUS
 10
7.7258501374
 20
4.2067819343
 11
7.7206118561
 21
4.1997975559
  0
LINE
  5
4F0
100
AcDbEntity
  8
03__ASM_ALL_CURVES
100
AcDbLine
 62
40
  6
CONTINUOUS
 10
7.7258501374
 20
4.0433475576
 11
7.7153735749
 21
4.0293788078
  0
LINE
  5
4F1
100
AcDbEntity
  8
03__ASM_ALL_CURVES
100
AcDbLine
 62
40
  6
CONTINUOUS
 10
8.2234868561
 20
4.0712850559
 11
8.2130102936
 21
4.0643006826
  0
LINE
  5
4F2
100
AcDbEntity
  8
03__ASM_ALL_CURVES
100
AcDbLine
 62
40
  6
CONTINUOUS
 10
8.3072993561
 20
4.0712850559
 11
8.2968227936
 21
4.0643006826
  0
LINE
  5
4F3
100
AcDbEntity
  8
03__ASM_ALL_CURVES
100
AcDbLine
 62
40
  6
CONTINUOUS
 10
8.4539712311
 20
4.1062069326
 11
8.4434946686
 21
4.0992225593
  0
LINE
  5
4F4
100
AcDbEntity
  8
03__ASM_ALL_CURVES
100
AcDbLine
 62
40
  6
CONTINUOUS
 10
8.5377837311
 20
4.1062069326
 11
8.5273071686
 21
4.0992225593
  0
LINE
  5
4F5
100
AcDbEntity
  8
03__ASM_ALL_CURVES
100
AcDbLine
 62
40
  6
CONTINUOUS
 10
8.4749243561
 20
4.0293788078
 11
8.4644477936
 21
4.0223944326
  0
LINE
  5
4F6
100
AcDbEntity
  8
03__ASM_ALL_CURVES
100
AcDbLine
 62
40
  6
CONTINUOUS
 10
7.114759512
 20
5.2737904348
 11
7.100790762
 21
5.2831029326
  0
LINE
  5
4F7
100
AcDbEntity
  8
03__ASM_ALL_CURVES
100
AcDbLine
 62
40
  6
CONTINUOUS
 10
7.310322012
 20
5.1713529326
 11
7.296353262
 21
5.1806654329
  0
LINE
  5
4F8
100
AcDbEntity
  8
03__ASM_ALL_CURVES
100
AcDbLine
 62
40
  6
CONTINUOUS
 10
7.422072012
 20
5.1713529326
 11
7.408103262
 21
5.1806654329
  0
LINE
  5
4F9
100
AcDbEntity
  8
03__ASM_ALL_CURVES
100
AcDbLine
 62
40
  6
CONTINUOUS
 10
7.324290762
 20
5.2831029326
 11
7.338259512
 21
5.2737904348
  0
LINE
  5
4FA
100
AcDbEntity
  8
03__ASM_ALL_CURVES
100
AcDbLine
 62
40
  6
CONTINUOUS
 10
7.072853262
 20
5.1806654329
 11
7.058884512
 21
5.1992904326
  0
LINE
  5
4FB
100
AcDbEntity
  8
03__ASM_ALL_CURVES
100
AcDbLine
 62
40
  6
CONTINUOUS
 10
7.8882368561
 20
4.0992225593
 11
7.8934751374
 21
4.0922381809
  0
LINE
  5
4FC
100
AcDbEntity
  8
03__ASM_ALL_CURVES
100
AcDbLine
 62
40
  6
CONTINUOUS
 10
7.065868887
 20
5.2551654326
 11
7.072853262
 21
5.2458529348
  0
LINE
  5
4FD
100
AcDbEntity
  8
03__ASM_ALL_CURVES
100
AcDbLine
 62
40
  6
CONTINUOUS
 10
7.114759512
 20
5.2179154315
 11
7.121743887
 21
5.2086029337
  0
LINE
  5
4FE
100
AcDbEntity
  8
03__ASM_ALL_CURVES
100
AcDbLine
 62
40
  6
CONTINUOUS
 10
7.121743887
 20
5.2644779304
 11
7.114759512
 21
5.2737904348
  0
LINE
  5
4FF
100
AcDbEntity
  8
03__ASM_ALL_CURVES
100
AcDbLine
 62
40
  6
CONTINUOUS
 10
8.0506235749
 20
4.0992225593
 11
8.0611001374
 21
4.0852538076
  0
LINE
  5
500
100
AcDbEntity
  8
03__ASM_ALL_CURVES
100
AcDbLine
 62
40
  6
CONTINUOUS
 10
7.5425102936
 20
4.0643006826
 11
7.5582251374
 21
4.0223944326
  0
LINE
  5
501
100
AcDbEntity
  8
03__ASM_ALL_CURVES
100
AcDbLine
 62
40
  6
CONTINUOUS
 10
7.282384512
 20
5.1992904326
 11
7.275400137
 21
5.2272279326
  0
LINE
  5
502
100
AcDbEntity
  8
03__ASM_ALL_CURVES
100
AcDbLine
 62
40
  6
CONTINUOUS
 10
7.5948931061
 20
4.1718600576
 11
7.5896548249
 21
4.1928131826
  0
LINE
  5
503
100
AcDbEntity
  8
03__ASM_ALL_CURVES
100
AcDbLine
 62
40
  6
CONTINUOUS
 10
7.5582251374
 20
4.2207506809
 11
7.5582251374
 21
4.2067819343
  0
LINE
  5
504
100
AcDbEntity
  8
03__ASM_ALL_CURVES
100
AcDbLine
 62
40
  6
CONTINUOUS
 10
7.5582251374
 20
4.0922381809
 11
7.5582251374
 21
4.0782694343
  0
LINE
  5
505
100
AcDbEntity
  8
03__ASM_ALL_CURVES
100
AcDbLine
 62
40
  6
CONTINUOUS
 10
7.6001313874
 20
4.0223944326
 11
7.6001313874
 21
4.1062069326
  0
LINE
  5
506
100
AcDbEntity
  8
03__ASM_ALL_CURVES
100
AcDbLine
 62
40
  6
CONTINUOUS
 10
7.624618887
 20
5.1713529326
 11
7.624618887
 21
5.2831029326
  0
LINE
  5
507
100
AcDbEntity
  8
03__ASM_ALL_CURVES
100
AcDbLine
 62
40
  6
CONTINUOUS
 10
7.6839438874
 20
4.0223944326
 11
7.6839438874
 21
4.1062069326
  0
LINE
  5
508
100
AcDbEntity
  8
03__ASM_ALL_CURVES
100
AcDbLine
 62
40
  6
CONTINUOUS
 10
7.6839438874
 20
4.1509069326
 11
7.6839438874
 21
4.2347194326
  0
LINE
  5
509
100
AcDbEntity
  8
03__ASM_ALL_CURVES
100
AcDbLine
 62
40
  6
CONTINUOUS
 10
7.7258501374
 20
4.2207506809
 11
7.7258501374
 21
4.2067819343
  0
LINE
  5
50A
100
AcDbEntity
  8
03__ASM_ALL_CURVES
100
AcDbLine
 62
40
  6
CONTINUOUS
 10
7.5896548249
 20
4.1928131826
 11
7.5948931061
 21
4.2137663076
  0
LINE
  5
50B
100
AcDbEntity
  8
03__ASM_ALL_CURVES
100
AcDbLine
 62
40
  6
CONTINUOUS
 10
7.6525141999
 20
4.1928131826
 11
7.6472759186
 21
4.1718600576
  0
LINE
  5
50C
100
AcDbEntity
  8
03__ASM_ALL_CURVES
100
AcDbLine
 62
40
  6
CONTINUOUS
 10
7.7310884186
 20
4.0643006826
 11
7.7258501374
 21
4.0433475576
  0
LINE
  5
50D
100
AcDbEntity
  8
03__ASM_ALL_CURVES
100
AcDbLine
 62
40
  6
CONTINUOUS
 10
7.8096626374
 20
4.036363183
 11
7.8044243561
 21
4.0293788078
  0
LINE
  5
50E
100
AcDbEntity
  8
03__ASM_ALL_CURVES
100
AcDbLine
 62
40
  6
CONTINUOUS
 10
7.8463306061
 20
4.0852538076
 11
7.8568071686
 21
4.0992225593
  0
LINE
  5
50F
100
AcDbEntity
  8
03__ASM_ALL_CURVES
100
AcDbLine
 62
40
  6
CONTINUOUS
 10
7.8934751374
 20
4.036363183
 11
7.8882368561
 21
4.0293788078
  0
LINE
  5
510
100
AcDbEntity
  8
03__ASM_ALL_CURVES
100
AcDbLine
 62
40
  6
CONTINUOUS
 10
8.5587368561
 20
4.0293788078
 11
8.5482602936
 21
4.0223944326
  0
LINE
  5
511
100
AcDbEntity
  8
03__ASM_ALL_CURVES
100
AcDbLine
 62
40
  6
CONTINUOUS
 10
8.6425493561
 20
4.0293788078
 11
8.6320727936
 21
4.0223944326
  0
LINE
  5
512
100
AcDbEntity
  8
03__ASM_ALL_CURVES
100
AcDbLine
 62
40
  6
CONTINUOUS
 10
8.7263618561
 20
4.0712850559
 11
8.7158852936
 21
4.0643006826
  0
LINE
  5
513
100
AcDbEntity
  8
03__ASM_ALL_CURVES
100
AcDbLine
 62
40
  6
CONTINUOUS
 10
7.652556387
 20
5.2831029326
 11
7.666525137
 21
5.2737904348
  0
LINE
  5
514
100
AcDbEntity
  8
03__ASM_ALL_CURVES
100
AcDbLine
 62
40
  6
CONTINUOUS
 10
7.296353262
 20
5.1806654329
 11
7.282384512
 21
5.1992904326
  0
LINE
  5
515
100
AcDbEntity
  8
03__ASM_ALL_CURVES
100
AcDbLine
 62
40
  6
CONTINUOUS
 10
7.338259512
 20
5.2737904348
 11
7.352228262
 21
5.2551654326
  0
LINE
  5
516
100
AcDbEntity
  8
03__ASM_ALL_CURVES
100
AcDbLine
 62
40
  6
CONTINUOUS
 10
7.408103262
 20
5.1806654329
 11
7.401118887
 21
5.1899779332
  0
LINE
  5
517
100
AcDbEntity
  8
03__ASM_ALL_CURVES
100
AcDbLine
 62
40
  6
CONTINUOUS
 10
8.2234868561
 20
4.0992225593
 11
8.2287251374
 21
4.0922381809
  0
LINE
  5
518
100
AcDbEntity
  8
03__ASM_ALL_CURVES
100
AcDbLine
 62
40
  6
CONTINUOUS
 10
8.3072993561
 20
4.0992225593
 11
8.3125376374
 21
4.0922381809
  0
LINE
  5
519
100
AcDbEntity
  8
03__ASM_ALL_CURVES
100
AcDbLine
 62
40
  6
CONTINUOUS
 10
7.7101352936
 20
4.1928131826
 11
7.7258501374
 21
4.1509069326
  0
LINE
  5
51A
100
AcDbEntity
  8
03__ASM_ALL_CURVES
100
AcDbLine
 62
40
  6
CONTINUOUS
 10
7.352228262
 20
5.2551654326
 11
7.359212637
 21
5.2272279326
  0
LINE
  5
51B
100
AcDbEntity
  8
03__ASM_ALL_CURVES
100
AcDbLine
 62
40
  6
CONTINUOUS
 10
7.6472759186
 20
4.2137663076
 11
7.6525141999
 21
4.1928131826
  0
LINE
  5
51C
100
AcDbEntity
  8
03__ASM_ALL_CURVES
100
AcDbLine
 62
40
  6
CONTINUOUS
 10
7.7258501374
 20
4.0852538076
 11
7.7310884186
 21
4.0643006826
  0
LINE
  5
51D
100
AcDbEntity
  8
03__ASM_ALL_CURVES
100
AcDbLine
 62
40
  6
CONTINUOUS
 10
7.8463306061
 20
4.0433475576
 11
7.8410923249
 21
4.0643006826
  0
LINE
  5
51E
100
AcDbEntity
  8
03__ASM_ALL_CURVES
100
AcDbLine
 62
40
  6
CONTINUOUS
 10
7.736368887
 20
5.1713529326
 11
7.736368887
 21
5.2831029326
  0
LINE
  5
51F
100
AcDbEntity
  8
03__ASM_ALL_CURVES
100
AcDbLine
 62
40
  6
CONTINUOUS
 10
7.7677563874
 20
4.036363183
 11
7.7677563874
 21
4.1062069326
  0
LINE
  5
520
100
AcDbEntity
  8
03__ASM_ALL_CURVES
100
AcDbLine
 62
40
  6
CONTINUOUS
 10
7.7887095124
 20
4.2347194326
 11
7.7887095124
 21
4.1509069326
  0
LINE
  5
521
100
AcDbEntity
  8
03__ASM_ALL_CURVES
100
AcDbLine
 62
40
  6
CONTINUOUS
 10
7.8096626374
 20
4.1062069326
 11
7.8096626374
 21
4.036363183
  0
LINE
  5
522
100
AcDbEntity
  8
03__ASM_ALL_CURVES
100
AcDbLine
 62
40
  6
CONTINUOUS
 10
7.848118887
 20
5.1713529326
 11
7.848118887
 21
5.2831029326
  0
LINE
  5
523
100
AcDbEntity
  8
03__ASM_ALL_CURVES
100
AcDbLine
 62
40
  6
CONTINUOUS
 10
7.8725220124
 20
4.2347194326
 11
7.8725220124
 21
4.1509069326
  0
LINE
  5
524
100
AcDbEntity
  8
03__ASM_ALL_CURVES
100
AcDbLine
 62
40
  6
CONTINUOUS
 10
7.903993887
 20
5.2644779304
 11
7.903993887
 21
5.2458529348
  0
LINE
  5
525
100
AcDbEntity
  8
03__ASM_ALL_CURVES
100
AcDbLine
 62
40
  6
CONTINUOUS
 10
7.9353813874
 20
4.0223944326
 11
7.9353813874
 21
4.1062069326
  0
LINE
  5
526
100
AcDbEntity
  8
03__ASM_ALL_CURVES
100
AcDbLine
 62
40
  6
CONTINUOUS
 10
7.8410923249
 20
4.0643006826
 11
7.8463306061
 21
4.0852538076
  0
LINE
  5
527
100
AcDbEntity
  8
03__ASM_ALL_CURVES
100
AcDbLine
 62
40
  6
CONTINUOUS
 10
8.0611001374
 20
4.0433475576
 11
8.0506235749
 21
4.0293788078
  0
LINE
  5
528
100
AcDbEntity
  8
03__ASM_ALL_CURVES
100
AcDbLine
 62
40
  6
CONTINUOUS
 10
8.2287251374
 20
4.0782694343
 11
8.2234868561
 21
4.0712850559
  0
LINE
  5
529
100
AcDbEntity
  8
03__ASM_ALL_CURVES
100
AcDbLine
 62
40
  6
CONTINUOUS
 10
8.3125376374
 20
4.0782694343
 11
8.3072993561
 21
4.0712850559
  0
LINE
  5
52A
100
AcDbEntity
  8
03__ASM_ALL_CURVES
100
AcDbLine
 62
40
  6
CONTINUOUS
 10
7.883040762
 20
5.2831029326
 11
7.897009512
 21
5.2737904348
  0
LINE
  5
52B
100
AcDbEntity
  8
03__ASM_ALL_CURVES
100
AcDbLine
 62
40
  6
CONTINUOUS
 10
8.4434946686
 20
4.0293788078
 11
8.4330181061
 21
4.0433475576
  0
LINE
  5
52C
100
AcDbEntity
  8
03__ASM_ALL_CURVES
100
AcDbLine
 62
40
  6
CONTINUOUS
 10
8.4382563874
 20
4.0852538076
 11
8.4434946686
 21
4.0782694343
  0
LINE
  5
52D
100
AcDbEntity
  8
03__ASM_ALL_CURVES
100
AcDbLine
 62
40
  6
CONTINUOUS
 10
8.4749243561
 20
4.0573163068
 11
8.4801626374
 21
4.0503319334
  0
LINE
  5
52E
100
AcDbEntity
  8
03__ASM_ALL_CURVES
100
AcDbLine
 62
40
  6
CONTINUOUS
 10
8.5273071686
 20
4.0293788078
 11
8.5168306061
 21
4.0433475576
  0
LINE
  5
52F
100
AcDbEntity
  8
03__ASM_ALL_CURVES
100
AcDbLine
 62
40
  6
CONTINUOUS
 10
8.4801626374
 20
4.0922381809
 11
8.4749243561
 21
4.0992225593
  0
LINE
  5
530
100
AcDbEntity
  8
03__ASM_ALL_CURVES
100
AcDbLine
 62
40
  6
CONTINUOUS
 10
8.5220688874
 20
4.0852538076
 11
8.5273071686
 21
4.0782694343
  0
LINE
  5
531
100
AcDbEntity
  8
03__ASM_ALL_CURVES
100
AcDbLine
 62
40
  6
CONTINUOUS
 10
8.5587368561
 20
4.0573163068
 11
8.5639751374
 21
4.0503319334
  0
LINE
  5
532
100
AcDbEntity
  8
03__ASM_ALL_CURVES
100
AcDbLine
 62
40
  6
CONTINUOUS
 10
7.666525137
 20
5.2737904348
 11
7.680493887
 21
5.2551654326
  0
LINE
  5
533
100
AcDbEntity
  8
03__ASM_ALL_CURVES
100
AcDbLine
 62
40
  6
CONTINUOUS
 10
8.6111196686
 20
4.0293788078
 11
8.6058813874
 21
4.036363183
  0
LINE
  5
534
100
AcDbEntity
  8
03__ASM_ALL_CURVES
100
AcDbLine
 62
40
  6
CONTINUOUS
 10
8.5639751374
 20
4.0922381809
 11
8.5587368561
 21
4.0992225593
  0
LINE
  5
535
100
AcDbEntity
  8
03__ASM_ALL_CURVES
100
AcDbLine
 62
40
  6
CONTINUOUS
 10
7.680493887
 20
5.2551654326
 11
7.687478262
 21
5.2272279326
  0
LINE
  5
536
100
AcDbEntity
  8
03__ASM_ALL_CURVES
100
AcDbLine
 62
40
  6
CONTINUOUS
 10
8.0611001374
 20
4.0852538076
 11
8.0663384186
 21
4.0643006826
  0
LINE
  5
537
100
AcDbEntity
  8
03__ASM_ALL_CURVES
100
AcDbLine
 62
40
  6
CONTINUOUS
 10
8.0191938874
 20
4.0223944326
 11
8.0191938874
 21
4.1062069326
  0
LINE
  5
538
100
AcDbEntity
  8
03__ASM_ALL_CURVES
100
AcDbLine
 62
40
  6
CONTINUOUS
 10
8.0663384186
 20
4.0643006826
 11
8.0611001374
 21
4.0433475576
  0
LINE
  5
539
100
AcDbEntity
  8
03__ASM_ALL_CURVES
100
AcDbLine
 62
40
  6
CONTINUOUS
 10
8.4434946686
 20
4.0992225593
 11
8.4382563874
 21
4.0922381809
  0
LINE
  5
53A
100
AcDbEntity
  8
03__ASM_ALL_CURVES
100
AcDbLine
 62
40
  6
CONTINUOUS
 10
8.4801626374
 20
4.036363183
 11
8.4749243561
 21
4.0293788078
  0
LINE
  5
53B
100
AcDbEntity
  8
03__ASM_ALL_CURVES
100
AcDbLine
 62
40
  6
CONTINUOUS
 10
8.5273071686
 20
4.0992225593
 11
8.5220688874
 21
4.0922381809
  0
LINE
  5
53C
100
AcDbEntity
  8
03__ASM_ALL_CURVES
100
AcDbLine
 62
40
  6
CONTINUOUS
 10
8.7263618561
 20
4.0992225593
 11
8.7316001374
 21
4.0922381809
  0
LINE
  5
53D
100
AcDbEntity
  8
03__ASM_ALL_CURVES
100
AcDbLine
 62
40
  6
CONTINUOUS
 10
7.897009512
 20
5.2737904348
 11
7.903993887
 21
5.2644779304
  0
LINE
  5
53E
100
AcDbEntity
  8
03__ASM_ALL_CURVES
100
AcDbLine
 62
40
  6
CONTINUOUS
 10
8.2968227936
 20
4.0643006826
 11
8.3125376374
 21
4.0223944326
  0
LINE
  5
53F
100
AcDbEntity
  8
03__ASM_ALL_CURVES
100
AcDbLine
 62
40
  6
CONTINUOUS
 10
7.883040762
 20
5.2272279326
 11
7.903993887
 21
5.1713529326
  0
LINE
  5
540
100
AcDbEntity
  8
03__ASM_ALL_CURVES
100
AcDbLine
 62
40
  6
CONTINUOUS
 10
8.1868188874
 20
4.0223944326
 11
8.1868188874
 21
4.1062069326
  0
LINE
  5
541
100
AcDbEntity
  8
03__ASM_ALL_CURVES
100
AcDbLine
 62
40
  6
CONTINUOUS
 10
8.2287251374
 20
4.0922381809
 11
8.2287251374
 21
4.0782694343
  0
LINE
  5
542
100
AcDbEntity
  8
03__ASM_ALL_CURVES
100
AcDbLine
 62
40
  6
CONTINUOUS
 10
8.2706313874
 20
4.0223944326
 11
8.2706313874
 21
4.1062069326
  0
LINE
  5
543
100
AcDbEntity
  8
03__ASM_ALL_CURVES
100
AcDbLine
 62
40
  6
CONTINUOUS
 10
8.3125376374
 20
4.0922381809
 11
8.3125376374
 21
4.0782694343
  0
LINE
  5
544
100
AcDbEntity
  8
03__ASM_ALL_CURVES
100
AcDbLine
 62
40
  6
CONTINUOUS
 10
8.3544438874
 20
4.0223944326
 11
8.3544438874
 21
4.1062069326
  0
LINE
  5
545
100
AcDbEntity
  8
03__ASM_ALL_CURVES
100
AcDbLine
 62
40
  6
CONTINUOUS
 10
8.5639751374
 20
4.036363183
 11
8.5587368561
 21
4.0293788078
  0
LINE
  5
546
100
AcDbEntity
  8
03__ASM_ALL_CURVES
100
AcDbLine
 62
40
  6
CONTINUOUS
 10
8.6477876374
 20
4.036363183
 11
8.6425493561
 21
4.0293788078
  0
LINE
  5
547
100
AcDbEntity
  8
03__ASM_ALL_CURVES
100
AcDbLine
 62
40
  6
CONTINUOUS
 10
8.7316001374
 20
4.0782694343
 11
8.7263618561
 21
4.0712850559
  0
LINE
  5
548
100
AcDbEntity
  8
03__ASM_ALL_CURVES
100
AcDbLine
 62
40
  6
CONTINUOUS
 10
8.4382563874
 20
4.0922381809
 11
8.4382563874
 21
4.0852538076
  0
LINE
  5
549
100
AcDbEntity
  8
03__ASM_ALL_CURVES
100
AcDbLine
 62
40
  6
CONTINUOUS
 10
8.4801626374
 20
4.0503319334
 11
8.4801626374
 21
4.036363183
  0
LINE
  5
54A
100
AcDbEntity
  8
03__ASM_ALL_CURVES
100
AcDbLine
 62
40
  6
CONTINUOUS
 10
8.5220688874
 20
4.0922381809
 11
8.5220688874
 21
4.0852538076
  0
LINE
  5
54B
100
AcDbEntity
  8
03__ASM_ALL_CURVES
100
AcDbLine
 62
40
  6
CONTINUOUS
 10
8.5639751374
 20
4.0503319334
 11
8.5639751374
 21
4.036363183
  0
LINE
  5
54C
100
AcDbEntity
  8
03__ASM_ALL_CURVES
100
AcDbLine
 62
40
  6
CONTINUOUS
 10
8.7158852936
 20
4.0643006826
 11
8.7316001374
 21
4.0223944326
  0
LINE
  5
54D
100
AcDbEntity
  8
03__ASM_ALL_CURVES
100
AcDbLine
 62
40
  6
CONTINUOUS
 10
8.6058813874
 20
4.036363183
 11
8.6058813874
 21
4.1062069326
  0
LINE
  5
54E
100
AcDbEntity
  8
03__ASM_ALL_CURVES
100
AcDbLine
 62
40
  6
CONTINUOUS
 10
8.6477876374
 20
4.1062069326
 11
8.6477876374
 21
4.036363183
  0
LINE
  5
54F
100
AcDbEntity
  8
03__ASM_ALL_CURVES
100
AcDbLine
 62
40
  6
CONTINUOUS
 10
8.6896938874
 20
4.0223944326
 11
8.6896938874
 21
4.1062069326
  0
LINE
  5
550
100
AcDbEntity
  8
03__ASM_ALL_CURVES
100
AcDbLine
 62
40
  6
CONTINUOUS
 10
8.7316001374
 20
4.0922381809
 11
8.7316001374
 21
4.0782694343
  0
LINE
  5
551
100
AcDbEntity
  8
03__ASM_ALL_CURVES
100
AcDbLine
 62
40
  6
CONTINUOUS
 10
8.7735063874
 20
4.0223944326
 11
8.7735063874
 21
4.1062069326
  0
ARC
  5
552
100
AcDbEntity
  8
0
100
AcDbCircle
 62
7
  6
CONTINUOUS
 10
3.3503188868
 20
4.3055569326
 40
0.094
100
AcDbArc
 50
90.0
 51
131.267427381
  0
ARC
  5
553
100
AcDbEntity
  8
0
100
AcDbCircle
 62
7
  6
CONTINUOUS
 10
3.3503188868
 20
3.9515569326
 40
0.094
100
AcDbArc
 50
228.732572619
 51
270.0
  0
CIRCLE
  5
554
100
AcDbEntity
  8
126-600_HEX_FEATURES
100
AcDbCircle
 62
7
  6
CONTINUOUS
 10
5.7253188868
 20
4.1285569326
 40
0.0625
  0
CIRCLE
  5
555
100
AcDbEntity
  8
0
100
AcDbCircle
 62
7
  6
CONTINUOUS
 10
6.7103188868
 20
4.1285569326
 40
0.0545
  0
ARC
  5
556
100
AcDbEntity
  8
0
100
AcDbCircle
 62
7
  6
CONTINUOUS
 10
3.0363188868
 20
3.9670569326
 40
0.0175
100
AcDbArc
 50
180.0
 51
360.0
  0
ARC
  5
557
100
AcDbEntity
  8
0
100
AcDbCircle
 62
7
  6
CONTINUOUS
 10
4.9153188868
 20
3.7270569326
 40
0.013
100
AcDbArc
 50
0.000000002
 51
90.0
  0
ARC
  5
558
100
AcDbEntity
  8
0
100
AcDbCircle
 62
7
  6
CONTINUOUS
 10
4.9153188868
 20
4.5300569326
 40
0.013
100
AcDbArc
 50
270.0
 51
359.9999999945
  0
ARC
  5
559
100
AcDbEntity
  8
0
100
AcDbCircle
 62
7
  6
CONTINUOUS
 10
5.4733188868
 20
3.7420569326
 40
0.013
100
AcDbArc
 50
0.0000000029
 51
90.0
  0
ARC
  5
55A
100
AcDbEntity
  8
0
100
AcDbCircle
 62
7
  6
CONTINUOUS
 10
5.4733188868
 20
4.5150569326
 40
0.013
100
AcDbArc
 50
270.0
 51
359.9999999921
  0
ARC
  5
55B
100
AcDbEntity
  8
0
100
AcDbCircle
 62
7
  6
CONTINUOUS
 10
6.0608133333
 20
3.7650569326
 40
0.013
100
AcDbArc
 50
29.9999999998
 51
90.0
  0
ARC
  5
55C
100
AcDbEntity
  8
0
100
AcDbCircle
 62
7
  6
CONTINUOUS
 10
6.0608133333
 20
4.4920569326
 40
0.013
100
AcDbArc
 50
270.0
 51
330.0000000001
  0
ARC
  5
55D
100
AcDbEntity
  8
0
100
AcDbCircle
 62
7
  6
CONTINUOUS
 10
3.7363188868
 20
4.4865569326
 40
0.008
100
AcDbArc
 50
270.0
 51
360.0
  0
ARC
  5
55E
100
AcDbEntity
  8
0
100
AcDbCircle
 62
7
  6
CONTINUOUS
 10
3.7143188868
 20
4.4865569326
 40
0.008
100
AcDbArc
 50
180.0
 51
270.0
  0
ARC
  5
55F
100
AcDbEntity
  8
0
100
AcDbCircle
 62
7
  6
CONTINUOUS
 10
3.7363188868
 20
3.7705569326
 40
0.008
100
AcDbArc
 50
0.0
 51
90.0
  0
ARC
  5
560
100
AcDbEntity
  8
0
100
AcDbCircle
 62
7
  6
CONTINUOUS
 10
3.7143188868
 20
3.7705569326
 40
0.008
100
AcDbArc
 50
90.0
 51
180.0
  0
ARC
  5
561
100
AcDbEntity
  8
0
100
AcDbCircle
 62
7
  6
CONTINUOUS
 10
3.7493188868
 20
4.4970569326
 40
0.005
100
AcDbArc
 50
90.0
 51
180.0
  0
ARC
  5
562
100
AcDbEntity
  8
0
100
AcDbCircle
 62
7
  6
CONTINUOUS
 10
3.7013188868
 20
4.4970569326
 40
0.005
100
AcDbArc
 50
0.0
 51
90.0
  0
ARC
  5
563
100
AcDbEntity
  8
0
100
AcDbCircle
 62
7
  6
CONTINUOUS
 10
3.7493188868
 20
3.7600569326
 40
0.005
100
AcDbArc
 50
180.0
 51
270.0
  0
ARC
  5
564
100
AcDbEntity
  8
0
100
AcDbCircle
 62
7
  6
CONTINUOUS
 10
3.7013188868
 20
3.7600569326
 40
0.005
100
AcDbArc
 50
270.0
 51
360.0
  0
ARC
  5
565
100
AcDbEntity
  8
0
100
AcDbCircle
 62
7
  6
CONTINUOUS
 10
4.7243188868
 20
4.5640569326
 40
0.002
100
AcDbArc
 50
222.3553148142
 51
317.6446851858
  0
ARC
  5
566
100
AcDbEntity
  8
0
100
AcDbCircle
 62
7
  6
CONTINUOUS
 10
4.7243188868
 20
3.6930569326
 40
0.002
100
AcDbArc
 50
42.3553148142
 51
137.6446851858
  0
SPLINE
  5
567
100
AcDbEntity
  8
0
100
AcDbSpline
 62
7
  6
CONTINUOUS
 70
0
 71
3
 72
20
 73
16
 74
14
 42
0.0000001
 43
0.0000001
 44
0.0000000001
 12
0.0
 22
0.0416605862
 32
0.0
 13
0.0
 23
-0.0416605862
 33
0.0
 40
0.0
 40
0.0
 40
0.0
 40
0.0
 40
0.0489307848
 40
0.1062135912
 40
0.175871992
 40
0.2580136346
 40
0.3503828832
 40
0.4493672053
 40
0.5506327947
 40
0.6496171168
 40
0.7419863654
 40
0.824128008
 40
0.8937864088
 40
0.9510692152
 40
1.0
 40
1.0
 40
1.0
 40
1.0
 10
3.0538188868
 20
4.2046805014
 30
0.0
 10
3.0538188868
 20
4.2053599965
 30
0.0
 10
3.0533973528
 20
4.2068460075
 30
0.0
 10
3.051762085
 20
4.2087244348
 30
0.0
 10
3.0493101645
 20
4.2103234351
 30
0.0
 10
3.0461509321
 20
4.2115981862
 30
0.0
 10
3.0424478385
 20
4.212490174
 30
0.0
 10
3.0384009295
 20
4.2129494117
 30
0.0
 10
3.034236844
 20
4.2129494117
 30
0.0
 10
3.030189935
 20
4.212490174
 30
0.0
 10
3.0264868414
 20
4.2115981862
 30
0.0
 10
3.023327609
 20
4.2103234351
 30
0.0
 10
3.0208756885
 20
4.2087244348
 30
0.0
 10
3.0192404207
 20
4.2068460075
 30
0.0
 10
3.0188188868
 20
4.2053599965
 30
0.0
 10
3.0188188868
 20
4.2046805014
 30
0.0
 11
3.0538188868
 21
4.2046805014
 31
0.0
 11
3.0533103686
 21
4.2066545407
 31
0.0
 11
3.0518143672
 21
4.208513856
 31
0.0
 11
3.0494178249
 21
4.2101503906
 31
0.0
 11
3.0462600198
 21
4.2114690352
 31
0.0
 11
3.0425244723
 21
4.2123931549
 31
0.0
 11
3.0384282787
 21
4.2128690432
 31
0.0
 11
3.0342094949
 21
4.2128690432
 31
0.0
 11
3.0301133012
 21
4.2123931549
 31
0.0
 11
3.0263777537
 21
4.2114690352
 31
0.0
 11
3.0232199487
 21
4.2101503906
 31
0.0
 11
3.0208234063
 21
4.208513856
 31
0.0
 11
3.019327405
 21
4.2066545407
 31
0.0
 11
3.0188188868
 21
4.2046805014
 31
0.0
  0
SPLINE
  5
568
100
AcDbEntity
  8
0
100
AcDbSpline
 62
7
  6
CONTINUOUS
 70
0
 71
3
 72
15
 73
11
 74
9
 42
0.0000001
 43
0.0000001
 44
0.0000000001
 12
0.0
 22
0.1099409465
 32
0.0
 13
-0.0
 23
-0.1099409465
 33
0.0
 40
0.0
 40
0.0
 40
0.0
 40
0.0
 40
0.125
 40
0.25
 40
0.375
 40
0.5
 40
0.625
 40
0.75
 40
0.875
 40
1.0
 40
1.0
 40
1.0
 40
1.0
 10
7.0903188868
 20
4.4465569326
 30
0.0
 10
7.0903188868
 20
4.4511378054
 30
0.0
 10
7.0884965023
 20
4.4602995509
 30
0.0
 10
7.0807119343
 20
4.4719499802
 30
0.0
 10
7.0690615051
 20
4.4797345481
 30
0.0
 10
7.0553188868
 20
4.4824681248
 30
0.0
 10
7.0415762685
 20
4.4797345481
 30
0.0
 10
7.0299258392
 20
4.4719499802
 30
0.0
 10
7.0221412713
 20
4.4602995509
 30
0.0
 10
7.0203188868
 20
4.4511378054
 30
0.0
 10
7.0203188868
 20
4.4465569326
 30
0.0
 11
7.0903188868
 21
4.4465569326
 31
0.0
 11
7.0876546704
 21
4.4599508527
 31
0.0
 11
7.0800676241
 21
4.4713056699
 31
0.0
 11
7.0687128069
 21
4.4788927162
 31
0.0
 11
7.0553188868
 21
4.4815569326
 31
0.0
 11
7.0419249666
 21
4.4788927162
 31
0.0
 11
7.0305701494
 21
4.4713056699
 31
0.0
 11
7.0229831031
 21
4.4599508527
 31
0.0
 11
7.0203188868
 21
4.4465569326
 31
0.0
  0
SPLINE
  5
569
100
AcDbEntity
  8
0
100
AcDbSpline
 62
7
  6
CONTINUOUS
 70
0
 71
3
 72
15
 73
11
 74
9
 42
0.0000001
 43
0.0000001
 44
0.0000000001
 12
0.0
 22
-0.1099409465
 32
0.0
 13
-0.0
 23
0.1099409465
 33
0.0
 40
0.0
 40
0.0
 40
0.0
 40
0.0
 40
0.125
 40
0.25
 40
0.375
 40
0.5
 40
0.625
 40
0.75
 40
0.875
 40
1.0
 40
1.0
 40
1.0
 40
1.0
 10
7.0903188868
 20
3.8105569326
 30
0.0
 10
7.0903188868
 20
3.8059760598
 30
0.0
 10
7.0884965023
 20
3.7968143143
 30
0.0
 10
7.0807119343
 20
3.785163885
 30
0.0
 10
7.0690615051
 20
3.7773793171
 30
0.0
 10
7.0553188868
 20
3.7746457403
 30
0.0
 10
7.0415762685
 20
3.7773793171
 30
0.0
 10
7.0299258392
 20
3.785163885
 30
0.0
 10
7.0221412713
 20
3.7968143143
 30
0.0
 10
7.0203188868
 20
3.8059760598
 30
0.0
 10
7.0203188868
 20
3.8105569326
 30
0.0
 11
7.0903188868
 21
3.8105569326
 31
0.0
 11
7.0876546704
 21
3.7971630125
 31
0.0
 11
7.0800676241
 21
3.7858081953
 31
0.0
 11
7.0687128069
 21
3.778221149
 31
0.0
 11
7.0553188868
 21
3.7755569326
 31
0.0
 11
7.0419249666
 21
3.778221149
 31
0.0
 11
7.0305701494
 21
3.7858081953
 31
0.0
 11
7.0229831031
 21
3.7971630125
 31
0.0
 11
7.0203188868
 21
3.8105569326
 31
0.0
  0
SPLINE
  5
56A
100
AcDbEntity
  8
0
100
AcDbSpline
 62
7
  6
CONTINUOUS
 70
0
 71
3
 72
15
 73
11
 74
9
 42
0.0000001
 43
0.0000001
 44
0.0000000001
 12
0.0
 22
0.1099409465
 32
0.0
 13
0.0
 23
-0.1099409465
 33
0.0
 40
0.0
 40
0.0
 40
0.0
 40
0.0
 40
0.125
 40
0.25
 40
0.375
 40
0.5
 40
0.625
 40
0.75
 40
0.875
 40
1.0
 40
1.0
 40
1.0
 40
1.0
 10
5.4073188868
 20
4.5370569326
 30
0.0
 10
5.4073188868
 20
4.5416378054
 30
0.0
 10
5.4054965023
 20
4.5507995509
 30
0.0
 10
5.3977119343
 20
4.5624499802
 30
0.0
 10
5.3860615051
 20
4.5702345481
 30
0.0
 10
5.3723188868
 20
4.5729681248
 30
0.0
 10
5.3585762685
 20
4.5702345481
 30
0.0
 10
5.3469258392
 20
4.5624499802
 30
0.0
 10
5.3391412713
 20
4.5507995509
 30
0.0
 10
5.3373188868
 20
4.5416378054
 30
0.0
 10
5.3373188868
 20
4.5370569326
 30
0.0
 11
5.4073188868
 21
4.5370569326
 31
0.0
 11
5.4046546704
 21
4.5504508527
 31
0.0
 11
5.3970676241
 21
4.5618056699
 31
0.0
 11
5.3857128069
 21
4.5693927162
 31
0.0
 11
5.3723188868
 21
4.5720569326
 31
0.0
 11
5.3589249666
 21
4.5693927162
 31
0.0
 11
5.3475701494
 21
4.5618056699
 31
0.0
 11
5.3399831031
 21
4.5504508527
 31
0.0
 11
5.3373188868
 21
4.5370569326
 31
0.0
  0
SPLINE
  5
56B
100
AcDbEntity
  8
0
100
AcDbSpline
 62
7
  6
CONTINUOUS
 70
0
 71
3
 72
15
 73
11
 74
9
 42
0.0000001
 43
0.0000001
 44
0.0000000001
 12
0.0
 22
-0.1099409465
 32
0.0
 13
0.0
 23
0.1099409465
 33
0.0
 40
0.0
 40
0.0
 40
0.0
 40
0.0
 40
0.125
 40
0.25
 40
0.375
 40
0.5
 40
0.625
 40
0.75
 40
0.875
 40
1.0
 40
1.0
 40
1.0
 40
1.0
 10
5.4073188868
 20
3.7200569326
 30
0.0
 10
5.4073188868
 20
3.7154760598
 30
0.0
 10
5.4054965023
 20
3.7063143143
 30
0.0
 10
5.3977119343
 20
3.694663885
 30
0.0
 10
5.3860615051
 20
3.6868793171
 30
0.0
 10
5.3723188868
 20
3.6841457403
 30
0.0
 10
5.3585762685
 20
3.6868793171
 30
0.0
 10
5.3469258392
 20
3.694663885
 30
0.0
 10
5.3391412713
 20
3.7063143143
 30
0.0
 10
5.3373188868
 20
3.7154760598
 30
0.0
 10
5.3373188868
 20
3.7200569326
 30
0.0
 11
5.4073188868
 21
3.7200569326
 31
0.0
 11
5.4046546704
 21
3.7066630125
 31
0.0
 11
5.3970676241
 21
3.6953081953
 31
0.0
 11
5.3857128069
 21
3.687721149
 31
0.0
 11
5.3723188868
 21
3.6850569326
 31
0.0
 11
5.3589249666
 21
3.687721149
 31
0.0
 11
5.3475701494
 21
3.6953081953
 31
0.0
 11
5.3399831031
 21
3.7066630125
 31
0.0
 11
5.3373188868
 21
3.7200569326
 31
0.0
  0
SPLINE
  5
56C
100
AcDbEntity
  8
0
100
AcDbSpline
 62
7
  6
CONTINUOUS
 70
0
 71
3
 72
15
 73
11
 74
9
 42
0.0000001
 43
0.0000001
 44
0.0000000001
 12
0.0
 22
0.1099409465
 32
0.0
 13
0.0
 23
-0.1099409465
 33
0.0
 40
0.0
 40
0.0
 40
0.0
 40
0.0
 40
0.125
 40
0.25
 40
0.375
 40
0.5
 40
0.625
 40
0.75
 40
0.875
 40
1.0
 40
1.0
 40
1.0
 40
1.0
 10
5.9983188868
 20
4.5370569326
 30
0.0
 10
5.9983188868
 20
4.5416378054
 30
0.0
 10
5.9964965023
 20
4.5507995509
 30
0.0
 10
5.9887119343
 20
4.5624499802
 30
0.0
 10
5.9770615051
 20
4.5702345481
 30
0.0
 10
5.9633188868
 20
4.5729681248
 30
0.0
 10
5.9495762685
 20
4.5702345481
 30
0.0
 10
5.9379258392
 20
4.5624499802
 30
0.0
 10
5.9301412713
 20
4.5507995509
 30
0.0
 10
5.9283188868
 20
4.5416378054
 30
0.0
 10
5.9283188868
 20
4.5370569326
 30
0.0
 11
5.9983188868
 21
4.5370569326
 31
0.0
 11
5.9956546704
 21
4.5504508527
 31
0.0
 11
5.9880676241
 21
4.5618056699
 31
0.0
 11
5.9767128069
 21
4.5693927162
 31
0.0
 11
5.9633188868
 21
4.5720569326
 31
0.0
 11
5.9499249666
 21
4.5693927162
 31
0.0
 11
5.9385701494
 21
4.5618056699
 31
0.0
 11
5.9309831031
 21
4.5504508527
 31
0.0
 11
5.9283188868
 21
4.5370569326
 31
0.0
  0
SPLINE
  5
56D
100
AcDbEntity
  8
0
100
AcDbSpline
 62
7
  6
CONTINUOUS
 70
0
 71
3
 72
15
 73
11
 74
9
 42
0.0000001
 43
0.0000001
 44
0.0000000001
 12
0.0
 22
-0.1099409465
 32
0.0
 13
0.0
 23
0.1099409465
 33
0.0
 40
0.0
 40
0.0
 40
0.0
 40
0.0
 40
0.125
 40
0.25
 40
0.375
 40
0.5
 40
0.625
 40
0.75
 40
0.875
 40
1.0
 40
1.0
 40
1.0
 40
1.0
 10
5.9983188868
 20
3.7200569326
 30
0.0
 10
5.9983188868
 20
3.7154760598
 30
0.0
 10
5.9964965023
 20
3.7063143143
 30
0.0
 10
5.9887119343
 20
3.694663885
 30
0.0
 10
5.9770615051
 20
3.6868793171
 30
0.0
 10
5.9633188868
 20
3.6841457403
 30
0.0
 10
5.9495762685
 20
3.6868793171
 30
0.0
 10
5.9379258392
 20
3.694663885
 30
0.0
 10
5.9301412713
 20
3.7063143143
 30
0.0
 10
5.9283188868
 20
3.7154760598
 30
0.0
 10
5.9283188868
 20
3.7200569326
 30
0.0
 11
5.9983188868
 21
3.7200569326
 31
0.0
 11
5.9956546704
 21
3.7066630125
 31
0.0
 11
5.9880676241
 21
3.6953081953
 31
0.0
 11
5.9767128069
 21
3.687721149
 31
0.0
 11
5.9633188868
 21
3.6850569326
 31
0.0
 11
5.9499249666
 21
3.687721149
 31
0.0
 11
5.9385701494
 21
3.6953081953
 31
0.0
 11
5.9309831031
 21
3.7066630125
 31
0.0
 11
5.9283188868
 21
3.7200569326
 31
0.0
  0
SPLINE
  5
56E
100
AcDbEntity
  8
0
100
AcDbSpline
 62
7
  6
CONTINUOUS
 70
0
 71
3
 72
15
 73
11
 74
9
 42
0.0000001
 43
0.0000001
 44
0.0000000001
 12
0.0
 22
0.1099409465
 32
0.0
 13
0.0
 23
-0.1099409465
 33
0.0
 40
0.0
 40
0.0
 40
0.0
 40
0.0
 40
0.125
 40
0.25
 40
0.375
 40
0.5
 40
0.625
 40
0.75
 40
0.875
 40
1.0
 40
1.0
 40
1.0
 40
1.0
 10
4.9073188868
 20
4.5520569326
 30
0.0
 10
4.9073188868
 20
4.5566378054
 30
0.0
 10
4.9054965023
 20
4.5657995509
 30
0.0
 10
4.8977119343
 20
4.5774499802
 30
0.0
 10
4.8860615051
 20
4.5852345481
 30
0.0
 10
4.8723188868
 20
4.5879681248
 30
0.0
 10
4.8585762685
 20
4.5852345481
 30
0.0
 10
4.8469258392
 20
4.5774499802
 30
0.0
 10
4.8391412713
 20
4.5657995509
 30
0.0
 10
4.8373188868
 20
4.5566378054
 30
0.0
 10
4.8373188868
 20
4.5520569326
 30
0.0
 11
4.9073188868
 21
4.5520569326
 31
0.0
 11
4.9046546704
 21
4.5654508527
 31
0.0
 11
4.8970676241
 21
4.5768056699
 31
0.0
 11
4.8857128069
 21
4.5843927162
 31
0.0
 11
4.8723188868
 21
4.5870569326
 31
0.0
 11
4.8589249666
 21
4.5843927162
 31
0.0
 11
4.8475701494
 21
4.5768056699
 31
0.0
 11
4.8399831031
 21
4.5654508527
 31
0.0
 11
4.8373188868
 21
4.5520569326
 31
0.0
  0
SPLINE
  5
56F
100
AcDbEntity
  8
0
100
AcDbSpline
 62
7
  6
CONTINUOUS
 70
0
 71
3
 72
15
 73
11
 74
9
 42
0.0000001
 43
0.0000001
 44
0.0000000001
 12
0.0
 22
-0.1099409465
 32
0.0
 13
0.0
 23
0.1099409465
 33
0.0
 40
0.0
 40
0.0
 40
0.0
 40
0.0
 40
0.125
 40
0.25
 40
0.375
 40
0.5
 40
0.625
 40
0.75
 40
0.875
 40
1.0
 40
1.0
 40
1.0
 40
1.0
 10
4.9073188868
 20
3.7050569326
 30
0.0
 10
4.9073188868
 20
3.7004760598
 30
0.0
 10
4.9054965023
 20
3.6913143143
 30
0.0
 10
4.8977119343
 20
3.679663885
 30
0.0
 10
4.8860615051
 20
3.6718793171
 30
0.0
 10
4.8723188868
 20
3.6691457403
 30
0.0
 10
4.8585762685
 20
3.6718793171
 30
0.0
 10
4.8469258392
 20
3.679663885
 30
0.0
 10
4.8391412713
 20
3.6913143143
 30
0.0
 10
4.8373188868
 20
3.7004760598
 30
0.0
 10
4.8373188868
 20
3.7050569326
 30
0.0
 11
4.9073188868
 21
3.7050569326
 31
0.0
 11
4.9046546704
 21
3.6916630125
 31
0.0
 11
4.8970676241
 21
3.6803081953
 31
0.0
 11
4.8857128069
 21
3.672721149
 31
0.0
 11
4.8723188868
 21
3.6700569326
 31
0.0
 11
4.8589249666
 21
3.672721149
 31
0.0
 11
4.8475701494
 21
3.6803081953
 31
0.0
 11
4.8399831031
 21
3.6916630125
 31
0.0
 11
4.8373188868
 21
3.7050569326
 31
0.0
  0
SPLINE
  5
570
100
AcDbEntity
  8
0
100
AcDbSpline
 62
7
  6
CONTINUOUS
 70
0
 71
3
 72
16
 73
12
 74
10
 42
0.0000001
 43
0.0000001
 44
0.0000000001
 12
0.0906480335
 22
0.2719441006
 32
0.0
 13
-0.0906480335
 23
0.2719441006
 33
0.0
 40
0.0
 40
0.0
 40
0.0
 40
0.0
 40
0.1184548733
 40
0.230565332
 40
0.3393089466
 40
0.4465959239
 40
0.5535015371
 40
0.6607803311
 40
0.769505023
 40
0.8815660643
 40
1.0
 40
1.0
 40
1.0
 40
1.0
 10
3.5384474764
 20
3.8475569326
 30
0.0
 10
3.5420267102
 20
3.8582946339
 30
0.0
 10
3.5484577968
 20
3.8793806808
 30
0.0
 10
3.5559772265
 20
3.9109417356
 30
0.0
 10
3.5610654539
 20
3.9419105537
 30
0.0
 10
3.5636523161
 20
3.9726936233
 30
0.0
 10
3.5636511278
 20
4.0034474243
 30
0.0
 10
3.5610622872
 20
4.0342277157
 30
0.0
 10
3.5559735525
 20
4.0651890175
 30
0.0
 10
3.5484552957
 20
4.0967415491
 30
0.0
 10
3.5420260775
 20
4.1178211292
 30
0.0
 10
3.5384474764
 20
4.1285569326
 30
0.0
 11
3.5384474764
 21
3.8475569326
 31
0.0
 11
3.548285946
 21
3.8800559605
 31
0.0
 11
3.5556731165
 21
3.9113323509
 31
0.0
 11
3.5606777339
 21
3.9420998034
 31
0.0
 11
3.5632246992
 21
3.9727484246
 31
0.0
 11
3.563223529
 21
4.0033933731
 31
0.0
 11
3.5606745889
 21
4.0340394762
 31
0.0
 11
3.5556691499
 21
4.0648012994
 31
0.0
 11
3.5482843784
 21
4.096063701
 31
0.0
 11
3.5384474764
 21
4.1285569326
 31
0.0
  0
SPLINE
  5
571
100
AcDbEntity
  8
0
100
AcDbSpline
 62
7
  6
CONTINUOUS
 70
0
 71
3
 72
17
 73
13
 74
11
 42
0.0000001
 43
0.0000001
 44
0.0000000001
 12
-0.1487434696
 22
0.2576312467
 32
0.0
 13
0.1487434696
 23
0.2576312467
 33
0.0
 40
0.0
 40
0.0
 40
0.0
 40
0.0
 40
0.1169386465
 40
0.2216811606
 40
0.3184580982
 40
0.4103908543
 40
0.5000417254
 40
0.5896883004
 40
0.6816074548
 40
0.7783545182
 40
0.8830694657
 40
1.0
 40
1.0
 40
1.0
 40
1.0
 10
3.436789738
 20
3.8475569326
 30
0.0
 10
3.4309917847
 20
3.8575992824
 30
0.0
 10
3.4206519571
 20
3.8770291298
 30
0.0
 10
3.4082783337
 20
3.9061312074
 30
0.0
 10
3.399624887
 20
3.9339727701
 30
0.0
 10
3.3944677824
 20
3.9611560897
 30
0.0
 10
3.392750902
 20
3.9880689746
 30
0.0
 10
3.3944707877
 20
4.0149802994
 30
0.0
 10
3.3996295393
 20
4.04215844
 30
0.0
 10
3.4082823911
 20
4.069992746
 30
0.0
 10
3.4206539785
 20
4.0990885857
 30
0.0
 10
3.4309921869
 20
4.1185152795
 30
0.0
 10
3.436789738
 20
4.1285569326
 30
0.0
 11
3.436789738
 21
3.8475569326
 31
0.0
 11
3.4205635066
 21
3.8783285896
 31
0.0
 11
3.4084787501
 21
3.9070492262
 31
0.0
 11
3.4000260768
 21
3.9345702948
 31
0.0
 11
3.3949931915
 21
3.96145201
 31
0.0
 11
3.3933188871
 21
3.9880693661
 31
0.0
 11
3.3949961294
 21
4.0146852566
 31
0.0
 11
3.4000307761
 21
4.0415625253
 31
0.0
 11
3.4084823911
 21
4.0690746219
 31
0.0
 11
3.4205645423
 21
4.0977874576
 31
0.0
 11
3.436789738
 21
4.1285569326
 31
0.0
  0
SPLINE
  5
572
100
AcDbEntity
  8
0
100
AcDbSpline
 62
7
  6
CONTINUOUS
 70
0
 71
3
 72
16
 73
12
 74
10
 42
0.0000001
 43
0.0000001
 44
0.0000000001
 12
0.0906480335
 22
0.2719441006
 32
0.0
 13
-0.0906480335
 23
0.2719441006
 33
0.0
 40
0.0
 40
0.0
 40
0.0
 40
0.0
 40
0.1184548733
 40
0.230565332
 40
0.3393089466
 40
0.4465959239
 40
0.5535015371
 40
0.6607803311
 40
0.769505023
 40
0.8815660643
 40
1.0
 40
1.0
 40
1.0
 40
1.0
 10
3.5384474764
 20
4.1285569326
 30
0.0
 10
3.5420267102
 20
4.1392946339
 30
0.0
 10
3.5484577968
 20
4.1603806808
 30
0.0
 10
3.5559772265
 20
4.1919417356
 30
0.0
 10
3.5610654539
 20
4.2229105537
 30
0.0
 10
3.5636523161
 20
4.2536936233
 30
0.0
 10
3.5636511278
 20
4.2844474243
 30
0.0
 10
3.5610622872
 20
4.3152277157
 30
0.0
 10
3.5559735525
 20
4.3461890175
 30
0.0
 10
3.5484552957
 20
4.3777415491
 30
0.0
 10
3.5420260775
 20
4.3988211292
 30
0.0
 10
3.5384474764
 20
4.4095569326
 30
0.0
 11
3.5384474764
 21
4.1285569326
 31
0.0
 11
3.548285946
 21
4.1610559605
 31
0.0
 11
3.5556731165
 21
4.1923323509
 31
0.0
 11
3.5606777339
 21
4.2230998034
 31
0.0
 11
3.5632246992
 21
4.2537484246
 31
0.0
 11
3.563223529
 21
4.2843933731
 31
0.0
 11
3.5606745889
 21
4.3150394762
 31
0.0
 11
3.5556691499
 21
4.3458012994
 31
0.0
 11
3.5482843784
 21
4.377063701
 31
0.0
 11
3.5384474764
 21
4.4095569326
 31
0.0
  0
SPLINE
  5
573
100
AcDbEntity
  8
0
100
AcDbSpline
 62
7
  6
CONTINUOUS
 70
0
 71
3
 72
17
 73
13
 74
11
 42
0.0000001
 43
0.0000001
 44
0.0000000001
 12
-0.1487434696
 22
0.2576312467
 32
0.0
 13
0.1487434696
 23
0.2576312467
 33
0.0
 40
0.0
 40
0.0
 40
0.0
 40
0.0
 40
0.1169386465
 40
0.2216811606
 40
0.3184580982
 40
0.4103908543
 40
0.5000417254
 40
0.5896883004
 40
0.6816074548
 40
0.7783545182
 40
0.8830694657
 40
1.0
 40
1.0
 40
1.0
 40
1.0
 10
3.436789738
 20
4.1285569326
 30
0.0
 10
3.4309917847
 20
4.1385992824
 30
0.0
 10
3.4206519571
 20
4.1580291298
 30
0.0
 10
3.4082783337
 20
4.1871312074
 30
0.0
 10
3.399624887
 20
4.2149727701
 30
0.0
 10
3.3944677824
 20
4.2421560897
 30
0.0
 10
3.392750902
 20
4.2690689746
 30
0.0
 10
3.3944707877
 20
4.2959802994
 30
0.0
 10
3.3996295393
 20
4.32315844
 30
0.0
 10
3.4082823911
 20
4.350992746
 30
0.0
 10
3.4206539785
 20
4.3800885857
 30
0.0
 10
3.4309921869
 20
4.3995152795
 30
0.0
 10
3.436789738
 20
4.4095569326
 30
0.0
 11
3.436789738
 21
4.1285569326
 31
0.0
 11
3.4205635066
 21
4.1593285896
 31
0.0
 11
3.4084787501
 21
4.1880492262
 31
0.0
 11
3.4000260768
 21
4.2155702948
 31
0.0
 11
3.3949931915
 21
4.24245201
 31
0.0
 11
3.3933188871
 21
4.2690693661
 31
0.0
 11
3.3949961294
 21
4.2956852566
 31
0.0
 11
3.4000307761
 21
4.3225625253
 31
0.0
 11
3.4084823911
 21
4.3500746219
 31
0.0
 11
3.4205645423
 21
4.3787874576
 31
0.0
 11
3.436789738
 21
4.4095569326
 31
0.0
  0
SPLINE
  5
574
100
AcDbEntity
  8
0
100
AcDbSpline
 62
7
  6
CONTINUOUS
 70
0
 71
3
 72
11
 73
7
 74
5
 42
0.0000001
 43
0.0000001
 44
0.0000000001
 12
0.0330669035
 22
0.0
 32
0.0
 13
0.0254948791
 23
0.0211602433
 33
0.0
 40
0.0
 40
0.0
 40
0.0
 40
0.0
 40
0.313921512
 40
0.6310867664
 40
0.9509686752
 40
1.0
 40
1.0
 40
1.0
 40
1.0
 10
6.6923188868
 20
4.1700607943
 30
0.0
 10
6.6957790242
 20
4.1700607943
 30
0.0
 10
6.7027594426
 20
4.1708439754
 30
0.0
 10
6.7127382813
 20
4.1743082466
 30
0.0
 10
6.7192282587
 20
4.1783052536
 30
0.0
 10
6.7224065457
 20
4.1808554505
 30
0.0
 10
6.7228232282
 20
4.1812012888
 30
0.0
 11
6.6923188868
 21
4.1700607943
 31
0.0
 11
6.7026349295
 21
4.1712150135
 31
0.0
 11
6.7125465285
 21
4.1746430577
 31
0.0
 11
6.7215562078
 21
4.1801846527
 31
0.0
 11
6.7228232282
 21
4.1812012888
 31
0.0
  0
SPLINE
  5
575
100
AcDbEntity
  8
0
100
AcDbSpline
 62
7
  6
CONTINUOUS
 70
0
 71
3
 72
9
 73
5
 74
3
 42
0.0000001
 43
0.0000001
 44
0.0000000001
 12
-0.0140839725
 22
0.0
 32
0.0
 13
-0.0134785872
 23
0.0041825531
 33
0.0
 40
0.0
 40
0.0
 40
0.0
 40
0.0
 40
0.7370200536
 40
1.0
 40
1.0
 40
1.0
 40
1.0
 10
6.6923188868
 20
4.1700607943
 30
0.0
 10
6.6888588301
 20
4.1700607943
 30
0.0
 10
6.6841477125
 20
4.1705893544
 30
0.0
 10
6.6795997542
 20
4.1718083557
 30
0.0
 10
6.6784182215
 20
4.1721749982
 30
0.0
 11
6.6923188868
 21
4.1700607943
 31
0.0
 11
6.6820030817
 21
4.1712149598
 31
0.0
 11
6.6784182215
 21
4.1721749982
 31
0.0
  0
SPLINE
  5
576
100
AcDbEntity
  8
0
100
AcDbSpline
 62
7
  6
CONTINUOUS
 70
0
 71
3
 72
9
 73
5
 74
3
 42
0.0000001
 43
0.0000001
 44
0.0000000001
 12
0.0141416381
 22
-0.0003361421
 32
0.0
 13
0.0140621543
 23
-0.0015317108
 33
0.0
 40
0.0
 40
0.0
 40
0.0
 40
0.0
 40
0.4588062672
 40
1.0
 40
1.0
 40
1.0
 40
1.0
 10
6.6962265703
 20
3.9640963472
 30
0.0
 10
6.6983893277
 20
3.9640449391
 30
0.0
 10
6.7031010058
 20
3.9638400988
 30
0.0
 10
6.7077999215
 20
3.9634347922
 30
0.0
 10
6.7103367048
 20
3.9631584747
 30
0.0
 11
6.6962265703
 21
3.9640963472
 31
0.0
 11
6.7027101361
 21
3.9638147763
 31
0.0
 11
6.7103367048
 21
3.9631584747
 31
0.0
  0
SPLINE
  5
577
100
AcDbEntity
  8
0
100
AcDbSpline
 62
7
  6
CONTINUOUS
 70
0
 71
3
 72
9
 73
5
 74
3
 42
0.0000001
 43
0.0000001
 44
0.0000000001
 12
0.0135029646
 22
0.0041988877
 32
0.0
 13
0.014112072
 23
0.0
 33
0.0
 40
0.0
 40
0.0
 40
0.0
 40
0.0
 40
0.2644300329
 40
1.0
 40
1.0
 40
1.0
 40
1.0
 10
6.6783913311
 20
4.0849305139
 30
0.0
 10
6.6795815275
 20
4.0853006179
 30
0.0
 10
6.6841382302
 20
4.0865234433
 30
0.0
 10
6.688858748
 20
4.0870530709
 30
0.0
 10
6.6923188868
 20
4.0870530709
 30
0.0
 11
6.6783913311
 21
4.0849305139
 31
0.0
 11
6.6820028401
 21
4.0858988508
 31
0.0
 11
6.6923188868
 21
4.0870530709
 31
0.0
  0
SPLINE
  5
578
100
AcDbEntity
  8
0
100
AcDbSpline
 62
7
  6
CONTINUOUS
 70
0
 71
3
 72
11
 73
7
 74
5
 42
0.0000001
 43
0.0000001
 44
0.0000000001
 12
-0.0255079148
 22
0.0212050985
 32
0.0
 13
-0.0331055389
 23
0.0
 33
0.0
 40
0.0
 40
0.0
 40
0.0
 40
0.0
 40
0.0501491494
 40
0.3696595262
 40
0.6864520222
 40
1.0
 40
1.0
 40
1.0
 40
1.0
 10
6.7228530059
 20
4.0758878417
 30
0.0
 10
6.7224266058
 20
4.0762423142
 30
0.0
 10
6.7192391508
 20
4.0788019212
 30
0.0
 10
6.7127380279
 20
4.0828057382
 30
0.0
 10
6.7027592538
 20
4.0862699203
 30
0.0
 10
6.695778945
 20
4.0870530709
 30
0.0
 10
6.6923188868
 20
4.0870530709
 30
0.0
 11
6.7228530059
 21
4.0758878417
 31
0.0
 11
6.7215559971
 21
4.076929376
 31
0.0
 11
6.7125462339
 21
4.0824709471
 31
0.0
 11
6.7026346964
 21
4.0858989044
 31
0.0
 11
6.6923188868
 21
4.0870530709
 31
0.0
  0
SPLINE
  5
579
100
AcDbEntity
  8
0
100
AcDbSpline
 62
7
  6
CONTINUOUS
 70
0
 71
3
 72
9
 73
5
 74
3
 42
0.0000001
 43
0.0000001
 44
0.0000000001
 12
-0.0140217366
 22
-0.0015273082
 32
0.0
 13
-0.014100909
 23
-0.0003386533
 33
0.0
 40
0.0
 40
0.0
 40
0.0
 40
0.0
 40
0.5430782541
 40
1.0
 40
1.0
 40
1.0
 40
1.0
 10
6.7103367101
 20
4.2939553913
 30
0.0
 10
6.70779841
 20
4.2936789087
 30
0.0
 10
6.7031129921
 20
4.293274829
 30
0.0
 10
6.6984148904
 20
4.2930700691
 30
0.0
 10
6.6962672198
 20
4.2930184897
 30
0.0
 11
6.7103367101
 21
4.2939553913
 31
0.0
 11
6.702705572
 21
4.2932988011
 31
0.0
 11
6.6962672198
 21
4.2930184897
 31
0.0
  0
SPLINE
  5
57A
100
AcDbEntity
  8
0
100
AcDbSpline
 62
7
  6
CONTINUOUS
 70
0
 71
3
 72
14
 73
10
 74
8
 42
0.0000001
 43
0.0000001
 44
0.0000000001
 12
-0.075648279
 22
0.0
 32
0.0
 13
-0.0000228316
 23
-0.0760270318
 33
0.0
 40
0.0
 40
0.0
 40
0.0
 40
0.0
 40
0.1720736546
 40
0.3422590642
 40
0.5074496802
 40
0.6635901226
 40
0.807277256
 40
0.9382084408
 40
1.0
 40
1.0
 40
1.0
 40
1.0
 10
6.7103188868
 20
3.9725306379
 30
0.0
 10
6.7059798615
 20
3.9725306379
 30
0.0
 10
6.6973236486
 20
3.9716528496
 30
0.0
 10
6.6850346211
 20
3.9677911582
 30
0.0
 10
6.6741427129
 20
3.9616841331
 30
0.0
 10
6.6653099937
 20
3.9538218019
 30
0.0
 10
6.6590526349
 20
3.9448018115
 30
0.0
 10
6.6562392634
 20
3.9366661233
 30
0.0
 10
6.6558219998
 20
3.9317794157
 30
0.0
 10
6.6558215295
 20
3.9302134728
 30
0.0
 11
6.7103188868
 21
3.9725306379
 31
0.0
 11
6.6973688205
 21
3.9712115296
 31
0.0
 11
6.6850913407
 21
3.9673373361
 31
0.0
 11
6.6742109779
 21
3.9611910068
 31
0.0
 11
6.665436756
 21
3.9532833774
 31
0.0
 11
6.6593307087
 21
3.9442908124
 31
0.0
 11
6.6562123599
 21
3.9348897829
 31
0.0
 11
6.6558215295
 21
3.9302134728
 31
0.0
  0
SPLINE
  5
57B
100
AcDbEntity
  8
0
100
AcDbSpline
 62
7
  6
CONTINUOUS
 70
0
 71
3
 72
14
 73
10
 74
8
 42
0.0000001
 43
0.0000001
 44
0.0000000001
 12
0.075648294
 22
0.0
 32
0.0
 13
0.0000227838
 23
0.0760270586
 33
0.0
 40
0.0
 40
0.0
 40
0.0
 40
0.0
 40
0.1720713768
 40
0.3422520342
 40
0.5074445355
 40
0.6635831467
 40
0.8072729796
 40
0.9382080426
 40
1.0
 40
1.0
 40
1.0
 40
1.0
 10
6.7103188868
 20
4.2845832273
 30
0.0
 10
6.7146578555
 20
4.2845832273
 30
0.0
 10
6.723313892
 20
4.2854609864
 30
0.0
 10
6.7356028127
 20
4.2893225697
 30
0.0
 10
6.7464946688
 20
4.2954294549
 30
0.0
 10
6.7553275049
 20
4.3032917565
 30
0.0
 10
6.7615850247
 20
4.3123117876
 30
0.0
 10
6.7643985019
 20
4.3204476374
 30
0.0
 10
6.7648157744
 20
4.3253344556
 30
0.0
 10
6.7648162437
 20
4.3269004092
 30
0.0
 11
6.7103188868
 21
4.2845832273
 31
0.0
 11
6.7232687859
 21
4.2859023011
 31
0.0
 11
6.735545947
 21
4.2897763184
 31
0.0
 11
6.7464264838
 21
4.2959226347
 31
0.0
 11
6.7552006739
 21
4.303830096
 31
0.0
 11
6.7613069247
 21
4.3128227723
 31
0.0
 11
6.7644254111
 21
4.3222240673
 31
0.0
 11
6.7648162437
 21
4.3269004092
 31
0.0
  0
SPLINE
  5
57C
100
AcDbEntity
  8
0
100
AcDbSpline
 62
7
  6
CONTINUOUS
 70
0
 71
3
 72
14
 73
10
 74
8
 42
0.0000001
 43
0.0000001
 44
0.0000000001
 12
0.0000225814
 22
-0.0760270846
 32
0.0
 13
0.0756481837
 23
0.0
 33
0.0
 40
0.0
 40
0.0
 40
0.0
 40
0.0
 40
0.0616285058
 40
0.192517326
 40
0.3361600546
 40
0.4922659727
 40
0.6574916324
 40
0.8277239131
 40
1.0
 40
1.0
 40
1.0
 40
1.0
 10
6.6558215349
 20
4.326900331
 30
0.0
 10
6.6558219988
 20
4.3253385191
 30
0.0
 10
6.6562376903
 20
4.3204570365
 30
0.0
 10
6.6590455477
 20
4.3123262073
 30
0.0
 10
6.6652975168
 20
4.3033062375
 30
0.0
 10
6.6741263606
 20
4.2954412458
 30
0.0
 10
6.6850173015
 20
4.2893299076
 30
0.0
 10
6.6973121795
 20
4.2854627017
 30
0.0
 10
6.7059747624
 20
4.2845832273
 30
0.0
 10
6.7103188868
 20
4.2845832273
 30
0.0
 11
6.6558215349
 21
4.326900331
 31
0.0
 11
6.6562103288
 21
4.3222362624
 31
0.0
 11
6.6593237512
 21
4.3128369894
 31
0.0
 11
6.6654242609
 21
4.3038447423
 31
0.0
 11
6.6741934422
 21
4.2959354445
 31
0.0
 11
6.6850739777
 21
4.2897840647
 31
0.0
 11
6.6973537607
 21
4.2859054431
 31
0.0
 11
6.7103188868
 21
4.2845832273
 31
0.0
  0
SPLINE
  5
57D
100
AcDbEntity
  8
0
100
AcDbSpline
 62
7
  6
CONTINUOUS
 70
0
 71
3
 72
10
 73
6
 74
4
 42
0.0000001
 43
0.0000001
 44
0.0000000001
 12
-0.0257667379
 22
0.0074791121
 32
0.0
 13
-0.0268054704
 23
0.0
 33
0.0
 40
0.0
 40
0.0
 40
0.0
 40
0.0
 40
0.156626761
 40
0.572365587
 40
1.0
 40
1.0
 40
1.0
 40
1.0
 10
6.7368254127
 20
4.2906481373
 30
0.0
 10
6.7354801591
 20
4.2910386137
 30
0.0
 10
6.7305219422
 20
4.2923215741
 30
0.0
 10
6.7216818772
 20
4.2937514351
 30
0.0
 10
6.7141398673
 20
4.2941371829
 30
0.0
 10
6.7103188868
 20
4.2941371829
 30
0.0
 11
6.7368254127
 21
4.2906481373
 31
0.0
 11
6.7327589427
 21
4.2917059855
 31
0.0
 11
6.721766007
 21
4.2935351297
 31
0.0
 11
6.7103188868
 21
4.2941371829
 31
0.0
  0
SPLINE
  5
57E
100
AcDbEntity
  8
0
100
AcDbSpline
 62
7
  6
CONTINUOUS
 70
0
 71
3
 72
10
 73
6
 74
4
 42
0.0000001
 43
0.0000001
 44
0.0000000001
 12
0.0257666576
 22
-0.0074794343
 32
0.0
 13
0.0268058097
 23
0.0
 33
0.0
 40
0.0
 40
0.0
 40
0.0
 40
0.0
 40
0.1590798459
 40
0.5736230488
 40
1.0
 40
1.0
 40
1.0
 40
1.0
 10
6.6838121335
 20
3.9664657964
 30
0.0
 10
6.6851784521
 20
3.9660691873
 30
0.0
 10
6.6901482145
 20
3.9647856198
 30
0.0
 10
6.6989889652
 20
3.9633602134
 30
0.0
 10
6.7065090936
 20
3.9629766823
 30
0.0
 10
6.7103188868
 20
3.9629766823
 30
0.0
 11
6.6838121335
 21
3.9664657964
 31
0.0
 11
6.6879427339
 21
3.9653930909
 31
0.0
 11
6.6989051875
 21
3.9635751668
 31
0.0
 11
6.7103188868
 21
3.9629766823
 31
0.0
  0
SPLINE
  5
57F
100
AcDbEntity
  8
0
100
AcDbSpline
 62
7
  6
CONTINUOUS
 70
0
 71
3
 72
14
 73
10
 74
8
 42
0.0000001
 43
0.0000001
 44
0.0000000001
 12
-0.0000226675
 22
0.0760271142
 32
0.0
 13
-0.0756483307
 23
0.0
 33
0.0
 40
0.0
 40
0.0
 40
0.0
 40
0.0
 40
0.0617919938
 40
0.1927360873
 40
0.3364320809
 40
0.4925632963
 40
0.6577569858
 40
0.8279330676
 40
1.0
 40
1.0
 40
1.0
 40
1.0
 10
6.7648162432
 20
3.9302134155
 30
0.0
 10
6.7648157763
 20
3.9317793712
 30
0.0
 10
6.7643984911
 20
3.9366664238
 30
0.0
 10
6.7615847931
 20
3.9448026324
 30
0.0
 10
6.7553269608
 20
3.953822701
 30
0.0
 10
6.7464940085
 20
3.9616848567
 30
0.0
 10
6.735602319
 20
3.9677914977
 30
0.0
 10
6.7233135571
 20
3.9716529239
 30
0.0
 10
6.7146577455
 20
3.9725306379
 30
0.0
 10
6.7103188868
 20
3.9725306379
 30
0.0
 11
6.7648162432
 21
3.9302134155
 31
0.0
 11
6.7644254167
 21
3.9348897643
 31
0.0
 11
6.7613066293
 21
3.9442916843
 31
0.0
 11
6.7551999255
 21
3.9532846226
 31
0.0
 11
6.7464260149
 21
3.9611915669
 31
0.0
 11
6.7355453292
 21
3.9673378148
 31
0.0
 11
6.7232684612
 21
3.971211631
 31
0.0
 11
6.7103188868
 21
3.9725306379
 31
0.0
  0
SPLINE
  5
580
100
AcDbEntity
  8
0
100
AcDbSpline
 62
7
  6
CONTINUOUS
 70
0
 71
3
 72
22
 73
18
 74
16
 42
0.0000001
 43
0.0000001
 44
0.0000000001
 12
0.1076738063
 22
0.0209205982
 32
0.0
 13
0.1076738059
 23
-0.0209205982
 33
0.0
 40
0.0
 40
0.0
 40
0.0
 40
0.0
 40
0.011037499
 40
0.0436817667
 40
0.0963652632
 40
0.1663224214
 40
0.2509281723
 40
0.3459067653
 40
0.4481169881
 40
0.5520695324
 40
0.6542454662
 40
0.7492162974
 40
0.8337543649
 40
0.903704192
 40
0.9563416595
 40
0.9889762704
 40
1.0
 40
1.0
 40
1.0
 40
1.0
 10
6.6558188868
 20
3.8480569326
 30
0.0
 10
6.6562150366
 20
3.848133903
 30
0.0
 10
6.6577834314
 20
3.8484354396
 30
0.0
 10
6.6612485887
 20
3.8490736199
 30
0.0
 10
6.6668478679
 20
3.8500155577
 30
0.0
 10
6.6743477577
 20
3.8511029434
 30
0.0
 10
6.6834132354
 20
3.8521475354
 30
0.0
 10
6.6936858121
 20
3.8529704322
 30
0.0
 10
6.7046900563
 20
3.8534223057
 30
0.0
 10
6.7159669261
 20
3.8534218858
 30
0.0
 10
6.7269696007
 20
3.8529693357
 30
0.0
 10
6.7372381294
 20
3.8521461632
 30
0.0
 10
6.7463005527
 20
3.851101535
 30
0.0
 10
6.7537960325
 20
3.8500145793
 30
0.0
 10
6.7593930227
 20
3.8490729292
 30
0.0
 10
6.7628556782
 20
3.8484351857
 30
0.0
 10
6.7644232311
 20
3.8481338069
 30
0.0
 10
6.7648188868
 20
3.8480569326
 30
0.0
 11
6.6558188868
 21
3.8480569326
 31
0.0
 11
6.6570077892
 21
3.848285505
 31
0.0
 11
6.6605292496
 21
3.8489339579
 31
0.0
 11
6.6662279585
 21
3.8498922417
 31
0.0
 11
6.6738220916
 21
3.8509924967
 31
0.0
 11
6.6830414114
 21
3.8520536584
 31
0.0
 11
6.6934261994
 21
3.852884368
 31
0.0
 11
6.70462797
 21
3.8533435853
 31
0.0
 11
6.7160302604
 21
3.8533431615
 31
0.0
 11
6.7272282422
 21
3.8528833461
 31
0.0
 11
6.7376121334
 21
3.8520521021
 31
0.0
 11
6.7468240329
 21
3.8509913985
 31
0.0
 11
6.75441734
 21
3.849891051
 31
0.0
 11
6.7601110537
 21
3.8489335075
 31
0.0
 11
6.763631468
 21
3.8482852228
 31
0.0
 11
6.7648188868
 21
3.8480569326
 31
0.0
  0
SPLINE
  5
581
100
AcDbEntity
  8
0
100
AcDbSpline
 62
7
  6
CONTINUOUS
 70
0
 71
3
 72
10
 73
6
 74
4
 42
0.0000001
 43
0.0000001
 44
0.0000000001
 12
-0.026821386
 22
0.0
 32
0.0
 13
-0.0257751477
 23
-0.0074908782
 33
0.0
 40
0.0
 40
0.0
 40
0.0
 40
0.0
 40
0.4077299132
 40
0.8054929367
 40
1.0
 40
1.0
 40
1.0
 40
1.0
 10
6.7103188868
 20
4.2941371829
 30
0.0
 10
6.706673593
 20
4.2941371829
 30
0.0
 10
6.6994666523
 20
4.2937851084
 30
0.0
 10
6.6906125942
 20
4.2924232958
 30
0.0
 10
6.6854697459
 20
4.2911296981
 30
0.0
 10
6.6837985964
 20
4.2906440219
 30
0.0
 11
6.7103188868
 21
4.2941371829
 31
0.0
 11
6.6993967082
 21
4.2935899012
 31
0.0
 11
6.6888585741
 21
4.2919268292
 31
0.0
 11
6.6837985964
 21
4.2906440219
 31
0.0
  0
SPLINE
  5
582
100
AcDbEntity
  8
0
100
AcDbSpline
 62
7
  6
CONTINUOUS
 70
0
 71
3
 72
10
 73
6
 74
4
 42
0.0000001
 43
0.0000001
 44
0.0000000001
 12
0.0268057419
 22
0.0
 32
0.0
 13
0.0257685183
 23
0.0074788581
 33
0.0
 40
0.0
 40
0.0
 40
0.0
 40
0.0
 40
0.433254572
 40
0.8541699427
 40
1.0
 40
1.0
 40
1.0
 40
1.0
 10
6.7103188868
 20
3.9629766823
 30
0.0
 10
6.7141901235
 20
3.9629766823
 30
0.0
 10
6.7218289414
 20
3.9633723875
 30
0.0
 10
6.7306665251
 20
3.9648221939
 30
0.0
 10
6.7355734817
 20
3.9661023837
 30
0.0
 10
6.7368260898
 20
3.9664659312
 30
0.0
 11
6.7103188868
 21
3.9629766823
 31
0.0
 11
6.7219161307
 21
3.9635949033
 31
0.0
 11
6.7330415163
 21
3.965473927
 31
0.0
 11
6.7368260898
 21
3.9664659312
 31
0.0
  0
SPLINE
  5
583
100
AcDbEntity
  8
0
100
AcDbSpline
 62
7
  6
CONTINUOUS
 70
0
 71
3
 72
22
 73
18
 74
16
 42
0.0000001
 43
0.0000001
 44
0.0000000001
 12
-0.1076738063
 22
-0.0209205982
 32
0.0
 13
-0.1076738059
 23
0.0209205982
 33
0.0
 40
0.0
 40
0.0
 40
0.0
 40
0.0
 40
0.011037499
 40
0.0436817667
 40
0.0963652632
 40
0.1663224214
 40
0.2509281723
 40
0.3459067653
 40
0.4481169881
 40
0.5520695324
 40
0.6542454662
 40
0.7492162974
 40
0.8337543649
 40
0.903704192
 40
0.9563416595
 40
0.9889762704
 40
1.0
 40
1.0
 40
1.0
 40
1.0
 10
6.7648188868
 20
4.4090569326
 30
0.0
 10
6.7644227369
 20
4.4089799622
 30
0.0
 10
6.7628543421
 20
4.4086784256
 30
0.0
 10
6.7593891848
 20
4.4080402453
 30
0.0
 10
6.7537899056
 20
4.4070983075
 30
0.0
 10
6.7462900158
 20
4.4060109218
 30
0.0
 10
6.7372245381
 20
4.4049663298
 30
0.0
 10
6.7269519614
 20
4.404143433
 30
0.0
 10
6.7159477172
 20
4.4036915595
 30
0.0
 10
6.7046708475
 20
4.4036919794
 30
0.0
 10
6.6936681728
 20
4.4041445295
 30
0.0
 10
6.6833996441
 20
4.404967702
 30
0.0
 10
6.6743372209
 20
4.4060123302
 30
0.0
 10
6.6668417411
 20
4.4070992859
 30
0.0
 10
6.6612447508
 20
4.408040936
 30
0.0
 10
6.6577820953
 20
4.4086786795
 30
0.0
 10
6.6562145424
 20
4.4089800583
 30
0.0
 10
6.6558188868
 20
4.4090569326
 30
0.0
 11
6.7648188868
 21
4.4090569326
 31
0.0
 11
6.7636299843
 21
4.4088283602
 31
0.0
 11
6.7601085239
 21
4.4081799073
 31
0.0
 11
6.754409815
 21
4.4072216235
 31
0.0
 11
6.7468156819
 21
4.4061213685
 31
0.0
 11
6.7375963621
 21
4.4050602068
 31
0.0
 11
6.7272115741
 21
4.4042294972
 31
0.0
 11
6.7160098035
 21
4.4037702799
 31
0.0
 11
6.7046075131
 21
4.4037707037
 31
0.0
 11
6.6934095313
 21
4.4042305191
 31
0.0
 11
6.6830256402
 21
4.4050617631
 31
0.0
 11
6.6738137407
 21
4.4061224666
 31
0.0
 11
6.6662204335
 21
4.4072228142
 31
0.0
 11
6.6605267198
 21
4.4081803577
 31
0.0
 11
6.6570063055
 21
4.4088286424
 31
0.0
 11
6.6558188868
 21
4.4090569326
 31
0.0
  0
SPLINE
  5
584
100
AcDbEntity
  8
0
100
AcDbSpline
 62
7
  6
CONTINUOUS
 70
0
 71
3
 72
14
 73
10
 74
8
 42
0.0000001
 43
0.0000001
 44
0.0000000001
 12
0.0713580204
 22
0.0
 32
0.0
 13
-0.0000213819
 23
0.0717153216
 33
0.0
 40
0.0
 40
0.0
 40
0.0
 40
0.0
 40
0.1820072833
 40
0.3581840516
 40
0.5229541537
 40
0.6727033414
 40
0.8083366199
 40
0.9361888075
 40
1.0
 40
1.0
 40
1.0
 40
1.0
 10
6.7103188868
 20
3.8954559987
 30
0.0
 10
6.7146481132
 20
3.8954559987
 30
0.0
 10
6.723180079
 20
3.8960256944
 30
0.0
 10
6.7353943991
 20
3.8986125983
 30
0.0
 10
6.7463098641
 20
3.9029383048
 30
0.0
 10
6.7552792883
 20
3.9089808368
 30
0.0
 10
6.7616928369
 20
3.9166441722
 30
0.0
 10
6.7644381002
 20
3.9241087019
 30
0.0
 10
6.764816698
 20
3.9286880021
 30
0.0
 10
6.7648162432
 20
3.9302134155
 30
0.0
 11
6.7103188868
 21
3.8954559987
 31
0.0
 11
6.7232760795
 21
3.8963453662
 31
0.0
 11
6.7355596292
 21
3.899021216
 31
0.0
 11
6.7464437786
 21
3.9034684686
 31
0.0
 11
6.7552144199
 21
3.9095727534
 31
0.0
 11
6.7613156042
 21
3.9170860312
 31
0.0
 11
6.7644283721
 21
3.9256618632
 31
0.0
 11
6.7648162432
 21
3.9302134155
 31
0.0
  0
SPLINE
  5
585
100
AcDbEntity
  8
0
100
AcDbSpline
 62
7
  6
CONTINUOUS
 70
0
 71
3
 72
14
 73
10
 74
8
 42
0.0000001
 43
0.0000001
 44
0.0000000001
 12
0.0000214916
 22
0.0717153435
 32
0.0
 13
-0.0713580598
 23
-0.0
 33
0.0
 40
0.0
 40
0.0
 40
0.0
 40
0.0
 40
0.0638086729
 40
0.1916617643
 40
0.3272950358
 40
0.4770441156
 40
0.6418145256
 40
0.8179917143
 40
1.0
 40
1.0
 40
1.0
 40
1.0
 10
6.7648162437
 20
4.3269004092
 30
0.0
 10
6.7648167008
 20
4.3284257629
 30
0.0
 10
6.7644381276
 20
4.3330050268
 30
0.0
 10
6.7616929293
 20
4.3404695467
 30
0.0
 10
6.7552793996
 20
4.3481329319
 30
0.0
 10
6.7463099856
 20
4.3541754999
 30
0.0
 10
6.7353945087
 20
4.3585012368
 30
0.0
 10
6.723180144
 20
4.3610881648
 30
0.0
 10
6.7146481395
 20
4.3616578664
 30
0.0
 10
6.7103188868
 20
4.3616578664
 30
0.0
 11
6.7648162437
 21
4.3269004092
 31
0.0
 11
6.7644284097
 21
4.331451786
 31
0.0
 11
6.7613156779
 21
4.3400277052
 31
0.0
 11
6.7552145256
 21
4.3475410152
 31
0.0
 11
6.7464439063
 21
4.3536453284
 31
0.0
 11
6.7355597401
 21
4.3580926153
 31
0.0
 11
6.7232761576
 21
4.360768488
 31
0.0
 11
6.7103188868
 21
4.3616578664
 31
0.0
  0
SPLINE
  5
586
100
AcDbEntity
  8
0
100
AcDbSpline
 62
7
  6
CONTINUOUS
 70
0
 71
3
 72
14
 73
10
 74
8
 42
0.0000001
 43
0.0000001
 44
0.0000000001
 12
-0.0000215367
 22
-0.071715349
 32
0.0
 13
0.0713580763
 23
-0.0
 33
0.0
 40
0.0
 40
0.0
 40
0.0
 40
0.0
 40
0.0638074019
 40
0.1916607631
 40
0.3272940617
 40
0.4770433479
 40
0.6418139731
 40
0.8179914013
 40
1.0
 40
1.0
 40
1.0
 40
1.0
 10
6.6558215295
 20
3.9302134728
 30
0.0
 10
6.6558210715
 20
3.9286881494
 30
0.0
 10
6.6561996325
 20
3.9241089086
 30
0.0
 10
6.6589447952
 20
3.9166443975
 30
0.0
 10
6.6653583144
 20
3.9089809835
 30
0.0
 10
6.6743277305
 20
3.902938393
 30
0.0
 10
6.6852432213
 20
3.89861264
 30
0.0
 10
6.6974576059
 20
3.8960257025
 30
0.0
 10
6.7059896256
 20
3.8954559987
 30
0.0
 10
6.7103188868
 20
3.8954559987
 30
0.0
 11
6.6558215295
 21
3.9302134728
 31
0.0
 11
6.6562093454
 21
3.9256621848
 31
0.0
 11
6.6593220531
 21
3.9170862342
 31
0.0
 11
6.665423188
 21
3.9095729047
 31
0.0
 11
6.6741938111
 21
3.9034685668
 31
0.0
 11
6.6850779899
 21
3.8990212631
 31
0.0
 11
6.6973615908
 21
3.8963453807
 31
0.0
 11
6.7103188868
 21
3.8954559987
 31
0.0
  0
SPLINE
  5
587
100
AcDbEntity
  8
0
100
AcDbSpline
 62
7
  6
CONTINUOUS
 70
0
 71
3
 72
14
 73
10
 74
8
 42
0.0000001
 43
0.0000001
 44
0.0000000001
 12
-0.0713581959
 22
0.0
 32
0.0
 13
0.0000213009
 23
-0.0717156094
 33
0.0
 40
0.0
 40
0.0
 40
0.0
 40
0.0
 40
0.1819754901
 40
0.3581228736
 40
0.5228697788
 40
0.6726023834
 40
0.8082195837
 40
0.9360528694
 40
1.0
 40
1.0
 40
1.0
 40
1.0
 10
6.7103188868
 20
4.3616578664
 30
0.0
 10
6.7059904059
 20
4.3616578664
 30
0.0
 10
6.6974598809
 20
4.3610883627
 30
0.0
 10
6.6852474222
 20
4.3585023407
 30
0.0
 10
6.6743331601
 20
4.3541781163
 30
0.0
 10
6.6653640054
 20
4.3481376671
 30
0.0
 10
6.6589494333
 20
4.3404769362
 30
0.0
 10
6.656200714
 20
4.3330111228
 30
0.0
 10
6.6558210809
 20
4.3284290001
 30
0.0
 10
6.6558215349
 20
4.326900331
 30
0.0
 11
6.7103188868
 21
4.3616578664
 31
0.0
 11
6.6973639148
 21
4.3607688094
 31
0.0
 11
6.6850822729
 21
4.3580939078
 31
0.0
 11
6.6741992487
 21
4.3536482013
 31
0.0
 11
6.6654286208
 21
4.3475459229
 31
0.0
 11
6.6593262877
 21
4.3400350257
 31
0.0
 11
6.6562110582
 21
4.3314614987
 31
0.0
 11
6.6558215349
 21
4.326900331
 31
0.0
  0
SPLINE
  5
588
100
AcDbEntity
  8
126-600_HEX_FEATURES
100
AcDbSpline
 62
7
  6
CONTINUOUS
 70
0
 71
3
 72
11
 73
7
 74
5
 42
0.0000001
 43
0.0000001
 44
0.0000000001
 12
-0.0401577289
 22
0.0254754833
 32
0.0
 13
-0.0473765564
 23
0.0
 33
0.0
 40
0.0
 40
0.0
 40
0.0
 40
0.0
 40
0.0324753987
 40
0.3330998494
 40
0.6611637888
 40
1.0
 40
1.0
 40
1.0
 40
1.0
 10
5.7708033029
 20
4.3555965508
 30
0.0
 10
5.7703685901
 20
4.3558723263
 30
0.0
 10
5.7658681801
 20
4.3586335105
 30
0.0
 10
5.7561979823
 20
4.3627741523
 30
0.0
 10
5.7412179906
 20
4.3661049256
 30
0.0
 10
5.7306698511
 20
4.3668335631
 30
0.0
 10
5.7253188868
 20
4.3668335631
 30
0.0
 11
5.7708033029
 21
4.3555965508
 31
0.0
 11
5.7694875285
 21
4.3564043098
 31
0.0
 11
5.7564761497
 21
4.3621969161
 31
0.0
 11
5.7413308951
 21
4.3656885928
 31
0.0
 11
5.7253188868
 21
4.3668335631
 31
0.0
  0
SPLINE
  5
589
100
AcDbEntity
  8
126-600_HEX_FEATURES
100
AcDbSpline
 62
7
  6
CONTINUOUS
 70
0
 71
3
 72
13
 73
9
 74
7
 42
0.0000001
 43
0.0000001
 44
0.0000000001
 12
0.0000965921
 22
-0.0868308426
 32
0.0
 13
-0.0863982194
 23
0.0
 33
0.0
 40
0.0
 40
0.0
 40
0.0
 40
0.0
 40
0.1387299959
 40
0.2885701471
 40
0.4526144488
 40
0.6287977661
 40
0.8132317762
 40
1.0
 40
1.0
 40
1.0
 40
1.0
 10
5.7878187641
 20
4.3873568026
 30
0.0
 10
5.7878232308
 20
4.3833414552
 30
0.0
 10
5.7861747253
 20
4.3750167355
 30
0.0
 10
5.7796224238
 20
4.3635340956
 30
0.0
 10
5.7695167884
 20
4.3534708227
 30
0.0
 10
5.7564870256
 20
4.3455597642
 30
0.0
 10
5.7414240718
 20
4.3405132127
 30
0.0
 10
5.7306977008
 20
4.3393625137
 30
0.0
 10
5.7253188868
 20
4.3393625137
 30
0.0
 11
5.7878187641
 21
4.3873568026
 31
0.0
 11
5.7856536913
 21
4.3755692451
 31
0.0
 11
5.7793885487
 21
4.3642403047
 31
0.0
 11
5.7694338196
 21
4.3541516407
 31
0.0
 11
5.7564609519
 21
4.3461884942
 31
0.0
 11
5.741362001
 21
4.3410955013
 31
0.0
 11
5.7253188868
 21
4.3393625137
 31
0.0
  0
SPLINE
  5
58A
100
AcDbEntity
  8
126-600_HEX_FEATURES
100
AcDbSpline
 62
7
  6
CONTINUOUS
 70
0
 71
3
 72
11
 73
7
 74
5
 42
0.0000001
 43
0.0000001
 44
0.0000000001
 12
0.0401567473
 22
-0.0254719068
 32
0.0
 13
0.0473738184
 23
0.0
 33
0.0
 40
0.0
 40
0.0
 40
0.0
 40
0.0
 40
0.0323826723
 40
0.3330365343
 40
0.6611358983
 40
1.0
 40
1.0
 40
1.0
 40
1.0
 10
5.6798367875
 20
3.9015158461
 30
0.0
 10
5.6802702485
 20
3.9012408966
 30
0.0
 10
5.6847695595
 20
3.8984804317
 30
0.0
 10
5.6944387149
 20
3.8943400027
 30
0.0
 10
5.7094192597
 20
3.8910089838
 30
0.0
 10
5.7199677913
 20
3.8902803021
 30
0.0
 10
5.7253188868
 20
3.8902803021
 30
0.0
 11
5.6798367875
 21
3.9015158461
 31
0.0
 11
5.681148737
 21
3.9007104511
 31
0.0
 11
5.6941605042
 21
3.8949173151
 31
0.0
 11
5.7093064879
 21
3.8914253295
 31
0.0
 11
5.7253188868
 21
3.8902803021
 31
0.0
  0
SPLINE
  5
58B
100
AcDbEntity
  8
126-600_HEX_FEATURES
100
AcDbSpline
 62
7
  6
CONTINUOUS
 70
0
 71
3
 72
14
 73
10
 74
8
 42
0.0000001
 43
0.0000001
 44
0.0000000001
 12
-0.0000986682
 22
0.0868326869
 32
0.0
 13
0.0863981009
 23
0.0
 33
0.0
 40
0.0
 40
0.0
 40
0.0
 40
0.0
 40
0.0018496709
 40
0.139249771
 40
0.2890191879
 40
0.4529825997
 40
0.6290554981
 40
0.8133634338
 40
1.0
 40
1.0
 40
1.0
 40
1.0
 10
5.6628190671
 20
3.8697575661
 30
0.0
 10
5.6628190062
 20
3.8698111034
 30
0.0
 10
5.6628250513
 20
3.8738414192
 30
0.0
 10
5.6644988886
 20
3.8821718235
 30
0.0
 10
5.6710401336
 20
3.8936103229
 30
0.0
 10
5.6811463677
 20
3.9036617541
 30
0.0
 10
5.6941712192
 20
3.9115626532
 30
0.0
 10
5.7092250148
 20
3.9166022735
 30
0.0
 10
5.7199438718
 20
3.9177513515
 30
0.0
 10
5.7253188868
 20
3.9177513515
 30
0.0
 11
5.6628190671
 21
3.8697575661
 31
0.0
 11
5.6628193081
 21
3.8699181708
 31
0.0
 11
5.6649997346
 21
3.8815873155
 31
0.0
 11
5.6712728555
 21
3.892904833
 31
0.0
 11
5.6812291348
 21
3.9029821177
 31
0.0
 11
5.6941971626
 21
3.9109348704
 31
0.0
 11
5.7092869709
 21
3.9160208179
 31
0.0
 11
5.7253188868
 21
3.9177513515
 31
0.0
  0
SPLINE
  5
58C
100
AcDbEntity
  8
126-600_HEX_FEATURES
100
AcDbSpline
 62
7
  6
CONTINUOUS
 70
0
 71
3
 72
14
 73
10
 74
8
 42
0.0000001
 43
0.0000001
 44
0.0000000001
 12
0.0619072947
 22
0.0105716144
 32
0.0
 13
0.0628034974
 23
0.0
 33
0.0
 40
0.0
 40
0.0
 40
0.0
 40
0.0
 40
0.0252060748
 40
0.1009210314
 40
0.2206612168
 40
0.3805854231
 40
0.5696568249
 40
0.7802881992
 40
1.0
 40
1.0
 40
1.0
 40
1.0
 10
5.6628188868
 20
3.7625569326
 30
0.0
 10
5.6633390334
 20
3.7626457556
 30
0.0
 10
5.6654223348
 20
3.7629972003
 30
0.0
 10
5.6699835843
 20
3.7637287867
 30
0.0
 10
5.6773476076
 20
3.7647904802
 30
0.0
 10
5.6870908164
 20
3.7659663743
 30
0.0
 10
5.698760181
 20
3.7670280803
 30
0.0
 10
5.7117093492
 20
3.7677602926
 30
0.0
 10
5.7207193303
 20
3.7679328208
 30
0.0
 10
5.7253188868
 20
3.7679328208
 30
0.0
 11
5.6628188868
 21
3.7625569326
 31
0.0
 11
5.6643798616
 21
3.7628202585
 31
0.0
 11
5.6690750352
 21
3.7635732058
 31
0.0
 11
5.6765182407
 21
3.7646458816
 31
0.0
 11
5.686489788
 21
3.7658484423
 31
0.0
 11
5.6983153924
 21
3.7669232247
 31
0.0
 11
5.7115227391
 21
3.7676690224
 31
0.0
 11
5.7253188868
 21
3.7679328208
 31
0.0
  0
SPLINE
  5
58D
100
AcDbEntity
  8
126-600_HEX_FEATURES
100
AcDbSpline
 62
7
  6
CONTINUOUS
 70
0
 71
3
 72
14
 73
10
 74
8
 42
0.0000001
 43
0.0000001
 44
0.0000000001
 12
-0.0619072936
 22
-0.0105716142
 32
0.0
 13
-0.0628034962
 23
0.0
 33
0.0
 40
0.0
 40
0.0
 40
0.0
 40
0.0
 40
0.0251679104
 40
0.1008367388
 40
0.2205396956
 40
0.3804512169
 40
0.5695354168
 40
0.7801968403
 40
1.0
 40
1.0
 40
1.0
 40
1.0
 10
5.7878188868
 20
4.4945569326
 30
0.0
 10
5.7872995277
 20
4.4944682441
 30
0.0
 10
5.7852179674
 20
4.4941170866
 30
0.0
 10
5.7806592374
 20
4.4933858582
 30
0.0
 10
5.7732972225
 20
4.4923243279
 30
0.0
 10
5.7635548106
 20
4.4911483193
 30
0.0
 10
5.7518848401
 20
4.4900863024
 30
0.0
 10
5.7389328794
 20
4.4893536932
 30
0.0
 10
5.7299203557
 20
4.4891810444
 30
0.0
 10
5.7253188868
 20
4.4891810444
 30
0.0
 11
5.7878188868
 21
4.4945569326
 31
0.0
 11
5.7862602762
 21
4.4942940007
 31
0.0
 11
5.7815679706
 21
4.4935414657
 31
0.0
 11
5.7741270975
 21
4.4924689981
 31
0.0
 11
5.764156367
 21
4.4912663202
 31
0.0
 11
5.7523299857
 21
4.4901912084
 31
0.0
 11
5.7391207687
 21
4.489445062
 31
0.0
 11
5.7253188868
 21
4.4891810444
 31
0.0
  0
SPLINE
  5
58E
100
AcDbEntity
  8
126-600_HEX_FEATURES
100
AcDbSpline
 62
7
  6
CONTINUOUS
 70
0
 71
3
 72
14
 73
10
 74
8
 42
0.0000001
 43
0.0000001
 44
0.0000000001
 12
-0.0628034912
 22
0.0
 32
0.0
 13
-0.0619072899
 23
0.0105716134
 33
0.0
 40
0.0
 40
0.0
 40
0.0
 40
0.0
 40
0.2197034337
 40
0.4309952334
 40
0.6200566014
 40
0.7801691838
 40
0.8996292731
 40
0.9748750821
 40
1.0
 40
1.0
 40
1.0
 40
1.0
 10
5.7253188868
 20
4.4891810444
 30
0.0
 10
5.7207195059
 20
4.4891810444
 30
0.0
 10
5.711695876
 20
4.489353827
 30
0.0
 10
5.698733307
 20
4.4900875244
 30
0.0
 10
5.6870465734
 20
4.4911521072
 30
0.0
 10
5.6773056215
 20
4.4923289439
 30
0.0
 10
5.6699533432
 20
4.4933897907
 30
0.0
 10
5.6654092977
 20
4.4941188539
 30
0.0
 10
5.6633373586
 20
4.4944683956
 30
0.0
 10
5.6628188868
 20
4.4945569326
 30
0.0
 11
5.7253188868
 21
4.4891810444
 31
0.0
 11
5.7115232656
 21
4.4894448226
 31
0.0
 11
5.6982745506
 21
4.4901936925
 31
0.0
 11
5.6864496932
 21
4.4912697173
 31
0.0
 11
5.676466549
 21
4.4924749191
 31
0.0
 11
5.6690408765
 21
4.4935459248
 31
0.0
 11
5.6643748338
 21
4.4942944445
 31
0.0
 11
5.6628188868
 21
4.4945569326
 31
0.0
  0
SPLINE
  5
58F
100
AcDbEntity
  8
126-600_HEX_FEATURES
100
AcDbSpline
 62
7
  6
CONTINUOUS
 70
0
 71
3
 72
14
 73
10
 74
8
 42
0.0000001
 43
0.0000001
 44
0.0000000001
 12
0.0628034922
 22
0.0
 32
0.0
 13
0.0619072908
 23
-0.0105716136
 33
0.0
 40
0.0
 40
0.0
 40
0.0
 40
0.0
 40
0.2196339341
 40
0.4308972498
 40
0.619960501
 40
0.7800569096
 40
0.8995473175
 40
0.9748369349
 40
1.0
 40
1.0
 40
1.0
 40
1.0
 10
5.7253188868
 20
3.7679328208
 30
0.0
 10
5.7299168128
 20
3.7679328208
 30
0.0
 10
5.7389383907
 20
3.7677601323
 30
0.0
 10
5.7518989609
 20
3.7670267362
 30
0.0
 10
5.7635848204
 20
3.7659624275
 30
0.0
 10
5.7733261258
 20
3.7647857199
 30
0.0
 10
5.7806796222
 20
3.7637248165
 30
0.0
 10
5.7852259958
 20
3.7629954248
 30
0.0
 10
5.7872996277
 20
3.762645604
 30
0.0
 10
5.7878188868
 20
3.7625569326
 30
0.0
 11
5.7253188868
 21
3.7679328208
 31
0.0
 11
5.7391101457
 21
3.7676692093
 31
0.0
 11
5.7523570857
 21
3.7669206316
 31
0.0
 11
5.7641820788
 21
3.7658447909
 31
0.0
 11
5.7741642356
 21
3.7646398842
 31
0.0
 11
5.7815918099
 21
3.7635687247
 31
0.0
 11
5.7862605765
 21
3.7628198145
 31
0.0
 11
5.7878188868
 21
3.7625569326
 31
0.0
  0
SPLINE
  5
590
100
AcDbEntity
  8
126-600_HEX_FEATURES
100
AcDbSpline
 62
7
  6
CONTINUOUS
 70
0
 71
3
 72
13
 73
9
 74
7
 42
0.0000001
 43
0.0000001
 44
0.0000000001
 12
0.0863982398
 22
0.0
 32
0.0
 13
-0.0000960776
 23
-0.0868302853
 33
0.0
 40
0.0
 40
0.0
 40
0.0
 40
0.0
 40
0.1864894962
 40
0.3710024893
 40
0.5473216672
 40
0.7114984808
 40
0.8613932441
 40
1.0
 40
1.0
 40
1.0
 40
1.0
 10
5.7253188868
 20
3.9177513515
 30
0.0
 10
5.7306896748
 20
3.9177513515
 30
0.0
 10
5.741410125
 20
3.9166030168
 30
0.0
 10
5.7564729056
 20
3.9115613427
 30
0.0
 10
5.7695128333
 20
3.9036472565
 30
0.0
 10
5.7796253819
 20
3.8935772438
 30
0.0
 10
5.786176648
 20
3.8820916043
 30
0.0
 10
5.7878232145
 20
3.8737687058
 30
0.0
 10
5.7878187755
 20
3.8697569511
 30
0.0
 11
5.7253188868
 21
3.9177513515
 31
0.0
 11
5.7413383427
 21
3.9160235463
 31
0.0
 11
5.7564452278
 21
3.910932715
 31
0.0
 11
5.7694294732
 21
3.9029656597
 31
0.0
 11
5.7793921677
 21
3.8928687668
 31
0.0
 11
5.7856574
 21
3.8815344809
 31
0.0
 11
5.7878187755
 21
3.8697569511
 31
0.0
  0
SPLINE
  5
591
100
AcDbEntity
  8
126-600_HEX_FEATURES
100
AcDbSpline
 62
7
  6
CONTINUOUS
 70
0
 71
3
 72
13
 73
9
 74
7
 42
0.0000001
 43
0.0000001
 44
0.0000000001
 12
-0.0863983515
 22
0.0
 32
0.0
 13
0.0000942317
 23
0.0868287573
 33
0.0
 40
0.0
 40
0.0
 40
0.0
 40
0.0
 40
0.1866001168
 40
0.3712158291
 40
0.5476277327
 40
0.7118694186
 40
0.8618242028
 40
1.0
 40
1.0
 40
1.0
 40
1.0
 10
5.7253188868
 20
4.3393625137
 30
0.0
 10
5.7199449059
 20
4.3393625137
 30
0.0
 10
5.7092182332
 20
4.3405122006
 30
0.0
 10
5.6941478406
 20
4.3455596405
 30
0.0
 10
5.6811039151
 20
4.3534821226
 30
0.0
 10
5.6709918641
 20
4.3635619635
 30
0.0
 10
5.6644536809
 20
4.3750452905
 30
0.0
 10
5.6628146118
 20
4.3833581373
 30
0.0
 10
5.662818952
 20
4.3873573482
 30
0.0
 11
5.7253188868
 21
4.3393625137
 31
0.0
 11
5.7092900193
 21
4.3410923795
 31
0.0
 11
5.694175704
 21
4.3461890164
 31
0.0
 11
5.6811873664
 21
4.3541647567
 31
0.0
 11
5.6712261006
 21
4.3642709563
 31
0.0
 11
5.6649674394
 21
4.3756148141
 31
0.0
 11
5.662818952
 21
4.3873573482
 31
0.0
  0
SPLINE
  5
592
100
AcDbEntity
  8
126-600_HEX_FEATURES
100
AcDbSpline
 62
7
  6
CONTINUOUS
 70
0
 71
3
 72
13
 73
9
 74
7
 42
0.0000001
 43
0.0000001
 44
0.0000000001
 12
-0.0081789614
 22
0.0294560961
 32
0.0
 13
-0.0076204169
 23
0.029605513
 33
0.0
 40
0.0
 40
0.0
 40
0.0
 40
0.0
 40
0.1538712548
 40
0.3450961286
 40
0.5547018813
 40
0.7544176736
 40
0.9151024125
 40
1.0
 40
1.0
 40
1.0
 40
1.0
 10
4.9940753302
 20
4.5018959652
 30
0.0
 10
4.9936558279
 20
4.5034067807
 30
0.0
 10
4.9927205529
 20
4.5067967239
 30
0.0
 10
4.9912365164
 20
4.5122509562
 30
0.0
 10
4.9896529925
 20
4.5181622213
 30
0.0
 10
4.9881713518
 20
4.5237785494
 30
0.0
 10
4.9870278932
 20
4.5281697869
 30
0.0
 10
4.9864023561
 20
4.5305928736
 30
0.0
 10
4.9861867044
 20
4.5314306858
 30
0.0
 11
4.9940753302
 21
4.5018959652
 31
0.0
 11
4.9928241764
 21
4.506430447
 31
0.0
 11
4.991289211
 21
4.5120711724
 31
0.0
 11
4.9896309358
 21
4.5182606381
 31
0.0
 11
4.988073382
 21
4.5241640386
 31
0.0
 11
4.9868354586
 21
4.528917713
 31
0.0
 11
4.9861867044
 21
4.5314306858
 31
0.0
  0
SPLINE
  5
593
100
AcDbEntity
  8
126-600_HEX_FEATURES
100
AcDbSpline
 62
7
  6
CONTINUOUS
 70
0
 71
3
 72
8
 73
4
 74
2
 42
0.0000001
 43
0.0000001
 44
0.0000000001
 12
-0.0001473857
 22
0.0005725971
 32
0.0
 13
-0.0001472005
 23
0.0005726447
 33
0.0
 40
0.0
 40
0.0
 40
0.0
 40
0.0
 40
1.0
 40
1.0
 40
1.0
 40
1.0
 10
4.9861867044
 20
4.5314306858
 30
0.0
 10
4.9861375758
 20
4.5316215515
 30
0.0
 10
4.9860884782
 20
4.5318124252
 30
0.0
 10
4.9860394114
 20
4.5320033068
 30
0.0
 11
4.9861867044
 21
4.5314306858
 31
0.0
 11
4.9860394114
 21
4.5320033068
 31
0.0
  0
SPLINE
  5
594
100
AcDbEntity
  8
126-600_HEX_FEATURES
100
AcDbSpline
 62
7
  6
CONTINUOUS
 70
0
 71
3
 72
8
 73
4
 74
2
 42
0.0000001
 43
0.0000001
 44
0.0000000001
 12
-0.000270818
 22
0.0010535458
 32
0.0
 13
-0.0002701951
 23
0.0010537056
 33
0.0
 40
0.0
 40
0.0
 40
0.0
 40
0.0
 40
1.0
 40
1.0
 40
1.0
 40
1.0
 10
4.9860394114
 20
4.5320033068
 30
0.0
 10
4.9859491387
 20
4.5323544887
 30
0.0
 10
4.9858589703
 20
4.5327056974
 30
0.0
 10
4.9857689053
 20
4.5330569326
 30
0.0
 11
4.9860394114
 21
4.5320033068
 31
0.0
 11
4.9857689053
 21
4.5330569326
 31
0.0
  0
SPLINE
  5
595
100
AcDbEntity
  8
0
100
AcDbSpline
 62
7
  6
CONTINUOUS
 70
0
 71
3
 72
9
 73
5
 74
3
 42
0.0000001
 43
0.0000001
 44
0.0000000001
 12
0.0031517441
 22
-0.0000558065
 32
0.0
 13
0.0031516323
 23
-0.0000618222
 33
0.0
 40
0.0
 40
0.0
 40
0.0
 40
0.0
 40
0.9637644583
 40
1.0
 40
1.0
 40
1.0
 40
1.0
 10
4.9940753302
 20
3.7552179
 30
0.0
 10
4.9950878432
 20
3.7551999718
 30
0.0
 10
4.9961384077
 20
3.7551803981
 30
0.0
 10
4.9971889525
 20
3.7551598269
 30
0.0
 10
4.9972270195
 20
3.7551590802
 30
0.0
 11
4.9940753302
 21
3.7552179
 31
0.0
 11
4.9971128183
 21
3.7551613164
 31
0.0
 11
4.9972270195
 21
3.7551590802
 31
0.0
  0
SPLINE
  5
596
100
AcDbEntity
  8
0
100
AcDbSpline
 62
7
  6
CONTINUOUS
 70
0
 71
3
 72
8
 73
4
 74
2
 42
0.0000001
 43
0.0000001
 44
0.0000000001
 12
0.0014010106
 22
-0.0000274821
 32
0.0
 13
0.0014009869
 23
-0.0000286616
 33
0.0
 40
0.0
 40
0.0
 40
0.0
 40
0.0
 40
1.0
 40
1.0
 40
1.0
 40
1.0
 10
4.9972270195
 20
3.7551590802
 30
0.0
 10
4.997694023
 20
3.7551499194
 30
0.0
 10
4.9981610227
 20
3.7551405617
 30
0.0
 10
4.9986280183
 20
3.7551310078
 30
0.0
 11
4.9972270195
 21
3.7551590802
 31
0.0
 11
4.9986280183
 21
3.7551310078
 31
0.0
  0
SPLINE
  5
597
100
AcDbEntity
  8
0
100
AcDbSpline
 62
7
  6
CONTINUOUS
 70
0
 71
3
 72
9
 73
5
 74
3
 42
0.0000001
 43
0.0000001
 44
0.0000000001
 12
0.0011299043
 22
-0.0000231157
 32
0.0
 13
0.0011298884
 23
-0.0000238796
 33
0.0
 40
0.0
 40
0.0
 40
0.0
 40
0.0
 40
0.9158258285
 40
1.0
 40
1.0
 40
1.0
 40
1.0
 10
4.9986280183
 20
3.7551310078
 30
0.0
 10
4.9989729502
 20
3.7551239512
 30
0.0
 10
4.9993495825
 20
3.7551161291
 30
0.0
 10
4.9997262122
 20
3.7551081799
 30
0.0
 10
4.9997579147
 20
3.7551075099
 30
0.0
 11
4.9986280183
 21
3.7551310078
 31
0.0
 11
4.9996628072
 21
3.7551095173
 31
0.0
 11
4.9997579147
 21
3.7551075099
 31
0.0
  0
SPLINE
  5
598
100
AcDbEntity
  8
0
100
AcDbSpline
 62
7
  6
CONTINUOUS
 70
0
 71
3
 72
8
 73
4
 74
2
 42
0.0000001
 43
0.0000001
 44
0.0000000001
 12
0.0011484638
 22
-0.0000242722
 32
0.0
 13
0.0011484469
 23
-0.0000250582
 33
0.0
 40
0.0
 40
0.0
 40
0.0
 40
0.0
 40
1.0
 40
1.0
 40
1.0
 40
1.0
 10
4.9997579147
 20
3.7551075099
 30
0.0
 10
5.000140736
 20
3.7550994192
 30
0.0
 10
5.0005235545
 20
3.7550911972
 30
0.0
 10
5.0009063701
 20
3.7550828445
 30
0.0
 11
4.9997579147
 21
3.7551075099
 31
0.0
 11
5.0009063701
 21
3.7550828445
 31
0.0
  0
SPLINE
  5
599
100
AcDbEntity
  8
0
100
AcDbSpline
 62
7
  6
CONTINUOUS
 70
0
 71
3
 72
9
 73
5
 74
3
 42
0.0000001
 43
0.0000001
 44
0.0000000001
 12
0.0005715087
 22
-0.0000124699
 32
0.0
 13
0.0005715044
 23
-0.000012664
 33
0.0
 40
0.0
 40
0.0
 40
0.0
 40
0.0
 40
0.9021325206
 40
1.0
 40
1.0
 40
1.0
 40
1.0
 10
5.0009063701
 20
3.7550828445
 30
0.0
 10
5.001078229
 20
3.7550790946
 30
0.0
 10
5.0012687312
 20
3.7550749088
 30
0.0
 10
5.0014592328
 20
3.7550706906
 30
0.0
 10
5.0014778767
 20
3.7550702775
 30
0.0
 11
5.0009063701
 21
3.7550828445
 31
0.0
 11
5.0014219449
 21
3.755071516
 31
0.0
 11
5.0014778767
 21
3.7550702775
 31
0.0
  0
SPLINE
  5
59A
100
AcDbEntity
  8
0
100
AcDbSpline
 62
7
  6
CONTINUOUS
 70
0
 71
3
 72
8
 73
4
 74
2
 42
0.0000001
 43
0.0000001
 44
0.0000000001
 12
0.0005974559
 22
-0.000013239
 32
0.0
 13
0.0005974512
 23
-0.0000134507
 33
0.0
 40
0.0
 40
0.0
 40
0.0
 40
0.0
 40
1.0
 40
1.0
 40
1.0
 40
1.0
 10
5.0014778767
 20
3.7550702775
 30
0.0
 10
5.0016770286
 20
3.7550658645
 30
0.0
 10
5.0018761798
 20
3.7550614162
 30
0.0
 10
5.0020753302
 20
3.7550569326
 30
0.0
 11
5.0014778767
 21
3.7550702775
 31
0.0
 11
5.0020753302
 21
3.7550569326
 31
0.0
  0
SPLINE
  5
59B
100
AcDbEntity
  8
126-600_HEX_FEATURES
100
AcDbSpline
 62
7
  6
CONTINUOUS
 70
0
 71
3
 72
9
 73
5
 74
3
 42
0.0000001
 43
0.0000001
 44
0.0000000001
 12
-0.0005974512
 22
-0.0000134507
 32
0.0
 13
-0.0005974559
 23
-0.000013239
 33
0.0
 40
0.0
 40
0.0
 40
0.0
 40
0.0
 40
0.9662976996
 40
1.0
 40
1.0
 40
1.0
 40
1.0
 10
5.0020753302
 20
4.5020569326
 30
0.0
 10
5.0018828917
 20
4.5020526001
 30
0.0
 10
5.0016837405
 20
4.5020481506
 30
0.0
 10
5.0014845885
 20
4.5020437364
 30
0.0
 10
5.0014778767
 20
4.5020435877
 30
0.0
 11
5.0020753302
 21
4.5020569326
 31
0.0
 11
5.0014980123
 21
4.502044034
 31
0.0
 11
5.0014778767
 21
4.5020435877
 31
0.0
  0
SPLINE
  5
59C
100
AcDbEntity
  8
126-600_HEX_FEATURES
100
AcDbSpline
 62
7
  6
CONTINUOUS
 70
0
 71
3
 72
8
 73
4
 74
2
 42
0.0000001
 43
0.0000001
 44
0.0000000001
 12
-0.0005715044
 22
-0.000012664
 32
0.0
 13
-0.0005715086
 23
-0.0000124699
 33
0.0
 40
0.0
 40
0.0
 40
0.0
 40
0.0
 40
1.0
 40
1.0
 40
1.0
 40
1.0
 10
5.0014778767
 20
4.5020435877
 30
0.0
 10
5.0012873752
 20
4.5020393664
 30
0.0
 10
5.001096873
 20
4.5020351773
 30
0.0
 10
5.0009063701
 20
4.5020310207
 30
0.0
 11
5.0014778767
 21
4.5020435877
 31
0.0
 11
5.0009063701
 21
4.5020310207
 31
0.0
  0
SPLINE
  5
59D
100
AcDbEntity
  8
126-600_HEX_FEATURES
100
AcDbSpline
 62
7
  6
CONTINUOUS
 70
0
 71
3
 72
9
 73
5
 74
3
 42
0.0000001
 43
0.0000001
 44
0.0000000001
 12
-0.0011484469
 22
-0.0000250582
 32
0.0
 13
-0.0011484638
 23
-0.0000242722
 33
0.0
 40
0.0
 40
0.0
 40
0.0
 40
0.0
 40
0.943849429
 40
1.0
 40
1.0
 40
1.0
 40
1.0
 10
5.0009063701
 20
4.5020310207
 30
0.0
 10
5.0005450498
 20
4.502023137
 30
0.0
 10
5.0001622315
 20
4.5020149077
 30
0.0
 10
4.9997794103
 20
4.5020068096
 30
0.0
 10
4.9997579147
 20
4.5020063553
 30
0.0
 11
5.0009063701
 21
4.5020310207
 31
0.0
 11
4.9998224016
 21
4.5020077194
 31
0.0
 11
4.9997579147
 21
4.5020063553
 31
0.0
  0
SPLINE
  5
59E
100
AcDbEntity
  8
126-600_HEX_FEATURES
100
AcDbSpline
 62
7
  6
CONTINUOUS
 70
0
 71
3
 72
8
 73
4
 74
2
 42
0.0000001
 43
0.0000001
 44
0.0000000001
 12
-0.0011298884
 22
-0.0000238796
 32
0.0
 13
-0.0011299043
 23
-0.0000231157
 33
0.0
 40
0.0
 40
0.0
 40
0.0
 40
0.0
 40
1.0
 40
1.0
 40
1.0
 40
1.0
 10
4.9997579147
 20
4.5020063553
 30
0.0
 10
4.9993812852
 20
4.5019983954
 30
0.0
 10
4.9990046531
 20
4.5019905626
 30
0.0
 10
4.9986280183
 20
4.5019828574
 30
0.0
 11
4.9997579147
 21
4.5020063553
 31
0.0
 11
4.9986280183
 21
4.5019828574
 31
0.0
  0
SPLINE
  5
59F
100
AcDbEntity
  8
126-600_HEX_FEATURES
100
AcDbSpline
 62
7
  6
CONTINUOUS
 70
0
 71
3
 72
9
 73
5
 74
3
 42
0.0000001
 43
0.0000001
 44
0.0000000001
 12
-0.0014009869
 22
-0.0000286616
 32
0.0
 13
-0.0014010106
 23
-0.0000274821
 33
0.0
 40
0.0
 40
0.0
 40
0.0
 40
0.0
 40
0.9373875354
 40
1.0
 40
1.0
 40
1.0
 40
1.0
 10
4.9986280183
 20
4.5019828574
 30
0.0
 10
4.9981902625
 20
4.5019739017
 30
0.0
 10
4.9977232631
 20
4.5019645317
 30
0.0
 10
4.9972562598
 20
4.5019553586
 30
0.0
 10
4.9972270195
 20
4.501954785
 30
0.0
 11
4.9986280183
 21
4.5019828574
 31
0.0
 11
4.9973147402
 21
4.5019565081
 31
0.0
 11
4.9972270195
 21
4.501954785
 31
0.0
  0
SPLINE
  5
5A0
100
AcDbEntity
  8
126-600_HEX_FEATURES
100
AcDbSpline
 62
7
  6
CONTINUOUS
 70
0
 71
3
 72
8
 73
4
 74
2
 42
0.0000001
 43
0.0000001
 44
0.0000000001
 12
-0.0031516323
 22
-0.0000618222
 32
0.0
 13
-0.003151744
 23
-0.0000558065
 33
0.0
 40
0.0
 40
0.0
 40
0.0
 40
0.0
 40
1.0
 40
1.0
 40
1.0
 40
1.0
 10
4.9972270195
 20
4.501954785
 30
0.0
 10
4.9961764754
 20
4.5019341776
 30
0.0
 10
4.9951259116
 20
4.5019145674
 30
0.0
 10
4.9940753302
 20
4.5018959652
 30
0.0
 11
4.9972270195
 21
4.501954785
 31
0.0
 11
4.9940753302
 21
4.5018959652
 31
0.0
  0
SPLINE
  5
5A1
100
AcDbEntity
  8
126-600_HEX_FEATURES
100
AcDbSpline
 62
7
  6
CONTINUOUS
 70
0
 71
3
 72
11
 73
7
 74
5
 42
0.0000001
 43
0.0000001
 44
0.0000000001
 12
-0.0473782367
 22
0.0
 32
0.0
 13
-0.0401579766
 23
-0.0254770765
 33
0.0
 40
0.0
 40
0.0
 40
0.0
 40
0.0
 40
0.3394568612
 40
0.6672348195
 40
0.967445164
 40
1.0
 40
1.0
 40
1.0
 40
1.0
 10
5.7253188868
 20
4.3668335631
 30
0.0
 10
5.7199579309
 20
4.3668335631
 30
0.0
 10
5.7094040158
 20
4.3661032206
 30
0.0
 10
5.6944256407
 20
4.3627687933
 30
0.0
 10
5.6847649075
 20
4.3586305764
 30
0.0
 10
5.6802688763
 20
4.3558721582
 30
0.0
 10
5.6798330975
 20
4.3555956908
 30
0.0
 11
5.7253188868
 21
4.3668335631
 31
0.0
 11
5.7092771386
 21
4.3656842396
 31
0.0
 11
5.6941454401
 21
4.362191624
 31
0.0
 11
5.6811521301
 21
4.3564054294
 31
0.0
 11
5.6798330975
 21
4.3555956908
 31
0.0
  0
SPLINE
  5
5A2
100
AcDbEntity
  8
126-600_HEX_FEATURES
100
AcDbSpline
 62
7
  6
CONTINUOUS
 70
0
 71
3
 72
11
 73
7
 74
5
 42
0.0000001
 43
0.0000001
 44
0.0000000001
 12
0.0473759761
 22
0.0
 32
0.0
 13
0.0401571481
 23
0.0254741631
 33
0.0
 40
0.0
 40
0.0
 40
0.0
 40
0.0
 40
0.3394959672
 40
0.6673166732
 40
0.9675616499
 40
1.0
 40
1.0
 40
1.0
 40
1.0
 10
5.7253188868
 20
3.8902803021
 30
0.0
 10
5.7306802044
 20
3.8902803021
 30
0.0
 10
5.7412349127
 20
3.8910107469
 30
0.0
 10
5.7562143329
 20
3.894345681
 30
0.0
 10
5.7658738861
 20
3.8984838526
 30
0.0
 10
5.7703685557
 20
3.9012415188
 30
0.0
 10
5.7708027662
 20
3.9015169654
 30
0.0
 11
5.7253188868
 21
3.8902803021
 31
0.0
 11
5.7413617117
 21
3.8914297834
 31
0.0
 11
5.756494594
 21
3.8949229807
 31
0.0
 11
5.7694885245
 21
3.9007101469
 31
0.0
 11
5.7708027662
 21
3.9015169654
 31
0.0
  0
SPLINE
  5
5A3
100
AcDbEntity
  8
0
100
AcDbSpline
 62
7
  6
CONTINUOUS
 70
0
 71
3
 72
8
 73
4
 74
2
 42
0.0000001
 43
0.0000001
 44
0.0000000001
 12
0.0002701951
 22
0.0010537056
 32
0.0
 13
0.000270818
 23
0.0010535458
 33
0.0
 40
0.0
 40
0.0
 40
0.0
 40
0.0
 40
1.0
 40
1.0
 40
1.0
 40
1.0
 10
4.9857689053
 20
3.7240569326
 30
0.0
 10
4.9858589703
 20
3.7244081678
 30
0.0
 10
4.9859491387
 20
3.7247593765
 30
0.0
 10
4.9860394114
 20
3.7251105584
 30
0.0
 11
4.9857689053
 21
3.7240569326
 31
0.0
 11
4.9860394114
 21
3.7251105584
 31
0.0
  0
SPLINE
  5
5A4
100
AcDbEntity
  8
0
100
AcDbSpline
 62
7
  6
CONTINUOUS
 70
0
 71
3
 72
8
 73
4
 74
2
 42
0.0000001
 43
0.0000001
 44
0.0000000001
 12
0.0001472005
 22
0.0005726448
 32
0.0
 13
0.0001473857
 23
0.0005725972
 33
0.0
 40
0.0
 40
0.0
 40
0.0
 40
0.0
 40
1.0
 40
1.0
 40
1.0
 40
1.0
 10
4.9860394114
 20
3.7251105584
 30
0.0
 10
4.9860884782
 20
3.72530144
 30
0.0
 10
4.9861375759
 20
3.7254923137
 30
0.0
 10
4.9861867044
 20
3.7256831795
 30
0.0
 11
4.9860394114
 21
3.7251105584
 31
0.0
 11
4.9861867044
 21
3.7256831795
 31
0.0
  0
SPLINE
  5
5A5
100
AcDbEntity
  8
0
100
AcDbSpline
 62
7
  6
CONTINUOUS
 70
0
 71
3
 72
13
 73
9
 74
7
 42
0.0000001
 43
0.0000001
 44
0.0000000001
 12
0.0076204169
 22
0.0296055129
 32
0.0
 13
0.0081789614
 23
0.029456096
 33
0.0
 40
0.0
 40
0.0
 40
0.0
 40
0.0
 40
0.0851726762
 40
0.2479233886
 40
0.4479645389
 40
0.6586323594
 40
0.8499983796
 40
1.0
 40
1.0
 40
1.0
 40
1.0
 10
4.9861867044
 20
3.7256831795
 30
0.0
 10
4.9864030549
 20
3.7265237064
 30
0.0
 10
4.9870345606
 20
3.7289698902
 30
0.0
 10
4.9881849654
 20
3.7333873965
 30
0.0
 10
4.9896758391
 20
3.7390376837
 30
0.0
 10
4.9912637533
 20
3.7449638985
 30
0.0
 10
4.9927410692
 20
3.7503918003
 30
0.0
 10
4.9936663777
 20
3.7537450793
 30
0.0
 10
4.9940753302
 20
3.7552179
 30
0.0
 11
4.9861867044
 21
3.7256831795
 31
0.0
 11
4.9868375666
 21
3.7282042934
 31
0.0
 11
4.9880915166
 21
3.7330190585
 31
0.0
 11
4.9896518768
 21
3.7389320053
 31
0.0
 11
4.9913189345
 21
3.745152731
 31
0.0
 11
4.9928554631
 21
3.7507975028
 31
0.0
 11
4.9940753302
 21
3.7552179
 31
0.0
  0
SPLINE
  5
5A6
100
AcDbEntity
  8
126-600_HEX_FEATURES
100
AcDbSpline
 62
7
  6
CONTINUOUS
 70
0
 71
3
 72
13
 73
9
 74
7
 42
0.0000001
 43
0.0000001
 44
0.0000000001
 12
-0.0820770906
 22
0.0
 32
0.0
 13
-0.0000937335
 23
0.0824899417
 33
0.0
 40
0.0
 40
0.0
 40
0.0
 40
0.0
 40
0.1943202644
 40
0.3848080062
 40
0.563208551
 40
0.7206250277
 40
0.8634779381
 40
1.0
 40
1.0
 40
1.0
 40
1.0
 10
5.7253188868
 20
3.8293630039
 30
0.0
 10
5.7200024728
 20
3.8293630039
 30
0.0
 10
5.7094561788
 20
3.830139965
 30
0.0
 10
5.6943891618
 20
3.8337000298
 30
0.0
 10
5.6811655442
 20
3.8396889723
 30
0.0
 10
5.6708175002
 20
3.8480033641
 30
0.0
 10
5.6642519775
 20
3.8583002118
 30
0.0
 10
5.6628233326
 20
3.8660036671
 30
0.0
 10
5.6628190671
 20
3.8697575661
 30
0.0
 11
5.7253188868
 21
3.8293630039
 31
0.0
 11
5.7094153697
 21
3.8305698445
 31
0.0
 11
5.6942258146
 21
3.8342739805
 31
0.0
 11
5.6809706906
 21
3.840495504
 31
0.0
 11
5.6710462634
 21
3.8487683237
 31
0.0
 11
5.6648812436
 21
3.8587416388
 31
0.0
 11
5.6628190671
 21
3.8697575661
 31
0.0
  0
SPLINE
  5
5A7
100
AcDbEntity
  8
126-600_HEX_FEATURES
100
AcDbSpline
 62
7
  6
CONTINUOUS
 70
0
 71
3
 72
13
 73
9
 74
7
 42
0.0000001
 43
0.0000001
 44
0.0000000001
 12
0.0820767246
 22
0.0
 32
0.0
 13
0.0000917607
 23
-0.0824877087
 33
0.0
 40
0.0
 40
0.0
 40
0.0
 40
0.0
 40
0.1943861245
 40
0.3841941534
 40
0.5622392619
 40
0.7197731591
 40
0.8627806801
 40
1.0
 40
1.0
 40
1.0
 40
1.0
 10
5.7253188868
 20
4.4277508613
 30
0.0
 10
5.7306370789
 20
4.4277508613
 30
0.0
 10
5.7411665894
 20
4.4269749086
 30
0.0
 10
5.7562077635
 20
4.4234243007
 30
0.0
 10
5.7694129638
 20
4.4174584904
 30
0.0
 10
5.779772537
 20
4.409163176
 30
0.0
 10
5.7863731265
 20
4.3988567599
 30
0.0
 10
5.787814567
 20
4.3911297717
 30
0.0
 10
5.7878187641
 20
4.3873568026
 30
0.0
 11
5.7253188868
 21
4.4277508613
 31
0.0
 11
5.7412276914
 21
4.4265432015
 31
0.0
 11
5.7563639801
 21
4.4228564092
 31
0.0
 11
5.7695990033
 21
4.416660892
 31
0.0
 11
5.779544622
 21
4.4083985611
 31
0.0
 11
5.7857353936
 21
4.3984263326
 31
0.0
 11
5.7878187641
 21
4.3873568026
 31
0.0
  0
SPLINE
  5
5A8
100
AcDbEntity
  8
126-600_HEX_FEATURES
100
AcDbSpline
 62
7
  6
CONTINUOUS
 70
0
 71
3
 72
13
 73
9
 74
7
 42
0.0000001
 43
0.0000001
 44
0.0000000001
 12
0.0000895181
 22
0.0824854501
 32
0.0
 13
0.0820765739
 23
-0.0
 33
0.0
 40
0.0
 40
0.0
 40
0.0
 40
0.0
 40
0.1378949307
 40
0.2809554521
 40
0.4382777681
 40
0.6153311675
 40
0.8052833891
 40
1.0
 40
1.0
 40
1.0
 40
1.0
 10
5.662818952
 20
4.3873573482
 30
0.0
 10
5.6628230667
 20
4.39114879
 30
0.0
 10
5.6642765185
 20
4.3988958874
 30
0.0
 10
5.6709031792
 20
4.4092022007
 30
0.0
 10
5.6812459544
 20
4.4174656395
 30
0.0
 10
5.6944226347
 20
4.4234199236
 30
0.0
 10
5.7094491493
 20
4.4269726701
 30
0.0
 10
5.7199916627
 20
4.4277508613
 30
0.0
 10
5.7253188868
 20
4.4277508613
 30
0.0
 11
5.662818952
 21
4.3873573482
 31
0.0
 11
5.6649229747
 21
4.3984787635
 31
0.0
 11
5.6711333714
 21
4.4084438825
 31
0.0
 11
5.681075176
 21
4.4166835778
 31
0.0
 11
5.6942368679
 21
4.4228436948
 31
0.0
 11
5.7093832246
 21
4.426539036
 31
0.0
 11
5.7253188868
 21
4.4277508613
 31
0.0
  0
SPLINE
  5
5A9
100
AcDbEntity
  8
126-600_HEX_FEATURES
100
AcDbSpline
 62
7
  6
CONTINUOUS
 70
0
 71
3
 72
13
 73
9
 74
7
 42
0.0000001
 43
0.0000001
 44
0.0000000001
 12
-0.0000912722
 22
-0.0824873336
 32
0.0
 13
-0.0820768974
 23
-0.0
 33
0.0
 40
0.0
 40
0.0
 40
0.0
 40
0.0
 40
0.1373176987
 40
0.2802415315
 40
0.4374636252
 40
0.6148498364
 40
0.8052885357
 40
1.0
 40
1.0
 40
1.0
 40
1.0
 10
5.7878187755
 20
3.8697569511
 30
0.0
 10
5.7878145977
 20
3.8659812942
 30
0.0
 10
5.7863718428
 20
3.8582539074
 30
0.0
 10
5.779774545
 20
3.8479556723
 30
0.0
 10
5.7694408254
 20
3.8396758241
 30
0.0
 10
5.7562497793
 20
3.8337030241
 30
0.0
 10
5.7412016931
 20
3.8301421687
 30
0.0
 10
5.7306459911
 20
3.8293630039
 30
0.0
 10
5.7253188868
 20
3.8293630039
 30
0.0
 11
5.7878187755
 21
3.8697569511
 31
0.0
 11
5.7857323904
 21
3.8586798693
 31
0.0
 11
5.7795437807
 21
3.8487143546
 31
0.0
 11
5.7696198187
 21
3.8404659621
 31
0.0
 11
5.7564385323
 21
3.8342831479
 31
0.0
 11
5.7412541927
 21
3.8305747739
 31
0.0
 11
5.7253188868
 21
3.8293630039
 31
0.0
  0
SPLINE
  5
5AA
100
AcDbEntity
  8
0
100
AcDbSpline
 62
7
  6
CONTINUOUS
 70
0
 71
3
 72
14
 73
10
 74
8
 42
0.0000001
 43
0.0000001
 44
0.0000000001
 12
-0.1046826132
 22
0.2029792199
 32
0.0
 13
0.1046826132
 23
0.2029792199
 33
0.0
 40
0.0
 40
0.0
 40
0.0
 40
0.0
 40
0.1530438599
 40
0.2956043717
 40
0.4324922324
 40
0.5675957362
 40
0.7044780411
 40
0.8469906498
 40
1.0
 40
1.0
 40
1.0
 40
1.0
 10
4.1343825526
 20
3.6404544601
 30
0.0
 10
4.1290422089
 20
3.6508093679
 30
0.0
 10
4.1196372155
 20
3.6713090962
 30
0.0
 10
4.1095955974
 20
3.7027646205
 30
0.0
 10
4.1044518873
 20
3.7340322893
 30
0.0
 10
4.1044535804
 20
3.7653013135
 30
0.0
 10
4.1095996609
 20
3.7965644185
 30
0.0
 10
4.1196408433
 20
3.8280129335
 30
0.0
 10
4.1290434131
 20
3.8485068322
 30
0.0
 10
4.1343825526
 20
3.8588594051
 30
0.0
 11
4.1343825526
 21
3.6404544601
 31
0.0
 11
4.1199849539
 21
3.672304101
 31
0.0
 11
4.1102500817
 21
3.7033731522
 31
0.0
 11
4.1052848479
 21
3.734239266
 31
0.0
 11
4.1052864787
 21
3.7650946741
 31
0.0
 11
4.1102544676
 21
3.7959590594
 31
0.0
 11
4.11998779
 21
3.8270171315
 31
0.0
 11
4.1343825526
 21
3.8588594051
 31
0.0
  0
SPLINE
  5
5AB
100
AcDbEntity
  8
0
100
AcDbSpline
 62
7
  6
CONTINUOUS
 70
0
 71
3
 72
10
 73
6
 74
4
 42
0.0000001
 43
0.0000001
 44
0.0000000001
 12
-0.0269069688
 22
0.0821754212
 32
0.0
 13
-0.057604196
 23
0.0644867538
 33
0.0
 40
0.0
 40
0.0
 40
0.0
 40
0.0
 40
0.2969375899
 40
0.6260768679
 40
1.0
 40
1.0
 40
1.0
 40
1.0
 10
4.5693188868
 20
3.785961099
 30
0.0
 10
4.5666556566
 20
3.7940947562
 30
0.0
 10
4.5593659735
 20
3.8107169122
 30
0.0
 10
4.5438618646
 20
3.8351053018
 30
0.0
 10
4.5309987339
 20
3.8508217088
 30
0.0
 10
4.5238188868
 20
3.8588594051
 30
0.0
 11
4.5693188868
 21
3.785961099
 31
0.0
 11
4.559197203
 21
3.8095575836
 31
0.0
 11
4.5441260264
 21
3.8336996559
 31
0.0
 11
4.5238188868
 21
3.8588594051
 31
0.0
  0
SPLINE
  5
5AC
100
AcDbEntity
  8
0
100
AcDbSpline
 62
7
  6
CONTINUOUS
 70
0
 71
3
 72
10
 73
6
 74
4
 42
0.0000001
 43
0.0000001
 44
0.0000000001
 12
0.0576042823
 22
0.0644868504
 32
0.0
 13
0.0269070091
 23
0.0821755443
 33
0.0
 40
0.0
 40
0.0
 40
0.0
 40
0.0
 40
0.3754689865
 40
0.7043414437
 40
1.0
 40
1.0
 40
1.0
 40
1.0
 10
4.5238188868
 20
3.6404544601
 30
0.0
 10
4.5310284273
 20
3.6485253976
 30
0.0
 10
4.5439126266
 20
3.6642729797
 30
0.0
 10
4.5594026488
 20
3.6886707089
 30
0.0
 10
4.5666671243
 20
3.7052541319
 30
0.0
 10
4.5693188868
 20
3.7133527662
 30
0.0
 11
4.5238188868
 21
3.6404544601
 31
0.0
 11
4.5442040584
 21
3.6657230637
 31
0.0
 11
4.5592489763
 21
3.6898543749
 31
0.0
 11
4.5693188868
 21
3.7133527662
 31
0.0
  0
SPLINE
  5
5AD
100
AcDbEntity
  8
0
100
AcDbSpline
 62
7
  6
CONTINUOUS
 70
0
 71
3
 72
14
 73
10
 74
8
 42
0.0000001
 43
0.0000001
 44
0.0000000001
 12
-0.1103507163
 22
0.4279393037
 32
0.0
 13
0.1103507163
 23
0.4279393037
 33
0.0
 40
0.0
 40
0.0
 40
0.0
 40
0.0
 40
0.1477720816
 40
0.2900907235
 40
0.430227046
 40
0.569863817
 40
0.7099928421
 40
0.8522618536
 40
1.0
 40
1.0
 40
1.0
 40
1.0
 10
4.1343825526
 20
3.9101519876
 30
0.0
 10
4.1289469676
 20
3.9312311482
 30
0.0
 10
4.1194316155
 20
3.9729251871
 30
0.0
 10
4.1095045321
 20
4.0355738261
 30
0.0
 10
4.1044499893
 20
4.097613261
 30
0.0
 10
4.104451648
 20
4.159539722
 30
0.0
 10
4.1095085659
 20
4.2215705284
 30
0.0
 10
4.1194353413
 20
4.2842056038
 30
0.0
 10
4.1289482159
 20
4.3258875578
 30
0.0
 10
4.1343825526
 20
4.3469618776
 30
0.0
 11
4.1343825526
 21
3.9101519876
 31
0.0
 11
4.1199849539
 21
3.9738512694
 31
0.0
 11
4.1102500817
 21
4.0359893718
 31
0.0
 11
4.1052848479
 21
4.0977215995
 31
0.0
 11
4.1052864787
 21
4.1594324157
 31
0.0
 11
4.1102544676
 21
4.2211611863
 31
0.0
 11
4.11998779
 21
4.2832773303
 31
0.0
 11
4.1343825526
 21
4.3469618776
 31
0.0
  0
SPLINE
  5
5AE
100
AcDbEntity
  8
0
100
AcDbSpline
 62
7
  6
CONTINUOUS
 70
0
 71
3
 72
10
 73
6
 74
4
 42
0.0000001
 43
0.0000001
 44
0.0000000001
 12
-0.0247373957
 22
0.1510988417
 32
0.0
 13
-0.0624397533
 23
0.1398001285
 33
0.0
 40
0.0
 40
0.0
 40
0.0
 40
0.0
 40
0.3152377815
 40
0.6455981143
 40
1.0
 40
1.0
 40
1.0
 40
1.0
 10
4.5693188868
 20
4.2011652655
 30
0.0
 10
4.5667194995
 20
4.21704262
 30
0.0
 10
4.559729935
 20
4.2493046952
 30
0.0
 10
4.5443788472
 20
4.2980378463
 30
0.0
 10
4.5311951422
 20
4.3304467345
 30
0.0
 10
4.5238188868
 20
4.3469618776
 30
0.0
 11
4.5693188868
 21
4.2011652655
 31
0.0
 11
4.559197203
 21
4.2483582345
 31
0.0
 11
4.5441260264
 21
4.2966423791
 31
0.0
 11
4.5238188868
 21
4.3469618776
 31
0.0
  0
SPLINE
  5
5AF
100
AcDbEntity
  8
0
100
AcDbSpline
 62
7
  6
CONTINUOUS
 70
0
 71
3
 72
10
 73
6
 74
4
 42
0.0000001
 43
0.0000001
 44
0.0000000001
 12
0.0624397721
 22
0.1398001705
 32
0.0
 13
0.0247374031
 23
0.1510988872
 33
0.0
 40
0.0
 40
0.0
 40
0.0
 40
0.0
 40
0.3559110928
 40
0.6860860661
 40
1.0
 40
1.0
 40
1.0
 40
1.0
 10
4.5238188868
 20
3.9101519876
 30
0.0
 10
4.5312265559
 20
3.9267374648
 30
0.0
 10
4.544431281
 20
3.9592112842
 30
0.0
 10
4.5597642442
 20
4.0079502379
 30
0.0
 10
4.5667304149
 20
4.0401379177
 30
0.0
 10
4.5693188868
 20
4.0559485997
 30
0.0
 11
4.5238188868
 21
3.9101519876
 31
0.0
 11
4.5442040584
 21
3.9606891948
 31
0.0
 11
4.5592489763
 21
4.0089518171
 31
0.0
 11
4.5693188868
 21
4.0559485997
 31
0.0
  0
SPLINE
  5
5B0
100
AcDbEntity
  8
0
100
AcDbSpline
 62
7
  6
CONTINUOUS
 70
0
 71
3
 72
14
 73
10
 74
8
 42
0.0000001
 43
0.0000001
 44
0.0000000001
 12
-0.1046826132
 22
0.2029792199
 32
0.0
 13
0.1046826132
 23
0.2029792199
 33
0.0
 40
0.0
 40
0.0
 40
0.0
 40
0.0
 40
0.1530438599
 40
0.2956043717
 40
0.4324922324
 40
0.5675957362
 40
0.7044780411
 40
0.8469906498
 40
1.0
 40
1.0
 40
1.0
 40
1.0
 10
4.1343825526
 20
4.3982544601
 30
0.0
 10
4.1290422089
 20
4.4086093679
 30
0.0
 10
4.1196372155
 20
4.4291090962
 30
0.0
 10
4.1095955974
 20
4.4605646205
 30
0.0
 10
4.1044518873
 20
4.4918322893
 30
0.0
 10
4.1044535804
 20
4.5231013135
 30
0.0
 10
4.1095996609
 20
4.5543644185
 30
0.0
 10
4.1196408433
 20
4.5858129335
 30
0.0
 10
4.1290434131
 20
4.6063068322
 30
0.0
 10
4.1343825526
 20
4.6166594051
 30
0.0
 11
4.1343825526
 21
4.3982544601
 31
0.0
 11
4.1199849539
 21
4.430104101
 31
0.0
 11
4.1102500817
 21
4.4611731522
 31
0.0
 11
4.1052848479
 21
4.492039266
 31
0.0
 11
4.1052864787
 21
4.5228946741
 31
0.0
 11
4.1102544676
 21
4.5537590594
 31
0.0
 11
4.11998779
 21
4.5848171315
 31
0.0
 11
4.1343825526
 21
4.6166594051
 31
0.0
  0
SPLINE
  5
5B1
100
AcDbEntity
  8
0
100
AcDbSpline
 62
7
  6
CONTINUOUS
 70
0
 71
3
 72
10
 73
6
 74
4
 42
0.0000001
 43
0.0000001
 44
0.0000000001
 12
-0.0269069688
 22
0.0821754212
 32
0.0
 13
-0.057604196
 23
0.0644867538
 33
0.0
 40
0.0
 40
0.0
 40
0.0
 40
0.0
 40
0.2969375899
 40
0.6260768679
 40
1.0
 40
1.0
 40
1.0
 40
1.0
 10
4.5693188868
 20
4.543761099
 30
0.0
 10
4.5666556566
 20
4.5518947562
 30
0.0
 10
4.5593659735
 20
4.5685169122
 30
0.0
 10
4.5438618646
 20
4.5929053018
 30
0.0
 10
4.5309987339
 20
4.6086217088
 30
0.0
 10
4.5238188868
 20
4.6166594051
 30
0.0
 11
4.5693188868
 21
4.543761099
 31
0.0
 11
4.559197203
 21
4.5673575836
 31
0.0
 11
4.5441260264
 21
4.5914996559
 31
0.0
 11
4.5238188868
 21
4.6166594051
 31
0.0
  0
SPLINE
  5
5B2
100
AcDbEntity
  8
0
100
AcDbSpline
 62
7
  6
CONTINUOUS
 70
0
 71
3
 72
10
 73
6
 74
4
 42
0.0000001
 43
0.0000001
 44
0.0000000001
 12
0.0576042823
 22
0.0644868504
 32
0.0
 13
0.0269070091
 23
0.0821755443
 33
0.0
 40
0.0
 40
0.0
 40
0.0
 40
0.0
 40
0.3754689865
 40
0.7043414437
 40
1.0
 40
1.0
 40
1.0
 40
1.0
 10
4.5238188868
 20
4.3982544601
 30
0.0
 10
4.5310284273
 20
4.4063253976
 30
0.0
 10
4.5439126266
 20
4.4220729797
 30
0.0
 10
4.5594026488
 20
4.4464707089
 30
0.0
 10
4.5666671243
 20
4.4630541319
 30
0.0
 10
4.5693188868
 20
4.4711527662
 30
0.0
 11
4.5238188868
 21
4.3982544601
 31
0.0
 11
4.5442040584
 21
4.4235230637
 31
0.0
 11
4.5592489763
 21
4.4476543749
 31
0.0
 11
4.5693188868
 21
4.4711527662
 31
0.0
  0
ENDSEC
  0
SECTION
  2
OBJECTS
  0
DICTIONARY
  5
C
100
AcDbDictionary
280
0
281
1
  3
ACAD_GROUP
350
D
  3
ACAD_MLINESTYLE
350
17
  3
ACAD_LAYOUT
350
1A
  3
ACAD_PLOTSETTINGS
350
19
  3
ACAD_PLOTSTYLENAME
350
E
  0
DICTIONARY
  5
D
102
{ACAD_REACTORS
330
C
102
}
100
AcDbDictionary
280
0
281
1
  0
ACDBDICTIONARYWDFLT
  5
E
102
{ACAD_REACTORS
330
C
102
}
100
AcDbDictionary
281
1
  3
Normal
350
F
100
AcDbDictionaryWithDefault
340
F
  0
DICTIONARY
  5
17
102
{ACAD_REACTORS
330
C
102
}
100
AcDbDictionary
280
0
281
1
  3
Standard
350
18
  0
DICTIONARY
  5
19
102
{ACAD_REACTORS
330
C
102
}
100
AcDbDictionary
281
1
  0
DICTIONARY
  5
1A
102
{ACAD_REACTORS
330
C
102
}
100
AcDbDictionary
281
1
  3
Layout1
350
1E
  3
Model
350
22
  0
ACDBPLACEHOLDER
  5
F
102
{ACAD_REACTORS
330
E
102
}
  0
MLINESTYLE
  5
18
102
{ACAD_REACTORS
330
17
102
}
100
AcDbMlineStyle
  2
STANDARD
 70
0
  3

 62
256
 51
90.0
 52
90.0
 71
2
 49
0.5
 62
256
  6
BYLAYER
 49
-0.5
 62
256
  6
BYLAYER
  0
LAYOUT
  5
1E
102
{ACAD_REACTORS
330
1A
102
}
100
AcDbPlotSettings
  1

  2

  4

  6

 40
0.0
 41
0.0
 42
0.0
 43
0.0
 44
0.0
 45
0.0
 46
0.0
 47
0.0
 48
0.0
 49
0.0
140
0.0
141
0.0
142
1.0
143
1.0
 70
0
 72
0
 73
0
 74
0
  7

 75
0
147
1.0
148
0.0
149
0.0
100
AcDbLayout
  1
Layout1
 70
0
 71
0
 10
0.0
 20
0.0
 11
0.0
 21
0.0
 12
0.0
 22
0.0
 32
0.0
 14
0.0
 24
0.0
 34
0.0
 15
0.0
 25
0.0
 35
0.0
146
0.0
 13
0.0
 23
0.0
 33
0.0
 16
0.0
 26
0.0
 36
0.0
 17
0.0
 27
0.0
 37
0.0
 76
0
330
1B
331
0
345
0
346
0
  0
LAYOUT
  5
22
102
{ACAD_REACTORS
330
1A
102
}
100
AcDbPlotSettings
  1

  2

  4

  6

 40
0.0
 41
0.0
 42
0.0
 43
0.0
 44
0.0
 45
0.0
 46
0.0
 47
0.0
 48
0.0
 49
0.0
140
0.0
141
0.0
142
1.0
143
1.0
 70
0
 72
0
 73
0
 74
0
  7

 75
0
147
1.0
148
0.0
149
0.0
100
AcDbLayout
  1
Model
 70
0
 71
0
 10
0.0
 20
0.0
 11
0.0
 21
0.0
 12
0.0
 22
0.0
 32
0.0
 14
0.0
 24
0.0
 34
0.0
 15
0.0
 25
0.0
 35
0.0
146
0.0
 13
0.0
 23
0.0
 33
0.0
 16
0.0
 26
0.0
 36
0.0
 17
0.0
 27
0.0
 37
0.0
 76
0
330
1F
331
0
345
0
346
0
  0
ENDSEC
  0
EOF
