999
DXF file: PPFB-LAN.dxf
999
Pro/ENGINEER 2006240 by Parametric Technology Corporation
  0
SECTION
  2
HEADER
  9
$ACADVER
  1
AC1015
  9
$DWGCODEPAGE
  3
ANSI_1252
  9
$EXTMAX
 10
11.6929133858
 20
8.2677165354
 30
0.0
  9
$EXTMIN
 10
0.0
 20
0.0
 30
0.0
  9
$LIMMIN
 10
0.0
 20
0.0
  9
$LIMMAX
 10
11.6929133858
 20
8.2677165354
  9
$VIEWCTR
 10
5.8464566929
 20
4.1338582677
  9
$VIEWSIZE
 40
8.2677165354
  9
$CLAYER
  8
0
  9
$LTSCALE
 40
0.6431102362
  9
$CELTYPE
  6
BYLAYER
  9
$DIMSCALE
 40
1.0
  9
$DIMASZ
 40
0.1875
  9
$DIMEXO
 40
0.0730807087
  9
$DIMDLI
 40
0.4443307087
  9
$DIMEXE
 40
0.2104724409
  9
$DIMCEN
 40
0.1052362205
  9
$DIMLFAC
 40
1.0
  9
$DIMBLK
  1
_CLOSED
  9
$DIMTXT
 40
0.15625
  9
$DIMTOL
 70
0
  9
$DIMLIM
 70
0
  9
$DIMTFAC
 40
1.0
  9
$PDMODE
 70
3
  9
$PDSIZE
 40
0.3125
  9
$HANDSEED
  5
519
  9
$MEASUREMENT
 70
0
  9
$INSUNITS
 70
1
  0
ENDSEC
  0
SECTION
  2
CLASSES
  0
CLASS
  1
ACDBDICTIONARYWDFLT
  2
AcDbDictionaryWithDefault
  3
AutoCAD 2000
 90
0
280
0
281
0
  0
CLASS
  1
ACDBPLACEHOLDER
  2
AcDbPlaceHolder
  3
AutoCAD 2000
 90
0
280
0
281
0
  0
CLASS
  1
LAYOUT
  2
AcDbLayout
  3
AutoCAD 2000
 90
0
280
0
281
0
  0
ENDSEC
  0
SECTION
  2
TABLES
  0
TABLE
  2
VPORT
  5
8
100
AcDbSymbolTable
 70
2
  0
VPORT
  5
1F4
100
AcDbSymbolTableRecord
100
AcDbViewportTableRecord
  2
*ACTIVE
 70
0
 10
0.0
 20
0.0
 11
1.0
 21
1.0
 12
5.8464566929
 22
4.1338582677
 13
0.0
 23
0.0
 14
1.0
 24
1.0
 15
0.0
 25
0.0
 16
0.0
 26
0.0
 36
1.0
 17
0.0
 27
0.0
 37
0.0
 40
8.2677165354
 41
1.4142857143
 42
50.0
 43
0.0
 44
0.0
 50
0.0
 51
0.0
 71
0
 72
100
 73
1
 74
1
 75
0
 76
0
 77
0
 78
0
  0
ENDTAB
  0
TABLE
  2
LTYPE
  5
5
100
AcDbSymbolTable
 70
6
  0
LTYPE
  5
14
100
AcDbSymbolTableRecord
100
AcDbLinetypeTableRecord
  2
BYBLOCK
 70
0
  3

 72
65
 73
0
 40
0.0
  0
LTYPE
  5
15
100
AcDbSymbolTableRecord
100
AcDbLinetypeTableRecord
  2
BYLAYER
 70
0
  3

 72
65
 73
0
 40
0.0
  0
LTYPE
  5
16
100
AcDbSymbolTableRecord
100
AcDbLinetypeTableRecord
  2
CONTINUOUS
 70
64
  3
Solid line
 72
65
 73
0
 40
0.0
  0
LTYPE
  5
1F5
100
AcDbSymbolTableRecord
100
AcDbLinetypeTableRecord
  2
CENTER
 70
64
  3
____ _ ____ _ ____ _ ____ _ ____ _ ____ _ ____
 72
65
 73
4
 40
0.6
 49
0.375
 74
0
 49
-0.075
 74
0
 49
0.075
 74
0
 49
-0.075
 74
0
  0
LTYPE
  5
1F6
100
AcDbSymbolTableRecord
100
AcDbLinetypeTableRecord
  2
HIDDEN
 70
64
  3
- - - - - - - - - - - - - - - - - - - -
 72
65
 73
2
 40
0.2
 49
0.1
 74
0
 49
-0.1
 74
0
  0
LTYPE
  5
1F7
100
AcDbSymbolTableRecord
100
AcDbLinetypeTableRecord
  2
PHANTOM
 70
64
  3
_____ _ _ _____ _ _ _____ _ _ _____
 72
65
 73
6
 40
0.8
 49
0.45
 74
0
 49
-0.05
 74
0
 49
0.1
 74
0
 49
-0.05
 74
0
 49
0.1
 74
0
 49
-0.05
 74
0
  0
LTYPE
  5
1F8
100
AcDbSymbolTableRecord
100
AcDbLinetypeTableRecord
  2
DOT
 70
64
  3
. . . . . . . . . . . . . . . . . . . .
 72
65
 73
2
 40
0.2
 49
0.1
 74
0
 49
-0.1
 74
0
  0
LTYPE
  5
1F9
100
AcDbSymbolTableRecord
100
AcDbLinetypeTableRecord
  2
DASHED
 70
64
  3
- - - - - - - - - - - - - - - - - - - -
 72
65
 73
2
 40
0.2
 49
0.1
 74
0
 49
-0.1
 74
0
  0
ENDTAB
  0
TABLE
  2
LAYER
  5
2
100
AcDbSymbolTable
 70
36
  0
LAYER
  5
10
100
AcDbSymbolTableRecord
100
AcDbLayerTableRecord
  2
0
 70
0
 62
7
  6
CONTINUOUS
370
-3
390
F
  0
LAYER
  5
1FA
100
AcDbSymbolTableRecord
100
AcDbLayerTableRecord
  2
DEFAULT_1
 70
0
 62
7
  6
CENTER
370
-3
390
F
  0
LAYER
  5
1FB
100
AcDbSymbolTableRecord
100
AcDbLayerTableRecord
  2
DEFAULT_2
 70
0
 62
8
  6
HIDDEN
370
-3
390
F
  0
LAYER
  5
1FC
100
AcDbSymbolTableRecord
100
AcDbLayerTableRecord
  2
DEFAULT_3
 70
0
 62
7
  6
PHANTOM
370
-3
390
F
  0
LAYER
  5
1FD
100
AcDbSymbolTableRecord
100
AcDbLayerTableRecord
  2
_BLACK_HOLE
 70
0
 62
7
  6
CONTINUOUS
370
-3
390
F
  0
LAYER
  5
1FE
100
AcDbSymbolTableRecord
100
AcDbLayerTableRecord
  2
01_ALL_DTM_PLN
 70
0
 62
7
  6
CONTINUOUS
370
-3
390
F
  0
LAYER
  5
1FF
100
AcDbSymbolTableRecord
100
AcDbLayerTableRecord
  2
01__ASM_ALL_DTM_PLN
 70
0
 62
7
  6
CONTINUOUS
370
-3
390
F
  0
LAYER
  5
200
100
AcDbSymbolTableRecord
100
AcDbLayerTableRecord
  2
01__ASM_DEF_DTM_PLN
 70
0
 62
7
  6
CONTINUOUS
370
-3
390
F
  0
LAYER
  5
201
100
AcDbSymbolTableRecord
100
AcDbLayerTableRecord
  2
01___PRT_ALL_DTM_PLN
 70
0
 62
7
  6
CONTINUOUS
370
-3
390
F
  0
LAYER
  5
202
100
AcDbSymbolTableRecord
100
AcDbLayerTableRecord
  2
01___PRT_DEF_DTM_PLN
 70
0
 62
7
  6
CONTINUOUS
370
-3
390
F
  0
LAYER
  5
203
100
AcDbSymbolTableRecord
100
AcDbLayerTableRecord
  2
02_ALL_AXES
 70
0
 62
7
  6
CONTINUOUS
370
-3
390
F
  0
LAYER
  5
204
100
AcDbSymbolTableRecord
100
AcDbLayerTableRecord
  2
02__ASM_ALL_AXES
 70
0
 62
7
  6
CONTINUOUS
370
-3
390
F
  0
LAYER
  5
205
100
AcDbSymbolTableRecord
100
AcDbLayerTableRecord
  2
02___PRT_ALL_AXES
 70
0
 62
7
  6
CONTINUOUS
370
-3
390
F
  0
LAYER
  5
206
100
AcDbSymbolTableRecord
100
AcDbLayerTableRecord
  2
03_ALL_CURVES
 70
0
 62
7
  6
CONTINUOUS
370
-3
390
F
  0
LAYER
  5
207
100
AcDbSymbolTableRecord
100
AcDbLayerTableRecord
  2
03__ASM_ALL_CURVES
 70
0
 62
7
  6
CONTINUOUS
370
-3
390
F
  0
LAYER
  5
208
100
AcDbSymbolTableRecord
100
AcDbLayerTableRecord
  2
03___PRT_ALL_CURVES
 70
0
 62
7
  6
CONTINUOUS
370
-3
390
F
  0
LAYER
  5
209
100
AcDbSymbolTableRecord
100
AcDbLayerTableRecord
  2
04_ALL_DTM_PNT
 70
0
 62
7
  6
CONTINUOUS
370
-3
390
F
  0
LAYER
  5
20A
100
AcDbSymbolTableRecord
100
AcDbLayerTableRecord
  2
04__ASM_ALL_DTM_PNT
 70
0
 62
7
  6
CONTINUOUS
370
-3
390
F
  0
LAYER
  5
20B
100
AcDbSymbolTableRecord
100
AcDbLayerTableRecord
  2
04___PRT_ALL_DTM_PNT
 70
0
 62
7
  6
CONTINUOUS
370
-3
390
F
  0
LAYER
  5
20C
100
AcDbSymbolTableRecord
100
AcDbLayerTableRecord
  2
05_ALL_DTM_CSYS
 70
0
 62
7
  6
CONTINUOUS
370
-3
390
F
  0
LAYER
  5
20D
100
AcDbSymbolTableRecord
100
AcDbLayerTableRecord
  2
05__ASM_ALL_DTM_CSYS
 70
0
 62
7
  6
CONTINUOUS
370
-3
390
F
  0
LAYER
  5
20E
100
AcDbSymbolTableRecord
100
AcDbLayerTableRecord
  2
05__ASM_DEF_DTM_CSYS
 70
0
 62
7
  6
CONTINUOUS
370
-3
390
F
  0
LAYER
  5
20F
100
AcDbSymbolTableRecord
100
AcDbLayerTableRecord
  2
05___PRT_ALL_DTM_CSYS
 70
0
 62
7
  6
CONTINUOUS
370
-3
390
F
  0
LAYER
  5
210
100
AcDbSymbolTableRecord
100
AcDbLayerTableRecord
  2
05___PRT_DEF_DTM_CSYS
 70
0
 62
7
  6
CONTINUOUS
370
-3
390
F
  0
LAYER
  5
211
100
AcDbSymbolTableRecord
100
AcDbLayerTableRecord
  2
06_ALL_SURFS
 70
0
 62
7
  6
CONTINUOUS
370
-3
390
F
  0
LAYER
  5
212
100
AcDbSymbolTableRecord
100
AcDbLayerTableRecord
  2
06__ASM_ALL_SURFS
 70
0
 62
7
  6
CONTINUOUS
370
-3
390
F
  0
LAYER
  5
213
100
AcDbSymbolTableRecord
100
AcDbLayerTableRecord
  2
06___PRT_ALL_SURFS
 70
0
 62
7
  6
CONTINUOUS
370
-3
390
F
  0
LAYER
  5
214
100
AcDbSymbolTableRecord
100
AcDbLayerTableRecord
  2
07__ASM_ALL_SKELETONS
 70
0
 62
7
  6
CONTINUOUS
370
-3
390
F
  0
LAYER
  5
215
100
AcDbSymbolTableRecord
100
AcDbLayerTableRecord
  2
127-001_FEATURES
 70
0
 62
7
  6
CONTINUOUS
370
-3
390
F
  0
LAYER
  5
216
100
AcDbSymbolTableRecord
100
AcDbLayerTableRecord
  2
127-001_REF_GEOMETRY
 70
0
 62
7
  6
CONTINUOUS
370
-3
390
F
  0
LAYER
  5
217
100
AcDbSymbolTableRecord
100
AcDbLayerTableRecord
  2
127-004_FEATURES
 70
0
 62
7
  6
CONTINUOUS
370
-3
390
F
  0
LAYER
  5
218
100
AcDbSymbolTableRecord
100
AcDbLayerTableRecord
  2
127-004_REF_GEOMETRY
 70
0
 62
7
  6
CONTINUOUS
370
-3
390
F
  0
LAYER
  5
219
100
AcDbSymbolTableRecord
100
AcDbLayerTableRecord
  2
127-008_FEATURES
 70
0
 62
7
  6
CONTINUOUS
370
-3
390
F
  0
LAYER
  5
21A
100
AcDbSymbolTableRecord
100
AcDbLayerTableRecord
  2
127-008_REF_GEOMETRY
 70
0
 62
7
  6
CONTINUOUS
370
-3
390
F
  0
LAYER
  5
21B
100
AcDbSymbolTableRecord
100
AcDbLayerTableRecord
  2
127-410_FEATURES
 70
0
 62
7
  6
CONTINUOUS
370
-3
390
F
  0
LAYER
  5
21C
100
AcDbSymbolTableRecord
100
AcDbLayerTableRecord
  2
127-410_REF_GEOMETRY
 70
0
 62
7
  6
CONTINUOUS
370
-3
390
F
  0
LAYER
  5
21D
100
AcDbSymbolTableRecord
100
AcDbLayerTableRecord
  2
127-411_FEATURES
 70
0
 62
7
  6
CONTINUOUS
370
-3
390
F
  0
LAYER
  5
21E
100
AcDbSymbolTableRecord
100
AcDbLayerTableRecord
  2
127-411_REF_GEOMETRY
 70
0
 62
7
  6
CONTINUOUS
370
-3
390
F
  0
LAYER
  5
21F
100
AcDbSymbolTableRecord
100
AcDbLayerTableRecord
  2
127-412_FEATURES
 70
0
 62
7
  6
CONTINUOUS
370
-3
390
F
  0
LAYER
  5
220
100
AcDbSymbolTableRecord
100
AcDbLayerTableRecord
  2
127-412_REF_GEOMETRY
 70
0
 62
7
  6
CONTINUOUS
370
-3
390
F
  0
LAYER
  5
221
100
AcDbSymbolTableRecord
100
AcDbLayerTableRecord
  2
127-413_FEATURES
 70
0
 62
7
  6
CONTINUOUS
370
-3
390
F
  0
LAYER
  5
222
100
AcDbSymbolTableRecord
100
AcDbLayerTableRecord
  2
127-413_REF_GEOMETRY
 70
0
 62
7
  6
CONTINUOUS
370
-3
390
F
  0
LAYER
  5
223
100
AcDbSymbolTableRecord
100
AcDbLayerTableRecord
  2
127-414_FEATURES
 70
0
 62
7
  6
CONTINUOUS
370
-3
390
F
  0
LAYER
  5
224
100
AcDbSymbolTableRecord
100
AcDbLayerTableRecord
  2
127-414_REF_GEOMETRY
 70
0
 62
7
  6
CONTINUOUS
370
-3
390
F
  0
LAYER
  5
225
100
AcDbSymbolTableRecord
100
AcDbLayerTableRecord
  2
127-415_FEATURES
 70
0
 62
7
  6
CONTINUOUS
370
-3
390
F
  0
LAYER
  5
226
100
AcDbSymbolTableRecord
100
AcDbLayerTableRecord
  2
127-415_REF_GEOMETRY
 70
0
 62
7
  6
CONTINUOUS
370
-3
390
F
  0
LAYER
  5
227
100
AcDbSymbolTableRecord
100
AcDbLayerTableRecord
  2
127-416_FEATURES
 70
0
 62
7
  6
CONTINUOUS
370
-3
390
F
  0
LAYER
  5
228
100
AcDbSymbolTableRecord
100
AcDbLayerTableRecord
  2
127-416_REF_GEOMETRY
 70
0
 62
7
  6
CONTINUOUS
370
-3
390
F
  0
LAYER
  5
229
100
AcDbSymbolTableRecord
100
AcDbLayerTableRecord
  2
250-NPTF_PORT
 70
0
 62
7
  6
CONTINUOUS
370
-3
390
F
  0
LAYER
  5
22A
100
AcDbSymbolTableRecord
100
AcDbLayerTableRecord
  2
COPY_GEO_FET
 70
0
 62
7
  6
CONTINUOUS
370
-3
390
F
  0
LAYER
  5
22B
100
AcDbSymbolTableRecord
100
AcDbLayerTableRecord
  2
COSMETIC
 70
0
 62
7
  6
CONTINUOUS
370
-3
390
F
  0
LAYER
  5
22C
100
AcDbSymbolTableRecord
100
AcDbLayerTableRecord
  2
COSM_REF
 70
0
 62
7
  6
CONTINUOUS
370
-3
390
F
  0
LAYER
  5
22D
100
AcDbSymbolTableRecord
100
AcDbLayerTableRecord
  2
CURVES
 70
0
 62
7
  6
CONTINUOUS
370
-3
390
F
  0
LAYER
  5
22E
100
AcDbSymbolTableRecord
100
AcDbLayerTableRecord
  2
CUT_REF_SURF
 70
0
 62
7
  6
CONTINUOUS
370
-3
390
F
  0
LAYER
  5
22F
100
AcDbSymbolTableRecord
100
AcDbLayerTableRecord
  2
DATUM
 70
0
 62
7
  6
CONTINUOUS
370
-3
390
F
  0
LAYER
  5
230
100
AcDbSymbolTableRecord
100
AcDbLayerTableRecord
  2
DATUMCURVES
 70
0
 62
7
  6
CONTINUOUS
370
-3
390
F
  0
LAYER
  5
231
100
AcDbSymbolTableRecord
100
AcDbLayerTableRecord
  2
DATUM_PLANES
 70
0
 62
7
  6
CONTINUOUS
370
-3
390
F
  0
LAYER
  5
232
100
AcDbSymbolTableRecord
100
AcDbLayerTableRecord
  2
DIMENSIONS
 70
0
 62
7
  6
CONTINUOUS
370
-3
390
F
  0
LAYER
  5
233
100
AcDbSymbolTableRecord
100
AcDbLayerTableRecord
  2
DRAWINGNOTES
 70
0
 62
7
  6
CONTINUOUS
370
-3
390
F
  0
LAYER
  5
234
100
AcDbSymbolTableRecord
100
AcDbLayerTableRecord
  2
DTM
 70
0
 62
7
  6
CONTINUOUS
370
-3
390
F
  0
LAYER
  5
235
100
AcDbSymbolTableRecord
100
AcDbLayerTableRecord
  2
DTM230
 70
0
 62
7
  6
CONTINUOUS
370
-3
390
F
  0
LAYER
  5
236
100
AcDbSymbolTableRecord
100
AcDbLayerTableRecord
  2
DTM325
 70
0
 62
7
  6
CONTINUOUS
370
-3
390
F
  0
LAYER
  5
237
100
AcDbSymbolTableRecord
100
AcDbLayerTableRecord
  2
DTM_500001
 70
0
 62
7
  6
CONTINUOUS
370
-3
390
F
  0
LAYER
  5
238
100
AcDbSymbolTableRecord
100
AcDbLayerTableRecord
  2
DTM_500002
 70
0
 62
7
  6
CONTINUOUS
370
-3
390
F
  0
LAYER
  5
239
100
AcDbSymbolTableRecord
100
AcDbLayerTableRecord
  2
DTM_515002
 70
0
 62
7
  6
CONTINUOUS
370
-3
390
F
  0
LAYER
  5
23A
100
AcDbSymbolTableRecord
100
AcDbLayerTableRecord
  2
DTM_525001
 70
0
 62
7
  6
CONTINUOUS
370
-3
390
F
  0
LAYER
  5
23B
100
AcDbSymbolTableRecord
100
AcDbLayerTableRecord
  2
DTM_530-102
 70
0
 62
7
  6
CONTINUOUS
370
-3
390
F
  0
LAYER
  5
23C
100
AcDbSymbolTableRecord
100
AcDbLayerTableRecord
  2
DTM_800001
 70
0
 62
7
  6
CONTINUOUS
370
-3
390
F
  0
LAYER
  5
23D
100
AcDbSymbolTableRecord
100
AcDbLayerTableRecord
  2
DTM_BALLHOLDER
 70
0
 62
7
  6
CONTINUOUS
370
-3
390
F
  0
LAYER
  5
23E
100
AcDbSymbolTableRecord
100
AcDbLayerTableRecord
  2
DTM_ORIFICE_SEAT
 70
0
 62
7
  6
CONTINUOUS
370
-3
390
F
  0
LAYER
  5
23F
100
AcDbSymbolTableRecord
100
AcDbLayerTableRecord
  2
DTM_SPRING_RH
 70
0
 62
7
  6
CONTINUOUS
370
-3
390
F
  0
LAYER
  5
240
100
AcDbSymbolTableRecord
100
AcDbLayerTableRecord
  2
DTM_SP_RH_CONSTR
 70
0
 62
7
  6
CONTINUOUS
370
-3
390
F
  0
LAYER
  5
241
100
AcDbSymbolTableRecord
100
AcDbLayerTableRecord
  2
FACE1
 70
0
 62
7
  6
CONTINUOUS
370
-3
390
F
  0
LAYER
  5
242
100
AcDbSymbolTableRecord
100
AcDbLayerTableRecord
  2
FACE2
 70
0
 62
7
  6
CONTINUOUS
370
-3
390
F
  0
LAYER
  5
243
100
AcDbSymbolTableRecord
100
AcDbLayerTableRecord
  2
FACE3
 70
0
 62
7
  6
CONTINUOUS
370
-3
390
F
  0
LAYER
  5
244
100
AcDbSymbolTableRecord
100
AcDbLayerTableRecord
  2
FACE4
 70
0
 62
7
  6
CONTINUOUS
370
-3
390
F
  0
LAYER
  5
245
100
AcDbSymbolTableRecord
100
AcDbLayerTableRecord
  2
GEOMETRICTOLERANCES
 70
0
 62
7
  6
CONTINUOUS
370
-3
390
F
  0
LAYER
  5
246
100
AcDbSymbolTableRecord
100
AcDbLayerTableRecord
  2
HOLE_FEATURES
 70
0
 62
7
  6
CONTINUOUS
370
-3
390
F
  0
LAYER
  5
247
100
AcDbSymbolTableRecord
100
AcDbLayerTableRecord
  2
LAY0001
 70
0
 62
7
  6
CONTINUOUS
370
-3
390
F
  0
LAYER
  5
248
100
AcDbSymbolTableRecord
100
AcDbLayerTableRecord
  2
PARAMETERDIMENSIONS
 70
0
 62
7
  6
CONTINUOUS
370
-3
390
F
  0
LAYER
  5
249
100
AcDbSymbolTableRecord
100
AcDbLayerTableRecord
  2
PART
 70
0
 62
7
  6
CONTINUOUS
370
-3
390
F
  0
LAYER
  5
24A
100
AcDbSymbolTableRecord
100
AcDbLayerTableRecord
  2
PLANE
 70
0
 62
7
  6
CONTINUOUS
370
-3
390
F
  0
LAYER
  5
24B
100
AcDbSymbolTableRecord
100
AcDbLayerTableRecord
  2
PROTRUSIONS
 70
0
 62
7
  6
CONTINUOUS
370
-3
390
F
  0
LAYER
  5
24C
100
AcDbSymbolTableRecord
100
AcDbLayerTableRecord
  2
SUN_SAE-4_PORT
 70
0
 62
7
  6
CONTINUOUS
370
-3
390
F
  0
LAYER
  5
24D
100
AcDbSymbolTableRecord
100
AcDbLayerTableRecord
  2
SURFACES
 70
0
 62
7
  6
CONTINUOUS
370
-3
390
F
  0
LAYER
  5
24E
100
AcDbSymbolTableRecord
100
AcDbLayerTableRecord
  2
TEXT
 70
0
 62
7
  6
CONTINUOUS
370
-3
390
F
  0
LAYER
  5
24F
100
AcDbSymbolTableRecord
100
AcDbLayerTableRecord
  2
THREAD
 70
0
 62
7
  6
CONTINUOUS
370
-3
390
F
  0
ENDTAB
  0
TABLE
  2
STYLE
  5
3
100
AcDbSymbolTable
 70
1
  0
STYLE
  5
11
100
AcDbSymbolTableRecord
100
AcDbTextStyleTableRecord
  2
STANDARD
 70
0
 40
0.0
 41
0.8
 50
0.0
 71
0
 42
0.2
  3
txt
  4

  0
ENDTAB
  0
TABLE
  2
VIEW
  5
6
100
AcDbSymbolTable
 70
0
  0
ENDTAB
  0
TABLE
  2
UCS
  5
7
100
AcDbSymbolTable
 70
0
  0
ENDTAB
  0
TABLE
  2
APPID
  5
9
100
AcDbSymbolTable
 70
1
  0
APPID
  5
250
100
AcDbSymbolTableRecord
100
AcDbRegAppTableRecord
  2
ACAD
 70
0
  0
ENDTAB
  0
TABLE
  2
BLOCK_RECORD
  5
1
100
AcDbSymbolTable
 70
0
  0
BLOCK_RECORD
  5
1F
100
AcDbSymbolTableRecord
100
AcDbBlockTableRecord
  2
*MODEL_SPACE
  0
BLOCK_RECORD
  5
1B
100
AcDbSymbolTableRecord
100
AcDbBlockTableRecord
  2
*PAPER_SPACE
  0
ENDTAB
  0
TABLE
  2
DIMSTYLE
  5
A
100
AcDbSymbolTable
 70
1
100
AcDbDimStyleTable
 71
0
  0
DIMSTYLE
105
251
100
AcDbSymbolTableRecord
100
AcDbDimStyleTableRecord
  2
STANDARD
 70
0
  3

  4

 40
1.0
 41
0.1875
 42
0.0625
 43
0.38
 44
0.18
 45
0.0
 46
0.0
 47
0.01
 48
0.01
140
0.15625
141
0.09
142
0.0
143
25.4
144
1.0
145
0.0
146
1.0
147
0.09
 71
0.0
 72
0.0
 73
1
 74
1
 75
0
 76
0
 77
0
 78
4
170
0
171
2
172
0
173
0
174
0
175
0
176
0
177
0
178
0
270
2
271
2
272
2
273
2
274
2
275
0
280
0
281
0
282
0
283
1
284
4
285
0
286
0
287
3
288
0
340
11
  0
ENDTAB
  0
ENDSEC
  0
SECTION
  2
BLOCKS
  0
BLOCK
  5
20
100
AcDbEntity
  8
0
100
AcDbBlockBegin
  2
*MODEL_SPACE
 70
0
 10
0.0
 20
0.0
 30
0.0
  3
*MODEL_SPACE
  1

  0
ENDBLK
  5
21
100
AcDbEntity
  8
0
100
AcDbBlockEnd
  0
BLOCK
  5
1C
100
AcDbEntity
  8
0
100
AcDbBlockBegin
  2
*PAPER_SPACE
 70
0
 10
0.0
 20
0.0
 30
0.0
  3
*PAPER_SPACE
  1

  0
ENDBLK
  5
1D
100
AcDbEntity
  8
0
100
AcDbBlockEnd
  0
ENDSEC
  0
SECTION
  2
ENTITIES
  0
LINE
  5
252
100
AcDbEntity
  8
0
100
AcDbLine
 62
7
  6
CONTINUOUS
 10
2.911942325
 20
4.408645308
 11
2.911942325
 21
4.1026590572
  0
LINE
  5
253
100
AcDbEntity
  8
03__ASM_ALL_CURVES
100
AcDbLine
 62
40
  6
CONTINUOUS
 10
2.911942325
 20
4.408645308
 11
2.911942325
 21
5.1628901826
  0
LINE
  5
254
100
AcDbEntity
  8
0
100
AcDbLine
 62
7
  6
CONTINUOUS
 10
2.942942325
 20
4.4396521826
 11
2.942942325
 21
4.0716521826
  0
LINE
  5
255
100
AcDbEntity
  8
03__ASM_ALL_CURVES
100
AcDbLine
 62
40
  6
CONTINUOUS
 10
3.037552325
 20
5.1419551826
 11
3.037552325
 21
5.1000851826
  0
LINE
  5
256
100
AcDbEntity
  8
0
100
AcDbLine
 62
7
  6
CONTINUOUS
 10
3.141942325
 20
4.4396521826
 11
3.141942325
 21
4.0716521826
  0
LINE
  5
257
100
AcDbEntity
  8
0
100
AcDbLine
 62
7
  6
CONTINUOUS
 10
3.143442325
 20
4.0945091896
 11
3.143442325
 21
4.3317757514
  0
LINE
  5
258
100
AcDbEntity
  8
0
100
AcDbLine
 62
7
  6
CONTINUOUS
 10
3.178442325
 20
4.0945091896
 11
3.178442325
 21
4.3317757514
  0
LINE
  5
259
100
AcDbEntity
  8
0
100
AcDbLine
 62
7
  6
CONTINUOUS
 10
3.179942325
 20
4.4396521826
 11
3.179942325
 21
4.0716521826
  0
LINE
  5
25A
100
AcDbEntity
  8
0
100
AcDbLine
 62
7
  6
CONTINUOUS
 10
3.411942325
 20
4.0080009975
 11
3.411942325
 21
4.5033033677
  0
LINE
  5
25B
100
AcDbEntity
  8
0
100
AcDbLine
 62
7
  6
CONTINUOUS
 10
3.473942325
 20
3.9846521826
 11
3.473942325
 21
4.5266521826
  0
LINE
  5
25C
100
AcDbEntity
  8
0
100
AcDbLine
 62
7
  6
CONTINUOUS
 10
3.479942325
 20
3.9846521826
 11
3.479942325
 21
4.5266521826
  0
LINE
  5
25D
100
AcDbEntity
  8
0
100
AcDbLine
 62
7
  6
CONTINUOUS
 10
3.485442325
 20
3.9901521826
 11
3.485442325
 21
4.5211521826
  0
LINE
  5
25E
100
AcDbEntity
  8
0
100
AcDbLine
 62
7
  6
CONTINUOUS
 10
3.501442325
 20
3.9901521826
 11
3.501442325
 21
4.5211521826
  0
LINE
  5
25F
100
AcDbEntity
  8
0
100
AcDbLine
 62
7
  6
CONTINUOUS
 10
3.692942325
 20
3.9846521826
 11
3.692942325
 21
4.5266521826
  0
LINE
  5
260
100
AcDbEntity
  8
0
100
AcDbLine
 62
7
  6
CONTINUOUS
 10
3.723942325
 20
3.8206521826
 11
3.723942325
 21
4.6906521826
  0
LINE
  5
261
100
AcDbEntity
  8
0
100
AcDbLine
 62
7
  6
CONTINUOUS
 10
3.785942325
 20
3.7586521826
 11
3.785942325
 21
4.7526521826
  0
LINE
  5
262
100
AcDbEntity
  8
03__ASM_ALL_CURVES
100
AcDbLine
 62
40
  6
CONTINUOUS
 10
3.7749407625
 20
5.1890589326
 11
3.768398575
 21
5.1628901826
  0
LINE
  5
263
100
AcDbEntity
  8
03__ASM_ALL_CURVES
100
AcDbLine
 62
40
  6
CONTINUOUS
 10
3.768398575
 20
5.2501193472
 11
3.7749407625
 21
5.258842268
  0
LINE
  5
264
100
AcDbEntity
  8
03__ASM_ALL_CURVES
100
AcDbLine
 62
40
  6
CONTINUOUS
 10
3.7880251375
 20
5.2065047649
 11
3.7749407625
 21
5.1890589326
  0
LINE
  5
265
100
AcDbEntity
  8
03__ASM_ALL_CURVES
100
AcDbLine
 62
40
  6
CONTINUOUS
 10
3.820736075
 20
5.232673518
 11
3.8141938875
 21
5.2239505972
  0
LINE
  5
266
100
AcDbEntity
  8
03__ASM_ALL_CURVES
100
AcDbLine
 62
40
  6
CONTINUOUS
 10
3.977748575
 20
5.2501193472
 11
3.9842907625
 21
5.258842268
  0
LINE
  5
267
100
AcDbEntity
  8
03__ASM_ALL_CURVES
100
AcDbLine
 62
40
  6
CONTINUOUS
 10
3.9712063875
 20
5.1977818503
 11
3.9842907625
 21
5.2152276826
  0
LINE
  5
268
100
AcDbEntity
  8
0
100
AcDbLine
 62
7
  6
CONTINUOUS
 10
2.911942325
 20
4.4086521826
 11
2.942942325
 21
4.4396521826
  0
LINE
  5
269
100
AcDbEntity
  8
0
100
AcDbLine
 62
7
  6
CONTINUOUS
 10
2.911942325
 20
4.1026521826
 11
2.942942325
 21
4.0716521826
  0
LINE
  5
26A
100
AcDbEntity
  8
03__ASM_ALL_CURVES
100
AcDbLine
 62
40
  6
CONTINUOUS
 10
3.820736075
 20
5.2501193472
 11
3.820736075
 21
5.232673518
  0
LINE
  5
26B
100
AcDbEntity
  8
03__ASM_ALL_CURVES
100
AcDbLine
 62
40
  6
CONTINUOUS
 10
3.8927001375
 20
5.1628901826
 11
3.8927001375
 21
5.1716130995
  0
LINE
  5
26C
100
AcDbEntity
  8
03__ASM_ALL_CURVES
100
AcDbLine
 62
40
  6
CONTINUOUS
 10
3.9712063875
 20
5.1890589326
 11
3.9712063875
 21
5.1977818503
  0
LINE
  5
26D
100
AcDbEntity
  8
03__ASM_ALL_CURVES
100
AcDbLine
 62
40
  6
CONTINUOUS
 10
3.977748575
 20
5.2413964326
 11
3.977748575
 21
5.2501193472
  0
LINE
  5
26E
100
AcDbEntity
  8
03__ASM_ALL_CURVES
100
AcDbLine
 62
40
  6
CONTINUOUS
 10
4.030086075
 20
5.2413964326
 11
4.0235438875
 21
5.232673518
  0
LINE
  5
26F
100
AcDbEntity
  8
03__ASM_ALL_CURVES
100
AcDbLine
 62
40
  6
CONTINUOUS
 10
4.0366282625
 20
5.1890589326
 11
4.0235438875
 21
5.1716130995
  0
LINE
  5
270
100
AcDbEntity
  8
03__ASM_ALL_CURVES
100
AcDbLine
 62
40
  6
CONTINUOUS
 10
4.2198095125
 20
5.2675651826
 11
4.2067251375
 21
5.2501193472
  0
LINE
  5
271
100
AcDbEntity
  8
03__ASM_ALL_CURVES
100
AcDbLine
 62
40
  6
CONTINUOUS
 10
3.7749407625
 20
5.258842268
 11
3.7880251375
 21
5.2675651826
  0
LINE
  5
272
100
AcDbEntity
  8
03__ASM_ALL_CURVES
100
AcDbLine
 62
40
  6
CONTINUOUS
 10
3.8141938875
 20
5.2239505972
 11
3.7880251375
 21
5.2065047649
  0
LINE
  5
273
100
AcDbEntity
  8
03__ASM_ALL_CURVES
100
AcDbLine
 62
40
  6
CONTINUOUS
 10
3.9842907625
 20
5.258842268
 11
3.9973751375
 21
5.2675651826
  0
LINE
  5
274
100
AcDbEntity
  8
0
100
AcDbLine
 62
7
  6
CONTINUOUS
 10
3.5169431106
 20
3.974651397
 11
3.501442325
 21
3.9901521826
  0
LINE
  5
275
100
AcDbEntity
  8
03__ASM_ALL_CURVES
100
AcDbLine
 62
40
  6
CONTINUOUS
 10
4.030086075
 20
5.2501193472
 11
4.030086075
 21
5.2413964326
  0
LINE
  5
276
100
AcDbEntity
  8
03__ASM_ALL_CURVES
100
AcDbLine
 62
40
  6
CONTINUOUS
 10
4.0366282625
 20
5.1977818503
 11
4.0366282625
 21
5.1890589326
  0
LINE
  5
277
100
AcDbEntity
  8
03__ASM_ALL_CURVES
100
AcDbLine
 62
40
  6
CONTINUOUS
 10
4.108592325
 20
5.2675651826
 11
4.108592325
 21
5.1628901826
  0
LINE
  5
278
100
AcDbEntity
  8
03__ASM_ALL_CURVES
100
AcDbLine
 62
40
  6
CONTINUOUS
 10
4.20018295
 20
5.2239505972
 11
4.20018295
 21
5.2065047649
  0
LINE
  5
279
100
AcDbEntity
  8
03__ASM_ALL_CURVES
100
AcDbLine
 62
40
  6
CONTINUOUS
 10
4.2067251375
 20
5.2501193472
 11
4.20018295
 21
5.2239505972
  0
LINE
  5
27A
100
AcDbEntity
  8
03__ASM_ALL_CURVES
100
AcDbLine
 62
40
  6
CONTINUOUS
 10
4.3244845125
 20
5.2065047649
 11
4.3310267
 21
5.232673518
  0
LINE
  5
27B
100
AcDbEntity
  8
03__ASM_ALL_CURVES
100
AcDbLine
 62
40
  6
CONTINUOUS
 10
4.3310267
 20
5.232673518
 11
4.344111075
 21
5.2675651826
  0
LINE
  5
27C
100
AcDbEntity
  8
0
100
AcDbLine
 62
7
  6
CONTINUOUS
 10
3.692942325
 20
3.9846521826
 11
3.6868475529
 21
3.9740957276
  0
LINE
  5
27D
100
AcDbEntity
  8
0
100
AcDbLine
 62
7
  6
CONTINUOUS
 10
4.2692868275
 20
4.8891911647
 11
4.223942325
 21
4.8106521826
  0
LINE
  5
27E
100
AcDbEntity
  8
0
100
AcDbLine
 62
7
  6
CONTINUOUS
 10
3.5169431106
 20
4.5366529682
 11
3.501442325
 21
4.5211521826
  0
LINE
  5
27F
100
AcDbEntity
  8
0
100
AcDbLine
 62
7
  6
CONTINUOUS
 10
3.785942325
 20
4.7526521826
 11
3.723942325
 21
4.6906521826
  0
LINE
  5
280
100
AcDbEntity
  8
03__ASM_ALL_CURVES
100
AcDbLine
 62
40
  6
CONTINUOUS
 10
3.9842907625
 20
5.2152276826
 11
3.9973751375
 21
5.2239505972
  0
LINE
  5
281
100
AcDbEntity
  8
03__ASM_ALL_CURVES
100
AcDbLine
 62
40
  6
CONTINUOUS
 10
4.0235438875
 20
5.232673518
 11
4.0104595125
 21
5.2239505972
  0
LINE
  5
282
100
AcDbEntity
  8
03__ASM_ALL_CURVES
100
AcDbLine
 62
40
  6
CONTINUOUS
 10
4.0235438875
 20
5.1716130995
 11
4.0104595125
 21
5.1628901826
  0
LINE
  5
283
100
AcDbEntity
  8
0
100
AcDbLine
 62
7
  6
CONTINUOUS
 10
3.785942325
 20
3.7586521826
 11
3.723942325
 21
3.8206521826
  0
LINE
  5
284
100
AcDbEntity
  8
0
100
AcDbLine
 62
7
  6
CONTINUOUS
 10
3.692942325
 20
4.5266521826
 11
3.6868475529
 21
4.5372086376
  0
LINE
  5
285
100
AcDbEntity
  8
0
100
AcDbLine
 62
7
  6
CONTINUOUS
 10
4.2695529963
 20
3.6216521826
 11
4.223942325
 21
3.7006521826
  0
LINE
  5
286
100
AcDbEntity
  8
0
100
AcDbLine
 62
7
  6
CONTINUOUS
 10
4.223942325
 20
3.7006521826
 11
4.223942325
 21
4.8106521826
  0
LINE
  5
287
100
AcDbEntity
  8
0
100
AcDbLine
 62
7
  6
CONTINUOUS
 10
4.2695529963
 20
3.6216521826
 11
4.2695529963
 21
3.6222668731
  0
LINE
  5
288
100
AcDbEntity
  8
0
100
AcDbLine
 62
7
  6
CONTINUOUS
 10
4.2695529963
 20
3.9147874921
 11
4.2695529963
 21
3.9631315637
  0
LINE
  5
289
100
AcDbEntity
  8
0
100
AcDbLine
 62
7
  6
CONTINUOUS
 10
4.2695529963
 20
4.5481728015
 11
4.2695529963
 21
4.5965168731
  0
LINE
  5
28A
100
AcDbEntity
  8
0
100
AcDbLine
 62
7
  6
CONTINUOUS
 10
4.2695529963
 20
4.8890374921
 11
4.2695529963
 21
4.8896521826
  0
LINE
  5
28B
100
AcDbEntity
  8
03__ASM_ALL_CURVES
100
AcDbLine
 62
40
  6
CONTINUOUS
 10
4.317942325
 20
5.1628901826
 11
4.3244845125
 21
5.2065047649
  0
LINE
  5
28C
100
AcDbEntity
  8
03__ASM_ALL_CURVES
100
AcDbLine
 62
40
  6
CONTINUOUS
 10
4.658136075
 20
5.2413964326
 11
4.6515938875
 21
5.232673518
  0
LINE
  5
28D
100
AcDbEntity
  8
03__ASM_ALL_CURVES
100
AcDbLine
 62
40
  6
CONTINUOUS
 10
4.6646782625
 20
5.1890589326
 11
4.6515938875
 21
5.1716130995
  0
LINE
  5
28E
100
AcDbEntity
  8
0
100
AcDbLine
 62
7
  6
CONTINUOUS
 10
3.485442325
 20
3.9901521826
 11
3.479942325
 21
3.9846521826
  0
LINE
  5
28F
100
AcDbEntity
  8
03__ASM_ALL_CURVES
100
AcDbLine
 62
40
  6
CONTINUOUS
 10
4.6123407625
 20
5.258842268
 11
4.6254251375
 21
5.2675651826
  0
LINE
  5
290
100
AcDbEntity
  8
03__ASM_ALL_CURVES
100
AcDbLine
 62
40
  6
CONTINUOUS
 10
4.6515938875
 20
5.232673518
 11
4.6385095125
 21
5.2239505972
  0
LINE
  5
291
100
AcDbEntity
  8
0
100
AcDbLine
 62
7
  6
CONTINUOUS
 10
3.485442325
 20
4.5211521826
 11
3.479942325
 21
4.5266521826
  0
LINE
  5
292
100
AcDbEntity
  8
03__ASM_ALL_CURVES
100
AcDbLine
 62
40
  6
CONTINUOUS
 10
4.422617325
 20
5.2675651826
 11
4.422617325
 21
5.1628901826
  0
LINE
  5
293
100
AcDbEntity
  8
03__ASM_ALL_CURVES
100
AcDbLine
 62
40
  6
CONTINUOUS
 10
4.5207501375
 20
5.1628901826
 11
4.5207501375
 21
5.1716130995
  0
LINE
  5
294
100
AcDbEntity
  8
03__ASM_ALL_CURVES
100
AcDbLine
 62
40
  6
CONTINUOUS
 10
4.7431845125
 20
5.2065047649
 11
4.7497267
 21
5.232673518
  0
LINE
  5
295
100
AcDbEntity
  8
03__ASM_ALL_CURVES
100
AcDbLine
 62
40
  6
CONTINUOUS
 10
4.7497267
 20
5.232673518
 11
4.762811075
 21
5.2675651826
  0
LINE
  5
296
100
AcDbEntity
  8
03__ASM_ALL_CURVES
100
AcDbLine
 62
40
  6
CONTINUOUS
 10
4.8478595125
 20
5.1803360164
 11
4.8347751375
 21
5.1628901826
  0
LINE
  5
297
100
AcDbEntity
  8
03__ASM_ALL_CURVES
100
AcDbLine
 62
40
  6
CONTINUOUS
 10
4.6515938875
 20
5.1716130995
 11
4.6385095125
 21
5.1628901826
  0
LINE
  5
298
100
AcDbEntity
  8
03__ASM_ALL_CURVES
100
AcDbLine
 62
40
  6
CONTINUOUS
 10
4.20018295
 20
5.2065047649
 11
4.2067251375
 21
5.1803360164
  0
LINE
  5
299
100
AcDbEntity
  8
03__ASM_ALL_CURVES
100
AcDbLine
 62
40
  6
CONTINUOUS
 10
4.658136075
 20
5.2501193472
 11
4.658136075
 21
5.2413964326
  0
LINE
  5
29A
100
AcDbEntity
  8
03__ASM_ALL_CURVES
100
AcDbLine
 62
40
  6
CONTINUOUS
 10
4.6646782625
 20
5.1977818503
 11
4.6646782625
 21
5.1890589326
  0
LINE
  5
29B
100
AcDbEntity
  8
03__ASM_ALL_CURVES
100
AcDbLine
 62
40
  6
CONTINUOUS
 10
4.736642325
 20
5.1628901826
 11
4.7431845125
 21
5.2065047649
  0
LINE
  5
29C
100
AcDbEntity
  8
03__ASM_ALL_CURVES
100
AcDbLine
 62
40
  6
CONTINUOUS
 10
4.8544017
 20
5.2065047649
 11
4.8478595125
 21
5.1803360164
  0
LINE
  5
29D
100
AcDbEntity
  8
03__ASM_ALL_CURVES
100
AcDbLine
 62
40
  6
CONTINUOUS
 10
3.8141938875
 20
5.258842268
 11
3.820736075
 21
5.2501193472
  0
LINE
  5
29E
100
AcDbEntity
  8
03__ASM_ALL_CURVES
100
AcDbLine
 62
40
  6
CONTINUOUS
 10
3.8927001375
 20
5.1716130995
 11
3.899242325
 21
5.1628901826
  0
LINE
  5
29F
100
AcDbEntity
  8
03__ASM_ALL_CURVES
100
AcDbLine
 62
40
  6
CONTINUOUS
 10
4.8544017
 20
5.2239505972
 11
4.8544017
 21
5.2065047649
  0
LINE
  5
2A0
100
AcDbEntity
  8
0
100
AcDbLine
 62
7
  6
CONTINUOUS
 10
4.8565166992
 20
3.6216521826
 11
4.8565166992
 21
3.6222668731
  0
LINE
  5
2A1
100
AcDbEntity
  8
0
100
AcDbLine
 62
7
  6
CONTINUOUS
 10
4.8565166992
 20
3.9147874921
 11
4.8565166992
 21
3.9631315637
  0
LINE
  5
2A2
100
AcDbEntity
  8
0
100
AcDbLine
 62
7
  6
CONTINUOUS
 10
4.8565166992
 20
4.5481728015
 11
4.8565166992
 21
4.5965168731
  0
LINE
  5
2A3
100
AcDbEntity
  8
0
100
AcDbLine
 62
7
  6
CONTINUOUS
 10
4.8565166992
 20
4.8890374921
 11
4.8565166992
 21
4.8896521826
  0
LINE
  5
2A4
100
AcDbEntity
  8
0
100
AcDbLine
 62
7
  6
CONTINUOUS
 10
4.911942325
 20
3.7176521826
 11
4.911942325
 21
4.7936521826
  0
LINE
  5
2A5
100
AcDbEntity
  8
03__ASM_ALL_CURVES
100
AcDbLine
 62
40
  6
CONTINUOUS
 10
6.6098085074
 20
3.3067696826
 11
6.5705553824
 21
3.3067696826
  0
LINE
  5
2A6
100
AcDbEntity
  8
03__ASM_ALL_CURVES
100
AcDbLine
 62
40
  6
CONTINUOUS
 10
6.4920491324
 20
3.3067696826
 11
6.5313022574
 21
3.3067696826
  0
LINE
  5
2A7
100
AcDbEntity
  8
03__ASM_ALL_CURVES
100
AcDbLine
 62
40
  6
CONTINUOUS
 10
5.4024225989
 20
3.3329384334
 11
5.4318624427
 21
3.3329384334
  0
LINE
  5
2A8
100
AcDbEntity
  8
03__ASM_ALL_CURVES
100
AcDbLine
 62
40
  6
CONTINUOUS
 10
6.5705553824
 20
3.3460228076
 11
6.5950885855
 21
3.3460228076
  0
LINE
  5
2A9
100
AcDbEntity
  8
03__ASM_ALL_CURVES
100
AcDbLine
 62
40
  6
CONTINUOUS
 10
5.3141030677
 20
3.3852759326
 11
5.3631694739
 21
3.3852759326
  0
LINE
  5
2AA
100
AcDbEntity
  8
03__ASM_ALL_CURVES
100
AcDbLine
 62
40
  6
CONTINUOUS
 10
6.5705553824
 20
3.3852759326
 11
6.6098085074
 21
3.3852759326
  0
LINE
  5
2AB
100
AcDbEntity
  8
03__ASM_ALL_CURVES
100
AcDbLine
 62
40
  6
CONTINUOUS
 10
6.6441549918
 20
3.3852759326
 11
6.693221398
 21
3.3852759326
  0
LINE
  5
2AC
100
AcDbEntity
  8
03__ASM_ALL_CURVES
100
AcDbLine
 62
40
  6
CONTINUOUS
 10
6.4503426972
 20
3.4271459326
 11
6.4405294159
 21
3.4271459326
  0
LINE
  5
2AD
100
AcDbEntity
  8
03__ASM_ALL_CURVES
100
AcDbLine
 62
40
  6
CONTINUOUS
 10
5.6134081498
 20
3.4271459326
 11
5.6035948686
 21
3.4271459326
  0
LINE
  5
2AE
100
AcDbEntity
  8
03__ASM_ALL_CURVES
100
AcDbLine
 62
40
  6
CONTINUOUS
 10
5.3778893998
 20
3.4271459326
 11
5.3680761186
 21
3.4271459326
  0
LINE
  5
2AF
100
AcDbEntity
  8
03__ASM_ALL_CURVES
100
AcDbLine
 62
40
  6
CONTINUOUS
 10
6.6613282441
 20
3.4271459326
 11
6.7005813691
 21
3.4271459326
  0
LINE
  5
2B0
100
AcDbEntity
  8
03__ASM_ALL_CURVES
100
AcDbLine
 62
40
  6
CONTINUOUS
 10
6.5288489472
 20
3.4663990576
 11
6.5043157441
 21
3.4663990576
  0
LINE
  5
2B1
100
AcDbEntity
  8
03__ASM_ALL_CURVES
100
AcDbLine
 62
40
  6
CONTINUOUS
 10
6.3718364472
 20
3.4663990576
 11
6.3473032441
 21
3.4663990576
  0
LINE
  5
2B2
100
AcDbEntity
  8
03__ASM_ALL_CURVES
100
AcDbLine
 62
40
  6
CONTINUOUS
 10
5.4563956498
 20
3.4663990576
 11
5.4318624467
 21
3.4663990576
  0
LINE
  5
2B3
100
AcDbEntity
  8
03__ASM_ALL_CURVES
100
AcDbLine
 62
40
  6
CONTINUOUS
 10
5.2993831498
 20
3.4663990576
 11
5.2748499467
 21
3.4663990576
  0
LINE
  5
2B4
100
AcDbEntity
  8
03__ASM_ALL_CURVES
100
AcDbLine
 62
40
  6
CONTINUOUS
 10
5.6035948686
 20
3.4729412435
 11
5.6134081498
 21
3.4729412435
  0
LINE
  5
2B5
100
AcDbEntity
  8
03__ASM_ALL_CURVES
100
AcDbLine
 62
40
  6
CONTINUOUS
 10
5.3680761186
 20
3.4271459326
 11
5.3582628373
 21
3.4336881203
  0
LINE
  5
2B6
100
AcDbEntity
  8
03__ASM_ALL_CURVES
100
AcDbLine
 62
40
  6
CONTINUOUS
 10
5.2993831498
 20
3.5056521826
 11
5.3091964311
 21
3.4991099967
  0
LINE
  5
2B7
100
AcDbEntity
  8
03__ASM_ALL_CURVES
100
AcDbLine
 62
40
  6
CONTINUOUS
 10
5.3778893998
 20
3.5056521826
 11
5.3877026811
 21
3.4991099967
  0
LINE
  5
2B8
100
AcDbEntity
  8
03__ASM_ALL_CURVES
100
AcDbLine
 62
40
  6
CONTINUOUS
 10
5.4563956498
 20
3.5056521826
 11
5.4662089311
 21
3.4991099967
  0
LINE
  5
2B9
100
AcDbEntity
  8
03__ASM_ALL_CURVES
100
AcDbLine
 62
40
  6
CONTINUOUS
 10
5.6035948686
 20
3.4271459326
 11
5.5937815873
 21
3.4336881203
  0
LINE
  5
2BA
100
AcDbEntity
  8
03__ASM_ALL_CURVES
100
AcDbLine
 62
40
  6
CONTINUOUS
 10
3.9842907625
 20
5.1716130995
 11
3.9712063875
 21
5.1890589326
  0
LINE
  5
2BB
100
AcDbEntity
  8
03__ASM_ALL_CURVES
100
AcDbLine
 62
40
  6
CONTINUOUS
 10
3.9842907625
 20
5.232673518
 11
3.977748575
 21
5.2413964326
  0
LINE
  5
2BC
100
AcDbEntity
  8
03__ASM_ALL_CURVES
100
AcDbLine
 62
40
  6
CONTINUOUS
 10
5.3582628373
 20
3.4336881203
 11
5.3484495561
 21
3.4467724951
  0
LINE
  5
2BD
100
AcDbEntity
  8
03__ASM_ALL_CURVES
100
AcDbLine
 62
40
  6
CONTINUOUS
 10
5.3091964311
 20
3.4991099967
 11
5.3141030717
 21
3.492567806
  0
LINE
  5
2BE
100
AcDbEntity
  8
03__ASM_ALL_CURVES
100
AcDbLine
 62
40
  6
CONTINUOUS
 10
4.0235438875
 20
5.2152276826
 11
4.0366282625
 21
5.1977818503
  0
LINE
  5
2BF
100
AcDbEntity
  8
03__ASM_ALL_CURVES
100
AcDbLine
 62
40
  6
CONTINUOUS
 10
4.0235438875
 20
5.258842268
 11
4.030086075
 21
5.2501193472
  0
LINE
  5
2C0
100
AcDbEntity
  8
03__ASM_ALL_CURVES
100
AcDbLine
 62
40
  6
CONTINUOUS
 10
5.3877026811
 20
3.4991099967
 11
5.3975159623
 21
3.4860256201
  0
LINE
  5
2C1
100
AcDbEntity
  8
0
100
AcDbLine
 62
7
  6
CONTINUOUS
 10
5.098942325
 20
3.7176521826
 11
5.098942325
 21
4.7936521826
  0
LINE
  5
2C2
100
AcDbEntity
  8
0
100
AcDbLine
 62
7
  6
CONTINUOUS
 10
5.148942325
 20
3.7191521826
 11
5.148942325
 21
4.7921521826
  0
LINE
  5
2C3
100
AcDbEntity
  8
03__ASM_ALL_CURVES
100
AcDbLine
 62
40
  6
CONTINUOUS
 10
6.0026395119
 20
5.258842268
 11
6.0157238869
 21
5.2675651826
  0
LINE
  5
2C4
100
AcDbEntity
  8
03__ASM_ALL_CURVES
100
AcDbLine
 62
40
  6
CONTINUOUS
 10
6.1073145119
 20
5.258842268
 11
6.1203988869
 21
5.2675651826
  0
LINE
  5
2C5
100
AcDbEntity
  8
03__ASM_ALL_CURVES
100
AcDbLine
 62
40
  6
CONTINUOUS
 10
6.0418926369
 20
5.1716130995
 11
6.0288082619
 21
5.1628901826
  0
LINE
  5
2C6
100
AcDbEntity
  8
03__ASM_ALL_CURVES
100
AcDbLine
 62
40
  6
CONTINUOUS
 10
5.2748499467
 20
3.5056521826
 11
5.2993831498
 21
3.5056521826
  0
LINE
  5
2C7
100
AcDbEntity
  8
03__ASM_ALL_CURVES
100
AcDbLine
 62
40
  6
CONTINUOUS
 10
5.3680761186
 20
3.5056521826
 11
5.3778893998
 21
3.5056521826
  0
LINE
  5
2C8
100
AcDbEntity
  8
03__ASM_ALL_CURVES
100
AcDbLine
 62
40
  6
CONTINUOUS
 10
5.4318624467
 20
3.5056521826
 11
5.4563956498
 21
3.5056521826
  0
LINE
  5
2C9
100
AcDbEntity
  8
03__ASM_ALL_CURVES
100
AcDbLine
 62
40
  6
CONTINUOUS
 10
5.5054620561
 20
3.5056521826
 11
5.5545284623
 21
3.5056521826
  0
LINE
  5
2CA
100
AcDbEntity
  8
03__ASM_ALL_CURVES
100
AcDbLine
 62
40
  6
CONTINUOUS
 10
5.6035948686
 20
3.5056521826
 11
5.6134081498
 21
3.5056521826
  0
LINE
  5
2CB
100
AcDbEntity
  8
03__ASM_ALL_CURVES
100
AcDbLine
 62
40
  6
CONTINUOUS
 10
6.3473032441
 20
3.5056521826
 11
6.3718364472
 21
3.5056521826
  0
LINE
  5
2CC
100
AcDbEntity
  8
03__ASM_ALL_CURVES
100
AcDbLine
 62
40
  6
CONTINUOUS
 10
6.4405294159
 20
3.5056521826
 11
6.4503426972
 21
3.5056521826
  0
LINE
  5
2CD
100
AcDbEntity
  8
03__ASM_ALL_CURVES
100
AcDbLine
 62
40
  6
CONTINUOUS
 10
6.5043157441
 20
3.5056521826
 11
6.5288489472
 21
3.5056521826
  0
LINE
  5
2CE
100
AcDbEntity
  8
03__ASM_ALL_CURVES
100
AcDbLine
 62
40
  6
CONTINUOUS
 10
6.5779153534
 20
3.5056521826
 11
6.6269817597
 21
3.5056521826
  0
LINE
  5
2CF
100
AcDbEntity
  8
03__ASM_ALL_CURVES
100
AcDbLine
 62
40
  6
CONTINUOUS
 10
6.6760481659
 20
3.5056521826
 11
6.6858614472
 21
3.5056521826
  0
LINE
  5
2D0
100
AcDbEntity
  8
0
100
AcDbLine
 62
7
  6
CONTINUOUS
 10
4.8565166992
 20
3.6216521826
 11
4.2695529963
 21
3.6216521826
  0
LINE
  5
2D1
100
AcDbEntity
  8
0
100
AcDbLine
 62
7
  6
CONTINUOUS
 10
4.8565166992
 20
3.6222668731
 11
4.2695529963
 21
3.6222668731
  0
LINE
  5
2D2
100
AcDbEntity
  8
03__ASM_ALL_CURVES
100
AcDbLine
 62
40
  6
CONTINUOUS
 10
5.6134081498
 20
3.4729412435
 11
5.6232214311
 21
3.4663990576
  0
LINE
  5
2D3
100
AcDbEntity
  8
03__ASM_ALL_CURVES
100
AcDbLine
 62
40
  6
CONTINUOUS
 10
5.6134081498
 20
3.5056521826
 11
5.6232214311
 21
3.4991099967
  0
LINE
  5
2D4
100
AcDbEntity
  8
03__ASM_ALL_CURVES
100
AcDbLine
 62
40
  6
CONTINUOUS
 10
5.4662089311
 20
3.4991099967
 11
5.4711155717
 21
3.492567806
  0
LINE
  5
2D5
100
AcDbEntity
  8
03__ASM_ALL_CURVES
100
AcDbLine
 62
40
  6
CONTINUOUS
 10
4.2067251375
 20
5.1803360164
 11
4.2198095125
 21
5.1628901826
  0
LINE
  5
2D6
100
AcDbEntity
  8
03__ASM_ALL_CURVES
100
AcDbLine
 62
40
  6
CONTINUOUS
 10
5.5937815873
 20
3.4336881203
 11
5.5888749467
 21
3.440230308
  0
LINE
  5
2D7
100
AcDbEntity
  8
03__ASM_ALL_CURVES
100
AcDbLine
 62
40
  6
CONTINUOUS
 10
5.6232214311
 20
3.4663990576
 11
5.6330347123
 21
3.4533146834
  0
LINE
  5
2D8
100
AcDbEntity
  8
03__ASM_ALL_CURVES
100
AcDbLine
 62
40
  6
CONTINUOUS
 10
5.6232214311
 20
3.4991099967
 11
5.6281280717
 21
3.492567806
  0
LINE
  5
2D9
100
AcDbEntity
  8
03__ASM_ALL_CURVES
100
AcDbLine
 62
40
  6
CONTINUOUS
 10
5.4760222083
 20
3.3852759326
 11
5.5152753333
 21
3.3067696826
  0
LINE
  5
2DA
100
AcDbEntity
  8
03__ASM_ALL_CURVES
100
AcDbLine
 62
40
  6
CONTINUOUS
 10
5.4563956498
 20
3.4663990576
 11
5.4711155717
 21
3.4271459326
  0
LINE
  5
2DB
100
AcDbEntity
  8
03__ASM_ALL_CURVES
100
AcDbLine
 62
40
  6
CONTINUOUS
 10
5.4171425208
 20
3.3852759326
 11
5.4416757239
 21
3.3067696826
  0
LINE
  5
2DC
100
AcDbEntity
  8
03__ASM_ALL_CURVES
100
AcDbLine
 62
40
  6
CONTINUOUS
 10
4.8478595125
 20
5.2501193472
 11
4.8544017
 21
5.2239505972
  0
LINE
  5
2DD
100
AcDbEntity
  8
03__ASM_ALL_CURVES
100
AcDbLine
 62
40
  6
CONTINUOUS
 10
5.3484495561
 20
3.4467724951
 11
5.3435429154
 21
3.4663990576
  0
LINE
  5
2DE
100
AcDbEntity
  8
03__ASM_ALL_CURVES
100
AcDbLine
 62
40
  6
CONTINUOUS
 10
5.3975159623
 20
3.4860256201
 11
5.4024226029
 21
3.4663990576
  0
LINE
  5
2DF
100
AcDbEntity
  8
0
100
AcDbLine
 62
7
  6
CONTINUOUS
 10
5.218942325
 20
4.7731521826
 11
5.218942325
 21
3.7381521826
  0
LINE
  5
2E0
100
AcDbEntity
  8
0
100
AcDbLine
 62
7
  6
CONTINUOUS
 10
5.239942325
 20
3.7176521826
 11
5.239942325
 21
4.7936521826
  0
LINE
  5
2E1
100
AcDbEntity
  8
03__ASM_ALL_CURVES
100
AcDbLine
 62
40
  6
CONTINUOUS
 10
5.2748499467
 20
3.4271459326
 11
5.2748499467
 21
3.5056521826
  0
LINE
  5
2E2
100
AcDbEntity
  8
0
100
AcDbLine
 62
7
  6
CONTINUOUS
 10
5.284942325
 20
3.7176521826
 11
5.284942325
 21
4.7936521826
  0
LINE
  5
2E3
100
AcDbEntity
  8
0
100
AcDbLine
 62
7
  6
CONTINUOUS
 10
5.3063782604
 20
3.7976521826
 11
5.3063782604
 21
4.7136521826
  0
LINE
  5
2E4
100
AcDbEntity
  8
03__ASM_ALL_CURVES
100
AcDbLine
 62
40
  6
CONTINUOUS
 10
5.3141030717
 20
3.492567806
 11
5.3141030717
 21
3.4794834342
  0
LINE
  5
2E5
100
AcDbEntity
  8
03__ASM_ALL_CURVES
100
AcDbLine
 62
40
  6
CONTINUOUS
 10
5.3386362708
 20
3.3852759326
 11
5.3386362708
 21
3.3067696826
  0
LINE
  5
2E6
100
AcDbEntity
  8
0
100
AcDbLine
 62
7
  6
CONTINUOUS
 10
5.411942325
 20
4.2508868264
 11
5.411942325
 21
4.2604113712
  0
LINE
  5
2E7
100
AcDbEntity
  8
0
100
AcDbLine
 62
7
  6
CONTINUOUS
 10
4.911942325
 20
3.7176521826
 11
4.856782868
 21
3.6221132005
  0
LINE
  5
2E8
100
AcDbEntity
  8
03__ASM_ALL_CURVES
100
AcDbLine
 62
40
  6
CONTINUOUS
 10
5.9895551369
 20
5.2413964326
 11
6.0026395119
 21
5.258842268
  0
LINE
  5
2E9
100
AcDbEntity
  8
03__ASM_ALL_CURVES
100
AcDbLine
 62
40
  6
CONTINUOUS
 10
6.1465676369
 20
5.1716130995
 11
6.1334832619
 21
5.1628901826
  0
LINE
  5
2EA
100
AcDbEntity
  8
0
100
AcDbLine
 62
7
  6
CONTINUOUS
 10
5.7452987315
 20
3.7404823096
 11
5.7477987315
 21
3.7411521826
  0
LINE
  5
2EB
100
AcDbEntity
  8
0
100
AcDbLine
 62
7
  6
CONTINUOUS
 10
5.720942325
 20
3.7176521826
 11
5.658942325
 21
3.7176521826
  0
LINE
  5
2EC
100
AcDbEntity
  8
0
100
AcDbLine
 62
7
  6
CONTINUOUS
 10
5.284942325
 20
3.7176521826
 11
5.239942325
 21
3.7176521826
  0
LINE
  5
2ED
100
AcDbEntity
  8
0
100
AcDbLine
 62
7
  6
CONTINUOUS
 10
5.098942325
 20
3.7176521826
 11
4.911942325
 21
3.7176521826
  0
LINE
  5
2EE
100
AcDbEntity
  8
0
100
AcDbLine
 62
7
  6
CONTINUOUS
 10
5.098942325
 20
3.7191521826
 11
5.148942325
 21
3.7191521826
  0
LINE
  5
2EF
100
AcDbEntity
  8
THREAD
100
AcDbLine
 62
7
  6
CONTINUOUS
 10
5.770942325
 20
3.7411521826
 11
5.7477987315
 21
3.7411521826
  0
LINE
  5
2F0
100
AcDbEntity
  8
0
100
AcDbLine
 62
7
  6
CONTINUOUS
 10
5.840942325
 20
3.7436521826
 11
5.890942325
 21
3.7436521826
  0
LINE
  5
2F1
100
AcDbEntity
  8
0
100
AcDbLine
 62
7
  6
CONTINUOUS
 10
4.223942325
 20
3.7586521826
 11
3.785942325
 21
3.7586521826
  0
LINE
  5
2F2
100
AcDbEntity
  8
THREAD
100
AcDbLine
 62
7
  6
CONTINUOUS
 10
6.204942325
 20
3.7596521826
 11
5.9338816353
 21
3.7596521826
  0
LINE
  5
2F3
100
AcDbEntity
  8
0
100
AcDbLine
 62
7
  6
CONTINUOUS
 10
5.239942325
 20
3.7731521826
 11
5.218942325
 21
3.7731521826
  0
LINE
  5
2F4
100
AcDbEntity
  8
THREAD
100
AcDbLine
 62
7
  6
CONTINUOUS
 10
5.9044367715
 20
3.7976521826
 11
5.890942325
 21
3.7976521826
  0
LINE
  5
2F5
100
AcDbEntity
  8
0
100
AcDbLine
 62
7
  6
CONTINUOUS
 10
5.6375063896
 20
3.7976521826
 11
5.614442325
 21
3.7976521826
  0
LINE
  5
2F6
100
AcDbEntity
  8
0
100
AcDbLine
 62
7
  6
CONTINUOUS
 10
5.411442325
 20
3.7976521826
 11
5.3063782604
 21
3.7976521826
  0
LINE
  5
2F7
100
AcDbEntity
  8
THREAD
100
AcDbLine
 62
7
  6
CONTINUOUS
 10
6.332942325
 20
3.8036521826
 11
6.248942325
 21
3.8036521826
  0
LINE
  5
2F8
100
AcDbEntity
  8
0
100
AcDbLine
 62
7
  6
CONTINUOUS
 10
6.777942325
 20
3.8191521826
 11
6.837942325
 21
3.8191521826
  0
LINE
  5
2F9
100
AcDbEntity
  8
0
100
AcDbLine
 62
7
  6
CONTINUOUS
 10
7.032442325
 20
3.8194021826
 11
7.093442325
 21
3.8194021826
  0
LINE
  5
2FA
100
AcDbEntity
  8
0
100
AcDbLine
 62
7
  6
CONTINUOUS
 10
6.837942325
 20
3.8236521826
 11
6.887942325
 21
3.8236521826
  0
LINE
  5
2FB
100
AcDbEntity
  8
0
100
AcDbLine
 62
7
  6
CONTINUOUS
 10
6.957942325
 20
3.8236521826
 11
7.007942325
 21
3.8236521826
  0
LINE
  5
2FC
100
AcDbEntity
  8
0
100
AcDbLine
 62
7
  6
CONTINUOUS
 10
7.016442325
 20
3.8776521826
 11
7.007942325
 21
3.8776521826
  0
LINE
  5
2FD
100
AcDbEntity
  8
0
100
AcDbLine
 62
7
  6
CONTINUOUS
 10
6.777942325
 20
3.8816521826
 11
6.588942325
 21
3.8816521826
  0
LINE
  5
2FE
100
AcDbEntity
  8
0
100
AcDbLine
 62
7
  6
CONTINUOUS
 10
6.432942325
 20
3.8816521826
 11
6.348942325
 21
3.8816521826
  0
LINE
  5
2FF
100
AcDbEntity
  8
03__ASM_ALL_CURVES
100
AcDbLine
 62
40
  6
CONTINUOUS
 10
4.5207501375
 20
5.1716130995
 11
4.527292325
 21
5.1628901826
  0
LINE
  5
300
100
AcDbEntity
  8
03__ASM_ALL_CURVES
100
AcDbLine
 62
40
  6
CONTINUOUS
 10
4.6123407625
 20
5.1716130995
 11
4.605798575
 21
5.1803360164
  0
LINE
  5
301
100
AcDbEntity
  8
0
100
AcDbLine
 62
7
  6
CONTINUOUS
 10
4.911942325
 20
4.7936521826
 11
4.856782868
 21
4.8891911647
  0
LINE
  5
302
100
AcDbEntity
  8
03__ASM_ALL_CURVES
100
AcDbLine
 62
40
  6
CONTINUOUS
 10
5.5741550208
 20
3.3591071842
 11
5.5937815833
 21
3.3067696826
  0
LINE
  5
303
100
AcDbEntity
  8
03__ASM_ALL_CURVES
100
AcDbLine
 62
40
  6
CONTINUOUS
 10
5.4318624467
 20
3.4271459326
 11
5.4318624467
 21
3.5056521826
  0
LINE
  5
304
100
AcDbEntity
  8
03__ASM_ALL_CURVES
100
AcDbLine
 62
40
  6
CONTINUOUS
 10
5.4711155717
 20
3.492567806
 11
5.4711155717
 21
3.4794834342
  0
LINE
  5
305
100
AcDbEntity
  8
03__ASM_ALL_CURVES
100
AcDbLine
 62
40
  6
CONTINUOUS
 10
5.4760222083
 20
3.3067696826
 11
5.4760222083
 21
3.3852759326
  0
LINE
  5
306
100
AcDbEntity
  8
03__ASM_ALL_CURVES
100
AcDbLine
 62
40
  6
CONTINUOUS
 10
5.5152753333
 20
3.3067696826
 11
5.5152753333
 21
3.3852759326
  0
LINE
  5
307
100
AcDbEntity
  8
03__ASM_ALL_CURVES
100
AcDbLine
 62
40
  6
CONTINUOUS
 10
5.5299952592
 20
3.5056521826
 11
5.5299952592
 21
3.4271459326
  0
LINE
  5
308
100
AcDbEntity
  8
03__ASM_ALL_CURVES
100
AcDbLine
 62
40
  6
CONTINUOUS
 10
5.5545284583
 20
3.3852759326
 11
5.5545284583
 21
3.3067696826
  0
LINE
  5
309
100
AcDbEntity
  8
03__ASM_ALL_CURVES
100
AcDbLine
 62
40
  6
CONTINUOUS
 10
5.598332325
 20
5.1419551826
 11
5.598332325
 21
5.1000851826
  0
LINE
  5
30A
100
AcDbEntity
  8
03__ASM_ALL_CURVES
100
AcDbLine
 62
40
  6
CONTINUOUS
 10
5.3435429154
 20
3.4663990576
 11
5.3484495561
 21
3.4860256201
  0
LINE
  5
30B
100
AcDbEntity
  8
03__ASM_ALL_CURVES
100
AcDbLine
 62
40
  6
CONTINUOUS
 10
5.4024226029
 20
3.4663990576
 11
5.3975159623
 21
3.4467724951
  0
LINE
  5
30C
100
AcDbEntity
  8
0
100
AcDbLine
 62
7
  6
CONTINUOUS
 10
5.3063782604
 20
3.7976521826
 11
5.284942325
 21
3.7176521826
  0
LINE
  5
30D
100
AcDbEntity
  8
0
100
AcDbLine
 62
7
  6
CONTINUOUS
 10
5.658942325
 20
4.7936521826
 11
5.6375063896
 21
4.7136521826
  0
LINE
  5
30E
100
AcDbEntity
  8
03__ASM_ALL_CURVES
100
AcDbLine
 62
40
  6
CONTINUOUS
 10
6.0549770119
 20
5.1890589326
 11
6.0418926369
 21
5.1716130995
  0
LINE
  5
30F
100
AcDbEntity
  8
03__ASM_ALL_CURVES
100
AcDbLine
 62
40
  6
CONTINUOUS
 10
6.0942301369
 20
5.2413964326
 11
6.1073145119
 21
5.258842268
  0
LINE
  5
310
100
AcDbEntity
  8
03__ASM_ALL_CURVES
100
AcDbLine
 62
40
  6
CONTINUOUS
 10
6.1531098244
 20
5.1803360164
 11
6.1465676369
 21
5.1716130995
  0
LINE
  5
311
100
AcDbEntity
  8
03__ASM_ALL_CURVES
100
AcDbLine
 62
40
  6
CONTINUOUS
 10
6.6306895119
 20
5.258842268
 11
6.6437738869
 21
5.2675651826
  0
LINE
  5
312
100
AcDbEntity
  8
03__ASM_ALL_CURVES
100
AcDbLine
 62
40
  6
CONTINUOUS
 10
6.6699426369
 20
5.1716130995
 11
6.6568582619
 21
5.1628901826
  0
LINE
  5
313
100
AcDbEntity
  8
03__ASM_ALL_CURVES
100
AcDbLine
 62
40
  6
CONTINUOUS
 10
6.8531238869
 20
5.2675651826
 11
6.8400395119
 21
5.258842268
  0
LINE
  5
314
100
AcDbEntity
  8
0
100
AcDbLine
 62
7
  6
CONTINUOUS
 10
4.8565166992
 20
3.9147874921
 11
4.2695529963
 21
3.9147874921
  0
LINE
  5
315
100
AcDbEntity
  8
0
100
AcDbLine
 62
7
  6
CONTINUOUS
 10
4.8565166992
 20
3.9631315637
 11
4.2695529963
 21
3.9631315637
  0
LINE
  5
316
100
AcDbEntity
  8
0
100
AcDbLine
 62
7
  6
CONTINUOUS
 10
3.5169423251
 20
3.9746521826
 11
3.6871660467
 21
3.9746521826
  0
LINE
  5
317
100
AcDbEntity
  8
0
100
AcDbLine
 62
7
  6
CONTINUOUS
 10
3.723942325
 20
3.9846521826
 11
3.692942325
 21
3.9846521826
  0
LINE
  5
318
100
AcDbEntity
  8
0
100
AcDbLine
 62
7
  6
CONTINUOUS
 10
3.479942325
 20
3.9846521826
 11
3.473942325
 21
3.9846521826
  0
LINE
  5
319
100
AcDbEntity
  8
0
100
AcDbLine
 62
7
  6
CONTINUOUS
 10
3.501442325
 20
3.9901521826
 11
3.485442325
 21
3.9901521826
  0
LINE
  5
31A
100
AcDbEntity
  8
0
100
AcDbLine
 62
7
  6
CONTINUOUS
 10
2.942942325
 20
4.0716521826
 11
3.141942325
 21
4.0716521826
  0
LINE
  5
31B
100
AcDbEntity
  8
0
100
AcDbLine
 62
7
  6
CONTINUOUS
 10
3.179942325
 20
4.0716521826
 11
3.411942325
 21
4.0716521826
  0
LINE
  5
31C
100
AcDbEntity
  8
DEFAULT_2
100
AcDbLine
 62
8
  6
HIDDEN
 10
3.141942325
 20
4.0856521826
 11
3.1457452974
 21
4.0856521826
  0
LINE
  5
31D
100
AcDbEntity
  8
DEFAULT_2
100
AcDbLine
 62
8
  6
HIDDEN
 10
3.1761393526
 20
4.0856521826
 11
3.179942325
 21
4.0856521826
  0
LINE
  5
31E
100
AcDbEntity
  8
0
100
AcDbLine
 62
7
  6
CONTINUOUS
 10
3.141942325
 20
4.1046521826
 11
3.143442325
 21
4.1046521826
  0
LINE
  5
31F
100
AcDbEntity
  8
0
100
AcDbLine
 62
7
  6
CONTINUOUS
 10
3.178442325
 20
4.1046521826
 11
3.179942325
 21
4.1046521826
  0
LINE
  5
320
100
AcDbEntity
  8
03__ASM_ALL_CURVES
100
AcDbLine
 62
40
  6
CONTINUOUS
 10
6.4405294159
 20
3.4271459326
 11
6.4307161347
 21
3.4336881203
  0
LINE
  5
321
100
AcDbEntity
  8
03__ASM_ALL_CURVES
100
AcDbLine
 62
40
  6
CONTINUOUS
 10
6.3718364472
 20
3.5056521826
 11
6.3816497284
 21
3.4991099967
  0
LINE
  5
322
100
AcDbEntity
  8
03__ASM_ALL_CURVES
100
AcDbLine
 62
40
  6
CONTINUOUS
 10
3.8011095125
 20
5.2675651826
 11
3.8141938875
 21
5.258842268
  0
LINE
  5
323
100
AcDbEntity
  8
03__ASM_ALL_CURVES
100
AcDbLine
 62
40
  6
CONTINUOUS
 10
6.4503426972
 20
3.5056521826
 11
6.4601559784
 21
3.4991099967
  0
LINE
  5
324
100
AcDbEntity
  8
03__ASM_ALL_CURVES
100
AcDbLine
 62
40
  6
CONTINUOUS
 10
3.9973751375
 20
5.1628901826
 11
3.9842907625
 21
5.1716130995
  0
LINE
  5
325
100
AcDbEntity
  8
03__ASM_ALL_CURVES
100
AcDbLine
 62
40
  6
CONTINUOUS
 10
6.5288489472
 20
3.5056521826
 11
6.5386622284
 21
3.4991099967
  0
LINE
  5
326
100
AcDbEntity
  8
03__ASM_ALL_CURVES
100
AcDbLine
 62
40
  6
CONTINUOUS
 10
3.9973751375
 20
5.2239505972
 11
3.9842907625
 21
5.232673518
  0
LINE
  5
327
100
AcDbEntity
  8
03__ASM_ALL_CURVES
100
AcDbLine
 62
40
  6
CONTINUOUS
 10
4.0104595125
 20
5.2239505972
 11
4.0235438875
 21
5.2152276826
  0
LINE
  5
328
100
AcDbEntity
  8
03__ASM_ALL_CURVES
100
AcDbLine
 62
40
  6
CONTINUOUS
 10
4.0104595125
 20
5.2675651826
 11
4.0235438875
 21
5.258842268
  0
LINE
  5
329
100
AcDbEntity
  8
03__ASM_ALL_CURVES
100
AcDbLine
 62
40
  6
CONTINUOUS
 10
4.6515938875
 20
5.2152276826
 11
4.6646782625
 21
5.1977818503
  0
LINE
  5
32A
100
AcDbEntity
  8
03__ASM_ALL_CURVES
100
AcDbLine
 62
40
  6
CONTINUOUS
 10
4.6515938875
 20
5.258842268
 11
4.658136075
 21
5.2501193472
  0
LINE
  5
32B
100
AcDbEntity
  8
03__ASM_ALL_CURVES
100
AcDbLine
 62
40
  6
CONTINUOUS
 10
4.8347751375
 20
5.2675651826
 11
4.8478595125
 21
5.2501193472
  0
LINE
  5
32C
100
AcDbEntity
  8
0
100
AcDbLine
 62
7
  6
CONTINUOUS
 10
5.3063782604
 20
4.7136521826
 11
5.284942325
 21
4.7936521826
  0
LINE
  5
32D
100
AcDbEntity
  8
0
100
AcDbLine
 62
7
  6
CONTINUOUS
 10
5.658942325
 20
3.7176521826
 11
5.6375063896
 21
3.7976521826
  0
LINE
  5
32E
100
AcDbEntity
  8
03__ASM_ALL_CURVES
100
AcDbLine
 62
40
  6
CONTINUOUS
 10
5.6281280717
 20
3.492567806
 11
5.6281280717
 21
3.4860256201
  0
LINE
  5
32F
100
AcDbEntity
  8
03__ASM_ALL_CURVES
100
AcDbLine
 62
40
  6
CONTINUOUS
 10
5.6330347123
 20
3.4533146834
 11
5.6330347123
 21
3.4467724951
  0
LINE
  5
330
100
AcDbEntity
  8
0
100
AcDbLine
 62
7
  6
CONTINUOUS
 10
5.6375063896
 20
3.7976521826
 11
5.6375063896
 21
4.7136521826
  0
LINE
  5
331
100
AcDbEntity
  8
0
100
AcDbLine
 62
7
  6
CONTINUOUS
 10
5.658942325
 20
3.7176521826
 11
5.658942325
 21
4.7936521826
  0
LINE
  5
332
100
AcDbEntity
  8
0
100
AcDbLine
 62
7
  6
CONTINUOUS
 10
5.720942325
 20
4.7936521826
 11
5.720942325
 21
3.7176521826
  0
LINE
  5
333
100
AcDbEntity
  8
0
100
AcDbLine
 62
7
  6
CONTINUOUS
 10
5.723942325
 20
4.7906521826
 11
5.723942325
 21
3.7206521826
  0
LINE
  5
334
100
AcDbEntity
  8
03__ASM_ALL_CURVES
100
AcDbLine
 62
40
  6
CONTINUOUS
 10
5.723942325
 20
4.8145871826
 11
5.723942325
 21
5.1628901826
  0
LINE
  5
335
100
AcDbEntity
  8
0
100
AcDbLine
 62
7
  6
CONTINUOUS
 10
5.726442325
 20
3.7295955583
 11
5.726442325
 21
4.7817088069
  0
LINE
  5
336
100
AcDbEntity
  8
0
100
AcDbLine
 62
7
  6
CONTINUOUS
 10
5.745298725
 20
4.7701522066
 11
5.7452987315
 21
4.7708220556
  0
LINE
  5
337
100
AcDbEntity
  8
0
100
AcDbLine
 62
7
  6
CONTINUOUS
 10
5.7452987315
 20
3.7404823096
 11
5.745298725
 21
4.7701522066
  0
LINE
  5
338
100
AcDbEntity
  8
0
100
AcDbLine
 62
7
  6
CONTINUOUS
 10
5.7477987315
 20
3.7411521826
 11
5.7477987315
 21
4.7701521826
  0
LINE
  5
339
100
AcDbEntity
  8
THREAD
100
AcDbLine
 62
7
  6
CONTINUOUS
 10
5.770942325
 20
3.7411521826
 11
5.770942325
 21
4.7701521826
  0
LINE
  5
33A
100
AcDbEntity
  8
03__ASM_ALL_CURVES
100
AcDbLine
 62
40
  6
CONTINUOUS
 10
5.9830129494
 20
5.2152276826
 11
5.9895551369
 21
5.2413964326
  0
LINE
  5
33B
100
AcDbEntity
  8
03__ASM_ALL_CURVES
100
AcDbLine
 62
40
  6
CONTINUOUS
 10
5.3926093177
 20
3.3067696826
 11
5.4171425208
 21
3.3852759326
  0
LINE
  5
33C
100
AcDbEntity
  8
THREAD
100
AcDbLine
 62
7
  6
CONTINUOUS
 10
5.9338816353
 20
4.7516521826
 11
5.9156951018
 21
4.7201521826
  0
LINE
  5
33D
100
AcDbEntity
  8
03__ASM_ALL_CURVES
100
AcDbLine
 62
40
  6
CONTINUOUS
 10
6.8792926369
 20
5.1716130995
 11
6.8662082619
 21
5.1628901826
  0
LINE
  5
33E
100
AcDbEntity
  8
03__ASM_ALL_CURVES
100
AcDbLine
 62
40
  6
CONTINUOUS
 10
7.0493895119
 20
5.258842268
 11
7.0624738869
 21
5.2675651826
  0
LINE
  5
33F
100
AcDbEntity
  8
03__ASM_ALL_CURVES
100
AcDbLine
 62
40
  6
CONTINUOUS
 10
7.0886426369
 20
5.1716130995
 11
7.0755582619
 21
5.1628901826
  0
LINE
  5
340
100
AcDbEntity
  8
03__ASM_ALL_CURVES
100
AcDbLine
 62
40
  6
CONTINUOUS
 10
8.6907891991
 20
4.1562109326
 11
8.6515360741
 21
4.1562109326
  0
LINE
  5
341
100
AcDbEntity
  8
03__ASM_ALL_CURVES
100
AcDbLine
 62
40
  6
CONTINUOUS
 10
8.5190567772
 20
4.1562109326
 11
8.509243496
 21
4.1562109326
  0
LINE
  5
342
100
AcDbEntity
  8
03__ASM_ALL_CURVES
100
AcDbLine
 62
40
  6
CONTINUOUS
 10
8.4405505272
 20
4.1562109326
 11
8.430737246
 21
4.1562109326
  0
LINE
  5
343
100
AcDbEntity
  8
03__ASM_ALL_CURVES
100
AcDbLine
 62
40
  6
CONTINUOUS
 10
8.3620442772
 20
4.1562109326
 11
8.352230996
 21
4.1562109326
  0
LINE
  5
344
100
AcDbEntity
  8
03__ASM_ALL_CURVES
100
AcDbLine
 62
40
  6
CONTINUOUS
 10
8.2982579491
 20
4.1562109326
 11
8.2590048241
 21
4.1562109326
  0
LINE
  5
345
100
AcDbEntity
  8
03__ASM_ALL_CURVES
100
AcDbLine
 62
40
  6
CONTINUOUS
 10
7.9646063866
 20
4.1562109326
 11
7.9449798241
 21
4.1562109326
  0
LINE
  5
346
100
AcDbEntity
  8
03__ASM_ALL_CURVES
100
AcDbLine
 62
40
  6
CONTINUOUS
 10
7.9057266991
 20
4.1562109326
 11
7.8664735741
 21
4.1562109326
  0
LINE
  5
347
100
AcDbEntity
  8
03__ASM_ALL_CURVES
100
AcDbLine
 62
40
  6
CONTINUOUS
 10
7.8125005272
 20
4.1562109326
 11
7.802687246
 21
4.1562109326
  0
LINE
  5
348
100
AcDbEntity
  8
03__ASM_ALL_CURVES
100
AcDbLine
 62
40
  6
CONTINUOUS
 10
7.7339942772
 20
4.1562109326
 11
7.724180996
 21
4.1562109326
  0
LINE
  5
349
100
AcDbEntity
  8
03__ASM_ALL_CURVES
100
AcDbLine
 62
40
  6
CONTINUOUS
 10
7.6505813866
 20
4.1562109326
 11
7.6309548241
 21
4.1562109326
  0
LINE
  5
34A
100
AcDbEntity
  8
03__ASM_ALL_CURVES
100
AcDbLine
 62
40
  6
CONTINUOUS
 10
7.5917016991
 20
4.1562109326
 11
7.5524485741
 21
4.1562109326
  0
LINE
  5
34B
100
AcDbEntity
  8
03__ASM_ALL_CURVES
100
AcDbLine
 62
40
  6
CONTINUOUS
 10
8.5975630272
 20
4.1954640576
 11
8.5730298241
 21
4.1954640576
  0
LINE
  5
34C
100
AcDbEntity
  8
03__ASM_ALL_CURVES
100
AcDbLine
 62
40
  6
CONTINUOUS
 10
8.2050317772
 20
4.1954640576
 11
8.1804985741
 21
4.1954640576
  0
LINE
  5
34D
100
AcDbEntity
  8
03__ASM_ALL_CURVES
100
AcDbLine
 62
40
  6
CONTINUOUS
 10
8.1265255272
 20
4.1954640576
 11
8.1019923241
 21
4.1954640576
  0
LINE
  5
34E
100
AcDbEntity
  8
03__ASM_ALL_CURVES
100
AcDbLine
 62
40
  6
CONTINUOUS
 10
7.4984755272
 20
4.1954640576
 11
7.4739423241
 21
4.1954640576
  0
LINE
  5
34F
100
AcDbEntity
  8
03__ASM_ALL_CURVES
100
AcDbLine
 62
40
  6
CONTINUOUS
 10
7.5524485741
 20
4.1954640576
 11
7.5769817772
 21
4.1954640576
  0
LINE
  5
350
100
AcDbEntity
  8
03__ASM_ALL_CURVES
100
AcDbLine
 62
40
  6
CONTINUOUS
 10
7.8664735741
 20
4.1954640576
 11
7.8910067772
 21
4.1954640576
  0
LINE
  5
351
100
AcDbEntity
  8
03__ASM_ALL_CURVES
100
AcDbLine
 62
40
  6
CONTINUOUS
 10
8.2590048241
 20
4.1954640576
 11
8.2835380272
 21
4.1954640576
  0
LINE
  5
352
100
AcDbEntity
  8
03__ASM_ALL_CURVES
100
AcDbLine
 62
40
  6
CONTINUOUS
 10
8.6515360741
 20
4.1954640576
 11
8.6760692772
 21
4.1954640576
  0
LINE
  5
353
100
AcDbEntity
  8
03__ASM_ALL_CURVES
100
AcDbLine
 62
40
  6
CONTINUOUS
 10
8.4405505272
 20
4.2347171826
 11
8.430737246
 21
4.2347171826
  0
LINE
  5
354
100
AcDbEntity
  8
03__ASM_ALL_CURVES
100
AcDbLine
 62
40
  6
CONTINUOUS
 10
8.3620442772
 20
4.2347171826
 11
8.352230996
 21
4.2347171826
  0
LINE
  5
355
100
AcDbEntity
  8
03__ASM_ALL_CURVES
100
AcDbLine
 62
40
  6
CONTINUOUS
 10
7.4739423241
 20
4.2347171826
 11
7.4984755272
 21
4.2347171826
  0
LINE
  5
356
100
AcDbEntity
  8
03__ASM_ALL_CURVES
100
AcDbLine
 62
40
  6
CONTINUOUS
 10
7.5524485741
 20
4.2347171826
 11
7.5917016991
 21
4.2347171826
  0
LINE
  5
357
100
AcDbEntity
  8
03__ASM_ALL_CURVES
100
AcDbLine
 62
40
  6
CONTINUOUS
 10
7.6309548241
 20
4.2347171826
 11
7.6505813866
 21
4.2347171826
  0
LINE
  5
358
100
AcDbEntity
  8
03__ASM_ALL_CURVES
100
AcDbLine
 62
40
  6
CONTINUOUS
 10
7.802687246
 20
4.2347171826
 11
7.8125005272
 21
4.2347171826
  0
LINE
  5
359
100
AcDbEntity
  8
03__ASM_ALL_CURVES
100
AcDbLine
 62
40
  6
CONTINUOUS
 10
7.8664735741
 20
4.2347171826
 11
7.9057266991
 21
4.2347171826
  0
LINE
  5
35A
100
AcDbEntity
  8
03__ASM_ALL_CURVES
100
AcDbLine
 62
40
  6
CONTINUOUS
 10
7.9449798241
 20
4.2347171826
 11
7.9646063866
 21
4.2347171826
  0
LINE
  5
35B
100
AcDbEntity
  8
03__ASM_ALL_CURVES
100
AcDbLine
 62
40
  6
CONTINUOUS
 10
8.1019923241
 20
4.2347171826
 11
8.1265255272
 21
4.2347171826
  0
LINE
  5
35C
100
AcDbEntity
  8
03__ASM_ALL_CURVES
100
AcDbLine
 62
40
  6
CONTINUOUS
 10
8.1804985741
 20
4.2347171826
 11
8.2050317772
 21
4.2347171826
  0
LINE
  5
35D
100
AcDbEntity
  8
03__ASM_ALL_CURVES
100
AcDbLine
 62
40
  6
CONTINUOUS
 10
8.2590048241
 20
4.2347171826
 11
8.2982579491
 21
4.2347171826
  0
LINE
  5
35E
100
AcDbEntity
  8
03__ASM_ALL_CURVES
100
AcDbLine
 62
40
  6
CONTINUOUS
 10
8.5730298241
 20
4.2347171826
 11
8.5975630272
 21
4.2347171826
  0
LINE
  5
35F
100
AcDbEntity
  8
03__ASM_ALL_CURVES
100
AcDbLine
 62
40
  6
CONTINUOUS
 10
8.6515360741
 20
4.2347171826
 11
8.6907891991
 21
4.2347171826
  0
LINE
  5
360
100
AcDbEntity
  8
0
100
AcDbLine
 62
7
  6
CONTINUOUS
 10
3.6620709146
 20
4.2556521826
 11
3.5604131763
 21
4.2556521826
  0
LINE
  5
361
100
AcDbEntity
  8
03__ASM_ALL_CURVES
100
AcDbLine
 62
40
  6
CONTINUOUS
 10
7.5769817772
 20
4.2765871826
 11
7.567168496
 21
4.2765871826
  0
LINE
  5
362
100
AcDbEntity
  8
03__ASM_ALL_CURVES
100
AcDbLine
 62
40
  6
CONTINUOUS
 10
6.6858614472
 20
3.5056521826
 11
6.6956747284
 21
3.4991099967
  0
LINE
  5
363
100
AcDbEntity
  8
03__ASM_ALL_CURVES
100
AcDbLine
 62
40
  6
CONTINUOUS
 10
6.4307161347
 20
3.4336881203
 11
6.4209028534
 21
3.4467724951
  0
LINE
  5
364
100
AcDbEntity
  8
03__ASM_ALL_CURVES
100
AcDbLine
 62
40
  6
CONTINUOUS
 10
6.3816497284
 20
3.4991099967
 11
6.3865563691
 21
3.492567806
  0
LINE
  5
365
100
AcDbEntity
  8
THREAD
100
AcDbLine
 62
7
  6
CONTINUOUS
 10
5.9338816353
 20
3.7596521826
 11
5.9156951018
 21
3.7911521826
  0
LINE
  5
366
100
AcDbEntity
  8
0
100
AcDbLine
 62
7
  6
CONTINUOUS
 10
5.840942325
 20
3.7436521826
 11
5.840942325
 21
4.7676521826
  0
LINE
  5
367
100
AcDbEntity
  8
03__ASM_ALL_CURVES
100
AcDbLine
 62
40
  6
CONTINUOUS
 10
5.849552325
 20
5.1419551826
 11
5.849552325
 21
5.1000851826
  0
LINE
  5
368
100
AcDbEntity
  8
0
100
AcDbLine
 62
7
  6
CONTINUOUS
 10
5.890942325
 20
3.7436521826
 11
5.890942325
 21
4.7676521826
  0
LINE
  5
369
100
AcDbEntity
  8
03__ASM_ALL_CURVES
100
AcDbLine
 62
40
  6
CONTINUOUS
 10
5.8914223244
 20
5.2675651826
 11
5.8914223244
 21
5.1628901826
  0
LINE
  5
36A
100
AcDbEntity
  8
THREAD
100
AcDbLine
 62
7
  6
CONTINUOUS
 10
5.9044367715
 20
3.7976521826
 11
5.9044367715
 21
4.7136521826
  0
LINE
  5
36B
100
AcDbEntity
  8
THREAD
100
AcDbLine
 62
7
  6
CONTINUOUS
 10
5.9156951018
 20
3.7911521826
 11
5.9156951018
 21
4.7201521826
  0
LINE
  5
36C
100
AcDbEntity
  8
THREAD
100
AcDbLine
 62
7
  6
CONTINUOUS
 10
5.9338816353
 20
3.7596521826
 11
5.9338816353
 21
4.7516521826
  0
LINE
  5
36D
100
AcDbEntity
  8
03__ASM_ALL_CURVES
100
AcDbLine
 62
40
  6
CONTINUOUS
 10
6.0615191994
 20
5.2152276826
 11
6.0549770119
 21
5.1890589326
  0
LINE
  5
36E
100
AcDbEntity
  8
03__ASM_ALL_CURVES
100
AcDbLine
 62
40
  6
CONTINUOUS
 10
6.0876879494
 20
5.2152276826
 11
6.0942301369
 21
5.2413964326
  0
LINE
  5
36F
100
AcDbEntity
  8
03__ASM_ALL_CURVES
100
AcDbLine
 62
40
  6
CONTINUOUS
 10
6.1989051369
 20
5.1628901826
 11
6.2316160744
 21
5.2675651826
  0
LINE
  5
370
100
AcDbEntity
  8
03__ASM_ALL_CURVES
100
AcDbLine
 62
40
  6
CONTINUOUS
 10
6.6176051369
 20
5.2413964326
 11
6.6306895119
 21
5.258842268
  0
LINE
  5
371
100
AcDbEntity
  8
03__ASM_ALL_CURVES
100
AcDbLine
 62
40
  6
CONTINUOUS
 10
5.3141030717
 20
3.4794834342
 11
5.3091964311
 21
3.4729412435
  0
LINE
  5
372
100
AcDbEntity
  8
03__ASM_ALL_CURVES
100
AcDbLine
 62
40
  6
CONTINUOUS
 10
5.3484495561
 20
3.4860256201
 11
5.3582628373
 21
3.4991099967
  0
LINE
  5
373
100
AcDbEntity
  8
03__ASM_ALL_CURVES
100
AcDbLine
 62
40
  6
CONTINUOUS
 10
6.6764848244
 20
5.1803360164
 11
6.6699426369
 21
5.1716130995
  0
LINE
  5
374
100
AcDbEntity
  8
03__ASM_ALL_CURVES
100
AcDbLine
 62
40
  6
CONTINUOUS
 10
5.3975159623
 20
3.4467724951
 11
5.3877026811
 21
3.4336881203
  0
LINE
  5
375
100
AcDbEntity
  8
03__ASM_ALL_CURVES
100
AcDbLine
 62
40
  6
CONTINUOUS
 10
5.4711155717
 20
3.4794834342
 11
5.4662089311
 21
3.4729412435
  0
LINE
  5
376
100
AcDbEntity
  8
03__ASM_ALL_CURVES
100
AcDbLine
 62
40
  6
CONTINUOUS
 10
7.1933176369
 20
5.1716130995
 11
7.1802332619
 21
5.1628901826
  0
LINE
  5
377
100
AcDbEntity
  8
03__ASM_ALL_CURVES
100
AcDbLine
 62
40
  6
CONTINUOUS
 10
7.3961254494
 20
5.1716130995
 11
7.3830410744
 21
5.1628901826
  0
LINE
  5
378
100
AcDbEntity
  8
03__ASM_ALL_CURVES
100
AcDbLine
 62
40
  6
CONTINUOUS
 10
7.6120176369
 20
5.2239505972
 11
7.5989332619
 21
5.2152276826
  0
LINE
  5
379
100
AcDbEntity
  8
03__ASM_ALL_CURVES
100
AcDbLine
 62
40
  6
CONTINUOUS
 10
7.6554880272
 20
4.3158403076
 11
7.6309548241
 21
4.3158403076
  0
LINE
  5
37A
100
AcDbEntity
  8
03__ASM_ALL_CURVES
100
AcDbLine
 62
40
  6
CONTINUOUS
 10
7.4984755272
 20
4.3158403076
 11
7.4739423241
 21
4.3158403076
  0
LINE
  5
37B
100
AcDbEntity
  8
03__ASM_ALL_CURVES
100
AcDbLine
 62
40
  6
CONTINUOUS
 10
7.4739423241
 20
4.3550934326
 11
7.4984755272
 21
4.3550934326
  0
LINE
  5
37C
100
AcDbEntity
  8
03__ASM_ALL_CURVES
100
AcDbLine
 62
40
  6
CONTINUOUS
 10
7.567168496
 20
4.3550934326
 11
7.5769817772
 21
4.3550934326
  0
LINE
  5
37D
100
AcDbEntity
  8
03__ASM_ALL_CURVES
100
AcDbLine
 62
40
  6
CONTINUOUS
 10
7.6309548241
 20
4.3550934326
 11
7.6554880272
 21
4.3550934326
  0
LINE
  5
37E
100
AcDbEntity
  8
03__ASM_ALL_CURVES
100
AcDbLine
 62
40
  6
CONTINUOUS
 10
7.7045544335
 20
4.3550934326
 11
7.7536208397
 21
4.3550934326
  0
LINE
  5
37F
100
AcDbEntity
  8
0
100
AcDbLine
 62
7
  6
CONTINUOUS
 10
3.141942325
 20
4.4066521826
 11
3.179942325
 21
4.4066521826
  0
LINE
  5
380
100
AcDbEntity
  8
DEFAULT_2
100
AcDbLine
 62
8
  6
HIDDEN
 10
3.141942325
 20
4.4256521826
 11
3.179942325
 21
4.4256521826
  0
LINE
  5
381
100
AcDbEntity
  8
0
100
AcDbLine
 62
7
  6
CONTINUOUS
 10
2.942942325
 20
4.4396521826
 11
3.141942325
 21
4.4396521826
  0
LINE
  5
382
100
AcDbEntity
  8
0
100
AcDbLine
 62
7
  6
CONTINUOUS
 10
3.179942325
 20
4.4396521826
 11
3.411942325
 21
4.4396521826
  0
LINE
  5
383
100
AcDbEntity
  8
03__ASM_ALL_CURVES
100
AcDbLine
 62
40
  6
CONTINUOUS
 10
4.6254251375
 20
5.1628901826
 11
4.6123407625
 21
5.1716130995
  0
LINE
  5
384
100
AcDbEntity
  8
03__ASM_ALL_CURVES
100
AcDbLine
 62
40
  6
CONTINUOUS
 10
4.6385095125
 20
5.2239505972
 11
4.6515938875
 21
5.2152276826
  0
LINE
  5
385
100
AcDbEntity
  8
03__ASM_ALL_CURVES
100
AcDbLine
 62
40
  6
CONTINUOUS
 10
4.6385095125
 20
5.2675651826
 11
4.6515938875
 21
5.258842268
  0
LINE
  5
386
100
AcDbEntity
  8
03__ASM_ALL_CURVES
100
AcDbLine
 62
40
  6
CONTINUOUS
 10
6.4601559784
 20
3.4991099967
 11
6.4699692597
 21
3.4860256201
  0
LINE
  5
387
100
AcDbEntity
  8
03__ASM_ALL_CURVES
100
AcDbLine
 62
40
  6
CONTINUOUS
 10
6.5386622284
 20
3.4991099967
 11
6.5435688691
 21
3.492567806
  0
LINE
  5
388
100
AcDbEntity
  8
03__ASM_ALL_CURVES
100
AcDbLine
 62
40
  6
CONTINUOUS
 10
6.4135428824
 20
3.3852759326
 11
6.4527960074
 21
3.3067696826
  0
LINE
  5
389
100
AcDbEntity
  8
THREAD
100
AcDbLine
 62
7
  6
CONTINUOUS
 10
6.204942325
 20
3.7596521826
 11
6.204942325
 21
4.7516521826
  0
LINE
  5
38A
100
AcDbEntity
  8
03__ASM_ALL_CURVES
100
AcDbLine
 62
40
  6
CONTINUOUS
 10
6.8400395119
 20
5.258842268
 11
6.8334973244
 21
5.2501193472
  0
LINE
  5
38B
100
AcDbEntity
  8
03__ASM_ALL_CURVES
100
AcDbLine
 62
40
  6
CONTINUOUS
 10
6.8858348244
 20
5.1803360164
 11
6.8792926369
 21
5.1716130995
  0
LINE
  5
38C
100
AcDbEntity
  8
03__ASM_ALL_CURVES
100
AcDbLine
 62
40
  6
CONTINUOUS
 10
5.6281280717
 20
3.4860256201
 11
5.6232214311
 21
3.4794834342
  0
LINE
  5
38D
100
AcDbEntity
  8
03__ASM_ALL_CURVES
100
AcDbLine
 62
40
  6
CONTINUOUS
 10
5.6330347123
 20
3.4467724951
 11
5.6232214311
 21
3.4336881203
  0
LINE
  5
38E
100
AcDbEntity
  8
03__ASM_ALL_CURVES
100
AcDbLine
 62
40
  6
CONTINUOUS
 10
7.0363051369
 20
5.2413964326
 11
7.0493895119
 21
5.258842268
  0
LINE
  5
38F
100
AcDbEntity
  8
03__ASM_ALL_CURVES
100
AcDbLine
 62
40
  6
CONTINUOUS
 10
5.5545284583
 20
3.3394806193
 11
5.5937815833
 21
3.3852759326
  0
LINE
  5
390
100
AcDbEntity
  8
03__ASM_ALL_CURVES
100
AcDbLine
 62
40
  6
CONTINUOUS
 10
5.3091964311
 20
3.4729412435
 11
5.2993831498
 21
3.4663990576
  0
LINE
  5
391
100
AcDbEntity
  8
03__ASM_ALL_CURVES
100
AcDbLine
 62
40
  6
CONTINUOUS
 10
5.3582628373
 20
3.4991099967
 11
5.3680761186
 21
3.5056521826
  0
LINE
  5
392
100
AcDbEntity
  8
0
100
AcDbLine
 62
7
  6
CONTINUOUS
 10
3.501442325
 20
4.5211521826
 11
3.485442325
 21
4.5211521826
  0
LINE
  5
393
100
AcDbEntity
  8
0
100
AcDbLine
 62
7
  6
CONTINUOUS
 10
3.723942325
 20
4.5266521826
 11
3.692942325
 21
4.5266521826
  0
LINE
  5
394
100
AcDbEntity
  8
0
100
AcDbLine
 62
7
  6
CONTINUOUS
 10
3.479942325
 20
4.5266521826
 11
3.473942325
 21
4.5266521826
  0
LINE
  5
395
100
AcDbEntity
  8
0
100
AcDbLine
 62
7
  6
CONTINUOUS
 10
3.5169423251
 20
4.5366521826
 11
3.6871660467
 21
4.5366521826
  0
LINE
  5
396
100
AcDbEntity
  8
0
100
AcDbLine
 62
7
  6
CONTINUOUS
 10
4.8565166992
 20
4.5481728015
 11
4.2695529963
 21
4.5481728015
  0
LINE
  5
397
100
AcDbEntity
  8
0
100
AcDbLine
 62
7
  6
CONTINUOUS
 10
4.8565166992
 20
4.5965168731
 11
4.2695529963
 21
4.5965168731
  0
LINE
  5
398
100
AcDbEntity
  8
0
100
AcDbLine
 62
7
  6
CONTINUOUS
 10
6.777942325
 20
4.6296521826
 11
6.588942325
 21
4.6296521826
  0
LINE
  5
399
100
AcDbEntity
  8
0
100
AcDbLine
 62
7
  6
CONTINUOUS
 10
6.432942325
 20
4.6296521826
 11
6.348942325
 21
4.6296521826
  0
LINE
  5
39A
100
AcDbEntity
  8
0
100
AcDbLine
 62
7
  6
CONTINUOUS
 10
7.016442325
 20
4.6336521826
 11
7.007942325
 21
4.6336521826
  0
LINE
  5
39B
100
AcDbEntity
  8
0
100
AcDbLine
 62
7
  6
CONTINUOUS
 10
6.837942325
 20
4.6876521826
 11
6.887942325
 21
4.6876521826
  0
LINE
  5
39C
100
AcDbEntity
  8
0
100
AcDbLine
 62
7
  6
CONTINUOUS
 10
6.957942325
 20
4.6876521826
 11
7.007942325
 21
4.6876521826
  0
LINE
  5
39D
100
AcDbEntity
  8
0
100
AcDbLine
 62
7
  6
CONTINUOUS
 10
7.032442325
 20
4.6919021826
 11
7.093442325
 21
4.6919021826
  0
LINE
  5
39E
100
AcDbEntity
  8
0
100
AcDbLine
 62
7
  6
CONTINUOUS
 10
6.777942325
 20
4.6921521826
 11
6.837942325
 21
4.6921521826
  0
LINE
  5
39F
100
AcDbEntity
  8
THREAD
100
AcDbLine
 62
7
  6
CONTINUOUS
 10
6.332942325
 20
4.7076521826
 11
6.248942325
 21
4.7076521826
  0
LINE
  5
3A0
100
AcDbEntity
  8
THREAD
100
AcDbLine
 62
7
  6
CONTINUOUS
 10
5.9044367715
 20
4.7136521826
 11
5.890942325
 21
4.7136521826
  0
LINE
  5
3A1
100
AcDbEntity
  8
0
100
AcDbLine
 62
7
  6
CONTINUOUS
 10
5.6375063896
 20
4.7136521826
 11
5.614442325
 21
4.7136521826
  0
LINE
  5
3A2
100
AcDbEntity
  8
0
100
AcDbLine
 62
7
  6
CONTINUOUS
 10
5.411442325
 20
4.7136521826
 11
5.3063782604
 21
4.7136521826
  0
LINE
  5
3A3
100
AcDbEntity
  8
03__ASM_ALL_CURVES
100
AcDbLine
 62
40
  6
CONTINUOUS
 10
3.037552325
 20
5.1035743493
 11
2.911942325
 21
5.1210201826
  0
LINE
  5
3A4
100
AcDbEntity
  8
03__ASM_ALL_CURVES
100
AcDbLine
 62
40
  6
CONTINUOUS
 10
3.037552325
 20
5.1000851826
 11
2.911942325
 21
5.1210201826
  0
LINE
  5
3A5
100
AcDbEntity
  8
THREAD
100
AcDbLine
 62
7
  6
CONTINUOUS
 10
5.7452987315
 20
4.7708220556
 11
5.726442325
 21
4.7817088069
  0
LINE
  5
3A6
100
AcDbEntity
  8
03__ASM_ALL_CURVES
100
AcDbLine
 62
40
  6
CONTINUOUS
 10
6.6956747284
 20
3.4991099967
 11
6.7005813691
 21
3.492567806
  0
LINE
  5
3A7
100
AcDbEntity
  8
03__ASM_ALL_CURVES
100
AcDbLine
 62
40
  6
CONTINUOUS
 10
6.5288489472
 20
3.4663990576
 11
6.5435688691
 21
3.4271459326
  0
LINE
  5
3A8
100
AcDbEntity
  8
03__ASM_ALL_CURVES
100
AcDbLine
 62
40
  6
CONTINUOUS
 10
6.4209028534
 20
3.4467724951
 11
6.4159962128
 21
3.4663990576
  0
LINE
  5
3A9
100
AcDbEntity
  8
03__ASM_ALL_CURVES
100
AcDbLine
 62
40
  6
CONTINUOUS
 10
5.9895551369
 20
5.1890589326
 11
5.9830129494
 21
5.2152276826
  0
LINE
  5
3AA
100
AcDbEntity
  8
THREAD
100
AcDbLine
 62
7
  6
CONTINUOUS
 10
6.248942325
 20
3.8036521826
 11
6.248942325
 21
4.7076521826
  0
LINE
  5
3AB
100
AcDbEntity
  8
0
100
AcDbLine
 62
7
  6
CONTINUOUS
 10
6.332942325
 20
3.8036521826
 11
6.332942325
 21
4.7076521826
  0
LINE
  5
3AC
100
AcDbEntity
  8
03__ASM_ALL_CURVES
100
AcDbLine
 62
40
  6
CONTINUOUS
 10
6.3362910744
 20
5.2675651826
 11
6.3362910744
 21
5.1628901826
  0
LINE
  5
3AD
100
AcDbEntity
  8
03__ASM_ALL_CURVES
100
AcDbLine
 62
40
  6
CONTINUOUS
 10
6.3473032441
 20
3.4271459326
 11
6.3473032441
 21
3.5056521826
  0
LINE
  5
3AE
100
AcDbEntity
  8
0
100
AcDbLine
 62
7
  6
CONTINUOUS
 10
6.348942325
 20
3.8196521826
 11
6.348942325
 21
4.6916521826
  0
LINE
  5
3AF
100
AcDbEntity
  8
03__ASM_ALL_CURVES
100
AcDbLine
 62
40
  6
CONTINUOUS
 10
6.3546631949
 20
3.3852759326
 11
6.3546631949
 21
3.3067696826
  0
LINE
  5
3B0
100
AcDbEntity
  8
03__ASM_ALL_CURVES
100
AcDbLine
 62
40
  6
CONTINUOUS
 10
6.3865563691
 20
3.492567806
 11
6.3865563691
 21
3.4794834342
  0
LINE
  5
3B1
100
AcDbEntity
  8
03__ASM_ALL_CURVES
100
AcDbLine
 62
40
  6
CONTINUOUS
 10
6.4135428824
 20
3.3067696826
 11
6.4135428824
 21
3.3852759326
  0
LINE
  5
3B2
100
AcDbEntity
  8
03__ASM_ALL_CURVES
100
AcDbLine
 62
40
  6
CONTINUOUS
 10
6.6110629494
 20
5.2152276826
 11
6.6176051369
 21
5.2413964326
  0
LINE
  5
3B3
100
AcDbEntity
  8
03__ASM_ALL_CURVES
100
AcDbLine
 62
40
  6
CONTINUOUS
 10
7.1017270119
 20
5.1890589326
 11
7.0886426369
 21
5.1716130995
  0
LINE
  5
3B4
100
AcDbEntity
  8
03__ASM_ALL_CURVES
100
AcDbLine
 62
40
  6
CONTINUOUS
 10
7.1998598244
 20
5.1803360164
 11
7.1933176369
 21
5.1716130995
  0
LINE
  5
3B5
100
AcDbEntity
  8
0
100
AcDbLine
 62
7
  6
CONTINUOUS
 10
7.016442325
 20
4.6759021826
 11
7.032442325
 21
4.6919021826
  0
LINE
  5
3B6
100
AcDbEntity
  8
03__ASM_ALL_CURVES
100
AcDbLine
 62
40
  6
CONTINUOUS
 10
5.3877026811
 20
3.4336881203
 11
5.3778893998
 21
3.4271459326
  0
LINE
  5
3B7
100
AcDbEntity
  8
03__ASM_ALL_CURVES
100
AcDbLine
 62
40
  6
CONTINUOUS
 10
5.4662089311
 20
3.4729412435
 11
5.4563956498
 21
3.4663990576
  0
LINE
  5
3B8
100
AcDbEntity
  8
03__ASM_ALL_CURVES
100
AcDbLine
 62
40
  6
CONTINUOUS
 10
5.5937815873
 20
3.4991099967
 11
5.6035948686
 21
3.5056521826
  0
LINE
  5
3B9
100
AcDbEntity
  8
03__ASM_ALL_CURVES
100
AcDbLine
 62
40
  6
CONTINUOUS
 10
5.6232214311
 20
3.4794834342
 11
5.6134081498
 21
3.4729412435
  0
LINE
  5
3BA
100
AcDbEntity
  8
03__ASM_ALL_CURVES
100
AcDbLine
 62
40
  6
CONTINUOUS
 10
5.6232214311
 20
3.4336881203
 11
5.6134081498
 21
3.4271459326
  0
LINE
  5
3BB
100
AcDbEntity
  8
THREAD
100
AcDbLine
 62
7
  6
CONTINUOUS
 10
5.7452987315
 20
3.7404823096
 11
5.726442325
 21
3.7295955583
  0
LINE
  5
3BC
100
AcDbEntity
  8
0
100
AcDbLine
 62
7
  6
CONTINUOUS
 10
5.239942325
 20
4.7381521826
 11
5.218942325
 21
4.7381521826
  0
LINE
  5
3BD
100
AcDbEntity
  8
THREAD
100
AcDbLine
 62
7
  6
CONTINUOUS
 10
6.204942325
 20
4.7516521826
 11
5.9338816353
 21
4.7516521826
  0
LINE
  5
3BE
100
AcDbEntity
  8
0
100
AcDbLine
 62
7
  6
CONTINUOUS
 10
4.223942325
 20
4.7526521826
 11
3.785942325
 21
4.7526521826
  0
LINE
  5
3BF
100
AcDbEntity
  8
0
100
AcDbLine
 62
7
  6
CONTINUOUS
 10
5.840942325
 20
4.7676521826
 11
5.890942325
 21
4.7676521826
  0
LINE
  5
3C0
100
AcDbEntity
  8
THREAD
100
AcDbLine
 62
7
  6
CONTINUOUS
 10
5.770942325
 20
4.7701521826
 11
5.7477987315
 21
4.7701521826
  0
LINE
  5
3C1
100
AcDbEntity
  8
0
100
AcDbLine
 62
7
  6
CONTINUOUS
 10
5.098942325
 20
4.7921521826
 11
5.148942325
 21
4.7921521826
  0
LINE
  5
3C2
100
AcDbEntity
  8
0
100
AcDbLine
 62
7
  6
CONTINUOUS
 10
5.720942325
 20
4.7936521826
 11
5.658942325
 21
4.7936521826
  0
LINE
  5
3C3
100
AcDbEntity
  8
0
100
AcDbLine
 62
7
  6
CONTINUOUS
 10
5.284942325
 20
4.7936521826
 11
5.239942325
 21
4.7936521826
  0
LINE
  5
3C4
100
AcDbEntity
  8
0
100
AcDbLine
 62
7
  6
CONTINUOUS
 10
5.098942325
 20
4.7936521826
 11
4.911942325
 21
4.7936521826
  0
LINE
  5
3C5
100
AcDbEntity
  8
0
100
AcDbLine
 62
7
  6
CONTINUOUS
 10
4.8565166992
 20
4.8890374921
 11
4.2695529963
 21
4.8890374921
  0
LINE
  5
3C6
100
AcDbEntity
  8
0
100
AcDbLine
 62
7
  6
CONTINUOUS
 10
4.8565166992
 20
4.8896521826
 11
4.2695529963
 21
4.8896521826
  0
LINE
  5
3C7
100
AcDbEntity
  8
03__ASM_ALL_CURVES
100
AcDbLine
 62
40
  6
CONTINUOUS
 10
3.037552325
 20
5.1105526826
 11
2.911942325
 21
5.1210201826
  0
LINE
  5
3C8
100
AcDbEntity
  8
03__ASM_ALL_CURVES
100
AcDbLine
 62
40
  6
CONTINUOUS
 10
3.037552325
 20
5.1070635159
 11
2.911942325
 21
5.1210201826
  0
LINE
  5
3C9
100
AcDbEntity
  8
0
100
AcDbLine
 62
7
  6
CONTINUOUS
 10
5.7452987315
 20
4.7708220556
 11
5.7477987315
 21
4.7701521826
  0
LINE
  5
3CA
100
AcDbEntity
  8
0
100
AcDbLine
 62
7
  6
CONTINUOUS
 10
7.016442325
 20
3.8354021826
 11
7.032442325
 21
3.8194021826
  0
LINE
  5
3CB
100
AcDbEntity
  8
THREAD
100
AcDbLine
 62
7
  6
CONTINUOUS
 10
6.248942325
 20
4.7076521826
 11
6.204942325
 21
4.7516521826
  0
LINE
  5
3CC
100
AcDbEntity
  8
03__ASM_ALL_CURVES
100
AcDbLine
 62
40
  6
CONTINUOUS
 10
6.4699692597
 20
3.4860256201
 11
6.4748759003
 21
3.4663990576
  0
LINE
  5
3CD
100
AcDbEntity
  8
03__ASM_ALL_CURVES
100
AcDbLine
 62
40
  6
CONTINUOUS
 10
6.0549770119
 20
5.2413964326
 11
6.0615191994
 21
5.2152276826
  0
LINE
  5
3CE
100
AcDbEntity
  8
03__ASM_ALL_CURVES
100
AcDbLine
 62
40
  6
CONTINUOUS
 10
6.0942301369
 20
5.1890589326
 11
6.0876879494
 21
5.2152276826
  0
LINE
  5
3CF
100
AcDbEntity
  8
03__ASM_ALL_CURVES
100
AcDbLine
 62
40
  6
CONTINUOUS
 10
6.4409660744
 20
5.2675651826
 11
6.4409660744
 21
5.1628901826
  0
LINE
  5
3D0
100
AcDbEntity
  8
03__ASM_ALL_CURVES
100
AcDbLine
 62
40
  6
CONTINUOUS
 10
6.4527960074
 20
3.3067696826
 11
6.4527960074
 21
3.3852759326
  0
LINE
  5
3D1
100
AcDbEntity
  8
03__ASM_ALL_CURVES
100
AcDbLine
 62
40
  6
CONTINUOUS
 10
6.4920491324
 20
3.3852759326
 11
6.4920491324
 21
3.3067696826
  0
LINE
  5
3D2
100
AcDbEntity
  8
03__ASM_ALL_CURVES
100
AcDbLine
 62
40
  6
CONTINUOUS
 10
6.5043157441
 20
3.4271459326
 11
6.5043157441
 21
3.5056521826
  0
LINE
  5
3D3
100
AcDbEntity
  8
03__ASM_ALL_CURVES
100
AcDbLine
 62
40
  6
CONTINUOUS
 10
6.5194723244
 20
5.1628901826
 11
6.5194723244
 21
5.2675651826
  0
LINE
  5
3D4
100
AcDbEntity
  8
03__ASM_ALL_CURVES
100
AcDbLine
 62
40
  6
CONTINUOUS
 10
6.5435688691
 20
3.492567806
 11
6.5435688691
 21
3.4794834342
  0
LINE
  5
3D5
100
AcDbEntity
  8
0
100
AcDbLine
 62
7
  6
CONTINUOUS
 10
6.552942325
 20
4.0378686246
 11
6.552942325
 21
4.0412763001
  0
LINE
  5
3D6
100
AcDbEntity
  8
0
100
AcDbLine
 62
7
  6
CONTINUOUS
 10
6.552942325
 20
4.190307819
 11
6.552942325
 21
4.3210774905
  0
LINE
  5
3D7
100
AcDbEntity
  8
0
100
AcDbLine
 62
7
  6
CONTINUOUS
 10
6.552942325
 20
4.4700280575
 11
6.552942325
 21
4.4734332863
  0
LINE
  5
3D8
100
AcDbEntity
  8
03__ASM_ALL_CURVES
100
AcDbLine
 62
40
  6
CONTINUOUS
 10
6.5705553824
 20
3.3067696826
 11
6.5705553824
 21
3.3852759326
  0
LINE
  5
3D9
100
AcDbEntity
  8
03__ASM_ALL_CURVES
100
AcDbLine
 62
40
  6
CONTINUOUS
 10
6.5718098244
 20
5.1628901826
 11
6.5718098244
 21
5.2675651826
  0
LINE
  5
3DA
100
AcDbEntity
  8
03__ASM_ALL_CURVES
100
AcDbLine
 62
40
  6
CONTINUOUS
 10
6.6024485566
 20
3.5056521826
 11
6.6024485566
 21
3.4271459326
  0
LINE
  5
3DB
100
AcDbEntity
  8
03__ASM_ALL_CURVES
100
AcDbLine
 62
40
  6
CONTINUOUS
 10
6.4159962128
 20
3.4663990576
 11
6.4209028534
 21
3.4860256201
  0
LINE
  5
3DC
100
AcDbEntity
  8
03__ASM_ALL_CURVES
100
AcDbLine
 62
40
  6
CONTINUOUS
 10
7.4092098244
 20
5.1890589326
 11
7.3961254494
 21
5.1716130995
  0
LINE
  5
3DD
100
AcDbEntity
  8
THREAD
100
AcDbLine
 62
7
  6
CONTINUOUS
 10
6.248942325
 20
3.8036521826
 11
6.204942325
 21
3.7596521826
  0
LINE
  5
3DE
100
AcDbEntity
  8
0
100
AcDbLine
 62
7
  6
CONTINUOUS
 10
6.348942325
 20
3.8196521826
 11
6.332942325
 21
3.8036521826
  0
LINE
  5
3DF
100
AcDbEntity
  8
03__ASM_ALL_CURVES
100
AcDbLine
 62
40
  6
CONTINUOUS
 10
5.598332325
 20
5.1000851826
 11
5.849552325
 21
5.1419551826
  0
LINE
  5
3E0
100
AcDbEntity
  8
03__ASM_ALL_CURVES
100
AcDbLine
 62
40
  6
CONTINUOUS
 10
5.598332325
 20
5.1035743493
 11
5.849552325
 21
5.1384660159
  0
LINE
  5
3E1
100
AcDbEntity
  8
03__ASM_ALL_CURVES
100
AcDbLine
 62
40
  6
CONTINUOUS
 10
5.598332325
 20
5.1070635159
 11
5.849552325
 21
5.1349768493
  0
LINE
  5
3E2
100
AcDbEntity
  8
03__ASM_ALL_CURVES
100
AcDbLine
 62
40
  6
CONTINUOUS
 10
5.598332325
 20
5.1105526826
 11
5.849552325
 21
5.1314876826
  0
LINE
  5
3E3
100
AcDbEntity
  8
03__ASM_ALL_CURVES
100
AcDbLine
 62
40
  6
CONTINUOUS
 10
5.598332325
 20
5.1140418493
 11
5.849552325
 21
5.1279985159
  0
LINE
  5
3E4
100
AcDbEntity
  8
03__ASM_ALL_CURVES
100
AcDbLine
 62
40
  6
CONTINUOUS
 10
5.598332325
 20
5.1175310159
 11
5.849552325
 21
5.1245093493
  0
LINE
  5
3E5
100
AcDbEntity
  8
03__ASM_ALL_CURVES
100
AcDbLine
 62
40
  6
CONTINUOUS
 10
2.911942325
 20
5.1210201826
 11
7.733702325
 21
5.1210201826
  0
LINE
  5
3E6
100
AcDbEntity
  8
03__ASM_ALL_CURVES
100
AcDbLine
 62
40
  6
CONTINUOUS
 10
3.037552325
 20
5.1175310159
 11
2.911942325
 21
5.1210201826
  0
LINE
  5
3E7
100
AcDbEntity
  8
03__ASM_ALL_CURVES
100
AcDbLine
 62
40
  6
CONTINUOUS
 10
5.598332325
 20
5.1245093493
 11
5.849552325
 21
5.1175310159
  0
LINE
  5
3E8
100
AcDbEntity
  8
03__ASM_ALL_CURVES
100
AcDbLine
 62
40
  6
CONTINUOUS
 10
3.037552325
 20
5.1140418493
 11
2.911942325
 21
5.1210201826
  0
LINE
  5
3E9
100
AcDbEntity
  8
03__ASM_ALL_CURVES
100
AcDbLine
 62
40
  6
CONTINUOUS
 10
5.598332325
 20
5.1279985159
 11
5.849552325
 21
5.1140418493
  0
LINE
  5
3EA
100
AcDbEntity
  8
03__ASM_ALL_CURVES
100
AcDbLine
 62
40
  6
CONTINUOUS
 10
5.598332325
 20
5.1314876826
 11
5.849552325
 21
5.1105526826
  0
LINE
  5
3EB
100
AcDbEntity
  8
03__ASM_ALL_CURVES
100
AcDbLine
 62
40
  6
CONTINUOUS
 10
5.598332325
 20
5.1349768493
 11
5.849552325
 21
5.1070635159
  0
LINE
  5
3EC
100
AcDbEntity
  8
03__ASM_ALL_CURVES
100
AcDbLine
 62
40
  6
CONTINUOUS
 10
5.598332325
 20
5.1384660159
 11
5.849552325
 21
5.1035743493
  0
LINE
  5
3ED
100
AcDbEntity
  8
03__ASM_ALL_CURVES
100
AcDbLine
 62
40
  6
CONTINUOUS
 10
5.849552325
 20
5.1000851826
 11
5.598332325
 21
5.1419551826
  0
LINE
  5
3EE
100
AcDbEntity
  8
0
100
AcDbLine
 62
7
  6
CONTINUOUS
 10
6.348942325
 20
4.6916521826
 11
6.332942325
 21
4.7076521826
  0
LINE
  5
3EF
100
AcDbEntity
  8
03__ASM_ALL_CURVES
100
AcDbLine
 62
40
  6
CONTINUOUS
 10
6.0026395119
 20
5.1716130995
 11
5.9895551369
 21
5.1890589326
  0
LINE
  5
3F0
100
AcDbEntity
  8
03__ASM_ALL_CURVES
100
AcDbLine
 62
40
  6
CONTINUOUS
 10
6.1073145119
 20
5.1716130995
 11
6.0942301369
 21
5.1890589326
  0
LINE
  5
3F1
100
AcDbEntity
  8
03__ASM_ALL_CURVES
100
AcDbLine
 62
40
  6
CONTINUOUS
 10
6.0418926369
 20
5.258842268
 11
6.0549770119
 21
5.2413964326
  0
LINE
  5
3F2
100
AcDbEntity
  8
03__ASM_ALL_CURVES
100
AcDbLine
 62
40
  6
CONTINUOUS
 10
6.2316160744
 20
5.2675651826
 11
6.2643270119
 21
5.1628901826
  0
LINE
  5
3F3
100
AcDbEntity
  8
03__ASM_ALL_CURVES
100
AcDbLine
 62
40
  6
CONTINUOUS
 10
6.6686881949
 20
3.3852759326
 11
6.6686881949
 21
3.3067696826
  0
LINE
  5
3F4
100
AcDbEntity
  8
03__ASM_ALL_CURVES
100
AcDbLine
 62
40
  6
CONTINUOUS
 10
6.6764848244
 20
5.2152276826
 11
6.6764848244
 21
5.1803360164
  0
LINE
  5
3F5
100
AcDbEntity
  8
03__ASM_ALL_CURVES
100
AcDbLine
 62
40
  6
CONTINUOUS
 10
6.7005813691
 20
3.492567806
 11
6.7005813691
 21
3.4794834342
  0
LINE
  5
3F6
100
AcDbEntity
  8
0
100
AcDbLine
 62
7
  6
CONTINUOUS
 10
6.777942325
 20
4.6921521826
 11
6.777942325
 21
3.8191521826
  0
LINE
  5
3F7
100
AcDbEntity
  8
03__ASM_ALL_CURVES
100
AcDbLine
 62
40
  6
CONTINUOUS
 10
6.8334973244
 20
5.2501193472
 11
6.8334973244
 21
5.2413964326
  0
LINE
  5
3F8
100
AcDbEntity
  8
0
100
AcDbLine
 62
7
  6
CONTINUOUS
 10
6.837942325
 20
4.6921521826
 11
6.837942325
 21
3.8191521826
  0
LINE
  5
3F9
100
AcDbEntity
  8
03__ASM_ALL_CURVES
100
AcDbLine
 62
40
  6
CONTINUOUS
 10
6.4748759003
 20
3.4663990576
 11
6.4699692597
 21
3.4467724951
  0
LINE
  5
3FA
100
AcDbEntity
  8
03__ASM_ALL_CURVES
100
AcDbLine
 62
40
  6
CONTINUOUS
 10
7.0297629494
 20
5.2152276826
 11
7.0363051369
 21
5.2413964326
  0
LINE
  5
3FB
100
AcDbEntity
  8
03__ASM_ALL_CURVES
100
AcDbLine
 62
40
  6
CONTINUOUS
 10
7.1082691994
 20
5.2152276826
 11
7.1017270119
 21
5.1890589326
  0
LINE
  5
3FC
100
AcDbEntity
  8
03__ASM_ALL_CURVES
100
AcDbLine
 62
40
  6
CONTINUOUS
 10
6.6662348847
 20
3.4467724951
 11
6.6613282441
 21
3.4271459326
  0
LINE
  5
3FD
100
AcDbEntity
  8
03__ASM_ALL_CURVES
100
AcDbLine
 62
40
  6
CONTINUOUS
 10
7.6185598244
 20
5.232673518
 11
7.6120176369
 21
5.2239505972
  0
LINE
  5
3FE
100
AcDbEntity
  8
03__ASM_ALL_CURVES
100
AcDbLine
 62
40
  6
CONTINUOUS
 10
6.3865563691
 20
3.4794834342
 11
6.3816497284
 21
3.4729412435
  0
LINE
  5
3FF
100
AcDbEntity
  8
03__ASM_ALL_CURVES
100
AcDbLine
 62
40
  6
CONTINUOUS
 10
6.4209028534
 20
3.4860256201
 11
6.4307161347
 21
3.4991099967
  0
LINE
  5
400
100
AcDbEntity
  8
03__ASM_ALL_CURVES
100
AcDbLine
 62
40
  6
CONTINUOUS
 10
6.4699692597
 20
3.4467724951
 11
6.4601559784
 21
3.4336881203
  0
LINE
  5
401
100
AcDbEntity
  8
03__ASM_ALL_CURVES
100
AcDbLine
 62
40
  6
CONTINUOUS
 10
7.5082888085
 20
4.3223824935
 11
7.4984755272
 21
4.3158403076
  0
LINE
  5
402
100
AcDbEntity
  8
03__ASM_ALL_CURVES
100
AcDbLine
 62
40
  6
CONTINUOUS
 10
7.5573552147
 20
4.3485512467
 11
7.567168496
 21
4.3550934326
  0
LINE
  5
403
100
AcDbEntity
  8
03__ASM_ALL_CURVES
100
AcDbLine
 62
40
  6
CONTINUOUS
 10
7.5867950585
 20
4.2831293703
 11
7.5769817772
 21
4.2765871826
  0
LINE
  5
404
100
AcDbEntity
  8
03__ASM_ALL_CURVES
100
AcDbLine
 62
40
  6
CONTINUOUS
 10
6.3816497284
 20
3.4729412435
 11
6.3718364472
 21
3.4663990576
  0
LINE
  5
405
100
AcDbEntity
  8
03__ASM_ALL_CURVES
100
AcDbLine
 62
40
  6
CONTINUOUS
 10
7.6653013085
 20
4.3223824935
 11
7.6554880272
 21
4.3158403076
  0
LINE
  5
406
100
AcDbEntity
  8
03__ASM_ALL_CURVES
100
AcDbLine
 62
40
  6
CONTINUOUS
 10
6.4307161347
 20
3.4991099967
 11
6.4405294159
 21
3.5056521826
  0
LINE
  5
407
100
AcDbEntity
  8
03__ASM_ALL_CURVES
100
AcDbLine
 62
40
  6
CONTINUOUS
 10
7.5082888085
 20
4.2020062435
 11
7.4984755272
 21
4.1954640576
  0
LINE
  5
408
100
AcDbEntity
  8
03__ASM_ALL_CURVES
100
AcDbLine
 62
40
  6
CONTINUOUS
 10
3.037552325
 20
5.1279985159
 11
2.911942325
 21
5.1210201826
  0
LINE
  5
409
100
AcDbEntity
  8
03__ASM_ALL_CURVES
100
AcDbLine
 62
40
  6
CONTINUOUS
 10
3.037552325
 20
5.1245093493
 11
2.911942325
 21
5.1210201826
  0
LINE
  5
40A
100
AcDbEntity
  8
03__ASM_ALL_CURVES
100
AcDbLine
 62
40
  6
CONTINUOUS
 10
7.5138848244
 20
5.1628901826
 11
7.4615473244
 21
5.1628901826
  0
LINE
  5
40B
100
AcDbEntity
  8
03__ASM_ALL_CURVES
100
AcDbLine
 62
40
  6
CONTINUOUS
 10
7.3830410744
 20
5.1628901826
 11
7.3568723244
 21
5.1628901826
  0
LINE
  5
40C
100
AcDbEntity
  8
03__ASM_ALL_CURVES
100
AcDbLine
 62
40
  6
CONTINUOUS
 10
7.1802332619
 20
5.1628901826
 11
7.1671488869
 21
5.1628901826
  0
LINE
  5
40D
100
AcDbEntity
  8
03__ASM_ALL_CURVES
100
AcDbLine
 62
40
  6
CONTINUOUS
 10
7.0755582619
 20
5.1628901826
 11
7.0624738869
 21
5.1628901826
  0
LINE
  5
40E
100
AcDbEntity
  8
03__ASM_ALL_CURVES
100
AcDbLine
 62
40
  6
CONTINUOUS
 10
6.8662082619
 20
5.1628901826
 11
6.8531238869
 21
5.1628901826
  0
LINE
  5
40F
100
AcDbEntity
  8
03__ASM_ALL_CURVES
100
AcDbLine
 62
40
  6
CONTINUOUS
 10
6.6568582619
 20
5.1628901826
 11
6.6437738869
 21
5.1628901826
  0
LINE
  5
410
100
AcDbEntity
  8
03__ASM_ALL_CURVES
100
AcDbLine
 62
40
  6
CONTINUOUS
 10
6.1334832619
 20
5.1628901826
 11
6.1203988869
 21
5.1628901826
  0
LINE
  5
411
100
AcDbEntity
  8
03__ASM_ALL_CURVES
100
AcDbLine
 62
40
  6
CONTINUOUS
 10
6.0288082619
 20
5.1628901826
 11
6.0157238869
 21
5.1628901826
  0
LINE
  5
412
100
AcDbEntity
  8
03__ASM_ALL_CURVES
100
AcDbLine
 62
40
  6
CONTINUOUS
 10
4.6385095125
 20
5.1628901826
 11
4.6254251375
 21
5.1628901826
  0
LINE
  5
413
100
AcDbEntity
  8
03__ASM_ALL_CURVES
100
AcDbLine
 62
40
  6
CONTINUOUS
 10
4.527292325
 20
5.1628901826
 11
4.5207501375
 21
5.1628901826
  0
LINE
  5
414
100
AcDbEntity
  8
03__ASM_ALL_CURVES
100
AcDbLine
 62
40
  6
CONTINUOUS
 10
4.0104595125
 20
5.1628901826
 11
3.9973751375
 21
5.1628901826
  0
LINE
  5
415
100
AcDbEntity
  8
03__ASM_ALL_CURVES
100
AcDbLine
 62
40
  6
CONTINUOUS
 10
3.899242325
 20
5.1628901826
 11
3.8927001375
 21
5.1628901826
  0
LINE
  5
416
100
AcDbEntity
  8
03__ASM_ALL_CURVES
100
AcDbLine
 62
40
  6
CONTINUOUS
 10
3.768398575
 20
5.1628901826
 11
3.820736075
 21
5.1628901826
  0
LINE
  5
417
100
AcDbEntity
  8
03__ASM_ALL_CURVES
100
AcDbLine
 62
40
  6
CONTINUOUS
 10
5.8914223244
 20
5.1628901826
 11
5.9437598244
 21
5.1628901826
  0
LINE
  5
418
100
AcDbEntity
  8
03__ASM_ALL_CURVES
100
AcDbLine
 62
40
  6
CONTINUOUS
 10
7.2521973244
 20
5.1628901826
 11
7.3045348244
 21
5.1628901826
  0
LINE
  5
419
100
AcDbEntity
  8
03__ASM_ALL_CURVES
100
AcDbLine
 62
40
  6
CONTINUOUS
 10
6.2119895119
 20
5.1977818503
 11
6.2512426369
 21
5.1977818503
  0
LINE
  5
41A
100
AcDbEntity
  8
03__ASM_ALL_CURVES
100
AcDbLine
 62
40
  6
CONTINUOUS
 10
7.5989332619
 20
5.2152276826
 11
7.5662223244
 21
5.2152276826
  0
LINE
  5
41B
100
AcDbEntity
  8
03__ASM_ALL_CURVES
100
AcDbLine
 62
40
  6
CONTINUOUS
 10
6.6503160744
 20
5.2152276826
 11
6.6764848244
 21
5.2152276826
  0
LINE
  5
41C
100
AcDbEntity
  8
03__ASM_ALL_CURVES
100
AcDbLine
 62
40
  6
CONTINUOUS
 10
6.9381723244
 20
5.2152276826
 11
6.9905098244
 21
5.2152276826
  0
LINE
  5
41D
100
AcDbEntity
  8
03__ASM_ALL_CURVES
100
AcDbLine
 62
40
  6
CONTINUOUS
 10
7.4615473244
 20
5.2152276826
 11
7.4942582619
 21
5.2152276826
  0
LINE
  5
41E
100
AcDbEntity
  8
03__ASM_ALL_CURVES
100
AcDbLine
 62
40
  6
CONTINUOUS
 10
3.9973751375
 20
5.2239505972
 11
4.0104595125
 21
5.2239505972
  0
LINE
  5
41F
100
AcDbEntity
  8
03__ASM_ALL_CURVES
100
AcDbLine
 62
40
  6
CONTINUOUS
 10
4.6254251375
 20
5.2239505972
 11
4.6385095125
 21
5.2239505972
  0
LINE
  5
420
100
AcDbEntity
  8
03__ASM_ALL_CURVES
100
AcDbLine
 62
40
  6
CONTINUOUS
 10
6.8662082619
 20
5.2675651826
 11
6.8531238869
 21
5.2675651826
  0
LINE
  5
421
100
AcDbEntity
  8
03__ASM_ALL_CURVES
100
AcDbLine
 62
40
  6
CONTINUOUS
 10
4.762811075
 20
5.2675651826
 11
4.710473575
 21
5.2675651826
  0
LINE
  5
422
100
AcDbEntity
  8
03__ASM_ALL_CURVES
100
AcDbLine
 62
40
  6
CONTINUOUS
 10
4.344111075
 20
5.2675651826
 11
4.291773575
 21
5.2675651826
  0
LINE
  5
423
100
AcDbEntity
  8
03__ASM_ALL_CURVES
100
AcDbLine
 62
40
  6
CONTINUOUS
 10
3.7880251375
 20
5.2675651826
 11
3.8011095125
 21
5.2675651826
  0
LINE
  5
424
100
AcDbEntity
  8
03__ASM_ALL_CURVES
100
AcDbLine
 62
40
  6
CONTINUOUS
 10
3.9973751375
 20
5.2675651826
 11
4.0104595125
 21
5.2675651826
  0
LINE
  5
425
100
AcDbEntity
  8
03__ASM_ALL_CURVES
100
AcDbLine
 62
40
  6
CONTINUOUS
 10
4.6254251375
 20
5.2675651826
 11
4.6385095125
 21
5.2675651826
  0
LINE
  5
426
100
AcDbEntity
  8
03__ASM_ALL_CURVES
100
AcDbLine
 62
40
  6
CONTINUOUS
 10
6.0157238869
 20
5.2675651826
 11
6.0288082619
 21
5.2675651826
  0
LINE
  5
427
100
AcDbEntity
  8
03__ASM_ALL_CURVES
100
AcDbLine
 62
40
  6
CONTINUOUS
 10
6.1203988869
 20
5.2675651826
 11
6.1334832619
 21
5.2675651826
  0
LINE
  5
428
100
AcDbEntity
  8
03__ASM_ALL_CURVES
100
AcDbLine
 62
40
  6
CONTINUOUS
 10
6.3035801369
 20
5.2675651826
 11
6.3690020119
 21
5.2675651826
  0
LINE
  5
429
100
AcDbEntity
  8
03__ASM_ALL_CURVES
100
AcDbLine
 62
40
  6
CONTINUOUS
 10
6.6437738869
 20
5.2675651826
 11
6.6568582619
 21
5.2675651826
  0
LINE
  5
42A
100
AcDbEntity
  8
03__ASM_ALL_CURVES
100
AcDbLine
 62
40
  6
CONTINUOUS
 10
7.0624738869
 20
5.2675651826
 11
7.0755582619
 21
5.2675651826
  0
LINE
  5
42B
100
AcDbEntity
  8
03__ASM_ALL_CURVES
100
AcDbLine
 62
40
  6
CONTINUOUS
 10
7.3568723244
 20
5.2675651826
 11
7.3830410744
 21
5.2675651826
  0
LINE
  5
42C
100
AcDbEntity
  8
03__ASM_ALL_CURVES
100
AcDbLine
 62
40
  6
CONTINUOUS
 10
7.4615473244
 20
5.2675651826
 11
7.5138848244
 21
5.2675651826
  0
LINE
  5
42D
100
AcDbEntity
  8
03__ASM_ALL_CURVES
100
AcDbLine
 62
40
  6
CONTINUOUS
 10
7.5662223244
 20
5.2675651826
 11
7.5989332619
 21
5.2675651826
  0
LINE
  5
42E
100
AcDbEntity
  8
03__ASM_ALL_CURVES
100
AcDbLine
 62
40
  6
CONTINUOUS
 10
6.0157238869
 20
5.1628901826
 11
6.0026395119
 21
5.1716130995
  0
LINE
  5
42F
100
AcDbEntity
  8
03__ASM_ALL_CURVES
100
AcDbLine
 62
40
  6
CONTINUOUS
 10
7.4984755272
 20
4.2347171826
 11
7.5082888085
 21
4.2281749967
  0
LINE
  5
430
100
AcDbEntity
  8
03__ASM_ALL_CURVES
100
AcDbLine
 62
40
  6
CONTINUOUS
 10
6.1203988869
 20
5.1628901826
 11
6.1073145119
 21
5.1716130995
  0
LINE
  5
431
100
AcDbEntity
  8
03__ASM_ALL_CURVES
100
AcDbLine
 62
40
  6
CONTINUOUS
 10
6.0288082619
 20
5.2675651826
 11
6.0418926369
 21
5.258842268
  0
LINE
  5
432
100
AcDbEntity
  8
03__ASM_ALL_CURVES
100
AcDbLine
 62
40
  6
CONTINUOUS
 10
7.724180996
 20
4.1562109326
 11
7.7143677147
 21
4.1627531203
  0
LINE
  5
433
100
AcDbEntity
  8
03__ASM_ALL_CURVES
100
AcDbLine
 62
40
  6
CONTINUOUS
 10
7.567168496
 20
4.2765871826
 11
7.5573552147
 21
4.2831293703
  0
LINE
  5
434
100
AcDbEntity
  8
03__ASM_ALL_CURVES
100
AcDbLine
 62
40
  6
CONTINUOUS
 10
7.6505813866
 20
4.2347171826
 11
7.6603946679
 21
4.2281749967
  0
LINE
  5
435
100
AcDbEntity
  8
03__ASM_ALL_CURVES
100
AcDbLine
 62
40
  6
CONTINUOUS
 10
7.4984755272
 20
4.3550934326
 11
7.5082888085
 21
4.3485512467
  0
LINE
  5
436
100
AcDbEntity
  8
03__ASM_ALL_CURVES
100
AcDbLine
 62
40
  6
CONTINUOUS
 10
6.1334832619
 20
5.2675651826
 11
6.1465676369
 21
5.258842268
  0
LINE
  5
437
100
AcDbEntity
  8
03__ASM_ALL_CURVES
100
AcDbLine
 62
40
  6
CONTINUOUS
 10
7.802687246
 20
4.1562109326
 11
7.7928739647
 21
4.1627531203
  0
LINE
  5
438
100
AcDbEntity
  8
03__ASM_ALL_CURVES
100
AcDbLine
 62
40
  6
CONTINUOUS
 10
7.5769817772
 20
4.3550934326
 11
7.5867950585
 21
4.3485512467
  0
LINE
  5
439
100
AcDbEntity
  8
03__ASM_ALL_CURVES
100
AcDbLine
 62
40
  6
CONTINUOUS
 10
6.1465676369
 20
5.258842268
 11
6.1531098244
 21
5.2501193472
  0
LINE
  5
43A
100
AcDbEntity
  8
03__ASM_ALL_CURVES
100
AcDbLine
 62
40
  6
CONTINUOUS
 10
6.6176051369
 20
5.1890589326
 11
6.6110629494
 21
5.2152276826
  0
LINE
  5
43B
100
AcDbEntity
  8
03__ASM_ALL_CURVES
100
AcDbLine
 62
40
  6
CONTINUOUS
 10
6.8858348244
 20
5.1977818503
 11
6.8858348244
 21
5.1803360164
  0
LINE
  5
43C
100
AcDbEntity
  8
0
100
AcDbLine
 62
7
  6
CONTINUOUS
 10
6.887942325
 20
3.8236528394
 11
6.887942325
 21
4.6876515258
  0
LINE
  5
43D
100
AcDbEntity
  8
03__ASM_ALL_CURVES
100
AcDbLine
 62
40
  6
CONTINUOUS
 10
6.9381723244
 20
5.2675651826
 11
6.9381723244
 21
5.1628901826
  0
LINE
  5
43E
100
AcDbEntity
  8
0
100
AcDbLine
 62
7
  6
CONTINUOUS
 10
6.957942325
 20
3.8236528394
 11
6.957942325
 21
4.6876515258
  0
LINE
  5
43F
100
AcDbEntity
  8
03__ASM_ALL_CURVES
100
AcDbLine
 62
40
  6
CONTINUOUS
 10
6.9905098244
 20
5.2675651826
 11
6.9905098244
 21
5.1628901826
  0
LINE
  5
440
100
AcDbEntity
  8
0
100
AcDbLine
 62
7
  6
CONTINUOUS
 10
7.007942325
 20
3.8236528394
 11
7.007942325
 21
4.6876515258
  0
LINE
  5
441
100
AcDbEntity
  8
0
100
AcDbLine
 62
7
  6
CONTINUOUS
 10
7.016442325
 20
3.8354021826
 11
7.016442325
 21
4.6759021826
  0
LINE
  5
442
100
AcDbEntity
  8
0
100
AcDbLine
 62
7
  6
CONTINUOUS
 10
7.032442325
 20
3.8194021826
 11
7.032442325
 21
4.6919021826
  0
LINE
  5
443
100
AcDbEntity
  8
03__ASM_ALL_CURVES
100
AcDbLine
 62
40
  6
CONTINUOUS
 10
6.5435688691
 20
3.4794834342
 11
6.5386622284
 21
3.4729412435
  0
LINE
  5
444
100
AcDbEntity
  8
03__ASM_ALL_CURVES
100
AcDbLine
 62
40
  6
CONTINUOUS
 10
6.6613282441
 20
3.492567806
 11
6.6662348847
 21
3.4991099967
  0
LINE
  5
445
100
AcDbEntity
  8
03__ASM_ALL_CURVES
100
AcDbLine
 62
40
  6
CONTINUOUS
 10
6.6760481659
 20
3.4598568693
 11
6.6662348847
 21
3.4467724951
  0
LINE
  5
446
100
AcDbEntity
  8
03__ASM_ALL_CURVES
100
AcDbLine
 62
40
  6
CONTINUOUS
 10
6.7005813691
 20
3.4794834342
 11
6.6956747284
 21
3.4729412435
  0
LINE
  5
447
100
AcDbEntity
  8
0
100
AcDbLine
 62
7
  6
CONTINUOUS
 10
7.093442325
 20
3.8194021826
 11
7.109442325
 21
3.8354021826
  0
LINE
  5
448
100
AcDbEntity
  8
03__ASM_ALL_CURVES
100
AcDbLine
 62
40
  6
CONTINUOUS
 10
6.4601559784
 20
3.4336881203
 11
6.4503426972
 21
3.4271459326
  0
LINE
  5
449
100
AcDbEntity
  8
03__ASM_ALL_CURVES
100
AcDbLine
 62
40
  6
CONTINUOUS
 10
6.5386622284
 20
3.4729412435
 11
6.5288489472
 21
3.4663990576
  0
LINE
  5
44A
100
AcDbEntity
  8
03__ASM_ALL_CURVES
100
AcDbLine
 62
40
  6
CONTINUOUS
 10
7.6603946679
 20
4.1627531203
 11
7.6505813866
 21
4.1562109326
  0
LINE
  5
44B
100
AcDbEntity
  8
03__ASM_ALL_CURVES
100
AcDbLine
 62
40
  6
CONTINUOUS
 10
6.6662348847
 20
3.4991099967
 11
6.6760481659
 21
3.5056521826
  0
LINE
  5
44C
100
AcDbEntity
  8
03__ASM_ALL_CURVES
100
AcDbLine
 62
40
  6
CONTINUOUS
 10
7.7928739647
 20
4.2281749967
 11
7.802687246
 21
4.2347171826
  0
LINE
  5
44D
100
AcDbEntity
  8
03__ASM_ALL_CURVES
100
AcDbLine
 62
40
  6
CONTINUOUS
 10
6.6956747284
 20
3.4729412435
 11
6.6760481659
 21
3.4598568693
  0
LINE
  5
44E
100
AcDbEntity
  8
03__ASM_ALL_CURVES
100
AcDbLine
 62
40
  6
CONTINUOUS
 10
7.7438075585
 20
4.1627531203
 11
7.7339942772
 21
4.1562109326
  0
LINE
  5
44F
100
AcDbEntity
  8
03__ASM_ALL_CURVES
100
AcDbLine
 62
40
  6
CONTINUOUS
 10
7.8223138085
 20
4.1627531203
 11
7.8125005272
 21
4.1562109326
  0
LINE
  5
450
100
AcDbEntity
  8
03__ASM_ALL_CURVES
100
AcDbLine
 62
40
  6
CONTINUOUS
 10
3.037552325
 20
5.1384660159
 11
2.911942325
 21
5.1210201826
  0
LINE
  5
451
100
AcDbEntity
  8
03__ASM_ALL_CURVES
100
AcDbLine
 62
40
  6
CONTINUOUS
 10
3.037552325
 20
5.1349768493
 11
2.911942325
 21
5.1210201826
  0
LINE
  5
452
100
AcDbEntity
  8
03__ASM_ALL_CURVES
100
AcDbLine
 62
40
  6
CONTINUOUS
 10
3.037552325
 20
5.1314876826
 11
2.911942325
 21
5.1210201826
  0
LINE
  5
453
100
AcDbEntity
  8
03__ASM_ALL_CURVES
100
AcDbLine
 62
40
  6
CONTINUOUS
 10
7.8125005272
 20
4.2347171826
 11
7.8223138085
 21
4.2281749967
  0
LINE
  5
454
100
AcDbEntity
  8
03__ASM_ALL_CURVES
100
AcDbLine
 62
40
  6
CONTINUOUS
 10
7.6554880272
 20
4.3550934326
 11
7.6653013085
 21
4.3485512467
  0
LINE
  5
455
100
AcDbEntity
  8
03__ASM_ALL_CURVES
100
AcDbLine
 62
40
  6
CONTINUOUS
 10
7.9646063866
 20
4.2347171826
 11
7.9744196679
 21
4.2281749967
  0
LINE
  5
456
100
AcDbEntity
  8
03__ASM_ALL_CURVES
100
AcDbLine
 62
40
  6
CONTINUOUS
 10
6.6437738869
 20
5.1628901826
 11
6.6306895119
 21
5.1716130995
  0
LINE
  5
457
100
AcDbEntity
  8
03__ASM_ALL_CURVES
100
AcDbLine
 62
40
  6
CONTINUOUS
 10
8.1265255272
 20
4.2347171826
 11
8.1363388085
 21
4.2281749967
  0
LINE
  5
458
100
AcDbEntity
  8
0
100
AcDbLine
 62
7
  6
CONTINUOUS
 10
7.093442325
 20
4.6919021826
 11
7.109442325
 21
4.6759021826
  0
LINE
  5
459
100
AcDbEntity
  8
03__ASM_ALL_CURVES
100
AcDbLine
 62
40
  6
CONTINUOUS
 10
6.6306895119
 20
5.1716130995
 11
6.6176051369
 21
5.1890589326
  0
LINE
  5
45A
100
AcDbEntity
  8
03__ASM_ALL_CURVES
100
AcDbLine
 62
40
  6
CONTINUOUS
 10
6.5194723244
 20
5.2675651826
 11
6.5718098244
 21
5.1628901826
  0
LINE
  5
45B
100
AcDbEntity
  8
0
100
AcDbLine
 62
7
  6
CONTINUOUS
 10
7.093442325
 20
3.8194021826
 11
7.093442325
 21
4.6919021826
  0
LINE
  5
45C
100
AcDbEntity
  8
0
100
AcDbLine
 62
7
  6
CONTINUOUS
 10
7.109442325
 20
3.8354021826
 11
7.109442325
 21
4.6759021826
  0
LINE
  5
45D
100
AcDbEntity
  8
03__ASM_ALL_CURVES
100
AcDbLine
 62
40
  6
CONTINUOUS
 10
7.1475223244
 20
5.1803360164
 11
7.1475223244
 21
5.2675651826
  0
LINE
  5
45E
100
AcDbEntity
  8
03__ASM_ALL_CURVES
100
AcDbLine
 62
40
  6
CONTINUOUS
 10
7.1998598244
 20
5.2675651826
 11
7.1998598244
 21
5.1803360164
  0
LINE
  5
45F
100
AcDbEntity
  8
03__ASM_ALL_CURVES
100
AcDbLine
 62
40
  6
CONTINUOUS
 10
7.2521973244
 20
5.2675651826
 11
7.2521973244
 21
5.1628901826
  0
LINE
  5
460
100
AcDbEntity
  8
03__ASM_ALL_CURVES
100
AcDbLine
 62
40
  6
CONTINUOUS
 10
7.4157520119
 20
5.2152276826
 11
7.4092098244
 21
5.1890589326
  0
LINE
  5
461
100
AcDbEntity
  8
03__ASM_ALL_CURVES
100
AcDbLine
 62
40
  6
CONTINUOUS
 10
7.5131954491
 20
4.3289246842
 11
7.5082888085
 21
4.3223824935
  0
LINE
  5
462
100
AcDbEntity
  8
03__ASM_ALL_CURVES
100
AcDbLine
 62
40
  6
CONTINUOUS
 10
7.5475419335
 20
4.3354668701
 11
7.5573552147
 21
4.3485512467
  0
LINE
  5
463
100
AcDbEntity
  8
03__ASM_ALL_CURVES
100
AcDbLine
 62
40
  6
CONTINUOUS
 10
7.5131954491
 20
4.2085484342
 11
7.5082888085
 21
4.2020062435
  0
LINE
  5
464
100
AcDbEntity
  8
03__ASM_ALL_CURVES
100
AcDbLine
 62
40
  6
CONTINUOUS
 10
7.5966083397
 20
4.2962137451
 11
7.5867950585
 21
4.2831293703
  0
LINE
  5
465
100
AcDbEntity
  8
03__ASM_ALL_CURVES
100
AcDbLine
 62
40
  6
CONTINUOUS
 10
7.9744196679
 20
4.1627531203
 11
7.9646063866
 21
4.1562109326
  0
LINE
  5
466
100
AcDbEntity
  8
03__ASM_ALL_CURVES
100
AcDbLine
 62
40
  6
CONTINUOUS
 10
8.1363388085
 20
4.2020062435
 11
8.1265255272
 21
4.1954640576
  0
LINE
  5
467
100
AcDbEntity
  8
03__ASM_ALL_CURVES
100
AcDbLine
 62
40
  6
CONTINUOUS
 10
8.2148450585
 20
4.2020062435
 11
8.2050317772
 21
4.1954640576
  0
LINE
  5
468
100
AcDbEntity
  8
03__ASM_ALL_CURVES
100
AcDbLine
 62
40
  6
CONTINUOUS
 10
2.911942325
 20
5.1210201826
 11
3.037552325
 21
5.1419551826
  0
LINE
  5
469
100
AcDbEntity
  8
03__ASM_ALL_CURVES
100
AcDbLine
 62
40
  6
CONTINUOUS
 10
8.2050317772
 20
4.2347171826
 11
8.2148450585
 21
4.2281749967
  0
LINE
  5
46A
100
AcDbEntity
  8
03__ASM_ALL_CURVES
100
AcDbLine
 62
40
  6
CONTINUOUS
 10
6.6568582619
 20
5.2675651826
 11
6.6699426369
 21
5.258842268
  0
LINE
  5
46B
100
AcDbEntity
  8
03__ASM_ALL_CURVES
100
AcDbLine
 62
40
  6
CONTINUOUS
 10
8.352230996
 20
4.1562109326
 11
8.3424177147
 21
4.1627531203
  0
LINE
  5
46C
100
AcDbEntity
  8
03__ASM_ALL_CURVES
100
AcDbLine
 62
40
  6
CONTINUOUS
 10
6.8531238869
 20
5.1628901826
 11
6.8400395119
 21
5.1716130995
  0
LINE
  5
46D
100
AcDbEntity
  8
03__ASM_ALL_CURVES
100
AcDbLine
 62
40
  6
CONTINUOUS
 10
8.3424177147
 20
4.2085484342
 11
8.3718575585
 21
4.1889218693
  0
LINE
  5
46E
100
AcDbEntity
  8
03__ASM_ALL_CURVES
100
AcDbLine
 62
40
  6
CONTINUOUS
 10
8.430737246
 20
4.1562109326
 11
8.4209239647
 21
4.1627531203
  0
LINE
  5
46F
100
AcDbEntity
  8
03__ASM_ALL_CURVES
100
AcDbLine
 62
40
  6
CONTINUOUS
 10
6.8400395119
 20
5.232673518
 11
6.8792926369
 21
5.2065047649
  0
LINE
  5
470
100
AcDbEntity
  8
03__ASM_ALL_CURVES
100
AcDbLine
 62
40
  6
CONTINUOUS
 10
8.3718575585
 20
4.2281749967
 11
8.3620442772
 21
4.2347171826
  0
LINE
  5
471
100
AcDbEntity
  8
03__ASM_ALL_CURVES
100
AcDbLine
 62
40
  6
CONTINUOUS
 10
8.4209239647
 20
4.2085484342
 11
8.4503638085
 21
4.1889218693
  0
LINE
  5
472
100
AcDbEntity
  8
03__ASM_ALL_CURVES
100
AcDbLine
 62
40
  6
CONTINUOUS
 10
8.509243496
 20
4.1562109326
 11
8.4994302147
 21
4.1627531203
  0
LINE
  5
473
100
AcDbEntity
  8
03__ASM_ALL_CURVES
100
AcDbLine
 62
40
  6
CONTINUOUS
 10
6.8792926369
 20
5.258842268
 11
6.8662082619
 21
5.2675651826
  0
LINE
  5
474
100
AcDbEntity
  8
03__ASM_ALL_CURVES
100
AcDbLine
 62
40
  6
CONTINUOUS
 10
8.4503638085
 20
4.2281749967
 11
8.4405505272
 21
4.2347171826
  0
LINE
  5
475
100
AcDbEntity
  8
03__ASM_ALL_CURVES
100
AcDbLine
 62
40
  6
CONTINUOUS
 10
7.0624738869
 20
5.1628901826
 11
7.0493895119
 21
5.1716130995
  0
LINE
  5
476
100
AcDbEntity
  8
03__ASM_ALL_CURVES
100
AcDbLine
 62
40
  6
CONTINUOUS
 10
6.6699426369
 20
5.258842268
 11
6.6764848244
 21
5.2501193472
  0
LINE
  5
477
100
AcDbEntity
  8
03__ASM_ALL_CURVES
100
AcDbLine
 62
40
  6
CONTINUOUS
 10
7.5082888085
 20
4.2281749967
 11
7.5131954491
 21
4.221632806
  0
LINE
  5
478
100
AcDbEntity
  8
03__ASM_ALL_CURVES
100
AcDbLine
 62
40
  6
CONTINUOUS
 10
6.8400395119
 20
5.1716130995
 11
6.8269551369
 21
5.1890589326
  0
LINE
  5
479
100
AcDbEntity
  8
03__ASM_ALL_CURVES
100
AcDbLine
 62
40
  6
CONTINUOUS
 10
6.8334973244
 20
5.2413964326
 11
6.8400395119
 21
5.232673518
  0
LINE
  5
47A
100
AcDbEntity
  8
03__ASM_ALL_CURVES
100
AcDbLine
 62
40
  6
CONTINUOUS
 10
7.5573552147
 20
4.2831293703
 11
7.5475419335
 21
4.2962137451
  0
LINE
  5
47B
100
AcDbEntity
  8
03__ASM_ALL_CURVES
100
AcDbLine
 62
40
  6
CONTINUOUS
 10
7.5082888085
 20
4.3485512467
 11
7.5131954491
 21
4.342009056
  0
LINE
  5
47C
100
AcDbEntity
  8
03__ASM_ALL_CURVES
100
AcDbLine
 62
40
  6
CONTINUOUS
 10
6.8792926369
 20
5.2065047649
 11
6.8858348244
 21
5.1977818503
  0
LINE
  5
47D
100
AcDbEntity
  8
03__ASM_ALL_CURVES
100
AcDbLine
 62
40
  6
CONTINUOUS
 10
6.8858348244
 20
5.2501193472
 11
6.8792926369
 21
5.258842268
  0
LINE
  5
47E
100
AcDbEntity
  8
03__ASM_ALL_CURVES
100
AcDbLine
 62
40
  6
CONTINUOUS
 10
7.0363051369
 20
5.1890589326
 11
7.0297629494
 21
5.2152276826
  0
LINE
  5
47F
100
AcDbEntity
  8
03__ASM_ALL_CURVES
100
AcDbLine
 62
40
  6
CONTINUOUS
 10
7.3568723244
 20
5.1628901826
 11
7.3568723244
 21
5.2675651826
  0
LINE
  5
480
100
AcDbEntity
  8
03__ASM_ALL_CURVES
100
AcDbLine
 62
40
  6
CONTINUOUS
 10
7.6702079491
 20
4.3289246842
 11
7.6653013085
 21
4.3223824935
  0
LINE
  5
481
100
AcDbEntity
  8
03__ASM_ALL_CURVES
100
AcDbLine
 62
40
  6
CONTINUOUS
 10
7.6702079491
 20
4.1758374951
 11
7.6603946679
 21
4.1627531203
  0
LINE
  5
482
100
AcDbEntity
  8
03__ASM_ALL_CURVES
100
AcDbLine
 62
40
  6
CONTINUOUS
 10
7.7487141991
 20
4.169295308
 11
7.7438075585
 21
4.1627531203
  0
LINE
  5
483
100
AcDbEntity
  8
03__ASM_ALL_CURVES
100
AcDbLine
 62
40
  6
CONTINUOUS
 10
7.7830606835
 20
4.2150906201
 11
7.7928739647
 21
4.2281749967
  0
LINE
  5
484
100
AcDbEntity
  8
03__ASM_ALL_CURVES
100
AcDbLine
 62
40
  6
CONTINUOUS
 10
8.352230996
 20
4.2347171826
 11
8.3424177147
 21
4.2281749967
  0
LINE
  5
485
100
AcDbEntity
  8
03__ASM_ALL_CURVES
100
AcDbLine
 62
40
  6
CONTINUOUS
 10
8.430737246
 20
4.2347171826
 11
8.4209239647
 21
4.2281749967
  0
LINE
  5
486
100
AcDbEntity
  8
03__ASM_ALL_CURVES
100
AcDbLine
 62
40
  6
CONTINUOUS
 10
8.3718575585
 20
4.1627531203
 11
8.3620442772
 21
4.1562109326
  0
LINE
  5
487
100
AcDbEntity
  8
03__ASM_ALL_CURVES
100
AcDbLine
 62
40
  6
CONTINUOUS
 10
8.4503638085
 20
4.1627531203
 11
8.4405505272
 21
4.1562109326
  0
LINE
  5
488
100
AcDbEntity
  8
03__ASM_ALL_CURVES
100
AcDbLine
 62
40
  6
CONTINUOUS
 10
8.5288700585
 20
4.1627531203
 11
8.5190567772
 21
4.1562109326
  0
LINE
  5
489
100
AcDbEntity
  8
03__ASM_ALL_CURVES
100
AcDbLine
 62
40
  6
CONTINUOUS
 10
8.6073763085
 20
4.2020062435
 11
8.5975630272
 21
4.1954640576
  0
LINE
  5
48A
100
AcDbEntity
  8
03__ASM_ALL_CURVES
100
AcDbLine
 62
40
  6
CONTINUOUS
 10
7.1671488869
 20
5.1628901826
 11
7.1540645119
 21
5.1716130995
  0
LINE
  5
48B
100
AcDbEntity
  8
03__ASM_ALL_CURVES
100
AcDbLine
 62
40
  6
CONTINUOUS
 10
8.5975630272
 20
4.2347171826
 11
8.6073763085
 21
4.2281749967
  0
LINE
  5
48C
100
AcDbEntity
  8
03__ASM_ALL_CURVES
100
AcDbLine
 62
40
  6
CONTINUOUS
 10
7.0755582619
 20
5.2675651826
 11
7.0886426369
 21
5.258842268
  0
LINE
  5
48D
100
AcDbEntity
  8
03__ASM_ALL_CURVES
100
AcDbLine
 62
40
  6
CONTINUOUS
 10
7.6603946679
 20
4.2281749967
 11
7.6702079491
 21
4.2150906201
  0
LINE
  5
48E
100
AcDbEntity
  8
03__ASM_ALL_CURVES
100
AcDbLine
 62
40
  6
CONTINUOUS
 10
7.7143677147
 20
4.1627531203
 11
7.7094610741
 21
4.169295308
  0
LINE
  5
48F
100
AcDbEntity
  8
03__ASM_ALL_CURVES
100
AcDbLine
 62
40
  6
CONTINUOUS
 10
7.5867950585
 20
4.3485512467
 11
7.5966083397
 21
4.3354668701
  0
LINE
  5
490
100
AcDbEntity
  8
03__ASM_ALL_CURVES
100
AcDbLine
 62
40
  6
CONTINUOUS
 10
7.7928739647
 20
4.1627531203
 11
7.7830606835
 21
4.1758374951
  0
LINE
  5
491
100
AcDbEntity
  8
03__ASM_ALL_CURVES
100
AcDbLine
 62
40
  6
CONTINUOUS
 10
7.6653013085
 20
4.3485512467
 11
7.6702079491
 21
4.342009056
  0
LINE
  5
492
100
AcDbEntity
  8
03__ASM_ALL_CURVES
100
AcDbLine
 62
40
  6
CONTINUOUS
 10
7.0493895119
 20
5.1716130995
 11
7.0363051369
 21
5.1890589326
  0
LINE
  5
493
100
AcDbEntity
  8
03__ASM_ALL_CURVES
100
AcDbLine
 62
40
  6
CONTINUOUS
 10
7.8223138085
 20
4.2281749967
 11
7.8272204491
 21
4.221632806
  0
LINE
  5
494
100
AcDbEntity
  8
03__ASM_ALL_CURVES
100
AcDbLine
 62
40
  6
CONTINUOUS
 10
7.0886426369
 20
5.258842268
 11
7.1017270119
 21
5.2413964326
  0
LINE
  5
495
100
AcDbEntity
  8
03__ASM_ALL_CURVES
100
AcDbLine
 62
40
  6
CONTINUOUS
 10
7.1540645119
 20
5.1716130995
 11
7.1475223244
 21
5.1803360164
  0
LINE
  5
496
100
AcDbEntity
  8
03__ASM_ALL_CURVES
100
AcDbLine
 62
40
  6
CONTINUOUS
 10
7.4984755272
 20
4.1954640576
 11
7.5131954491
 21
4.1562109326
  0
LINE
  5
497
100
AcDbEntity
  8
03__ASM_ALL_CURVES
100
AcDbLine
 62
40
  6
CONTINUOUS
 10
7.1017270119
 20
5.2413964326
 11
7.1082691994
 21
5.2152276826
  0
LINE
  5
498
100
AcDbEntity
  8
03__ASM_ALL_CURVES
100
AcDbLine
 62
40
  6
CONTINUOUS
 10
7.4615473244
 20
5.1628901826
 11
7.4615473244
 21
5.2675651826
  0
LINE
  5
499
100
AcDbEntity
  8
03__ASM_ALL_CURVES
100
AcDbLine
 62
40
  6
CONTINUOUS
 10
7.4739423241
 20
4.1562109326
 11
7.4739423241
 21
4.2347171826
  0
LINE
  5
49A
100
AcDbEntity
  8
03__ASM_ALL_CURVES
100
AcDbLine
 62
40
  6
CONTINUOUS
 10
7.4739423241
 20
4.2765871826
 11
7.4739423241
 21
4.3550934326
  0
LINE
  5
49B
100
AcDbEntity
  8
03__ASM_ALL_CURVES
100
AcDbLine
 62
40
  6
CONTINUOUS
 10
7.5131954491
 20
4.342009056
 11
7.5131954491
 21
4.3289246842
  0
LINE
  5
49C
100
AcDbEntity
  8
03__ASM_ALL_CURVES
100
AcDbLine
 62
40
  6
CONTINUOUS
 10
7.5131954491
 20
4.221632806
 11
7.5131954491
 21
4.2085484342
  0
LINE
  5
49D
100
AcDbEntity
  8
03__ASM_ALL_CURVES
100
AcDbLine
 62
40
  6
CONTINUOUS
 10
7.5524485741
 20
4.1562109326
 11
7.5524485741
 21
4.2347171826
  0
LINE
  5
49E
100
AcDbEntity
  8
03__ASM_ALL_CURVES
100
AcDbLine
 62
40
  6
CONTINUOUS
 10
7.5662223244
 20
5.1628901826
 11
7.5662223244
 21
5.2675651826
  0
LINE
  5
49F
100
AcDbEntity
  8
03__ASM_ALL_CURVES
100
AcDbLine
 62
40
  6
CONTINUOUS
 10
7.6185598244
 20
5.2501193472
 11
7.6185598244
 21
5.232673518
  0
LINE
  5
4A0
100
AcDbEntity
  8
03__ASM_ALL_CURVES
100
AcDbLine
 62
40
  6
CONTINUOUS
 10
7.6309548241
 20
4.1562109326
 11
7.6309548241
 21
4.2347171826
  0
LINE
  5
4A1
100
AcDbEntity
  8
03__ASM_ALL_CURVES
100
AcDbLine
 62
40
  6
CONTINUOUS
 10
7.6309548241
 20
4.2765871826
 11
7.6309548241
 21
4.3550934326
  0
LINE
  5
4A2
100
AcDbEntity
  8
03__ASM_ALL_CURVES
100
AcDbLine
 62
40
  6
CONTINUOUS
 10
7.5426352929
 20
4.3158403076
 11
7.5475419335
 21
4.3354668701
  0
LINE
  5
4A3
100
AcDbEntity
  8
03__ASM_ALL_CURVES
100
AcDbLine
 62
40
  6
CONTINUOUS
 10
7.6015149804
 20
4.3158403076
 11
7.5966083397
 21
4.2962137451
  0
LINE
  5
4A4
100
AcDbEntity
  8
03__ASM_ALL_CURVES
100
AcDbLine
 62
40
  6
CONTINUOUS
 10
7.6751145897
 20
4.1954640576
 11
7.6702079491
 21
4.1758374951
  0
LINE
  5
4A5
100
AcDbEntity
  8
03__ASM_ALL_CURVES
100
AcDbLine
 62
40
  6
CONTINUOUS
 10
7.8272204491
 20
4.169295308
 11
7.8223138085
 21
4.1627531203
  0
LINE
  5
4A6
100
AcDbEntity
  8
03__ASM_ALL_CURVES
100
AcDbLine
 62
40
  6
CONTINUOUS
 10
7.9842329491
 20
4.1758374951
 11
7.9744196679
 21
4.1627531203
  0
LINE
  5
4A7
100
AcDbEntity
  8
03__ASM_ALL_CURVES
100
AcDbLine
 62
40
  6
CONTINUOUS
 10
7.3830410744
 20
5.2675651826
 11
7.3961254494
 21
5.258842268
  0
LINE
  5
4A8
100
AcDbEntity
  8
03__ASM_ALL_CURVES
100
AcDbLine
 62
40
  6
CONTINUOUS
 10
7.5989332619
 20
5.2675651826
 11
7.6120176369
 21
5.258842268
  0
LINE
  5
4A9
100
AcDbEntity
  8
03__ASM_ALL_CURVES
100
AcDbLine
 62
40
  6
CONTINUOUS
 10
7.9744196679
 20
4.2281749967
 11
7.9842329491
 21
4.2150906201
  0
LINE
  5
4AA
100
AcDbEntity
  8
03__ASM_ALL_CURVES
100
AcDbLine
 62
40
  6
CONTINUOUS
 10
8.1363388085
 20
4.2281749967
 11
8.1412454491
 21
4.221632806
  0
LINE
  5
4AB
100
AcDbEntity
  8
03__ASM_ALL_CURVES
100
AcDbLine
 62
40
  6
CONTINUOUS
 10
7.6554880272
 20
4.3158403076
 11
7.6702079491
 21
4.2765871826
  0
LINE
  5
4AC
100
AcDbEntity
  8
03__ASM_ALL_CURVES
100
AcDbLine
 62
40
  6
CONTINUOUS
 10
7.5475419335
 20
4.2962137451
 11
7.5426352929
 21
4.3158403076
  0
LINE
  5
4AD
100
AcDbEntity
  8
03__ASM_ALL_CURVES
100
AcDbLine
 62
40
  6
CONTINUOUS
 10
7.5966083397
 20
4.3354668701
 11
7.6015149804
 21
4.3158403076
  0
LINE
  5
4AE
100
AcDbEntity
  8
03__ASM_ALL_CURVES
100
AcDbLine
 62
40
  6
CONTINUOUS
 10
7.4092098244
 20
5.2413964326
 11
7.4157520119
 21
5.2152276826
  0
LINE
  5
4AF
100
AcDbEntity
  8
03__ASM_ALL_CURVES
100
AcDbLine
 62
40
  6
CONTINUOUS
 10
7.6702079491
 20
4.2150906201
 11
7.6751145897
 21
4.1954640576
  0
LINE
  5
4B0
100
AcDbEntity
  8
03__ASM_ALL_CURVES
100
AcDbLine
 62
40
  6
CONTINUOUS
 10
7.6702079491
 20
4.342009056
 11
7.6702079491
 21
4.3289246842
  0
LINE
  5
4B1
100
AcDbEntity
  8
03__ASM_ALL_CURVES
100
AcDbLine
 62
40
  6
CONTINUOUS
 10
7.7094610741
 20
4.169295308
 11
7.7094610741
 21
4.2347171826
  0
LINE
  5
4B2
100
AcDbEntity
  8
03__ASM_ALL_CURVES
100
AcDbLine
 62
40
  6
CONTINUOUS
 10
7.7290876366
 20
4.3550934326
 11
7.7290876366
 21
4.2765871826
  0
LINE
  5
4B3
100
AcDbEntity
  8
03__ASM_ALL_CURVES
100
AcDbLine
 62
40
  6
CONTINUOUS
 10
7.7487141991
 20
4.2347171826
 11
7.7487141991
 21
4.169295308
  0
LINE
  5
4B4
100
AcDbEntity
  8
03__ASM_ALL_CURVES
100
AcDbLine
 62
40
  6
CONTINUOUS
 10
7.8075938866
 20
4.3550934326
 11
7.8075938866
 21
4.2765871826
  0
LINE
  5
4B5
100
AcDbEntity
  8
03__ASM_ALL_CURVES
100
AcDbLine
 62
40
  6
CONTINUOUS
 10
7.7781540429
 20
4.1954640576
 11
7.7830606835
 21
4.2150906201
  0
LINE
  5
4B6
100
AcDbEntity
  8
03__ASM_ALL_CURVES
100
AcDbLine
 62
40
  6
CONTINUOUS
 10
8.1412454491
 20
4.2085484342
 11
8.1363388085
 21
4.2020062435
  0
LINE
  5
4B7
100
AcDbEntity
  8
03__ASM_ALL_CURVES
100
AcDbLine
 62
40
  6
CONTINUOUS
 10
8.2197516991
 20
4.2085484342
 11
8.2148450585
 21
4.2020062435
  0
LINE
  5
4B8
100
AcDbEntity
  8
03__ASM_ALL_CURVES
100
AcDbLine
 62
40
  6
CONTINUOUS
 10
7.3961254494
 20
5.258842268
 11
7.4092098244
 21
5.2413964326
  0
LINE
  5
4B9
100
AcDbEntity
  8
03__ASM_ALL_CURVES
100
AcDbLine
 62
40
  6
CONTINUOUS
 10
8.2148450585
 20
4.2281749967
 11
8.2197516991
 21
4.221632806
  0
LINE
  5
4BA
100
AcDbEntity
  8
03__ASM_ALL_CURVES
100
AcDbLine
 62
40
  6
CONTINUOUS
 10
8.3424177147
 20
4.1627531203
 11
8.3326044335
 21
4.1758374951
  0
LINE
  5
4BB
100
AcDbEntity
  8
03__ASM_ALL_CURVES
100
AcDbLine
 62
40
  6
CONTINUOUS
 10
8.3375110741
 20
4.2150906201
 11
8.3424177147
 21
4.2085484342
  0
LINE
  5
4BC
100
AcDbEntity
  8
03__ASM_ALL_CURVES
100
AcDbLine
 62
40
  6
CONTINUOUS
 10
8.3718575585
 20
4.1889218693
 11
8.3767641991
 21
4.1823796834
  0
LINE
  5
4BD
100
AcDbEntity
  8
03__ASM_ALL_CURVES
100
AcDbLine
 62
40
  6
CONTINUOUS
 10
8.4209239647
 20
4.1627531203
 11
8.4111106835
 21
4.1758374951
  0
LINE
  5
4BE
100
AcDbEntity
  8
03__ASM_ALL_CURVES
100
AcDbLine
 62
40
  6
CONTINUOUS
 10
8.3767641991
 20
4.221632806
 11
8.3718575585
 21
4.2281749967
  0
LINE
  5
4BF
100
AcDbEntity
  8
03__ASM_ALL_CURVES
100
AcDbLine
 62
40
  6
CONTINUOUS
 10
7.6120176369
 20
5.258842268
 11
7.6185598244
 21
5.2501193472
  0
LINE
  5
4C0
100
AcDbEntity
  8
03__ASM_ALL_CURVES
100
AcDbLine
 62
40
  6
CONTINUOUS
 10
8.4160173241
 20
4.2150906201
 11
8.4209239647
 21
4.2085484342
  0
LINE
  5
4C1
100
AcDbEntity
  8
03__ASM_ALL_CURVES
100
AcDbLine
 62
40
  6
CONTINUOUS
 10
8.4503638085
 20
4.1889218693
 11
8.4552704491
 21
4.1823796834
  0
LINE
  5
4C2
100
AcDbEntity
  8
03__ASM_ALL_CURVES
100
AcDbLine
 62
40
  6
CONTINUOUS
 10
7.5989332619
 20
5.2152276826
 11
7.6185598244
 21
5.1628901826
  0
LINE
  5
4C3
100
AcDbEntity
  8
03__ASM_ALL_CURVES
100
AcDbLine
 62
40
  6
CONTINUOUS
 10
7.7830606835
 20
4.1758374951
 11
7.7781540429
 21
4.1954640576
  0
LINE
  5
4C4
100
AcDbEntity
  8
03__ASM_ALL_CURVES
100
AcDbLine
 62
40
  6
CONTINUOUS
 10
7.8664735741
 20
4.1562109326
 11
7.8664735741
 21
4.2347171826
  0
LINE
  5
4C5
100
AcDbEntity
  8
03__ASM_ALL_CURVES
100
AcDbLine
 62
40
  6
CONTINUOUS
 10
7.9449798241
 20
4.1562109326
 11
7.9449798241
 21
4.2347171826
  0
LINE
  5
4C6
100
AcDbEntity
  8
03__ASM_ALL_CURVES
100
AcDbLine
 62
40
  6
CONTINUOUS
 10
7.9891395897
 20
4.1954640576
 11
7.9842329491
 21
4.1758374951
  0
LINE
  5
4C7
100
AcDbEntity
  8
03__ASM_ALL_CURVES
100
AcDbLine
 62
40
  6
CONTINUOUS
 10
8.3424177147
 20
4.2281749967
 11
8.3375110741
 21
4.221632806
  0
LINE
  5
4C8
100
AcDbEntity
  8
03__ASM_ALL_CURVES
100
AcDbLine
 62
40
  6
CONTINUOUS
 10
8.3767641991
 20
4.169295308
 11
8.3718575585
 21
4.1627531203
  0
LINE
  5
4C9
100
AcDbEntity
  8
03__ASM_ALL_CURVES
100
AcDbLine
 62
40
  6
CONTINUOUS
 10
8.4209239647
 20
4.2281749967
 11
8.4160173241
 21
4.221632806
  0
LINE
  5
4CA
100
AcDbEntity
  8
03__ASM_ALL_CURVES
100
AcDbLine
 62
40
  6
CONTINUOUS
 10
8.4552704491
 20
4.169295308
 11
8.4503638085
 21
4.1627531203
  0
LINE
  5
4CB
100
AcDbEntity
  8
03__ASM_ALL_CURVES
100
AcDbLine
 62
40
  6
CONTINUOUS
 10
8.5337766991
 20
4.169295308
 11
8.5288700585
 21
4.1627531203
  0
LINE
  5
4CC
100
AcDbEntity
  8
03__ASM_ALL_CURVES
100
AcDbLine
 62
40
  6
CONTINUOUS
 10
8.4994302147
 20
4.1627531203
 11
8.4945235741
 21
4.169295308
  0
LINE
  5
4CD
100
AcDbEntity
  8
03__ASM_ALL_CURVES
100
AcDbLine
 62
40
  6
CONTINUOUS
 10
8.4552704491
 20
4.221632806
 11
8.4503638085
 21
4.2281749967
  0
LINE
  5
4CE
100
AcDbEntity
  8
03__ASM_ALL_CURVES
100
AcDbLine
 62
40
  6
CONTINUOUS
 10
8.6073763085
 20
4.2281749967
 11
8.6122829491
 21
4.221632806
  0
LINE
  5
4CF
100
AcDbEntity
  8
03__ASM_ALL_CURVES
100
AcDbLine
 62
40
  6
CONTINUOUS
 10
8.2050317772
 20
4.1954640576
 11
8.2197516991
 21
4.1562109326
  0
LINE
  5
4D0
100
AcDbEntity
  8
03__ASM_ALL_CURVES
100
AcDbLine
 62
40
  6
CONTINUOUS
 10
7.9842329491
 20
4.2150906201
 11
7.9891395897
 21
4.1954640576
  0
LINE
  5
4D1
100
AcDbEntity
  8
03__ASM_ALL_CURVES
100
AcDbLine
 62
40
  6
CONTINUOUS
 10
8.1019923241
 20
4.1562109326
 11
8.1019923241
 21
4.2347171826
  0
LINE
  5
4D2
100
AcDbEntity
  8
03__ASM_ALL_CURVES
100
AcDbLine
 62
40
  6
CONTINUOUS
 10
8.1412454491
 20
4.221632806
 11
8.1412454491
 21
4.2085484342
  0
LINE
  5
4D3
100
AcDbEntity
  8
03__ASM_ALL_CURVES
100
AcDbLine
 62
40
  6
CONTINUOUS
 10
8.1804985741
 20
4.1562109326
 11
8.1804985741
 21
4.2347171826
  0
LINE
  5
4D4
100
AcDbEntity
  8
03__ASM_ALL_CURVES
100
AcDbLine
 62
40
  6
CONTINUOUS
 10
8.2197516991
 20
4.221632806
 11
8.2197516991
 21
4.2085484342
  0
LINE
  5
4D5
100
AcDbEntity
  8
03__ASM_ALL_CURVES
100
AcDbLine
 62
40
  6
CONTINUOUS
 10
8.2590048241
 20
4.1562109326
 11
8.2590048241
 21
4.2347171826
  0
LINE
  5
4D6
100
AcDbEntity
  8
03__ASM_ALL_CURVES
100
AcDbLine
 62
40
  6
CONTINUOUS
 10
8.6122829491
 20
4.2085484342
 11
8.6073763085
 21
4.2020062435
  0
LINE
  5
4D7
100
AcDbEntity
  8
03__ASM_ALL_CURVES
100
AcDbLine
 62
40
  6
CONTINUOUS
 10
8.3375110741
 20
4.221632806
 11
8.3375110741
 21
4.2150906201
  0
LINE
  5
4D8
100
AcDbEntity
  8
03__ASM_ALL_CURVES
100
AcDbLine
 62
40
  6
CONTINUOUS
 10
8.3767641991
 20
4.1823796834
 11
8.3767641991
 21
4.169295308
  0
LINE
  5
4D9
100
AcDbEntity
  8
03__ASM_ALL_CURVES
100
AcDbLine
 62
40
  6
CONTINUOUS
 10
8.4160173241
 20
4.221632806
 11
8.4160173241
 21
4.2150906201
  0
LINE
  5
4DA
100
AcDbEntity
  8
03__ASM_ALL_CURVES
100
AcDbLine
 62
40
  6
CONTINUOUS
 10
8.4552704491
 20
4.1823796834
 11
8.4552704491
 21
4.169295308
  0
LINE
  5
4DB
100
AcDbEntity
  8
03__ASM_ALL_CURVES
100
AcDbLine
 62
40
  6
CONTINUOUS
 10
8.5975630272
 20
4.1954640576
 11
8.6122829491
 21
4.1562109326
  0
LINE
  5
4DC
100
AcDbEntity
  8
03__ASM_ALL_CURVES
100
AcDbLine
 62
40
  6
CONTINUOUS
 10
8.4945235741
 20
4.169295308
 11
8.4945235741
 21
4.2347171826
  0
LINE
  5
4DD
100
AcDbEntity
  8
03__ASM_ALL_CURVES
100
AcDbLine
 62
40
  6
CONTINUOUS
 10
8.5337766991
 20
4.2347171826
 11
8.5337766991
 21
4.169295308
  0
LINE
  5
4DE
100
AcDbEntity
  8
03__ASM_ALL_CURVES
100
AcDbLine
 62
40
  6
CONTINUOUS
 10
8.5730298241
 20
4.1562109326
 11
8.5730298241
 21
4.2347171826
  0
LINE
  5
4DF
100
AcDbEntity
  8
03__ASM_ALL_CURVES
100
AcDbLine
 62
40
  6
CONTINUOUS
 10
8.6122829491
 20
4.221632806
 11
8.6122829491
 21
4.2085484342
  0
LINE
  5
4E0
100
AcDbEntity
  8
03__ASM_ALL_CURVES
100
AcDbLine
 62
40
  6
CONTINUOUS
 10
8.6515360741
 20
4.1562109326
 11
8.6515360741
 21
4.2347171826
  0
CIRCLE
  5
4E1
100
AcDbEntity
  8
127-410_FEATURES
100
AcDbCircle
 62
7
  6
CONTINUOUS
 10
5.512942325
 20
4.2556521826
 40
0.1015
  0
ARC
  5
4E2
100
AcDbEntity
  8
0
100
AcDbCircle
 62
7
  6
CONTINUOUS
 10
3.473942325
 20
4.4326521826
 40
0.094
100
AcDbArc
 50
90.0
 51
131.267427381
  0
ARC
  5
4E3
100
AcDbEntity
  8
0
100
AcDbCircle
 62
7
  6
CONTINUOUS
 10
3.473942325
 20
4.0786521826
 40
0.094
100
AcDbArc
 50
228.732572619
 51
270.0
  0
CIRCLE
  5
4E4
100
AcDbEntity
  8
0
100
AcDbCircle
 62
7
  6
CONTINUOUS
 10
6.510942325
 20
4.2556521826
 40
0.078
  0
ARC
  5
4E5
100
AcDbEntity
  8
0
100
AcDbCircle
 62
7
  6
CONTINUOUS
 10
3.160942325
 20
4.0941521826
 40
0.0175
100
AcDbArc
 50
180.0
 51
360.0
  0
ARC
  5
4E6
100
AcDbEntity
  8
THREAD
100
AcDbCircle
 62
7
  6
CONTINUOUS
 10
5.9044367715
 20
3.7846521826
 40
0.013
100
AcDbArc
 50
29.9999999933
 51
90.0
  0
ARC
  5
4E7
100
AcDbEntity
  8
THREAD
100
AcDbCircle
 62
7
  6
CONTINUOUS
 10
5.9044367715
 20
4.7266521826
 40
0.013
100
AcDbArc
 50
270.0
 51
330.0000000082
  0
ARC
  5
4E8
100
AcDbEntity
  8
0
100
AcDbCircle
 62
7
  6
CONTINUOUS
 10
5.728942325
 20
3.7252654312
 40
0.005
100
AcDbArc
 50
120.0000000209
 51
179.9999999996
  0
ARC
  5
4E9
100
AcDbEntity
  8
0
100
AcDbCircle
 62
7
  6
CONTINUOUS
 10
5.728942325
 20
4.7860389339
 40
0.005
100
AcDbArc
 50
180.0000000003
 51
239.9999999837
  0
ARC
  5
4EA
100
AcDbEntity
  8
0
100
AcDbCircle
 62
7
  6
CONTINUOUS
 10
5.720942325
 20
3.7206521826
 40
0.003
100
AcDbArc
 50
270.0
 51
360.0
  0
ARC
  5
4EB
100
AcDbEntity
  8
0
100
AcDbCircle
 62
7
  6
CONTINUOUS
 10
5.720942325
 20
4.7906521826
 40
0.003
100
AcDbArc
 50
0.0
 51
90.0
  0
SPLINE
  5
4EC
100
AcDbEntity
  8
0
100
AcDbSpline
 62
7
  6
CONTINUOUS
 70
0
 71
3
 72
65
 73
61
 74
59
 42
0.0000001
 43
0.0000001
 44
0.0000000001
 12
0.0
 22
-0.2641587177
 32
-0.0259009887
 13
0.0
 23
-0.0268312025
 33
-0.2688140424
 40
0.0
 40
0.0
 40
0.0
 40
0.0
 40
0.0625
 40
0.09375
 40
0.109375
 40
0.1171875
 40
0.125
 40
0.1328125
 40
0.140625
 40
0.15625
 40
0.1875
 40
0.21875
 40
0.234375
 40
0.2421875
 40
0.25
 40
0.2578125
 40
0.265625
 40
0.28125
 40
0.3125
 40
0.34375
 40
0.359375
 40
0.3671875
 40
0.375
 40
0.3828125
 40
0.390625
 40
0.40625
 40
0.4375
 40
0.46875
 40
0.484375
 40
0.4921875
 40
0.5
 40
0.5078125
 40
0.515625
 40
0.53125
 40
0.5625
 40
0.59375
 40
0.609375
 40
0.6171875
 40
0.625
 40
0.6328125
 40
0.640625
 40
0.65625
 40
0.6875
 40
0.71875
 40
0.734375
 40
0.7421875
 40
0.75
 40
0.7578125
 40
0.765625
 40
0.78125
 40
0.8125
 40
0.84375
 40
0.859375
 40
0.8671875
 40
0.875
 40
0.8828125
 40
0.890625
 40
0.90625
 40
0.9375
 40
1.0
 40
1.0
 40
1.0
 40
1.0
 10
2.928942325
 20
4.2556521826
 30
0.17
 10
2.928942325
 20
4.250148876
 30
0.1694603961
 10
2.928942325
 20
4.2418921192
 30
0.1686600646
 10
2.928942325
 20
4.2322655252
 30
0.1676945841
 10
2.928942325
 20
4.2274443671
 30
0.1672515444
 10
2.928942325
 20
4.2247019974
 30
0.1669348579
 10
2.928942325
 20
4.2226097329
 30
0.1668765628
 10
2.928942325
 20
4.2206531283
 30
0.1661331494
 10
2.928942325
 20
4.2179969766
 30
0.1653809722
 10
2.928942325
 20
4.2133710299
 30
0.1639526496
 10
2.928942325
 20
4.2067487772
 30
0.161975893
 10
2.928942325
 20
4.2001390421
 30
0.1599576766
 10
2.928942325
 20
4.1954955708
 30
0.1585873977
 10
2.928942325
 20
4.1928669577
 30
0.1577440091
 10
2.928942325
 20
4.1908258597
 30
0.1572804489
 10
2.928942325
 20
4.189050915
 30
0.1561711494
 10
2.928942325
 20
4.1865914513
 30
0.1549173863
 10
2.928942325
 20
4.1823309952
 30
0.1526177082
 10
2.928942325
 20
4.1762191349
 30
0.1493926477
 10
2.928942325
 20
4.1701261945
 30
0.1461279404
 10
2.928942325
 20
4.1658392506
 30
0.1438837678
 10
2.928942325
 20
4.1634214107
 30
0.1425427817
 10
2.928942325
 20
4.1615187569
 30
0.141701098
 10
2.928942325
 20
4.1599572772
 30
0.1402324919
 10
2.928942325
 20
4.1577562457
 30
0.1384930736
 10
2.928942325
 20
4.1539604472
 30
0.1353467271
 10
2.928942325
 20
4.14850429
 30
0.1309091437
 10
2.928942325
 20
4.1430758054
 30
0.126437751
 10
2.928942325
 20
4.1392412652
 30
0.1233387377
 10
2.928942325
 20
4.1371011135
 30
0.1215249387
 10
2.928942325
 20
4.1353528434
 30
0.120284546
 10
2.928942325
 20
4.1341516916
 30
0.1185857943
 10
2.928942325
 20
4.1323592578
 30
0.1164807112
 10
2.928942325
 20
4.1293120142
 30
0.1127219208
 10
2.928942325
 20
4.1249074013
 30
0.1073944803
 10
2.928942325
 20
4.1205379134
 30
0.1020406568
 10
2.928942325
 20
4.1174414948
 30
0.0983188027
 10
2.928942325
 20
4.1157263359
 30
0.0961556769
 10
2.928942325
 20
4.1142880907
 30
0.0946350109
 10
2.928942325
 20
4.1134302381
 30
0.0927258074
 10
2.928942325
 20
4.1120839238
 30
0.0903157557
 10
2.928942325
 20
4.1098228627
 30
0.0860347404
 10
2.928942325
 20
4.1065380006
 30
0.0799543229
 10
2.928942325
 20
4.1032913067
 30
0.0738534398
 10
2.928942325
 20
4.1009768101
 30
0.0696010762
 10
2.928942325
 20
4.0997144658
 30
0.0671460003
 10
2.928942325
 20
4.0985989781
 30
0.0653749395
 10
2.928942325
 20
4.0981282958
 30
0.0633354708
 10
2.928942325
 20
4.0972757368
 30
0.060709823
 10
2.928942325
 20
4.0958892574
 30
0.0560711076
 10
2.928942325
 20
4.0938479818
 30
0.0494689076
 10
2.928942325
 20
4.0918481186
 30
0.0428520514
 10
2.928942325
 20
4.0904036619
 30
0.0382338547
 10
2.928942325
 20
4.0896422099
 30
0.0355759632
 10
2.928942325
 20
4.0888919948
 30
0.0336354238
 10
2.928942325
 20
4.0888263084
 30
0.0314928289
 10
2.928942325
 20
4.0884999726
 30
0.0287065098
 10
2.928942325
 20
4.0880399508
 30
0.0237976676
 10
2.928942325
 20
4.0870405745
 30
0.0140034002
 10
2.928942325
 20
4.086211166
 30
0.0056002851
 10
2.928942325
 20
4.0856521826
 30
-0.0000000074
 11
2.928942325
 21
4.2556521826
 31
0.17
 11
2.928942325
 21
4.2391422627
 31
0.1683811882
 11
2.928942325
 21
4.2308873028
 31
0.1675717823
 11
2.928942325
 21
4.2267598229
 31
0.1671670794
 11
2.928942325
 21
4.2246960829
 31
0.1669647279
 11
2.928942325
 21
4.2226323429
 31
0.1667623764
 11
2.928942325
 21
4.2206472101
 31
0.1661630295
 11
2.928942325
 21
4.2186620774
 31
0.1655636826
 11
2.928942325
 21
4.2146918118
 31
0.1643649887
 11
2.928942325
 21
4.2067512808
 31
0.1619676011
 11
2.928942325
 21
4.1988107497
 31
0.1595702134
 11
2.928942325
 21
4.1948404842
 31
0.1583715196
 11
2.928942325
 21
4.1928553514
 31
0.1577721726
 11
2.928942325
 21
4.1908702186
 31
0.1571728257
 11
2.928942325
 21
4.1890393062
 31
0.1561993123
 11
2.928942325
 21
4.1872083937
 31
0.1552257989
 11
2.928942325
 21
4.1835465688
 31
0.153278772
 11
2.928942325
 21
4.1762229189
 31
0.1493847183
 11
2.928942325
 21
4.1688992691
 31
0.1454906646
 11
2.928942325
 21
4.1652374441
 31
0.1435436378
 11
2.928942325
 21
4.1634065317
 31
0.1425701243
 11
2.928942325
 21
4.1615756192
 31
0.1415966109
 11
2.928942325
 21
4.1599423949
 31
0.1402598323
 11
2.928942325
 21
4.1583091705
 31
0.1389230537
 11
2.928942325
 21
4.1550427219
 31
0.1362494964
 11
2.928942325
 21
4.1485098245
 31
0.1309023819
 11
2.928942325
 21
4.1419769272
 31
0.1255552673
 11
2.928942325
 21
4.1387104785
 31
0.1228817101
 11
2.928942325
 21
4.1370772541
 31
0.1215449314
 11
2.928942325
 21
4.1354440298
 31
0.1202081528
 11
2.928942325
 21
4.1341278294
 31
0.1186057842
 11
2.928942325
 21
4.1328116289
 31
0.1170034155
 11
2.928942325
 21
4.1301792281
 31
0.1137986783
 11
2.928942325
 21
4.1249144263
 31
0.1073892037
 11
2.928942325
 21
4.1196496246
 31
0.1009797292
 11
2.928942325
 21
4.1170172237
 31
0.0977749919
 11
2.928942325
 21
4.1157010233
 31
0.0961726233
 11
2.928942325
 21
4.1143848228
 31
0.0945702546
 11
2.928942325
 21
4.1134049242
 31
0.0927427515
 11
2.928942325
 21
4.1124250257
 31
0.0909152484
 11
2.928942325
 21
4.1104652285
 31
0.0872602422
 11
2.928942325
 21
4.1065456343
 31
0.0799502297
 11
2.928942325
 21
4.10262604
 31
0.0726402173
 11
2.928942325
 21
4.1006662428
 31
0.0689852111
 11
2.928942325
 21
4.0996863443
 31
0.067157708
 11
2.928942325
 21
4.0987064457
 31
0.0653302049
 11
2.928942325
 21
4.098100173
 31
0.0633471763
 11
2.928942325
 21
4.0974939003
 31
0.0613641477
 11
2.928942325
 21
4.096281355
 31
0.0573980906
 11
2.928942325
 21
4.0938562643
 31
0.0494659764
 11
2.928942325
 21
4.0914311736
 31
0.0415338621
 11
2.928942325
 21
4.0902186283
 31
0.037567805
 11
2.928942325
 21
4.0896123556
 31
0.0355847764
 11
2.928942325
 21
4.0890060829
 31
0.0336017479
 11
2.928942325
 21
4.0887964641
 31
0.0315016382
 11
2.928942325
 21
4.0885868454
 31
0.0294015285
 11
2.928942325
 21
4.0881676078
 31
0.025201309
 11
2.928942325
 21
4.0873291328
 31
0.0168008702
 11
2.928942325
 21
4.0856521826
 31
-0.0000000074
  0
SPLINE
  5
4ED
100
AcDbEntity
  8
0
100
AcDbSpline
 62
7
  6
CONTINUOUS
 70
0
 71
3
 72
65
 73
61
 74
59
 42
0.0000001
 43
0.0000001
 44
0.0000000001
 12
0.0
 22
-0.0259009887
 32
0.2641587177
 13
0.0
 23
-0.2688140424
 33
0.0268312025
 40
0.0
 40
0.0
 40
0.0
 40
0.0
 40
0.0625
 40
0.09375
 40
0.109375
 40
0.1171875
 40
0.125
 40
0.1328125
 40
0.140625
 40
0.15625
 40
0.1875
 40
0.21875
 40
0.234375
 40
0.2421875
 40
0.25
 40
0.2578125
 40
0.265625
 40
0.28125
 40
0.3125
 40
0.34375
 40
0.359375
 40
0.3671875
 40
0.375
 40
0.3828125
 40
0.390625
 40
0.40625
 40
0.4375
 40
0.46875
 40
0.484375
 40
0.4921875
 40
0.5
 40
0.5078125
 40
0.515625
 40
0.53125
 40
0.5625
 40
0.59375
 40
0.609375
 40
0.6171875
 40
0.625
 40
0.6328125
 40
0.640625
 40
0.65625
 40
0.6875
 40
0.71875
 40
0.734375
 40
0.7421875
 40
0.75
 40
0.7578125
 40
0.765625
 40
0.78125
 40
0.8125
 40
0.84375
 40
0.859375
 40
0.8671875
 40
0.875
 40
0.8828125
 40
0.890625
 40
0.90625
 40
0.9375
 40
1.0
 40
1.0
 40
1.0
 40
1.0
 10
2.928942325
 20
4.4256521826
 30
0.0
 10
2.928942325
 20
4.4251125787
 30
0.0055033066
 10
2.928942325
 20
4.4243122472
 30
0.0137600634
 10
2.928942325
 20
4.4233467667
 30
0.0233866574
 10
2.928942325
 20
4.422903727
 30
0.0282078155
 10
2.928942325
 20
4.4225870405
 30
0.0309501852
 10
2.928942325
 20
4.4225287454
 30
0.0330424497
 10
2.928942325
 20
4.421785332
 30
0.0349990543
 10
2.928942325
 20
4.4210331548
 30
0.037655206
 10
2.928942325
 20
4.4196048322
 30
0.0422811527
 10
2.928942325
 20
4.4176280756
 30
0.0489034054
 10
2.928942325
 20
4.4156098592
 30
0.0555131405
 10
2.928942325
 20
4.4142395803
 30
0.0601566118
 10
2.928942325
 20
4.4133961917
 30
0.0627852248
 10
2.928942325
 20
4.4129326315
 30
0.0648263229
 10
2.928942325
 20
4.411823332
 30
0.0666012676
 10
2.928942325
 20
4.4105695689
 30
0.0690607313
 10
2.928942325
 20
4.4082698908
 30
0.0733211874
 10
2.928942325
 20
4.4050448303
 30
0.0794330476
 10
2.928942325
 20
4.401780123
 30
0.0855259881
 10
2.928942325
 20
4.3995359504
 30
0.089812932
 10
2.928942325
 20
4.3981949643
 30
0.0922307719
 10
2.928942325
 20
4.3973532806
 30
0.0941334257
 10
2.928942325
 20
4.3958846745
 30
0.0956949054
 10
2.928942325
 20
4.3941452562
 30
0.0978959369
 10
2.928942325
 20
4.3909989097
 30
0.1016917354
 10
2.928942325
 20
4.3865613263
 30
0.1071478926
 10
2.928942325
 20
4.3820899336
 30
0.1125763772
 10
2.928942325
 20
4.3789909203
 30
0.1164109174
 10
2.928942325
 20
4.3771771213
 30
0.1185510691
 10
2.928942325
 20
4.3759367286
 30
0.1202993392
 10
2.928942325
 20
4.3742379769
 30
0.121500491
 10
2.928942325
 20
4.3721328938
 30
0.1232929248
 10
2.928942325
 20
4.3683741034
 30
0.1263401684
 10
2.928942325
 20
4.3630466629
 30
0.1307447813
 10
2.928942325
 20
4.3576928394
 30
0.1351142692
 10
2.928942325
 20
4.3539709853
 30
0.1382106878
 10
2.928942325
 20
4.3518078595
 30
0.1399258467
 10
2.928942325
 20
4.3502871935
 30
0.1413640919
 10
2.928942325
 20
4.34837799
 30
0.1422219445
 10
2.928942325
 20
4.3459679383
 30
0.1435682588
 10
2.928942325
 20
4.341686923
 30
0.1458293199
 10
2.928942325
 20
4.3356065055
 30
0.149114182
 10
2.928942325
 20
4.3295056224
 30
0.1523608759
 10
2.928942325
 20
4.3252532588
 30
0.1546753725
 10
2.928942325
 20
4.3227981829
 30
0.1559377168
 10
2.928942325
 20
4.3210271221
 30
0.1570532045
 10
2.928942325
 20
4.3189876534
 30
0.1575238867
 10
2.928942325
 20
4.3163620056
 30
0.1583764458
 10
2.928942325
 20
4.3117232902
 30
0.1597629252
 10
2.928942325
 20
4.3051210902
 30
0.1618042008
 10
2.928942325
 20
4.298504234
 30
0.163804064
 10
2.928942325
 20
4.2938860373
 30
0.1652485207
 10
2.928942325
 20
4.2912281458
 30
0.1660099727
 10
2.928942325
 20
4.2892876064
 30
0.1667601878
 10
2.928942325
 20
4.2871450115
 30
0.1668258742
 10
2.928942325
 20
4.2843586924
 30
0.16715221
 10
2.928942325
 20
4.2794498502
 30
0.1676122318
 10
2.928942325
 20
4.2696555828
 30
0.1686116081
 10
2.928942325
 20
4.2612524677
 30
0.1694410166
 10
2.928942325
 20
4.2556521752
 30
0.17
 11
2.928942325
 21
4.4256521826
 31
0.0
 11
2.928942325
 21
4.4240333708
 31
0.0165099199
 11
2.928942325
 21
4.4232239649
 31
0.0247648798
 11
2.928942325
 21
4.422819262
 31
0.0288923597
 11
2.928942325
 21
4.4226169105
 31
0.0309560997
 11
2.928942325
 21
4.422414559
 31
0.0330198397
 11
2.928942325
 21
4.4218152121
 31
0.0350049725
 11
2.928942325
 21
4.4212158652
 31
0.0369901052
 11
2.928942325
 21
4.4200171713
 31
0.0409603708
 11
2.928942325
 21
4.4176197837
 31
0.0489009018
 11
2.928942325
 21
4.415222396
 31
0.0568414329
 11
2.928942325
 21
4.4140237021
 31
0.0608116984
 11
2.928942325
 21
4.4134243552
 31
0.0627968312
 11
2.928942325
 21
4.4128250083
 31
0.064781964
 11
2.928942325
 21
4.4118514949
 31
0.0666128764
 11
2.928942325
 21
4.4108779815
 31
0.0684437889
 11
2.928942325
 21
4.4089309546
 31
0.0721056138
 11
2.928942325
 21
4.4050369009
 31
0.0794292637
 11
2.928942325
 21
4.4011428472
 31
0.0867529135
 11
2.928942325
 21
4.3991958204
 31
0.0904147384
 11
2.928942325
 21
4.3982223069
 31
0.0922456509
 11
2.928942325
 21
4.3972487935
 31
0.0940765634
 11
2.928942325
 21
4.3959120149
 31
0.0957097877
 11
2.928942325
 21
4.3945752363
 31
0.0973430121
 11
2.928942325
 21
4.391901679
 31
0.1006094607
 11
2.928942325
 21
4.3865545645
 31
0.1071423581
 11
2.928942325
 21
4.3812074499
 31
0.1136752554
 11
2.928942325
 21
4.3785338927
 31
0.1169417041
 11
2.928942325
 21
4.377197114
 31
0.1185749285
 11
2.928942325
 21
4.3758603354
 31
0.1202081528
 11
2.928942325
 21
4.3742579668
 31
0.1215243532
 11
2.928942325
 21
4.3726555981
 31
0.1228405537
 11
2.928942325
 21
4.3694508609
 31
0.1254729545
 11
2.928942325
 21
4.3630413863
 31
0.1307377563
 11
2.928942325
 21
4.3566319118
 31
0.136002558
 11
2.928942325
 21
4.3534271745
 31
0.1386349589
 11
2.928942325
 21
4.3518248059
 31
0.1399511593
 11
2.928942325
 21
4.3502224372
 31
0.1412673598
 11
2.928942325
 21
4.3483949341
 31
0.1422472583
 11
2.928942325
 21
4.346567431
 31
0.1432271569
 11
2.928942325
 21
4.3429124248
 31
0.1451869541
 11
2.928942325
 21
4.3356024123
 31
0.1491065483
 11
2.928942325
 21
4.3282923999
 31
0.1530261426
 11
2.928942325
 21
4.3246373937
 31
0.1549859398
 11
2.928942325
 21
4.3228098906
 31
0.1559658383
 11
2.928942325
 21
4.3209823874
 31
0.1569457369
 11
2.928942325
 21
4.3189993589
 31
0.1575520096
 11
2.928942325
 21
4.3170163303
 31
0.1581582823
 11
2.928942325
 21
4.3130502732
 31
0.1593708276
 11
2.928942325
 21
4.305118159
 31
0.1617959183
 11
2.928942325
 21
4.2971860447
 31
0.164221009
 11
2.928942325
 21
4.2932199876
 31
0.1654335543
 11
2.928942325
 21
4.291236959
 31
0.166039827
 11
2.928942325
 21
4.2892539305
 31
0.1666460997
 11
2.928942325
 21
4.2871538208
 31
0.1668557185
 11
2.928942325
 21
4.285053711
 31
0.1670653372
 11
2.928942325
 21
4.2808534916
 31
0.1674845748
 11
2.928942325
 21
4.2724530528
 31
0.1683230498
 11
2.928942325
 21
4.2556521752
 31
0.17
  0
SPLINE
  5
4EE
100
AcDbEntity
  8
0
100
AcDbSpline
 62
7
  6
CONTINUOUS
 70
0
 71
3
 72
20
 73
16
 74
14
 42
0.0000001
 43
0.0000001
 44
0.0000000001
 12
0.0
 22
0.0416605862
 32
0.0
 13
0.0
 23
-0.0416605862
 33
0.0
 40
0.0
 40
0.0
 40
0.0
 40
0.0
 40
0.0489307848
 40
0.1062135912
 40
0.175871992
 40
0.2580136346
 40
0.3503828832
 40
0.4493672053
 40
0.5506327947
 40
0.6496171168
 40
0.7419863654
 40
0.824128008
 40
0.8937864088
 40
0.9510692152
 40
1.0
 40
1.0
 40
1.0
 40
1.0
 10
3.178442325
 20
4.3317757514
 30
0.0
 10
3.178442325
 20
4.3324552465
 30
0.0
 10
3.1780207911
 20
4.3339412575
 30
0.0
 10
3.1763855233
 20
4.3358196848
 30
0.0
 10
3.1739336028
 20
4.3374186851
 30
0.0
 10
3.1707743704
 20
4.3386934362
 30
0.0
 10
3.1670712767
 20
4.339585424
 30
0.0
 10
3.1630243678
 20
4.3400446617
 30
0.0
 10
3.1588602822
 20
4.3400446617
 30
0.0
 10
3.1548133733
 20
4.339585424
 30
0.0
 10
3.1511102797
 20
4.3386934362
 30
0.0
 10
3.1479510472
 20
4.3374186851
 30
0.0
 10
3.1454991268
 20
4.3358196848
 30
0.0
 10
3.143863859
 20
4.3339412575
 30
0.0
 10
3.143442325
 20
4.3324552465
 30
0.0
 10
3.143442325
 20
4.3317757514
 30
0.0
 11
3.178442325
 21
4.3317757514
 31
0.0
 11
3.1779338068
 21
4.3337497907
 31
0.0
 11
3.1764378055
 21
4.335609106
 31
0.0
 11
3.1740412631
 21
4.3372456406
 31
0.0
 11
3.1708834581
 21
4.3385642852
 31
0.0
 11
3.1671479105
 21
4.3394884049
 31
0.0
 11
3.1630517169
 21
4.3399642932
 31
0.0
 11
3.1588329331
 21
4.3399642932
 31
0.0
 11
3.1547367395
 21
4.3394884049
 31
0.0
 11
3.151001192
 21
4.3385642852
 31
0.0
 11
3.1478433869
 21
4.3372456406
 31
0.0
 11
3.1454468446
 21
4.335609106
 31
0.0
 11
3.1439508432
 21
4.3337497907
 31
0.0
 11
3.143442325
 21
4.3317757514
 31
0.0
  0
SPLINE
  5
4EF
100
AcDbEntity
  8
0
100
AcDbSpline
 62
7
  6
CONTINUOUS
 70
0
 71
3
 72
15
 73
11
 74
9
 42
0.0000001
 43
0.0000001
 44
0.0000000001
 12
0.0
 22
0.1099409465
 32
0.0
 13
0.0
 23
-0.1099409465
 33
0.0
 40
0.0
 40
0.0
 40
0.0
 40
0.0
 40
0.125
 40
0.25
 40
0.375
 40
0.5
 40
0.625
 40
0.75
 40
0.875
 40
1.0
 40
1.0
 40
1.0
 40
1.0
 10
6.957942325
 20
4.6686521826
 30
0.0
 10
6.957942325
 20
4.6732330554
 30
0.0
 10
6.9561199405
 20
4.6823948009
 30
0.0
 10
6.9483353726
 20
4.6940452302
 30
0.0
 10
6.9366849433
 20
4.7018297981
 30
0.0
 10
6.922942325
 20
4.7045633748
 30
0.0
 10
6.9091997067
 20
4.7018297981
 30
0.0
 10
6.8975492775
 20
4.6940452302
 30
0.0
 10
6.8897647095
 20
4.6823948009
 30
0.0
 10
6.887942325
 20
4.6732330554
 30
0.0
 10
6.887942325
 20
4.6686521826
 30
0.0
 11
6.957942325
 21
4.6686521826
 31
0.0
 11
6.9552781087
 21
4.6820461027
 31
0.0
 11
6.9476910624
 21
4.6934009199
 31
0.0
 11
6.9363362452
 21
4.7009879662
 31
0.0
 11
6.922942325
 21
4.7036521826
 31
0.0
 11
6.9095484049
 21
4.7009879662
 31
0.0
 11
6.8981935877
 21
4.6934009199
 31
0.0
 11
6.8906065414
 21
4.6820461027
 31
0.0
 11
6.887942325
 21
4.6686521826
 31
0.0
  0
SPLINE
  5
4F0
100
AcDbEntity
  8
0
100
AcDbSpline
 62
7
  6
CONTINUOUS
 70
0
 71
3
 72
15
 73
11
 74
9
 42
0.0000001
 43
0.0000001
 44
0.0000000001
 12
0.0
 22
-0.1099409465
 32
0.0
 13
0.0
 23
0.1099409465
 33
0.0
 40
0.0
 40
0.0
 40
0.0
 40
0.0
 40
0.125
 40
0.25
 40
0.375
 40
0.5
 40
0.625
 40
0.75
 40
0.875
 40
1.0
 40
1.0
 40
1.0
 40
1.0
 10
6.957942325
 20
3.8426521826
 30
0.0
 10
6.957942325
 20
3.8380713098
 30
0.0
 10
6.9561199405
 20
3.8289095643
 30
0.0
 10
6.9483353726
 20
3.817259135
 30
0.0
 10
6.9366849433
 20
3.8094745671
 30
0.0
 10
6.922942325
 20
3.8067409903
 30
0.0
 10
6.9091997067
 20
3.8094745671
 30
0.0
 10
6.8975492775
 20
3.817259135
 30
0.0
 10
6.8897647095
 20
3.8289095643
 30
0.0
 10
6.887942325
 20
3.8380713098
 30
0.0
 10
6.887942325
 20
3.8426521826
 30
0.0
 11
6.957942325
 21
3.8426521826
 31
0.0
 11
6.9552781087
 21
3.8292582625
 31
0.0
 11
6.9476910624
 21
3.8179034453
 31
0.0
 11
6.9363362452
 21
3.810316399
 31
0.0
 11
6.922942325
 21
3.8076521826
 31
0.0
 11
6.9095484049
 21
3.810316399
 31
0.0
 11
6.8981935877
 21
3.8179034453
 31
0.0
 11
6.8906065414
 21
3.8292582625
 31
0.0
 11
6.887942325
 21
3.8426521826
 31
0.0
  0
SPLINE
  5
4F1
100
AcDbEntity
  8
0
100
AcDbSpline
 62
7
  6
CONTINUOUS
 70
0
 71
3
 72
14
 73
10
 74
8
 42
0.0000001
 43
0.0000001
 44
0.0000000001
 12
0.0
 22
0.0916172274
 32
0.0
 13
-0.045846371
 23
-0.079336773
 33
0.0
 40
0.0
 40
0.0
 40
0.0
 40
0.0
 40
0.1500003733
 40
0.3000007465
 40
0.4500011198
 40
0.6000014931
 40
0.7500018663
 40
0.9000022396
 40
1.0
 40
1.0
 40
1.0
 40
1.0
 10
5.840942325
 20
4.7486521826
 30
0.0
 10
5.840942325
 20
4.7532330554
 30
0.0
 10
5.8391199405
 20
4.7623948009
 30
0.0
 10
5.8313353726
 20
4.7740452302
 30
0.0
 10
5.8196849433
 20
4.7818297981
 30
0.0
 10
5.805942325
 20
4.7845633748
 30
0.0
 10
5.7921997067
 20
4.7818297981
 30
0.0
 10
5.781843834
 20
4.7749102252
 30
0.0
 10
5.7771611527
 20
4.7687957933
 30
0.0
 10
5.7756329746
 20
4.7661512934
 30
0.0
 11
5.840942325
 21
4.7486521826
 31
0.0
 11
5.8382781087
 21
4.7620461027
 31
0.0
 11
5.8306910624
 21
4.7734009199
 31
0.0
 11
5.8193362452
 21
4.7809879662
 31
0.0
 11
5.805942325
 21
4.7836521826
 31
0.0
 11
5.7925484049
 21
4.7809879662
 31
0.0
 11
5.7811935877
 21
4.7734009199
 31
0.0
 11
5.7756329746
 21
4.7661512934
 31
0.0
  0
SPLINE
  5
4F2
100
AcDbEntity
  8
0
100
AcDbSpline
 62
7
  6
CONTINUOUS
 70
0
 71
3
 72
9
 73
5
 74
3
 42
0.0000001
 43
0.0000001
 44
0.0000000001
 12
-0.0091694111
 22
-0.0158675915
 32
0.0
 13
0.0
 23
-0.0183237191
 33
0.0
 40
0.0
 40
0.0
 40
0.0
 40
0.0
 40
0.2500093315
 40
1.0
 40
1.0
 40
1.0
 40
1.0
 10
5.7756329746
 20
4.7661512934
 30
0.0
 10
5.7748688285
 20
4.7648289448
 30
0.0
 10
5.7721572631
 20
4.7593409617
 30
0.0
 10
5.770942325
 20
4.7532330554
 30
0.0
 10
5.770942325
 20
4.7486521826
 30
0.0
 11
5.7756329746
 21
4.7661512934
 31
0.0
 11
5.7736065414
 21
4.7620461027
 31
0.0
 11
5.770942325
 21
4.7486521826
 31
0.0
  0
SPLINE
  5
4F3
100
AcDbEntity
  8
0
100
AcDbSpline
 62
7
  6
CONTINUOUS
 70
0
 71
3
 72
14
 73
10
 74
8
 42
0.0000001
 43
0.0000001
 44
0.0000000001
 12
0.0
 22
-0.0916172274
 32
0.0
 13
-0.045846371
 23
0.079336773
 33
0.0
 40
0.0
 40
0.0
 40
0.0
 40
0.0
 40
0.1500003733
 40
0.3000007465
 40
0.4500011198
 40
0.6000014931
 40
0.7500018663
 40
0.9000022396
 40
1.0
 40
1.0
 40
1.0
 40
1.0
 10
5.840942325
 20
3.7626521826
 30
0.0
 10
5.840942325
 20
3.7580713098
 30
0.0
 10
5.8391199405
 20
3.7489095643
 30
0.0
 10
5.8313353726
 20
3.737259135
 30
0.0
 10
5.8196849433
 20
3.7294745671
 30
0.0
 10
5.805942325
 20
3.7267409903
 30
0.0
 10
5.7921997067
 20
3.7294745671
 30
0.0
 10
5.781843834
 20
3.73639414
 30
0.0
 10
5.7771611527
 20
3.7425085719
 30
0.0
 10
5.7756329746
 20
3.7451530718
 30
0.0
 11
5.840942325
 21
3.7626521826
 31
0.0
 11
5.8382781087
 21
3.7492582625
 31
0.0
 11
5.8306910624
 21
3.7379034453
 31
0.0
 11
5.8193362452
 21
3.730316399
 31
0.0
 11
5.805942325
 21
3.7276521826
 31
0.0
 11
5.7925484049
 21
3.730316399
 31
0.0
 11
5.7811935877
 21
3.7379034453
 31
0.0
 11
5.7756329746
 21
3.7451530718
 31
0.0
  0
SPLINE
  5
4F4
100
AcDbEntity
  8
0
100
AcDbSpline
 62
7
  6
CONTINUOUS
 70
0
 71
3
 72
9
 73
5
 74
3
 42
0.0000001
 43
0.0000001
 44
0.0000000001
 12
-0.0091694111
 22
0.0158675915
 32
0.0
 13
0.0
 23
0.0183237191
 33
0.0
 40
0.0
 40
0.0
 40
0.0
 40
0.0
 40
0.2500093315
 40
1.0
 40
1.0
 40
1.0
 40
1.0
 10
5.7756329746
 20
3.7451530718
 30
0.0
 10
5.7748688285
 20
3.7464754204
 30
0.0
 10
5.7721572631
 20
3.7519634035
 30
0.0
 10
5.770942325
 20
3.7580713098
 30
0.0
 10
5.770942325
 20
3.7626521826
 30
0.0
 11
5.7756329746
 21
3.7451530718
 31
0.0
 11
5.7736065414
 21
3.7492582625
 31
0.0
 11
5.770942325
 21
3.7626521826
 31
0.0
  0
SPLINE
  5
4F5
100
AcDbEntity
  8
0
100
AcDbSpline
 62
7
  6
CONTINUOUS
 70
0
 71
3
 72
15
 73
11
 74
9
 42
0.0000001
 43
0.0000001
 44
0.0000000001
 12
0.0
 22
0.1099409465
 32
0.0
 13
-0.0
 23
-0.1099409465
 33
0.0
 40
0.0
 40
0.0
 40
0.0
 40
0.0
 40
0.125
 40
0.25
 40
0.375
 40
0.5
 40
0.625
 40
0.75
 40
0.875
 40
1.0
 40
1.0
 40
1.0
 40
1.0
 10
5.218942325
 20
4.7731521826
 30
0.0
 10
5.218942325
 20
4.7777330554
 30
0.0
 10
5.2171199405
 20
4.7868948009
 30
0.0
 10
5.2093353726
 20
4.7985452302
 30
0.0
 10
5.1976849433
 20
4.8063297981
 30
0.0
 10
5.183942325
 20
4.8090633748
 30
0.0
 10
5.1701997067
 20
4.8063297981
 30
0.0
 10
5.1585492775
 20
4.7985452302
 30
0.0
 10
5.1507647095
 20
4.7868948009
 30
0.0
 10
5.148942325
 20
4.7777330554
 30
0.0
 10
5.148942325
 20
4.7731521826
 30
0.0
 11
5.218942325
 21
4.7731521826
 31
0.0
 11
5.2162781087
 21
4.7865461027
 31
0.0
 11
5.2086910624
 21
4.7979009199
 31
0.0
 11
5.1973362452
 21
4.8054879662
 31
0.0
 11
5.183942325
 21
4.8081521826
 31
0.0
 11
5.1705484049
 21
4.8054879662
 31
0.0
 11
5.1591935877
 21
4.7979009199
 31
0.0
 11
5.1516065414
 21
4.7865461027
 31
0.0
 11
5.148942325
 21
4.7731521826
 31
0.0
  0
SPLINE
  5
4F6
100
AcDbEntity
  8
0
100
AcDbSpline
 62
7
  6
CONTINUOUS
 70
0
 71
3
 72
15
 73
11
 74
9
 42
0.0000001
 43
0.0000001
 44
0.0000000001
 12
0.0
 22
-0.1099409465
 32
0.0
 13
-0.0
 23
0.1099409465
 33
0.0
 40
0.0
 40
0.0
 40
0.0
 40
0.0
 40
0.125
 40
0.25
 40
0.375
 40
0.5
 40
0.625
 40
0.75
 40
0.875
 40
1.0
 40
1.0
 40
1.0
 40
1.0
 10
5.218942325
 20
3.7381521826
 30
0.0
 10
5.218942325
 20
3.7335713098
 30
0.0
 10
5.2171199405
 20
3.7244095643
 30
0.0
 10
5.2093353726
 20
3.712759135
 30
0.0
 10
5.1976849433
 20
3.7049745671
 30
0.0
 10
5.183942325
 20
3.7022409903
 30
0.0
 10
5.1701997067
 20
3.7049745671
 30
0.0
 10
5.1585492775
 20
3.712759135
 30
0.0
 10
5.1507647095
 20
3.7244095643
 30
0.0
 10
5.148942325
 20
3.7335713098
 30
0.0
 10
5.148942325
 20
3.7381521826
 30
0.0
 11
5.218942325
 21
3.7381521826
 31
0.0
 11
5.2162781087
 21
3.7247582625
 31
0.0
 11
5.2086910624
 21
3.7134034453
 31
0.0
 11
5.1973362452
 21
3.705816399
 31
0.0
 11
5.183942325
 21
3.7031521826
 31
0.0
 11
5.1705484049
 21
3.705816399
 31
0.0
 11
5.1591935877
 21
3.7134034453
 31
0.0
 11
5.1516065414
 21
3.7247582625
 31
0.0
 11
5.148942325
 21
3.7381521826
 31
0.0
  0
SPLINE
  5
4F7
100
AcDbEntity
  8
0
100
AcDbSpline
 62
7
  6
CONTINUOUS
 70
0
 71
3
 72
16
 73
12
 74
10
 42
0.0000001
 43
0.0000001
 44
0.0000000001
 12
0.0906480335
 22
0.2719441006
 32
0.0
 13
-0.0906480335
 23
0.2719441006
 33
0.0
 40
0.0
 40
0.0
 40
0.0
 40
0.0
 40
0.1184548733
 40
0.230565332
 40
0.3393089466
 40
0.4465959239
 40
0.5535015371
 40
0.6607803311
 40
0.769505023
 40
0.8815660643
 40
1.0
 40
1.0
 40
1.0
 40
1.0
 10
3.6620709146
 20
3.9746521826
 30
0.0
 10
3.6656501484
 20
3.9853898839
 30
0.0
 10
3.6720812351
 20
4.0064759308
 30
0.0
 10
3.6796006647
 20
4.0380369856
 30
0.0
 10
3.6846888922
 20
4.0690058037
 30
0.0
 10
3.6872757544
 20
4.0997888733
 30
0.0
 10
3.6872745661
 20
4.1305426743
 30
0.0
 10
3.6846857255
 20
4.1613229657
 30
0.0
 10
3.6795969907
 20
4.1922842675
 30
0.0
 10
3.672078734
 20
4.2238367991
 30
0.0
 10
3.6656495158
 20
4.2449163792
 30
0.0
 10
3.6620709146
 20
4.2556521826
 30
0.0
 11
3.6620709146
 21
3.9746521826
 31
0.0
 11
3.6719093842
 21
4.0071512105
 31
0.0
 11
3.6792965547
 21
4.0384276009
 31
0.0
 11
3.6843011721
 21
4.0691950534
 31
0.0
 11
3.6868481374
 21
4.0998436746
 31
0.0
 11
3.6868469673
 21
4.1304886231
 31
0.0
 11
3.6842980272
 21
4.1611347262
 31
0.0
 11
3.6792925881
 21
4.1918965494
 31
0.0
 11
3.6719078167
 21
4.223158951
 31
0.0
 11
3.6620709146
 21
4.2556521826
 31
0.0
  0
SPLINE
  5
4F8
100
AcDbEntity
  8
0
100
AcDbSpline
 62
7
  6
CONTINUOUS
 70
0
 71
3
 72
17
 73
13
 74
11
 42
0.0000001
 43
0.0000001
 44
0.0000000001
 12
-0.1487434696
 22
0.2576312467
 32
0.0
 13
0.1487434696
 23
0.2576312467
 33
0.0
 40
0.0
 40
0.0
 40
0.0
 40
0.0
 40
0.1169386465
 40
0.2216811606
 40
0.3184580982
 40
0.4103908543
 40
0.5000417254
 40
0.5896883004
 40
0.6816074548
 40
0.7783545182
 40
0.8830694657
 40
1.0
 40
1.0
 40
1.0
 40
1.0
 10
3.5604131763
 20
3.9746521826
 30
0.0
 10
3.554615223
 20
3.9846945324
 30
0.0
 10
3.5442753953
 20
4.0041243798
 30
0.0
 10
3.5319017719
 20
4.0332264574
 30
0.0
 10
3.5232483252
 20
4.0610680201
 30
0.0
 10
3.5180912206
 20
4.0882513397
 30
0.0
 10
3.5163743403
 20
4.1151642246
 30
0.0
 10
3.5180942259
 20
4.1420755494
 30
0.0
 10
3.5232529775
 20
4.16925369
 30
0.0
 10
3.5319058294
 20
4.197087996
 30
0.0
 10
3.5442774168
 20
4.2261838357
 30
0.0
 10
3.5546156252
 20
4.2456105295
 30
0.0
 10
3.5604131763
 20
4.2556521826
 30
0.0
 11
3.5604131763
 21
3.9746521826
 31
0.0
 11
3.5441869449
 21
4.0054238396
 31
0.0
 11
3.5321021884
 21
4.0341444762
 31
0.0
 11
3.5236495151
 21
4.0616655448
 31
0.0
 11
3.5186166297
 21
4.08854726
 31
0.0
 11
3.5169423254
 21
4.1151646161
 31
0.0
 11
3.5186195677
 21
4.1417805066
 31
0.0
 11
3.5236542144
 21
4.1686577753
 31
0.0
 11
3.5321058294
 21
4.1961698719
 31
0.0
 11
3.5441879806
 21
4.2248827076
 31
0.0
 11
3.5604131763
 21
4.2556521826
 31
0.0
  0
SPLINE
  5
4F9
100
AcDbEntity
  8
0
100
AcDbSpline
 62
7
  6
CONTINUOUS
 70
0
 71
3
 72
16
 73
12
 74
10
 42
0.0000001
 43
0.0000001
 44
0.0000000001
 12
0.0906480335
 22
0.2719441006
 32
0.0
 13
-0.0906480335
 23
0.2719441006
 33
0.0
 40
0.0
 40
0.0
 40
0.0
 40
0.0
 40
0.1184548733
 40
0.230565332
 40
0.3393089466
 40
0.4465959239
 40
0.5535015371
 40
0.6607803311
 40
0.769505023
 40
0.8815660643
 40
1.0
 40
1.0
 40
1.0
 40
1.0
 10
3.6620709146
 20
4.2556521826
 30
0.0
 10
3.6656501484
 20
4.2663898839
 30
0.0
 10
3.6720812351
 20
4.2874759308
 30
0.0
 10
3.6796006647
 20
4.3190369856
 30
0.0
 10
3.6846888922
 20
4.3500058037
 30
0.0
 10
3.6872757544
 20
4.3807888733
 30
0.0
 10
3.6872745661
 20
4.4115426743
 30
0.0
 10
3.6846857255
 20
4.4423229657
 30
0.0
 10
3.6795969907
 20
4.4732842675
 30
0.0
 10
3.672078734
 20
4.5048367991
 30
0.0
 10
3.6656495158
 20
4.5259163792
 30
0.0
 10
3.6620709146
 20
4.5366521826
 30
0.0
 11
3.6620709146
 21
4.2556521826
 31
0.0
 11
3.6719093842
 21
4.2881512105
 31
0.0
 11
3.6792965547
 21
4.3194276009
 31
0.0
 11
3.6843011721
 21
4.3501950534
 31
0.0
 11
3.6868481374
 21
4.3808436746
 31
0.0
 11
3.6868469673
 21
4.4114886231
 31
0.0
 11
3.6842980272
 21
4.4421347262
 31
0.0
 11
3.6792925881
 21
4.4728965494
 31
0.0
 11
3.6719078167
 21
4.504158951
 31
0.0
 11
3.6620709146
 21
4.5366521826
 31
0.0
  0
SPLINE
  5
4FA
100
AcDbEntity
  8
0
100
AcDbSpline
 62
7
  6
CONTINUOUS
 70
0
 71
3
 72
17
 73
13
 74
11
 42
0.0000001
 43
0.0000001
 44
0.0000000001
 12
-0.1487434696
 22
0.2576312467
 32
0.0
 13
0.1487434696
 23
0.2576312467
 33
0.0
 40
0.0
 40
0.0
 40
0.0
 40
0.0
 40
0.1169386465
 40
0.2216811606
 40
0.3184580982
 40
0.4103908543
 40
0.5000417254
 40
0.5896883004
 40
0.6816074548
 40
0.7783545182
 40
0.8830694657
 40
1.0
 40
1.0
 40
1.0
 40
1.0
 10
3.5604131763
 20
4.2556521826
 30
0.0
 10
3.554615223
 20
4.2656945324
 30
0.0
 10
3.5442753953
 20
4.2851243798
 30
0.0
 10
3.5319017719
 20
4.3142264574
 30
0.0
 10
3.5232483252
 20
4.3420680201
 30
0.0
 10
3.5180912206
 20
4.3692513397
 30
0.0
 10
3.5163743403
 20
4.3961642246
 30
0.0
 10
3.5180942259
 20
4.4230755494
 30
0.0
 10
3.5232529775
 20
4.45025369
 30
0.0
 10
3.5319058294
 20
4.478087996
 30
0.0
 10
3.5442774168
 20
4.5071838357
 30
0.0
 10
3.5546156252
 20
4.5266105295
 30
0.0
 10
3.5604131763
 20
4.5366521826
 30
0.0
 11
3.5604131763
 21
4.2556521826
 31
0.0
 11
3.5441869449
 21
4.2864238396
 31
0.0
 11
3.5321021884
 21
4.3151444762
 31
0.0
 11
3.5236495151
 21
4.3426655448
 31
0.0
 11
3.5186166297
 21
4.36954726
 31
0.0
 11
3.5169423254
 21
4.3961646161
 31
0.0
 11
3.5186195677
 21
4.4227805066
 31
0.0
 11
3.5236542144
 21
4.4496577753
 31
0.0
 11
3.5321058294
 21
4.4771698719
 31
0.0
 11
3.5441879806
 21
4.5058827076
 31
0.0
 11
3.5604131763
 21
4.5366521826
 31
0.0
  0
SPLINE
  5
4FB
100
AcDbEntity
  8
0
100
AcDbSpline
 62
7
  6
CONTINUOUS
 70
0
 71
3
 72
11
 73
7
 74
5
 42
0.0000001
 43
0.0000001
 44
0.0000000001
 12
0.0493070456
 22
0.0
 32
0.0
 13
0.0353293237
 23
-0.0345225368
 33
0.0
 40
0.0
 40
0.0
 40
0.0
 40
0.0
 40
0.2817746339
 40
0.5708588966
 40
0.8560480209
 40
1.0
 40
1.0
 40
1.0
 40
1.0
 10
6.474942325
 20
4.1967699211
 30
0.0
 10
6.4795734833
 20
4.1967699211
 30
0.0
 10
6.4889886783
 20
4.1957118895
 30
0.0
 10
6.5023761788
 20
4.1910266471
 30
0.0
 10
6.5124788099
 20
4.184741604
 30
0.0
 10
6.517804386
 20
4.1800811782
 30
0.0
 10
6.5194996281
 20
4.178424649
 30
0.0
 11
6.474942325
 21
4.1967699211
 31
0.0
 11
6.4887493004
 21
4.1952219968
 31
0.0
 11
6.5022082416
 21
4.1905283511
 31
0.0
 11
6.5141515651
 21
4.1831059408
 31
0.0
 11
6.5194996281
 21
4.178424649
 31
0.0
  0
SPLINE
  5
4FC
100
AcDbEntity
  8
0
100
AcDbSpline
 62
7
  6
CONTINUOUS
 70
0
 71
3
 72
8
 73
4
 74
2
 42
0.0000001
 43
0.0000001
 44
0.0000000001
 12
-0.0129761193
 22
0.0
 32
0.0
 13
-0.0127309744
 23
-0.002687386
 33
0.0
 40
0.0
 40
0.0
 40
0.0
 40
0.0
 40
1.0
 40
1.0
 40
1.0
 40
1.0
 10
6.474942325
 20
4.1967699211
 30
0.0
 10
6.4706169519
 20
4.1967699211
 30
0.0
 10
6.4662774432
 20
4.196314343
 30
0.0
 10
6.462033785
 20
4.1954185477
 30
0.0
 11
6.474942325
 21
4.1967699211
 31
0.0
 11
6.462033785
 21
4.1954185477
 31
0.0
  0
SPLINE
  5
4FD
100
AcDbEntity
  8
0
100
AcDbSpline
 62
7
  6
CONTINUOUS
 70
0
 71
3
 72
8
 73
4
 74
2
 42
0.0000001
 43
0.0000001
 44
0.0000000001
 12
0.0127847929
 22
-0.0027111032
 32
0.0
 13
0.0130337883
 23
0.0
 33
0.0
 40
0.0
 40
0.0
 40
0.0
 40
0.0
 40
1.0
 40
1.0
 40
1.0
 40
1.0
 10
6.4619773138
 20
4.3158977566
 30
0.0
 10
6.4662389115
 20
4.3149940555
 30
0.0
 10
6.4705977289
 20
4.3145344441
 30
0.0
 10
6.474942325
 20
4.3145344441
 30
0.0
 11
6.4619773138
 21
4.3158977566
 31
0.0
 11
6.474942325
 21
4.3145344441
 31
0.0
  0
SPLINE
  5
4FE
100
AcDbEntity
  8
0
100
AcDbSpline
 62
7
  6
CONTINUOUS
 70
0
 71
3
 72
11
 73
7
 74
5
 42
0.0000001
 43
0.0000001
 44
0.0000000001
 12
-0.0353376004
 22
-0.0345791662
 32
0.0
 13
-0.0493522405
 23
0.0
 33
0.0
 40
0.0
 40
0.0
 40
0.0
 40
0.0
 40
0.1442180141
 40
0.4287732719
 40
0.7178359384
 40
1.0
 40
1.0
 40
1.0
 40
1.0
 10
6.5195320924
 20
4.332911463
 30
0.0
 10
6.5178333195
 20
4.3312491501
 30
0.0
 10
6.5125099148
 20
4.3265854923
 30
0.0
 10
6.5024071417
 20
4.3202928583
 30
0.0
 10
6.4890141962
 20
4.3155966206
 30
0.0
 10
6.4795841346
 20
4.3145344441
 30
0.0
 10
6.474942325
 20
4.3145344441
 30
0.0
 11
6.5195320924
 21
4.332911463
 31
0.0
 11
6.514171812
 21
4.3282142867
 31
0.0
 11
6.5022481083
 21
4.3207951571
 31
0.0
 11
6.4887806564
 21
4.3160894836
 31
0.0
 11
6.474942325
 21
4.3145344441
 31
0.0
  0
SPLINE
  5
4FF
100
AcDbEntity
  8
0
100
AcDbSpline
 62
7
  6
CONTINUOUS
 70
0
 71
3
 72
14
 73
10
 74
8
 42
0.0000001
 43
0.0000001
 44
0.0000000001
 12
-0.1085118701
 22
0.0
 32
0.0
 13
-0.0000340041
 23
-0.1090536841
 33
0.0
 40
0.0
 40
0.0
 40
0.0
 40
0.0
 40
0.1715768662
 40
0.3416073522
 40
0.5070332818
 40
0.6635337576
 40
0.8075580364
 40
0.9384900408
 40
1.0
 40
1.0
 40
1.0
 40
1.0
 10
6.510942325
 20
4.052163901
 30
0.0
 10
6.5047362828
 20
4.052163901
 30
0.0
 10
6.4923424774
 20
4.0508912909
 30
0.0
 10
6.4747465109
 20
4.045294585
 30
0.0
 10
6.4591500057
 20
4.0364517714
 30
0.0
 10
6.4465088437
 20
4.0250921287
 30
0.0
 10
6.4375636037
 20
4.0121043157
 30
0.0
 10
6.4335432275
 20
4.0004295913
 30
0.0
 10
6.4329466203
 20
3.9934300436
 30
0.0
 10
6.4329459231
 20
3.9911940811
 30
0.0
 11
6.510942325
 21
4.052163901
 31
0.0
 11
6.4924222811
 21
4.0502553379
 31
0.0
 11
6.4748453291
 21
4.0446459453
 31
0.0
 11
6.4592557893
 21
4.0357468973
 31
0.0
 11
6.4466917292
 21
4.024321569
 31
0.0
 11
6.4379548269
 21
4.0113634954
 31
0.0
 11
6.4335019729
 21
3.9978716398
 31
0.0
 11
6.4329459231
 21
3.9911940811
 31
0.0
  0
SPLINE
  5
500
100
AcDbEntity
  8
0
100
AcDbSpline
 62
7
  6
CONTINUOUS
 70
0
 71
3
 72
14
 73
10
 74
8
 42
0.0000001
 43
0.0000001
 44
0.0000000001
 12
0.1085118852
 22
0.0
 32
0.0
 13
0.000033958
 23
0.1090537098
 33
0.0
 40
0.0
 40
0.0
 40
0.0
 40
0.0
 40
0.1715751793
 40
0.3416037879
 40
0.5070273993
 40
0.6635274482
 40
0.8075545457
 40
0.9384893619
 40
1.0
 40
1.0
 40
1.0
 40
1.0
 10
6.510942325
 20
4.4591404642
 30
0.0
 10
6.5171483071
 20
4.4591404642
 30
0.0
 10
6.5295419842
 20
4.4604130487
 30
0.0
 10
6.547137764
 20
4.4660096344
 30
0.0
 10
6.5627341732
 20
4.4748522717
 30
0.0
 10
6.5753754343
 20
4.4862118071
 30
0.0
 10
6.5843208979
 20
4.4991997042
 30
0.0
 10
6.5883414087
 20
4.5108746363
 30
0.0
 10
6.5889380305
 20
4.5178743131
 30
0.0
 10
6.5889387267
 20
4.5201103009
 30
0.0
 11
6.510942325
 21
4.4591404642
 31
0.0
 11
6.5294621913
 21
4.4610489902
 31
0.0
 11
6.5470389696
 21
4.4666582658
 31
0.0
 11
6.5626283471
 21
4.4755570957
 31
0.0
 11
6.5751924752
 21
4.4869822839
 31
0.0
 11
6.583929659
 21
4.4999405391
 31
0.0
 11
6.5883826675
 21
4.5134326671
 31
0.0
 11
6.5889387267
 21
4.5201103009
 31
0.0
  0
SPLINE
  5
501
100
AcDbEntity
  8
0
100
AcDbSpline
 62
7
  6
CONTINUOUS
 70
0
 71
3
 72
14
 73
10
 74
8
 42
0.0000001
 43
0.0000001
 44
0.0000000001
 12
0.0000337781
 22
-0.1090538087
 32
0.0
 13
0.1085119429
 23
-0.0
 33
0.0
 40
0.0
 40
0.0
 40
0.0
 40
0.0
 40
0.0615124286
 40
0.192458329
 40
0.3364950373
 40
0.492992175
 40
0.658409111
 40
0.8284332509
 40
1.0
 40
1.0
 40
1.0
 40
1.0
 10
6.4329459243
 20
4.5201103652
 30
0.0
 10
6.4329466169
 20
4.5178743103
 30
0.0
 10
6.4335432848
 20
4.510874157
 30
0.0
 10
6.4375642749
 20
4.4991984805
 30
0.0
 10
6.446510523
 20
4.48621031
 30
0.0
 10
6.4591521167
 20
4.4748511503
 30
0.0
 10
6.4747482571
 20
4.466009084
 30
0.0
 10
6.4923434331
 20
4.4604129386
 30
0.0
 10
6.5047366446
 20
4.4591404642
 30
0.0
 10
6.510942325
 20
4.4591404642
 30
0.0
 11
6.4329459243
 21
4.5201103652
 31
0.0
 11
6.4335020051
 21
4.5134325314
 31
0.0
 11
6.4379555958
 21
4.4999393211
 31
0.0
 11
6.4466937614
 21
4.48698046
 31
0.0
 11
6.4592580092
 21
4.4755558595
 31
0.0
 11
6.4748469511
 21
4.4666577085
 31
0.0
 11
6.4924233492
 21
4.4610488045
 31
0.0
 11
6.510942325
 21
4.4591404642
 31
0.0
  0
SPLINE
  5
502
100
AcDbEntity
  8
0
100
AcDbSpline
 62
7
  6
CONTINUOUS
 70
0
 71
3
 72
9
 73
5
 74
3
 42
0.0000001
 43
0.0000001
 44
0.0000000001
 12
-0.0036583847
 22
0.0013845035
 32
0.0
 13
-0.0037128186
 23
0.001225378
 33
0.0
 40
0.0
 40
0.0
 40
0.0
 40
0.0
 40
0.4581455571
 40
1.0
 40
1.0
 40
1.0
 40
1.0
 10
6.5566683019
 20
4.472248601
 30
0.0
 10
6.556109611
 20
4.4724600357
 30
0.0
 10
6.5548854167
 20
4.4729088423
 30
0.0
 10
6.553652263
 20
4.473331145
 30
0.0
 10
6.5529816605
 20
4.4735524705
 30
0.0
 11
6.5566683019
 21
4.472248601
 31
0.0
 11
6.5549860121
 21
4.4728657101
 31
0.0
 11
6.5529816605
 21
4.4735524705
 31
0.0
  0
SPLINE
  5
503
100
AcDbEntity
  8
0
100
AcDbSpline
 62
7
  6
CONTINUOUS
 70
0
 71
3
 72
10
 73
6
 74
4
 42
0.0000001
 43
0.0000001
 44
0.0000000001
 12
-0.0405147441
 22
0.0133714788
 32
0.0
 13
-0.0426301901
 23
-0.0
 33
0.0
 40
0.0
 40
0.0
 40
0.0
 40
0.0
 40
0.2819093883
 40
0.6354143845
 40
1.0
 40
1.0
 40
1.0
 40
1.0
 10
6.5529816605
 20
4.4735524705
 30
0.0
 10
6.5491744983
 20
4.4748089856
 30
0.0
 10
6.540418013
 20
4.4770961947
 30
0.0
 10
6.5263344136
 20
4.4791733134
 30
0.0
 10
6.5161231097
 20
4.4796517661
 30
0.0
 10
6.510942325
 20
4.4796517661
 30
0.0
 11
6.5529816605
 21
4.4735524705
 31
0.0
 11
6.5413667756
 21
4.4766480674
 31
0.0
 11
6.526466718
 21
4.4789047771
 31
0.0
 11
6.510942325
 21
4.4796517661
 31
0.0
  0
SPLINE
  5
504
100
AcDbEntity
  8
0
100
AcDbSpline
 62
7
  6
CONTINUOUS
 70
0
 71
3
 72
11
 73
7
 74
5
 42
0.0000001
 43
0.0000001
 44
0.0000000001
 12
0.0435790209
 22
-0.0164922394
 32
0.0
 13
0.046536718
 23
0.0
 33
0.0
 40
0.0
 40
0.0
 40
0.0
 40
0.0
 40
0.0385183825
 40
0.3422329219
 40
0.6660422564
 40
1.0
 40
1.0
 40
1.0
 40
1.0
 10
6.4652164937
 20
4.0390557085
 30
0.0
 10
6.4657760249
 20
4.0388439571
 30
0.0
 10
6.4707667406
 20
4.0370143913
 30
0.0
 10
6.4807692467
 20
4.0343109544
 30
0.0
 10
6.495551263
 20
4.0321309884
 30
0.0
 10
6.5057618926
 20
4.0316525991
 30
0.0
 10
6.510942325
 20
4.0316525991
 30
0.0
 11
6.4652164937
 21
4.0390557085
 31
0.0
 11
6.4669013229
 21
4.0384377006
 31
0.0
 11
6.4805198526
 21
4.0346558821
 31
0.0
 11
6.495418985
 21
4.0323994851
 31
0.0
 11
6.510942325
 21
4.0316525991
 31
0.0
  0
SPLINE
  5
505
100
AcDbEntity
  8
0
100
AcDbSpline
 62
7
  6
CONTINUOUS
 70
0
 71
3
 72
14
 73
10
 74
8
 42
0.0000001
 43
0.0000001
 44
0.0000000001
 12
-0.000033825
 22
0.1090537824
 32
0.0
 13
-0.1085119279
 23
0.0
 33
0.0
 40
0.0
 40
0.0
 40
0.0
 40
0.0
 40
0.0615119146
 40
0.1924550447
 40
0.3364892951
 40
0.4929861139
 40
0.6584056127
 40
0.8284316286
 40
1.0
 40
1.0
 40
1.0
 40
1.0
 10
6.588938726
 20
3.9911940168
 30
0.0
 10
6.5889380324
 20
3.9934300524
 30
0.0
 10
6.5883413768
 20
4.0004300841
 30
0.0
 10
6.5843205096
 20
4.0121055708
 30
0.0
 10
6.5753744826
 20
4.0250936413
 30
0.0
 10
6.5627329904
 20
4.0364529007
 30
0.0
 10
6.5471367699
 20
4.0452951356
 30
0.0
 10
6.5295414006
 20
4.0508914018
 30
0.0
 10
6.5171480633
 20
4.052163901
 30
0.0
 10
6.510942325
 20
4.052163901
 30
0.0
 11
6.588938726
 21
3.9911940168
 31
0.0
 11
6.5883826516
 21
3.9978717933
 31
0.0
 11
6.5839292084
 21
4.0113647337
 31
0.0
 11
6.5751912937
 21
4.0243234396
 31
0.0
 11
6.5626271704
 21
4.0357481221
 31
0.0
 11
6.5470380438
 21
4.0446465055
 31
0.0
 11
6.5294614715
 21
4.0502555251
 31
0.0
 11
6.510942325
 21
4.052163901
 31
0.0
  0
SPLINE
  5
506
100
AcDbEntity
  8
0
100
AcDbSpline
 62
7
  6
CONTINUOUS
 70
0
 71
3
 72
22
 73
18
 74
16
 42
0.0000001
 43
0.0000001
 44
0.0000000001
 12
0.1538254178
 22
0.0320812678
 32
0.0
 13
0.1538254178
 23
-0.0320812676
 33
0.0
 40
0.0
 40
0.0
 40
0.0
 40
0.0
 40
0.0110671741
 40
0.0437507038
 40
0.0964532488
 40
0.1664062953
 40
0.2509986076
 40
0.3459538752
 40
0.4481201705
 40
0.5520569274
 40
0.6542454474
 40
0.7492441645
 40
0.8338037733
 40
0.9037172537
 40
0.9563282081
 40
0.9889596561
 40
1.0
 40
1.0
 40
1.0
 40
1.0
 10
6.432942325
 20
3.8816521826
 30
0.0
 10
6.4335097959
 20
3.8817705323
 30
0.0
 10
6.4357540993
 20
3.8822337117
 30
0.0
 10
6.4407103238
 20
3.8832138023
 30
0.0
 10
6.4487176026
 20
3.8846609127
 30
0.0
 10
6.4594447949
 20
3.8863330253
 30
0.0
 10
6.4724165619
 20
3.8879413177
 30
0.0
 10
6.4871216138
 20
3.8892097421
 30
0.0
 10
6.5028802111
 20
3.8899069472
 30
0.0
 10
6.5190334344
 20
3.8899063318
 30
0.0
 10
6.534795415
 20
3.8892077054
 30
0.0
 10
6.5495020736
 20
3.8879377634
 30
0.0
 10
6.5624721899
 20
3.8863284523
 30
0.0
 10
6.5731907724
 20
3.8846568481
 30
0.0
 10
6.5811885337
 20
3.8832110582
 30
0.0
 10
6.5861359768
 20
3.8822326006
 30
0.0
 10
6.5883762299
 20
3.8817702453
 30
0.0
 10
6.588942325
 20
3.8816521826
 30
0.0
 11
6.432942325
 21
3.8816521826
 31
0.0
 11
6.4346454776
 21
3.8820036727
 31
0.0
 11
6.4396836831
 21
3.8829998056
 31
0.0
 11
6.4478332155
 21
3.8844719572
 31
0.0
 11
6.4586943691
 21
3.886163551
 31
0.0
 11
6.4718860569
 21
3.8877970588
 31
0.0
 11
6.4867518625
 21
3.8890772537
 31
0.0
 11
6.5027901679
 21
3.8897854614
 31
0.0
 11
6.519122304
 21
3.8897848404
 31
0.0
 11
6.5351640413
 21
3.8890751899
 31
0.0
 11
6.5500365303
 21
3.887793029
 31
0.0
 11
6.5632229664
 21
3.8861589276
 31
0.0
 11
6.5740778482
 21
3.8844674654
 31
0.0
 11
6.5822131463
 21
3.8829974765
 31
0.0
 11
6.5872433032
 21
3.8820028292
 31
0.0
 11
6.588942325
 21
3.8816521826
 31
0.0
  0
SPLINE
  5
507
100
AcDbEntity
  8
0
100
AcDbSpline
 62
7
  6
CONTINUOUS
 70
0
 71
3
 72
10
 73
6
 74
4
 42
0.0000001
 43
0.0000001
 44
0.0000000001
 12
-0.0466258301
 22
0.0
 32
0.0
 13
-0.0436398738
 23
-0.016580013
 33
0.0
 40
0.0
 40
0.0
 40
0.0
 40
0.0
 40
0.3503853902
 40
0.6888035084
 40
1.0
 40
1.0
 40
1.0
 40
1.0
 10
6.510942325
 20
4.4796517661
 30
0.0
 10
6.5054966551
 20
4.4796517661
 30
0.0
 10
6.4947828952
 20
4.4791247982
 30
0.0
 10
6.4793941299
 20
4.4767307669
 30
0.0
 10
6.4696577798
 20
4.4739358422
 30
0.0
 10
6.4651309213
 20
4.4722159615
 30
0.0
 11
6.510942325
 21
4.4796517661
 31
0.0
 11
6.4946262337
 21
4.4788252984
 31
0.0
 11
6.4790458975
 21
4.4763291466
 31
0.0
 11
6.4651309213
 21
4.4722159615
 31
0.0
  0
SPLINE
  5
508
100
AcDbEntity
  8
0
100
AcDbSpline
 62
7
  6
CONTINUOUS
 70
0
 71
3
 72
10
 73
6
 74
4
 42
0.0000001
 43
0.0000001
 44
0.0000000001
 12
0.042629474
 22
0.0
 32
0.0
 13
0.040514255
 23
0.0133708414
 33
0.0
 40
0.0
 40
0.0
 40
0.0
 40
0.0
 40
0.364221219
 40
0.7173549225
 40
1.0
 40
1.0
 40
1.0
 40
1.0
 10
6.510942325
 20
4.0316525991
 30
0.0
 10
6.5161178447
 20
4.0316525991
 30
0.0
 10
6.5263185
 20
4.0321300787
 30
0.0
 10
6.5404021328
 20
4.0342048639
 30
0.0
 10
6.5491638743
 20
4.036491928
 30
0.0
 10
6.5529809259
 20
4.0377516622
 30
0.0
 11
6.510942325
 21
4.0316525991
 31
0.0
 11
6.5264509786
 21
4.0323980506
 31
0.0
 11
6.5413355323
 21
4.0346497359
 31
0.0
 11
6.5529809259
 21
4.0377516622
 31
0.0
  0
SPLINE
  5
509
100
AcDbEntity
  8
0
100
AcDbSpline
 62
7
  6
CONTINUOUS
 70
0
 71
3
 72
9
 73
5
 74
3
 42
0.0000001
 43
0.0000001
 44
0.0000000001
 12
0.0037116926
 22
0.0012249627
 32
0.0
 13
0.0036572887
 23
0.0013839843
 33
0.0
 40
0.0
 40
0.0
 40
0.0
 40
0.0
 40
0.5308635515
 40
1.0
 40
1.0
 40
1.0
 40
1.0
 10
6.5529809259
 20
4.0377516622
 30
0.0
 10
6.5536377267
 20
4.0379684248
 30
0.0
 10
6.5548706009
 20
4.0383902979
 30
0.0
 10
6.5560945434
 20
4.0388386337
 30
0.0
 10
6.5566664659
 20
4.0390550596
 30
0.0
 11
6.5529809259
 21
4.0377516622
 31
0.0
 11
6.5549441855
 21
4.0384237965
 31
0.0
 11
6.5566664659
 21
4.0390550596
 31
0.0
  0
SPLINE
  5
50A
100
AcDbEntity
  8
0
100
AcDbSpline
 62
7
  6
CONTINUOUS
 70
0
 71
3
 72
22
 73
18
 74
16
 42
0.0000001
 43
0.0000001
 44
0.0000000001
 12
-0.1538254178
 22
-0.0320812678
 32
0.0
 13
-0.1538254178
 23
0.0320812676
 33
0.0
 40
0.0
 40
0.0
 40
0.0
 40
0.0
 40
0.0110671741
 40
0.0437507038
 40
0.0964532488
 40
0.1664062953
 40
0.2509986076
 40
0.3459538752
 40
0.4481201705
 40
0.5520569274
 40
0.6542454474
 40
0.7492441645
 40
0.8338037733
 40
0.9037172537
 40
0.9563282081
 40
0.9889596561
 40
1.0
 40
1.0
 40
1.0
 40
1.0
 10
6.588942325
 20
4.6296521826
 30
0.0
 10
6.5883748541
 20
4.6295338329
 30
0.0
 10
6.5861305507
 20
4.6290706535
 30
0.0
 10
6.5811743263
 20
4.6280905629
 30
0.0
 10
6.5731670475
 20
4.6266434525
 30
0.0
 10
6.5624398552
 20
4.6249713399
 30
0.0
 10
6.5494680881
 20
4.6233630474
 30
0.0
 10
6.5347630362
 20
4.6220946231
 30
0.0
 10
6.5190044389
 20
4.621397418
 30
0.0
 10
6.5028512156
 20
4.6213980334
 30
0.0
 10
6.4870892351
 20
4.6220966598
 30
0.0
 10
6.4723825764
 20
4.6233666018
 30
0.0
 10
6.4594124601
 20
4.6249759129
 30
0.0
 10
6.4486938777
 20
4.6266475171
 30
0.0
 10
6.4406961164
 20
4.628093307
 30
0.0
 10
6.4357486733
 20
4.6290717645
 30
0.0
 10
6.4335084202
 20
4.6295341199
 30
0.0
 10
6.432942325
 20
4.6296521826
 30
0.0
 11
6.588942325
 21
4.6296521826
 31
0.0
 11
6.5872391724
 21
4.6293006925
 31
0.0
 11
6.582200967
 21
4.6283045596
 31
0.0
 11
6.5740514345
 21
4.626832408
 31
0.0
 11
6.563190281
 21
4.6251408142
 31
0.0
 11
6.5499985932
 21
4.6235073064
 31
0.0
 11
6.5351327876
 21
4.6222271115
 31
0.0
 11
6.5190944822
 21
4.6215189038
 31
0.0
 11
6.5027623461
 21
4.6215195248
 31
0.0
 11
6.4867206087
 21
4.6222291752
 31
0.0
 11
6.4718481198
 21
4.6235113362
 31
0.0
 11
6.4586616837
 21
4.6251454376
 31
0.0
 11
6.4478068018
 21
4.6268368998
 31
0.0
 11
6.4396715038
 21
4.6283068887
 31
0.0
 11
6.4346413469
 21
4.629301536
 31
0.0
 11
6.432942325
 21
4.6296521826
 31
0.0
  0
SPLINE
  5
50B
100
AcDbEntity
  8
0
100
AcDbSpline
 62
7
  6
CONTINUOUS
 70
0
 71
3
 72
14
 73
10
 74
8
 42
0.0000001
 43
0.0000001
 44
0.0000000001
 12
-0.1019147034
 22
0.0
 32
0.0
 13
0.0000317245
 23
-0.1024236251
 33
0.0
 40
0.0
 40
0.0
 40
0.0
 40
0.0
 40
0.182152011
 40
0.3585160735
 40
0.5234214201
 40
0.6730871348
 40
0.8084327232
 40
0.9360540632
 40
1.0
 40
1.0
 40
1.0
 40
1.0
 10
6.510942325
 20
4.5694491221
 30
0.0
 10
6.5047543356
 20
4.5694491221
 30
0.0
 10
6.4925582095
 20
4.5686516647
 30
0.0
 10
6.4750855147
 20
4.5650221937
 30
0.0
 10
6.4594551086
 20
4.5589287742
 30
0.0
 10
6.4466013398
 20
4.5503762735
 30
0.0
 10
6.4374110277
 20
4.5394785079
 30
0.0
 10
6.4334858549
 20
4.5288301996
 30
0.0
 10
6.4329452481
 20
4.5222935567
 30
0.0
 10
6.4329459243
 20
4.5201103652
 30
0.0
 11
6.510942325
 21
4.5694491221
 31
0.0
 11
6.4924202333
 21
4.5682029156
 31
0.0
 11
6.4748436977
 21
4.5644434808
 31
0.0
 11
6.4592524877
 21
4.5581693115
 31
0.0
 11
6.446687111
 21
4.549522376
 31
0.0
 11
6.4379540977
 21
4.5388452608
 31
0.0
 11
6.4335022142
 21
4.5266243958
 31
0.0
 11
6.4329459243
 21
4.5201103652
 31
0.0
  0
SPLINE
  5
50C
100
AcDbEntity
  8
0
100
AcDbSpline
 62
7
  6
CONTINUOUS
 70
0
 71
3
 72
14
 73
10
 74
8
 42
0.0000001
 43
0.0000001
 44
0.0000000001
 12
0.0000318935
 22
0.102423651
 32
0.0
 13
-0.1019147673
 23
0.0
 33
0.0
 40
0.0
 40
0.0
 40
0.0
 40
0.0
 40
0.063943423
 40
0.1915648604
 40
0.3269101532
 40
0.4765761094
 40
0.641481986
 40
0.8178467069
 40
1.0
 40
1.0
 40
1.0
 40
1.0
 10
6.5889387267
 20
4.5201103009
 30
0.0
 10
6.5889394065
 20
4.5222934071
 30
0.0
 10
6.5883988378
 20
4.5288299709
 30
0.0
 10
6.5844737869
 20
4.5394782335
 30
0.0
 10
6.575283544
 20
4.5503760742
 30
0.0
 10
6.5624297919
 20
4.5589286529
 30
0.0
 10
6.5467993457
 20
4.5650221375
 30
0.0
 10
6.529326562
 20
4.5686516539
 30
0.0
 10
6.5171303619
 20
4.5694491221
 30
0.0
 10
6.510942325
 20
4.5694491221
 30
0.0
 11
6.5889387267
 21
4.5201103009
 31
0.0
 11
6.5883824907
 21
4.5266240815
 31
0.0
 11
6.5839307023
 21
4.5388450004
 31
0.0
 11
6.5751977774
 21
4.5495221602
 31
0.0
 11
6.5626324158
 21
4.558169178
 31
0.0
 11
6.5470411644
 21
4.5644434173
 31
0.0
 11
6.5294645581
 21
4.5682028962
 31
0.0
 11
6.510942325
 21
4.5694491221
 31
0.0
  0
SPLINE
  5
50D
100
AcDbEntity
  8
0
100
AcDbSpline
 62
7
  6
CONTINUOUS
 70
0
 71
3
 72
14
 73
10
 74
8
 42
0.0000001
 43
0.0000001
 44
0.0000000001
 12
-0.0000319368
 22
-0.1024236578
 32
0.0
 13
0.1019147839
 23
0.0
 33
0.0
 40
0.0
 40
0.0
 40
0.0
 40
0.0
 40
0.063942938
 40
0.1915644764
 40
0.3269098347
 40
0.4765758152
 40
0.6414817639
 40
0.8178465803
 40
1.0
 40
1.0
 40
1.0
 40
1.0
 10
6.4329459231
 20
3.9911940811
 30
0.0
 10
6.4329452424
 20
3.9890109912
 30
0.0
 10
6.4334858033
 20
3.9824744396
 30
0.0
 10
6.4374108335
 20
3.9718261784
 30
0.0
 10
6.4466010709
 20
3.9609283204
 30
0.0
 10
6.4594548244
 20
3.9523757285
 30
0.0
 10
6.4750852774
 20
3.9462822348
 30
0.0
 10
6.4925580732
 20
3.9426527126
 30
0.0
 10
6.5047542829
 20
3.9418552431
 30
0.0
 10
6.510942325
 20
3.9418552431
 30
0.0
 11
6.4329459231
 21
3.9911940811
 31
0.0
 11
6.433502148
 21
3.9846803484
 31
0.0
 11
6.4379539213
 21
3.9724594108
 31
0.0
 11
6.44668684
 21
3.9617822344
 31
0.0
 11
6.4592521999
 21
3.9531352053
 31
0.0
 11
6.4748434582
 21
3.9468609561
 31
0.0
 11
6.4924200761
 21
3.9431014711
 31
0.0
 11
6.510942325
 21
3.9418552431
 31
0.0
  0
SPLINE
  5
50E
100
AcDbEntity
  8
0
100
AcDbSpline
 62
7
  6
CONTINUOUS
 70
0
 71
3
 72
14
 73
10
 74
8
 42
0.0000001
 43
0.0000001
 44
0.0000000001
 12
0.1019147199
 22
0.0
 32
0.0
 13
-0.0000317685
 23
0.1024236313
 33
0.0
 40
0.0
 40
0.0
 40
0.0
 40
0.0
 40
0.1821521891
 40
0.3585163809
 40
0.5234218269
 40
0.6730875713
 40
0.8084332396
 40
0.9360547228
 40
1.0
 40
1.0
 40
1.0
 40
1.0
 10
6.510942325
 20
3.9418552431
 30
0.0
 10
6.5171303215
 20
3.9418552431
 30
0.0
 10
6.5293264601
 20
3.9426527022
 30
0.0
 10
6.5467991706
 20
3.9462821808
 30
0.0
 10
6.5624295849
 20
3.952375612
 30
0.0
 10
6.5752833549
 20
3.9609281291
 30
0.0
 10
6.5844736599
 20
3.9718259166
 30
0.0
 10
6.588398806
 20
3.9824742216
 30
0.0
 10
6.5889394031
 20
3.9890108476
 30
0.0
 10
6.588938726
 20
3.9911940168
 30
0.0
 11
6.510942325
 21
3.9418552431
 31
0.0
 11
6.5294644378
 21
3.9431014525
 31
0.0
 11
6.5470409881
 21
3.9468608951
 31
0.0
 11
6.5626322069
 21
3.9531350771
 31
0.0
 11
6.5751975806
 21
3.9617820267
 31
0.0
 11
6.5839305856
 21
3.9724591622
 31
0.0
 11
6.5883824502
 21
3.9846800518
 31
0.0
 11
6.588938726
 21
3.9911940168
 31
0.0
  0
SPLINE
  5
50F
100
AcDbEntity
  8
127-410_FEATURES
100
AcDbSpline
 62
7
  6
CONTINUOUS
 70
0
 71
3
 72
15
 73
11
 74
9
 42
0.0000001
 43
0.0000001
 44
0.0000000001
 12
-0.0999118987
 22
-0.0221420612
 32
0.0
 13
-0.1023360934
 23
0.0
 33
0.0
 40
0.0
 40
0.0
 40
0.0
 40
0.0
 40
0.0182471882
 40
0.0767712652
 40
0.1711412062
 40
0.2959581781
 40
0.4469050226
 40
0.6194995954
 40
0.8065968056
 40
1.0
 40
1.0
 40
1.0
 40
1.0
 10
5.614442325
 20
4.7136521826
 30
0.0
 10
5.6138346213
 20
4.7135175058
 30
0.0
 10
5.6112768077
 20
4.7129554931
 30
0.0
 10
5.6055653312
 20
4.7117461396
 30
0.0
 10
5.5962677729
 20
4.7099268948
 30
0.0
 10
5.5838235786
 20
4.7077833768
 30
0.0
 10
5.5686788669
 20
4.7056295487
 30
0.0
 10
5.551353201
 20
4.7037880827
 30
0.0
 10
5.5325211941
 20
4.702551577
 30
0.0
 10
5.5195397008
 20
4.7022635909
 30
0.0
 10
5.512942325
 20
4.7022635909
 30
0.0
 11
5.614442325
 21
4.7136521826
 31
0.0
 11
5.6126184851
 21
4.7132514471
 31
0.0
 11
5.6067592283
 21
4.7120109903
 31
0.0
 11
5.5972813659
 21
4.7101572143
 31
0.0
 11
5.5846931973
 21
4.7079904826
 31
0.0
 11
5.569399434
 21
4.70581788
 31
0.0
 11
5.551835411
 21
4.7039538914
 31
0.0
 11
5.5327296025
 21
4.7027017172
 31
0.0
 11
5.512942325
 21
4.7022635909
 31
0.0
  0
SPLINE
  5
510
100
AcDbEntity
  8
127-410_FEATURES
100
AcDbSpline
 62
7
  6
CONTINUOUS
 70
0
 71
3
 72
15
 73
11
 74
9
 42
0.0000001
 43
0.0000001
 44
0.0000000001
 12
-0.1023360977
 22
0.0
 32
0.0
 13
-0.0999119004
 23
0.022142062
 33
0.0
 40
0.0
 40
0.0
 40
0.0
 40
0.0
 40
0.193309461
 40
0.380468101
 40
0.5530909897
 40
0.7039756037
 40
0.8283813005
 40
0.9226934012
 40
0.9815835346
 40
1.0
 40
1.0
 40
1.0
 40
1.0
 10
5.512942325
 20
4.7022635909
 30
0.0
 10
5.5063481464
 20
4.7022635909
 30
0.0
 10
5.4933677573
 20
4.7025514125
 30
0.0
 10
5.4745358627
 20
4.7037876418
 30
0.0
 10
5.4572092542
 20
4.7056291382
 30
0.0
 10
5.4420795643
 20
4.7077807118
 30
0.0
 10
5.4296531209
 20
4.7099204351
 30
0.0
 10
5.4203588247
 20
4.7117380423
 30
0.0
 10
5.4146313256
 20
4.7129503678
 30
0.0
 10
5.4120556664
 20
4.7135162564
 30
0.0
 10
5.411442325
 20
4.7136521826
 30
0.0
 11
5.512942325
 21
4.7022635909
 31
0.0
 11
5.493164632
 21
4.702701293
 31
0.0
 11
5.4740525318
 21
4.7039536058
 31
0.0
 11
5.456485619
 21
4.7058178295
 31
0.0
 11
5.4411981438
 21
4.7079894213
 31
0.0
 11
5.4286513304
 21
4.7101483011
 31
0.0
 11
5.4191790851
 21
4.7119999613
 31
0.0
 11
5.4132830914
 21
4.7132477604
 31
0.0
 11
5.411442325
 21
4.7136521826
 31
0.0
  0
SPLINE
  5
511
100
AcDbEntity
  8
127-410_FEATURES
100
AcDbSpline
 62
7
  6
CONTINUOUS
 70
0
 71
3
 72
15
 73
11
 74
9
 42
0.0000001
 43
0.0000001
 44
0.0000000001
 12
0.1023360972
 22
0.0
 32
0.0
 13
0.0999119002
 23
-0.0221420619
 33
0.0
 40
0.0
 40
0.0
 40
0.0
 40
0.0
 40
0.193323
 40
0.3804709567
 40
0.5531093709
 40
0.7039989376
 40
0.8284395159
 40
0.9227224844
 40
0.9815650052
 40
1.0
 40
1.0
 40
1.0
 40
1.0
 10
5.512942325
 20
3.8090407743
 30
0.0
 10
5.5195369655
 20
3.8090407743
 30
0.0
 10
5.5325174523
 20
3.8087529303
 30
0.0
 10
5.5513499694
 20
3.8075166252
 30
0.0
 10
5.5686769068
 20
3.8056750522
 30
0.0
 10
5.5838084569
 20
3.8035231445
 30
0.0
 10
5.5962352425
 20
3.8013832522
 30
0.0
 10
5.6055281205
 20
3.7995658366
 30
0.0
 10
5.6112536753
 20
3.7983539165
 30
0.0
 10
5.6138283666
 20
3.7977882455
 30
0.0
 10
5.614442325
 20
3.7976521826
 30
0.0
 11
5.512942325
 21
3.8090407743
 31
0.0
 11
5.5327214025
 21
3.8086030109
 31
0.0
 11
5.5518324093
 21
3.8073507342
 31
0.0
 11
5.5694008976
 21
3.8054863016
 31
0.0
 11
5.5846888648
 21
3.8033145698
 31
0.0
 11
5.5972391776
 21
3.8011549776
 31
0.0
 11
5.6067084805
 21
3.7993038048
 31
0.0
 11
5.6125997059
 21
3.7980570083
 31
0.0
 11
5.614442325
 21
3.7976521826
 31
0.0
  0
SPLINE
  5
512
100
AcDbEntity
  8
127-410_FEATURES
100
AcDbSpline
 62
7
  6
CONTINUOUS
 70
0
 71
3
 72
15
 73
11
 74
9
 42
0.0000001
 43
0.0000001
 44
0.0000000001
 12
0.0999118989
 22
0.0221420612
 32
0.0
 13
0.1023360934
 23
0.0
 33
0.0
 40
0.0
 40
0.0
 40
0.0
 40
0.0
 40
0.0182737161
 40
0.0767655841
 40
0.1711096445
 40
0.295957118
 40
0.4469108838
 40
0.6195182352
 40
0.8065997239
 40
1.0
 40
1.0
 40
1.0
 40
1.0
 10
5.411442325
 20
3.7976521826
 30
0.0
 10
5.4120509122
 20
3.7977870552
 30
0.0
 10
5.4146085381
 20
3.7983490196
 30
0.0
 10
5.4203189637
 20
3.7995581379
 30
0.0
 10
5.4296155911
 20
3.801377237
 30
0.0
 10
5.4420601668
 20
3.8035208652
 30
0.0
 10
5.4572065754
 20
3.8056749268
 30
0.0
 10
5.4745323822
 20
3.8075163604
 30
0.0
 10
5.4933641914
 20
3.8087528066
 30
0.0
 10
5.5063450488
 20
3.8090407743
 30
0.0
 10
5.512942325
 20
3.8090407743
 30
0.0
 11
5.411442325
 21
3.7976521826
 31
0.0
 11
5.4132688175
 21
3.7980534959
 31
0.0
 11
5.4191248522
 21
3.7992932578
 31
0.0
 11
5.4286001083
 21
3.8011465616
 31
0.0
 11
5.4411913457
 21
3.8033138656
 31
0.0
 11
5.4564858114
 21
3.8054865598
 31
0.0
 11
5.4740511399
 21
3.8073506387
 31
0.0
 11
5.493155346
 21
3.8086026612
 31
0.0
 11
5.512942325
 21
3.8090407743
 31
0.0
  0
SPLINE
  5
513
100
AcDbEntity
  8
0
100
AcDbSpline
 62
7
  6
CONTINUOUS
 70
0
 71
3
 72
14
 73
10
 74
8
 42
0.0000001
 43
0.0000001
 44
0.0000000001
 12
-0.1524912644
 22
0.5724510643
 32
0.0
 13
0.1524912644
 23
0.5724510643
 33
0.0
 40
0.0
 40
0.0
 40
0.0
 40
0.0
 40
0.1483734886
 40
0.2906183378
 40
0.4304255817
 40
0.5696820058
 40
0.7094806994
 40
0.8516660081
 40
1.0
 40
1.0
 40
1.0
 40
1.0
 10
4.2695529963
 20
3.9631315637
 30
0.0
 10
4.2620111093
 20
3.9914437508
 30
0.0
 10
4.2488079901
 20
4.0473390937
 30
0.0
 10
4.2350047008
 20
4.13128295
 30
0.0
 10
4.2279734226
 20
4.2142762565
 30
0.0
 10
4.2279761637
 20
4.2970902195
 30
0.0
 10
4.2350113424
 20
4.3800696644
 30
0.0
 10
4.248814083
 20
4.4639919769
 30
0.0
 10
4.262013117
 20
4.519868151
 30
0.0
 10
4.2695529963
 20
4.5481728015
 30
0.0
 11
4.2695529963
 21
3.9631315637
 31
0.0
 11
4.2495417616
 21
4.0487218113
 31
0.0
 11
4.2360298308
 21
4.1318992461
 31
0.0
 11
4.2291336226
 21
4.2144353497
 31
0.0
 11
4.2291363134
 21
4.2969327413
 31
0.0
 11
4.2360370604
 21
4.3794633825
 31
0.0
 11
4.2495463385
 21
4.4626055132
 31
0.0
 11
4.2695529963
 21
4.5481728015
 31
0.0
  0
SPLINE
  5
514
100
AcDbEntity
  8
0
100
AcDbSpline
 62
7
  6
CONTINUOUS
 70
0
 71
3
 72
14
 73
10
 74
8
 42
0.0000001
 43
0.0000001
 44
0.0000000001
 12
0.1524912644
 22
0.5724510643
 32
0.0
 13
-0.1524912644
 23
0.5724510643
 33
0.0
 40
0.0
 40
0.0
 40
0.0
 40
0.0
 40
0.1483734886
 40
0.2906183378
 40
0.4304255817
 40
0.5696820058
 40
0.7094806994
 40
0.8516660081
 40
1.0
 40
1.0
 40
1.0
 40
1.0
 10
4.8565166992
 20
3.9631315637
 30
0.0
 10
4.8640585861
 20
3.9914437508
 30
0.0
 10
4.8772617054
 20
4.0473390937
 30
0.0
 10
4.8910649946
 20
4.13128295
 30
0.0
 10
4.8980962728
 20
4.2142762565
 30
0.0
 10
4.8980935318
 20
4.2970902195
 30
0.0
 10
4.891058353
 20
4.3800696644
 30
0.0
 10
4.8772556124
 20
4.4639919769
 30
0.0
 10
4.8640565785
 20
4.519868151
 30
0.0
 10
4.8565166992
 20
4.5481728015
 30
0.0
 11
4.8565166992
 21
3.9631315637
 31
0.0
 11
4.8765279338
 21
4.0487218113
 31
0.0
 11
4.8900398646
 21
4.1318992461
 31
0.0
 11
4.8969360729
 21
4.2144353497
 31
0.0
 11
4.8969333821
 21
4.2969327413
 31
0.0
 11
4.890032635
 21
4.3794633825
 31
0.0
 11
4.8765233569
 21
4.4626055132
 31
0.0
 11
4.8565166992
 21
4.5481728015
 31
0.0
  0
SPLINE
  5
515
100
AcDbEntity
  8
0
100
AcDbSpline
 62
7
  6
CONTINUOUS
 70
0
 71
3
 72
14
 73
10
 74
8
 42
0.0000001
 43
0.0000001
 44
0.0000000001
 12
-0.1442757118
 22
0.2708049707
 32
0.0
 13
0.1442757118
 23
0.2708049707
 33
0.0
 40
0.0
 40
0.0
 40
0.0
 40
0.0
 40
0.1539652166
 40
0.2964780264
 40
0.4328366592
 40
0.567267274
 40
0.7036195666
 40
0.846074992
 40
1.0
 40
1.0
 40
1.0
 40
1.0
 10
4.2695529963
 20
4.5965168731
 30
0.0
 10
4.2621485159
 20
4.6104150551
 30
0.0
 10
4.2491093867
 20
4.637869395
 30
0.0
 10
4.235140435
 20
4.6800191781
 30
0.0
 10
4.2279763504
 20
4.7218683814
 30
0.0
 10
4.227979153
 20
4.7637173449
 30
0.0
 10
4.2351471265
 20
4.8055591824
 30
0.0
 10
4.2491153059
 20
4.8476978192
 30
0.0
 10
4.2621504496
 20
4.8751429396
 30
0.0
 10
4.2695529963
 20
4.8890374921
 30
0.0
 11
4.2695529963
 21
4.5965168731
 31
0.0
 11
4.2495417616
 21
4.6393119969
 31
0.0
 11
4.2360298308
 21
4.6809007144
 31
0.0
 11
4.2291336226
 21
4.7221687661
 31
0.0
 11
4.2291363134
 21
4.7634174619
 31
0.0
 11
4.2360370604
 21
4.8046827826
 31
0.0
 11
4.2495463385
 21
4.8462538479
 31
0.0
 11
4.2695529963
 21
4.8890374921
 31
0.0
  0
SPLINE
  5
516
100
AcDbEntity
  8
0
100
AcDbSpline
 62
7
  6
CONTINUOUS
 70
0
 71
3
 72
14
 73
10
 74
8
 42
0.0000001
 43
0.0000001
 44
0.0000000001
 12
0.1442757118
 22
0.2708049707
 32
0.0
 13
-0.1442757118
 23
0.2708049707
 33
0.0
 40
0.0
 40
0.0
 40
0.0
 40
0.0
 40
0.1539652166
 40
0.2964780264
 40
0.4328366592
 40
0.567267274
 40
0.7036195666
 40
0.846074992
 40
1.0
 40
1.0
 40
1.0
 40
1.0
 10
4.8565166992
 20
4.5965168731
 30
0.0
 10
4.8639211796
 20
4.6104150551
 30
0.0
 10
4.8769603087
 20
4.637869395
 30
0.0
 10
4.8909292605
 20
4.6800191781
 30
0.0
 10
4.8980933451
 20
4.7218683814
 30
0.0
 10
4.8980905425
 20
4.7637173449
 30
0.0
 10
4.890922569
 20
4.8055591824
 30
0.0
 10
4.8769543895
 20
4.8476978192
 30
0.0
 10
4.8639192459
 20
4.8751429396
 30
0.0
 10
4.8565166992
 20
4.8890374921
 30
0.0
 11
4.8565166992
 21
4.5965168731
 31
0.0
 11
4.8765279338
 21
4.6393119969
 31
0.0
 11
4.8900398646
 21
4.6809007144
 31
0.0
 11
4.8969360729
 21
4.7221687661
 31
0.0
 11
4.8969333821
 21
4.7634174619
 31
0.0
 11
4.890032635
 21
4.8046827826
 31
0.0
 11
4.8765233569
 21
4.8462538479
 31
0.0
 11
4.8565166992
 21
4.8890374921
 31
0.0
  0
SPLINE
  5
517
100
AcDbEntity
  8
0
100
AcDbSpline
 62
7
  6
CONTINUOUS
 70
0
 71
3
 72
14
 73
10
 74
8
 42
0.0000001
 43
0.0000001
 44
0.0000000001
 12
-0.1442757118
 22
0.2708049707
 32
0.0
 13
0.1442757118
 23
0.2708049707
 33
0.0
 40
0.0
 40
0.0
 40
0.0
 40
0.0
 40
0.1539652166
 40
0.2964780264
 40
0.4328366592
 40
0.567267274
 40
0.7036195666
 40
0.846074992
 40
1.0
 40
1.0
 40
1.0
 40
1.0
 10
4.2695529963
 20
3.6222668731
 30
0.0
 10
4.2621485159
 20
3.6361650551
 30
0.0
 10
4.2491093867
 20
3.663619395
 30
0.0
 10
4.235140435
 20
3.7057691781
 30
0.0
 10
4.2279763504
 20
3.7476183814
 30
0.0
 10
4.227979153
 20
3.7894673449
 30
0.0
 10
4.2351471265
 20
3.8313091824
 30
0.0
 10
4.2491153059
 20
3.8734478192
 30
0.0
 10
4.2621504496
 20
3.9008929396
 30
0.0
 10
4.2695529963
 20
3.9147874921
 30
0.0
 11
4.2695529963
 21
3.6222668731
 31
0.0
 11
4.2495417616
 21
3.6650619969
 31
0.0
 11
4.2360298308
 21
3.7066507144
 31
0.0
 11
4.2291336226
 21
3.7479187661
 31
0.0
 11
4.2291363134
 21
3.7891674619
 31
0.0
 11
4.2360370604
 21
3.8304327826
 31
0.0
 11
4.2495463385
 21
3.8720038479
 31
0.0
 11
4.2695529963
 21
3.9147874921
 31
0.0
  0
SPLINE
  5
518
100
AcDbEntity
  8
0
100
AcDbSpline
 62
7
  6
CONTINUOUS
 70
0
 71
3
 72
14
 73
10
 74
8
 42
0.0000001
 43
0.0000001
 44
0.0000000001
 12
0.1442757118
 22
0.2708049707
 32
0.0
 13
-0.1442757118
 23
0.2708049707
 33
0.0
 40
0.0
 40
0.0
 40
0.0
 40
0.0
 40
0.1539652166
 40
0.2964780264
 40
0.4328366592
 40
0.567267274
 40
0.7036195666
 40
0.846074992
 40
1.0
 40
1.0
 40
1.0
 40
1.0
 10
4.8565166992
 20
3.6222668731
 30
0.0
 10
4.8639211796
 20
3.6361650551
 30
0.0
 10
4.8769603087
 20
3.663619395
 30
0.0
 10
4.8909292605
 20
3.7057691781
 30
0.0
 10
4.8980933451
 20
3.7476183814
 30
0.0
 10
4.8980905425
 20
3.7894673449
 30
0.0
 10
4.890922569
 20
3.8313091824
 30
0.0
 10
4.8769543895
 20
3.8734478192
 30
0.0
 10
4.8639192459
 20
3.9008929396
 30
0.0
 10
4.8565166992
 20
3.9147874921
 30
0.0
 11
4.8565166992
 21
3.6222668731
 31
0.0
 11
4.8765279338
 21
3.6650619969
 31
0.0
 11
4.8900398646
 21
3.7066507144
 31
0.0
 11
4.8969360729
 21
3.7479187661
 31
0.0
 11
4.8969333821
 21
3.7891674619
 31
0.0
 11
4.890032635
 21
3.8304327826
 31
0.0
 11
4.8765233569
 21
3.8720038479
 31
0.0
 11
4.8565166992
 21
3.9147874921
 31
0.0
  0
ENDSEC
  0
SECTION
  2
OBJECTS
  0
DICTIONARY
  5
C
100
AcDbDictionary
280
0
281
1
  3
ACAD_GROUP
350
D
  3
ACAD_MLINESTYLE
350
17
  3
ACAD_LAYOUT
350
1A
  3
ACAD_PLOTSETTINGS
350
19
  3
ACAD_PLOTSTYLENAME
350
E
  0
DICTIONARY
  5
D
102
{ACAD_REACTORS
330
C
102
}
100
AcDbDictionary
280
0
281
1
  0
ACDBDICTIONARYWDFLT
  5
E
102
{ACAD_REACTORS
330
C
102
}
100
AcDbDictionary
281
1
  3
Normal
350
F
100
AcDbDictionaryWithDefault
340
F
  0
DICTIONARY
  5
17
102
{ACAD_REACTORS
330
C
102
}
100
AcDbDictionary
280
0
281
1
  3
Standard
350
18
  0
DICTIONARY
  5
19
102
{ACAD_REACTORS
330
C
102
}
100
AcDbDictionary
281
1
  0
DICTIONARY
  5
1A
102
{ACAD_REACTORS
330
C
102
}
100
AcDbDictionary
281
1
  3
Layout1
350
1E
  3
Model
350
22
  0
ACDBPLACEHOLDER
  5
F
102
{ACAD_REACTORS
330
E
102
}
  0
MLINESTYLE
  5
18
102
{ACAD_REACTORS
330
17
102
}
100
AcDbMlineStyle
  2
STANDARD
 70
0
  3

 62
256
 51
90.0
 52
90.0
 71
2
 49
0.5
 62
256
  6
BYLAYER
 49
-0.5
 62
256
  6
BYLAYER
  0
LAYOUT
  5
1E
102
{ACAD_REACTORS
330
1A
102
}
100
AcDbPlotSettings
  1

  2

  4

  6

 40
0.0
 41
0.0
 42
0.0
 43
0.0
 44
0.0
 45
0.0
 46
0.0
 47
0.0
 48
0.0
 49
0.0
140
0.0
141
0.0
142
1.0
143
1.0
 70
0
 72
0
 73
0
 74
0
  7

 75
0
147
1.0
148
0.0
149
0.0
100
AcDbLayout
  1
Layout1
 70
0
 71
0
 10
0.0
 20
0.0
 11
0.0
 21
0.0
 12
0.0
 22
0.0
 32
0.0
 14
0.0
 24
0.0
 34
0.0
 15
0.0
 25
0.0
 35
0.0
146
0.0
 13
0.0
 23
0.0
 33
0.0
 16
0.0
 26
0.0
 36
0.0
 17
0.0
 27
0.0
 37
0.0
 76
0
330
1B
331
0
345
0
346
0
  0
LAYOUT
  5
22
102
{ACAD_REACTORS
330
1A
102
}
100
AcDbPlotSettings
  1

  2

  4

  6

 40
0.0
 41
0.0
 42
0.0
 43
0.0
 44
0.0
 45
0.0
 46
0.0
 47
0.0
 48
0.0
 49
0.0
140
0.0
141
0.0
142
1.0
143
1.0
 70
0
 72
0
 73
0
 74
0
  7

 75
0
147
1.0
148
0.0
149
0.0
100
AcDbLayout
  1
Model
 70
0
 71
0
 10
0.0
 20
0.0
 11
0.0
 21
0.0
 12
0.0
 22
0.0
 32
0.0
 14
0.0
 24
0.0
 34
0.0
 15
0.0
 25
0.0
 35
0.0
146
0.0
 13
0.0
 23
0.0
 33
0.0
 16
0.0
 26
0.0
 36
0.0
 17
0.0
 27
0.0
 37
0.0
 76
0
330
1F
331
0
345
0
346
0
  0
ENDSEC
  0
EOF
