999
DXF file: PPDB-LAN.dxf
999
Pro/ENGINEER 2006240 by Parametric Technology Corporation
  0
SECTION
  2
HEADER
  9
$ACADVER
  1
AC1015
  9
$DWGCODEPAGE
  3
ANSI_1252
  9
$EXTMAX
 10
11.6929133858
 20
8.2677165354
 30
0.0
  9
$EXTMIN
 10
0.0
 20
0.0
 30
0.0
  9
$LIMMIN
 10
0.0
 20
0.0
  9
$LIMMAX
 10
11.6929133858
 20
8.2677165354
  9
$VIEWCTR
 10
5.8464566929
 20
4.1338582677
  9
$VIEWSIZE
 40
8.2677165354
  9
$CLAYER
  8
0
  9
$LTSCALE
 40
0.6431102362
  9
$CELTYPE
  6
BYLAYER
  9
$DIMSCALE
 40
1.0
  9
$DIMASZ
 40
0.1875
  9
$DIMEXO
 40
0.0730807087
  9
$DIMDLI
 40
0.4443307087
  9
$DIMEXE
 40
0.2104724409
  9
$DIMCEN
 40
0.1052362205
  9
$DIMLFAC
 40
1.0
  9
$DIMBLK
  1
_CLOSED
  9
$DIMTXT
 40
0.15625
  9
$DIMTOL
 70
0
  9
$DIMLIM
 70
0
  9
$DIMTFAC
 40
1.0
  9
$PDMODE
 70
3
  9
$PDSIZE
 40
0.3125
  9
$HANDSEED
  5
53F
  9
$MEASUREMENT
 70
0
  9
$INSUNITS
 70
1
  0
ENDSEC
  0
SECTION
  2
CLASSES
  0
CLASS
  1
ACDBDICTIONARYWDFLT
  2
AcDbDictionaryWithDefault
  3
AutoCAD 2000
 90
0
280
0
281
0
  0
CLASS
  1
ACDBPLACEHOLDER
  2
AcDbPlaceHolder
  3
AutoCAD 2000
 90
0
280
0
281
0
  0
CLASS
  1
LAYOUT
  2
AcDbLayout
  3
AutoCAD 2000
 90
0
280
0
281
0
  0
ENDSEC
  0
SECTION
  2
TABLES
  0
TABLE
  2
VPORT
  5
8
100
AcDbSymbolTable
 70
2
  0
VPORT
  5
1F4
100
AcDbSymbolTableRecord
100
AcDbViewportTableRecord
  2
*ACTIVE
 70
0
 10
0.0
 20
0.0
 11
1.0
 21
1.0
 12
5.8464566929
 22
4.1338582677
 13
0.0
 23
0.0
 14
1.0
 24
1.0
 15
0.0
 25
0.0
 16
0.0
 26
0.0
 36
1.0
 17
0.0
 27
0.0
 37
0.0
 40
8.2677165354
 41
1.4142857143
 42
50.0
 43
0.0
 44
0.0
 50
0.0
 51
0.0
 71
0
 72
100
 73
1
 74
1
 75
0
 76
0
 77
0
 78
0
  0
ENDTAB
  0
TABLE
  2
LTYPE
  5
5
100
AcDbSymbolTable
 70
6
  0
LTYPE
  5
14
100
AcDbSymbolTableRecord
100
AcDbLinetypeTableRecord
  2
BYBLOCK
 70
0
  3

 72
65
 73
0
 40
0.0
  0
LTYPE
  5
15
100
AcDbSymbolTableRecord
100
AcDbLinetypeTableRecord
  2
BYLAYER
 70
0
  3

 72
65
 73
0
 40
0.0
  0
LTYPE
  5
16
100
AcDbSymbolTableRecord
100
AcDbLinetypeTableRecord
  2
CONTINUOUS
 70
64
  3
Solid line
 72
65
 73
0
 40
0.0
  0
LTYPE
  5
1F5
100
AcDbSymbolTableRecord
100
AcDbLinetypeTableRecord
  2
CENTER
 70
64
  3
____ _ ____ _ ____ _ ____ _ ____ _ ____ _ ____
 72
65
 73
4
 40
0.6
 49
0.375
 74
0
 49
-0.075
 74
0
 49
0.075
 74
0
 49
-0.075
 74
0
  0
LTYPE
  5
1F6
100
AcDbSymbolTableRecord
100
AcDbLinetypeTableRecord
  2
HIDDEN
 70
64
  3
- - - - - - - - - - - - - - - - - - - -
 72
65
 73
2
 40
0.2
 49
0.1
 74
0
 49
-0.1
 74
0
  0
LTYPE
  5
1F7
100
AcDbSymbolTableRecord
100
AcDbLinetypeTableRecord
  2
PHANTOM
 70
64
  3
_____ _ _ _____ _ _ _____ _ _ _____
 72
65
 73
6
 40
0.8
 49
0.45
 74
0
 49
-0.05
 74
0
 49
0.1
 74
0
 49
-0.05
 74
0
 49
0.1
 74
0
 49
-0.05
 74
0
  0
LTYPE
  5
1F8
100
AcDbSymbolTableRecord
100
AcDbLinetypeTableRecord
  2
DOT
 70
64
  3
. . . . . . . . . . . . . . . . . . . .
 72
65
 73
2
 40
0.2
 49
0.1
 74
0
 49
-0.1
 74
0
  0
LTYPE
  5
1F9
100
AcDbSymbolTableRecord
100
AcDbLinetypeTableRecord
  2
DASHED
 70
64
  3
- - - - - - - - - - - - - - - - - - - -
 72
65
 73
2
 40
0.2
 49
0.1
 74
0
 49
-0.1
 74
0
  0
ENDTAB
  0
TABLE
  2
LAYER
  5
2
100
AcDbSymbolTable
 70
36
  0
LAYER
  5
10
100
AcDbSymbolTableRecord
100
AcDbLayerTableRecord
  2
0
 70
0
 62
7
  6
CONTINUOUS
370
-3
390
F
  0
LAYER
  5
1FA
100
AcDbSymbolTableRecord
100
AcDbLayerTableRecord
  2
DEFAULT_1
 70
0
 62
7
  6
CENTER
370
-3
390
F
  0
LAYER
  5
1FB
100
AcDbSymbolTableRecord
100
AcDbLayerTableRecord
  2
DEFAULT_2
 70
0
 62
8
  6
HIDDEN
370
-3
390
F
  0
LAYER
  5
1FC
100
AcDbSymbolTableRecord
100
AcDbLayerTableRecord
  2
DEFAULT_3
 70
0
 62
7
  6
PHANTOM
370
-3
390
F
  0
LAYER
  5
1FD
100
AcDbSymbolTableRecord
100
AcDbLayerTableRecord
  2
_BLACK_HOLE
 70
0
 62
7
  6
CONTINUOUS
370
-3
390
F
  0
LAYER
  5
1FE
100
AcDbSymbolTableRecord
100
AcDbLayerTableRecord
  2
01_ALL_DTM_PLN
 70
0
 62
7
  6
CONTINUOUS
370
-3
390
F
  0
LAYER
  5
1FF
100
AcDbSymbolTableRecord
100
AcDbLayerTableRecord
  2
01__ASM_ALL_DTM_PLN
 70
0
 62
7
  6
CONTINUOUS
370
-3
390
F
  0
LAYER
  5
200
100
AcDbSymbolTableRecord
100
AcDbLayerTableRecord
  2
01__ASM_DEF_DTM_PLN
 70
0
 62
7
  6
CONTINUOUS
370
-3
390
F
  0
LAYER
  5
201
100
AcDbSymbolTableRecord
100
AcDbLayerTableRecord
  2
01___PRT_ALL_DTM_PLN
 70
0
 62
7
  6
CONTINUOUS
370
-3
390
F
  0
LAYER
  5
202
100
AcDbSymbolTableRecord
100
AcDbLayerTableRecord
  2
01___PRT_DEF_DTM_PLN
 70
0
 62
7
  6
CONTINUOUS
370
-3
390
F
  0
LAYER
  5
203
100
AcDbSymbolTableRecord
100
AcDbLayerTableRecord
  2
02_ALL_AXES
 70
0
 62
7
  6
CONTINUOUS
370
-3
390
F
  0
LAYER
  5
204
100
AcDbSymbolTableRecord
100
AcDbLayerTableRecord
  2
02__ASM_ALL_AXES
 70
0
 62
7
  6
CONTINUOUS
370
-3
390
F
  0
LAYER
  5
205
100
AcDbSymbolTableRecord
100
AcDbLayerTableRecord
  2
02___PRT_ALL_AXES
 70
0
 62
7
  6
CONTINUOUS
370
-3
390
F
  0
LAYER
  5
206
100
AcDbSymbolTableRecord
100
AcDbLayerTableRecord
  2
03_ALL_CURVES
 70
0
 62
7
  6
CONTINUOUS
370
-3
390
F
  0
LAYER
  5
207
100
AcDbSymbolTableRecord
100
AcDbLayerTableRecord
  2
03__ASM_ALL_CURVES
 70
0
 62
7
  6
CONTINUOUS
370
-3
390
F
  0
LAYER
  5
208
100
AcDbSymbolTableRecord
100
AcDbLayerTableRecord
  2
03___PRT_ALL_CURVES
 70
0
 62
7
  6
CONTINUOUS
370
-3
390
F
  0
LAYER
  5
209
100
AcDbSymbolTableRecord
100
AcDbLayerTableRecord
  2
04_ALL_DTM_PNT
 70
0
 62
7
  6
CONTINUOUS
370
-3
390
F
  0
LAYER
  5
20A
100
AcDbSymbolTableRecord
100
AcDbLayerTableRecord
  2
04__ASM_ALL_DTM_PNT
 70
0
 62
7
  6
CONTINUOUS
370
-3
390
F
  0
LAYER
  5
20B
100
AcDbSymbolTableRecord
100
AcDbLayerTableRecord
  2
04___PRT_ALL_DTM_PNT
 70
0
 62
7
  6
CONTINUOUS
370
-3
390
F
  0
LAYER
  5
20C
100
AcDbSymbolTableRecord
100
AcDbLayerTableRecord
  2
05_ALL_DTM_CSYS
 70
0
 62
7
  6
CONTINUOUS
370
-3
390
F
  0
LAYER
  5
20D
100
AcDbSymbolTableRecord
100
AcDbLayerTableRecord
  2
05__ASM_ALL_DTM_CSYS
 70
0
 62
7
  6
CONTINUOUS
370
-3
390
F
  0
LAYER
  5
20E
100
AcDbSymbolTableRecord
100
AcDbLayerTableRecord
  2
05__ASM_DEF_DTM_CSYS
 70
0
 62
7
  6
CONTINUOUS
370
-3
390
F
  0
LAYER
  5
20F
100
AcDbSymbolTableRecord
100
AcDbLayerTableRecord
  2
05___PRT_ALL_DTM_CSYS
 70
0
 62
7
  6
CONTINUOUS
370
-3
390
F
  0
LAYER
  5
210
100
AcDbSymbolTableRecord
100
AcDbLayerTableRecord
  2
05___PRT_DEF_DTM_CSYS
 70
0
 62
7
  6
CONTINUOUS
370
-3
390
F
  0
LAYER
  5
211
100
AcDbSymbolTableRecord
100
AcDbLayerTableRecord
  2
06_ALL_SURFS
 70
0
 62
7
  6
CONTINUOUS
370
-3
390
F
  0
LAYER
  5
212
100
AcDbSymbolTableRecord
100
AcDbLayerTableRecord
  2
06__ASM_ALL_SURFS
 70
0
 62
7
  6
CONTINUOUS
370
-3
390
F
  0
LAYER
  5
213
100
AcDbSymbolTableRecord
100
AcDbLayerTableRecord
  2
06___PRT_ALL_SURFS
 70
0
 62
7
  6
CONTINUOUS
370
-3
390
F
  0
LAYER
  5
214
100
AcDbSymbolTableRecord
100
AcDbLayerTableRecord
  2
07__ASM_ALL_SKELETONS
 70
0
 62
7
  6
CONTINUOUS
370
-3
390
F
  0
LAYER
  5
215
100
AcDbSymbolTableRecord
100
AcDbLayerTableRecord
  2
126-001_HEX_FEATURES
 70
0
 62
7
  6
CONTINUOUS
370
-3
390
F
  0
LAYER
  5
216
100
AcDbSymbolTableRecord
100
AcDbLayerTableRecord
  2
126-001_REF_GEOMETRY
 70
0
 62
7
  6
CONTINUOUS
370
-3
390
F
  0
LAYER
  5
217
100
AcDbSymbolTableRecord
100
AcDbLayerTableRecord
  2
126-004_HEX_FEATURES
 70
0
 62
7
  6
CONTINUOUS
370
-3
390
F
  0
LAYER
  5
218
100
AcDbSymbolTableRecord
100
AcDbLayerTableRecord
  2
126-004_REF_GEOMETRY
 70
0
 62
7
  6
CONTINUOUS
370
-3
390
F
  0
LAYER
  5
219
100
AcDbSymbolTableRecord
100
AcDbLayerTableRecord
  2
126-400_HEX_FEATURES
 70
0
 62
7
  6
CONTINUOUS
370
-3
390
F
  0
LAYER
  5
21A
100
AcDbSymbolTableRecord
100
AcDbLayerTableRecord
  2
126-400_REF_GEOMETRY
 70
0
 62
7
  6
CONTINUOUS
370
-3
390
F
  0
LAYER
  5
21B
100
AcDbSymbolTableRecord
100
AcDbLayerTableRecord
  2
126-401_HEX_FEATURES
 70
0
 62
7
  6
CONTINUOUS
370
-3
390
F
  0
LAYER
  5
21C
100
AcDbSymbolTableRecord
100
AcDbLayerTableRecord
  2
126-401_REF_GEOMETRY
 70
0
 62
7
  6
CONTINUOUS
370
-3
390
F
  0
LAYER
  5
21D
100
AcDbSymbolTableRecord
100
AcDbLayerTableRecord
  2
126-402_HEX_FEATURES
 70
0
 62
7
  6
CONTINUOUS
370
-3
390
F
  0
LAYER
  5
21E
100
AcDbSymbolTableRecord
100
AcDbLayerTableRecord
  2
126-402_REF_GEOMETRY
 70
0
 62
7
  6
CONTINUOUS
370
-3
390
F
  0
LAYER
  5
21F
100
AcDbSymbolTableRecord
100
AcDbLayerTableRecord
  2
126-403_HEX_FEATURES
 70
0
 62
7
  6
CONTINUOUS
370
-3
390
F
  0
LAYER
  5
220
100
AcDbSymbolTableRecord
100
AcDbLayerTableRecord
  2
126-403_REF_GEOMETRY
 70
0
 62
7
  6
CONTINUOUS
370
-3
390
F
  0
LAYER
  5
221
100
AcDbSymbolTableRecord
100
AcDbLayerTableRecord
  2
126-404_HEX_FEATURES
 70
0
 62
7
  6
CONTINUOUS
370
-3
390
F
  0
LAYER
  5
222
100
AcDbSymbolTableRecord
100
AcDbLayerTableRecord
  2
126-404_REF_GEOMETRY
 70
0
 62
7
  6
CONTINUOUS
370
-3
390
F
  0
LAYER
  5
223
100
AcDbSymbolTableRecord
100
AcDbLayerTableRecord
  2
126-405_HEX_FEATURES
 70
0
 62
7
  6
CONTINUOUS
370
-3
390
F
  0
LAYER
  5
224
100
AcDbSymbolTableRecord
100
AcDbLayerTableRecord
  2
126-405_REF_GEOMETRY
 70
0
 62
7
  6
CONTINUOUS
370
-3
390
F
  0
LAYER
  5
225
100
AcDbSymbolTableRecord
100
AcDbLayerTableRecord
  2
126-406_HEX_FEATURES
 70
0
 62
7
  6
CONTINUOUS
370
-3
390
F
  0
LAYER
  5
226
100
AcDbSymbolTableRecord
100
AcDbLayerTableRecord
  2
126-406_REF_GEOMETRY
 70
0
 62
7
  6
CONTINUOUS
370
-3
390
F
  0
LAYER
  5
227
100
AcDbSymbolTableRecord
100
AcDbLayerTableRecord
  2
COPY_GEO_FET
 70
0
 62
7
  6
CONTINUOUS
370
-3
390
F
  0
LAYER
  5
228
100
AcDbSymbolTableRecord
100
AcDbLayerTableRecord
  2
COSMETIC
 70
0
 62
7
  6
CONTINUOUS
370
-3
390
F
  0
LAYER
  5
229
100
AcDbSymbolTableRecord
100
AcDbLayerTableRecord
  2
COSM_REF
 70
0
 62
7
  6
CONTINUOUS
370
-3
390
F
  0
LAYER
  5
22A
100
AcDbSymbolTableRecord
100
AcDbLayerTableRecord
  2
CURVES
 70
0
 62
7
  6
CONTINUOUS
370
-3
390
F
  0
LAYER
  5
22B
100
AcDbSymbolTableRecord
100
AcDbLayerTableRecord
  2
CUT_REF_SURF
 70
0
 62
7
  6
CONTINUOUS
370
-3
390
F
  0
LAYER
  5
22C
100
AcDbSymbolTableRecord
100
AcDbLayerTableRecord
  2
DATUM
 70
0
 62
7
  6
CONTINUOUS
370
-3
390
F
  0
LAYER
  5
22D
100
AcDbSymbolTableRecord
100
AcDbLayerTableRecord
  2
DATUMCURVES
 70
0
 62
7
  6
CONTINUOUS
370
-3
390
F
  0
LAYER
  5
22E
100
AcDbSymbolTableRecord
100
AcDbLayerTableRecord
  2
DIMENSIONS
 70
0
 62
7
  6
CONTINUOUS
370
-3
390
F
  0
LAYER
  5
22F
100
AcDbSymbolTableRecord
100
AcDbLayerTableRecord
  2
DRAWINGNOTES
 70
0
 62
7
  6
CONTINUOUS
370
-3
390
F
  0
LAYER
  5
230
100
AcDbSymbolTableRecord
100
AcDbLayerTableRecord
  2
DTM
 70
0
 62
7
  6
CONTINUOUS
370
-3
390
F
  0
LAYER
  5
231
100
AcDbSymbolTableRecord
100
AcDbLayerTableRecord
  2
DTM230
 70
0
 62
7
  6
CONTINUOUS
370
-3
390
F
  0
LAYER
  5
232
100
AcDbSymbolTableRecord
100
AcDbLayerTableRecord
  2
DTM325
 70
0
 62
7
  6
CONTINUOUS
370
-3
390
F
  0
LAYER
  5
233
100
AcDbSymbolTableRecord
100
AcDbLayerTableRecord
  2
DTM_500001
 70
0
 62
7
  6
CONTINUOUS
370
-3
390
F
  0
LAYER
  5
234
100
AcDbSymbolTableRecord
100
AcDbLayerTableRecord
  2
DTM_500002
 70
0
 62
7
  6
CONTINUOUS
370
-3
390
F
  0
LAYER
  5
235
100
AcDbSymbolTableRecord
100
AcDbLayerTableRecord
  2
DTM_515002
 70
0
 62
7
  6
CONTINUOUS
370
-3
390
F
  0
LAYER
  5
236
100
AcDbSymbolTableRecord
100
AcDbLayerTableRecord
  2
DTM_800001
 70
0
 62
7
  6
CONTINUOUS
370
-3
390
F
  0
LAYER
  5
237
100
AcDbSymbolTableRecord
100
AcDbLayerTableRecord
  2
DTM_BALLHOLDER
 70
0
 62
7
  6
CONTINUOUS
370
-3
390
F
  0
LAYER
  5
238
100
AcDbSymbolTableRecord
100
AcDbLayerTableRecord
  2
DTM_ORIFICE_SEAT
 70
0
 62
7
  6
CONTINUOUS
370
-3
390
F
  0
LAYER
  5
239
100
AcDbSymbolTableRecord
100
AcDbLayerTableRecord
  2
DTM_SPRING_LH
 70
0
 62
7
  6
CONTINUOUS
370
-3
390
F
  0
LAYER
  5
23A
100
AcDbSymbolTableRecord
100
AcDbLayerTableRecord
  2
DTM_SPRING_RH
 70
0
 62
7
  6
CONTINUOUS
370
-3
390
F
  0
LAYER
  5
23B
100
AcDbSymbolTableRecord
100
AcDbLayerTableRecord
  2
DTM_SP_LH_CONSTR
 70
0
 62
7
  6
CONTINUOUS
370
-3
390
F
  0
LAYER
  5
23C
100
AcDbSymbolTableRecord
100
AcDbLayerTableRecord
  2
DTM_SP_RH_CONSTR
 70
0
 62
7
  6
CONTINUOUS
370
-3
390
F
  0
LAYER
  5
23D
100
AcDbSymbolTableRecord
100
AcDbLayerTableRecord
  2
FACE1
 70
0
 62
7
  6
CONTINUOUS
370
-3
390
F
  0
LAYER
  5
23E
100
AcDbSymbolTableRecord
100
AcDbLayerTableRecord
  2
FACE2
 70
0
 62
7
  6
CONTINUOUS
370
-3
390
F
  0
LAYER
  5
23F
100
AcDbSymbolTableRecord
100
AcDbLayerTableRecord
  2
FACE3
 70
0
 62
7
  6
CONTINUOUS
370
-3
390
F
  0
LAYER
  5
240
100
AcDbSymbolTableRecord
100
AcDbLayerTableRecord
  2
FACE4
 70
0
 62
7
  6
CONTINUOUS
370
-3
390
F
  0
LAYER
  5
241
100
AcDbSymbolTableRecord
100
AcDbLayerTableRecord
  2
GEOMETRICTOLERANCES
 70
0
 62
7
  6
CONTINUOUS
370
-3
390
F
  0
LAYER
  5
242
100
AcDbSymbolTableRecord
100
AcDbLayerTableRecord
  2
HOLE_FEATURES
 70
0
 62
7
  6
CONTINUOUS
370
-3
390
F
  0
LAYER
  5
243
100
AcDbSymbolTableRecord
100
AcDbLayerTableRecord
  2
LAY0001
 70
0
 62
7
  6
CONTINUOUS
370
-3
390
F
  0
LAYER
  5
244
100
AcDbSymbolTableRecord
100
AcDbLayerTableRecord
  2
NPTF_PORT_PER_S-164
 70
0
 62
7
  6
CONTINUOUS
370
-3
390
F
  0
LAYER
  5
245
100
AcDbSymbolTableRecord
100
AcDbLayerTableRecord
  2
PARAMETERDIMENSIONS
 70
0
 62
7
  6
CONTINUOUS
370
-3
390
F
  0
LAYER
  5
246
100
AcDbSymbolTableRecord
100
AcDbLayerTableRecord
  2
PLANE
 70
0
 62
7
  6
CONTINUOUS
370
-3
390
F
  0
LAYER
  5
247
100
AcDbSymbolTableRecord
100
AcDbLayerTableRecord
  2
PROTRUSIONS
 70
0
 62
7
  6
CONTINUOUS
370
-3
390
F
  0
LAYER
  5
248
100
AcDbSymbolTableRecord
100
AcDbLayerTableRecord
  2
SPEC_SAE-4_PORT
 70
0
 62
7
  6
CONTINUOUS
370
-3
390
F
  0
LAYER
  5
249
100
AcDbSymbolTableRecord
100
AcDbLayerTableRecord
  2
STD_SAE-4_PORT
 70
0
 62
7
  6
CONTINUOUS
370
-3
390
F
  0
LAYER
  5
24A
100
AcDbSymbolTableRecord
100
AcDbLayerTableRecord
  2
TEXT
 70
0
 62
7
  6
CONTINUOUS
370
-3
390
F
  0
LAYER
  5
24B
100
AcDbSymbolTableRecord
100
AcDbLayerTableRecord
  2
THREAD
 70
0
 62
7
  6
CONTINUOUS
370
-3
390
F
  0
LAYER
  5
24C
100
AcDbSymbolTableRecord
100
AcDbLayerTableRecord
  2
WIRE_GRV-SLOT_DRW_REF
 70
0
 62
7
  6
CONTINUOUS
370
-3
390
F
  0
LAYER
  5
24D
100
AcDbSymbolTableRecord
100
AcDbLayerTableRecord
  2
XSEC_DATUMS
 70
0
 62
7
  6
CONTINUOUS
370
-3
390
F
  0
ENDTAB
  0
TABLE
  2
STYLE
  5
3
100
AcDbSymbolTable
 70
1
  0
STYLE
  5
11
100
AcDbSymbolTableRecord
100
AcDbTextStyleTableRecord
  2
STANDARD
 70
0
 40
0.0
 41
0.8
 50
0.0
 71
0
 42
0.2
  3
txt
  4

  0
ENDTAB
  0
TABLE
  2
VIEW
  5
6
100
AcDbSymbolTable
 70
0
  0
ENDTAB
  0
TABLE
  2
UCS
  5
7
100
AcDbSymbolTable
 70
0
  0
ENDTAB
  0
TABLE
  2
APPID
  5
9
100
AcDbSymbolTable
 70
1
  0
APPID
  5
24E
100
AcDbSymbolTableRecord
100
AcDbRegAppTableRecord
  2
ACAD
 70
0
  0
ENDTAB
  0
TABLE
  2
BLOCK_RECORD
  5
1
100
AcDbSymbolTable
 70
0
  0
BLOCK_RECORD
  5
1F
100
AcDbSymbolTableRecord
100
AcDbBlockTableRecord
  2
*MODEL_SPACE
  0
BLOCK_RECORD
  5
1B
100
AcDbSymbolTableRecord
100
AcDbBlockTableRecord
  2
*PAPER_SPACE
  0
ENDTAB
  0
TABLE
  2
DIMSTYLE
  5
A
100
AcDbSymbolTable
 70
1
100
AcDbDimStyleTable
 71
0
  0
DIMSTYLE
105
24F
100
AcDbSymbolTableRecord
100
AcDbDimStyleTableRecord
  2
STANDARD
 70
0
  3

  4

 40
1.0
 41
0.1875
 42
0.0625
 43
0.38
 44
0.18
 45
0.0
 46
0.0
 47
0.01
 48
0.01
140
0.15625
141
0.09
142
0.0
143
25.4
144
1.0
145
0.0
146
1.0
147
0.09
 71
0.0
 72
0.0
 73
1
 74
1
 75
0
 76
0
 77
0
 78
4
170
0
171
2
172
0
173
0
174
0
175
0
176
0
177
0
178
0
270
2
271
2
272
2
273
2
274
2
275
0
280
0
281
0
282
0
283
1
284
4
285
0
286
0
287
3
288
0
340
11
  0
ENDTAB
  0
ENDSEC
  0
SECTION
  2
BLOCKS
  0
BLOCK
  5
20
100
AcDbEntity
  8
0
100
AcDbBlockBegin
  2
*MODEL_SPACE
 70
0
 10
0.0
 20
0.0
 30
0.0
  3
*MODEL_SPACE
  1

  0
ENDBLK
  5
21
100
AcDbEntity
  8
0
100
AcDbBlockEnd
  0
BLOCK
  5
1C
100
AcDbEntity
  8
0
100
AcDbBlockBegin
  2
*PAPER_SPACE
 70
0
 10
0.0
 20
0.0
 30
0.0
  3
*PAPER_SPACE
  1

  0
ENDBLK
  5
1D
100
AcDbEntity
  8
0
100
AcDbBlockEnd
  0
ENDSEC
  0
SECTION
  2
ENTITIES
  0
LINE
  5
250
100
AcDbEntity
  8
0
100
AcDbLine
 62
7
  6
CONTINUOUS
 10
3.1712798248
 20
4.2706181826
 11
3.1712798248
 21
3.9646181826
  0
LINE
  5
251
100
AcDbEntity
  8
03__ASM_ALL_CURVES
100
AcDbLine
 62
40
  6
CONTINUOUS
 10
3.1712798248
 20
4.2706181826
 11
3.1712798248
 21
5.1379041826
  0
LINE
  5
252
100
AcDbEntity
  8
0
100
AcDbLine
 62
7
  6
CONTINUOUS
 10
3.2022798248
 20
4.3016181826
 11
3.2022798248
 21
3.9336181826
  0
LINE
  5
253
100
AcDbEntity
  8
03__ASM_ALL_CURVES
100
AcDbLine
 62
40
  6
CONTINUOUS
 10
3.2875298248
 20
5.1185291826
 11
3.2875298248
 21
5.0797791826
  0
LINE
  5
254
100
AcDbEntity
  8
0
100
AcDbLine
 62
7
  6
CONTINUOUS
 10
3.4012798248
 20
4.3016181826
 11
3.4012798248
 21
3.9336181826
  0
LINE
  5
255
100
AcDbEntity
  8
0
100
AcDbLine
 62
7
  6
CONTINUOUS
 10
3.4027798248
 20
3.9564751896
 11
3.4027798248
 21
4.1937417514
  0
LINE
  5
256
100
AcDbEntity
  8
0
100
AcDbLine
 62
7
  6
CONTINUOUS
 10
3.4377798248
 20
3.9564751896
 11
3.4377798248
 21
4.1937417514
  0
LINE
  5
257
100
AcDbEntity
  8
0
100
AcDbLine
 62
7
  6
CONTINUOUS
 10
3.4392798248
 20
4.3016181826
 11
3.4392798248
 21
3.9336181826
  0
LINE
  5
258
100
AcDbEntity
  8
0
100
AcDbLine
 62
7
  6
CONTINUOUS
 10
3.6712798248
 20
3.8699669975
 11
3.6712798248
 21
4.3652693677
  0
LINE
  5
259
100
AcDbEntity
  8
0
100
AcDbLine
 62
7
  6
CONTINUOUS
 10
3.7332798248
 20
3.8466181826
 11
3.7332798248
 21
4.3886181826
  0
LINE
  5
25A
100
AcDbEntity
  8
0
100
AcDbLine
 62
7
  6
CONTINUOUS
 10
3.7392798248
 20
3.8466181826
 11
3.7392798248
 21
4.3886181826
  0
LINE
  5
25B
100
AcDbEntity
  8
0
100
AcDbLine
 62
7
  6
CONTINUOUS
 10
3.7447798248
 20
3.8521181826
 11
3.7447798248
 21
4.3831181826
  0
LINE
  5
25C
100
AcDbEntity
  8
0
100
AcDbLine
 62
7
  6
CONTINUOUS
 10
3.7607798248
 20
3.8521181826
 11
3.7607798248
 21
4.3831181826
  0
LINE
  5
25D
100
AcDbEntity
  8
03__ASM_ALL_CURVES
100
AcDbLine
 62
40
  6
CONTINUOUS
 10
3.9182407623
 20
5.1621229326
 11
3.9121860748
 21
5.1379041826
  0
LINE
  5
25E
100
AcDbEntity
  8
03__ASM_ALL_CURVES
100
AcDbLine
 62
40
  6
CONTINUOUS
 10
3.9121860748
 20
5.2186333473
 11
3.9182407623
 21
5.2267062679
  0
LINE
  5
25F
100
AcDbEntity
  8
03__ASM_ALL_CURVES
100
AcDbLine
 62
40
  6
CONTINUOUS
 10
3.9303501373
 20
5.178268765
 11
3.9182407623
 21
5.1621229326
  0
LINE
  5
260
100
AcDbEntity
  8
0
100
AcDbLine
 62
7
  6
CONTINUOUS
 10
3.1712798248
 20
3.9646181826
 11
3.2022798248
 21
3.9336181826
  0
LINE
  5
261
100
AcDbEntity
  8
0
100
AcDbLine
 62
7
  6
CONTINUOUS
 10
3.9522798248
 20
3.8466181826
 11
3.9522798248
 21
4.3886181826
  0
LINE
  5
262
100
AcDbEntity
  8
03__ASM_ALL_CURVES
100
AcDbLine
 62
40
  6
CONTINUOUS
 10
3.9606235748
 20
5.2186333473
 11
3.9606235748
 21
5.2024875179
  0
LINE
  5
263
100
AcDbEntity
  8
03__ASM_ALL_CURVES
100
AcDbLine
 62
40
  6
CONTINUOUS
 10
4.1483188873
 20
5.2347791826
 11
4.1059360748
 21
5.1621229326
  0
LINE
  5
264
100
AcDbEntity
  8
03__ASM_ALL_CURVES
100
AcDbLine
 62
40
  6
CONTINUOUS
 10
3.9606235748
 20
5.2024875179
 11
3.9545688873
 21
5.1944145973
  0
LINE
  5
265
100
AcDbEntity
  8
0
100
AcDbLine
 62
7
  6
CONTINUOUS
 10
3.1712798248
 20
4.2706181826
 11
3.2022798248
 21
4.3016181826
  0
LINE
  5
266
100
AcDbEntity
  8
0
100
AcDbLine
 62
7
  6
CONTINUOUS
 10
3.9832798248
 20
3.7941181826
 11
3.9832798248
 21
4.4411181826
  0
LINE
  5
267
100
AcDbEntity
  8
03__ASM_ALL_CURVES
100
AcDbLine
 62
40
  6
CONTINUOUS
 10
4.0272251373
 20
5.1379041826
 11
4.0272251373
 21
5.1459770995
  0
LINE
  5
268
100
AcDbEntity
  8
0
100
AcDbLine
 62
7
  6
CONTINUOUS
 10
4.0332798248
 20
3.7441181826
 11
4.0332798248
 21
4.4911181826
  0
LINE
  5
269
100
AcDbEntity
  8
0
100
AcDbLine
 62
7
  6
CONTINUOUS
 10
4.0842798248
 20
3.7441181826
 11
4.0842798248
 21
4.4911181826
  0
LINE
  5
26A
100
AcDbEntity
  8
0
100
AcDbLine
 62
7
  6
CONTINUOUS
 10
4.0892798248
 20
3.7491181826
 11
4.0892798248
 21
4.4861181826
  0
LINE
  5
26B
100
AcDbEntity
  8
0
100
AcDbLine
 62
7
  6
CONTINUOUS
 10
4.0972798248
 20
3.7676181826
 11
4.0972798248
 21
4.4676181826
  0
LINE
  5
26C
100
AcDbEntity
  8
0
100
AcDbLine
 62
7
  6
CONTINUOUS
 10
4.1192798248
 20
3.7676181826
 11
4.1192798248
 21
4.4676181826
  0
LINE
  5
26D
100
AcDbEntity
  8
0
100
AcDbLine
 62
7
  6
CONTINUOUS
 10
4.1272798248
 20
3.7491181826
 11
4.1272798248
 21
4.4861181826
  0
LINE
  5
26E
100
AcDbEntity
  8
0
100
AcDbLine
 62
7
  6
CONTINUOUS
 10
4.1322798248
 20
3.7441181826
 11
4.1322798248
 21
4.4911181826
  0
LINE
  5
26F
100
AcDbEntity
  8
03__ASM_ALL_CURVES
100
AcDbLine
 62
40
  6
CONTINUOUS
 10
4.1483188873
 20
5.1379041826
 11
4.1483188873
 21
5.2347791826
  0
LINE
  5
270
100
AcDbEntity
  8
03__ASM_ALL_CURVES
100
AcDbLine
 62
40
  6
CONTINUOUS
 10
4.3178501373
 20
5.2186333473
 11
4.3117954498
 21
5.1944145973
  0
LINE
  5
271
100
AcDbEntity
  8
03__ASM_ALL_CURVES
100
AcDbLine
 62
40
  6
CONTINUOUS
 10
4.2028110748
 20
5.2024875179
 11
4.2088657623
 21
5.2186333473
  0
LINE
  5
272
100
AcDbEntity
  8
03__ASM_ALL_CURVES
100
AcDbLine
 62
40
  6
CONTINUOUS
 10
4.2512485748
 20
5.2024875179
 11
4.2451938873
 21
5.1863416826
  0
LINE
  5
273
100
AcDbEntity
  8
03__ASM_ALL_CURVES
100
AcDbLine
 62
40
  6
CONTINUOUS
 10
4.2512485748
 20
5.1701958502
 11
4.2451938873
 21
5.1540500164
  0
LINE
  5
274
100
AcDbEntity
  8
03__ASM_ALL_CURVES
100
AcDbLine
 62
40
  6
CONTINUOUS
 10
4.2088657623
 20
5.2186333473
 11
4.2149204498
 21
5.2267062679
  0
LINE
  5
275
100
AcDbEntity
  8
03__ASM_ALL_CURVES
100
AcDbLine
 62
40
  6
CONTINUOUS
 10
4.2451938873
 20
5.1540500164
 11
4.2391391998
 21
5.1459770995
  0
LINE
  5
276
100
AcDbEntity
  8
03__ASM_ALL_CURVES
100
AcDbLine
 62
40
  6
CONTINUOUS
 10
4.3299595123
 20
5.2347791826
 11
4.3178501373
 21
5.2186333473
  0
LINE
  5
277
100
AcDbEntity
  8
03__ASM_ALL_CURVES
100
AcDbLine
 62
40
  6
CONTINUOUS
 10
4.4026157623
 20
5.2186333473
 11
4.4086704498
 21
5.2267062679
  0
LINE
  5
278
100
AcDbEntity
  8
03__ASM_ALL_CURVES
100
AcDbLine
 62
40
  6
CONTINUOUS
 10
3.9182407623
 20
5.2267062679
 11
3.9303501373
 21
5.2347791826
  0
LINE
  5
279
100
AcDbEntity
  8
03__ASM_ALL_CURVES
100
AcDbLine
 62
40
  6
CONTINUOUS
 10
3.9545688873
 20
5.1944145973
 11
3.9303501373
 21
5.178268765
  0
LINE
  5
27A
100
AcDbEntity
  8
03__ASM_ALL_CURVES
100
AcDbLine
 62
40
  6
CONTINUOUS
 10
4.2149204498
 20
5.2267062679
 11
4.2270298248
 21
5.2347791826
  0
LINE
  5
27B
100
AcDbEntity
  8
0
100
AcDbLine
 62
7
  6
CONTINUOUS
 10
3.7762806103
 20
3.836617397
 11
3.7607798248
 21
3.8521181826
  0
LINE
  5
27C
100
AcDbEntity
  8
03__ASM_ALL_CURVES
100
AcDbLine
 62
40
  6
CONTINUOUS
 10
4.2512485748
 20
5.2024875179
 11
4.2512485748
 21
5.1701958502
  0
LINE
  5
27D
100
AcDbEntity
  8
03__ASM_ALL_CURVES
100
AcDbLine
 62
40
  6
CONTINUOUS
 10
4.3117954498
 20
5.1944145973
 11
4.3117954498
 21
5.178268765
  0
LINE
  5
27E
100
AcDbEntity
  8
03__ASM_ALL_CURVES
100
AcDbLine
 62
40
  6
CONTINUOUS
 10
4.3965610748
 20
5.2024875179
 11
4.4026157623
 21
5.2186333473
  0
LINE
  5
27F
100
AcDbEntity
  8
03__ASM_ALL_CURVES
100
AcDbLine
 62
40
  6
CONTINUOUS
 10
4.3965610748
 20
5.1701958502
 11
4.4026157623
 21
5.1863416826
  0
LINE
  5
280
100
AcDbEntity
  8
03__ASM_ALL_CURVES
100
AcDbLine
 62
40
  6
CONTINUOUS
 10
4.4449985748
 20
5.1701958502
 11
4.4389438873
 21
5.1540500164
  0
LINE
  5
281
100
AcDbEntity
  8
03__ASM_ALL_CURVES
100
AcDbLine
 62
40
  6
CONTINUOUS
 10
4.4389438873
 20
5.1540500164
 11
4.4328891998
 21
5.1459770995
  0
LINE
  5
282
100
AcDbEntity
  8
03__ASM_ALL_CURVES
100
AcDbLine
 62
40
  6
CONTINUOUS
 10
4.5418735748
 20
5.2105604326
 11
4.5358188873
 21
5.2024875179
  0
LINE
  5
283
100
AcDbEntity
  8
03__ASM_ALL_CURVES
100
AcDbLine
 62
40
  6
CONTINUOUS
 10
4.5479282623
 20
5.1621229326
 11
4.5358188873
 21
5.1459770995
  0
LINE
  5
284
100
AcDbEntity
  8
0
100
AcDbLine
 62
7
  6
CONTINUOUS
 10
3.7762806103
 20
4.3986189682
 11
3.7607798248
 21
4.3831181826
  0
LINE
  5
285
100
AcDbEntity
  8
03__ASM_ALL_CURVES
100
AcDbLine
 62
40
  6
CONTINUOUS
 10
4.2391391998
 20
5.1459770995
 11
4.2270298248
 21
5.1379041826
  0
LINE
  5
286
100
AcDbEntity
  8
03__ASM_ALL_CURVES
100
AcDbLine
 62
40
  6
CONTINUOUS
 10
4.4086704498
 20
5.2267062679
 11
4.4207798248
 21
5.2347791826
  0
LINE
  5
287
100
AcDbEntity
  8
03__ASM_ALL_CURVES
100
AcDbLine
 62
40
  6
CONTINUOUS
 10
4.4994907623
 20
5.2267062679
 11
4.5116001373
 21
5.2347791826
  0
LINE
  5
288
100
AcDbEntity
  8
03__ASM_ALL_CURVES
100
AcDbLine
 62
40
  6
CONTINUOUS
 10
4.4328891998
 20
5.1459770995
 11
4.4207798248
 21
5.1379041826
  0
LINE
  5
289
100
AcDbEntity
  8
0
100
AcDbLine
 62
7
  6
CONTINUOUS
 10
4.0332798248
 20
3.7441181826
 11
3.9832798248
 21
3.7941181826
  0
LINE
  5
28A
100
AcDbEntity
  8
0
100
AcDbLine
 62
7
  6
CONTINUOUS
 10
3.9522798248
 20
4.3886181826
 11
3.9461850526
 21
4.3991746376
  0
LINE
  5
28B
100
AcDbEntity
  8
03__ASM_ALL_CURVES
100
AcDbLine
 62
40
  6
CONTINUOUS
 10
4.3965610748
 20
5.1701958502
 11
4.3965610748
 21
5.2024875179
  0
LINE
  5
28C
100
AcDbEntity
  8
0
100
AcDbLine
 62
7
  6
CONTINUOUS
 10
4.4832798248
 20
3.6876181826
 11
4.4832798248
 21
4.5476181826
  0
LINE
  5
28D
100
AcDbEntity
  8
0
100
AcDbLine
 62
7
  6
CONTINUOUS
 10
4.5173434906
 20
3.6286181826
 11
4.5173434906
 21
3.6295157101
  0
LINE
  5
28E
100
AcDbEntity
  8
0
100
AcDbLine
 62
7
  6
CONTINUOUS
 10
4.5173434906
 20
3.8479206551
 11
4.5173434906
 21
3.8992132376
  0
LINE
  5
28F
100
AcDbEntity
  8
0
100
AcDbLine
 62
7
  6
CONTINUOUS
 10
4.5173434906
 20
4.3360231276
 11
4.5173434906
 21
4.3873157101
  0
LINE
  5
290
100
AcDbEntity
  8
0
100
AcDbLine
 62
7
  6
CONTINUOUS
 10
4.5173434906
 20
4.6057206551
 11
4.5173434906
 21
4.6066181826
  0
LINE
  5
291
100
AcDbEntity
  8
03__ASM_ALL_CURVES
100
AcDbLine
 62
40
  6
CONTINUOUS
 10
4.6932407623
 20
5.1621229326
 11
4.6871860748
 21
5.1379041826
  0
LINE
  5
292
100
AcDbEntity
  8
0
100
AcDbLine
 62
7
  6
CONTINUOUS
 10
3.9522798248
 20
3.8466181826
 11
3.9461850526
 21
3.8360617276
  0
LINE
  5
293
100
AcDbEntity
  8
03__ASM_ALL_CURVES
100
AcDbLine
 62
40
  6
CONTINUOUS
 10
4.8264438873
 20
5.2347791826
 11
4.7840610748
 21
5.1621229326
  0
LINE
  5
294
100
AcDbEntity
  8
03__ASM_ALL_CURVES
100
AcDbLine
 62
40
  6
CONTINUOUS
 10
4.6871860748
 20
5.2186333473
 11
4.6932407623
 21
5.2267062679
  0
LINE
  5
295
100
AcDbEntity
  8
03__ASM_ALL_CURVES
100
AcDbLine
 62
40
  6
CONTINUOUS
 10
4.7053501373
 20
5.178268765
 11
4.6932407623
 21
5.1621229326
  0
LINE
  5
296
100
AcDbEntity
  8
03__ASM_ALL_CURVES
100
AcDbLine
 62
40
  6
CONTINUOUS
 10
4.7356235748
 20
5.2024875179
 11
4.7295688873
 21
5.1944145973
  0
LINE
  5
297
100
AcDbEntity
  8
0
100
AcDbLine
 62
7
  6
CONTINUOUS
 10
4.0332798248
 20
4.4911181826
 11
3.9832798248
 21
4.4411181826
  0
LINE
  5
298
100
AcDbEntity
  8
03__ASM_ALL_CURVES
100
AcDbLine
 62
40
  6
CONTINUOUS
 10
4.5358188873
 20
5.2024875179
 11
4.5237095123
 21
5.1944145973
  0
LINE
  5
299
100
AcDbEntity
  8
03__ASM_ALL_CURVES
100
AcDbLine
 62
40
  6
CONTINUOUS
 10
4.5358188873
 20
5.1459770995
 11
4.5237095123
 21
5.1379041826
  0
LINE
  5
29A
100
AcDbEntity
  8
03__ASM_ALL_CURVES
100
AcDbLine
 62
40
  6
CONTINUOUS
 10
4.6932407623
 20
5.2267062679
 11
4.7053501373
 21
5.2347791826
  0
LINE
  5
29B
100
AcDbEntity
  8
03__ASM_ALL_CURVES
100
AcDbLine
 62
40
  6
CONTINUOUS
 10
4.7295688873
 20
5.1944145973
 11
4.7053501373
 21
5.178268765
  0
LINE
  5
29C
100
AcDbEntity
  8
03__ASM_ALL_CURVES
100
AcDbLine
 62
40
  6
CONTINUOUS
 10
4.2451938873
 20
5.1863416826
 11
4.2270298248
 21
5.178268765
  0
LINE
  5
29D
100
AcDbEntity
  8
03__ASM_ALL_CURVES
100
AcDbLine
 62
40
  6
CONTINUOUS
 10
4.4026157623
 20
5.1863416826
 11
4.4207798248
 21
5.1944145973
  0
LINE
  5
29E
100
AcDbEntity
  8
0
100
AcDbLine
 62
7
  6
CONTINUOUS
 10
3.7447798248
 20
4.3831181826
 11
3.7392798248
 21
4.3886181826
  0
LINE
  5
29F
100
AcDbEntity
  8
0
100
AcDbLine
 62
7
  6
CONTINUOUS
 10
4.5173434906
 20
3.6286181826
 11
4.4832798248
 21
3.6876181826
  0
LINE
  5
2A0
100
AcDbEntity
  8
03__ASM_ALL_CURVES
100
AcDbLine
 62
40
  6
CONTINUOUS
 10
4.5418735748
 20
5.2186333473
 11
4.5418735748
 21
5.2105604326
  0
LINE
  5
2A1
100
AcDbEntity
  8
03__ASM_ALL_CURVES
100
AcDbLine
 62
40
  6
CONTINUOUS
 10
4.5479282623
 20
5.1701958502
 11
4.5479282623
 21
5.1621229326
  0
LINE
  5
2A2
100
AcDbEntity
  8
03__ASM_ALL_CURVES
100
AcDbLine
 62
40
  6
CONTINUOUS
 10
4.6084751373
 20
5.1379041826
 11
4.6084751373
 21
5.1459770995
  0
LINE
  5
2A3
100
AcDbEntity
  8
0
100
AcDbLine
 62
7
  6
CONTINUOUS
 10
4.5169548498
 20
4.605945037
 11
4.4832798248
 21
4.5476181826
  0
LINE
  5
2A4
100
AcDbEntity
  8
03__ASM_ALL_CURVES
100
AcDbLine
 62
40
  6
CONTINUOUS
 10
4.9112095123
 20
5.1540500164
 11
4.8991001373
 21
5.1379041826
  0
LINE
  5
2A5
100
AcDbEntity
  8
0
100
AcDbLine
 62
7
  6
CONTINUOUS
 10
3.7447798248
 20
3.8521181826
 11
3.7392798248
 21
3.8466181826
  0
LINE
  5
2A6
100
AcDbEntity
  8
03__ASM_ALL_CURVES
100
AcDbLine
 62
40
  6
CONTINUOUS
 10
4.2088657623
 20
5.1863416826
 11
4.2028110748
 21
5.2024875179
  0
LINE
  5
2A7
100
AcDbEntity
  8
03__ASM_ALL_CURVES
100
AcDbLine
 62
40
  6
CONTINUOUS
 10
4.2451938873
 20
5.2186333473
 11
4.2512485748
 21
5.2024875179
  0
LINE
  5
2A8
100
AcDbEntity
  8
03__ASM_ALL_CURVES
100
AcDbLine
 62
40
  6
CONTINUOUS
 10
4.3117954498
 20
5.178268765
 11
4.3178501373
 21
5.1540500164
  0
LINE
  5
2A9
100
AcDbEntity
  8
03__ASM_ALL_CURVES
100
AcDbLine
 62
40
  6
CONTINUOUS
 10
4.7356235748
 20
5.2186333473
 11
4.7356235748
 21
5.2024875179
  0
LINE
  5
2AA
100
AcDbEntity
  8
03__ASM_ALL_CURVES
100
AcDbLine
 62
40
  6
CONTINUOUS
 10
4.8264438873
 20
5.1379041826
 11
4.8264438873
 21
5.2347791826
  0
LINE
  5
2AB
100
AcDbEntity
  8
0
100
AcDbLine
 62
7
  6
CONTINUOUS
 10
4.8907798248
 20
3.6286181826
 11
4.8907798248
 21
3.6295157101
  0
LINE
  5
2AC
100
AcDbEntity
  8
0
100
AcDbLine
 62
7
  6
CONTINUOUS
 10
4.8907798248
 20
3.8479206551
 11
4.8907798248
 21
3.8992132376
  0
LINE
  5
2AD
100
AcDbEntity
  8
0
100
AcDbLine
 62
7
  6
CONTINUOUS
 10
4.8907798248
 20
4.3360231276
 11
4.8907798248
 21
4.3873157101
  0
LINE
  5
2AE
100
AcDbEntity
  8
0
100
AcDbLine
 62
7
  6
CONTINUOUS
 10
4.8907798248
 20
4.6057206551
 11
4.8907798248
 21
4.6066181826
  0
LINE
  5
2AF
100
AcDbEntity
  8
03__ASM_ALL_CURVES
100
AcDbLine
 62
40
  6
CONTINUOUS
 10
4.9172641998
 20
5.178268765
 11
4.9112095123
 21
5.1540500164
  0
LINE
  5
2B0
100
AcDbEntity
  8
03__ASM_ALL_CURVES
100
AcDbLine
 62
40
  6
CONTINUOUS
 10
6.6997476094
 20
3.3395556826
 11
6.6634194844
 21
3.3395556826
  0
LINE
  5
2B1
100
AcDbEntity
  8
03__ASM_ALL_CURVES
100
AcDbLine
 62
40
  6
CONTINUOUS
 10
6.5907632344
 20
3.3395556826
 11
6.6270913594
 21
3.3395556826
  0
LINE
  5
2B2
100
AcDbEntity
  8
03__ASM_ALL_CURVES
100
AcDbLine
 62
40
  6
CONTINUOUS
 10
5.3525991615
 20
3.3637744333
 11
5.3798452552
 21
3.3637744333
  0
LINE
  5
2B3
100
AcDbEntity
  8
03__ASM_ALL_CURVES
100
AcDbLine
 62
40
  6
CONTINUOUS
 10
6.6634194844
 20
3.3758838076
 11
6.6861245625
 21
3.3758838076
  0
LINE
  5
2B4
100
AcDbEntity
  8
03__ASM_ALL_CURVES
100
AcDbLine
 62
40
  6
CONTINUOUS
 10
5.3208120487
 20
3.4509619326
 11
5.3117300175
 21
3.4570166203
  0
LINE
  5
2B5
100
AcDbEntity
  8
03__ASM_ALL_CURVES
100
AcDbLine
 62
40
  6
CONTINUOUS
 10
5.25723783
 20
3.5236181826
 11
5.2663198612
 21
3.5175634965
  0
LINE
  5
2B6
100
AcDbEntity
  8
03__ASM_ALL_CURVES
100
AcDbLine
 62
40
  6
CONTINUOUS
 10
3.9545688873
 20
5.2267062679
 11
3.9606235748
 21
5.2186333473
  0
LINE
  5
2B7
100
AcDbEntity
  8
03__ASM_ALL_CURVES
100
AcDbLine
 62
40
  6
CONTINUOUS
 10
4.4026157623
 20
5.1540500164
 11
4.3965610748
 21
5.1701958502
  0
LINE
  5
2B8
100
AcDbEntity
  8
03__ASM_ALL_CURVES
100
AcDbLine
 62
40
  6
CONTINUOUS
 10
4.4389438873
 20
5.1863416826
 11
4.4449985748
 21
5.1701958502
  0
LINE
  5
2B9
100
AcDbEntity
  8
03__ASM_ALL_CURVES
100
AcDbLine
 62
40
  6
CONTINUOUS
 10
4.9172641998
 20
5.1944145973
 11
4.9172641998
 21
5.178268765
  0
LINE
  5
2BA
100
AcDbEntity
  8
0
100
AcDbLine
 62
7
  6
CONTINUOUS
 10
4.9512798248
 20
3.6891181826
 11
4.9512798248
 21
4.5461181826
  0
LINE
  5
2BB
100
AcDbEntity
  8
0
100
AcDbLine
 62
7
  6
CONTINUOUS
 10
5.0762798248
 20
3.6891181826
 11
5.0762798248
 21
4.5461181826
  0
LINE
  5
2BC
100
AcDbEntity
  8
03__ASM_ALL_CURVES
100
AcDbLine
 62
40
  6
CONTINUOUS
 10
5.2708608802
 20
3.4122119326
 11
5.3162710365
 21
3.4122119326
  0
LINE
  5
2BD
100
AcDbEntity
  8
03__ASM_ALL_CURVES
100
AcDbLine
 62
40
  6
CONTINUOUS
 10
6.6634194844
 20
3.4122119326
 11
6.6997476094
 21
3.4122119326
  0
LINE
  5
2BE
100
AcDbEntity
  8
03__ASM_ALL_CURVES
100
AcDbLine
 62
40
  6
CONTINUOUS
 10
6.7315347187
 20
3.4122119326
 11
6.776944875
 21
3.4122119326
  0
LINE
  5
2BF
100
AcDbEntity
  8
03__ASM_ALL_CURVES
100
AcDbLine
 62
40
  6
CONTINUOUS
 10
6.5521646258
 20
3.4509619326
 11
6.5430825945
 21
3.4509619326
  0
LINE
  5
2C0
100
AcDbEntity
  8
03__ASM_ALL_CURVES
100
AcDbLine
 62
40
  6
CONTINUOUS
 10
5.54786283
 20
3.4509619326
 11
5.5387807987
 21
3.4509619326
  0
LINE
  5
2C1
100
AcDbEntity
  8
03__ASM_ALL_CURVES
100
AcDbLine
 62
40
  6
CONTINUOUS
 10
5.32989408
 20
3.4509619326
 11
5.3208120487
 21
3.4509619326
  0
LINE
  5
2C2
100
AcDbEntity
  8
03__ASM_ALL_CURVES
100
AcDbLine
 62
40
  6
CONTINUOUS
 10
6.7474282976
 20
3.4509619326
 11
6.7837564226
 21
3.4509619326
  0
LINE
  5
2C3
100
AcDbEntity
  8
03__ASM_ALL_CURVES
100
AcDbLine
 62
40
  6
CONTINUOUS
 10
6.6248208758
 20
3.4872900576
 11
6.6021157976
 21
3.4872900576
  0
LINE
  5
2C4
100
AcDbEntity
  8
03__ASM_ALL_CURVES
100
AcDbLine
 62
40
  6
CONTINUOUS
 10
6.4795083758
 20
3.4872900576
 11
6.4568032976
 21
3.4872900576
  0
LINE
  5
2C5
100
AcDbEntity
  8
03__ASM_ALL_CURVES
100
AcDbLine
 62
40
  6
CONTINUOUS
 10
5.40255033
 20
3.4872900576
 11
5.3798452518
 21
3.4872900576
  0
LINE
  5
2C6
100
AcDbEntity
  8
03__ASM_ALL_CURVES
100
AcDbLine
 62
40
  6
CONTINUOUS
 10
5.25723783
 20
3.4872900576
 11
5.2345327518
 21
3.4872900576
  0
LINE
  5
2C7
100
AcDbEntity
  8
03__ASM_ALL_CURVES
100
AcDbLine
 62
40
  6
CONTINUOUS
 10
5.5387807987
 20
3.4933447437
 11
5.54786283
 21
3.4933447437
  0
LINE
  5
2C8
100
AcDbEntity
  8
03__ASM_ALL_CURVES
100
AcDbLine
 62
40
  6
CONTINUOUS
 10
5.2345327518
 20
3.5236181826
 11
5.25723783
 21
3.5236181826
  0
LINE
  5
2C9
100
AcDbEntity
  8
03__ASM_ALL_CURVES
100
AcDbLine
 62
40
  6
CONTINUOUS
 10
5.3208120487
 20
3.5236181826
 11
5.32989408
 21
3.5236181826
  0
LINE
  5
2CA
100
AcDbEntity
  8
03__ASM_ALL_CURVES
100
AcDbLine
 62
40
  6
CONTINUOUS
 10
5.3798452518
 20
3.5236181826
 11
5.40255033
 21
3.5236181826
  0
LINE
  5
2CB
100
AcDbEntity
  8
03__ASM_ALL_CURVES
100
AcDbLine
 62
40
  6
CONTINUOUS
 10
5.4479604862
 20
3.5236181826
 11
5.4933706425
 21
3.5236181826
  0
LINE
  5
2CC
100
AcDbEntity
  8
03__ASM_ALL_CURVES
100
AcDbLine
 62
40
  6
CONTINUOUS
 10
5.5387807987
 20
3.5236181826
 11
5.54786283
 21
3.5236181826
  0
LINE
  5
2CD
100
AcDbEntity
  8
03__ASM_ALL_CURVES
100
AcDbLine
 62
40
  6
CONTINUOUS
 10
6.4568032976
 20
3.5236181826
 11
6.4795083758
 21
3.5236181826
  0
LINE
  5
2CE
100
AcDbEntity
  8
03__ASM_ALL_CURVES
100
AcDbLine
 62
40
  6
CONTINUOUS
 10
6.5430825945
 20
3.5236181826
 11
6.5521646258
 21
3.5236181826
  0
LINE
  5
2CF
100
AcDbEntity
  8
03__ASM_ALL_CURVES
100
AcDbLine
 62
40
  6
CONTINUOUS
 10
6.6021157976
 20
3.5236181826
 11
6.6248208758
 21
3.5236181826
  0
LINE
  5
2D0
100
AcDbEntity
  8
03__ASM_ALL_CURVES
100
AcDbLine
 62
40
  6
CONTINUOUS
 10
6.670231032
 20
3.5236181826
 11
6.7156411883
 21
3.5236181826
  0
LINE
  5
2D1
100
AcDbEntity
  8
03__ASM_ALL_CURVES
100
AcDbLine
 62
40
  6
CONTINUOUS
 10
6.7610513445
 20
3.5236181826
 11
6.7701333758
 21
3.5236181826
  0
LINE
  5
2D2
100
AcDbEntity
  8
03__ASM_ALL_CURVES
100
AcDbLine
 62
40
  6
CONTINUOUS
 10
5.32989408
 20
3.5236181826
 11
5.3389761112
 21
3.5175634965
  0
LINE
  5
2D3
100
AcDbEntity
  8
03__ASM_ALL_CURVES
100
AcDbLine
 62
40
  6
CONTINUOUS
 10
5.40255033
 20
3.5236181826
 11
5.4116323612
 21
3.5175634965
  0
LINE
  5
2D4
100
AcDbEntity
  8
03__ASM_ALL_CURVES
100
AcDbLine
 62
40
  6
CONTINUOUS
 10
5.5387807987
 20
3.4509619326
 11
5.5296987675
 21
3.4570166203
  0
LINE
  5
2D5
100
AcDbEntity
  8
03__ASM_ALL_CURVES
100
AcDbLine
 62
40
  6
CONTINUOUS
 10
5.54786283
 20
3.4933447437
 11
5.5569448612
 21
3.4872900576
  0
LINE
  5
2D6
100
AcDbEntity
  8
03__ASM_ALL_CURVES
100
AcDbLine
 62
40
  6
CONTINUOUS
 10
5.54786283
 20
3.5236181826
 11
5.5569448612
 21
3.5175634965
  0
LINE
  5
2D7
100
AcDbEntity
  8
03__ASM_ALL_CURVES
100
AcDbLine
 62
40
  6
CONTINUOUS
 10
4.0272251373
 20
5.1459770995
 11
4.0332798248
 21
5.1379041826
  0
LINE
  5
2D8
100
AcDbEntity
  8
03__ASM_ALL_CURVES
100
AcDbLine
 62
40
  6
CONTINUOUS
 10
5.3117300175
 20
3.4570166203
 11
5.3026479862
 21
3.4691259951
  0
LINE
  5
2D9
100
AcDbEntity
  8
03__ASM_ALL_CURVES
100
AcDbLine
 62
40
  6
CONTINUOUS
 10
5.2663198612
 20
3.5175634965
 11
5.2708608768
 21
3.5115088062
  0
LINE
  5
2DA
100
AcDbEntity
  8
03__ASM_ALL_CURVES
100
AcDbLine
 62
40
  6
CONTINUOUS
 10
5.3389761112
 20
3.5175634965
 11
5.3480581425
 21
3.5054541201
  0
LINE
  5
2DB
100
AcDbEntity
  8
03__ASM_ALL_CURVES
100
AcDbLine
 62
40
  6
CONTINUOUS
 10
5.4116323612
 20
3.5175634965
 11
5.4161733768
 21
3.5115088062
  0
LINE
  5
2DC
100
AcDbEntity
  8
03__ASM_ALL_CURVES
100
AcDbLine
 62
40
  6
CONTINUOUS
 10
4.2149204498
 20
5.1459770995
 11
4.2088657623
 21
5.1540500164
  0
LINE
  5
2DD
100
AcDbEntity
  8
03__ASM_ALL_CURVES
100
AcDbLine
 62
40
  6
CONTINUOUS
 10
5.4207143959
 20
3.4122119326
 11
5.4570425209
 21
3.3395556826
  0
LINE
  5
2DE
100
AcDbEntity
  8
0
100
AcDbLine
 62
7
  6
CONTINUOUS
 10
5.1262798248
 20
3.6896188333
 11
5.1262798248
 21
4.5456175319
  0
LINE
  5
2DF
100
AcDbEntity
  8
0
100
AcDbLine
 62
7
  6
CONTINUOUS
 10
5.1962798248
 20
4.5266181826
 11
5.1962798248
 21
3.7086181826
  0
LINE
  5
2E0
100
AcDbEntity
  8
0
100
AcDbLine
 62
7
  6
CONTINUOUS
 10
5.2042798248
 20
3.7436181826
 11
5.2042798248
 21
4.4916181826
  0
LINE
  5
2E1
100
AcDbEntity
  8
0
100
AcDbLine
 62
7
  6
CONTINUOUS
 10
5.2172798248
 20
3.6891181826
 11
5.2172798248
 21
4.5461181826
  0
LINE
  5
2E2
100
AcDbEntity
  8
03__ASM_ALL_CURVES
100
AcDbLine
 62
40
  6
CONTINUOUS
 10
5.2345327518
 20
3.4509619326
 11
5.2345327518
 21
3.5236181826
  0
LINE
  5
2E3
100
AcDbEntity
  8
0
100
AcDbLine
 62
7
  6
CONTINUOUS
 10
5.2667798248
 20
3.6891181826
 11
5.2667798248
 21
4.5461181826
  0
LINE
  5
2E4
100
AcDbEntity
  8
03__ASM_ALL_CURVES
100
AcDbLine
 62
40
  6
CONTINUOUS
 10
5.928209513
 20
5.2267062679
 11
5.940318888
 21
5.2347791826
  0
LINE
  5
2E5
100
AcDbEntity
  8
03__ASM_ALL_CURVES
100
AcDbLine
 62
40
  6
CONTINUOUS
 10
6.025084513
 20
5.2267062679
 11
6.037193888
 21
5.2347791826
  0
LINE
  5
2E6
100
AcDbEntity
  8
03__ASM_ALL_CURVES
100
AcDbLine
 62
40
  6
CONTINUOUS
 10
5.964537638
 20
5.1459770995
 11
5.952428263
 21
5.1379041826
  0
LINE
  5
2E7
100
AcDbEntity
  8
03__ASM_ALL_CURVES
100
AcDbLine
 62
40
  6
CONTINUOUS
 10
6.061412638
 20
5.1459770995
 11
6.049303263
 21
5.1379041826
  0
LINE
  5
2E8
100
AcDbEntity
  8
0
100
AcDbLine
 62
7
  6
CONTINUOUS
 10
4.8907798248
 20
3.6286181826
 11
4.5173434906
 21
3.6286181826
  0
LINE
  5
2E9
100
AcDbEntity
  8
0
100
AcDbLine
 62
7
  6
CONTINUOUS
 10
4.8907798248
 20
3.6295157101
 11
4.5173434906
 21
3.6295157101
  0
LINE
  5
2EA
100
AcDbEntity
  8
0
100
AcDbLine
 62
7
  6
CONTINUOUS
 10
5.6702798248
 20
3.6891181826
 11
5.6152798248
 21
3.6891181826
  0
LINE
  5
2EB
100
AcDbEntity
  8
0
100
AcDbLine
 62
7
  6
CONTINUOUS
 10
5.2667798248
 20
3.6891181826
 11
5.2172798248
 21
3.6891181826
  0
LINE
  5
2EC
100
AcDbEntity
  8
0
100
AcDbLine
 62
7
  6
CONTINUOUS
 10
5.0762798248
 20
3.6891181826
 11
4.9512798248
 21
3.6891181826
  0
LINE
  5
2ED
100
AcDbEntity
  8
0
100
AcDbLine
 62
7
  6
CONTINUOUS
 10
5.0762798248
 20
3.6896181826
 11
5.1262798248
 21
3.6896181826
  0
LINE
  5
2EE
100
AcDbEntity
  8
THREAD
100
AcDbLine
 62
7
  6
CONTINUOUS
 10
5.7172798248
 20
3.7126181826
 11
5.685868282
 21
3.7126181826
  0
LINE
  5
2EF
100
AcDbEntity
  8
0
100
AcDbLine
 62
7
  6
CONTINUOUS
 10
5.7872798248
 20
3.7131181826
 11
5.8372798248
 21
3.7131181826
  0
LINE
  5
2F0
100
AcDbEntity
  8
THREAD
100
AcDbLine
 62
7
  6
CONTINUOUS
 10
6.1257798248
 20
3.7301181826
 11
5.8786417847
 21
3.7301181826
  0
LINE
  5
2F1
100
AcDbEntity
  8
0
100
AcDbLine
 62
7
  6
CONTINUOUS
 10
5.2042798248
 20
3.7436181826
 11
5.1962798248
 21
3.7436181826
  0
LINE
  5
2F2
100
AcDbEntity
  8
0
100
AcDbLine
 62
7
  6
CONTINUOUS
 10
4.4832798248
 20
3.7441181826
 11
4.1322798248
 21
3.7441181826
  0
LINE
  5
2F3
100
AcDbEntity
  8
0
100
AcDbLine
 62
7
  6
CONTINUOUS
 10
4.0842798248
 20
3.7441181826
 11
4.0332798248
 21
3.7441181826
  0
LINE
  5
2F4
100
AcDbEntity
  8
0
100
AcDbLine
 62
7
  6
CONTINUOUS
 10
5.4412798248
 20
3.7746181826
 11
5.5761731708
 21
3.7384736195
  0
LINE
  5
2F5
100
AcDbEntity
  8
03__ASM_ALL_CURVES
100
AcDbLine
 62
40
  6
CONTINUOUS
 10
5.5296987675
 20
3.4570166203
 11
5.5251577518
 21
3.463071308
  0
LINE
  5
2F6
100
AcDbEntity
  8
03__ASM_ALL_CURVES
100
AcDbLine
 62
40
  6
CONTINUOUS
 10
4.2391391998
 20
5.2267062679
 11
4.2451938873
 21
5.2186333473
  0
LINE
  5
2F7
100
AcDbEntity
  8
03__ASM_ALL_CURVES
100
AcDbLine
 62
40
  6
CONTINUOUS
 10
5.5569448612
 20
3.4872900576
 11
5.5660268925
 21
3.4751806833
  0
LINE
  5
2F8
100
AcDbEntity
  8
03__ASM_ALL_CURVES
100
AcDbLine
 62
40
  6
CONTINUOUS
 10
4.3178501373
 20
5.1540500164
 11
4.3299595123
 21
5.1379041826
  0
LINE
  5
2F9
100
AcDbEntity
  8
03__ASM_ALL_CURVES
100
AcDbLine
 62
40
  6
CONTINUOUS
 10
5.5569448612
 20
3.5175634965
 11
5.5614858768
 21
3.5115088062
  0
LINE
  5
2FA
100
AcDbEntity
  8
03__ASM_ALL_CURVES
100
AcDbLine
 62
40
  6
CONTINUOUS
 10
4.4086704498
 20
5.1459770995
 11
4.4026157623
 21
5.1540500164
  0
LINE
  5
2FB
100
AcDbEntity
  8
03__ASM_ALL_CURVES
100
AcDbLine
 62
40
  6
CONTINUOUS
 10
5.40255033
 20
3.4872900576
 11
5.4161733768
 21
3.4509619326
  0
LINE
  5
2FC
100
AcDbEntity
  8
03__ASM_ALL_CURVES
100
AcDbLine
 62
40
  6
CONTINUOUS
 10
5.5115347084
 20
3.387993184
 11
5.5296987709
 21
3.3395556826
  0
LINE
  5
2FD
100
AcDbEntity
  8
03__ASM_ALL_CURVES
100
AcDbLine
 62
40
  6
CONTINUOUS
 10
5.3662222084
 20
3.4122119326
 11
5.3889272865
 21
3.3395556826
  0
LINE
  5
2FE
100
AcDbEntity
  8
03__ASM_ALL_CURVES
100
AcDbLine
 62
40
  6
CONTINUOUS
 10
5.3026479862
 20
3.4691259951
 11
5.2981069706
 21
3.4872900576
  0
LINE
  5
2FF
100
AcDbEntity
  8
03__ASM_ALL_CURVES
100
AcDbLine
 62
40
  6
CONTINUOUS
 10
4.9112095123
 20
5.2186333473
 11
4.9172641998
 21
5.1944145973
  0
LINE
  5
300
100
AcDbEntity
  8
03__ASM_ALL_CURVES
100
AcDbLine
 62
40
  6
CONTINUOUS
 10
5.3480581425
 20
3.5054541201
 11
5.3525991581
 21
3.4872900576
  0
LINE
  5
301
100
AcDbEntity
  8
03__ASM_ALL_CURVES
100
AcDbLine
 62
40
  6
CONTINUOUS
 10
5.2708608768
 20
3.5115088062
 11
5.2708608768
 21
3.499399434
  0
LINE
  5
302
100
AcDbEntity
  8
126-401_HEX_FEATURES
100
AcDbLine
 62
7
  6
CONTINUOUS
 10
5.2896894807
 20
3.7746181826
 11
5.2896894807
 21
4.1001210318
  0
LINE
  5
303
100
AcDbEntity
  8
126-401_HEX_FEATURES
100
AcDbLine
 62
7
  6
CONTINUOUS
 10
5.2896894807
 20
4.1351153334
 11
5.2896894807
 21
4.4606181826
  0
LINE
  5
304
100
AcDbEntity
  8
03__ASM_ALL_CURVES
100
AcDbLine
 62
40
  6
CONTINUOUS
 10
5.2935659584
 20
3.4122119326
 11
5.2935659584
 21
3.3395556826
  0
LINE
  5
305
100
AcDbEntity
  8
03__ASM_ALL_CURVES
100
AcDbLine
 62
40
  6
CONTINUOUS
 10
5.3798452518
 20
3.4509619326
 11
5.3798452518
 21
3.5236181826
  0
LINE
  5
306
100
AcDbEntity
  8
03__ASM_ALL_CURVES
100
AcDbLine
 62
40
  6
CONTINUOUS
 10
5.4161733768
 20
3.5115088062
 11
5.4161733768
 21
3.499399434
  0
LINE
  5
307
100
AcDbEntity
  8
03__ASM_ALL_CURVES
100
AcDbLine
 62
40
  6
CONTINUOUS
 10
5.4207143959
 20
3.3395556826
 11
5.4207143959
 21
3.4122119326
  0
LINE
  5
308
100
AcDbEntity
  8
0
100
AcDbLine
 62
7
  6
CONTINUOUS
 10
5.4412798248
 20
3.7746181826
 11
5.4412798248
 21
4.4606181826
  0
LINE
  5
309
100
AcDbEntity
  8
0
100
AcDbLine
 62
7
  6
CONTINUOUS
 10
5.2896894807
 20
3.7746181826
 11
5.2667798248
 21
3.6891181826
  0
LINE
  5
30A
100
AcDbEntity
  8
03__ASM_ALL_CURVES
100
AcDbLine
 62
40
  6
CONTINUOUS
 10
5.916100138
 20
5.2105604326
 11
5.928209513
 21
5.2267062679
  0
LINE
  5
30B
100
AcDbEntity
  8
03__ASM_ALL_CURVES
100
AcDbLine
 62
40
  6
CONTINUOUS
 10
5.976647013
 20
5.1621229326
 11
5.964537638
 21
5.1459770995
  0
LINE
  5
30C
100
AcDbEntity
  8
03__ASM_ALL_CURVES
100
AcDbLine
 62
40
  6
CONTINUOUS
 10
6.012975138
 20
5.2105604326
 11
6.025084513
 21
5.2267062679
  0
LINE
  5
30D
100
AcDbEntity
  8
03__ASM_ALL_CURVES
100
AcDbLine
 62
40
  6
CONTINUOUS
 10
6.509459513
 20
5.2267062679
 11
6.521568888
 21
5.2347791826
  0
LINE
  5
30E
100
AcDbEntity
  8
THREAD
100
AcDbLine
 62
7
  6
CONTINUOUS
 10
5.8497742713
 20
3.7671181826
 11
5.8372798248
 21
3.7671181826
  0
LINE
  5
30F
100
AcDbEntity
  8
0
100
AcDbLine
 62
7
  6
CONTINUOUS
 10
4.1192798248
 20
3.7676181826
 11
4.0972798248
 21
3.7676181826
  0
LINE
  5
310
100
AcDbEntity
  8
THREAD
100
AcDbLine
 62
7
  6
CONTINUOUS
 10
6.3482798248
 20
3.7746181826
 11
6.1702798248
 21
3.7746181826
  0
LINE
  5
311
100
AcDbEntity
  8
0
100
AcDbLine
 62
7
  6
CONTINUOUS
 10
5.4412798248
 20
3.7746181826
 11
5.2896894807
 21
3.7746181826
  0
LINE
  5
312
100
AcDbEntity
  8
0
100
AcDbLine
 62
7
  6
CONTINUOUS
 10
6.7492798248
 20
3.7751181826
 11
6.8092798248
 21
3.7751181826
  0
LINE
  5
313
100
AcDbEntity
  8
0
100
AcDbLine
 62
7
  6
CONTINUOUS
 10
6.9487798248
 20
3.7753681826
 11
7.0417798248
 21
3.7753681826
  0
LINE
  5
314
100
AcDbEntity
  8
0
100
AcDbLine
 62
7
  6
CONTINUOUS
 10
6.8792798248
 20
3.7806181826
 11
6.9292798248
 21
3.7806181826
  0
LINE
  5
315
100
AcDbEntity
  8
0
100
AcDbLine
 62
7
  6
CONTINUOUS
 10
6.9487798248
 20
3.8346181826
 11
6.9292798248
 21
3.8346181826
  0
LINE
  5
316
100
AcDbEntity
  8
0
100
AcDbLine
 62
7
  6
CONTINUOUS
 10
3.7762798248
 20
3.8366181826
 11
3.9465035464
 21
3.8366181826
  0
LINE
  5
317
100
AcDbEntity
  8
0
100
AcDbLine
 62
7
  6
CONTINUOUS
 10
6.7492798248
 20
3.8371181826
 11
6.5537798248
 21
3.8371181826
  0
LINE
  5
318
100
AcDbEntity
  8
0
100
AcDbLine
 62
7
  6
CONTINUOUS
 10
6.4447798248
 20
3.8371181826
 11
6.3582798248
 21
3.8371181826
  0
LINE
  5
319
100
AcDbEntity
  8
0
100
AcDbLine
 62
7
  6
CONTINUOUS
 10
3.9832798248
 20
3.8466181826
 11
3.9522798248
 21
3.8466181826
  0
LINE
  5
31A
100
AcDbEntity
  8
0
100
AcDbLine
 62
7
  6
CONTINUOUS
 10
3.7392798248
 20
3.8466181826
 11
3.7332798248
 21
3.8466181826
  0
LINE
  5
31B
100
AcDbEntity
  8
0
100
AcDbLine
 62
7
  6
CONTINUOUS
 10
4.8907798248
 20
3.8479206551
 11
4.5173434906
 21
3.8479206551
  0
LINE
  5
31C
100
AcDbEntity
  8
0
100
AcDbLine
 62
7
  6
CONTINUOUS
 10
3.7607798248
 20
3.8521181826
 11
3.7447798248
 21
3.8521181826
  0
LINE
  5
31D
100
AcDbEntity
  8
0
100
AcDbLine
 62
7
  6
CONTINUOUS
 10
4.8907798248
 20
3.8992132376
 11
4.5173434906
 21
3.8992132376
  0
LINE
  5
31E
100
AcDbEntity
  8
0
100
AcDbLine
 62
7
  6
CONTINUOUS
 10
3.2022798248
 20
3.9336181826
 11
3.4012798248
 21
3.9336181826
  0
LINE
  5
31F
100
AcDbEntity
  8
0
100
AcDbLine
 62
7
  6
CONTINUOUS
 10
3.4392798248
 20
3.9336181826
 11
3.6712798248
 21
3.9336181826
  0
LINE
  5
320
100
AcDbEntity
  8
0
100
AcDbLine
 62
7
  6
CONTINUOUS
 10
4.9512798248
 20
4.5461181826
 11
4.8912285885
 21
4.6061694188
  0
LINE
  5
321
100
AcDbEntity
  8
03__ASM_ALL_CURVES
100
AcDbLine
 62
40
  6
CONTINUOUS
 10
4.4328891998
 20
5.2267062679
 11
4.4389438873
 21
5.2186333473
  0
LINE
  5
322
100
AcDbEntity
  8
03__ASM_ALL_CURVES
100
AcDbLine
 62
40
  6
CONTINUOUS
 10
4.4994907623
 20
5.1459770995
 11
4.4934360748
 21
5.1540500164
  0
LINE
  5
323
100
AcDbEntity
  8
03__ASM_ALL_CURVES
100
AcDbLine
 62
40
  6
CONTINUOUS
 10
4.5358188873
 20
5.1863416826
 11
4.5479282623
 21
5.1701958502
  0
LINE
  5
324
100
AcDbEntity
  8
03__ASM_ALL_CURVES
100
AcDbLine
 62
40
  6
CONTINUOUS
 10
4.5358188873
 20
5.2267062679
 11
4.5418735748
 21
5.2186333473
  0
LINE
  5
325
100
AcDbEntity
  8
03__ASM_ALL_CURVES
100
AcDbLine
 62
40
  6
CONTINUOUS
 10
4.6084751373
 20
5.1459770995
 11
4.6145298248
 21
5.1379041826
  0
LINE
  5
326
100
AcDbEntity
  8
0
100
AcDbLine
 62
7
  6
CONTINUOUS
 10
5.2896894807
 20
4.4606181826
 11
5.2667798248
 21
4.5461181826
  0
LINE
  5
327
100
AcDbEntity
  8
03__ASM_ALL_CURVES
100
AcDbLine
 62
40
  6
CONTINUOUS
 10
5.4570425209
 20
3.3395556826
 11
5.4570425209
 21
3.4122119326
  0
LINE
  5
328
100
AcDbEntity
  8
03__ASM_ALL_CURVES
100
AcDbLine
 62
40
  6
CONTINUOUS
 10
5.4706655643
 20
3.5236181826
 11
5.4706655643
 21
3.4509619326
  0
LINE
  5
329
100
AcDbEntity
  8
03__ASM_ALL_CURVES
100
AcDbLine
 62
40
  6
CONTINUOUS
 10
5.4933706459
 20
3.4122119326
 11
5.4933706459
 21
3.3395556826
  0
LINE
  5
32A
100
AcDbEntity
  8
03__ASM_ALL_CURVES
100
AcDbLine
 62
40
  6
CONTINUOUS
 10
5.5540298248
 20
5.1185291826
 11
5.5540298248
 21
5.0797791826
  0
LINE
  5
32B
100
AcDbEntity
  8
03__ASM_ALL_CURVES
100
AcDbLine
 62
40
  6
CONTINUOUS
 10
5.5614858768
 20
3.5115088062
 11
5.5614858768
 21
3.5054541201
  0
LINE
  5
32C
100
AcDbEntity
  8
03__ASM_ALL_CURVES
100
AcDbLine
 62
40
  6
CONTINUOUS
 10
5.5660268925
 20
3.4751806833
 11
5.5660268925
 21
3.4691259951
  0
LINE
  5
32D
100
AcDbEntity
  8
0
100
AcDbLine
 62
7
  6
CONTINUOUS
 10
5.5761731708
 20
4.0738606969
 11
5.5761731708
 21
3.8133421897
  0
LINE
  5
32E
100
AcDbEntity
  8
0
100
AcDbLine
 62
7
  6
CONTINUOUS
 10
5.5761731708
 20
3.769584704
 11
5.5761731708
 21
3.7384736195
  0
LINE
  5
32F
100
AcDbEntity
  8
0
100
AcDbLine
 62
7
  6
CONTINUOUS
 10
5.5761731708
 20
4.1613756683
 11
5.5761731708
 21
4.4218941755
  0
LINE
  5
330
100
AcDbEntity
  8
0
100
AcDbLine
 62
7
  6
CONTINUOUS
 10
5.5761731708
 20
4.4656516612
 11
5.5761731708
 21
4.4967627457
  0
LINE
  5
331
100
AcDbEntity
  8
0
100
AcDbLine
 62
7
  6
CONTINUOUS
 10
5.6115285099
 20
3.7031182804
 11
5.6115285099
 21
4.5321180848
  0
LINE
  5
332
100
AcDbEntity
  8
0
100
AcDbLine
 62
7
  6
CONTINUOUS
 10
5.6152798248
 20
3.6891181826
 11
5.6152798248
 21
4.5461181826
  0
LINE
  5
333
100
AcDbEntity
  8
03__ASM_ALL_CURVES
100
AcDbLine
 62
40
  6
CONTINUOUS
 10
5.2981069706
 20
3.4872900576
 11
5.3026479862
 21
3.5054541201
  0
LINE
  5
334
100
AcDbEntity
  8
03__ASM_ALL_CURVES
100
AcDbLine
 62
40
  6
CONTINUOUS
 10
5.3525991581
 20
3.4872900576
 11
5.3480581425
 21
3.4691259951
  0
LINE
  5
335
100
AcDbEntity
  8
0
100
AcDbLine
 62
7
  6
CONTINUOUS
 10
5.6152798248
 20
4.5461181826
 11
5.6115285099
 21
4.5321180848
  0
LINE
  5
336
100
AcDbEntity
  8
03__ASM_ALL_CURVES
100
AcDbLine
 62
40
  6
CONTINUOUS
 10
6.0674673255
 20
5.1540500164
 11
6.061412638
 21
5.1459770995
  0
LINE
  5
337
100
AcDbEntity
  8
0
100
AcDbLine
 62
7
  6
CONTINUOUS
 10
4.9512798248
 20
3.6891181826
 11
4.8912285885
 21
3.6290669463
  0
LINE
  5
338
100
AcDbEntity
  8
03__ASM_ALL_CURVES
100
AcDbLine
 62
40
  6
CONTINUOUS
 10
6.545787638
 20
5.1459770995
 11
6.533678263
 21
5.1379041826
  0
LINE
  5
339
100
AcDbEntity
  8
03__ASM_ALL_CURVES
100
AcDbLine
 62
40
  6
CONTINUOUS
 10
6.715318888
 20
5.2347791826
 11
6.703209513
 21
5.2267062679
  0
LINE
  5
33A
100
AcDbEntity
  8
03__ASM_ALL_CURVES
100
AcDbLine
 62
40
  6
CONTINUOUS
 10
6.739537638
 20
5.1459770995
 11
6.727428263
 21
5.1379041826
  0
LINE
  5
33B
100
AcDbEntity
  8
03__ASM_ALL_CURVES
100
AcDbLine
 62
40
  6
CONTINUOUS
 10
6.896959513
 20
5.2267062679
 11
6.909068888
 21
5.2347791826
  0
LINE
  5
33C
100
AcDbEntity
  8
126-401_HEX_FEATURES
100
AcDbLine
 62
7
  6
CONTINUOUS
 10
5.2896894807
 20
4.1001210318
 11
5.2895971156
 21
4.1001181837
  0
LINE
  5
33D
100
AcDbEntity
  8
0
100
AcDbLine
 62
7
  6
CONTINUOUS
 10
3.4012798248
 20
3.9666181826
 11
3.4027798248
 21
3.9666181826
  0
LINE
  5
33E
100
AcDbEntity
  8
0
100
AcDbLine
 62
7
  6
CONTINUOUS
 10
3.4377798248
 20
3.9666181826
 11
3.4392798248
 21
3.9666181826
  0
LINE
  5
33F
100
AcDbEntity
  8
03__ASM_ALL_CURVES
100
AcDbLine
 62
40
  6
CONTINUOUS
 10
8.4314516994
 20
4.0255869326
 11
8.3951235744
 21
4.0255869326
  0
LINE
  5
340
100
AcDbEntity
  8
03__ASM_ALL_CURVES
100
AcDbLine
 62
40
  6
CONTINUOUS
 10
8.2725161525
 20
4.0255869326
 11
8.2634341213
 21
4.0255869326
  0
LINE
  5
341
100
AcDbEntity
  8
03__ASM_ALL_CURVES
100
AcDbLine
 62
40
  6
CONTINUOUS
 10
8.1998599025
 20
4.0255869326
 11
8.1907778713
 21
4.0255869326
  0
LINE
  5
342
100
AcDbEntity
  8
03__ASM_ALL_CURVES
100
AcDbLine
 62
40
  6
CONTINUOUS
 10
8.1272036525
 20
4.0255869326
 11
8.1181216213
 21
4.0255869326
  0
LINE
  5
343
100
AcDbEntity
  8
03__ASM_ALL_CURVES
100
AcDbLine
 62
40
  6
CONTINUOUS
 10
8.0681704494
 20
4.0255869326
 11
8.0318423244
 21
4.0255869326
  0
LINE
  5
344
100
AcDbEntity
  8
03__ASM_ALL_CURVES
100
AcDbLine
 62
40
  6
CONTINUOUS
 10
7.7593813869
 20
4.0255869326
 11
7.7412173244
 21
4.0255869326
  0
LINE
  5
345
100
AcDbEntity
  8
03__ASM_ALL_CURVES
100
AcDbLine
 62
40
  6
CONTINUOUS
 10
7.7048891994
 20
4.0255869326
 11
7.6685610744
 21
4.0255869326
  0
LINE
  5
346
100
AcDbEntity
  8
03__ASM_ALL_CURVES
100
AcDbLine
 62
40
  6
CONTINUOUS
 10
7.6186099025
 20
4.0255869326
 11
7.6095278713
 21
4.0255869326
  0
LINE
  5
347
100
AcDbEntity
  8
03__ASM_ALL_CURVES
100
AcDbLine
 62
40
  6
CONTINUOUS
 10
7.5459536525
 20
4.0255869326
 11
7.5368716213
 21
4.0255869326
  0
LINE
  5
348
100
AcDbEntity
  8
03__ASM_ALL_CURVES
100
AcDbLine
 62
40
  6
CONTINUOUS
 10
7.4687563869
 20
4.0255869326
 11
7.4505923244
 21
4.0255869326
  0
LINE
  5
349
100
AcDbEntity
  8
03__ASM_ALL_CURVES
100
AcDbLine
 62
40
  6
CONTINUOUS
 10
7.4142641994
 20
4.0255869326
 11
7.3779360744
 21
4.0255869326
  0
LINE
  5
34A
100
AcDbEntity
  8
03__ASM_ALL_CURVES
100
AcDbLine
 62
40
  6
CONTINUOUS
 10
8.3451724025
 20
4.0619150576
 11
8.3224673244
 21
4.0619150576
  0
LINE
  5
34B
100
AcDbEntity
  8
03__ASM_ALL_CURVES
100
AcDbLine
 62
40
  6
CONTINUOUS
 10
7.9818911525
 20
4.0619150576
 11
7.9591860744
 21
4.0619150576
  0
LINE
  5
34C
100
AcDbEntity
  8
03__ASM_ALL_CURVES
100
AcDbLine
 62
40
  6
CONTINUOUS
 10
7.9092349025
 20
4.0619150576
 11
7.8865298244
 21
4.0619150576
  0
LINE
  5
34D
100
AcDbEntity
  8
03__ASM_ALL_CURVES
100
AcDbLine
 62
40
  6
CONTINUOUS
 10
7.3279849025
 20
4.0619150576
 11
7.3052798244
 21
4.0619150576
  0
LINE
  5
34E
100
AcDbEntity
  8
03__ASM_ALL_CURVES
100
AcDbLine
 62
40
  6
CONTINUOUS
 10
7.3779360744
 20
4.0619150576
 11
7.4006411525
 21
4.0619150576
  0
LINE
  5
34F
100
AcDbEntity
  8
03__ASM_ALL_CURVES
100
AcDbLine
 62
40
  6
CONTINUOUS
 10
7.6685610744
 20
4.0619150576
 11
7.6912661525
 21
4.0619150576
  0
LINE
  5
350
100
AcDbEntity
  8
03__ASM_ALL_CURVES
100
AcDbLine
 62
40
  6
CONTINUOUS
 10
8.0318423244
 20
4.0619150576
 11
8.0545474025
 21
4.0619150576
  0
LINE
  5
351
100
AcDbEntity
  8
03__ASM_ALL_CURVES
100
AcDbLine
 62
40
  6
CONTINUOUS
 10
8.3951235744
 20
4.0619150576
 11
8.4178286525
 21
4.0619150576
  0
LINE
  5
352
100
AcDbEntity
  8
03__ASM_ALL_CURVES
100
AcDbLine
 62
40
  6
CONTINUOUS
 10
8.1998599025
 20
4.0982431826
 11
8.1907778713
 21
4.0982431826
  0
LINE
  5
353
100
AcDbEntity
  8
03__ASM_ALL_CURVES
100
AcDbLine
 62
40
  6
CONTINUOUS
 10
8.1272036525
 20
4.0982431826
 11
8.1181216213
 21
4.0982431826
  0
LINE
  5
354
100
AcDbEntity
  8
03__ASM_ALL_CURVES
100
AcDbLine
 62
40
  6
CONTINUOUS
 10
7.3052798244
 20
4.0982431826
 11
7.3279849025
 21
4.0982431826
  0
LINE
  5
355
100
AcDbEntity
  8
03__ASM_ALL_CURVES
100
AcDbLine
 62
40
  6
CONTINUOUS
 10
7.3779360744
 20
4.0982431826
 11
7.4142641994
 21
4.0982431826
  0
LINE
  5
356
100
AcDbEntity
  8
03__ASM_ALL_CURVES
100
AcDbLine
 62
40
  6
CONTINUOUS
 10
7.4505923244
 20
4.0982431826
 11
7.4687563869
 21
4.0982431826
  0
LINE
  5
357
100
AcDbEntity
  8
03__ASM_ALL_CURVES
100
AcDbLine
 62
40
  6
CONTINUOUS
 10
7.6095278713
 20
4.0982431826
 11
7.6186099025
 21
4.0982431826
  0
LINE
  5
358
100
AcDbEntity
  8
03__ASM_ALL_CURVES
100
AcDbLine
 62
40
  6
CONTINUOUS
 10
7.6685610744
 20
4.0982431826
 11
7.7048891994
 21
4.0982431826
  0
LINE
  5
359
100
AcDbEntity
  8
03__ASM_ALL_CURVES
100
AcDbLine
 62
40
  6
CONTINUOUS
 10
7.7412173244
 20
4.0982431826
 11
7.7593813869
 21
4.0982431826
  0
LINE
  5
35A
100
AcDbEntity
  8
03__ASM_ALL_CURVES
100
AcDbLine
 62
40
  6
CONTINUOUS
 10
7.8865298244
 20
4.0982431826
 11
7.9092349025
 21
4.0982431826
  0
LINE
  5
35B
100
AcDbEntity
  8
03__ASM_ALL_CURVES
100
AcDbLine
 62
40
  6
CONTINUOUS
 10
7.9591860744
 20
4.0982431826
 11
7.9818911525
 21
4.0982431826
  0
LINE
  5
35C
100
AcDbEntity
  8
03__ASM_ALL_CURVES
100
AcDbLine
 62
40
  6
CONTINUOUS
 10
8.0318423244
 20
4.0982431826
 11
8.0681704494
 21
4.0982431826
  0
LINE
  5
35D
100
AcDbEntity
  8
03__ASM_ALL_CURVES
100
AcDbLine
 62
40
  6
CONTINUOUS
 10
8.3224673244
 20
4.0982431826
 11
8.3451724025
 21
4.0982431826
  0
LINE
  5
35E
100
AcDbEntity
  8
03__ASM_ALL_CURVES
100
AcDbLine
 62
40
  6
CONTINUOUS
 10
8.3951235744
 20
4.0982431826
 11
8.4314516994
 21
4.0982431826
  0
LINE
  5
35F
100
AcDbEntity
  8
0
100
AcDbLine
 62
7
  6
CONTINUOUS
 10
3.9214084144
 20
4.1176181826
 11
3.819750676
 21
4.1176181826
  0
LINE
  5
360
100
AcDbEntity
  8
126-401_HEX_FEATURES
100
AcDbLine
 62
7
  6
CONTINUOUS
 10
5.2895977527
 20
4.135118182
 11
5.2896894807
 21
4.1351153334
  0
LINE
  5
361
100
AcDbEntity
  8
03__ASM_ALL_CURVES
100
AcDbLine
 62
40
  6
CONTINUOUS
 10
6.5430825945
 20
3.4509619326
 11
6.5340005633
 21
3.4570166203
  0
LINE
  5
362
100
AcDbEntity
  8
03__ASM_ALL_CURVES
100
AcDbLine
 62
40
  6
CONTINUOUS
 10
6.4795083758
 20
3.5236181826
 11
6.488590407
 21
3.5175634965
  0
LINE
  5
363
100
AcDbEntity
  8
03__ASM_ALL_CURVES
100
AcDbLine
 62
40
  6
CONTINUOUS
 10
3.9424595123
 20
5.2347791826
 11
3.9545688873
 21
5.2267062679
  0
LINE
  5
364
100
AcDbEntity
  8
03__ASM_ALL_CURVES
100
AcDbLine
 62
40
  6
CONTINUOUS
 10
6.5521646258
 20
3.5236181826
 11
6.561246657
 21
3.5175634965
  0
LINE
  5
365
100
AcDbEntity
  8
03__ASM_ALL_CURVES
100
AcDbLine
 62
40
  6
CONTINUOUS
 10
6.6248208758
 20
3.5236181826
 11
6.633902907
 21
3.5175634965
  0
LINE
  5
366
100
AcDbEntity
  8
03__ASM_ALL_CURVES
100
AcDbLine
 62
40
  6
CONTINUOUS
 10
4.2270298248
 20
5.1379041826
 11
4.2149204498
 21
5.1459770995
  0
LINE
  5
367
100
AcDbEntity
  8
03__ASM_ALL_CURVES
100
AcDbLine
 62
40
  6
CONTINUOUS
 10
4.7295688873
 20
5.2267062679
 11
4.7356235748
 21
5.2186333473
  0
LINE
  5
368
100
AcDbEntity
  8
THREAD
100
AcDbLine
 62
7
  6
CONTINUOUS
 10
5.8786417847
 20
3.7301181826
 11
5.8610326015
 21
3.7606181826
  0
LINE
  5
369
100
AcDbEntity
  8
0
100
AcDbLine
 62
7
  6
CONTINUOUS
 10
5.6152798248
 20
3.6891181826
 11
5.6115285099
 21
3.7031182804
  0
LINE
  5
36A
100
AcDbEntity
  8
0
100
AcDbLine
 62
7
  6
CONTINUOUS
 10
5.6702798248
 20
3.6891181826
 11
5.6702798248
 21
4.5461181826
  0
LINE
  5
36B
100
AcDbEntity
  8
03__ASM_ALL_CURVES
100
AcDbLine
 62
40
  6
CONTINUOUS
 10
5.6702798248
 20
4.5654931826
 11
5.6702798248
 21
5.1379041826
  0
LINE
  5
36C
100
AcDbEntity
  8
THREAD
100
AcDbLine
 62
7
  6
CONTINUOUS
 10
5.685868282
 20
3.7126181826
 11
5.685868282
 21
4.5226181826
  0
LINE
  5
36D
100
AcDbEntity
  8
0
100
AcDbLine
 62
7
  6
CONTINUOUS
 10
5.7172798248
 20
4.5266181826
 11
5.7172798248
 21
3.7086181826
  0
LINE
  5
36E
100
AcDbEntity
  8
THREAD
100
AcDbLine
 62
7
  6
CONTINUOUS
 10
5.7172798248
 20
3.7126181826
 11
5.7172798248
 21
4.5226181826
  0
LINE
  5
36F
100
AcDbEntity
  8
03__ASM_ALL_CURVES
100
AcDbLine
 62
40
  6
CONTINUOUS
 10
5.7865298248
 20
5.1185291826
 11
5.7865298248
 21
5.0797791826
  0
LINE
  5
370
100
AcDbEntity
  8
0
100
AcDbLine
 62
7
  6
CONTINUOUS
 10
5.7872798248
 20
4.5266181826
 11
5.7872798248
 21
3.7086181826
  0
LINE
  5
371
100
AcDbEntity
  8
03__ASM_ALL_CURVES
100
AcDbLine
 62
40
  6
CONTINUOUS
 10
5.8252798255
 20
5.2347791826
 11
5.8252798255
 21
5.1379041826
  0
LINE
  5
372
100
AcDbEntity
  8
03__ASM_ALL_CURVES
100
AcDbLine
 62
40
  6
CONTINUOUS
 10
5.9100454505
 20
5.1863416826
 11
5.916100138
 21
5.2105604326
  0
LINE
  5
373
100
AcDbEntity
  8
03__ASM_ALL_CURVES
100
AcDbLine
 62
40
  6
CONTINUOUS
 10
5.9827017005
 20
5.1863416826
 11
5.976647013
 21
5.1621229326
  0
LINE
  5
374
100
AcDbEntity
  8
03__ASM_ALL_CURVES
100
AcDbLine
 62
40
  6
CONTINUOUS
 10
6.0069204505
 20
5.1863416826
 11
6.012975138
 21
5.2105604326
  0
LINE
  5
375
100
AcDbEntity
  8
03__ASM_ALL_CURVES
100
AcDbLine
 62
40
  6
CONTINUOUS
 10
5.3435171302
 20
3.3395556826
 11
5.3662222084
 21
3.4122119326
  0
LINE
  5
376
100
AcDbEntity
  8
THREAD
100
AcDbLine
 62
7
  6
CONTINUOUS
 10
5.8786417847
 20
4.5051181826
 11
5.8610326015
 21
4.4746181826
  0
LINE
  5
377
100
AcDbEntity
  8
03__ASM_ALL_CURVES
100
AcDbLine
 62
40
  6
CONTINUOUS
 10
6.497350138
 20
5.2105604326
 11
6.509459513
 21
5.2267062679
  0
LINE
  5
378
100
AcDbEntity
  8
03__ASM_ALL_CURVES
100
AcDbLine
 62
40
  6
CONTINUOUS
 10
6.933287638
 20
5.1459770995
 11
6.921178263
 21
5.1379041826
  0
LINE
  5
379
100
AcDbEntity
  8
03__ASM_ALL_CURVES
100
AcDbLine
 62
40
  6
CONTINUOUS
 10
7.030162638
 20
5.1459770995
 11
7.018053263
 21
5.1379041826
  0
LINE
  5
37A
100
AcDbEntity
  8
03__ASM_ALL_CURVES
100
AcDbLine
 62
40
  6
CONTINUOUS
 10
7.4006411525
 20
4.1369931826
 11
7.3915591213
 21
4.1369931826
  0
LINE
  5
37B
100
AcDbEntity
  8
03__ASM_ALL_CURVES
100
AcDbLine
 62
40
  6
CONTINUOUS
 10
7.4732974025
 20
4.1733213076
 11
7.4505923244
 21
4.1733213076
  0
LINE
  5
37C
100
AcDbEntity
  8
03__ASM_ALL_CURVES
100
AcDbLine
 62
40
  6
CONTINUOUS
 10
7.3279849025
 20
4.1733213076
 11
7.3052798244
 21
4.1733213076
  0
LINE
  5
37D
100
AcDbEntity
  8
03__ASM_ALL_CURVES
100
AcDbLine
 62
40
  6
CONTINUOUS
 10
7.3052798244
 20
4.2096494326
 11
7.3279849025
 21
4.2096494326
  0
LINE
  5
37E
100
AcDbEntity
  8
03__ASM_ALL_CURVES
100
AcDbLine
 62
40
  6
CONTINUOUS
 10
7.3915591213
 20
4.2096494326
 11
7.4006411525
 21
4.2096494326
  0
LINE
  5
37F
100
AcDbEntity
  8
03__ASM_ALL_CURVES
100
AcDbLine
 62
40
  6
CONTINUOUS
 10
7.4505923244
 20
4.2096494326
 11
7.4732974025
 21
4.2096494326
  0
LINE
  5
380
100
AcDbEntity
  8
03__ASM_ALL_CURVES
100
AcDbLine
 62
40
  6
CONTINUOUS
 10
7.5187075588
 20
4.2096494326
 11
7.564117715
 21
4.2096494326
  0
LINE
  5
381
100
AcDbEntity
  8
0
100
AcDbLine
 62
7
  6
CONTINUOUS
 10
3.4012798248
 20
4.2686181826
 11
3.4392798248
 21
4.2686181826
  0
LINE
  5
382
100
AcDbEntity
  8
0
100
AcDbLine
 62
7
  6
CONTINUOUS
 10
3.2022798248
 20
4.3016181826
 11
3.4012798248
 21
4.3016181826
  0
LINE
  5
383
100
AcDbEntity
  8
0
100
AcDbLine
 62
7
  6
CONTINUOUS
 10
3.4392798248
 20
4.3016181826
 11
3.6712798248
 21
4.3016181826
  0
LINE
  5
384
100
AcDbEntity
  8
03__ASM_ALL_CURVES
100
AcDbLine
 62
40
  6
CONTINUOUS
 10
6.7701333758
 20
3.5236181826
 11
6.779215407
 21
3.5175634965
  0
LINE
  5
385
100
AcDbEntity
  8
03__ASM_ALL_CURVES
100
AcDbLine
 62
40
  6
CONTINUOUS
 10
4.2270298248
 20
5.2347791826
 11
4.2391391998
 21
5.2267062679
  0
LINE
  5
386
100
AcDbEntity
  8
03__ASM_ALL_CURVES
100
AcDbLine
 62
40
  6
CONTINUOUS
 10
4.4207798248
 20
5.1379041826
 11
4.4086704498
 21
5.1459770995
  0
LINE
  5
387
100
AcDbEntity
  8
03__ASM_ALL_CURVES
100
AcDbLine
 62
40
  6
CONTINUOUS
 10
4.5116001373
 20
5.1379041826
 11
4.4994907623
 21
5.1459770995
  0
LINE
  5
388
100
AcDbEntity
  8
03__ASM_ALL_CURVES
100
AcDbLine
 62
40
  6
CONTINUOUS
 10
4.4207798248
 20
5.2347791826
 11
4.4328891998
 21
5.2267062679
  0
LINE
  5
389
100
AcDbEntity
  8
03__ASM_ALL_CURVES
100
AcDbLine
 62
40
  6
CONTINUOUS
 10
4.8991001373
 20
5.2347791826
 11
4.9112095123
 21
5.2186333473
  0
LINE
  5
38A
100
AcDbEntity
  8
0
100
AcDbLine
 62
7
  6
CONTINUOUS
 10
5.8372798248
 20
3.7131187976
 11
5.8372798248
 21
4.5221175676
  0
LINE
  5
38B
100
AcDbEntity
  8
0
100
AcDbLine
 62
7
  6
CONTINUOUS
 10
5.8497742713
 20
3.7671181826
 11
5.8497742713
 21
4.4681181826
  0
LINE
  5
38C
100
AcDbEntity
  8
0
100
AcDbLine
 62
7
  6
CONTINUOUS
 10
5.8610326015
 20
3.7606181826
 11
5.8610326015
 21
4.4746181826
  0
LINE
  5
38D
100
AcDbEntity
  8
THREAD
100
AcDbLine
 62
7
  6
CONTINUOUS
 10
5.8786417847
 20
3.7301181826
 11
5.8786417847
 21
4.5051181826
  0
LINE
  5
38E
100
AcDbEntity
  8
03__ASM_ALL_CURVES
100
AcDbLine
 62
40
  6
CONTINUOUS
 10
6.109850138
 20
5.1379041826
 11
6.1401235755
 21
5.2347791826
  0
LINE
  5
38F
100
AcDbEntity
  8
03__ASM_ALL_CURVES
100
AcDbLine
 62
40
  6
CONTINUOUS
 10
5.2708608768
 20
3.499399434
 11
5.2663198612
 21
3.4933447437
  0
LINE
  5
390
100
AcDbEntity
  8
03__ASM_ALL_CURVES
100
AcDbLine
 62
40
  6
CONTINUOUS
 10
5.3026479862
 20
3.5054541201
 11
5.3117300175
 21
3.5175634965
  0
LINE
  5
391
100
AcDbEntity
  8
03__ASM_ALL_CURVES
100
AcDbLine
 62
40
  6
CONTINUOUS
 10
6.5518423255
 20
5.1540500164
 11
6.545787638
 21
5.1459770995
  0
LINE
  5
392
100
AcDbEntity
  8
03__ASM_ALL_CURVES
100
AcDbLine
 62
40
  6
CONTINUOUS
 10
5.3480581425
 20
3.4691259951
 11
5.3389761112
 21
3.4570166203
  0
LINE
  5
393
100
AcDbEntity
  8
03__ASM_ALL_CURVES
100
AcDbLine
 62
40
  6
CONTINUOUS
 10
6.703209513
 20
5.2267062679
 11
6.6971548255
 21
5.2186333473
  0
LINE
  5
394
100
AcDbEntity
  8
03__ASM_ALL_CURVES
100
AcDbLine
 62
40
  6
CONTINUOUS
 10
5.4161733768
 20
3.499399434
 11
5.4116323612
 21
3.4933447437
  0
LINE
  5
395
100
AcDbEntity
  8
03__ASM_ALL_CURVES
100
AcDbLine
 62
40
  6
CONTINUOUS
 10
7.2178579505
 20
5.1459770995
 11
7.2057485755
 21
5.1379041826
  0
LINE
  5
396
100
AcDbEntity
  8
03__ASM_ALL_CURVES
100
AcDbLine
 62
40
  6
CONTINUOUS
 10
7.417662638
 20
5.1944145973
 11
7.405553263
 21
5.1863416826
  0
LINE
  5
397
100
AcDbEntity
  8
0
100
AcDbLine
 62
7
  6
CONTINUOUS
 10
4.8907798248
 20
4.3360231276
 11
4.5173434906
 21
4.3360231276
  0
LINE
  5
398
100
AcDbEntity
  8
0
100
AcDbLine
 62
7
  6
CONTINUOUS
 10
3.7607798248
 20
4.3831181826
 11
3.7447798248
 21
4.3831181826
  0
LINE
  5
399
100
AcDbEntity
  8
0
100
AcDbLine
 62
7
  6
CONTINUOUS
 10
4.8907798248
 20
4.3873157101
 11
4.5173434906
 21
4.3873157101
  0
LINE
  5
39A
100
AcDbEntity
  8
0
100
AcDbLine
 62
7
  6
CONTINUOUS
 10
3.9832798248
 20
4.3886181826
 11
3.9522798248
 21
4.3886181826
  0
LINE
  5
39B
100
AcDbEntity
  8
0
100
AcDbLine
 62
7
  6
CONTINUOUS
 10
3.7392798248
 20
4.3886181826
 11
3.7332798248
 21
4.3886181826
  0
LINE
  5
39C
100
AcDbEntity
  8
0
100
AcDbLine
 62
7
  6
CONTINUOUS
 10
6.7492798248
 20
4.3981181826
 11
6.5537798248
 21
4.3981181826
  0
LINE
  5
39D
100
AcDbEntity
  8
0
100
AcDbLine
 62
7
  6
CONTINUOUS
 10
6.4447798248
 20
4.3981181826
 11
6.3582798248
 21
4.3981181826
  0
LINE
  5
39E
100
AcDbEntity
  8
0
100
AcDbLine
 62
7
  6
CONTINUOUS
 10
3.7762798248
 20
4.3986181826
 11
3.9465035464
 21
4.3986181826
  0
LINE
  5
39F
100
AcDbEntity
  8
0
100
AcDbLine
 62
7
  6
CONTINUOUS
 10
6.9487798248
 20
4.4006181826
 11
6.9292798248
 21
4.4006181826
  0
LINE
  5
3A0
100
AcDbEntity
  8
0
100
AcDbLine
 62
7
  6
CONTINUOUS
 10
6.8792798248
 20
4.4546181826
 11
6.9292798248
 21
4.4546181826
  0
LINE
  5
3A1
100
AcDbEntity
  8
0
100
AcDbLine
 62
7
  6
CONTINUOUS
 10
6.9487798248
 20
4.4598681826
 11
7.0417798248
 21
4.4598681826
  0
LINE
  5
3A2
100
AcDbEntity
  8
0
100
AcDbLine
 62
7
  6
CONTINUOUS
 10
6.7492798248
 20
4.4601181826
 11
6.8092798248
 21
4.4601181826
  0
LINE
  5
3A3
100
AcDbEntity
  8
THREAD
100
AcDbLine
 62
7
  6
CONTINUOUS
 10
6.3482798248
 20
4.4606181826
 11
6.1702798248
 21
4.4606181826
  0
LINE
  5
3A4
100
AcDbEntity
  8
0
100
AcDbLine
 62
7
  6
CONTINUOUS
 10
5.4412798248
 20
4.4606181826
 11
5.2896894807
 21
4.4606181826
  0
LINE
  5
3A5
100
AcDbEntity
  8
0
100
AcDbLine
 62
7
  6
CONTINUOUS
 10
4.1192798248
 20
4.4676181826
 11
4.0972798248
 21
4.4676181826
  0
LINE
  5
3A6
100
AcDbEntity
  8
THREAD
100
AcDbLine
 62
7
  6
CONTINUOUS
 10
5.8497742713
 20
4.4681181826
 11
5.8372798248
 21
4.4681181826
  0
LINE
  5
3A7
100
AcDbEntity
  8
0
100
AcDbLine
 62
7
  6
CONTINUOUS
 10
4.4832798248
 20
4.4911181826
 11
4.1322798248
 21
4.4911181826
  0
LINE
  5
3A8
100
AcDbEntity
  8
0
100
AcDbLine
 62
7
  6
CONTINUOUS
 10
4.0842798248
 20
4.4911181826
 11
4.0332798248
 21
4.4911181826
  0
LINE
  5
3A9
100
AcDbEntity
  8
0
100
AcDbLine
 62
7
  6
CONTINUOUS
 10
5.2042798248
 20
4.4916181826
 11
5.1962798248
 21
4.4916181826
  0
LINE
  5
3AA
100
AcDbEntity
  8
03__ASM_ALL_CURVES
100
AcDbLine
 62
40
  6
CONTINUOUS
 10
4.2270298248
 20
5.178268765
 11
4.2088657623
 21
5.1863416826
  0
LINE
  5
3AB
100
AcDbEntity
  8
THREAD
100
AcDbLine
 62
7
  6
CONTINUOUS
 10
5.685868282
 20
4.5226181826
 11
5.6702798248
 21
4.5316181826
  0
LINE
  5
3AC
100
AcDbEntity
  8
03__ASM_ALL_CURVES
100
AcDbLine
 62
40
  6
CONTINUOUS
 10
4.5237095123
 20
5.1944145973
 11
4.5358188873
 21
5.1863416826
  0
LINE
  5
3AD
100
AcDbEntity
  8
03__ASM_ALL_CURVES
100
AcDbLine
 62
40
  6
CONTINUOUS
 10
4.5237095123
 20
5.2347791826
 11
4.5358188873
 21
5.2267062679
  0
LINE
  5
3AE
100
AcDbEntity
  8
03__ASM_ALL_CURVES
100
AcDbLine
 62
40
  6
CONTINUOUS
 10
4.7174595123
 20
5.2347791826
 11
4.7295688873
 21
5.2267062679
  0
LINE
  5
3AF
100
AcDbEntity
  8
03__ASM_ALL_CURVES
100
AcDbLine
 62
40
  6
CONTINUOUS
 10
6.5340005633
 20
3.4570166203
 11
6.524918532
 21
3.4691259951
  0
LINE
  5
3B0
100
AcDbEntity
  8
03__ASM_ALL_CURVES
100
AcDbLine
 62
40
  6
CONTINUOUS
 10
6.488590407
 20
3.5175634965
 11
6.4931314226
 21
3.5115088062
  0
LINE
  5
3B1
100
AcDbEntity
  8
03__ASM_ALL_CURVES
100
AcDbLine
 62
40
  6
CONTINUOUS
 10
6.561246657
 20
3.5175634965
 11
6.5703286883
 21
3.5054541201
  0
LINE
  5
3B2
100
AcDbEntity
  8
03__ASM_ALL_CURVES
100
AcDbLine
 62
40
  6
CONTINUOUS
 10
6.633902907
 20
3.5175634965
 11
6.6384439226
 21
3.5115088062
  0
LINE
  5
3B3
100
AcDbEntity
  8
THREAD
100
AcDbLine
 62
7
  6
CONTINUOUS
 10
6.1257798248
 20
3.7301181826
 11
6.1257798248
 21
4.5051181826
  0
LINE
  5
3B4
100
AcDbEntity
  8
THREAD
100
AcDbLine
 62
7
  6
CONTINUOUS
 10
6.1702798248
 20
3.7746181826
 11
6.1702798248
 21
4.4606181826
  0
LINE
  5
3B5
100
AcDbEntity
  8
03__ASM_ALL_CURVES
100
AcDbLine
 62
40
  6
CONTINUOUS
 10
6.7455923255
 20
5.1540500164
 11
6.739537638
 21
5.1459770995
  0
LINE
  5
3B6
100
AcDbEntity
  8
03__ASM_ALL_CURVES
100
AcDbLine
 62
40
  6
CONTINUOUS
 10
5.5614858768
 20
3.5054541201
 11
5.5569448612
 21
3.499399434
  0
LINE
  5
3B7
100
AcDbEntity
  8
03__ASM_ALL_CURVES
100
AcDbLine
 62
40
  6
CONTINUOUS
 10
5.5660268925
 20
3.4691259951
 11
5.5569448612
 21
3.4570166203
  0
LINE
  5
3B8
100
AcDbEntity
  8
03__ASM_ALL_CURVES
100
AcDbLine
 62
40
  6
CONTINUOUS
 10
6.884850138
 20
5.2105604326
 11
6.896959513
 21
5.2267062679
  0
LINE
  5
3B9
100
AcDbEntity
  8
03__ASM_ALL_CURVES
100
AcDbLine
 62
40
  6
CONTINUOUS
 10
6.945397013
 20
5.1621229326
 11
6.933287638
 21
5.1459770995
  0
LINE
  5
3BA
100
AcDbEntity
  8
03__ASM_ALL_CURVES
100
AcDbLine
 62
40
  6
CONTINUOUS
 10
5.4933706459
 20
3.3698291194
 11
5.5296987709
 21
3.4122119326
  0
LINE
  5
3BB
100
AcDbEntity
  8
03__ASM_ALL_CURVES
100
AcDbLine
 62
40
  6
CONTINUOUS
 10
5.2663198612
 20
3.4933447437
 11
5.25723783
 21
3.4872900576
  0
LINE
  5
3BC
100
AcDbEntity
  8
03__ASM_ALL_CURVES
100
AcDbLine
 62
40
  6
CONTINUOUS
 10
5.3117300175
 20
3.5175634965
 11
5.3208120487
 21
3.5236181826
  0
LINE
  5
3BD
100
AcDbEntity
  8
0
100
AcDbLine
 62
7
  6
CONTINUOUS
 10
5.4412798248
 20
4.4606181826
 11
5.5761731708
 21
4.4967627457
  0
LINE
  5
3BE
100
AcDbEntity
  8
THREAD
100
AcDbLine
 62
7
  6
CONTINUOUS
 10
6.1257798248
 20
4.5051181826
 11
5.8786417847
 21
4.5051181826
  0
LINE
  5
3BF
100
AcDbEntity
  8
0
100
AcDbLine
 62
7
  6
CONTINUOUS
 10
5.7872798248
 20
4.5221181826
 11
5.8372798248
 21
4.5221181826
  0
LINE
  5
3C0
100
AcDbEntity
  8
THREAD
100
AcDbLine
 62
7
  6
CONTINUOUS
 10
5.7172798248
 20
4.5226181826
 11
5.685868282
 21
4.5226181826
  0
LINE
  5
3C1
100
AcDbEntity
  8
0
100
AcDbLine
 62
7
  6
CONTINUOUS
 10
5.0762798248
 20
4.5456181826
 11
5.1262798248
 21
4.5456181826
  0
LINE
  5
3C2
100
AcDbEntity
  8
0
100
AcDbLine
 62
7
  6
CONTINUOUS
 10
5.6702798248
 20
4.5461181826
 11
5.6152798248
 21
4.5461181826
  0
LINE
  5
3C3
100
AcDbEntity
  8
0
100
AcDbLine
 62
7
  6
CONTINUOUS
 10
5.2667798248
 20
4.5461181826
 11
5.2172798248
 21
4.5461181826
  0
LINE
  5
3C4
100
AcDbEntity
  8
0
100
AcDbLine
 62
7
  6
CONTINUOUS
 10
5.0762798248
 20
4.5461181826
 11
4.9512798248
 21
4.5461181826
  0
LINE
  5
3C5
100
AcDbEntity
  8
0
100
AcDbLine
 62
7
  6
CONTINUOUS
 10
4.8907798248
 20
4.6057206551
 11
4.5173434906
 21
4.6057206551
  0
LINE
  5
3C6
100
AcDbEntity
  8
0
100
AcDbLine
 62
7
  6
CONTINUOUS
 10
4.8907798248
 20
4.6066181826
 11
4.5173434906
 21
4.6066181826
  0
LINE
  5
3C7
100
AcDbEntity
  8
03__ASM_ALL_CURVES
100
AcDbLine
 62
40
  6
CONTINUOUS
 10
3.2875298248
 20
5.0797791826
 11
3.1712798248
 21
5.0991541826
  0
LINE
  5
3C8
100
AcDbEntity
  8
03__ASM_ALL_CURVES
100
AcDbLine
 62
40
  6
CONTINUOUS
 10
4.4207798248
 20
5.1944145973
 11
4.4389438873
 21
5.1863416826
  0
LINE
  5
3C9
100
AcDbEntity
  8
THREAD
100
AcDbLine
 62
7
  6
CONTINUOUS
 10
6.1702798248
 20
4.4606181826
 11
6.1257798248
 21
4.5051181826
  0
LINE
  5
3CA
100
AcDbEntity
  8
03__ASM_ALL_CURVES
100
AcDbLine
 62
40
  6
CONTINUOUS
 10
6.779215407
 20
3.5175634965
 11
6.7837564226
 21
3.5115088062
  0
LINE
  5
3CB
100
AcDbEntity
  8
03__ASM_ALL_CURVES
100
AcDbLine
 62
40
  6
CONTINUOUS
 10
6.5181069844
 20
3.4122119326
 11
6.5544351094
 21
3.3395556826
  0
LINE
  5
3CC
100
AcDbEntity
  8
03__ASM_ALL_CURVES
100
AcDbLine
 62
40
  6
CONTINUOUS
 10
5.916100138
 20
5.1621229326
 11
5.9100454505
 21
5.1863416826
  0
LINE
  5
3CD
100
AcDbEntity
  8
03__ASM_ALL_CURVES
100
AcDbLine
 62
40
  6
CONTINUOUS
 10
5.976647013
 20
5.2105604326
 11
5.9827017005
 21
5.1863416826
  0
LINE
  5
3CE
100
AcDbEntity
  8
03__ASM_ALL_CURVES
100
AcDbLine
 62
40
  6
CONTINUOUS
 10
6.2369985755
 20
5.2347791826
 11
6.2369985755
 21
5.1379041826
  0
LINE
  5
3CF
100
AcDbEntity
  8
03__ASM_ALL_CURVES
100
AcDbLine
 62
40
  6
CONTINUOUS
 10
6.3338735755
 20
5.2347791826
 11
6.3338735755
 21
5.1379041826
  0
LINE
  5
3D0
100
AcDbEntity
  8
0
100
AcDbLine
 62
7
  6
CONTINUOUS
 10
6.3482798248
 20
3.7746181826
 11
6.3482798248
 21
4.4606181826
  0
LINE
  5
3D1
100
AcDbEntity
  8
0
100
AcDbLine
 62
7
  6
CONTINUOUS
 10
6.3582798248
 20
3.7846181826
 11
6.3582798248
 21
4.4506181826
  0
LINE
  5
3D2
100
AcDbEntity
  8
03__ASM_ALL_CURVES
100
AcDbLine
 62
40
  6
CONTINUOUS
 10
6.4912954505
 20
5.1863416826
 11
6.497350138
 21
5.2105604326
  0
LINE
  5
3D3
100
AcDbEntity
  8
03__ASM_ALL_CURVES
100
AcDbLine
 62
40
  6
CONTINUOUS
 10
7.0362173255
 20
5.1540500164
 11
7.030162638
 21
5.1459770995
  0
LINE
  5
3D4
100
AcDbEntity
  8
03__ASM_ALL_CURVES
100
AcDbLine
 62
40
  6
CONTINUOUS
 10
5.3389761112
 20
3.4570166203
 11
5.32989408
 21
3.4509619326
  0
LINE
  5
3D5
100
AcDbEntity
  8
03__ASM_ALL_CURVES
100
AcDbLine
 62
40
  6
CONTINUOUS
 10
5.4116323612
 20
3.4933447437
 11
5.40255033
 21
3.4872900576
  0
LINE
  5
3D6
100
AcDbEntity
  8
03__ASM_ALL_CURVES
100
AcDbLine
 62
40
  6
CONTINUOUS
 10
5.5296987675
 20
3.5175634965
 11
5.5387807987
 21
3.5236181826
  0
LINE
  5
3D7
100
AcDbEntity
  8
03__ASM_ALL_CURVES
100
AcDbLine
 62
40
  6
CONTINUOUS
 10
5.5569448612
 20
3.499399434
 11
5.54786283
 21
3.4933447437
  0
LINE
  5
3D8
100
AcDbEntity
  8
03__ASM_ALL_CURVES
100
AcDbLine
 62
40
  6
CONTINUOUS
 10
5.5569448612
 20
3.4570166203
 11
5.54786283
 21
3.4509619326
  0
LINE
  5
3D9
100
AcDbEntity
  8
THREAD
100
AcDbLine
 62
7
  6
CONTINUOUS
 10
5.685868282
 20
3.7126181826
 11
5.6702798248
 21
3.7036181826
  0
LINE
  5
3DA
100
AcDbEntity
  8
03__ASM_ALL_CURVES
100
AcDbLine
 62
40
  6
CONTINUOUS
 10
3.2875298248
 20
5.0862375159
 11
3.1712798248
 21
5.0991541826
  0
LINE
  5
3DB
100
AcDbEntity
  8
03__ASM_ALL_CURVES
100
AcDbLine
 62
40
  6
CONTINUOUS
 10
3.2875298248
 20
5.0830083493
 11
3.1712798248
 21
5.0991541826
  0
LINE
  5
3DC
100
AcDbEntity
  8
0
100
AcDbLine
 62
7
  6
CONTINUOUS
 10
6.3582798248
 20
4.4506181826
 11
6.3482798248
 21
4.4606181826
  0
LINE
  5
3DD
100
AcDbEntity
  8
03__ASM_ALL_CURVES
100
AcDbLine
 62
40
  6
CONTINUOUS
 10
6.6248208758
 20
3.4872900576
 11
6.6384439226
 21
3.4509619326
  0
LINE
  5
3DE
100
AcDbEntity
  8
03__ASM_ALL_CURVES
100
AcDbLine
 62
40
  6
CONTINUOUS
 10
6.012975138
 20
5.1621229326
 11
6.0069204505
 21
5.1863416826
  0
LINE
  5
3DF
100
AcDbEntity
  8
03__ASM_ALL_CURVES
100
AcDbLine
 62
40
  6
CONTINUOUS
 10
6.524918532
 20
3.4691259951
 11
6.5203775164
 21
3.4872900576
  0
LINE
  5
3E0
100
AcDbEntity
  8
03__ASM_ALL_CURVES
100
AcDbLine
 62
40
  6
CONTINUOUS
 10
6.5703286883
 20
3.5054541201
 11
6.5748697039
 21
3.4872900576
  0
LINE
  5
3E1
100
AcDbEntity
  8
03__ASM_ALL_CURVES
100
AcDbLine
 62
40
  6
CONTINUOUS
 10
6.4065298255
 20
5.1379041826
 11
6.4065298255
 21
5.2347791826
  0
LINE
  5
3E2
100
AcDbEntity
  8
03__ASM_ALL_CURVES
100
AcDbLine
 62
40
  6
CONTINUOUS
 10
6.4549673255
 20
5.1379041826
 11
6.4549673255
 21
5.2347791826
  0
LINE
  5
3E3
100
AcDbEntity
  8
03__ASM_ALL_CURVES
100
AcDbLine
 62
40
  6
CONTINUOUS
 10
6.4568032976
 20
3.4509619326
 11
6.4568032976
 21
3.5236181826
  0
LINE
  5
3E4
100
AcDbEntity
  8
03__ASM_ALL_CURVES
100
AcDbLine
 62
40
  6
CONTINUOUS
 10
6.4636147969
 20
3.4122119326
 11
6.4636147969
 21
3.3395556826
  0
LINE
  5
3E5
100
AcDbEntity
  8
03__ASM_ALL_CURVES
100
AcDbLine
 62
40
  6
CONTINUOUS
 10
6.4931314226
 20
3.5115088062
 11
6.4931314226
 21
3.499399434
  0
LINE
  5
3E6
100
AcDbEntity
  8
03__ASM_ALL_CURVES
100
AcDbLine
 62
40
  6
CONTINUOUS
 10
6.5181069844
 20
3.3395556826
 11
6.5181069844
 21
3.4122119326
  0
LINE
  5
3E7
100
AcDbEntity
  8
03__ASM_ALL_CURVES
100
AcDbLine
 62
40
  6
CONTINUOUS
 10
6.5518423255
 20
5.1863416826
 11
6.5518423255
 21
5.1540500164
  0
LINE
  5
3E8
100
AcDbEntity
  8
03__ASM_ALL_CURVES
100
AcDbLine
 62
40
  6
CONTINUOUS
 10
6.5544351094
 20
3.3395556826
 11
6.5544351094
 21
3.4122119326
  0
LINE
  5
3E9
100
AcDbEntity
  8
03__ASM_ALL_CURVES
100
AcDbLine
 62
40
  6
CONTINUOUS
 10
7.2299673255
 20
5.1621229326
 11
7.2178579505
 21
5.1459770995
  0
LINE
  5
3EA
100
AcDbEntity
  8
03__ASM_ALL_CURVES
100
AcDbLine
 62
40
  6
CONTINUOUS
 10
7.4237173255
 20
5.2024875179
 11
7.417662638
 21
5.1944145973
  0
LINE
  5
3EB
100
AcDbEntity
  8
THREAD
100
AcDbLine
 62
7
  6
CONTINUOUS
 10
6.1702798248
 20
3.7746181826
 11
6.1257798248
 21
3.7301181826
  0
LINE
  5
3EC
100
AcDbEntity
  8
0
100
AcDbLine
 62
7
  6
CONTINUOUS
 10
6.3582798248
 20
3.7846181826
 11
6.3482798248
 21
3.7746181826
  0
LINE
  5
3ED
100
AcDbEntity
  8
03__ASM_ALL_CURVES
100
AcDbLine
 62
40
  6
CONTINUOUS
 10
3.2875298248
 20
5.0959250159
 11
3.1712798248
 21
5.0991541826
  0
LINE
  5
3EE
100
AcDbEntity
  8
03__ASM_ALL_CURVES
100
AcDbLine
 62
40
  6
CONTINUOUS
 10
3.2875298248
 20
5.0926958493
 11
3.1712798248
 21
5.0991541826
  0
LINE
  5
3EF
100
AcDbEntity
  8
03__ASM_ALL_CURVES
100
AcDbLine
 62
40
  6
CONTINUOUS
 10
3.2875298248
 20
5.0894666826
 11
3.1712798248
 21
5.0991541826
  0
LINE
  5
3F0
100
AcDbEntity
  8
03__ASM_ALL_CURVES
100
AcDbLine
 62
40
  6
CONTINUOUS
 10
7.3279849025
 20
4.0982431826
 11
7.3370669338
 21
4.0921884965
  0
LINE
  5
3F1
100
AcDbEntity
  8
03__ASM_ALL_CURVES
100
AcDbLine
 62
40
  6
CONTINUOUS
 10
7.5368716213
 20
4.0255869326
 11
7.52778959
 21
4.0316416203
  0
LINE
  5
3F2
100
AcDbEntity
  8
03__ASM_ALL_CURVES
100
AcDbLine
 62
40
  6
CONTINUOUS
 10
7.3915591213
 20
4.1369931826
 11
7.38247709
 21
4.1430478703
  0
LINE
  5
3F3
100
AcDbEntity
  8
03__ASM_ALL_CURVES
100
AcDbLine
 62
40
  6
CONTINUOUS
 10
7.4687563869
 20
4.0982431826
 11
7.4778384181
 21
4.0921884965
  0
LINE
  5
3F4
100
AcDbEntity
  8
03__ASM_ALL_CURVES
100
AcDbLine
 62
40
  6
CONTINUOUS
 10
5.928209513
 20
5.1459770995
 11
5.916100138
 21
5.1621229326
  0
LINE
  5
3F5
100
AcDbEntity
  8
03__ASM_ALL_CURVES
100
AcDbLine
 62
40
  6
CONTINUOUS
 10
6.025084513
 20
5.1459770995
 11
6.012975138
 21
5.1621229326
  0
LINE
  5
3F6
100
AcDbEntity
  8
03__ASM_ALL_CURVES
100
AcDbLine
 62
40
  6
CONTINUOUS
 10
5.964537638
 20
5.2267062679
 11
5.976647013
 21
5.2105604326
  0
LINE
  5
3F7
100
AcDbEntity
  8
03__ASM_ALL_CURVES
100
AcDbLine
 62
40
  6
CONTINUOUS
 10
6.1401235755
 20
5.2347791826
 11
6.170397013
 21
5.1379041826
  0
LINE
  5
3F8
100
AcDbEntity
  8
03__ASM_ALL_CURVES
100
AcDbLine
 62
40
  6
CONTINUOUS
 10
6.5907632344
 20
3.4122119326
 11
6.5907632344
 21
3.3395556826
  0
LINE
  5
3F9
100
AcDbEntity
  8
03__ASM_ALL_CURVES
100
AcDbLine
 62
40
  6
CONTINUOUS
 10
6.6021157976
 20
3.4509619326
 11
6.6021157976
 21
3.5236181826
  0
LINE
  5
3FA
100
AcDbEntity
  8
03__ASM_ALL_CURVES
100
AcDbLine
 62
40
  6
CONTINUOUS
 10
6.6384439226
 20
3.5115088062
 11
6.6384439226
 21
3.499399434
  0
LINE
  5
3FB
100
AcDbEntity
  8
03__ASM_ALL_CURVES
100
AcDbLine
 62
40
  6
CONTINUOUS
 10
6.6634194844
 20
3.3395556826
 11
6.6634194844
 21
3.4122119326
  0
LINE
  5
3FC
100
AcDbEntity
  8
03__ASM_ALL_CURVES
100
AcDbLine
 62
40
  6
CONTINUOUS
 10
6.6929361101
 20
3.5236181826
 11
6.6929361101
 21
3.4509619326
  0
LINE
  5
3FD
100
AcDbEntity
  8
03__ASM_ALL_CURVES
100
AcDbLine
 62
40
  6
CONTINUOUS
 10
6.6971548255
 20
5.2186333473
 11
6.6971548255
 21
5.2105604326
  0
LINE
  5
3FE
100
AcDbEntity
  8
03__ASM_ALL_CURVES
100
AcDbLine
 62
40
  6
CONTINUOUS
 10
6.7455923255
 20
5.1701958502
 11
6.7455923255
 21
5.1540500164
  0
LINE
  5
3FF
100
AcDbEntity
  8
0
100
AcDbLine
 62
7
  6
CONTINUOUS
 10
6.7492798248
 20
4.4601181826
 11
6.7492798248
 21
3.7751181826
  0
LINE
  5
400
100
AcDbEntity
  8
03__ASM_ALL_CURVES
100
AcDbLine
 62
40
  6
CONTINUOUS
 10
6.7542397969
 20
3.4122119326
 11
6.7542397969
 21
3.3395556826
  0
LINE
  5
401
100
AcDbEntity
  8
03__ASM_ALL_CURVES
100
AcDbLine
 62
40
  6
CONTINUOUS
 10
6.8787954505
 20
5.1863416826
 11
6.884850138
 21
5.2105604326
  0
LINE
  5
402
100
AcDbEntity
  8
03__ASM_ALL_CURVES
100
AcDbLine
 62
40
  6
CONTINUOUS
 10
6.5203775164
 20
3.4872900576
 11
6.524918532
 21
3.5054541201
  0
LINE
  5
403
100
AcDbEntity
  8
03__ASM_ALL_CURVES
100
AcDbLine
 62
40
  6
CONTINUOUS
 10
6.9514517005
 20
5.1863416826
 11
6.945397013
 21
5.1621229326
  0
LINE
  5
404
100
AcDbEntity
  8
03__ASM_ALL_CURVES
100
AcDbLine
 62
40
  6
CONTINUOUS
 10
6.5748697039
 20
3.4872900576
 11
6.5703286883
 21
3.4691259951
  0
LINE
  5
405
100
AcDbEntity
  8
03__ASM_ALL_CURVES
100
AcDbLine
 62
40
  6
CONTINUOUS
 10
7.3370669338
 20
4.1793759937
 11
7.3279849025
 21
4.1733213076
  0
LINE
  5
406
100
AcDbEntity
  8
03__ASM_ALL_CURVES
100
AcDbLine
 62
40
  6
CONTINUOUS
 10
7.38247709
 20
4.2035947465
 11
7.3915591213
 21
4.2096494326
  0
LINE
  5
407
100
AcDbEntity
  8
03__ASM_ALL_CURVES
100
AcDbLine
 62
40
  6
CONTINUOUS
 10
5.5540298248
 20
5.0797791826
 11
5.7865298248
 21
5.1185291826
  0
LINE
  5
408
100
AcDbEntity
  8
03__ASM_ALL_CURVES
100
AcDbLine
 62
40
  6
CONTINUOUS
 10
5.5540298248
 20
5.0830083493
 11
5.7865298248
 21
5.1153000159
  0
LINE
  5
409
100
AcDbEntity
  8
03__ASM_ALL_CURVES
100
AcDbLine
 62
40
  6
CONTINUOUS
 10
5.5540298248
 20
5.0862375159
 11
5.7865298248
 21
5.1120708493
  0
LINE
  5
40A
100
AcDbEntity
  8
03__ASM_ALL_CURVES
100
AcDbLine
 62
40
  6
CONTINUOUS
 10
5.5540298248
 20
5.0894666826
 11
5.7865298248
 21
5.1088416826
  0
LINE
  5
40B
100
AcDbEntity
  8
03__ASM_ALL_CURVES
100
AcDbLine
 62
40
  6
CONTINUOUS
 10
5.5540298248
 20
5.0926958493
 11
5.7865298248
 21
5.1056125159
  0
LINE
  5
40C
100
AcDbEntity
  8
03__ASM_ALL_CURVES
100
AcDbLine
 62
40
  6
CONTINUOUS
 10
3.2875298248
 20
5.1056125159
 11
3.1712798248
 21
5.0991541826
  0
LINE
  5
40D
100
AcDbEntity
  8
03__ASM_ALL_CURVES
100
AcDbLine
 62
40
  6
CONTINUOUS
 10
5.5540298248
 20
5.0959250159
 11
5.7865298248
 21
5.1023833493
  0
LINE
  5
40E
100
AcDbEntity
  8
03__ASM_ALL_CURVES
100
AcDbLine
 62
40
  6
CONTINUOUS
 10
3.2875298248
 20
5.1023833493
 11
3.1712798248
 21
5.0991541826
  0
LINE
  5
40F
100
AcDbEntity
  8
03__ASM_ALL_CURVES
100
AcDbLine
 62
40
  6
CONTINUOUS
 10
3.1712798248
 20
5.0991541826
 11
7.5302798248
 21
5.0991541826
  0
LINE
  5
410
100
AcDbEntity
  8
03__ASM_ALL_CURVES
100
AcDbLine
 62
40
  6
CONTINUOUS
 10
7.3268423255
 20
5.1379041826
 11
7.2784048255
 21
5.1379041826
  0
LINE
  5
411
100
AcDbEntity
  8
03__ASM_ALL_CURVES
100
AcDbLine
 62
40
  6
CONTINUOUS
 10
7.2057485755
 20
5.1379041826
 11
7.1815298255
 21
5.1379041826
  0
LINE
  5
412
100
AcDbEntity
  8
03__ASM_ALL_CURVES
100
AcDbLine
 62
40
  6
CONTINUOUS
 10
7.018053263
 20
5.1379041826
 11
7.005943888
 21
5.1379041826
  0
LINE
  5
413
100
AcDbEntity
  8
03__ASM_ALL_CURVES
100
AcDbLine
 62
40
  6
CONTINUOUS
 10
6.921178263
 20
5.1379041826
 11
6.909068888
 21
5.1379041826
  0
LINE
  5
414
100
AcDbEntity
  8
03__ASM_ALL_CURVES
100
AcDbLine
 62
40
  6
CONTINUOUS
 10
6.727428263
 20
5.1379041826
 11
6.715318888
 21
5.1379041826
  0
LINE
  5
415
100
AcDbEntity
  8
03__ASM_ALL_CURVES
100
AcDbLine
 62
40
  6
CONTINUOUS
 10
6.533678263
 20
5.1379041826
 11
6.521568888
 21
5.1379041826
  0
LINE
  5
416
100
AcDbEntity
  8
03__ASM_ALL_CURVES
100
AcDbLine
 62
40
  6
CONTINUOUS
 10
6.049303263
 20
5.1379041826
 11
6.037193888
 21
5.1379041826
  0
LINE
  5
417
100
AcDbEntity
  8
03__ASM_ALL_CURVES
100
AcDbLine
 62
40
  6
CONTINUOUS
 10
5.952428263
 20
5.1379041826
 11
5.940318888
 21
5.1379041826
  0
LINE
  5
418
100
AcDbEntity
  8
03__ASM_ALL_CURVES
100
AcDbLine
 62
40
  6
CONTINUOUS
 10
4.6145298248
 20
5.1379041826
 11
4.6084751373
 21
5.1379041826
  0
LINE
  5
419
100
AcDbEntity
  8
03__ASM_ALL_CURVES
100
AcDbLine
 62
40
  6
CONTINUOUS
 10
4.5237095123
 20
5.1379041826
 11
4.5116001373
 21
5.1379041826
  0
LINE
  5
41A
100
AcDbEntity
  8
03__ASM_ALL_CURVES
100
AcDbLine
 62
40
  6
CONTINUOUS
 10
4.0332798248
 20
5.1379041826
 11
4.0272251373
 21
5.1379041826
  0
LINE
  5
41B
100
AcDbEntity
  8
03__ASM_ALL_CURVES
100
AcDbLine
 62
40
  6
CONTINUOUS
 10
3.9121860748
 20
5.1379041826
 11
3.9606235748
 21
5.1379041826
  0
LINE
  5
41C
100
AcDbEntity
  8
03__ASM_ALL_CURVES
100
AcDbLine
 62
40
  6
CONTINUOUS
 10
4.6871860748
 20
5.1379041826
 11
4.7356235748
 21
5.1379041826
  0
LINE
  5
41D
100
AcDbEntity
  8
03__ASM_ALL_CURVES
100
AcDbLine
 62
40
  6
CONTINUOUS
 10
5.8252798255
 20
5.1379041826
 11
5.8737173255
 21
5.1379041826
  0
LINE
  5
41E
100
AcDbEntity
  8
03__ASM_ALL_CURVES
100
AcDbLine
 62
40
  6
CONTINUOUS
 10
7.0846548255
 20
5.1379041826
 11
7.1330923255
 21
5.1379041826
  0
LINE
  5
41F
100
AcDbEntity
  8
03__ASM_ALL_CURVES
100
AcDbLine
 62
40
  6
CONTINUOUS
 10
4.1059360748
 20
5.1621229326
 11
4.1604282623
 21
5.1621229326
  0
LINE
  5
420
100
AcDbEntity
  8
03__ASM_ALL_CURVES
100
AcDbLine
 62
40
  6
CONTINUOUS
 10
4.7840610748
 20
5.1621229326
 11
4.8385532623
 21
5.1621229326
  0
LINE
  5
421
100
AcDbEntity
  8
03__ASM_ALL_CURVES
100
AcDbLine
 62
40
  6
CONTINUOUS
 10
6.121959513
 20
5.1701958502
 11
6.158287638
 21
5.1701958502
  0
LINE
  5
422
100
AcDbEntity
  8
03__ASM_ALL_CURVES
100
AcDbLine
 62
40
  6
CONTINUOUS
 10
7.405553263
 20
5.1863416826
 11
7.3752798255
 21
5.1863416826
  0
LINE
  5
423
100
AcDbEntity
  8
03__ASM_ALL_CURVES
100
AcDbLine
 62
40
  6
CONTINUOUS
 10
6.5276235755
 20
5.1863416826
 11
6.5518423255
 21
5.1863416826
  0
LINE
  5
424
100
AcDbEntity
  8
03__ASM_ALL_CURVES
100
AcDbLine
 62
40
  6
CONTINUOUS
 10
6.7940298255
 20
5.1863416826
 11
6.8424673255
 21
5.1863416826
  0
LINE
  5
425
100
AcDbEntity
  8
03__ASM_ALL_CURVES
100
AcDbLine
 62
40
  6
CONTINUOUS
 10
7.2784048255
 20
5.1863416826
 11
7.308678263
 21
5.1863416826
  0
LINE
  5
426
100
AcDbEntity
  8
03__ASM_ALL_CURVES
100
AcDbLine
 62
40
  6
CONTINUOUS
 10
4.5116001373
 20
5.1944145973
 11
4.5237095123
 21
5.1944145973
  0
LINE
  5
427
100
AcDbEntity
  8
03__ASM_ALL_CURVES
100
AcDbLine
 62
40
  6
CONTINUOUS
 10
6.727428263
 20
5.2347791826
 11
6.715318888
 21
5.2347791826
  0
LINE
  5
428
100
AcDbEntity
  8
03__ASM_ALL_CURVES
100
AcDbLine
 62
40
  6
CONTINUOUS
 10
3.9303501373
 20
5.2347791826
 11
3.9424595123
 21
5.2347791826
  0
LINE
  5
429
100
AcDbEntity
  8
03__ASM_ALL_CURVES
100
AcDbLine
 62
40
  6
CONTINUOUS
 10
4.5116001373
 20
5.2347791826
 11
4.5237095123
 21
5.2347791826
  0
LINE
  5
42A
100
AcDbEntity
  8
03__ASM_ALL_CURVES
100
AcDbLine
 62
40
  6
CONTINUOUS
 10
4.7053501373
 20
5.2347791826
 11
4.7174595123
 21
5.2347791826
  0
LINE
  5
42B
100
AcDbEntity
  8
03__ASM_ALL_CURVES
100
AcDbLine
 62
40
  6
CONTINUOUS
 10
5.940318888
 20
5.2347791826
 11
5.952428263
 21
5.2347791826
  0
LINE
  5
42C
100
AcDbEntity
  8
03__ASM_ALL_CURVES
100
AcDbLine
 62
40
  6
CONTINUOUS
 10
6.037193888
 20
5.2347791826
 11
6.049303263
 21
5.2347791826
  0
LINE
  5
42D
100
AcDbEntity
  8
03__ASM_ALL_CURVES
100
AcDbLine
 62
40
  6
CONTINUOUS
 10
6.206725138
 20
5.2347791826
 11
6.267272013
 21
5.2347791826
  0
LINE
  5
42E
100
AcDbEntity
  8
03__ASM_ALL_CURVES
100
AcDbLine
 62
40
  6
CONTINUOUS
 10
6.521568888
 20
5.2347791826
 11
6.533678263
 21
5.2347791826
  0
LINE
  5
42F
100
AcDbEntity
  8
03__ASM_ALL_CURVES
100
AcDbLine
 62
40
  6
CONTINUOUS
 10
6.909068888
 20
5.2347791826
 11
6.921178263
 21
5.2347791826
  0
LINE
  5
430
100
AcDbEntity
  8
03__ASM_ALL_CURVES
100
AcDbLine
 62
40
  6
CONTINUOUS
 10
7.1815298255
 20
5.2347791826
 11
7.2057485755
 21
5.2347791826
  0
LINE
  5
431
100
AcDbEntity
  8
03__ASM_ALL_CURVES
100
AcDbLine
 62
40
  6
CONTINUOUS
 10
7.2784048255
 20
5.2347791826
 11
7.3268423255
 21
5.2347791826
  0
LINE
  5
432
100
AcDbEntity
  8
03__ASM_ALL_CURVES
100
AcDbLine
 62
40
  6
CONTINUOUS
 10
7.3752798255
 20
5.2347791826
 11
7.405553263
 21
5.2347791826
  0
LINE
  5
433
100
AcDbEntity
  8
03__ASM_ALL_CURVES
100
AcDbLine
 62
40
  6
CONTINUOUS
 10
5.5540298248
 20
5.1023833493
 11
5.7865298248
 21
5.0959250159
  0
LINE
  5
434
100
AcDbEntity
  8
03__ASM_ALL_CURVES
100
AcDbLine
 62
40
  6
CONTINUOUS
 10
5.5540298248
 20
5.1056125159
 11
5.7865298248
 21
5.0926958493
  0
LINE
  5
435
100
AcDbEntity
  8
03__ASM_ALL_CURVES
100
AcDbLine
 62
40
  6
CONTINUOUS
 10
5.5540298248
 20
5.1088416826
 11
5.7865298248
 21
5.0894666826
  0
LINE
  5
436
100
AcDbEntity
  8
03__ASM_ALL_CURVES
100
AcDbLine
 62
40
  6
CONTINUOUS
 10
5.5540298248
 20
5.1120708493
 11
5.7865298248
 21
5.0862375159
  0
LINE
  5
437
100
AcDbEntity
  8
03__ASM_ALL_CURVES
100
AcDbLine
 62
40
  6
CONTINUOUS
 10
5.5540298248
 20
5.1153000159
 11
5.7865298248
 21
5.0830083493
  0
LINE
  5
438
100
AcDbEntity
  8
03__ASM_ALL_CURVES
100
AcDbLine
 62
40
  6
CONTINUOUS
 10
5.7865298248
 20
5.0797791826
 11
5.5540298248
 21
5.1185291826
  0
LINE
  5
439
100
AcDbEntity
  8
03__ASM_ALL_CURVES
100
AcDbLine
 62
40
  6
CONTINUOUS
 10
7.3279849025
 20
4.2096494326
 11
7.3370669338
 21
4.2035947465
  0
LINE
  5
43A
100
AcDbEntity
  8
03__ASM_ALL_CURVES
100
AcDbLine
 62
40
  6
CONTINUOUS
 10
5.940318888
 20
5.1379041826
 11
5.928209513
 21
5.1459770995
  0
LINE
  5
43B
100
AcDbEntity
  8
03__ASM_ALL_CURVES
100
AcDbLine
 62
40
  6
CONTINUOUS
 10
7.6095278713
 20
4.0255869326
 11
7.60044584
 21
4.0316416203
  0
LINE
  5
43C
100
AcDbEntity
  8
03__ASM_ALL_CURVES
100
AcDbLine
 62
40
  6
CONTINUOUS
 10
7.4006411525
 20
4.2096494326
 11
7.4097231838
 21
4.2035947465
  0
LINE
  5
43D
100
AcDbEntity
  8
03__ASM_ALL_CURVES
100
AcDbLine
 62
40
  6
CONTINUOUS
 10
6.037193888
 20
5.1379041826
 11
6.025084513
 21
5.1459770995
  0
LINE
  5
43E
100
AcDbEntity
  8
03__ASM_ALL_CURVES
100
AcDbLine
 62
40
  6
CONTINUOUS
 10
7.6186099025
 20
4.0982431826
 11
7.6276919338
 21
4.0921884965
  0
LINE
  5
43F
100
AcDbEntity
  8
03__ASM_ALL_CURVES
100
AcDbLine
 62
40
  6
CONTINUOUS
 10
7.4732974025
 20
4.2096494326
 11
7.4823794338
 21
4.2035947465
  0
LINE
  5
440
100
AcDbEntity
  8
03__ASM_ALL_CURVES
100
AcDbLine
 62
40
  6
CONTINUOUS
 10
5.952428263
 20
5.2347791826
 11
5.964537638
 21
5.2267062679
  0
LINE
  5
441
100
AcDbEntity
  8
03__ASM_ALL_CURVES
100
AcDbLine
 62
40
  6
CONTINUOUS
 10
6.049303263
 20
5.2347791826
 11
6.061412638
 21
5.2267062679
  0
LINE
  5
442
100
AcDbEntity
  8
03__ASM_ALL_CURVES
100
AcDbLine
 62
40
  6
CONTINUOUS
 10
7.7593813869
 20
4.0982431826
 11
7.7684634181
 21
4.0921884965
  0
LINE
  5
443
100
AcDbEntity
  8
03__ASM_ALL_CURVES
100
AcDbLine
 62
40
  6
CONTINUOUS
 10
6.061412638
 20
5.2267062679
 11
6.0674673255
 21
5.2186333473
  0
LINE
  5
444
100
AcDbEntity
  8
03__ASM_ALL_CURVES
100
AcDbLine
 62
40
  6
CONTINUOUS
 10
6.497350138
 20
5.1621229326
 11
6.4912954505
 21
5.1863416826
  0
LINE
  5
445
100
AcDbEntity
  8
03__ASM_ALL_CURVES
100
AcDbLine
 62
40
  6
CONTINUOUS
 10
6.7837564226
 20
3.5115088062
 11
6.7837564226
 21
3.499399434
  0
LINE
  5
446
100
AcDbEntity
  8
03__ASM_ALL_CURVES
100
AcDbLine
 62
40
  6
CONTINUOUS
 10
6.7940298255
 20
5.2347791826
 11
6.7940298255
 21
5.1379041826
  0
LINE
  5
447
100
AcDbEntity
  8
0
100
AcDbLine
 62
7
  6
CONTINUOUS
 10
6.8092798248
 20
4.4601181826
 11
6.8092798248
 21
3.7751181826
  0
LINE
  5
448
100
AcDbEntity
  8
03__ASM_ALL_CURVES
100
AcDbLine
 62
40
  6
CONTINUOUS
 10
6.8424673255
 20
5.2347791826
 11
6.8424673255
 21
5.1379041826
  0
LINE
  5
449
100
AcDbEntity
  8
0
100
AcDbLine
 62
7
  6
CONTINUOUS
 10
6.8792798248
 20
3.780618695
 11
6.8792798248
 21
4.4546176702
  0
LINE
  5
44A
100
AcDbEntity
  8
0
100
AcDbLine
 62
7
  6
CONTINUOUS
 10
6.9292798248
 20
3.780618695
 11
6.9292798248
 21
4.4546176702
  0
LINE
  5
44B
100
AcDbEntity
  8
03__ASM_ALL_CURVES
100
AcDbLine
 62
40
  6
CONTINUOUS
 10
6.7519693133
 20
3.4691259951
 11
6.7474282976
 21
3.4509619326
  0
LINE
  5
44C
100
AcDbEntity
  8
03__ASM_ALL_CURVES
100
AcDbLine
 62
40
  6
CONTINUOUS
 10
6.4931314226
 20
3.499399434
 11
6.488590407
 21
3.4933447437
  0
LINE
  5
44D
100
AcDbEntity
  8
03__ASM_ALL_CURVES
100
AcDbLine
 62
40
  6
CONTINUOUS
 10
6.524918532
 20
3.5054541201
 11
6.5340005633
 21
3.5175634965
  0
LINE
  5
44E
100
AcDbEntity
  8
03__ASM_ALL_CURVES
100
AcDbLine
 62
40
  6
CONTINUOUS
 10
6.5703286883
 20
3.4691259951
 11
6.561246657
 21
3.4570166203
  0
LINE
  5
44F
100
AcDbEntity
  8
03__ASM_ALL_CURVES
100
AcDbLine
 62
40
  6
CONTINUOUS
 10
6.6384439226
 20
3.499399434
 11
6.633902907
 21
3.4933447437
  0
LINE
  5
450
100
AcDbEntity
  8
03__ASM_ALL_CURVES
100
AcDbLine
 62
40
  6
CONTINUOUS
 10
7.4097231838
 20
4.1430478703
 11
7.4006411525
 21
4.1369931826
  0
LINE
  5
451
100
AcDbEntity
  8
03__ASM_ALL_CURVES
100
AcDbLine
 62
40
  6
CONTINUOUS
 10
7.4823794338
 20
4.1793759937
 11
7.4732974025
 21
4.1733213076
  0
LINE
  5
452
100
AcDbEntity
  8
03__ASM_ALL_CURVES
100
AcDbLine
 62
40
  6
CONTINUOUS
 10
7.3370669338
 20
4.0679697437
 11
7.3279849025
 21
4.0619150576
  0
LINE
  5
453
100
AcDbEntity
  8
03__ASM_ALL_CURVES
100
AcDbLine
 62
40
  6
CONTINUOUS
 10
6.488590407
 20
3.4933447437
 11
6.4795083758
 21
3.4872900576
  0
LINE
  5
454
100
AcDbEntity
  8
03__ASM_ALL_CURVES
100
AcDbLine
 62
40
  6
CONTINUOUS
 10
6.5340005633
 20
3.5175634965
 11
6.5430825945
 21
3.5236181826
  0
LINE
  5
455
100
AcDbEntity
  8
03__ASM_ALL_CURVES
100
AcDbLine
 62
40
  6
CONTINUOUS
 10
6.561246657
 20
3.4570166203
 11
6.5521646258
 21
3.4509619326
  0
LINE
  5
456
100
AcDbEntity
  8
03__ASM_ALL_CURVES
100
AcDbLine
 62
40
  6
CONTINUOUS
 10
6.633902907
 20
3.4933447437
 11
6.6248208758
 21
3.4872900576
  0
LINE
  5
457
100
AcDbEntity
  8
03__ASM_ALL_CURVES
100
AcDbLine
 62
40
  6
CONTINUOUS
 10
7.4778384181
 20
4.0316416203
 11
7.4687563869
 21
4.0255869326
  0
LINE
  5
458
100
AcDbEntity
  8
03__ASM_ALL_CURVES
100
AcDbLine
 62
40
  6
CONTINUOUS
 10
3.2875298248
 20
5.1120708493
 11
3.1712798248
 21
5.0991541826
  0
LINE
  5
459
100
AcDbEntity
  8
03__ASM_ALL_CURVES
100
AcDbLine
 62
40
  6
CONTINUOUS
 10
3.2875298248
 20
5.1088416826
 11
3.1712798248
 21
5.0991541826
  0
LINE
  5
45A
100
AcDbEntity
  8
03__ASM_ALL_CURVES
100
AcDbLine
 62
40
  6
CONTINUOUS
 10
7.9092349025
 20
4.0982431826
 11
7.9183169338
 21
4.0921884965
  0
LINE
  5
45B
100
AcDbEntity
  8
03__ASM_ALL_CURVES
100
AcDbLine
 62
40
  6
CONTINUOUS
 10
7.9818911525
 20
4.0982431826
 11
7.9909731838
 21
4.0921884965
  0
LINE
  5
45C
100
AcDbEntity
  8
03__ASM_ALL_CURVES
100
AcDbLine
 62
40
  6
CONTINUOUS
 10
8.1181216213
 20
4.0255869326
 11
8.10903959
 21
4.0316416203
  0
LINE
  5
45D
100
AcDbEntity
  8
03__ASM_ALL_CURVES
100
AcDbLine
 62
40
  6
CONTINUOUS
 10
8.10903959
 20
4.074024434
 11
8.1362856838
 21
4.0558603694
  0
LINE
  5
45E
100
AcDbEntity
  8
03__ASM_ALL_CURVES
100
AcDbLine
 62
40
  6
CONTINUOUS
 10
6.521568888
 20
5.1379041826
 11
6.509459513
 21
5.1459770995
  0
LINE
  5
45F
100
AcDbEntity
  8
03__ASM_ALL_CURVES
100
AcDbLine
 62
40
  6
CONTINUOUS
 10
8.1907778713
 20
4.0255869326
 11
8.18169584
 21
4.0316416203
  0
LINE
  5
460
100
AcDbEntity
  8
03__ASM_ALL_CURVES
100
AcDbLine
 62
40
  6
CONTINUOUS
 10
8.1362856838
 20
4.0921884965
 11
8.1272036525
 21
4.0982431826
  0
LINE
  5
461
100
AcDbEntity
  8
03__ASM_ALL_CURVES
100
AcDbLine
 62
40
  6
CONTINUOUS
 10
8.18169584
 20
4.074024434
 11
8.2089419338
 21
4.0558603694
  0
LINE
  5
462
100
AcDbEntity
  8
0
100
AcDbLine
 62
7
  6
CONTINUOUS
 10
7.0417798248
 20
4.4598681826
 11
7.0567798248
 21
4.4448681826
  0
LINE
  5
463
100
AcDbEntity
  8
03__ASM_ALL_CURVES
100
AcDbLine
 62
40
  6
CONTINUOUS
 10
6.509459513
 20
5.1459770995
 11
6.497350138
 21
5.1621229326
  0
LINE
  5
464
100
AcDbEntity
  8
03__ASM_ALL_CURVES
100
AcDbLine
 62
40
  6
CONTINUOUS
 10
7.3370669338
 20
4.0921884965
 11
7.3416079494
 21
4.0861338062
  0
LINE
  5
465
100
AcDbEntity
  8
03__ASM_ALL_CURVES
100
AcDbLine
 62
40
  6
CONTINUOUS
 10
6.4065298255
 20
5.2347791826
 11
6.4549673255
 21
5.1379041826
  0
LINE
  5
466
100
AcDbEntity
  8
0
100
AcDbLine
 62
7
  6
CONTINUOUS
 10
6.9487798248
 20
3.7753687029
 11
6.9487798248
 21
4.4598676623
  0
LINE
  5
467
100
AcDbEntity
  8
03__ASM_ALL_CURVES
100
AcDbLine
 62
40
  6
CONTINUOUS
 10
6.9877798255
 20
5.1540500164
 11
6.9877798255
 21
5.2347791826
  0
LINE
  5
468
100
AcDbEntity
  8
03__ASM_ALL_CURVES
100
AcDbLine
 62
40
  6
CONTINUOUS
 10
7.0362173255
 20
5.2347791826
 11
7.0362173255
 21
5.1540500164
  0
LINE
  5
469
100
AcDbEntity
  8
0
100
AcDbLine
 62
7
  6
CONTINUOUS
 10
7.0417798248
 20
3.7753681826
 11
7.0417798248
 21
4.4598681826
  0
LINE
  5
46A
100
AcDbEntity
  8
0
100
AcDbLine
 62
7
  6
CONTINUOUS
 10
7.0567798248
 20
3.790372017
 11
7.0567798248
 21
4.4448643481
  0
LINE
  5
46B
100
AcDbEntity
  8
03__ASM_ALL_CURVES
100
AcDbLine
 62
40
  6
CONTINUOUS
 10
7.0846548255
 20
5.2347791826
 11
7.0846548255
 21
5.1379041826
  0
LINE
  5
46C
100
AcDbEntity
  8
03__ASM_ALL_CURVES
100
AcDbLine
 62
40
  6
CONTINUOUS
 10
7.236022013
 20
5.1863416826
 11
7.2299673255
 21
5.1621229326
  0
LINE
  5
46D
100
AcDbEntity
  8
03__ASM_ALL_CURVES
100
AcDbLine
 62
40
  6
CONTINUOUS
 10
6.7474282976
 20
3.5115088062
 11
6.7519693133
 21
3.5175634965
  0
LINE
  5
46E
100
AcDbEntity
  8
03__ASM_ALL_CURVES
100
AcDbLine
 62
40
  6
CONTINUOUS
 10
6.7610513445
 20
3.4812353694
 11
6.7519693133
 21
3.4691259951
  0
LINE
  5
46F
100
AcDbEntity
  8
03__ASM_ALL_CURVES
100
AcDbLine
 62
40
  6
CONTINUOUS
 10
6.7837564226
 20
3.499399434
 11
6.779215407
 21
3.4933447437
  0
LINE
  5
470
100
AcDbEntity
  8
03__ASM_ALL_CURVES
100
AcDbLine
 62
40
  6
CONTINUOUS
 10
7.3416079494
 20
4.185430684
 11
7.3370669338
 21
4.1793759937
  0
LINE
  5
471
100
AcDbEntity
  8
03__ASM_ALL_CURVES
100
AcDbLine
 62
40
  6
CONTINUOUS
 10
7.3733950588
 20
4.1914853701
 11
7.38247709
 21
4.2035947465
  0
LINE
  5
472
100
AcDbEntity
  8
0
100
AcDbLine
 62
7
  6
CONTINUOUS
 10
7.0417798248
 20
3.7753681826
 11
7.0567798248
 21
3.7903681826
  0
LINE
  5
473
100
AcDbEntity
  8
03__ASM_ALL_CURVES
100
AcDbLine
 62
40
  6
CONTINUOUS
 10
7.60044584
 20
4.0921884965
 11
7.6095278713
 21
4.0982431826
  0
LINE
  5
474
100
AcDbEntity
  8
03__ASM_ALL_CURVES
100
AcDbLine
 62
40
  6
CONTINUOUS
 10
6.7519693133
 20
3.5175634965
 11
6.7610513445
 21
3.5236181826
  0
LINE
  5
475
100
AcDbEntity
  8
03__ASM_ALL_CURVES
100
AcDbLine
 62
40
  6
CONTINUOUS
 10
7.5550356838
 20
4.0316416203
 11
7.5459536525
 21
4.0255869326
  0
LINE
  5
476
100
AcDbEntity
  8
03__ASM_ALL_CURVES
100
AcDbLine
 62
40
  6
CONTINUOUS
 10
6.779215407
 20
3.4933447437
 11
6.7610513445
 21
3.4812353694
  0
LINE
  5
477
100
AcDbEntity
  8
03__ASM_ALL_CURVES
100
AcDbLine
 62
40
  6
CONTINUOUS
 10
7.6276919338
 20
4.0316416203
 11
7.6186099025
 21
4.0255869326
  0
LINE
  5
478
100
AcDbEntity
  8
03__ASM_ALL_CURVES
100
AcDbLine
 62
40
  6
CONTINUOUS
 10
7.7684634181
 20
4.0316416203
 11
7.7593813869
 21
4.0255869326
  0
LINE
  5
479
100
AcDbEntity
  8
03__ASM_ALL_CURVES
100
AcDbLine
 62
40
  6
CONTINUOUS
 10
3.1712798248
 20
5.0991541826
 11
3.2875298248
 21
5.1185291826
  0
LINE
  5
47A
100
AcDbEntity
  8
03__ASM_ALL_CURVES
100
AcDbLine
 62
40
  6
CONTINUOUS
 10
3.2875298248
 20
5.1153000159
 11
3.1712798248
 21
5.0991541826
  0
LINE
  5
47B
100
AcDbEntity
  8
03__ASM_ALL_CURVES
100
AcDbLine
 62
40
  6
CONTINUOUS
 10
8.2634341213
 20
4.0255869326
 11
8.25435209
 21
4.0316416203
  0
LINE
  5
47C
100
AcDbEntity
  8
03__ASM_ALL_CURVES
100
AcDbLine
 62
40
  6
CONTINUOUS
 10
8.2089419338
 20
4.0921884965
 11
8.1998599025
 21
4.0982431826
  0
LINE
  5
47D
100
AcDbEntity
  8
03__ASM_ALL_CURVES
100
AcDbLine
 62
40
  6
CONTINUOUS
 10
6.533678263
 20
5.2347791826
 11
6.545787638
 21
5.2267062679
  0
LINE
  5
47E
100
AcDbEntity
  8
03__ASM_ALL_CURVES
100
AcDbLine
 62
40
  6
CONTINUOUS
 10
6.715318888
 20
5.1379041826
 11
6.703209513
 21
5.1459770995
  0
LINE
  5
47F
100
AcDbEntity
  8
03__ASM_ALL_CURVES
100
AcDbLine
 62
40
  6
CONTINUOUS
 10
8.3451724025
 20
4.0982431826
 11
8.3542544338
 21
4.0921884965
  0
LINE
  5
480
100
AcDbEntity
  8
03__ASM_ALL_CURVES
100
AcDbLine
 62
40
  6
CONTINUOUS
 10
6.703209513
 20
5.2024875179
 11
6.739537638
 21
5.178268765
  0
LINE
  5
481
100
AcDbEntity
  8
03__ASM_ALL_CURVES
100
AcDbLine
 62
40
  6
CONTINUOUS
 10
6.739537638
 20
5.2267062679
 11
6.727428263
 21
5.2347791826
  0
LINE
  5
482
100
AcDbEntity
  8
03__ASM_ALL_CURVES
100
AcDbLine
 62
40
  6
CONTINUOUS
 10
6.909068888
 20
5.1379041826
 11
6.896959513
 21
5.1459770995
  0
LINE
  5
483
100
AcDbEntity
  8
03__ASM_ALL_CURVES
100
AcDbLine
 62
40
  6
CONTINUOUS
 10
6.545787638
 20
5.2267062679
 11
6.5518423255
 21
5.2186333473
  0
LINE
  5
484
100
AcDbEntity
  8
03__ASM_ALL_CURVES
100
AcDbLine
 62
40
  6
CONTINUOUS
 10
7.38247709
 20
4.1430478703
 11
7.3733950588
 21
4.1551572451
  0
LINE
  5
485
100
AcDbEntity
  8
03__ASM_ALL_CURVES
100
AcDbLine
 62
40
  6
CONTINUOUS
 10
7.3370669338
 20
4.2035947465
 11
7.3416079494
 21
4.1975400562
  0
LINE
  5
486
100
AcDbEntity
  8
03__ASM_ALL_CURVES
100
AcDbLine
 62
40
  6
CONTINUOUS
 10
7.4778384181
 20
4.0921884965
 11
7.4869204494
 21
4.0800791201
  0
LINE
  5
487
100
AcDbEntity
  8
03__ASM_ALL_CURVES
100
AcDbLine
 62
40
  6
CONTINUOUS
 10
7.52778959
 20
4.0316416203
 11
7.5232485744
 21
4.037696308
  0
LINE
  5
488
100
AcDbEntity
  8
03__ASM_ALL_CURVES
100
AcDbLine
 62
40
  6
CONTINUOUS
 10
7.4097231838
 20
4.2035947465
 11
7.418805215
 21
4.1914853701
  0
LINE
  5
489
100
AcDbEntity
  8
03__ASM_ALL_CURVES
100
AcDbLine
 62
40
  6
CONTINUOUS
 10
6.703209513
 20
5.1459770995
 11
6.691100138
 21
5.1621229326
  0
LINE
  5
48A
100
AcDbEntity
  8
03__ASM_ALL_CURVES
100
AcDbLine
 62
40
  6
CONTINUOUS
 10
6.6971548255
 20
5.2105604326
 11
6.703209513
 21
5.2024875179
  0
LINE
  5
48B
100
AcDbEntity
  8
03__ASM_ALL_CURVES
100
AcDbLine
 62
40
  6
CONTINUOUS
 10
6.739537638
 20
5.178268765
 11
6.7455923255
 21
5.1701958502
  0
LINE
  5
48C
100
AcDbEntity
  8
03__ASM_ALL_CURVES
100
AcDbLine
 62
40
  6
CONTINUOUS
 10
7.60044584
 20
4.0316416203
 11
7.5913638088
 21
4.0437509951
  0
LINE
  5
48D
100
AcDbEntity
  8
03__ASM_ALL_CURVES
100
AcDbLine
 62
40
  6
CONTINUOUS
 10
7.4823794338
 20
4.2035947465
 11
7.4869204494
 21
4.1975400562
  0
LINE
  5
48E
100
AcDbEntity
  8
03__ASM_ALL_CURVES
100
AcDbLine
 62
40
  6
CONTINUOUS
 10
6.7455923255
 20
5.2186333473
 11
6.739537638
 21
5.2267062679
  0
LINE
  5
48F
100
AcDbEntity
  8
03__ASM_ALL_CURVES
100
AcDbLine
 62
40
  6
CONTINUOUS
 10
6.884850138
 20
5.1621229326
 11
6.8787954505
 21
5.1863416826
  0
LINE
  5
490
100
AcDbEntity
  8
03__ASM_ALL_CURVES
100
AcDbLine
 62
40
  6
CONTINUOUS
 10
7.1815298255
 20
5.1379041826
 11
7.1815298255
 21
5.2347791826
  0
LINE
  5
491
100
AcDbEntity
  8
03__ASM_ALL_CURVES
100
AcDbLine
 62
40
  6
CONTINUOUS
 10
7.2784048255
 20
5.1379041826
 11
7.2784048255
 21
5.2347791826
  0
LINE
  5
492
100
AcDbEntity
  8
03__ASM_ALL_CURVES
100
AcDbLine
 62
40
  6
CONTINUOUS
 10
7.3052798244
 20
4.0255869326
 11
7.3052798244
 21
4.0982431826
  0
LINE
  5
493
100
AcDbEntity
  8
03__ASM_ALL_CURVES
100
AcDbLine
 62
40
  6
CONTINUOUS
 10
7.3052798244
 20
4.1369931826
 11
7.3052798244
 21
4.2096494326
  0
LINE
  5
494
100
AcDbEntity
  8
03__ASM_ALL_CURVES
100
AcDbLine
 62
40
  6
CONTINUOUS
 10
7.3416079494
 20
4.074024434
 11
7.3370669338
 21
4.0679697437
  0
LINE
  5
495
100
AcDbEntity
  8
03__ASM_ALL_CURVES
100
AcDbLine
 62
40
  6
CONTINUOUS
 10
7.418805215
 20
4.1551572451
 11
7.4097231838
 21
4.1430478703
  0
LINE
  5
496
100
AcDbEntity
  8
03__ASM_ALL_CURVES
100
AcDbLine
 62
40
  6
CONTINUOUS
 10
7.4869204494
 20
4.185430684
 11
7.4823794338
 21
4.1793759937
  0
LINE
  5
497
100
AcDbEntity
  8
03__ASM_ALL_CURVES
100
AcDbLine
 62
40
  6
CONTINUOUS
 10
7.4869204494
 20
4.0437509951
 11
7.4778384181
 21
4.0316416203
  0
LINE
  5
498
100
AcDbEntity
  8
03__ASM_ALL_CURVES
100
AcDbLine
 62
40
  6
CONTINUOUS
 10
7.9183169338
 20
4.0679697437
 11
7.9092349025
 21
4.0619150576
  0
LINE
  5
499
100
AcDbEntity
  8
03__ASM_ALL_CURVES
100
AcDbLine
 62
40
  6
CONTINUOUS
 10
7.9909731838
 20
4.0679697437
 11
7.9818911525
 21
4.0619150576
  0
LINE
  5
49A
100
AcDbEntity
  8
03__ASM_ALL_CURVES
100
AcDbLine
 62
40
  6
CONTINUOUS
 10
8.1181216213
 20
4.0982431826
 11
8.10903959
 21
4.0921884965
  0
LINE
  5
49B
100
AcDbEntity
  8
03__ASM_ALL_CURVES
100
AcDbLine
 62
40
  6
CONTINUOUS
 10
8.1907778713
 20
4.0982431826
 11
8.18169584
 21
4.0921884965
  0
LINE
  5
49C
100
AcDbEntity
  8
03__ASM_ALL_CURVES
100
AcDbLine
 62
40
  6
CONTINUOUS
 10
8.1362856838
 20
4.0316416203
 11
8.1272036525
 21
4.0255869326
  0
LINE
  5
49D
100
AcDbEntity
  8
03__ASM_ALL_CURVES
100
AcDbLine
 62
40
  6
CONTINUOUS
 10
7.005943888
 20
5.1379041826
 11
6.993834513
 21
5.1459770995
  0
LINE
  5
49E
100
AcDbEntity
  8
03__ASM_ALL_CURVES
100
AcDbLine
 62
40
  6
CONTINUOUS
 10
6.921178263
 20
5.2347791826
 11
6.933287638
 21
5.2267062679
  0
LINE
  5
49F
100
AcDbEntity
  8
03__ASM_ALL_CURVES
100
AcDbLine
 62
40
  6
CONTINUOUS
 10
7.6276919338
 20
4.0921884965
 11
7.6322329494
 21
4.0861338062
  0
LINE
  5
4A0
100
AcDbEntity
  8
03__ASM_ALL_CURVES
100
AcDbLine
 62
40
  6
CONTINUOUS
 10
6.896959513
 20
5.1459770995
 11
6.884850138
 21
5.1621229326
  0
LINE
  5
4A1
100
AcDbEntity
  8
03__ASM_ALL_CURVES
100
AcDbLine
 62
40
  6
CONTINUOUS
 10
7.7684634181
 20
4.0921884965
 11
7.7775454494
 21
4.0800791201
  0
LINE
  5
4A2
100
AcDbEntity
  8
03__ASM_ALL_CURVES
100
AcDbLine
 62
40
  6
CONTINUOUS
 10
6.933287638
 20
5.2267062679
 11
6.945397013
 21
5.2105604326
  0
LINE
  5
4A3
100
AcDbEntity
  8
03__ASM_ALL_CURVES
100
AcDbLine
 62
40
  6
CONTINUOUS
 10
6.993834513
 20
5.1459770995
 11
6.9877798255
 21
5.1540500164
  0
LINE
  5
4A4
100
AcDbEntity
  8
03__ASM_ALL_CURVES
100
AcDbLine
 62
40
  6
CONTINUOUS
 10
7.3279849025
 20
4.0619150576
 11
7.3416079494
 21
4.0255869326
  0
LINE
  5
4A5
100
AcDbEntity
  8
03__ASM_ALL_CURVES
100
AcDbLine
 62
40
  6
CONTINUOUS
 10
6.945397013
 20
5.2105604326
 11
6.9514517005
 21
5.1863416826
  0
LINE
  5
4A6
100
AcDbEntity
  8
03__ASM_ALL_CURVES
100
AcDbLine
 62
40
  6
CONTINUOUS
 10
7.3733950588
 20
4.1551572451
 11
7.3688540431
 21
4.1733213076
  0
LINE
  5
4A7
100
AcDbEntity
  8
03__ASM_ALL_CURVES
100
AcDbLine
 62
40
  6
CONTINUOUS
 10
7.3416079494
 20
4.1975400562
 11
7.3416079494
 21
4.185430684
  0
LINE
  5
4A8
100
AcDbEntity
  8
03__ASM_ALL_CURVES
100
AcDbLine
 62
40
  6
CONTINUOUS
 10
7.3416079494
 20
4.0861338062
 11
7.3416079494
 21
4.074024434
  0
LINE
  5
4A9
100
AcDbEntity
  8
03__ASM_ALL_CURVES
100
AcDbLine
 62
40
  6
CONTINUOUS
 10
7.3752798255
 20
5.1379041826
 11
7.3752798255
 21
5.2347791826
  0
LINE
  5
4AA
100
AcDbEntity
  8
03__ASM_ALL_CURVES
100
AcDbLine
 62
40
  6
CONTINUOUS
 10
7.3779360744
 20
4.0255869326
 11
7.3779360744
 21
4.0982431826
  0
LINE
  5
4AB
100
AcDbEntity
  8
03__ASM_ALL_CURVES
100
AcDbLine
 62
40
  6
CONTINUOUS
 10
7.4237173255
 20
5.2186333473
 11
7.4237173255
 21
5.2024875179
  0
LINE
  5
4AC
100
AcDbEntity
  8
03__ASM_ALL_CURVES
100
AcDbLine
 62
40
  6
CONTINUOUS
 10
7.4505923244
 20
4.0255869326
 11
7.4505923244
 21
4.0982431826
  0
LINE
  5
4AD
100
AcDbEntity
  8
03__ASM_ALL_CURVES
100
AcDbLine
 62
40
  6
CONTINUOUS
 10
7.4505923244
 20
4.1369931826
 11
7.4505923244
 21
4.2096494326
  0
LINE
  5
4AE
100
AcDbEntity
  8
03__ASM_ALL_CURVES
100
AcDbLine
 62
40
  6
CONTINUOUS
 10
7.4869204494
 20
4.1975400562
 11
7.4869204494
 21
4.185430684
  0
LINE
  5
4AF
100
AcDbEntity
  8
03__ASM_ALL_CURVES
100
AcDbLine
 62
40
  6
CONTINUOUS
 10
7.3688540431
 20
4.1733213076
 11
7.3733950588
 21
4.1914853701
  0
LINE
  5
4B0
100
AcDbEntity
  8
03__ASM_ALL_CURVES
100
AcDbLine
 62
40
  6
CONTINUOUS
 10
7.4233462306
 20
4.1733213076
 11
7.418805215
 21
4.1551572451
  0
LINE
  5
4B1
100
AcDbEntity
  8
03__ASM_ALL_CURVES
100
AcDbLine
 62
40
  6
CONTINUOUS
 10
7.491461465
 20
4.0619150576
 11
7.4869204494
 21
4.0437509951
  0
LINE
  5
4B2
100
AcDbEntity
  8
03__ASM_ALL_CURVES
100
AcDbLine
 62
40
  6
CONTINUOUS
 10
7.5595766994
 20
4.037696308
 11
7.5550356838
 21
4.0316416203
  0
LINE
  5
4B3
100
AcDbEntity
  8
03__ASM_ALL_CURVES
100
AcDbLine
 62
40
  6
CONTINUOUS
 10
7.5913638088
 20
4.0800791201
 11
7.60044584
 21
4.0921884965
  0
LINE
  5
4B4
100
AcDbEntity
  8
03__ASM_ALL_CURVES
100
AcDbLine
 62
40
  6
CONTINUOUS
 10
7.6322329494
 20
4.037696308
 11
7.6276919338
 21
4.0316416203
  0
LINE
  5
4B5
100
AcDbEntity
  8
03__ASM_ALL_CURVES
100
AcDbLine
 62
40
  6
CONTINUOUS
 10
8.2089419338
 20
4.0316416203
 11
8.1998599025
 21
4.0255869326
  0
LINE
  5
4B6
100
AcDbEntity
  8
03__ASM_ALL_CURVES
100
AcDbLine
 62
40
  6
CONTINUOUS
 10
8.2815981838
 20
4.0316416203
 11
8.2725161525
 21
4.0255869326
  0
LINE
  5
4B7
100
AcDbEntity
  8
03__ASM_ALL_CURVES
100
AcDbLine
 62
40
  6
CONTINUOUS
 10
8.3542544338
 20
4.0679697437
 11
8.3451724025
 21
4.0619150576
  0
LINE
  5
4B8
100
AcDbEntity
  8
03__ASM_ALL_CURVES
100
AcDbLine
 62
40
  6
CONTINUOUS
 10
7.2057485755
 20
5.2347791826
 11
7.2178579505
 21
5.2267062679
  0
LINE
  5
4B9
100
AcDbEntity
  8
03__ASM_ALL_CURVES
100
AcDbLine
 62
40
  6
CONTINUOUS
 10
7.405553263
 20
5.2347791826
 11
7.417662638
 21
5.2267062679
  0
LINE
  5
4BA
100
AcDbEntity
  8
03__ASM_ALL_CURVES
100
AcDbLine
 62
40
  6
CONTINUOUS
 10
7.9183169338
 20
4.0921884965
 11
7.9228579494
 21
4.0861338062
  0
LINE
  5
4BB
100
AcDbEntity
  8
03__ASM_ALL_CURVES
100
AcDbLine
 62
40
  6
CONTINUOUS
 10
7.9909731838
 20
4.0921884965
 11
7.9955141994
 21
4.0861338062
  0
LINE
  5
4BC
100
AcDbEntity
  8
03__ASM_ALL_CURVES
100
AcDbLine
 62
40
  6
CONTINUOUS
 10
8.10903959
 20
4.0316416203
 11
8.0999575588
 21
4.0437509951
  0
LINE
  5
4BD
100
AcDbEntity
  8
03__ASM_ALL_CURVES
100
AcDbLine
 62
40
  6
CONTINUOUS
 10
7.2178579505
 20
5.2267062679
 11
7.2299673255
 21
5.2105604326
  0
LINE
  5
4BE
100
AcDbEntity
  8
03__ASM_ALL_CURVES
100
AcDbLine
 62
40
  6
CONTINUOUS
 10
7.4732974025
 20
4.1733213076
 11
7.4869204494
 21
4.1369931826
  0
LINE
  5
4BF
100
AcDbEntity
  8
03__ASM_ALL_CURVES
100
AcDbLine
 62
40
  6
CONTINUOUS
 10
7.418805215
 20
4.1914853701
 11
7.4233462306
 21
4.1733213076
  0
LINE
  5
4C0
100
AcDbEntity
  8
03__ASM_ALL_CURVES
100
AcDbLine
 62
40
  6
CONTINUOUS
 10
7.4869204494
 20
4.0800791201
 11
7.491461465
 21
4.0619150576
  0
LINE
  5
4C1
100
AcDbEntity
  8
03__ASM_ALL_CURVES
100
AcDbLine
 62
40
  6
CONTINUOUS
 10
7.2299673255
 20
5.2105604326
 11
7.236022013
 21
5.1863416826
  0
LINE
  5
4C2
100
AcDbEntity
  8
03__ASM_ALL_CURVES
100
AcDbLine
 62
40
  6
CONTINUOUS
 10
7.5913638088
 20
4.0437509951
 11
7.5868227931
 21
4.0619150576
  0
LINE
  5
4C3
100
AcDbEntity
  8
03__ASM_ALL_CURVES
100
AcDbLine
 62
40
  6
CONTINUOUS
 10
7.5232485744
 20
4.037696308
 11
7.5232485744
 21
4.0982431826
  0
LINE
  5
4C4
100
AcDbEntity
  8
03__ASM_ALL_CURVES
100
AcDbLine
 62
40
  6
CONTINUOUS
 10
7.5414126369
 20
4.2096494326
 11
7.5414126369
 21
4.1369931826
  0
LINE
  5
4C5
100
AcDbEntity
  8
03__ASM_ALL_CURVES
100
AcDbLine
 62
40
  6
CONTINUOUS
 10
7.5595766994
 20
4.0982431826
 11
7.5595766994
 21
4.037696308
  0
LINE
  5
4C6
100
AcDbEntity
  8
03__ASM_ALL_CURVES
100
AcDbLine
 62
40
  6
CONTINUOUS
 10
7.6140688869
 20
4.2096494326
 11
7.6140688869
 21
4.1369931826
  0
LINE
  5
4C7
100
AcDbEntity
  8
03__ASM_ALL_CURVES
100
AcDbLine
 62
40
  6
CONTINUOUS
 10
7.6685610744
 20
4.0255869326
 11
7.6685610744
 21
4.0982431826
  0
LINE
  5
4C8
100
AcDbEntity
  8
03__ASM_ALL_CURVES
100
AcDbLine
 62
40
  6
CONTINUOUS
 10
7.5868227931
 20
4.0619150576
 11
7.5913638088
 21
4.0800791201
  0
LINE
  5
4C9
100
AcDbEntity
  8
03__ASM_ALL_CURVES
100
AcDbLine
 62
40
  6
CONTINUOUS
 10
7.7775454494
 20
4.0437509951
 11
7.7684634181
 21
4.0316416203
  0
LINE
  5
4CA
100
AcDbEntity
  8
03__ASM_ALL_CURVES
100
AcDbLine
 62
40
  6
CONTINUOUS
 10
7.9228579494
 20
4.074024434
 11
7.9183169338
 21
4.0679697437
  0
LINE
  5
4CB
100
AcDbEntity
  8
03__ASM_ALL_CURVES
100
AcDbLine
 62
40
  6
CONTINUOUS
 10
7.9955141994
 20
4.074024434
 11
7.9909731838
 21
4.0679697437
  0
LINE
  5
4CC
100
AcDbEntity
  8
03__ASM_ALL_CURVES
100
AcDbLine
 62
40
  6
CONTINUOUS
 10
8.1044985744
 20
4.0800791201
 11
8.10903959
 21
4.074024434
  0
LINE
  5
4CD
100
AcDbEntity
  8
03__ASM_ALL_CURVES
100
AcDbLine
 62
40
  6
CONTINUOUS
 10
8.1362856838
 20
4.0558603694
 11
8.1408266994
 21
4.0498056833
  0
LINE
  5
4CE
100
AcDbEntity
  8
03__ASM_ALL_CURVES
100
AcDbLine
 62
40
  6
CONTINUOUS
 10
8.18169584
 20
4.0316416203
 11
8.1726138088
 21
4.0437509951
  0
LINE
  5
4CF
100
AcDbEntity
  8
03__ASM_ALL_CURVES
100
AcDbLine
 62
40
  6
CONTINUOUS
 10
8.1408266994
 20
4.0861338062
 11
8.1362856838
 21
4.0921884965
  0
LINE
  5
4D0
100
AcDbEntity
  8
03__ASM_ALL_CURVES
100
AcDbLine
 62
40
  6
CONTINUOUS
 10
8.1771548244
 20
4.0800791201
 11
8.18169584
 21
4.074024434
  0
LINE
  5
4D1
100
AcDbEntity
  8
03__ASM_ALL_CURVES
100
AcDbLine
 62
40
  6
CONTINUOUS
 10
8.2089419338
 20
4.0558603694
 11
8.2134829494
 21
4.0498056833
  0
LINE
  5
4D2
100
AcDbEntity
  8
03__ASM_ALL_CURVES
100
AcDbLine
 62
40
  6
CONTINUOUS
 10
8.25435209
 20
4.0316416203
 11
8.2498110744
 21
4.037696308
  0
LINE
  5
4D3
100
AcDbEntity
  8
03__ASM_ALL_CURVES
100
AcDbLine
 62
40
  6
CONTINUOUS
 10
8.2134829494
 20
4.0861338062
 11
8.2089419338
 21
4.0921884965
  0
LINE
  5
4D4
100
AcDbEntity
  8
03__ASM_ALL_CURVES
100
AcDbLine
 62
40
  6
CONTINUOUS
 10
7.417662638
 20
5.2267062679
 11
7.4237173255
 21
5.2186333473
  0
LINE
  5
4D5
100
AcDbEntity
  8
03__ASM_ALL_CURVES
100
AcDbLine
 62
40
  6
CONTINUOUS
 10
7.405553263
 20
5.1863416826
 11
7.4237173255
 21
5.1379041826
  0
LINE
  5
4D6
100
AcDbEntity
  8
03__ASM_ALL_CURVES
100
AcDbLine
 62
40
  6
CONTINUOUS
 10
7.7775454494
 20
4.0800791201
 11
7.782086465
 21
4.0619150576
  0
LINE
  5
4D7
100
AcDbEntity
  8
03__ASM_ALL_CURVES
100
AcDbLine
 62
40
  6
CONTINUOUS
 10
7.7412173244
 20
4.0255869326
 11
7.7412173244
 21
4.0982431826
  0
LINE
  5
4D8
100
AcDbEntity
  8
03__ASM_ALL_CURVES
100
AcDbLine
 62
40
  6
CONTINUOUS
 10
7.782086465
 20
4.0619150576
 11
7.7775454494
 21
4.0437509951
  0
LINE
  5
4D9
100
AcDbEntity
  8
03__ASM_ALL_CURVES
100
AcDbLine
 62
40
  6
CONTINUOUS
 10
8.10903959
 20
4.0921884965
 11
8.1044985744
 21
4.0861338062
  0
LINE
  5
4DA
100
AcDbEntity
  8
03__ASM_ALL_CURVES
100
AcDbLine
 62
40
  6
CONTINUOUS
 10
8.1408266994
 20
4.037696308
 11
8.1362856838
 21
4.0316416203
  0
LINE
  5
4DB
100
AcDbEntity
  8
03__ASM_ALL_CURVES
100
AcDbLine
 62
40
  6
CONTINUOUS
 10
8.18169584
 20
4.0921884965
 11
8.1771548244
 21
4.0861338062
  0
LINE
  5
4DC
100
AcDbEntity
  8
03__ASM_ALL_CURVES
100
AcDbLine
 62
40
  6
CONTINUOUS
 10
8.3542544338
 20
4.0921884965
 11
8.3587954494
 21
4.0861338062
  0
LINE
  5
4DD
100
AcDbEntity
  8
03__ASM_ALL_CURVES
100
AcDbLine
 62
40
  6
CONTINUOUS
 10
7.9818911525
 20
4.0619150576
 11
7.9955141994
 21
4.0255869326
  0
LINE
  5
4DE
100
AcDbEntity
  8
03__ASM_ALL_CURVES
100
AcDbLine
 62
40
  6
CONTINUOUS
 10
7.8865298244
 20
4.0255869326
 11
7.8865298244
 21
4.0982431826
  0
LINE
  5
4DF
100
AcDbEntity
  8
03__ASM_ALL_CURVES
100
AcDbLine
 62
40
  6
CONTINUOUS
 10
7.9228579494
 20
4.0861338062
 11
7.9228579494
 21
4.074024434
  0
LINE
  5
4E0
100
AcDbEntity
  8
03__ASM_ALL_CURVES
100
AcDbLine
 62
40
  6
CONTINUOUS
 10
7.9591860744
 20
4.0255869326
 11
7.9591860744
 21
4.0982431826
  0
LINE
  5
4E1
100
AcDbEntity
  8
03__ASM_ALL_CURVES
100
AcDbLine
 62
40
  6
CONTINUOUS
 10
7.9955141994
 20
4.0861338062
 11
7.9955141994
 21
4.074024434
  0
LINE
  5
4E2
100
AcDbEntity
  8
03__ASM_ALL_CURVES
100
AcDbLine
 62
40
  6
CONTINUOUS
 10
8.0318423244
 20
4.0255869326
 11
8.0318423244
 21
4.0982431826
  0
LINE
  5
4E3
100
AcDbEntity
  8
03__ASM_ALL_CURVES
100
AcDbLine
 62
40
  6
CONTINUOUS
 10
8.2134829494
 20
4.037696308
 11
8.2089419338
 21
4.0316416203
  0
LINE
  5
4E4
100
AcDbEntity
  8
03__ASM_ALL_CURVES
100
AcDbLine
 62
40
  6
CONTINUOUS
 10
8.2861391994
 20
4.037696308
 11
8.2815981838
 21
4.0316416203
  0
LINE
  5
4E5
100
AcDbEntity
  8
03__ASM_ALL_CURVES
100
AcDbLine
 62
40
  6
CONTINUOUS
 10
8.3587954494
 20
4.074024434
 11
8.3542544338
 21
4.0679697437
  0
LINE
  5
4E6
100
AcDbEntity
  8
03__ASM_ALL_CURVES
100
AcDbLine
 62
40
  6
CONTINUOUS
 10
8.1044985744
 20
4.0861338062
 11
8.1044985744
 21
4.0800791201
  0
LINE
  5
4E7
100
AcDbEntity
  8
03__ASM_ALL_CURVES
100
AcDbLine
 62
40
  6
CONTINUOUS
 10
8.1408266994
 20
4.0498056833
 11
8.1408266994
 21
4.037696308
  0
LINE
  5
4E8
100
AcDbEntity
  8
03__ASM_ALL_CURVES
100
AcDbLine
 62
40
  6
CONTINUOUS
 10
8.1771548244
 20
4.0861338062
 11
8.1771548244
 21
4.0800791201
  0
LINE
  5
4E9
100
AcDbEntity
  8
03__ASM_ALL_CURVES
100
AcDbLine
 62
40
  6
CONTINUOUS
 10
8.2134829494
 20
4.0498056833
 11
8.2134829494
 21
4.037696308
  0
LINE
  5
4EA
100
AcDbEntity
  8
03__ASM_ALL_CURVES
100
AcDbLine
 62
40
  6
CONTINUOUS
 10
8.3451724025
 20
4.0619150576
 11
8.3587954494
 21
4.0255869326
  0
LINE
  5
4EB
100
AcDbEntity
  8
03__ASM_ALL_CURVES
100
AcDbLine
 62
40
  6
CONTINUOUS
 10
8.2498110744
 20
4.037696308
 11
8.2498110744
 21
4.0982431826
  0
LINE
  5
4EC
100
AcDbEntity
  8
03__ASM_ALL_CURVES
100
AcDbLine
 62
40
  6
CONTINUOUS
 10
8.2861391994
 20
4.0982431826
 11
8.2861391994
 21
4.037696308
  0
LINE
  5
4ED
100
AcDbEntity
  8
03__ASM_ALL_CURVES
100
AcDbLine
 62
40
  6
CONTINUOUS
 10
8.3224673244
 20
4.0255869326
 11
8.3224673244
 21
4.0982431826
  0
LINE
  5
4EE
100
AcDbEntity
  8
03__ASM_ALL_CURVES
100
AcDbLine
 62
40
  6
CONTINUOUS
 10
8.3587954494
 20
4.0861338062
 11
8.3587954494
 21
4.074024434
  0
LINE
  5
4EF
100
AcDbEntity
  8
03__ASM_ALL_CURVES
100
AcDbLine
 62
40
  6
CONTINUOUS
 10
8.3951235744
 20
4.0255869326
 11
8.3951235744
 21
4.0982431826
  0
ARC
  5
4F0
100
AcDbEntity
  8
0
100
AcDbCircle
 62
7
  6
CONTINUOUS
 10
3.7332798248
 20
4.2946181826
 40
0.094
100
AcDbArc
 50
90.0
 51
131.267427381
  0
ARC
  5
4F1
100
AcDbEntity
  8
0
100
AcDbCircle
 62
7
  6
CONTINUOUS
 10
3.7332798248
 20
3.9406181826
 40
0.094
100
AcDbArc
 50
228.732572619
 51
270.0
  0
CIRCLE
  5
4F2
100
AcDbEntity
  8
0
100
AcDbCircle
 62
7
  6
CONTINUOUS
 10
6.4992798248
 20
4.1176181826
 40
0.0545
  0
ARC
  5
4F3
100
AcDbEntity
  8
0
100
AcDbCircle
 62
7
  6
CONTINUOUS
 10
5.5632322185
 20
4.545059037
 40
0.05
100
AcDbArc
 50
285.0
 51
345.0
  0
ARC
  5
4F4
100
AcDbEntity
  8
0
100
AcDbCircle
 62
7
  6
CONTINUOUS
 10
5.5632322185
 20
3.6901773281
 40
0.05
100
AcDbArc
 50
15.0
 51
75.0
  0
ARC
  5
4F5
100
AcDbEntity
  8
0
100
AcDbCircle
 62
7
  6
CONTINUOUS
 10
3.4202798248
 20
3.9561181826
 40
0.0175
100
AcDbArc
 50
180.0
 51
360.0
  0
ARC
  5
4F6
100
AcDbEntity
  8
0
100
AcDbCircle
 62
7
  6
CONTINUOUS
 10
5.2042798248
 20
3.7306181826
 40
0.013
100
AcDbArc
 50
0.0000000041
 51
90.0
  0
ARC
  5
4F7
100
AcDbEntity
  8
0
100
AcDbCircle
 62
7
  6
CONTINUOUS
 10
5.2042798248
 20
4.5046181826
 40
0.013
100
AcDbArc
 50
270.0
 51
359.9999999985
  0
ARC
  5
4F8
100
AcDbEntity
  8
0
100
AcDbCircle
 62
7
  6
CONTINUOUS
 10
5.8497742713
 20
3.7541181826
 40
0.013
100
AcDbArc
 50
29.9999999851
 51
90.0
  0
ARC
  5
4F9
100
AcDbEntity
  8
0
100
AcDbCircle
 62
7
  6
CONTINUOUS
 10
5.8497742713
 20
4.4811181826
 40
0.013
100
AcDbArc
 50
270.0
 51
330.0000000002
  0
ARC
  5
4FA
100
AcDbEntity
  8
0
100
AcDbCircle
 62
7
  6
CONTINUOUS
 10
4.1192798248
 20
4.4756181826
 40
0.008
100
AcDbArc
 50
270.0
 51
360.0
  0
ARC
  5
4FB
100
AcDbEntity
  8
0
100
AcDbCircle
 62
7
  6
CONTINUOUS
 10
4.0972798248
 20
4.4756181826
 40
0.008
100
AcDbArc
 50
180.0
 51
270.0
  0
ARC
  5
4FC
100
AcDbEntity
  8
0
100
AcDbCircle
 62
7
  6
CONTINUOUS
 10
4.1192798248
 20
3.7596181826
 40
0.008
100
AcDbArc
 50
0.0
 51
90.0
  0
ARC
  5
4FD
100
AcDbEntity
  8
0
100
AcDbCircle
 62
7
  6
CONTINUOUS
 10
4.0972798248
 20
3.7596181826
 40
0.008
100
AcDbArc
 50
90.0
 51
180.0
  0
ARC
  5
4FE
100
AcDbEntity
  8
0
100
AcDbCircle
 62
7
  6
CONTINUOUS
 10
4.1322798248
 20
4.4861181826
 40
0.005
100
AcDbArc
 50
90.0
 51
180.0
  0
ARC
  5
4FF
100
AcDbEntity
  8
0
100
AcDbCircle
 62
7
  6
CONTINUOUS
 10
4.0842798248
 20
4.4861181826
 40
0.005
100
AcDbArc
 50
0.0
 51
90.0
  0
ARC
  5
500
100
AcDbEntity
  8
0
100
AcDbCircle
 62
7
  6
CONTINUOUS
 10
4.1322798248
 20
3.7491181826
 40
0.005
100
AcDbArc
 50
180.0
 51
270.0
  0
ARC
  5
501
100
AcDbEntity
  8
0
100
AcDbCircle
 62
7
  6
CONTINUOUS
 10
4.0842798248
 20
3.7491181826
 40
0.005
100
AcDbArc
 50
270.0
 51
360.0
  0
SPLINE
  5
502
100
AcDbEntity
  8
0
100
AcDbSpline
 62
7
  6
CONTINUOUS
 70
0
 71
3
 72
20
 73
16
 74
14
 42
0.0000001
 43
0.0000001
 44
0.0000000001
 12
0.0
 22
0.0416605862
 32
0.0
 13
0.0
 23
-0.0416605862
 33
0.0
 40
0.0
 40
0.0
 40
0.0
 40
0.0
 40
0.0489307848
 40
0.1062135912
 40
0.175871992
 40
0.2580136346
 40
0.3503828832
 40
0.4493672053
 40
0.5506327947
 40
0.6496171168
 40
0.7419863654
 40
0.824128008
 40
0.8937864088
 40
0.9510692152
 40
1.0
 40
1.0
 40
1.0
 40
1.0
 10
3.4377798248
 20
4.1937417514
 30
0.0
 10
3.4377798248
 20
4.1944212465
 30
0.0
 10
3.4373582908
 20
4.1959072575
 30
0.0
 10
3.435723023
 20
4.1977856848
 30
0.0
 10
3.4332711025
 20
4.1993846851
 30
0.0
 10
3.4301118701
 20
4.2006594362
 30
0.0
 10
3.4264087765
 20
4.201551424
 30
0.0
 10
3.4223618675
 20
4.2020106617
 30
0.0
 10
3.418197782
 20
4.2020106617
 30
0.0
 10
3.414150873
 20
4.201551424
 30
0.0
 10
3.4104477794
 20
4.2006594362
 30
0.0
 10
3.407288547
 20
4.1993846851
 30
0.0
 10
3.4048366265
 20
4.1977856848
 30
0.0
 10
3.4032013587
 20
4.1959072575
 30
0.0
 10
3.4027798248
 20
4.1944212465
 30
0.0
 10
3.4027798248
 20
4.1937417514
 30
0.0
 11
3.4377798248
 21
4.1937417514
 31
0.0
 11
3.4372713066
 21
4.1957157907
 31
0.0
 11
3.4357753052
 21
4.197575106
 31
0.0
 11
3.4333787628
 21
4.1992116406
 31
0.0
 11
3.4302209578
 21
4.2005302852
 31
0.0
 11
3.4264854103
 21
4.2014544049
 31
0.0
 11
3.4223892167
 21
4.2019302932
 31
0.0
 11
3.4181704328
 21
4.2019302932
 31
0.0
 11
3.4140742392
 21
4.2014544049
 31
0.0
 11
3.4103386917
 21
4.2005302852
 31
0.0
 11
3.4071808867
 21
4.1992116406
 31
0.0
 11
3.4047843443
 21
4.197575106
 31
0.0
 11
3.4032883429
 21
4.1957157907
 31
0.0
 11
3.4027798248
 21
4.1937417514
 31
0.0
  0
SPLINE
  5
503
100
AcDbEntity
  8
0
100
AcDbSpline
 62
7
  6
CONTINUOUS
 70
0
 71
3
 72
15
 73
11
 74
9
 42
0.0000001
 43
0.0000001
 44
0.0000000001
 12
0.0
 22
0.1099409465
 32
0.0
 13
-0.0
 23
-0.1099409465
 33
0.0
 40
0.0
 40
0.0
 40
0.0
 40
0.0
 40
0.125
 40
0.25
 40
0.375
 40
0.5
 40
0.625
 40
0.75
 40
0.875
 40
1.0
 40
1.0
 40
1.0
 40
1.0
 10
6.8792798248
 20
4.4356181826
 30
0.0
 10
6.8792798248
 20
4.4401990554
 30
0.0
 10
6.8774574403
 20
4.4493608009
 30
0.0
 10
6.8696728723
 20
4.4610112302
 30
0.0
 10
6.8580224431
 20
4.4687957981
 30
0.0
 10
6.8442798248
 20
4.4715293748
 30
0.0
 10
6.8305372064
 20
4.4687957981
 30
0.0
 10
6.8188867772
 20
4.4610112302
 30
0.0
 10
6.8111022092
 20
4.4493608009
 30
0.0
 10
6.8092798248
 20
4.4401990554
 30
0.0
 10
6.8092798248
 20
4.4356181826
 30
0.0
 11
6.8792798248
 21
4.4356181826
 31
0.0
 11
6.8766156084
 21
4.4490121027
 31
0.0
 11
6.8690285621
 21
4.4603669199
 31
0.0
 11
6.8576737449
 21
4.4679539662
 31
0.0
 11
6.8442798248
 21
4.4706181826
 31
0.0
 11
6.8308859046
 21
4.4679539662
 31
0.0
 11
6.8195310874
 21
4.4603669199
 31
0.0
 11
6.8119440411
 21
4.4490121027
 31
0.0
 11
6.8092798248
 21
4.4356181826
 31
0.0
  0
SPLINE
  5
504
100
AcDbEntity
  8
0
100
AcDbSpline
 62
7
  6
CONTINUOUS
 70
0
 71
3
 72
15
 73
11
 74
9
 42
0.0000001
 43
0.0000001
 44
0.0000000001
 12
0.0
 22
-0.1099409465
 32
0.0
 13
-0.0
 23
0.1099409465
 33
0.0
 40
0.0
 40
0.0
 40
0.0
 40
0.0
 40
0.125
 40
0.25
 40
0.375
 40
0.5
 40
0.625
 40
0.75
 40
0.875
 40
1.0
 40
1.0
 40
1.0
 40
1.0
 10
6.8792798248
 20
3.7996181826
 30
0.0
 10
6.8792798248
 20
3.7950373098
 30
0.0
 10
6.8774574403
 20
3.7858755643
 30
0.0
 10
6.8696728723
 20
3.774225135
 30
0.0
 10
6.8580224431
 20
3.7664405671
 30
0.0
 10
6.8442798248
 20
3.7637069903
 30
0.0
 10
6.8305372064
 20
3.7664405671
 30
0.0
 10
6.8188867772
 20
3.774225135
 30
0.0
 10
6.8111022092
 20
3.7858755643
 30
0.0
 10
6.8092798248
 20
3.7950373098
 30
0.0
 10
6.8092798248
 20
3.7996181826
 30
0.0
 11
6.8792798248
 21
3.7996181826
 31
0.0
 11
6.8766156084
 21
3.7862242625
 31
0.0
 11
6.8690285621
 21
3.7748694453
 31
0.0
 11
6.8576737449
 21
3.767282399
 31
0.0
 11
6.8442798248
 21
3.7646181826
 31
0.0
 11
6.8308859046
 21
3.767282399
 31
0.0
 11
6.8195310874
 21
3.7748694453
 31
0.0
 11
6.8119440411
 21
3.7862242625
 31
0.0
 11
6.8092798248
 21
3.7996181826
 31
0.0
  0
SPLINE
  5
505
100
AcDbEntity
  8
0
100
AcDbSpline
 62
7
  6
CONTINUOUS
 70
0
 71
3
 72
15
 73
11
 74
9
 42
0.0000001
 43
0.0000001
 44
0.0000000001
 12
0.0
 22
0.1099409465
 32
0.0
 13
0.0
 23
-0.1099409465
 33
0.0
 40
0.0
 40
0.0
 40
0.0
 40
0.0
 40
0.125
 40
0.25
 40
0.375
 40
0.5
 40
0.625
 40
0.75
 40
0.875
 40
1.0
 40
1.0
 40
1.0
 40
1.0
 10
5.7872798248
 20
4.5266181826
 30
0.0
 10
5.7872798248
 20
4.5311990554
 30
0.0
 10
5.7854574403
 20
4.5403608009
 30
0.0
 10
5.7776728723
 20
4.5520112302
 30
0.0
 10
5.7660224431
 20
4.5597957981
 30
0.0
 10
5.7522798248
 20
4.5625293748
 30
0.0
 10
5.7385372064
 20
4.5597957981
 30
0.0
 10
5.7268867772
 20
4.5520112302
 30
0.0
 10
5.7191022092
 20
4.5403608009
 30
0.0
 10
5.7172798248
 20
4.5311990554
 30
0.0
 10
5.7172798248
 20
4.5266181826
 30
0.0
 11
5.7872798248
 21
4.5266181826
 31
0.0
 11
5.7846156084
 21
4.5400121027
 31
0.0
 11
5.7770285621
 21
4.5513669199
 31
0.0
 11
5.7656737449
 21
4.5589539662
 31
0.0
 11
5.7522798248
 21
4.5616181826
 31
0.0
 11
5.7388859046
 21
4.5589539662
 31
0.0
 11
5.7275310874
 21
4.5513669199
 31
0.0
 11
5.7199440411
 21
4.5400121027
 31
0.0
 11
5.7172798248
 21
4.5266181826
 31
0.0
  0
SPLINE
  5
506
100
AcDbEntity
  8
0
100
AcDbSpline
 62
7
  6
CONTINUOUS
 70
0
 71
3
 72
15
 73
11
 74
9
 42
0.0000001
 43
0.0000001
 44
0.0000000001
 12
0.0
 22
-0.1099409465
 32
0.0
 13
0.0
 23
0.1099409465
 33
0.0
 40
0.0
 40
0.0
 40
0.0
 40
0.0
 40
0.125
 40
0.25
 40
0.375
 40
0.5
 40
0.625
 40
0.75
 40
0.875
 40
1.0
 40
1.0
 40
1.0
 40
1.0
 10
5.7872798248
 20
3.7086181826
 30
0.0
 10
5.7872798248
 20
3.7040373098
 30
0.0
 10
5.7854574403
 20
3.6948755643
 30
0.0
 10
5.7776728723
 20
3.683225135
 30
0.0
 10
5.7660224431
 20
3.6754405671
 30
0.0
 10
5.7522798248
 20
3.6727069903
 30
0.0
 10
5.7385372064
 20
3.6754405671
 30
0.0
 10
5.7268867772
 20
3.683225135
 30
0.0
 10
5.7191022092
 20
3.6948755643
 30
0.0
 10
5.7172798248
 20
3.7040373098
 30
0.0
 10
5.7172798248
 20
3.7086181826
 30
0.0
 11
5.7872798248
 21
3.7086181826
 31
0.0
 11
5.7846156084
 21
3.6952242625
 31
0.0
 11
5.7770285621
 21
3.6838694453
 31
0.0
 11
5.7656737449
 21
3.676282399
 31
0.0
 11
5.7522798248
 21
3.6736181826
 31
0.0
 11
5.7388859046
 21
3.676282399
 31
0.0
 11
5.7275310874
 21
3.6838694453
 31
0.0
 11
5.7199440411
 21
3.6952242625
 31
0.0
 11
5.7172798248
 21
3.7086181826
 31
0.0
  0
SPLINE
  5
507
100
AcDbEntity
  8
0
100
AcDbSpline
 62
7
  6
CONTINUOUS
 70
0
 71
3
 72
15
 73
11
 74
9
 42
0.0000001
 43
0.0000001
 44
0.0000000001
 12
0.0
 22
0.1099409465
 32
0.0
 13
0.0
 23
-0.1099409465
 33
0.0
 40
0.0
 40
0.0
 40
0.0
 40
0.0
 40
0.125
 40
0.25
 40
0.375
 40
0.5
 40
0.625
 40
0.75
 40
0.875
 40
1.0
 40
1.0
 40
1.0
 40
1.0
 10
5.1962798248
 20
4.5266181826
 30
0.0
 10
5.1962798248
 20
4.5311990554
 30
0.0
 10
5.1944574403
 20
4.5403608009
 30
0.0
 10
5.1866728723
 20
4.5520112302
 30
0.0
 10
5.1750224431
 20
4.5597957981
 30
0.0
 10
5.1612798248
 20
4.5625293748
 30
0.0
 10
5.1475372064
 20
4.5597957981
 30
0.0
 10
5.1358867772
 20
4.5520112302
 30
0.0
 10
5.1281022092
 20
4.5403608009
 30
0.0
 10
5.1262798248
 20
4.5311990554
 30
0.0
 10
5.1262798248
 20
4.5266181826
 30
0.0
 11
5.1962798248
 21
4.5266181826
 31
0.0
 11
5.1936156084
 21
4.5400121027
 31
0.0
 11
5.1860285621
 21
4.5513669199
 31
0.0
 11
5.1746737449
 21
4.5589539662
 31
0.0
 11
5.1612798248
 21
4.5616181826
 31
0.0
 11
5.1478859046
 21
4.5589539662
 31
0.0
 11
5.1365310874
 21
4.5513669199
 31
0.0
 11
5.1289440411
 21
4.5400121027
 31
0.0
 11
5.1262798248
 21
4.5266181826
 31
0.0
  0
SPLINE
  5
508
100
AcDbEntity
  8
0
100
AcDbSpline
 62
7
  6
CONTINUOUS
 70
0
 71
3
 72
15
 73
11
 74
9
 42
0.0000001
 43
0.0000001
 44
0.0000000001
 12
0.0
 22
-0.1099409465
 32
0.0
 13
0.0
 23
0.1099409465
 33
0.0
 40
0.0
 40
0.0
 40
0.0
 40
0.0
 40
0.125
 40
0.25
 40
0.375
 40
0.5
 40
0.625
 40
0.75
 40
0.875
 40
1.0
 40
1.0
 40
1.0
 40
1.0
 10
5.1962798248
 20
3.7086181826
 30
0.0
 10
5.1962798248
 20
3.7040373098
 30
0.0
 10
5.1944574403
 20
3.6948755643
 30
0.0
 10
5.1866728723
 20
3.683225135
 30
0.0
 10
5.1750224431
 20
3.6754405671
 30
0.0
 10
5.1612798248
 20
3.6727069903
 30
0.0
 10
5.1475372064
 20
3.6754405671
 30
0.0
 10
5.1358867772
 20
3.683225135
 30
0.0
 10
5.1281022092
 20
3.6948755643
 30
0.0
 10
5.1262798248
 20
3.7040373098
 30
0.0
 10
5.1262798248
 20
3.7086181826
 30
0.0
 11
5.1962798248
 21
3.7086181826
 31
0.0
 11
5.1936156084
 21
3.6952242625
 31
0.0
 11
5.1860285621
 21
3.6838694453
 31
0.0
 11
5.1746737449
 21
3.676282399
 31
0.0
 11
5.1612798248
 21
3.6736181826
 31
0.0
 11
5.1478859046
 21
3.676282399
 31
0.0
 11
5.1365310874
 21
3.6838694453
 31
0.0
 11
5.1289440411
 21
3.6952242625
 31
0.0
 11
5.1262798248
 21
3.7086181826
 31
0.0
  0
SPLINE
  5
509
100
AcDbEntity
  8
0
100
AcDbSpline
 62
7
  6
CONTINUOUS
 70
0
 71
3
 72
16
 73
12
 74
10
 42
0.0000001
 43
0.0000001
 44
0.0000000001
 12
0.0906480335
 22
0.2719441006
 32
0.0
 13
-0.0906480335
 23
0.2719441006
 33
0.0
 40
0.0
 40
0.0
 40
0.0
 40
0.0
 40
0.1184548733
 40
0.230565332
 40
0.3393089466
 40
0.4465959239
 40
0.5535015371
 40
0.6607803311
 40
0.769505023
 40
0.8815660643
 40
1.0
 40
1.0
 40
1.0
 40
1.0
 10
3.9214084144
 20
3.8366181826
 30
0.0
 10
3.9249876481
 20
3.8473558839
 30
0.0
 10
3.9314187348
 20
3.8684419308
 30
0.0
 10
3.9389381645
 20
3.9000029856
 30
0.0
 10
3.9440263919
 20
3.9309718037
 30
0.0
 10
3.9466132541
 20
3.9617548733
 30
0.0
 10
3.9466120658
 20
3.9925086743
 30
0.0
 10
3.9440232252
 20
4.0232889657
 30
0.0
 10
3.9389344905
 20
4.0542502675
 30
0.0
 10
3.9314162337
 20
4.0858027991
 30
0.0
 10
3.9249870155
 20
4.1068823792
 30
0.0
 10
3.9214084144
 20
4.1176181826
 30
0.0
 11
3.9214084144
 21
3.8366181826
 31
0.0
 11
3.931246884
 21
3.8691172105
 31
0.0
 11
3.9386340545
 21
3.9003936009
 31
0.0
 11
3.9436386719
 21
3.9311610534
 31
0.0
 11
3.9461856372
 21
3.9618096746
 31
0.0
 11
3.946184467
 21
3.9924546231
 31
0.0
 11
3.9436355269
 21
4.0231007262
 31
0.0
 11
3.9386300879
 21
4.0538625494
 31
0.0
 11
3.9312453164
 21
4.085124951
 31
0.0
 11
3.9214084144
 21
4.1176181826
 31
0.0
  0
SPLINE
  5
50A
100
AcDbEntity
  8
0
100
AcDbSpline
 62
7
  6
CONTINUOUS
 70
0
 71
3
 72
17
 73
13
 74
11
 42
0.0000001
 43
0.0000001
 44
0.0000000001
 12
-0.1487434696
 22
0.2576312467
 32
0.0
 13
0.1487434696
 23
0.2576312467
 33
0.0
 40
0.0
 40
0.0
 40
0.0
 40
0.0
 40
0.1169386465
 40
0.2216811606
 40
0.3184580982
 40
0.4103908543
 40
0.5000417254
 40
0.5896883004
 40
0.6816074548
 40
0.7783545182
 40
0.8830694657
 40
1.0
 40
1.0
 40
1.0
 40
1.0
 10
3.819750676
 20
3.8366181826
 30
0.0
 10
3.8139527227
 20
3.8466605324
 30
0.0
 10
3.8036128951
 20
3.8660903798
 30
0.0
 10
3.7912392717
 20
3.8951924574
 30
0.0
 10
3.782585825
 20
3.9230340201
 30
0.0
 10
3.7774287204
 20
3.9502173397
 30
0.0
 10
3.77571184
 20
3.9771302246
 30
0.0
 10
3.7774317256
 20
4.0040415494
 30
0.0
 10
3.7825904773
 20
4.03121969
 30
0.0
 10
3.7912433291
 20
4.059053996
 30
0.0
 10
3.8036149165
 20
4.0881498357
 30
0.0
 10
3.8139531249
 20
4.1075765295
 30
0.0
 10
3.819750676
 20
4.1176181826
 30
0.0
 11
3.819750676
 21
3.8366181826
 31
0.0
 11
3.8035244446
 21
3.8673898396
 31
0.0
 11
3.7914396881
 21
3.8961104762
 31
0.0
 11
3.7829870148
 21
3.9236315448
 31
0.0
 11
3.7779541295
 21
3.95051326
 31
0.0
 11
3.7762798251
 21
3.9771306161
 31
0.0
 11
3.7779570674
 21
4.0037465066
 31
0.0
 11
3.7829917141
 21
4.0306237753
 31
0.0
 11
3.7914433291
 21
4.0581358719
 31
0.0
 11
3.8035254803
 21
4.0868487076
 31
0.0
 11
3.819750676
 21
4.1176181826
 31
0.0
  0
SPLINE
  5
50B
100
AcDbEntity
  8
0
100
AcDbSpline
 62
7
  6
CONTINUOUS
 70
0
 71
3
 72
16
 73
12
 74
10
 42
0.0000001
 43
0.0000001
 44
0.0000000001
 12
0.0906480335
 22
0.2719441006
 32
0.0
 13
-0.0906480335
 23
0.2719441006
 33
0.0
 40
0.0
 40
0.0
 40
0.0
 40
0.0
 40
0.1184548733
 40
0.230565332
 40
0.3393089466
 40
0.4465959239
 40
0.5535015371
 40
0.6607803311
 40
0.769505023
 40
0.8815660643
 40
1.0
 40
1.0
 40
1.0
 40
1.0
 10
3.9214084144
 20
4.1176181826
 30
0.0
 10
3.9249876481
 20
4.1283558839
 30
0.0
 10
3.9314187348
 20
4.1494419308
 30
0.0
 10
3.9389381645
 20
4.1810029856
 30
0.0
 10
3.9440263919
 20
4.2119718037
 30
0.0
 10
3.9466132541
 20
4.2427548733
 30
0.0
 10
3.9466120658
 20
4.2735086743
 30
0.0
 10
3.9440232252
 20
4.3042889657
 30
0.0
 10
3.9389344905
 20
4.3352502675
 30
0.0
 10
3.9314162337
 20
4.3668027991
 30
0.0
 10
3.9249870155
 20
4.3878823792
 30
0.0
 10
3.9214084144
 20
4.3986181826
 30
0.0
 11
3.9214084144
 21
4.1176181826
 31
0.0
 11
3.931246884
 21
4.1501172105
 31
0.0
 11
3.9386340545
 21
4.1813936009
 31
0.0
 11
3.9436386719
 21
4.2121610534
 31
0.0
 11
3.9461856372
 21
4.2428096746
 31
0.0
 11
3.946184467
 21
4.2734546231
 31
0.0
 11
3.9436355269
 21
4.3041007262
 31
0.0
 11
3.9386300879
 21
4.3348625494
 31
0.0
 11
3.9312453164
 21
4.366124951
 31
0.0
 11
3.9214084144
 21
4.3986181826
 31
0.0
  0
SPLINE
  5
50C
100
AcDbEntity
  8
0
100
AcDbSpline
 62
7
  6
CONTINUOUS
 70
0
 71
3
 72
17
 73
13
 74
11
 42
0.0000001
 43
0.0000001
 44
0.0000000001
 12
-0.1487434696
 22
0.2576312467
 32
0.0
 13
0.1487434696
 23
0.2576312467
 33
0.0
 40
0.0
 40
0.0
 40
0.0
 40
0.0
 40
0.1169386465
 40
0.2216811606
 40
0.3184580982
 40
0.4103908543
 40
0.5000417254
 40
0.5896883004
 40
0.6816074548
 40
0.7783545182
 40
0.8830694657
 40
1.0
 40
1.0
 40
1.0
 40
1.0
 10
3.819750676
 20
4.1176181826
 30
0.0
 10
3.8139527227
 20
4.1276605324
 30
0.0
 10
3.8036128951
 20
4.1470903798
 30
0.0
 10
3.7912392717
 20
4.1761924574
 30
0.0
 10
3.782585825
 20
4.2040340201
 30
0.0
 10
3.7774287204
 20
4.2312173397
 30
0.0
 10
3.77571184
 20
4.2581302246
 30
0.0
 10
3.7774317256
 20
4.2850415494
 30
0.0
 10
3.7825904773
 20
4.31221969
 30
0.0
 10
3.7912433291
 20
4.340053996
 30
0.0
 10
3.8036149165
 20
4.3691498357
 30
0.0
 10
3.8139531249
 20
4.3885765295
 30
0.0
 10
3.819750676
 20
4.3986181826
 30
0.0
 11
3.819750676
 21
4.1176181826
 31
0.0
 11
3.8035244446
 21
4.1483898396
 31
0.0
 11
3.7914396881
 21
4.1771104762
 31
0.0
 11
3.7829870148
 21
4.2046315448
 31
0.0
 11
3.7779541295
 21
4.23151326
 31
0.0
 11
3.7762798251
 21
4.2581306161
 31
0.0
 11
3.7779570674
 21
4.2847465066
 31
0.0
 11
3.7829917141
 21
4.3116237753
 31
0.0
 11
3.7914433291
 21
4.3391358719
 31
0.0
 11
3.8035254803
 21
4.3678487076
 31
0.0
 11
3.819750676
 21
4.3986181826
 31
0.0
  0
SPLINE
  5
50D
100
AcDbEntity
  8
0
100
AcDbSpline
 62
7
  6
CONTINUOUS
 70
0
 71
3
 72
11
 73
7
 74
5
 42
0.0000001
 43
0.0000001
 44
0.0000000001
 12
0.0330669035
 22
0.0
 32
0.0
 13
0.0254948791
 23
0.0211602433
 33
0.0
 40
0.0
 40
0.0
 40
0.0
 40
0.0
 40
0.313921512
 40
0.6310867664
 40
0.9509686752
 40
1.0
 40
1.0
 40
1.0
 40
1.0
 10
6.4812798248
 20
4.1591220443
 30
0.0
 10
6.4847399622
 20
4.1591220443
 30
0.0
 10
6.4917203806
 20
4.1599052254
 30
0.0
 10
6.5016992193
 20
4.1633694966
 30
0.0
 10
6.5081891967
 20
4.1673665036
 30
0.0
 10
6.5113674837
 20
4.1699167005
 30
0.0
 10
6.5117841662
 20
4.1702625388
 30
0.0
 11
6.4812798248
 21
4.1591220443
 31
0.0
 11
6.4915958675
 21
4.1602762635
 31
0.0
 11
6.5015074665
 21
4.1637043077
 31
0.0
 11
6.5105171458
 21
4.1692459027
 31
0.0
 11
6.5117841662
 21
4.1702625388
 31
0.0
  0
SPLINE
  5
50E
100
AcDbEntity
  8
0
100
AcDbSpline
 62
7
  6
CONTINUOUS
 70
0
 71
3
 72
9
 73
5
 74
3
 42
0.0000001
 43
0.0000001
 44
0.0000000001
 12
-0.0140839725
 22
0.0
 32
0.0
 13
-0.0134785872
 23
0.0041825531
 33
0.0
 40
0.0
 40
0.0
 40
0.0
 40
0.0
 40
0.7370200536
 40
1.0
 40
1.0
 40
1.0
 40
1.0
 10
6.4812798248
 20
4.1591220443
 30
0.0
 10
6.477819768
 20
4.1591220443
 30
0.0
 10
6.4731086505
 20
4.1596506044
 30
0.0
 10
6.4685606922
 20
4.1608696057
 30
0.0
 10
6.4673791595
 20
4.1612362482
 30
0.0
 11
6.4812798248
 21
4.1591220443
 31
0.0
 11
6.4709640197
 21
4.1602762098
 31
0.0
 11
6.4673791595
 21
4.1612362482
 31
0.0
  0
SPLINE
  5
50F
100
AcDbEntity
  8
0
100
AcDbSpline
 62
7
  6
CONTINUOUS
 70
0
 71
3
 72
9
 73
5
 74
3
 42
0.0000001
 43
0.0000001
 44
0.0000000001
 12
0.0141416381
 22
-0.0003361421
 32
0.0
 13
0.0140621543
 23
-0.0015317108
 33
0.0
 40
0.0
 40
0.0
 40
0.0
 40
0.0
 40
0.4588062672
 40
1.0
 40
1.0
 40
1.0
 40
1.0
 10
6.4851875083
 20
3.9531575972
 30
0.0
 10
6.4873502657
 20
3.9531061891
 30
0.0
 10
6.4920619438
 20
3.9529013488
 30
0.0
 10
6.4967608595
 20
3.9524960422
 30
0.0
 10
6.4992976428
 20
3.9522197247
 30
0.0
 11
6.4851875083
 21
3.9531575972
 31
0.0
 11
6.4916710741
 21
3.9528760263
 31
0.0
 11
6.4992976428
 21
3.9522197247
 31
0.0
  0
SPLINE
  5
510
100
AcDbEntity
  8
0
100
AcDbSpline
 62
7
  6
CONTINUOUS
 70
0
 71
3
 72
9
 73
5
 74
3
 42
0.0000001
 43
0.0000001
 44
0.0000000001
 12
0.0135029646
 22
0.0041988877
 32
0.0
 13
0.014112072
 23
0.0
 33
0.0
 40
0.0
 40
0.0
 40
0.0
 40
0.0
 40
0.2644300329
 40
1.0
 40
1.0
 40
1.0
 40
1.0
 10
6.467352269
 20
4.0739917639
 30
0.0
 10
6.4685424655
 20
4.0743618679
 30
0.0
 10
6.4730991682
 20
4.0755846933
 30
0.0
 10
6.477819686
 20
4.0761143209
 30
0.0
 10
6.4812798248
 20
4.0761143209
 30
0.0
 11
6.467352269
 21
4.0739917639
 31
0.0
 11
6.4709637781
 21
4.0749601008
 31
0.0
 11
6.4812798248
 21
4.0761143209
 31
0.0
  0
SPLINE
  5
511
100
AcDbEntity
  8
0
100
AcDbSpline
 62
7
  6
CONTINUOUS
 70
0
 71
3
 72
11
 73
7
 74
5
 42
0.0000001
 43
0.0000001
 44
0.0000000001
 12
-0.0255079148
 22
0.0212050985
 32
0.0
 13
-0.0331055389
 23
0.0
 33
0.0
 40
0.0
 40
0.0
 40
0.0
 40
0.0
 40
0.0501491494
 40
0.3696595262
 40
0.6864520222
 40
1.0
 40
1.0
 40
1.0
 40
1.0
 10
6.5118139439
 20
4.0649490917
 30
0.0
 10
6.5113875438
 20
4.0653035642
 30
0.0
 10
6.5082000888
 20
4.0678631712
 30
0.0
 10
6.5016989659
 20
4.0718669882
 30
0.0
 10
6.4917201917
 20
4.0753311703
 30
0.0
 10
6.484739883
 20
4.0761143209
 30
0.0
 10
6.4812798248
 20
4.0761143209
 30
0.0
 11
6.5118139439
 21
4.0649490917
 31
0.0
 11
6.510516935
 21
4.065990626
 31
0.0
 11
6.5015071719
 21
4.0715321971
 31
0.0
 11
6.4915956344
 21
4.0749601544
 31
0.0
 11
6.4812798248
 21
4.0761143209
 31
0.0
  0
SPLINE
  5
512
100
AcDbEntity
  8
0
100
AcDbSpline
 62
7
  6
CONTINUOUS
 70
0
 71
3
 72
9
 73
5
 74
3
 42
0.0000001
 43
0.0000001
 44
0.0000000001
 12
-0.0140217366
 22
-0.0015273082
 32
0.0
 13
-0.014100909
 23
-0.0003386533
 33
0.0
 40
0.0
 40
0.0
 40
0.0
 40
0.0
 40
0.5430782541
 40
1.0
 40
1.0
 40
1.0
 40
1.0
 10
6.499297648
 20
4.2830166413
 30
0.0
 10
6.496759348
 20
4.2827401587
 30
0.0
 10
6.4920739301
 20
4.282336079
 30
0.0
 10
6.4873758284
 20
4.2821313191
 30
0.0
 10
6.4852281578
 20
4.2820797397
 30
0.0
 11
6.499297648
 21
4.2830166413
 31
0.0
 11
6.49166651
 21
4.2823600511
 31
0.0
 11
6.4852281578
 21
4.2820797397
 31
0.0
  0
SPLINE
  5
513
100
AcDbEntity
  8
0
100
AcDbSpline
 62
7
  6
CONTINUOUS
 70
0
 71
3
 72
14
 73
10
 74
8
 42
0.0000001
 43
0.0000001
 44
0.0000000001
 12
-0.075648279
 22
0.0
 32
0.0
 13
-0.0000228316
 23
-0.0760270318
 33
0.0
 40
0.0
 40
0.0
 40
0.0
 40
0.0
 40
0.1720736546
 40
0.3422590642
 40
0.5074496802
 40
0.6635901226
 40
0.807277256
 40
0.9382084408
 40
1.0
 40
1.0
 40
1.0
 40
1.0
 10
6.4992798248
 20
3.9615918879
 30
0.0
 10
6.4949407995
 20
3.9615918879
 30
0.0
 10
6.4862845866
 20
3.9607140996
 30
0.0
 10
6.4739955591
 20
3.9568524082
 30
0.0
 10
6.4631036508
 20
3.9507453831
 30
0.0
 10
6.4542709317
 20
3.9428830519
 30
0.0
 10
6.4480135729
 20
3.9338630615
 30
0.0
 10
6.4452002014
 20
3.9257273733
 30
0.0
 10
6.4447829378
 20
3.9208406657
 30
0.0
 10
6.4447824675
 20
3.9192747228
 30
0.0
 11
6.4992798248
 21
3.9615918879
 31
0.0
 11
6.4863297585
 21
3.9602727796
 31
0.0
 11
6.4740522787
 21
3.9563985861
 31
0.0
 11
6.4631719159
 21
3.9502522568
 31
0.0
 11
6.454397694
 21
3.9423446274
 31
0.0
 11
6.4482916467
 21
3.9333520624
 31
0.0
 11
6.4451732979
 21
3.9239510329
 31
0.0
 11
6.4447824675
 21
3.9192747228
 31
0.0
  0
SPLINE
  5
514
100
AcDbEntity
  8
0
100
AcDbSpline
 62
7
  6
CONTINUOUS
 70
0
 71
3
 72
14
 73
10
 74
8
 42
0.0000001
 43
0.0000001
 44
0.0000000001
 12
0.075648294
 22
0.0
 32
0.0
 13
0.0000227838
 23
0.0760270586
 33
0.0
 40
0.0
 40
0.0
 40
0.0
 40
0.0
 40
0.1720713768
 40
0.3422520342
 40
0.5074445355
 40
0.6635831467
 40
0.8072729796
 40
0.9382080426
 40
1.0
 40
1.0
 40
1.0
 40
1.0
 10
6.4992798248
 20
4.2736444773
 30
0.0
 10
6.5036187935
 20
4.2736444773
 30
0.0
 10
6.51227483
 20
4.2745222364
 30
0.0
 10
6.5245637507
 20
4.2783838197
 30
0.0
 10
6.5354556068
 20
4.2844907049
 30
0.0
 10
6.5442884429
 20
4.2923530065
 30
0.0
 10
6.5505459627
 20
4.3013730376
 30
0.0
 10
6.5533594399
 20
4.3095088874
 30
0.0
 10
6.5537767124
 20
4.3143957056
 30
0.0
 10
6.5537771817
 20
4.3159616592
 30
0.0
 11
6.4992798248
 21
4.2736444773
 31
0.0
 11
6.5122297239
 21
4.2749635511
 31
0.0
 11
6.524506885
 21
4.2788375684
 31
0.0
 11
6.5353874218
 21
4.2849838847
 31
0.0
 11
6.5441616119
 21
4.292891346
 31
0.0
 11
6.5502678627
 21
4.3018840223
 31
0.0
 11
6.5533863491
 21
4.3112853173
 31
0.0
 11
6.5537771817
 21
4.3159616592
 31
0.0
  0
SPLINE
  5
515
100
AcDbEntity
  8
0
100
AcDbSpline
 62
7
  6
CONTINUOUS
 70
0
 71
3
 72
14
 73
10
 74
8
 42
0.0000001
 43
0.0000001
 44
0.0000000001
 12
0.0000225814
 22
-0.0760270846
 32
0.0
 13
0.0756481837
 23
0.0
 33
0.0
 40
0.0
 40
0.0
 40
0.0
 40
0.0
 40
0.0616285058
 40
0.192517326
 40
0.3361600546
 40
0.4922659727
 40
0.6574916324
 40
0.8277239131
 40
1.0
 40
1.0
 40
1.0
 40
1.0
 10
6.4447824729
 20
4.315961581
 30
0.0
 10
6.4447829368
 20
4.3143997691
 30
0.0
 10
6.4451986283
 20
4.3095182865
 30
0.0
 10
6.4480064857
 20
4.3013874573
 30
0.0
 10
6.4542584548
 20
4.2923674875
 30
0.0
 10
6.4630872986
 20
4.2845024958
 30
0.0
 10
6.4739782395
 20
4.2783911576
 30
0.0
 10
6.4862731175
 20
4.2745239517
 30
0.0
 10
6.4949357004
 20
4.2736444773
 30
0.0
 10
6.4992798248
 20
4.2736444773
 30
0.0
 11
6.4447824729
 21
4.315961581
 31
0.0
 11
6.4451712668
 21
4.3112975124
 31
0.0
 11
6.4482846892
 21
4.3018982394
 31
0.0
 11
6.4543851989
 21
4.2929059923
 31
0.0
 11
6.4631543802
 21
4.2849966945
 31
0.0
 11
6.4740349157
 21
4.2788453147
 31
0.0
 11
6.4863146987
 21
4.2749666931
 31
0.0
 11
6.4992798248
 21
4.2736444773
 31
0.0
  0
SPLINE
  5
516
100
AcDbEntity
  8
0
100
AcDbSpline
 62
7
  6
CONTINUOUS
 70
0
 71
3
 72
10
 73
6
 74
4
 42
0.0000001
 43
0.0000001
 44
0.0000000001
 12
-0.0257667379
 22
0.0074791121
 32
0.0
 13
-0.0268054704
 23
0.0
 33
0.0
 40
0.0
 40
0.0
 40
0.0
 40
0.0
 40
0.156626761
 40
0.572365587
 40
1.0
 40
1.0
 40
1.0
 40
1.0
 10
6.5257863507
 20
4.2797093873
 30
0.0
 10
6.5244410971
 20
4.2800998637
 30
0.0
 10
6.5194828802
 20
4.2813828241
 30
0.0
 10
6.5106428152
 20
4.2828126851
 30
0.0
 10
6.5031008053
 20
4.2831984329
 30
0.0
 10
6.4992798248
 20
4.2831984329
 30
0.0
 11
6.5257863507
 21
4.2797093873
 31
0.0
 11
6.5217198807
 21
4.2807672355
 31
0.0
 11
6.510726945
 21
4.2825963797
 31
0.0
 11
6.4992798248
 21
4.2831984329
 31
0.0
  0
SPLINE
  5
517
100
AcDbEntity
  8
0
100
AcDbSpline
 62
7
  6
CONTINUOUS
 70
0
 71
3
 72
10
 73
6
 74
4
 42
0.0000001
 43
0.0000001
 44
0.0000000001
 12
0.0257666576
 22
-0.0074794343
 32
0.0
 13
0.0268058097
 23
0.0
 33
0.0
 40
0.0
 40
0.0
 40
0.0
 40
0.0
 40
0.1590798459
 40
0.5736230488
 40
1.0
 40
1.0
 40
1.0
 40
1.0
 10
6.4727730715
 20
3.9555270464
 30
0.0
 10
6.4741393901
 20
3.9551304373
 30
0.0
 10
6.4791091525
 20
3.9538468698
 30
0.0
 10
6.4879499032
 20
3.9524214634
 30
0.0
 10
6.4954700316
 20
3.9520379323
 30
0.0
 10
6.4992798248
 20
3.9520379323
 30
0.0
 11
6.4727730715
 21
3.9555270464
 31
0.0
 11
6.4769036719
 21
3.9544543409
 31
0.0
 11
6.4878661255
 21
3.9526364168
 31
0.0
 11
6.4992798248
 21
3.9520379323
 31
0.0
  0
SPLINE
  5
518
100
AcDbEntity
  8
0
100
AcDbSpline
 62
7
  6
CONTINUOUS
 70
0
 71
3
 72
14
 73
10
 74
8
 42
0.0000001
 43
0.0000001
 44
0.0000000001
 12
-0.0000226675
 22
0.0760271142
 32
0.0
 13
-0.0756483307
 23
0.0
 33
0.0
 40
0.0
 40
0.0
 40
0.0
 40
0.0
 40
0.0617919938
 40
0.1927360873
 40
0.3364320809
 40
0.4925632963
 40
0.6577569858
 40
0.8279330676
 40
1.0
 40
1.0
 40
1.0
 40
1.0
 10
6.5537771812
 20
3.9192746655
 30
0.0
 10
6.5537767143
 20
3.9208406212
 30
0.0
 10
6.5533594291
 20
3.9257276738
 30
0.0
 10
6.5505457311
 20
3.9338638824
 30
0.0
 10
6.5442878988
 20
3.942883951
 30
0.0
 10
6.5354549465
 20
3.9507461067
 30
0.0
 10
6.524563257
 20
3.9568527477
 30
0.0
 10
6.5122744951
 20
3.9607141739
 30
0.0
 10
6.5036186835
 20
3.9615918879
 30
0.0
 10
6.4992798248
 20
3.9615918879
 30
0.0
 11
6.5537771812
 21
3.9192746655
 31
0.0
 11
6.5533863547
 21
3.9239510143
 31
0.0
 11
6.5502675673
 21
3.9333529343
 31
0.0
 11
6.5441608635
 21
3.9423458726
 31
0.0
 11
6.5353869529
 21
3.9502528169
 31
0.0
 11
6.5245062672
 21
3.9563990648
 31
0.0
 11
6.5122293992
 21
3.960272881
 31
0.0
 11
6.4992798248
 21
3.9615918879
 31
0.0
  0
SPLINE
  5
519
100
AcDbEntity
  8
0
100
AcDbSpline
 62
7
  6
CONTINUOUS
 70
0
 71
3
 72
22
 73
18
 74
16
 42
0.0000001
 43
0.0000001
 44
0.0000000001
 12
0.1076738063
 22
0.0209205982
 32
0.0
 13
0.1076738059
 23
-0.0209205982
 33
0.0
 40
0.0
 40
0.0
 40
0.0
 40
0.0
 40
0.011037499
 40
0.0436817667
 40
0.0963652632
 40
0.1663224214
 40
0.2509281723
 40
0.3459067653
 40
0.4481169881
 40
0.5520695324
 40
0.6542454662
 40
0.7492162974
 40
0.8337543649
 40
0.903704192
 40
0.9563416595
 40
0.9889762704
 40
1.0
 40
1.0
 40
1.0
 40
1.0
 10
6.4447798248
 20
3.8371181826
 30
0.0
 10
6.4451759746
 20
3.837195153
 30
0.0
 10
6.4467443694
 20
3.8374966896
 30
0.0
 10
6.4502095267
 20
3.8381348699
 30
0.0
 10
6.4558088059
 20
3.8390768077
 30
0.0
 10
6.4633086957
 20
3.8401641934
 30
0.0
 10
6.4723741734
 20
3.8412087854
 30
0.0
 10
6.4826467501
 20
3.8420316822
 30
0.0
 10
6.4936509943
 20
3.8424835557
 30
0.0
 10
6.5049278641
 20
3.8424831358
 30
0.0
 10
6.5159305387
 20
3.8420305857
 30
0.0
 10
6.5261990674
 20
3.8412074132
 30
0.0
 10
6.5352614906
 20
3.840162785
 30
0.0
 10
6.5427569705
 20
3.8390758293
 30
0.0
 10
6.5483539607
 20
3.8381341792
 30
0.0
 10
6.5518166162
 20
3.8374964357
 30
0.0
 10
6.5533841691
 20
3.8371950569
 30
0.0
 10
6.5537798248
 20
3.8371181826
 30
0.0
 11
6.4447798248
 21
3.8371181826
 31
0.0
 11
6.4459687272
 21
3.837346755
 31
0.0
 11
6.4494901876
 21
3.8379952079
 31
0.0
 11
6.4551888965
 21
3.8389534917
 31
0.0
 11
6.4627830296
 21
3.8400537467
 31
0.0
 11
6.4720023494
 21
3.8411149084
 31
0.0
 11
6.4823871374
 21
3.841945618
 31
0.0
 11
6.493588908
 21
3.8424048353
 31
0.0
 11
6.5049911984
 21
3.8424044115
 31
0.0
 11
6.5161891802
 21
3.8419445961
 31
0.0
 11
6.5265730714
 21
3.8411133521
 31
0.0
 11
6.5357849708
 21
3.8400526485
 31
0.0
 11
6.543378278
 21
3.838952301
 31
0.0
 11
6.5490719917
 21
3.8379947575
 31
0.0
 11
6.552592406
 21
3.8373464728
 31
0.0
 11
6.5537798248
 21
3.8371181826
 31
0.0
  0
SPLINE
  5
51A
100
AcDbEntity
  8
0
100
AcDbSpline
 62
7
  6
CONTINUOUS
 70
0
 71
3
 72
10
 73
6
 74
4
 42
0.0000001
 43
0.0000001
 44
0.0000000001
 12
-0.026821386
 22
0.0
 32
0.0
 13
-0.0257751477
 23
-0.0074908782
 33
0.0
 40
0.0
 40
0.0
 40
0.0
 40
0.0
 40
0.4077299132
 40
0.8054929367
 40
1.0
 40
1.0
 40
1.0
 40
1.0
 10
6.4992798248
 20
4.2831984329
 30
0.0
 10
6.495634531
 20
4.2831984329
 30
0.0
 10
6.4884275903
 20
4.2828463584
 30
0.0
 10
6.4795735322
 20
4.2814845458
 30
0.0
 10
6.4744306839
 20
4.2801909481
 30
0.0
 10
6.4727595344
 20
4.2797052719
 30
0.0
 11
6.4992798248
 21
4.2831984329
 31
0.0
 11
6.4883576462
 21
4.2826511512
 31
0.0
 11
6.4778195121
 21
4.2809880792
 31
0.0
 11
6.4727595344
 21
4.2797052719
 31
0.0
  0
SPLINE
  5
51B
100
AcDbEntity
  8
0
100
AcDbSpline
 62
7
  6
CONTINUOUS
 70
0
 71
3
 72
10
 73
6
 74
4
 42
0.0000001
 43
0.0000001
 44
0.0000000001
 12
0.0268057419
 22
0.0
 32
0.0
 13
0.0257685183
 23
0.0074788581
 33
0.0
 40
0.0
 40
0.0
 40
0.0
 40
0.0
 40
0.433254572
 40
0.8541699427
 40
1.0
 40
1.0
 40
1.0
 40
1.0
 10
6.4992798248
 20
3.9520379323
 30
0.0
 10
6.5031510615
 20
3.9520379323
 30
0.0
 10
6.5107898794
 20
3.9524336375
 30
0.0
 10
6.5196274631
 20
3.9538834439
 30
0.0
 10
6.5245344197
 20
3.9551636337
 30
0.0
 10
6.5257870278
 20
3.9555271812
 30
0.0
 11
6.4992798248
 21
3.9520379323
 31
0.0
 11
6.5108770687
 21
3.9526561533
 31
0.0
 11
6.5220024543
 21
3.954535177
 31
0.0
 11
6.5257870278
 21
3.9555271812
 31
0.0
  0
SPLINE
  5
51C
100
AcDbEntity
  8
0
100
AcDbSpline
 62
7
  6
CONTINUOUS
 70
0
 71
3
 72
22
 73
18
 74
16
 42
0.0000001
 43
0.0000001
 44
0.0000000001
 12
-0.1076738063
 22
-0.0209205982
 32
0.0
 13
-0.1076738059
 23
0.0209205982
 33
0.0
 40
0.0
 40
0.0
 40
0.0
 40
0.0
 40
0.011037499
 40
0.0436817667
 40
0.0963652632
 40
0.1663224214
 40
0.2509281723
 40
0.3459067653
 40
0.4481169881
 40
0.5520695324
 40
0.6542454662
 40
0.7492162974
 40
0.8337543649
 40
0.903704192
 40
0.9563416595
 40
0.9889762704
 40
1.0
 40
1.0
 40
1.0
 40
1.0
 10
6.5537798248
 20
4.3981181826
 30
0.0
 10
6.5533836749
 20
4.3980412122
 30
0.0
 10
6.5518152801
 20
4.3977396756
 30
0.0
 10
6.5483501228
 20
4.3971014953
 30
0.0
 10
6.5427508436
 20
4.3961595575
 30
0.0
 10
6.5352509538
 20
4.3950721718
 30
0.0
 10
6.5261854761
 20
4.3940275798
 30
0.0
 10
6.5159128994
 20
4.393204683
 30
0.0
 10
6.5049086552
 20
4.3927528095
 30
0.0
 10
6.4936317855
 20
4.3927532294
 30
0.0
 10
6.4826291108
 20
4.3932057795
 30
0.0
 10
6.4723605821
 20
4.394028952
 30
0.0
 10
6.4632981589
 20
4.3950735802
 30
0.0
 10
6.4558026791
 20
4.3961605359
 30
0.0
 10
6.4502056888
 20
4.397102186
 30
0.0
 10
6.4467430333
 20
4.3977399295
 30
0.0
 10
6.4451754804
 20
4.3980413083
 30
0.0
 10
6.4447798248
 20
4.3981181826
 30
0.0
 11
6.5537798248
 21
4.3981181826
 31
0.0
 11
6.5525909223
 21
4.3978896102
 31
0.0
 11
6.5490694619
 21
4.3972411573
 31
0.0
 11
6.543370753
 21
4.3962828735
 31
0.0
 11
6.5357766199
 21
4.3951826185
 31
0.0
 11
6.5265573001
 21
4.3941214568
 31
0.0
 11
6.5161725121
 21
4.3932907472
 31
0.0
 11
6.5049707415
 21
4.3928315299
 31
0.0
 11
6.4935684511
 21
4.3928319537
 31
0.0
 11
6.4823704693
 21
4.3932917691
 31
0.0
 11
6.4719865782
 21
4.3941230131
 31
0.0
 11
6.4627746787
 21
4.3951837166
 31
0.0
 11
6.4551813715
 21
4.3962840642
 31
0.0
 11
6.4494876578
 21
4.3972416077
 31
0.0
 11
6.4459672435
 21
4.3978898924
 31
0.0
 11
6.4447798248
 21
4.3981181826
 31
0.0
  0
SPLINE
  5
51D
100
AcDbEntity
  8
0
100
AcDbSpline
 62
7
  6
CONTINUOUS
 70
0
 71
3
 72
14
 73
10
 74
8
 42
0.0000001
 43
0.0000001
 44
0.0000000001
 12
0.0713580204
 22
0.0
 32
0.0
 13
-0.0000213819
 23
0.0717153216
 33
0.0
 40
0.0
 40
0.0
 40
0.0
 40
0.0
 40
0.1820072833
 40
0.3581840516
 40
0.5229541537
 40
0.6727033414
 40
0.8083366199
 40
0.9361888075
 40
1.0
 40
1.0
 40
1.0
 40
1.0
 10
6.4992798248
 20
3.8845172487
 30
0.0
 10
6.5036090512
 20
3.8845172487
 30
0.0
 10
6.512141017
 20
3.8850869444
 30
0.0
 10
6.5243553371
 20
3.8876738483
 30
0.0
 10
6.5352708021
 20
3.8919995548
 30
0.0
 10
6.5442402263
 20
3.8980420868
 30
0.0
 10
6.5506537749
 20
3.9057054222
 30
0.0
 10
6.5533990382
 20
3.9131699519
 30
0.0
 10
6.553777636
 20
3.9177492521
 30
0.0
 10
6.5537771812
 20
3.9192746655
 30
0.0
 11
6.4992798248
 21
3.8845172487
 31
0.0
 11
6.5122370174
 21
3.8854066162
 31
0.0
 11
6.5245205672
 21
3.888082466
 31
0.0
 11
6.5354047166
 21
3.8925297186
 31
0.0
 11
6.5441753579
 21
3.8986340034
 31
0.0
 11
6.5502765422
 21
3.9061472812
 31
0.0
 11
6.55338931
 21
3.9147231132
 31
0.0
 11
6.5537771812
 21
3.9192746655
 31
0.0
  0
SPLINE
  5
51E
100
AcDbEntity
  8
0
100
AcDbSpline
 62
7
  6
CONTINUOUS
 70
0
 71
3
 72
14
 73
10
 74
8
 42
0.0000001
 43
0.0000001
 44
0.0000000001
 12
0.0000214916
 22
0.0717153435
 32
0.0
 13
-0.0713580598
 23
0.0
 33
0.0
 40
0.0
 40
0.0
 40
0.0
 40
0.0
 40
0.0638086729
 40
0.1916617643
 40
0.3272950358
 40
0.4770441156
 40
0.6418145256
 40
0.8179917143
 40
1.0
 40
1.0
 40
1.0
 40
1.0
 10
6.5537771817
 20
4.3159616592
 30
0.0
 10
6.5537776388
 20
4.3174870129
 30
0.0
 10
6.5533990656
 20
4.3220662768
 30
0.0
 10
6.5506538673
 20
4.3295307967
 30
0.0
 10
6.5442403376
 20
4.3371941819
 30
0.0
 10
6.5352709236
 20
4.3432367499
 30
0.0
 10
6.5243554467
 20
4.3475624868
 30
0.0
 10
6.512141082
 20
4.3501494148
 30
0.0
 10
6.5036090775
 20
4.3507191164
 30
0.0
 10
6.4992798248
 20
4.3507191164
 30
0.0
 11
6.5537771817
 21
4.3159616592
 31
0.0
 11
6.5533893477
 21
4.320513036
 31
0.0
 11
6.5502766159
 21
4.3290889552
 31
0.0
 11
6.5441754636
 21
4.3366022652
 31
0.0
 11
6.5354048443
 21
4.3427065784
 31
0.0
 11
6.5245206781
 21
4.3471538653
 31
0.0
 11
6.5122370956
 21
4.349829738
 31
0.0
 11
6.4992798248
 21
4.3507191164
 31
0.0
  0
SPLINE
  5
51F
100
AcDbEntity
  8
0
100
AcDbSpline
 62
7
  6
CONTINUOUS
 70
0
 71
3
 72
14
 73
10
 74
8
 42
0.0000001
 43
0.0000001
 44
0.0000000001
 12
-0.0000215367
 22
-0.071715349
 32
0.0
 13
0.0713580763
 23
-0.0
 33
0.0
 40
0.0
 40
0.0
 40
0.0
 40
0.0
 40
0.0638074019
 40
0.1916607631
 40
0.3272940617
 40
0.4770433479
 40
0.6418139731
 40
0.8179914013
 40
1.0
 40
1.0
 40
1.0
 40
1.0
 10
6.4447824675
 20
3.9192747228
 30
0.0
 10
6.4447820095
 20
3.9177493994
 30
0.0
 10
6.4451605705
 20
3.9131701586
 30
0.0
 10
6.4479057332
 20
3.9057056475
 30
0.0
 10
6.4543192524
 20
3.8980422335
 30
0.0
 10
6.4632886685
 20
3.891999643
 30
0.0
 10
6.4742041593
 20
3.88767389
 30
0.0
 10
6.4864185439
 20
3.8850869525
 30
0.0
 10
6.4949505636
 20
3.8845172487
 30
0.0
 10
6.4992798248
 20
3.8845172487
 30
0.0
 11
6.4447824675
 21
3.9192747228
 31
0.0
 11
6.4451702834
 21
3.9147234348
 31
0.0
 11
6.4482829911
 21
3.9061474842
 31
0.0
 11
6.454384126
 21
3.8986341547
 31
0.0
 11
6.4631547491
 21
3.8925298168
 31
0.0
 11
6.4740389279
 21
3.8880825131
 31
0.0
 11
6.4863225288
 21
3.8854066307
 31
0.0
 11
6.4992798248
 21
3.8845172487
 31
0.0
  0
SPLINE
  5
520
100
AcDbEntity
  8
0
100
AcDbSpline
 62
7
  6
CONTINUOUS
 70
0
 71
3
 72
14
 73
10
 74
8
 42
0.0000001
 43
0.0000001
 44
0.0000000001
 12
-0.0713581959
 22
0.0
 32
0.0
 13
0.0000213009
 23
-0.0717156094
 33
0.0
 40
0.0
 40
0.0
 40
0.0
 40
0.0
 40
0.1819754901
 40
0.3581228736
 40
0.5228697788
 40
0.6726023834
 40
0.8082195837
 40
0.9360528694
 40
1.0
 40
1.0
 40
1.0
 40
1.0
 10
6.4992798248
 20
4.3507191164
 30
0.0
 10
6.4949513439
 20
4.3507191164
 30
0.0
 10
6.4864208189
 20
4.3501496127
 30
0.0
 10
6.4742083602
 20
4.3475635907
 30
0.0
 10
6.463294098
 20
4.3432393663
 30
0.0
 10
6.4543249433
 20
4.3371989171
 30
0.0
 10
6.4479103713
 20
4.3295381862
 30
0.0
 10
6.445161652
 20
4.3220723728
 30
0.0
 10
6.4447820189
 20
4.3174902501
 30
0.0
 10
6.4447824729
 20
4.315961581
 30
0.0
 11
6.4992798248
 21
4.3507191164
 31
0.0
 11
6.4863248528
 21
4.3498300594
 31
0.0
 11
6.4740432109
 21
4.3471551578
 31
0.0
 11
6.4631601867
 21
4.3427094513
 31
0.0
 11
6.4543895588
 21
4.3366071729
 31
0.0
 11
6.4482872257
 21
4.3290962757
 31
0.0
 11
6.4451719962
 21
4.3205227487
 31
0.0
 11
6.4447824729
 21
4.315961581
 31
0.0
  0
SPLINE
  5
521
100
AcDbEntity
  8
0
100
AcDbSpline
 62
7
  6
CONTINUOUS
 70
0
 71
3
 72
16
 73
12
 74
10
 42
0.0000001
 43
0.0000001
 44
0.0000000001
 12
0.064257813
 22
0.0969232254
 32
0.0
 13
0.0866180298
 23
-0.0766852987
 33
0.0
 40
0.0
 40
0.0
 40
0.0
 40
0.0
 40
0.0561388262
 40
0.1410808635
 40
0.2426765047
 40
0.3576885092
 40
0.4850953984
 40
0.6175530541
 40
0.7516989589
 40
0.8808540316
 40
1.0
 40
1.0
 40
1.0
 40
1.0
 10
5.4704371153
 20
3.8228410477
 30
0.0
 10
5.471639568
 20
3.8246547664
 30
0.0
 10
5.4754915169
 20
3.8286452862
 30
0.0
 10
5.4836981842
 20
3.8333449157
 30
0.0
 10
5.4949084138
 20
3.8367258567
 30
0.0
 10
5.5081559376
 20
3.8381923819
 30
0.0
 10
5.5226527337
 20
3.8374435137
 30
0.0
 10
5.5375888477
 20
3.8343706595
 30
0.0
 10
5.551983141
 20
3.8291365024
 30
0.0
 10
5.5650173003
 20
3.8221334807
 30
0.0
 10
5.5727331078
 20
3.8163877711
 30
0.0
 10
5.5761731708
 20
3.8133421897
 30
0.0
 11
5.4704371153
 21
3.8228410477
 31
0.0
 11
5.4748506178
 21
3.8276313269
 31
0.0
 11
5.4832648925
 21
3.8327070164
 31
0.0
 11
5.494473185
 21
3.836244308
 31
0.0
 11
5.5076874803
 21
3.8377979279
 31
0.0
 11
5.5224097589
 21
3.8370912249
 31
0.0
 11
5.5374237322
 21
3.834026697
 31
0.0
 11
5.5520081264
 21
3.828722933
 31
0.0
 11
5.5651564379
 21
3.8216257875
 31
0.0
 11
5.5761731708
 21
3.8133421897
 31
0.0
  0
SPLINE
  5
522
100
AcDbEntity
  8
0
100
AcDbSpline
 62
7
  6
CONTINUOUS
 70
0
 71
3
 72
10
 73
6
 74
4
 42
0.0000001
 43
0.0000001
 44
0.0000000001
 12
0.0042381201
 22
-0.0063501657
 32
0.0
 13
0.0
 23
-0.0076156402
 33
0.0
 40
0.0
 40
0.0
 40
0.0
 40
0.0
 40
0.2150229352
 40
0.5696917564
 40
1.0
 40
1.0
 40
1.0
 40
1.0
 10
5.5894359948
 20
4.4592557847
 30
0.0
 10
5.5897397591
 20
4.4588006409
 30
0.0
 10
5.5904430282
 20
4.4575261851
 30
0.0
 10
5.591182853
 20
4.455074695
 30
0.0
 10
5.591339532
 20
4.4530733902
 30
0.0
 10
5.591339532
 20
4.4519810326
 30
0.0
 11
5.5894359948
 21
4.4592557847
 31
0.0
 11
5.5902304946
 21
4.4578211869
 31
0.0
 11
5.5910403234
 21
4.4552444174
 31
0.0
 11
5.591339532
 21
4.4519810326
 31
0.0
  0
SPLINE
  5
523
100
AcDbEntity
  8
0
100
AcDbSpline
 62
7
  6
CONTINUOUS
 70
0
 71
3
 72
13
 73
9
 74
7
 42
0.0000001
 43
0.0000001
 44
0.0000000001
 12
-0.0758784678
 22
-0.0259330682
 32
0.0
 13
0.0
 23
-0.0800248041
 33
0.0
 40
0.0
 40
0.0
 40
0.0
 40
0.0
 40
0.0109485405
 40
0.2402099262
 40
0.4544491968
 40
0.6505202876
 40
0.8336033258
 40
1.0
 40
1.0
 40
1.0
 40
1.0
 10
5.5555464
 20
4.1754131305
 30
0.0
 10
5.5552694805
 20
4.1753184874
 30
0.0
 10
5.5492042169
 20
4.1732117114
 30
0.0
 10
5.538170532
 20
4.167971306
 30
0.0
 10
5.5245950182
 20
4.1573998009
 30
0.0
 10
5.5146173837
 20
4.1449047756
 30
0.0
 10
5.5086868332
 20
4.1314243989
 30
0.0
 10
5.5073864306
 20
4.122056803
 30
0.0
 10
5.5073864306
 20
4.1176181826
 30
0.0
 11
5.5555464
 21
4.1754131305
 31
0.0
 11
5.5547170669
 21
4.17512506
 31
0.0
 11
5.538167664
 21
4.167205786
 31
0.0
 11
5.5247028538
 21
4.156592999
 31
0.0
 11
5.5150016578
 21
4.14426092
 31
0.0
 11
5.5091911925
 21
4.130811173
 31
0.0
 11
5.5073864306
 21
4.1176181826
 31
0.0
  0
SPLINE
  5
524
100
AcDbEntity
  8
0
100
AcDbSpline
 62
7
  6
CONTINUOUS
 70
0
 71
3
 72
11
 73
7
 74
5
 42
0.0000001
 43
0.0000001
 44
0.0000000001
 12
0.04848811
 22
0.0000108516
 32
0.0
 13
0.0327833971
 23
-0.0355722375
 33
0.0
 40
0.0
 40
0.0
 40
0.0
 40
0.0
 40
0.0923586639
 40
0.3997815902
 40
0.7016425825
 40
1.0
 40
1.0
 40
1.0
 40
1.0
 10
5.5329472959
 20
4.1801181213
 30
0.0
 10
5.5344400616
 20
4.1801184554
 30
0.0
 10
5.5409016738
 20
4.179887445
 30
0.0
 10
5.5521212746
 20
4.1776762302
 30
0.0
 10
5.5654437576
 20
4.1712536974
 30
0.0
 10
5.5729127809
 20
4.1649134153
 30
0.0
 10
5.5761731708
 20
4.1613756683
 30
0.0
 11
5.5329472959
 21
4.1801181213
 31
0.0
 11
5.5374219432
 21
4.1799568044
 31
0.0
 11
5.5520066491
 21
4.1770499411
 31
0.0
 11
5.5651559921
 21
4.1706995054
 31
0.0
 11
5.5761731708
 21
4.1613756683
 31
0.0
  0
SPLINE
  5
525
100
AcDbEntity
  8
126-401_HEX_FEATURES
100
AcDbSpline
 62
7
  6
CONTINUOUS
 70
0
 71
3
 72
12
 73
8
 74
6
 42
0.0000001
 43
0.0000001
 44
0.0000000001
 12
0.0
 22
0.0190579001
 32
0.0
 13
0.0189260108
 23
0.0001398086
 33
0.0
 40
0.0
 40
0.0
 40
0.0
 40
0.0
 40
0.2797926187
 40
0.5401725385
 40
0.7529406999
 40
0.9060196389
 40
1.0
 40
1.0
 40
1.0
 40
1.0
 10
5.2844594571
 20
4.1176181826
 30
0.0
 10
5.2844594571
 20
4.1193956025
 30
0.0
 10
5.2846121175
 20
4.1228284191
 30
0.0
 10
5.2852495986
 20
4.1275783474
 30
0.0
 10
5.2863343427
 20
4.1314261691
 30
0.0
 10
5.2875300599
 20
4.1340918716
 30
0.0
 10
5.2890048648
 20
4.1351133711
 30
0.0
 10
5.2895977559
 20
4.1351177509
 30
0.0
 11
5.2844594571
 21
4.1176181826
 31
0.0
 11
5.2846993468
 21
4.1229450435
 31
0.0
 11
5.2854167982
 21
4.1278551993
 31
0.0
 11
5.2865451641
 21
4.1317499549
 31
0.0
 11
5.2880032888
 21
4.1342767869
 31
0.0
 11
5.2895977559
 21
4.1351177509
 31
0.0
  0
SPLINE
  5
526
100
AcDbEntity
  8
126-401_HEX_FEATURES
100
AcDbSpline
 62
7
  6
CONTINUOUS
 70
0
 71
3
 72
12
 73
8
 74
6
 42
0.0000001
 43
0.0000001
 44
0.0000000001
 12
-0.0189230308
 22
0.0001475813
 32
0.0
 13
0.0
 23
0.0190568244
 33
0.0
 40
0.0
 40
0.0
 40
0.0
 40
0.0
 40
0.0945511818
 40
0.2465949488
 40
0.4579708541
 40
0.716519472
 40
1.0
 40
1.0
 40
1.0
 40
1.0
 10
5.289597119
 20
4.1001186166
 30
0.0
 10
5.2890007207
 20
4.1001232679
 30
0.0
 10
5.2875303916
 20
4.1011484489
 30
0.0
 10
5.2863388101
 20
4.1037998978
 30
0.0
 10
5.2852579639
 20
4.1076215019
 30
0.0
 10
5.284614482
 20
4.1123727957
 30
0.0
 10
5.2844594571
 20
4.1158174364
 30
0.0
 10
5.2844594571
 20
4.1176181826
 30
0.0
 11
5.289597119
 21
4.1001186166
 31
0.0
 11
5.2879950281
 21
4.1009686055
 31
0.0
 11
5.2865481498
 21
4.1034789608
 31
0.0
 11
5.2854239594
 21
4.1073470633
 31
0.0
 11
5.2847058377
 21
4.1122215652
 31
0.0
 11
5.2844594571
 21
4.1176181826
 31
0.0
  0
SPLINE
  5
527
100
AcDbEntity
  8
0
100
AcDbSpline
 62
7
  6
CONTINUOUS
 70
0
 71
3
 72
13
 73
9
 74
7
 42
0.0000001
 43
0.0000001
 44
0.0000000001
 12
0.0
 22
-0.080045035
 32
0.0
 13
0.0759044134
 23
-0.0259234087
 33
0.0
 40
0.0
 40
0.0
 40
0.0
 40
0.0
 40
0.1661596199
 40
0.3479904739
 40
0.5431258931
 40
0.7571417
 40
0.987154595
 40
1.0
 40
1.0
 40
1.0
 40
1.0
 10
5.5073864306
 20
4.1176181826
 30
0.0
 10
5.5073864306
 20
4.1131847651
 30
0.0
 10
5.5086801161
 20
4.1038547337
 30
0.0
 10
5.5145680156
 20
4.0904256822
 30
0.0
 10
5.5244775112
 20
4.0779553223
 30
0.0
 10
5.5380214601
 20
4.0673536405
 30
0.0
 10
5.5491075592
 20
4.0620624355
 30
0.0
 10
5.5552399889
 20
4.0599278755
 30
0.0
 10
5.5555649965
 20
4.0598168766
 30
0.0
 11
5.5073864306
 21
4.1176181826
 31
0.0
 11
5.5091869984
 21
4.1044403727
 31
0.0
 11
5.5149436285
 21
4.0910725287
 31
0.0
 11
5.5245724865
 21
4.078773843
 31
0.0
 11
5.5379996761
 21
4.0681353089
 31
0.0
 11
5.5545919386
 21
4.0601555773
 31
0.0
 11
5.5555649965
 21
4.0598168766
 31
0.0
  0
SPLINE
  5
528
100
AcDbEntity
  8
0
100
AcDbSpline
 62
7
  6
CONTINUOUS
 70
0
 71
3
 72
15
 73
11
 74
9
 42
0.0000001
 43
0.0000001
 44
0.0000000001
 12
0.0258678791
 22
-0.0229015372
 32
0.0
 13
0.0
 23
-0.0345489157
 33
0.0
 40
0.0
 40
0.0
 40
0.0
 40
0.0
 40
0.1443614168
 40
0.2836351788
 40
0.4167360939
 40
0.5429780929
 40
0.6636707102
 40
0.7798174074
 40
0.8919082954
 40
1.0
 40
1.0
 40
1.0
 40
1.0
 10
5.5761731708
 20
3.8133421897
 30
0.0
 10
5.5774179454
 20
3.8122401569
 30
0.0
 10
5.5797378643
 20
3.8099287781
 30
0.0
 10
5.5827611759
 20
3.8061916195
 30
0.0
 10
5.5852939258
 20
3.8023549163
 30
0.0
 10
5.5873710773
 20
3.7984963307
 30
0.0
 10
5.5890283106
 20
3.7946517199
 30
0.0
 10
5.5902825343
 20
3.7908275203
 30
0.0
 10
5.591112384
 20
3.7870373267
 30
0.0
 10
5.591339532
 20
3.7845001496
 30
0.0
 10
5.591339532
 20
3.7832553326
 30
0.0
 11
5.5761731708
 21
3.8133421897
 31
0.0
 11
5.5797115496
 21
3.8098271741
 31
0.0
 11
5.5827418013
 21
3.8060894496
 31
0.0
 11
5.5852768349
 21
3.8022528187
 31
0.0
 11
5.5873432378
 21
3.7984118719
 31
0.0
 11
5.588989408
 21
3.7945807693
 31
0.0
 11
5.5902304946
 21
3.7907647758
 31
0.0
 11
5.5910403234
 21
3.786977778
 31
0.0
 11
5.591339532
 21
3.7832553326
 31
0.0
  0
SPLINE
  5
529
100
AcDbEntity
  8
0
100
AcDbSpline
 62
7
  6
CONTINUOUS
 70
0
 71
3
 72
14
 73
10
 74
8
 42
0.0000001
 43
0.0000001
 44
0.0000000001
 12
0.0
 22
-0.0473589918
 32
0.0
 13
-0.0320948927
 23
-0.0348251629
 33
0.0
 40
0.0
 40
0.0
 40
0.0
 40
0.0
 40
0.1468788208
 40
0.2925155065
 40
0.4365568971
 40
0.5787810535
 40
0.7195123387
 40
0.8594831351
 40
1.0
 40
1.0
 40
1.0
 40
1.0
 10
5.591339532
 20
4.1176181826
 30
0.0
 10
5.591339532
 20
4.115299505
 30
0.0
 10
5.5911441738
 20
4.1106792966
 30
0.0
 10
5.5902611631
 20
4.1038359484
 30
0.0
 10
5.5887778231
 20
4.0971706907
 30
0.0
 10
5.5866715985
 20
4.0907550863
 30
0.0
 10
5.5839103208
 20
4.0846603401
 30
0.0
 10
5.5804554595
 20
4.0789596628
 30
0.0
 10
5.577676462
 20
4.0754918711
 30
0.0
 10
5.5761731708
 20
4.0738606969
 30
0.0
 11
5.591339532
 21
4.1176181826
 31
0.0
 11
5.591043425
 21
4.110668455
 31
0.0
 11
5.5901545679
 21
4.1038287626
 31
0.0
 11
5.5886629947
 21
4.0971721729
 31
0.0
 11
5.5865501171
 21
4.0907765527
 31
0.0
 11
5.5837873097
 21
4.0847112681
 31
0.0
 11
5.5803407981
 21
4.0790487994
 31
0.0
 11
5.5761731708
 21
4.0738606969
 31
0.0
  0
SPLINE
  5
52A
100
AcDbEntity
  8
0
100
AcDbSpline
 62
7
  6
CONTINUOUS
 70
0
 71
3
 72
10
 73
6
 74
4
 42
0.0000001
 43
0.0000001
 44
0.0000000001
 12
0.0
 22
-0.0076022646
 32
0.0
 13
-0.0042299737
 23
-0.0063492437
 33
0.0
 40
0.0
 40
0.0
 40
0.0
 40
0.0
 40
0.4289730801
 40
0.809987549
 40
1.0
 40
1.0
 40
1.0
 40
1.0
 10
5.591339532
 20
3.7832553326
 30
0.0
 10
5.591339532
 20
3.782168277
 30
0.0
 10
5.591179008
 20
3.7801075378
 30
0.0
 10
5.59042587
 20
3.7776607112
 30
0.0
 10
5.5897095389
 20
3.776392551
 30
0.0
 10
5.589441623
 20
3.7759904059
 30
0.0
 11
5.591339532
 21
3.7832553326
 31
0.0
 11
5.591043425
 21
3.7800076365
 31
0.0
 11
5.5901545679
 21
3.7772508146
 31
0.0
 11
5.589441623
 21
3.7759904059
 31
0.0
  0
SPLINE
  5
52B
100
AcDbEntity
  8
0
100
AcDbSpline
 62
7
  6
CONTINUOUS
 70
0
 71
3
 72
11
 73
7
 74
5
 42
0.0000001
 43
0.0000001
 44
0.0000000001
 12
-0.0327802486
 22
-0.0355688211
 32
0.0
 13
-0.0484842383
 23
0.0000072537
 33
0.0
 40
0.0
 40
0.0
 40
0.0
 40
0.0
 40
0.2981776359
 40
0.5995420065
 40
0.9073114243
 40
1.0
 40
1.0
 40
1.0
 40
1.0
 10
5.5761731708
 20
4.0738606969
 30
0.0
 10
5.5729150585
 20
4.0703254212
 30
0.0
 10
5.5654558037
 20
4.0639923548
 30
0.0
 10
5.5521426097
 20
4.0575676555
 30
0.0
 10
5.5409219694
 20
4.0553507025
 30
0.0
 10
5.5344499751
 20
4.0551180228
 30
0.0
 10
5.5329519968
 20
4.0551182469
 30
0.0
 11
5.5761731708
 21
4.0738606969
 31
0.0
 11
5.5651645066
 21
4.0645424061
 31
0.0
 11
5.5520405843
 21
4.0581977978
 31
0.0
 11
5.5374422198
 21
4.0552810361
 31
0.0
 11
5.5329519968
 21
4.0551182469
 31
0.0
  0
SPLINE
  5
52C
100
AcDbEntity
  8
0
100
AcDbSpline
 62
7
  6
CONTINUOUS
 70
0
 71
3
 72
14
 73
10
 74
8
 42
0.0000001
 43
0.0000001
 44
0.0000000001
 12
0.0320948727
 22
-0.0348251412
 32
0.0
 13
0.0
 23
-0.0473589623
 33
0.0
 40
0.0
 40
0.0
 40
0.0
 40
0.0
 40
0.1408794899
 40
0.2812374518
 40
0.4222092746
 40
0.5643975766
 40
0.708159292
 40
0.8534138984
 40
1.0
 40
1.0
 40
1.0
 40
1.0
 10
5.5761731708
 20
4.1613756683
 30
0.0
 10
5.5776803406
 20
4.1597402856
 30
0.0
 10
5.5804661912
 20
4.1562626629
 30
0.0
 10
5.5839263222
 20
4.1505467643
 30
0.0
 10
5.5866871493
 20
4.1444415079
 30
0.0
 10
5.5887884864
 20
4.1380255812
 30
0.0
 10
5.5902659074
 20
4.131370363
 30
0.0
 10
5.5911450113
 20
4.1245417763
 30
0.0
 10
5.591339532
 20
4.1199322378
 30
0.0
 10
5.591339532
 20
4.1176181826
 30
0.0
 11
5.5761731708
 21
4.1613756683
 31
0.0
 11
5.5803506544
 21
4.1561734605
 31
0.0
 11
5.5838038928
 21
4.1504936268
 31
0.0
 11
5.5865671559
 21
4.1444160383
 31
0.0
 11
5.5886749844
 21
4.1380205446
 31
0.0
 11
5.5901600975
 21
4.1313760863
 31
0.0
 11
5.5910446087
 21
4.1245540808
 31
0.0
 11
5.591339532
 21
4.1176181826
 31
0.0
  0
SPLINE
  5
52D
100
AcDbEntity
  8
0
100
AcDbSpline
 62
7
  6
CONTINUOUS
 70
0
 71
3
 72
14
 73
10
 74
8
 42
0.0000001
 43
0.0000001
 44
0.0000000001
 12
0.0
 22
-0.0345442677
 32
0.0
 13
-0.025864399
 23
-0.0228984562
 33
0.0
 40
0.0
 40
0.0
 40
0.0
 40
0.0
 40
0.1075100139
 40
0.2284708734
 40
0.3624065972
 40
0.5079895066
 40
0.663735978
 40
0.8281198959
 40
1.0
 40
1.0
 40
1.0
 40
1.0
 10
5.591339532
 20
4.4519810326
 30
0.0
 10
5.591339532
 20
4.4507430811
 30
0.0
 10
5.591105053
 20
4.4481108656
 30
0.0
 10
5.5901927499
 20
4.4440299063
 30
0.0
 10
5.5886903395
 20
4.4396605775
 30
0.0
 10
5.5865756239
 20
4.4351069982
 30
0.0
 10
5.5838171388
 20
4.4304960263
 30
0.0
 10
5.580377001
 20
4.4259794386
 30
0.0
 10
5.5776550293
 20
4.4232061051
 30
0.0
 10
5.5761731708
 20
4.4218941755
 30
0.0
 11
5.591339532
 21
4.4519810326
 31
0.0
 11
5.591043425
 21
4.4482790011
 31
0.0
 11
5.5901545679
 21
4.4441961306
 31
0.0
 11
5.5886629947
 21
4.4398164424
 31
0.0
 11
5.5865501171
 21
4.435252766
 31
0.0
 11
5.5837873097
 21
4.4306361779
 31
0.0
 11
5.5803407981
 21
4.4261231777
 31
0.0
 11
5.5761731708
 21
4.4218941755
 31
0.0
  0
SPLINE
  5
52E
100
AcDbEntity
  8
0
100
AcDbSpline
 62
7
  6
CONTINUOUS
 70
0
 71
3
 72
16
 73
12
 74
10
 42
0.0000001
 43
0.0000001
 44
0.0000000001
 12
-0.0866189487
 22
-0.0766861121
 32
0.0
 13
-0.0642700371
 23
0.0969045093
 33
0.0
 40
0.0
 40
0.0
 40
0.0
 40
0.0
 40
0.1189816118
 40
0.2477600514
 40
0.3819992337
 40
0.5148549016
 40
0.6431359639
 40
0.7587735354
 40
0.8603599575
 40
0.9450148844
 40
1.0
 40
1.0
 40
1.0
 40
1.0
 10
5.5761731708
 20
4.4218941755
 30
0.0
 10
5.5727378168
 20
4.4188527631
 30
0.0
 10
5.5650394605
 20
4.4131186996
 30
0.0
 10
5.5520235156
 20
4.406118709
 30
0.0
 10
5.5376275861
 20
4.4008752782
 30
0.0
 10
5.5226401361
 20
4.3977875035
 30
0.0
 10
5.5080686064
 20
4.3970413043
 30
0.0
 10
5.4947648315
 20
4.3985359435
 30
0.0
 10
5.4835513721
 20
4.4019526831
 30
0.0
 10
5.4754109548
 20
4.4066578384
 30
0.0
 10
5.471614479
 20
4.4106204062
 30
0.0
 10
5.4704365139
 20
4.412396508
 30
0.0
 11
5.5761731708
 21
4.4218941755
 31
0.0
 11
5.5651723704
 21
4.4136207836
 31
0.0
 11
5.5520650791
 21
4.4065390429
 31
0.0
 11
5.5374732507
 21
4.401223672
 31
0.0
 11
5.5224148447
 21
4.3981457833
 31
0.0
 11
5.5075910369
 21
4.3974417301
 31
0.0
 11
5.4943074921
 21
4.3990271651
 31
0.0
 11
5.4831108171
 21
4.402597961
 31
0.0
 11
5.4747463002
 21
4.4076918652
 31
0.0
 11
5.4704365139
 21
4.412396508
 31
0.0
  0
SPLINE
  5
52F
100
AcDbEntity
  8
0
100
AcDbSpline
 62
7
  6
CONTINUOUS
 70
0
 71
3
 72
9
 73
5
 74
3
 42
0.0000001
 43
0.0000001
 44
0.0000000001
 12
-0.0049297372
 22
0.0074329157
 32
0.0
 13
-0.0
 23
0.0088736384
 33
0.0
 40
0.0
 40
0.0
 40
0.0
 40
0.0
 40
0.1996870436
 40
1.0
 40
1.0
 40
1.0
 40
1.0
 10
5.4704365139
 20
4.412396508
 30
0.0
 10
5.470108379
 20
4.4128912604
 30
0.0
 10
5.4685882954
 20
4.4154527518
 30
0.0
 10
5.4677798248
 20
4.4184470132
 30
0.0
 10
5.4677798248
 20
4.4208142425
 30
0.0
 11
5.4704365139
 21
4.412396508
 31
0.0
 11
5.4695296725
 21
4.4139315103
 31
0.0
 11
5.4677798248
 21
4.4208142425
 31
0.0
  0
SPLINE
  5
530
100
AcDbEntity
  8
0
100
AcDbSpline
 62
7
  6
CONTINUOUS
 70
0
 71
3
 72
12
 73
8
 74
6
 42
0.0000001
 43
0.0000001
 44
0.0000000001
 12
-0.0084035684
 22
-0.0126138618
 32
0.0
 13
-0.0148106447
 23
-0.0029583
 33
0.0
 40
0.0
 40
0.0
 40
0.0
 40
0.0
 40
0.0845804688
 40
0.2697381799
 40
0.4762895672
 40
0.7168439692
 40
1.0
 40
1.0
 40
1.0
 40
1.0
 10
5.589441623
 20
3.7759904059
 30
0.0
 10
5.5892046971
 20
3.7756347771
 30
0.0
 10
5.5883754043
 20
3.7745501178
 30
0.0
 10
5.5865226741
 20
3.7729825342
 30
0.0
 10
5.5836602852
 20
3.7715447086
 30
0.0
 10
5.5801482626
 20
3.7704292131
 30
0.0
 10
5.5775710786
 20
3.7698639241
 30
0.0
 10
5.5761731708
 20
3.769584704
 30
0.0
 11
5.589441623
 21
3.7759904059
 31
0.0
 11
5.5886629947
 21
3.774973913
 31
0.0
 11
5.5865501171
 21
3.7731419693
 31
0.0
 11
5.5837873097
 21
3.7716932728
 31
0.0
 11
5.5803407981
 21
3.7705438042
 31
0.0
 11
5.5761731708
 21
3.769584704
 31
0.0
  0
SPLINE
  5
531
100
AcDbEntity
  8
0
100
AcDbSpline
 62
7
  6
CONTINUOUS
 70
0
 71
3
 72
14
 73
10
 74
8
 42
0.0000001
 43
0.0000001
 44
0.0000000001
 12
-0.1046826132
 22
0.2029792199
 32
0.0
 13
0.1046826132
 23
0.2029792199
 33
0.0
 40
0.0
 40
0.0
 40
0.0
 40
0.0
 40
0.1530438599
 40
0.2956043717
 40
0.4324922324
 40
0.5675957362
 40
0.7044780411
 40
0.8469906498
 40
1.0
 40
1.0
 40
1.0
 40
1.0
 10
4.5173434906
 20
3.6295157101
 30
0.0
 10
4.5120031469
 20
3.6398706179
 30
0.0
 10
4.5025981535
 20
3.6603703462
 30
0.0
 10
4.4925565354
 20
3.6918258705
 30
0.0
 10
4.4874128253
 20
3.7230935393
 30
0.0
 10
4.4874145184
 20
3.7543625635
 30
0.0
 10
4.4925605989
 20
3.7856256685
 30
0.0
 10
4.5026017813
 20
3.8170741835
 30
0.0
 10
4.5120043511
 20
3.8375680822
 30
0.0
 10
4.5173434906
 20
3.8479206551
 30
0.0
 11
4.5173434906
 21
3.6295157101
 31
0.0
 11
4.5029458919
 21
3.661365351
 31
0.0
 11
4.4932110197
 21
3.6924344022
 31
0.0
 11
4.4882457859
 21
3.723300516
 31
0.0
 11
4.4882474167
 21
3.7541559241
 31
0.0
 11
4.4932154056
 21
3.7850203094
 31
0.0
 11
4.502948728
 21
3.8160783815
 31
0.0
 11
4.5173434906
 21
3.8479206551
 31
0.0
  0
SPLINE
  5
532
100
AcDbEntity
  8
0
100
AcDbSpline
 62
7
  6
CONTINUOUS
 70
0
 71
3
 72
15
 73
11
 74
9
 42
0.0000001
 43
0.0000001
 44
0.0000000001
 12
0.1643031241
 22
0.1839340856
 32
0.0
 13
-0.1643031241
 23
0.1839340856
 33
0.0
 40
0.0
 40
0.0
 40
0.0
 40
0.0
 40
0.1498215377
 40
0.2783315905
 40
0.3927788038
 40
0.5000592815
 40
0.6073304266
 40
0.7217569014
 40
0.8502022558
 40
1.0
 40
1.0
 40
1.0
 40
1.0
 10
4.8907798248
 20
3.6295157101
 30
0.0
 10
4.898985207
 20
3.6387014726
 30
0.0
 10
4.9134169865
 20
3.6565444312
 30
0.0
 10
4.9300147152
 20
3.6844028453
 30
0.0
 10
4.9399998222
 20
3.7116299193
 30
0.0
 10
4.9433608453
 20
3.738732275
 30
0.0
 10
4.9399930716
 20
3.7658319388
 30
0.0
 10
4.9300059543
 20
3.7930497154
 30
0.0
 10
4.9134112248
 20
3.8208991758
 30
0.0
 10
4.8989839039
 20
3.8387363514
 30
0.0
 10
4.8907798248
 20
3.8479206551
 30
0.0
 11
4.8907798248
 21
3.6295157101
 31
0.0
 11
4.9137482985
 21
3.6584606231
 31
0.0
 11
4.9296744834
 21
3.6858633381
 31
0.0
 11
4.9391234808
 21
3.7124611195
 31
0.0
 11
4.9422637898
 21
3.7387328834
 31
0.0
 11
4.9391172016
 21
3.7650015779
 31
0.0
 11
4.9296651694
 21
3.7915928527
 31
0.0
 11
4.9137449619
 21
3.8189805857
 31
0.0
 11
4.8907798248
 21
3.8479206551
 31
0.0
  0
SPLINE
  5
533
100
AcDbEntity
  8
0
100
AcDbSpline
 62
7
  6
CONTINUOUS
 70
0
 71
3
 72
14
 73
10
 74
8
 42
0.0000001
 43
0.0000001
 44
0.0000000001
 12
-0.1103507163
 22
0.4279393037
 32
0.0
 13
0.1103507163
 23
0.4279393037
 33
0.0
 40
0.0
 40
0.0
 40
0.0
 40
0.0
 40
0.1477720816
 40
0.2900907235
 40
0.430227046
 40
0.569863817
 40
0.7099928421
 40
0.8522618536
 40
1.0
 40
1.0
 40
1.0
 40
1.0
 10
4.5173434906
 20
3.8992132376
 30
0.0
 10
4.5119079056
 20
3.9202923982
 30
0.0
 10
4.5023925534
 20
3.9619864371
 30
0.0
 10
4.4924654701
 20
4.0246350761
 30
0.0
 10
4.4874109273
 20
4.086674511
 30
0.0
 10
4.487412586
 20
4.148600972
 30
0.0
 10
4.4924695039
 20
4.2106317784
 30
0.0
 10
4.5023962793
 20
4.2732668538
 30
0.0
 10
4.5119091539
 20
4.3149488078
 30
0.0
 10
4.5173434906
 20
4.3360231276
 30
0.0
 11
4.5173434906
 21
3.8992132376
 31
0.0
 11
4.5029458919
 21
3.9629125194
 31
0.0
 11
4.4932110197
 21
4.0250506218
 31
0.0
 11
4.4882457859
 21
4.0867828495
 31
0.0
 11
4.4882474167
 21
4.1484936657
 31
0.0
 11
4.4932154056
 21
4.2102224363
 31
0.0
 11
4.502948728
 21
4.2723385803
 31
0.0
 11
4.5173434906
 21
4.3360231276
 31
0.0
  0
SPLINE
  5
534
100
AcDbEntity
  8
0
100
AcDbSpline
 62
7
  6
CONTINUOUS
 70
0
 71
3
 72
15
 73
11
 74
9
 42
0.0000001
 43
0.0000001
 44
0.0000000001
 12
0.1843202379
 22
0.4126856942
 32
0.0
 13
-0.1843202379
 23
0.4126856942
 33
0.0
 40
0.0
 40
0.0
 40
0.0
 40
0.0
 40
0.1377942686
 40
0.2640673782
 40
0.3836049145
 40
0.5000649493
 40
0.6165122554
 40
0.736022619
 40
0.8622283762
 40
1.0
 40
1.0
 40
1.0
 40
1.0
 10
4.8907798248
 20
3.8992132376
 30
0.0
 10
4.8992459155
 20
3.9181684787
 30
0.0
 10
4.9140774583
 20
3.9551494176
 30
0.0
 10
4.9304145735
 20
4.0106856987
 30
0.0
 10
4.940107743
 20
4.064516438
 30
0.0
 10
4.9433293995
 20
4.1176457409
 30
0.0
 10
4.9401012094
 20
4.1707704915
 30
0.0
 10
4.9304056878
 20
4.2245842741
 30
0.0
 10
4.9140712384
 20
4.2801027693
 30
0.0
 10
4.8992445242
 20
4.3170710015
 30
0.0
 10
4.8907798248
 20
4.3360231276
 30
0.0
 11
4.8907798248
 21
3.8992132376
 31
0.0
 11
4.9137482985
 21
3.9571030636
 31
0.0
 11
4.9296744834
 21
4.0119084937
 31
0.0
 11
4.9391234808
 21
4.0651040563
 31
0.0
 11
4.9422637898
 21
4.1176475843
 31
0.0
 11
4.9391172016
 21
4.1701849732
 31
0.0
 11
4.9296651694
 21
4.2233675229
 31
0.0
 11
4.9137449619
 21
4.2781429889
 31
0.0
 11
4.8907798248
 21
4.3360231276
 31
0.0
  0
SPLINE
  5
535
100
AcDbEntity
  8
0
100
AcDbSpline
 62
7
  6
CONTINUOUS
 70
0
 71
3
 72
14
 73
10
 74
8
 42
0.0000001
 43
0.0000001
 44
0.0000000001
 12
-0.1046826132
 22
0.2029792199
 32
0.0
 13
0.1046826132
 23
0.2029792199
 33
0.0
 40
0.0
 40
0.0
 40
0.0
 40
0.0
 40
0.1530438599
 40
0.2956043717
 40
0.4324922324
 40
0.5675957362
 40
0.7044780411
 40
0.8469906498
 40
1.0
 40
1.0
 40
1.0
 40
1.0
 10
4.5173434906
 20
4.3873157101
 30
0.0
 10
4.5120031469
 20
4.3976706179
 30
0.0
 10
4.5025981535
 20
4.4181703462
 30
0.0
 10
4.4925565354
 20
4.4496258705
 30
0.0
 10
4.4874128253
 20
4.4808935393
 30
0.0
 10
4.4874145184
 20
4.5121625635
 30
0.0
 10
4.4925605989
 20
4.5434256685
 30
0.0
 10
4.5026017813
 20
4.5748741835
 30
0.0
 10
4.5120043511
 20
4.5953680822
 30
0.0
 10
4.5173434906
 20
4.6057206551
 30
0.0
 11
4.5173434906
 21
4.3873157101
 31
0.0
 11
4.5029458919
 21
4.419165351
 31
0.0
 11
4.4932110197
 21
4.4502344022
 31
0.0
 11
4.4882457859
 21
4.481100516
 31
0.0
 11
4.4882474167
 21
4.5119559241
 31
0.0
 11
4.4932154056
 21
4.5428203094
 31
0.0
 11
4.502948728
 21
4.5738783815
 31
0.0
 11
4.5173434906
 21
4.6057206551
 31
0.0
  0
SPLINE
  5
536
100
AcDbEntity
  8
0
100
AcDbSpline
 62
7
  6
CONTINUOUS
 70
0
 71
3
 72
15
 73
11
 74
9
 42
0.0000001
 43
0.0000001
 44
0.0000000001
 12
0.1643031241
 22
0.1839340856
 32
0.0
 13
-0.1643031241
 23
0.1839340856
 33
0.0
 40
0.0
 40
0.0
 40
0.0
 40
0.0
 40
0.1498215377
 40
0.2783315905
 40
0.3927788038
 40
0.5000592815
 40
0.6073304266
 40
0.7217569014
 40
0.8502022558
 40
1.0
 40
1.0
 40
1.0
 40
1.0
 10
4.8907798248
 20
4.3873157101
 30
0.0
 10
4.898985207
 20
4.3965014726
 30
0.0
 10
4.9134169865
 20
4.4143444312
 30
0.0
 10
4.9300147152
 20
4.4422028453
 30
0.0
 10
4.9399998222
 20
4.4694299193
 30
0.0
 10
4.9433608453
 20
4.496532275
 30
0.0
 10
4.9399930716
 20
4.5236319388
 30
0.0
 10
4.9300059543
 20
4.5508497154
 30
0.0
 10
4.9134112248
 20
4.5786991758
 30
0.0
 10
4.8989839039
 20
4.5965363514
 30
0.0
 10
4.8907798248
 20
4.6057206551
 30
0.0
 11
4.8907798248
 21
4.3873157101
 31
0.0
 11
4.9137482985
 21
4.4162606231
 31
0.0
 11
4.9296744834
 21
4.4436633381
 31
0.0
 11
4.9391234808
 21
4.4702611195
 31
0.0
 11
4.9422637898
 21
4.4965328834
 31
0.0
 11
4.9391172016
 21
4.5228015779
 31
0.0
 11
4.9296651694
 21
4.5493928527
 31
0.0
 11
4.9137449619
 21
4.5767805857
 31
0.0
 11
4.8907798248
 21
4.6057206551
 31
0.0
  0
SPLINE
  5
537
100
AcDbEntity
  8
0
100
AcDbSpline
 62
7
  6
CONTINUOUS
 70
0
 71
3
 72
9
 73
5
 74
3
 42
0.0000001
 43
0.0000001
 44
0.0000000001
 12
0.0
 22
0.0088734786
 32
0.0
 13
0.0049287631
 23
0.0074342963
 33
0.0
 40
0.0
 40
0.0
 40
0.0
 40
0.0
 40
0.8066566507
 40
1.0
 40
1.0
 40
1.0
 40
1.0
 10
5.4677798248
 20
3.8144221227
 30
0.0
 10
5.4677798248
 20
3.8168080729
 30
0.0
 10
5.4685957672
 20
3.8198023216
 30
0.0
 10
5.4701194674
 20
3.8223619238
 30
0.0
 10
5.4704371153
 20
3.8228410477
 30
0.0
 11
5.4677798248
 21
3.8144221227
 31
0.0
 11
5.4695567299
 21
3.8213559119
 31
0.0
 11
5.4704371153
 21
3.8228410477
 31
0.0
  0
SPLINE
  5
538
100
AcDbEntity
  8
0
100
AcDbSpline
 62
7
  6
CONTINUOUS
 70
0
 71
3
 72
16
 73
12
 74
10
 42
0.0000001
 43
0.0000001
 44
0.0000000001
 12
-0.1224648284
 22
-0.024461305
 32
0.0
 13
0.0
 23
0.1248839046
 33
0.0
 40
0.0
 40
0.0
 40
0.0
 40
0.0
 40
0.0986642146
 40
0.2164974937
 40
0.3513170806
 40
0.4937369915
 40
0.6285407717
 40
0.7489374301
 40
0.8512652819
 40
0.9336627459
 40
1.0
 40
1.0
 40
1.0
 40
1.0
 10
5.5761731708
 20
3.769584704
 30
0.0
 10
5.5721455388
 20
3.7687802188
 30
0.0
 10
5.563077652
 20
3.7682125724
 30
0.0
 10
5.5484830466
 20
3.7694618931
 30
0.0
 10
5.532306657
 20
3.7725779145
 30
0.0
 10
5.5157916481
 20
3.7772859659
 30
0.0
 10
5.5003123798
 20
3.7832153588
 30
0.0
 10
5.4870217771
 20
3.7900006122
 30
0.0
 10
5.4766592226
 20
3.7974593665
 30
0.0
 10
5.469702523
 20
3.8054635229
 30
0.0
 10
5.4677798248
 20
3.8116606376
 30
0.0
 10
5.4677798248
 20
3.8144221227
 30
0.0
 11
5.5761731708
 21
3.769584704
 31
0.0
 11
5.5638959137
 21
3.768540624
 31
0.0
 11
5.5492215207
 21
3.7696395062
 31
0.0
 11
5.5326745382
 21
3.7727499859
 31
0.0
 11
5.5155706017
 21
3.7776280528
 31
0.0
 11
5.4998765675
 21
3.7837197306
 31
0.0
 11
5.4865591099
 21
3.7906993247
 31
0.0
 11
5.4763367912
 21
3.798368069
 31
0.0
 11
5.4699322688
 21
3.8064221737
 31
0.0
 11
5.4677798248
 21
3.8144221227
 31
0.0
  0
SPLINE
  5
539
100
AcDbEntity
  8
0
100
AcDbSpline
 62
7
  6
CONTINUOUS
 70
0
 71
3
 72
13
 73
9
 74
7
 42
0.0000001
 43
0.0000001
 44
0.0000000001
 12
0.0148053769
 22
-0.0029572478
 32
0.0
 13
0.0084019754
 23
-0.0125890571
 33
0.0
 40
0.0
 40
0.0
 40
0.0
 40
0.0
 40
0.2401770386
 40
0.4497996856
 40
0.6327433708
 40
0.7956368427
 40
0.9497617099
 40
1.0
 40
1.0
 40
1.0
 40
1.0
 10
5.5761731708
 20
4.4656516612
 30
0.0
 10
5.5773584747
 20
4.4654149069
 30
0.0
 10
5.5795717803
 20
4.4649351104
 30
0.0
 10
5.582633097
 20
4.4640437647
 30
0.0
 10
5.585219405
 20
4.4629602218
 30
0.0
 10
5.5873616991
 20
4.4616119292
 30
0.0
 10
5.5886894959
 20
4.4603015926
 30
0.0
 10
5.5892952945
 20
4.4594666023
 30
0.0
 10
5.5894359948
 20
4.4592557847
 30
0.0
 11
5.5761731708
 21
4.4656516612
 31
0.0
 11
5.5797115496
 21
4.4648586568
 31
0.0
 11
5.5827418013
 21
4.4639455121
 31
0.0
 11
5.5852768349
 21
4.462848908
 31
0.0
 11
5.5873432378
 21
4.4615153703
 31
0.0
 11
5.588989408
 21
4.4598707349
 31
0.0
 11
5.5894359948
 21
4.4592557847
 31
0.0
  0
SPLINE
  5
53A
100
AcDbEntity
  8
0
100
AcDbSpline
 62
7
  6
CONTINUOUS
 70
0
 71
3
 72
14
 73
10
 74
8
 42
0.0000001
 43
0.0000001
 44
0.0000000001
 12
-0.099961
 22
0.0000149551
 32
0.0
 13
-0.0
 23
0.0997260868
 33
0.0
 40
0.0
 40
0.0
 40
0.0
 40
0.0
 40
0.1064077364
 40
0.2612498169
 40
0.4142298027
 40
0.5658616148
 40
0.7133637184
 40
0.858359572
 40
1.0
 40
1.0
 40
1.0
 40
1.0
 10
5.5329519968
 20
4.0551182469
 30
0.0
 10
5.5294064556
 20
4.0551187774
 30
0.0
 10
5.5207016116
 20
4.0558639
 30
0.0
 10
5.5073726465
 20
4.0597858661
 30
0.0
 10
5.4939513858
 20
4.0673378833
 30
0.0
 10
5.4827180055
 20
4.0775143177
 30
0.0
 10
5.4742283466
 20
4.0897563914
 30
0.0
 10
5.4689687734
 20
4.1033412936
 30
0.0
 10
5.4677798248
 20
4.1129097674
 30
0.0
 10
5.4677798248
 20
4.1176181826
 30
0.0
 11
5.5329519968
 21
4.0551182469
 31
0.0
 11
5.5223649512
 21
4.0560124943
 31
0.0
 11
5.5075437775
 21
4.060346296
 31
0.0
 11
5.4942473592
 21
4.0678265168
 31
0.0
 11
5.4830559032
 21
4.0779958595
 31
0.0
 11
5.4747011419
 21
4.0901027336
 31
0.0
 11
5.4695124774
 21
4.1035996064
 31
0.0
 11
5.4677798248
 21
4.1176181826
 31
0.0
  0
SPLINE
  5
53B
100
AcDbEntity
  8
0
100
AcDbSpline
 62
7
  6
CONTINUOUS
 70
0
 71
3
 72
18
 73
14
 74
12
 42
0.0000001
 43
0.0000001
 44
0.0000000001
 12
0.0
 22
0.1249361759
 32
0.0
 13
0.1225160872
 23
-0.0244715435
 33
0.0
 40
0.0
 40
0.0
 40
0.0
 40
0.0
 40
0.058704546
 40
0.1307715914
 40
0.2164377237
 40
0.313208649
 40
0.4117883738
 40
0.513230659
 40
0.6216651862
 40
0.7296674969
 40
0.8314146253
 40
0.9222841399
 40
1.0
 40
1.0
 40
1.0
 40
1.0
 10
5.4677798248
 20
4.4208142425
 30
0.0
 10
5.4677798248
 20
4.4232590163
 30
0.0
 10
5.4692646321
 20
4.4287234639
 30
0.0
 10
5.4748570491
 20
4.4359622617
 30
0.0
 10
5.4831454239
 20
4.4426582342
 30
0.0
 10
5.4932816854
 20
4.4485682442
 30
0.0
 10
5.5045454327
 20
4.4536913189
 30
0.0
 10
5.5166183825
 20
4.4581096842
 30
0.0
 10
5.5293361127
 20
4.461820785
 30
0.0
 10
5.5422881735
 20
4.4646686278
 30
0.0
 10
5.5547012336
 20
4.4664189701
 30
0.0
 10
5.5659662503
 20
4.4669129886
 30
0.0
 10
5.5729993564
 20
4.4662856036
 30
0.0
 10
5.5761731708
 20
4.4656516612
 30
0.0
 11
5.4677798248
 21
4.4208142425
 31
0.0
 11
5.4694946151
 21
4.4279452849
 31
0.0
 11
5.4747272117
 21
4.4352724949
 31
0.0
 11
5.4829246954
 21
4.4421537132
 31
0.0
 11
5.4933066404
 21
4.44834951
 31
0.0
 11
5.5044945289
 21
4.4534991982
 31
0.0
 11
5.5163872759
 21
4.4578796159
 31
0.0
 11
5.5293913313
 21
4.4616778339
 31
0.0
 11
5.5425753573
 21
4.4645506694
 31
0.0
 11
5.5551707741
 21
4.4662675864
 31
0.0
 11
5.5665166974
 21
4.4666652417
 31
0.0
 11
5.5761731708
 21
4.4656516612
 31
0.0
  0
SPLINE
  5
53C
100
AcDbEntity
  8
0
100
AcDbSpline
 62
7
  6
CONTINUOUS
 70
0
 71
3
 72
14
 73
10
 74
8
 42
0.0000001
 43
0.0000001
 44
0.0000000001
 12
0.0
 22
0.0997213182
 32
0.0
 13
0.0999546015
 23
0.0000223697
 33
0.0
 40
0.0
 40
0.0
 40
0.0
 40
0.0
 40
0.1434149458
 40
0.2897755286
 40
0.4372708722
 40
0.5885239887
 40
0.7403084987
 40
0.8940571391
 40
1.0
 40
1.0
 40
1.0
 40
1.0
 10
5.4677798248
 20
4.1176181826
 30
0.0
 10
5.4677798248
 20
4.1223853584
 30
0.0
 10
5.468997168
 20
4.1320591786
 30
0.0
 10
5.4743521409
 20
4.1457215547
 30
0.0
 10
5.4829200698
 20
4.1579475285
 30
0.0
 10
5.4941571608
 20
4.1680385307
 30
0.0
 10
5.5075213718
 20
4.1755036886
 30
0.0
 10
5.52076521
 20
4.1793793476
 30
0.0
 10
5.5294174704
 20
4.1801173314
 30
0.0
 10
5.5329472959
 20
4.1801181213
 30
0.0
 11
5.4677798248
 21
4.1176181826
 31
0.0
 11
5.4695558417
 21
4.1318090054
 31
0.0
 11
5.4748487252
 21
4.1454107442
 31
0.0
 11
5.4832622801
 21
4.157475155
 31
0.0
 11
5.4944696829
 21
4.1675695021
 31
0.0
 11
5.5076847771
 21
4.1749494997
 31
0.0
 11
5.5224068712
 21
4.1792309358
 31
0.0
 11
5.5329472959
 21
4.1801181213
 31
0.0
  0
SPLINE
  5
53D
100
AcDbEntity
  8
126-401_HEX_FEATURES
100
AcDbSpline
 62
7
  6
CONTINUOUS
 70
0
 71
3
 72
13
 73
9
 74
7
 42
0.0000001
 43
0.0000001
 44
0.0000000001
 12
0.0
 22
-0.033224094
 32
0.0
 13
-0.0332213925
 23
-0.0004236731
 33
0.0
 40
0.0
 40
0.0
 40
0.0
 40
0.0
 40
0.1415860271
 40
0.284720741
 40
0.4402536414
 40
0.6083820067
 40
0.7937344813
 40
1.0
 40
1.0
 40
1.0
 40
1.0
 10
5.314438218
 20
4.1176181826
 30
0.0
 10
5.314438218
 20
4.1160501601
 30
0.0
 10
5.3137870937
 20
4.112869452
 30
0.0
 10
5.311155549
 20
4.1086747769
 30
0.0
 10
5.3072576965
 20
4.1051942978
 30
0.0
 10
5.3022727471
 20
4.1024748289
 30
0.0
 10
5.2963177041
 20
4.1006278881
 30
0.0
 10
5.2919736233
 20
4.1001501615
 30
0.0
 10
5.2896894807
 20
4.1001210318
 30
0.0
 11
5.314438218
 21
4.1176181826
 31
0.0
 11
5.3135307983
 21
4.1130024659
 31
0.0
 11
5.3110668853
 21
4.1089350203
 31
0.0
 11
5.3072550124
 21
4.1054461726
 31
0.0
 11
5.3023738179
 21
4.1027302271
 31
0.0
 11
5.2965003815
 21
4.1008793412
 31
0.0
 11
5.2896894807
 21
4.1001210318
 31
0.0
  0
SPLINE
  5
53E
100
AcDbEntity
  8
126-401_HEX_FEATURES
100
AcDbSpline
 62
7
  6
CONTINUOUS
 70
0
 71
3
 72
14
 73
10
 74
8
 42
0.0000001
 43
0.0000001
 44
0.0000000001
 12
0.0332405925
 22
-0.0004239179
 32
0.0
 13
0.0
 23
-0.0332432955
 33
0.0
 40
0.0
 40
0.0
 40
0.0
 40
0.0
 40
0.1522989098
 40
0.3051841562
 40
0.4537041984
 40
0.595209323
 40
0.7317050071
 40
0.8636766673
 40
1.0
 40
1.0
 40
1.0
 40
1.0
 10
5.2896894807
 20
4.1351153334
 30
0.0
 10
5.2913769827
 20
4.1350938126
 30
0.0
 10
5.2947603905
 20
4.134806931
 30
0.0
 10
5.2996723177
 20
4.1336520549
 30
0.0
 10
5.3042364341
 20
4.13178671
 30
0.0
 10
5.3082539448
 20
4.1292444929
 30
0.0
 10
5.3115320931
 20
4.1260391064
 30
0.0
 10
5.3138485125
 20
4.1221267363
 30
0.0
 10
5.314438218
 20
4.1191287949
 30
0.0
 10
5.314438218
 20
4.1176181826
 30
0.0
 11
5.2896894807
 21
4.1351153334
 31
0.0
 11
5.2947341164
 21
4.1346854659
 31
0.0
 11
5.2996791385
 21
4.1335117361
 31
0.0
 11
5.3042413686
 21
4.1316241595
 31
0.0
 11
5.3081986177
 21
4.1290807946
 31
0.0
 11
5.3114104905
 21
4.125875583
 31
0.0
 11
5.3135948127
 21
4.1220708461
 31
0.0
 11
5.314438218
 21
4.1176181826
 31
0.0
  0
ENDSEC
  0
SECTION
  2
OBJECTS
  0
DICTIONARY
  5
C
100
AcDbDictionary
280
0
281
1
  3
ACAD_GROUP
350
D
  3
ACAD_MLINESTYLE
350
17
  3
ACAD_LAYOUT
350
1A
  3
ACAD_PLOTSETTINGS
350
19
  3
ACAD_PLOTSTYLENAME
350
E
  0
DICTIONARY
  5
D
102
{ACAD_REACTORS
330
C
102
}
100
AcDbDictionary
280
0
281
1
  0
ACDBDICTIONARYWDFLT
  5
E
102
{ACAD_REACTORS
330
C
102
}
100
AcDbDictionary
281
1
  3
Normal
350
F
100
AcDbDictionaryWithDefault
340
F
  0
DICTIONARY
  5
17
102
{ACAD_REACTORS
330
C
102
}
100
AcDbDictionary
280
0
281
1
  3
Standard
350
18
  0
DICTIONARY
  5
19
102
{ACAD_REACTORS
330
C
102
}
100
AcDbDictionary
281
1
  0
DICTIONARY
  5
1A
102
{ACAD_REACTORS
330
C
102
}
100
AcDbDictionary
281
1
  3
Layout1
350
1E
  3
Model
350
22
  0
ACDBPLACEHOLDER
  5
F
102
{ACAD_REACTORS
330
E
102
}
  0
MLINESTYLE
  5
18
102
{ACAD_REACTORS
330
17
102
}
100
AcDbMlineStyle
  2
STANDARD
 70
0
  3

 62
256
 51
90.0
 52
90.0
 71
2
 49
0.5
 62
256
  6
BYLAYER
 49
-0.5
 62
256
  6
BYLAYER
  0
LAYOUT
  5
1E
102
{ACAD_REACTORS
330
1A
102
}
100
AcDbPlotSettings
  1

  2

  4

  6

 40
0.0
 41
0.0
 42
0.0
 43
0.0
 44
0.0
 45
0.0
 46
0.0
 47
0.0
 48
0.0
 49
0.0
140
0.0
141
0.0
142
1.0
143
1.0
 70
0
 72
0
 73
0
 74
0
  7

 75
0
147
1.0
148
0.0
149
0.0
100
AcDbLayout
  1
Layout1
 70
0
 71
0
 10
0.0
 20
0.0
 11
0.0
 21
0.0
 12
0.0
 22
0.0
 32
0.0
 14
0.0
 24
0.0
 34
0.0
 15
0.0
 25
0.0
 35
0.0
146
0.0
 13
0.0
 23
0.0
 33
0.0
 16
0.0
 26
0.0
 36
0.0
 17
0.0
 27
0.0
 37
0.0
 76
0
330
1B
331
0
345
0
346
0
  0
LAYOUT
  5
22
102
{ACAD_REACTORS
330
1A
102
}
100
AcDbPlotSettings
  1

  2

  4

  6

 40
0.0
 41
0.0
 42
0.0
 43
0.0
 44
0.0
 45
0.0
 46
0.0
 47
0.0
 48
0.0
 49
0.0
140
0.0
141
0.0
142
1.0
143
1.0
 70
0
 72
0
 73
0
 74
0
  7

 75
0
147
1.0
148
0.0
149
0.0
100
AcDbLayout
  1
Model
 70
0
 71
0
 10
0.0
 20
0.0
 11
0.0
 21
0.0
 12
0.0
 22
0.0
 32
0.0
 14
0.0
 24
0.0
 34
0.0
 15
0.0
 25
0.0
 35
0.0
146
0.0
 13
0.0
 23
0.0
 33
0.0
 16
0.0
 26
0.0
 36
0.0
 17
0.0
 27
0.0
 37
0.0
 76
0
330
1F
331
0
345
0
346
0
  0
ENDSEC
  0
EOF
