999
DXF file: PBJB-LAN.dxf
999
Pro/ENGINEER 2006240 by Parametric Technology Corporation
  0
SECTION
  2
HEADER
  9
$ACADVER
  1
AC1015
  9
$DWGCODEPAGE
  3
ANSI_1252
  9
$EXTMAX
 10
11.6929133858
 20
8.2677165354
 30
0.0
  9
$EXTMIN
 10
0.0
 20
0.0
 30
0.0
  9
$LIMMIN
 10
0.0
 20
0.0
  9
$LIMMAX
 10
11.6929133858
 20
8.2677165354
  9
$VIEWCTR
 10
5.8464566929
 20
4.1338582677
  9
$VIEWSIZE
 40
8.2677165354
  9
$CLAYER
  8
0
  9
$LTSCALE
 40
0.6431102362
  9
$CELTYPE
  6
BYLAYER
  9
$DIMSCALE
 40
1.0
  9
$DIMASZ
 40
0.1875
  9
$DIMEXO
 40
0.0730807087
  9
$DIMDLI
 40
0.4443307087
  9
$DIMEXE
 40
0.2104724409
  9
$DIMCEN
 40
0.1052362205
  9
$DIMLFAC
 40
1.0
  9
$DIMBLK
  1
_CLOSED
  9
$DIMTXT
 40
0.15625
  9
$DIMTOL
 70
0
  9
$DIMLIM
 70
0
  9
$DIMTFAC
 40
1.0
  9
$PDMODE
 70
3
  9
$PDSIZE
 40
0.3125
  9
$HANDSEED
  5
545
  9
$MEASUREMENT
 70
0
  9
$INSUNITS
 70
1
  0
ENDSEC
  0
SECTION
  2
CLASSES
  0
CLASS
  1
ACDBDICTIONARYWDFLT
  2
AcDbDictionaryWithDefault
  3
AutoCAD 2000
 90
0
280
0
281
0
  0
CLASS
  1
ACDBPLACEHOLDER
  2
AcDbPlaceHolder
  3
AutoCAD 2000
 90
0
280
0
281
0
  0
CLASS
  1
LAYOUT
  2
AcDbLayout
  3
AutoCAD 2000
 90
0
280
0
281
0
  0
ENDSEC
  0
SECTION
  2
TABLES
  0
TABLE
  2
VPORT
  5
8
100
AcDbSymbolTable
 70
2
  0
VPORT
  5
1F4
100
AcDbSymbolTableRecord
100
AcDbViewportTableRecord
  2
*ACTIVE
 70
0
 10
0.0
 20
0.0
 11
1.0
 21
1.0
 12
5.8464566929
 22
4.1338582677
 13
0.0
 23
0.0
 14
1.0
 24
1.0
 15
0.0
 25
0.0
 16
0.0
 26
0.0
 36
1.0
 17
0.0
 27
0.0
 37
0.0
 40
8.2677165354
 41
1.4142857143
 42
50.0
 43
0.0
 44
0.0
 50
0.0
 51
0.0
 71
0
 72
100
 73
1
 74
1
 75
0
 76
0
 77
0
 78
0
  0
ENDTAB
  0
TABLE
  2
LTYPE
  5
5
100
AcDbSymbolTable
 70
6
  0
LTYPE
  5
14
100
AcDbSymbolTableRecord
100
AcDbLinetypeTableRecord
  2
BYBLOCK
 70
0
  3

 72
65
 73
0
 40
0.0
  0
LTYPE
  5
15
100
AcDbSymbolTableRecord
100
AcDbLinetypeTableRecord
  2
BYLAYER
 70
0
  3

 72
65
 73
0
 40
0.0
  0
LTYPE
  5
16
100
AcDbSymbolTableRecord
100
AcDbLinetypeTableRecord
  2
CONTINUOUS
 70
64
  3
Solid line
 72
65
 73
0
 40
0.0
  0
LTYPE
  5
1F5
100
AcDbSymbolTableRecord
100
AcDbLinetypeTableRecord
  2
CENTER
 70
64
  3
____ _ ____ _ ____ _ ____ _ ____ _ ____ _ ____
 72
65
 73
4
 40
0.6
 49
0.375
 74
0
 49
-0.075
 74
0
 49
0.075
 74
0
 49
-0.075
 74
0
  0
LTYPE
  5
1F6
100
AcDbSymbolTableRecord
100
AcDbLinetypeTableRecord
  2
HIDDEN
 70
64
  3
- - - - - - - - - - - - - - - - - - - -
 72
65
 73
2
 40
0.2
 49
0.1
 74
0
 49
-0.1
 74
0
  0
LTYPE
  5
1F7
100
AcDbSymbolTableRecord
100
AcDbLinetypeTableRecord
  2
PHANTOM
 70
64
  3
_____ _ _ _____ _ _ _____ _ _ _____
 72
65
 73
6
 40
0.8
 49
0.45
 74
0
 49
-0.05
 74
0
 49
0.1
 74
0
 49
-0.05
 74
0
 49
0.1
 74
0
 49
-0.05
 74
0
  0
LTYPE
  5
1F8
100
AcDbSymbolTableRecord
100
AcDbLinetypeTableRecord
  2
DOT
 70
64
  3
. . . . . . . . . . . . . . . . . . . .
 72
65
 73
2
 40
0.2
 49
0.1
 74
0
 49
-0.1
 74
0
  0
LTYPE
  5
1F9
100
AcDbSymbolTableRecord
100
AcDbLinetypeTableRecord
  2
DASHED
 70
64
  3
- - - - - - - - - - - - - - - - - - - -
 72
65
 73
2
 40
0.2
 49
0.1
 74
0
 49
-0.1
 74
0
  0
ENDTAB
  0
TABLE
  2
LAYER
  5
2
100
AcDbSymbolTable
 70
36
  0
LAYER
  5
10
100
AcDbSymbolTableRecord
100
AcDbLayerTableRecord
  2
0
 70
0
 62
7
  6
CONTINUOUS
370
-3
390
F
  0
LAYER
  5
1FA
100
AcDbSymbolTableRecord
100
AcDbLayerTableRecord
  2
DEFAULT_1
 70
0
 62
7
  6
CENTER
370
-3
390
F
  0
LAYER
  5
1FB
100
AcDbSymbolTableRecord
100
AcDbLayerTableRecord
  2
DEFAULT_2
 70
0
 62
8
  6
HIDDEN
370
-3
390
F
  0
LAYER
  5
1FC
100
AcDbSymbolTableRecord
100
AcDbLayerTableRecord
  2
DEFAULT_3
 70
0
 62
7
  6
PHANTOM
370
-3
390
F
  0
LAYER
  5
1FD
100
AcDbSymbolTableRecord
100
AcDbLayerTableRecord
  2
_BLACK_HOLE
 70
0
 62
7
  6
CONTINUOUS
370
-3
390
F
  0
LAYER
  5
1FE
100
AcDbSymbolTableRecord
100
AcDbLayerTableRecord
  2
01_ALL_DTM_PLN
 70
0
 62
7
  6
CONTINUOUS
370
-3
390
F
  0
LAYER
  5
1FF
100
AcDbSymbolTableRecord
100
AcDbLayerTableRecord
  2
01__ASM_ALL_DTM_PLN
 70
0
 62
7
  6
CONTINUOUS
370
-3
390
F
  0
LAYER
  5
200
100
AcDbSymbolTableRecord
100
AcDbLayerTableRecord
  2
01__ASM_DEF_DTM_PLN
 70
0
 62
7
  6
CONTINUOUS
370
-3
390
F
  0
LAYER
  5
201
100
AcDbSymbolTableRecord
100
AcDbLayerTableRecord
  2
01___PRT_ALL_DTM_PLN
 70
0
 62
7
  6
CONTINUOUS
370
-3
390
F
  0
LAYER
  5
202
100
AcDbSymbolTableRecord
100
AcDbLayerTableRecord
  2
01___PRT_DEF_DTM_PLN
 70
0
 62
7
  6
CONTINUOUS
370
-3
390
F
  0
LAYER
  5
203
100
AcDbSymbolTableRecord
100
AcDbLayerTableRecord
  2
02_ALL_AXES
 70
0
 62
7
  6
CONTINUOUS
370
-3
390
F
  0
LAYER
  5
204
100
AcDbSymbolTableRecord
100
AcDbLayerTableRecord
  2
02__ASM_ALL_AXES
 70
0
 62
7
  6
CONTINUOUS
370
-3
390
F
  0
LAYER
  5
205
100
AcDbSymbolTableRecord
100
AcDbLayerTableRecord
  2
02___PRT_ALL_AXES
 70
0
 62
7
  6
CONTINUOUS
370
-3
390
F
  0
LAYER
  5
206
100
AcDbSymbolTableRecord
100
AcDbLayerTableRecord
  2
03_ALL_CURVES
 70
0
 62
7
  6
CONTINUOUS
370
-3
390
F
  0
LAYER
  5
207
100
AcDbSymbolTableRecord
100
AcDbLayerTableRecord
  2
03__ASM_ALL_CURVES
 70
0
 62
7
  6
CONTINUOUS
370
-3
390
F
  0
LAYER
  5
208
100
AcDbSymbolTableRecord
100
AcDbLayerTableRecord
  2
03___PRT_ALL_CURVES
 70
0
 62
7
  6
CONTINUOUS
370
-3
390
F
  0
LAYER
  5
209
100
AcDbSymbolTableRecord
100
AcDbLayerTableRecord
  2
04_ALL_DTM_PNT
 70
0
 62
7
  6
CONTINUOUS
370
-3
390
F
  0
LAYER
  5
20A
100
AcDbSymbolTableRecord
100
AcDbLayerTableRecord
  2
04__ASM_ALL_DTM_PNT
 70
0
 62
7
  6
CONTINUOUS
370
-3
390
F
  0
LAYER
  5
20B
100
AcDbSymbolTableRecord
100
AcDbLayerTableRecord
  2
04___PRT_ALL_DTM_PNT
 70
0
 62
7
  6
CONTINUOUS
370
-3
390
F
  0
LAYER
  5
20C
100
AcDbSymbolTableRecord
100
AcDbLayerTableRecord
  2
05_ALL_DTM_CSYS
 70
0
 62
7
  6
CONTINUOUS
370
-3
390
F
  0
LAYER
  5
20D
100
AcDbSymbolTableRecord
100
AcDbLayerTableRecord
  2
05__ASM_ALL_DTM_CSYS
 70
0
 62
7
  6
CONTINUOUS
370
-3
390
F
  0
LAYER
  5
20E
100
AcDbSymbolTableRecord
100
AcDbLayerTableRecord
  2
05__ASM_DEF_DTM_CSYS
 70
0
 62
7
  6
CONTINUOUS
370
-3
390
F
  0
LAYER
  5
20F
100
AcDbSymbolTableRecord
100
AcDbLayerTableRecord
  2
05___PRT_ALL_DTM_CSYS
 70
0
 62
7
  6
CONTINUOUS
370
-3
390
F
  0
LAYER
  5
210
100
AcDbSymbolTableRecord
100
AcDbLayerTableRecord
  2
05___PRT_DEF_DTM_CSYS
 70
0
 62
7
  6
CONTINUOUS
370
-3
390
F
  0
LAYER
  5
211
100
AcDbSymbolTableRecord
100
AcDbLayerTableRecord
  2
06_ALL_SURFS
 70
0
 62
7
  6
CONTINUOUS
370
-3
390
F
  0
LAYER
  5
212
100
AcDbSymbolTableRecord
100
AcDbLayerTableRecord
  2
06__ASM_ALL_SURFS
 70
0
 62
7
  6
CONTINUOUS
370
-3
390
F
  0
LAYER
  5
213
100
AcDbSymbolTableRecord
100
AcDbLayerTableRecord
  2
06___PRT_ALL_SURFS
 70
0
 62
7
  6
CONTINUOUS
370
-3
390
F
  0
LAYER
  5
214
100
AcDbSymbolTableRecord
100
AcDbLayerTableRecord
  2
07__ASM_ALL_SKELETONS
 70
0
 62
7
  6
CONTINUOUS
370
-3
390
F
  0
LAYER
  5
215
100
AcDbSymbolTableRecord
100
AcDbLayerTableRecord
  2
129-001_FEATURES
 70
0
 62
7
  6
CONTINUOUS
370
-3
390
F
  0
LAYER
  5
216
100
AcDbSymbolTableRecord
100
AcDbLayerTableRecord
  2
129-001_REF_GEOMETRY
 70
0
 62
7
  6
CONTINUOUS
370
-3
390
F
  0
LAYER
  5
217
100
AcDbSymbolTableRecord
100
AcDbLayerTableRecord
  2
129-004_FEATURES
 70
0
 62
7
  6
CONTINUOUS
370
-3
390
F
  0
LAYER
  5
218
100
AcDbSymbolTableRecord
100
AcDbLayerTableRecord
  2
129-004_REF_GEOMETRY
 70
0
 62
7
  6
CONTINUOUS
370
-3
390
F
  0
LAYER
  5
219
100
AcDbSymbolTableRecord
100
AcDbLayerTableRecord
  2
129-400_FEATURES
 70
0
 62
7
  6
CONTINUOUS
370
-3
390
F
  0
LAYER
  5
21A
100
AcDbSymbolTableRecord
100
AcDbLayerTableRecord
  2
129-400_REF_GEOMETRY
 70
0
 62
7
  6
CONTINUOUS
370
-3
390
F
  0
LAYER
  5
21B
100
AcDbSymbolTableRecord
100
AcDbLayerTableRecord
  2
129-401_FEATURES
 70
0
 62
7
  6
CONTINUOUS
370
-3
390
F
  0
LAYER
  5
21C
100
AcDbSymbolTableRecord
100
AcDbLayerTableRecord
  2
129-401_REF_GEOMETRY
 70
0
 62
7
  6
CONTINUOUS
370
-3
390
F
  0
LAYER
  5
21D
100
AcDbSymbolTableRecord
100
AcDbLayerTableRecord
  2
129-402_FEATURES
 70
0
 62
7
  6
CONTINUOUS
370
-3
390
F
  0
LAYER
  5
21E
100
AcDbSymbolTableRecord
100
AcDbLayerTableRecord
  2
129-402_REF_GEOMETRY
 70
0
 62
7
  6
CONTINUOUS
370
-3
390
F
  0
LAYER
  5
21F
100
AcDbSymbolTableRecord
100
AcDbLayerTableRecord
  2
129-403_FEATURES
 70
0
 62
7
  6
CONTINUOUS
370
-3
390
F
  0
LAYER
  5
220
100
AcDbSymbolTableRecord
100
AcDbLayerTableRecord
  2
129-403_REF_GEOMETRY
 70
0
 62
7
  6
CONTINUOUS
370
-3
390
F
  0
LAYER
  5
221
100
AcDbSymbolTableRecord
100
AcDbLayerTableRecord
  2
129-405_FEATURES
 70
0
 62
7
  6
CONTINUOUS
370
-3
390
F
  0
LAYER
  5
222
100
AcDbSymbolTableRecord
100
AcDbLayerTableRecord
  2
129-405_REF_GEOMETRY
 70
0
 62
7
  6
CONTINUOUS
370
-3
390
F
  0
LAYER
  5
223
100
AcDbSymbolTableRecord
100
AcDbLayerTableRecord
  2
129-406_FEATURES
 70
0
 62
7
  6
CONTINUOUS
370
-3
390
F
  0
LAYER
  5
224
100
AcDbSymbolTableRecord
100
AcDbLayerTableRecord
  2
129-406_REF_GEOMETRY
 70
0
 62
7
  6
CONTINUOUS
370
-3
390
F
  0
LAYER
  5
225
100
AcDbSymbolTableRecord
100
AcDbLayerTableRecord
  2
129-407_FEATURES
 70
0
 62
7
  6
CONTINUOUS
370
-3
390
F
  0
LAYER
  5
226
100
AcDbSymbolTableRecord
100
AcDbLayerTableRecord
  2
129-407_REF_GEOMETRY
 70
0
 62
7
  6
CONTINUOUS
370
-3
390
F
  0
LAYER
  5
227
100
AcDbSymbolTableRecord
100
AcDbLayerTableRecord
  2
COPY_GEO_FET
 70
0
 62
7
  6
CONTINUOUS
370
-3
390
F
  0
LAYER
  5
228
100
AcDbSymbolTableRecord
100
AcDbLayerTableRecord
  2
COSMETIC
 70
0
 62
7
  6
CONTINUOUS
370
-3
390
F
  0
LAYER
  5
229
100
AcDbSymbolTableRecord
100
AcDbLayerTableRecord
  2
COSM_REF
 70
0
 62
7
  6
CONTINUOUS
370
-3
390
F
  0
LAYER
  5
22A
100
AcDbSymbolTableRecord
100
AcDbLayerTableRecord
  2
CURVES
 70
0
 62
7
  6
CONTINUOUS
370
-3
390
F
  0
LAYER
  5
22B
100
AcDbSymbolTableRecord
100
AcDbLayerTableRecord
  2
CUT_REF_SURF
 70
0
 62
7
  6
CONTINUOUS
370
-3
390
F
  0
LAYER
  5
22C
100
AcDbSymbolTableRecord
100
AcDbLayerTableRecord
  2
DATUM
 70
0
 62
7
  6
CONTINUOUS
370
-3
390
F
  0
LAYER
  5
22D
100
AcDbSymbolTableRecord
100
AcDbLayerTableRecord
  2
DATUMCURVES
 70
0
 62
7
  6
CONTINUOUS
370
-3
390
F
  0
LAYER
  5
22E
100
AcDbSymbolTableRecord
100
AcDbLayerTableRecord
  2
DATUM_ADDED_280-022
 70
0
 62
7
  6
CONTINUOUS
370
-3
390
F
  0
LAYER
  5
22F
100
AcDbSymbolTableRecord
100
AcDbLayerTableRecord
  2
DATUM_PLANES
 70
0
 62
7
  6
CONTINUOUS
370
-3
390
F
  0
LAYER
  5
230
100
AcDbSymbolTableRecord
100
AcDbLayerTableRecord
  2
DIMENSIONS
 70
0
 62
7
  6
CONTINUOUS
370
-3
390
F
  0
LAYER
  5
231
100
AcDbSymbolTableRecord
100
AcDbLayerTableRecord
  2
DRAWINGNOTES
 70
0
 62
7
  6
CONTINUOUS
370
-3
390
F
  0
LAYER
  5
232
100
AcDbSymbolTableRecord
100
AcDbLayerTableRecord
  2
DTM
 70
0
 62
7
  6
CONTINUOUS
370
-3
390
F
  0
LAYER
  5
233
100
AcDbSymbolTableRecord
100
AcDbLayerTableRecord
  2
DTM230
 70
0
 62
7
  6
CONTINUOUS
370
-3
390
F
  0
LAYER
  5
234
100
AcDbSymbolTableRecord
100
AcDbLayerTableRecord
  2
DTM_280-022
 70
0
 62
7
  6
CONTINUOUS
370
-3
390
F
  0
LAYER
  5
235
100
AcDbSymbolTableRecord
100
AcDbLayerTableRecord
  2
DTM_500001
 70
0
 62
7
  6
CONTINUOUS
370
-3
390
F
  0
LAYER
  5
236
100
AcDbSymbolTableRecord
100
AcDbLayerTableRecord
  2
DTM_500002
 70
0
 62
7
  6
CONTINUOUS
370
-3
390
F
  0
LAYER
  5
237
100
AcDbSymbolTableRecord
100
AcDbLayerTableRecord
  2
DTM_515002
 70
0
 62
7
  6
CONTINUOUS
370
-3
390
F
  0
LAYER
  5
238
100
AcDbSymbolTableRecord
100
AcDbLayerTableRecord
  2
DTM_530-102
 70
0
 62
7
  6
CONTINUOUS
370
-3
390
F
  0
LAYER
  5
239
100
AcDbSymbolTableRecord
100
AcDbLayerTableRecord
  2
DTM_700-003
 70
0
 62
7
  6
CONTINUOUS
370
-3
390
F
  0
LAYER
  5
23A
100
AcDbSymbolTableRecord
100
AcDbLayerTableRecord
  2
DTM_800001
 70
0
 62
7
  6
CONTINUOUS
370
-3
390
F
  0
LAYER
  5
23B
100
AcDbSymbolTableRecord
100
AcDbLayerTableRecord
  2
DTM_BALLHOLDER
 70
0
 62
7
  6
CONTINUOUS
370
-3
390
F
  0
LAYER
  5
23C
100
AcDbSymbolTableRecord
100
AcDbLayerTableRecord
  2
DTM_SPRING_RH
 70
0
 62
7
  6
CONTINUOUS
370
-3
390
F
  0
LAYER
  5
23D
100
AcDbSymbolTableRecord
100
AcDbLayerTableRecord
  2
DTM_SP_RH_CONSTR
 70
0
 62
7
  6
CONTINUOUS
370
-3
390
F
  0
LAYER
  5
23E
100
AcDbSymbolTableRecord
100
AcDbLayerTableRecord
  2
FACE1
 70
0
 62
7
  6
CONTINUOUS
370
-3
390
F
  0
LAYER
  5
23F
100
AcDbSymbolTableRecord
100
AcDbLayerTableRecord
  2
FACE2
 70
0
 62
7
  6
CONTINUOUS
370
-3
390
F
  0
LAYER
  5
240
100
AcDbSymbolTableRecord
100
AcDbLayerTableRecord
  2
FACE3
 70
0
 62
7
  6
CONTINUOUS
370
-3
390
F
  0
LAYER
  5
241
100
AcDbSymbolTableRecord
100
AcDbLayerTableRecord
  2
FACE4
 70
0
 62
7
  6
CONTINUOUS
370
-3
390
F
  0
LAYER
  5
242
100
AcDbSymbolTableRecord
100
AcDbLayerTableRecord
  2
GEOMETRICTOLERANCES
 70
0
 62
7
  6
CONTINUOUS
370
-3
390
F
  0
LAYER
  5
243
100
AcDbSymbolTableRecord
100
AcDbLayerTableRecord
  2
LAY0001
 70
0
 62
7
  6
CONTINUOUS
370
-3
390
F
  0
LAYER
  5
244
100
AcDbSymbolTableRecord
100
AcDbLayerTableRecord
  2
PARAMETERDIMENSIONS
 70
0
 62
7
  6
CONTINUOUS
370
-3
390
F
  0
LAYER
  5
245
100
AcDbSymbolTableRecord
100
AcDbLayerTableRecord
  2
PART
 70
0
 62
7
  6
CONTINUOUS
370
-3
390
F
  0
LAYER
  5
246
100
AcDbSymbolTableRecord
100
AcDbLayerTableRecord
  2
PLANE
 70
0
 62
7
  6
CONTINUOUS
370
-3
390
F
  0
LAYER
  5
247
100
AcDbSymbolTableRecord
100
AcDbLayerTableRecord
  2
PROTRUSIONS
 70
0
 62
7
  6
CONTINUOUS
370
-3
390
F
  0
LAYER
  5
248
100
AcDbSymbolTableRecord
100
AcDbLayerTableRecord
  2
S-164_NPTF_PORT
 70
0
 62
7
  6
CONTINUOUS
370
-3
390
F
  0
LAYER
  5
249
100
AcDbSymbolTableRecord
100
AcDbLayerTableRecord
  2
SUN_STD_SAE-4_PORT
 70
0
 62
7
  6
CONTINUOUS
370
-3
390
F
  0
LAYER
  5
24A
100
AcDbSymbolTableRecord
100
AcDbLayerTableRecord
  2
TEXT
 70
0
 62
7
  6
CONTINUOUS
370
-3
390
F
  0
LAYER
  5
24B
100
AcDbSymbolTableRecord
100
AcDbLayerTableRecord
  2
THREAD
 70
0
 62
7
  6
CONTINUOUS
370
-3
390
F
  0
LAYER
  5
24C
100
AcDbSymbolTableRecord
100
AcDbLayerTableRecord
  2
XSEC_DATUMS
 70
0
 62
7
  6
CONTINUOUS
370
-3
390
F
  0
ENDTAB
  0
TABLE
  2
STYLE
  5
3
100
AcDbSymbolTable
 70
1
  0
STYLE
  5
11
100
AcDbSymbolTableRecord
100
AcDbTextStyleTableRecord
  2
STANDARD
 70
0
 40
0.0
 41
0.8
 50
0.0
 71
0
 42
0.2
  3
txt
  4

  0
ENDTAB
  0
TABLE
  2
VIEW
  5
6
100
AcDbSymbolTable
 70
0
  0
ENDTAB
  0
TABLE
  2
UCS
  5
7
100
AcDbSymbolTable
 70
0
  0
ENDTAB
  0
TABLE
  2
APPID
  5
9
100
AcDbSymbolTable
 70
1
  0
APPID
  5
24D
100
AcDbSymbolTableRecord
100
AcDbRegAppTableRecord
  2
ACAD
 70
0
  0
ENDTAB
  0
TABLE
  2
BLOCK_RECORD
  5
1
100
AcDbSymbolTable
 70
0
  0
BLOCK_RECORD
  5
1F
100
AcDbSymbolTableRecord
100
AcDbBlockTableRecord
  2
*MODEL_SPACE
  0
BLOCK_RECORD
  5
1B
100
AcDbSymbolTableRecord
100
AcDbBlockTableRecord
  2
*PAPER_SPACE
  0
ENDTAB
  0
TABLE
  2
DIMSTYLE
  5
A
100
AcDbSymbolTable
 70
1
100
AcDbDimStyleTable
 71
0
  0
DIMSTYLE
105
24E
100
AcDbSymbolTableRecord
100
AcDbDimStyleTableRecord
  2
STANDARD
 70
0
  3

  4

 40
1.0
 41
0.1875
 42
0.0625
 43
0.38
 44
0.18
 45
0.0
 46
0.0
 47
0.01
 48
0.01
140
0.15625
141
0.09
142
0.0
143
25.4
144
1.0
145
0.0
146
1.0
147
0.09
 71
0.0
 72
0.0
 73
1
 74
1
 75
0
 76
0
 77
0
 78
4
170
0
171
2
172
0
173
0
174
0
175
0
176
0
177
0
178
0
270
2
271
2
272
2
273
2
274
2
275
0
280
0
281
0
282
0
283
1
284
4
285
0
286
0
287
3
288
0
340
11
  0
ENDTAB
  0
ENDSEC
  0
SECTION
  2
BLOCKS
  0
BLOCK
  5
20
100
AcDbEntity
  8
0
100
AcDbBlockBegin
  2
*MODEL_SPACE
 70
0
 10
0.0
 20
0.0
 30
0.0
  3
*MODEL_SPACE
  1

  0
ENDBLK
  5
21
100
AcDbEntity
  8
0
100
AcDbBlockEnd
  0
BLOCK
  5
1C
100
AcDbEntity
  8
0
100
AcDbBlockBegin
  2
*PAPER_SPACE
 70
0
 10
0.0
 20
0.0
 30
0.0
  3
*PAPER_SPACE
  1

  0
ENDBLK
  5
1D
100
AcDbEntity
  8
0
100
AcDbBlockEnd
  0
ENDSEC
  0
SECTION
  2
ENTITIES
  0
LINE
  5
24F
100
AcDbEntity
  8
0
100
AcDbLine
 62
7
  6
CONTINUOUS
 10
1.5174891997
 20
4.629157808
 11
1.5174891997
 21
4.3231715572
  0
LINE
  5
250
100
AcDbEntity
  8
03__ASM_ALL_CURVES
100
AcDbLine
 62
40
  6
CONTINUOUS
 10
1.5174891997
 20
4.629157808
 11
1.5174891997
 21
5.8430026826
  0
LINE
  5
251
100
AcDbEntity
  8
0
100
AcDbLine
 62
7
  6
CONTINUOUS
 10
1.5484891997
 20
4.6601646826
 11
1.5484891997
 21
4.2921646826
  0
LINE
  5
252
100
AcDbEntity
  8
03__ASM_ALL_CURVES
100
AcDbLine
 62
40
  6
CONTINUOUS
 10
1.7105991997
 20
5.8108176826
 11
1.7105991997
 21
5.7464476826
  0
LINE
  5
253
100
AcDbEntity
  8
0
100
AcDbLine
 62
7
  6
CONTINUOUS
 10
1.7474891997
 20
4.6601596673
 11
1.7474891997
 21
4.2921696979
  0
LINE
  5
254
100
AcDbEntity
  8
0
100
AcDbLine
 62
7
  6
CONTINUOUS
 10
1.7489891997
 20
4.3150216896
 11
1.7489891997
 21
4.5522882514
  0
LINE
  5
255
100
AcDbEntity
  8
0
100
AcDbLine
 62
7
  6
CONTINUOUS
 10
1.7839891997
 20
4.3150216896
 11
1.7839891997
 21
4.5522882514
  0
LINE
  5
256
100
AcDbEntity
  8
0
100
AcDbLine
 62
7
  6
CONTINUOUS
 10
1.7854891997
 20
4.6601596673
 11
1.7854891997
 21
4.2921696979
  0
LINE
  5
257
100
AcDbEntity
  8
0
100
AcDbLine
 62
7
  6
CONTINUOUS
 10
2.0184891997
 20
4.2285134975
 11
2.0184891997
 21
4.7238158677
  0
LINE
  5
258
100
AcDbEntity
  8
0
100
AcDbLine
 62
7
  6
CONTINUOUS
 10
2.0804891997
 20
4.2051646826
 11
2.0804891997
 21
4.7471646826
  0
LINE
  5
259
100
AcDbEntity
  8
0
100
AcDbLine
 62
7
  6
CONTINUOUS
 10
2.0864891997
 20
4.2051646826
 11
2.0864891997
 21
4.7471646826
  0
LINE
  5
25A
100
AcDbEntity
  8
0
100
AcDbLine
 62
7
  6
CONTINUOUS
 10
2.0919891997
 20
4.2106646826
 11
2.0919891997
 21
4.7416646826
  0
LINE
  5
25B
100
AcDbEntity
  8
0
100
AcDbLine
 62
7
  6
CONTINUOUS
 10
2.1079891997
 20
4.2106646826
 11
2.1079891997
 21
4.7416646826
  0
LINE
  5
25C
100
AcDbEntity
  8
0
100
AcDbLine
 62
7
  6
CONTINUOUS
 10
2.2994891997
 20
4.2051646826
 11
2.2994891997
 21
4.7471646826
  0
LINE
  5
25D
100
AcDbEntity
  8
0
100
AcDbLine
 62
7
  6
CONTINUOUS
 10
2.3304891997
 20
3.7571646826
 11
2.3304891997
 21
5.1951646826
  0
LINE
  5
25E
100
AcDbEntity
  8
0
100
AcDbLine
 62
7
  6
CONTINUOUS
 10
2.3924891997
 20
3.6951646826
 11
2.3924891997
 21
5.2571646826
  0
LINE
  5
25F
100
AcDbEntity
  8
03__ASM_ALL_CURVES
100
AcDbLine
 62
40
  6
CONTINUOUS
 10
2.7215954497
 20
5.9636964326
 11
2.7115376372
 21
5.9502860191
  0
LINE
  5
260
100
AcDbEntity
  8
03__ASM_ALL_CURVES
100
AcDbLine
 62
40
  6
CONTINUOUS
 10
2.7316532622
 20
5.8832339326
 11
2.7115376372
 21
5.8564130997
  0
LINE
  5
261
100
AcDbEntity
  8
03__ASM_ALL_CURVES
100
AcDbLine
 62
40
  6
CONTINUOUS
 10
2.7215954497
 20
5.9771068461
 11
2.7215954497
 21
5.9636964326
  0
LINE
  5
262
100
AcDbEntity
  8
03__ASM_ALL_CURVES
100
AcDbLine
 62
40
  6
CONTINUOUS
 10
2.7316532622
 20
5.8966443509
 11
2.7316532622
 21
5.8832339326
  0
LINE
  5
263
100
AcDbEntity
  8
03__ASM_ALL_CURVES
100
AcDbLine
 62
40
  6
CONTINUOUS
 10
2.9629829497
 20
5.9502860191
 11
2.9730407622
 21
5.9771068461
  0
LINE
  5
264
100
AcDbEntity
  8
03__ASM_ALL_CURVES
100
AcDbLine
 62
40
  6
CONTINUOUS
 10
3.0434454497
 20
5.9502860191
 11
3.0333876372
 21
5.9234651826
  0
LINE
  5
265
100
AcDbEntity
  8
03__ASM_ALL_CURVES
100
AcDbLine
 62
40
  6
CONTINUOUS
 10
3.0434454497
 20
5.8966443509
 11
3.0333876372
 21
5.8698235167
  0
LINE
  5
266
100
AcDbEntity
  8
03__ASM_ALL_CURVES
100
AcDbLine
 62
40
  6
CONTINUOUS
 10
2.9730407622
 20
5.9771068461
 11
2.9830985747
 21
5.9905172691
  0
LINE
  5
267
100
AcDbEntity
  8
03__ASM_ALL_CURVES
100
AcDbLine
 62
40
  6
CONTINUOUS
 10
3.0333876372
 20
5.8698235167
 11
3.0233298247
 21
5.8564130997
  0
LINE
  5
268
100
AcDbEntity
  8
03__ASM_ALL_CURVES
100
AcDbLine
 62
40
  6
CONTINUOUS
 10
3.2043704497
 20
5.9636964326
 11
3.1943126372
 21
5.9502860191
  0
LINE
  5
269
100
AcDbEntity
  8
0
100
AcDbLine
 62
7
  6
CONTINUOUS
 10
1.5174891997
 20
4.6291646826
 11
1.5484891997
 21
4.6601646826
  0
LINE
  5
26A
100
AcDbEntity
  8
0
100
AcDbLine
 62
7
  6
CONTINUOUS
 10
2.3924891997
 20
5.2571646826
 11
2.3304891997
 21
5.1951646826
  0
LINE
  5
26B
100
AcDbEntity
  8
03__ASM_ALL_CURVES
100
AcDbLine
 62
40
  6
CONTINUOUS
 10
2.6511907622
 20
5.9905172691
 11
2.6713063872
 21
6.0039276826
  0
LINE
  5
26C
100
AcDbEntity
  8
03__ASM_ALL_CURVES
100
AcDbLine
 62
40
  6
CONTINUOUS
 10
2.7115376372
 20
5.9502860191
 11
2.6914220122
 21
5.9368755961
  0
LINE
  5
26D
100
AcDbEntity
  8
03__ASM_ALL_CURVES
100
AcDbLine
 62
40
  6
CONTINUOUS
 10
2.8322313872
 20
5.8430026826
 11
2.8322313872
 21
5.8564130997
  0
LINE
  5
26E
100
AcDbEntity
  8
03__ASM_ALL_CURVES
100
AcDbLine
 62
40
  6
CONTINUOUS
 10
3.0434454497
 20
5.9502860191
 11
3.0434454497
 21
5.8966443509
  0
LINE
  5
26F
100
AcDbEntity
  8
03__ASM_ALL_CURVES
100
AcDbLine
 62
40
  6
CONTINUOUS
 10
3.3150063872
 20
5.9771068461
 11
3.3049485747
 21
5.9368755961
  0
LINE
  5
270
100
AcDbEntity
  8
03__ASM_ALL_CURVES
100
AcDbLine
 62
40
  6
CONTINUOUS
 10
3.4457579497
 20
5.9502860191
 11
3.4558157622
 21
5.9771068461
  0
LINE
  5
271
100
AcDbEntity
  8
0
100
AcDbLine
 62
7
  6
CONTINUOUS
 10
2.2994891997
 20
4.2051646826
 11
2.2933944275
 21
4.1946082276
  0
LINE
  5
272
100
AcDbEntity
  8
0
100
AcDbLine
 62
7
  6
CONTINUOUS
 10
3.2104618309
 20
5.3991646826
 11
3.1434891997
 21
5.2831646826
  0
LINE
  5
273
100
AcDbEntity
  8
03__ASM_ALL_CURVES
100
AcDbLine
 62
40
  6
CONTINUOUS
 10
3.2144282622
 20
5.8832339326
 11
3.1943126372
 21
5.8564130997
  0
LINE
  5
274
100
AcDbEntity
  8
03__ASM_ALL_CURVES
100
AcDbLine
 62
40
  6
CONTINUOUS
 10
3.3351220122
 20
6.0039276826
 11
3.3150063872
 21
5.9771068461
  0
LINE
  5
275
100
AcDbEntity
  8
03__ASM_ALL_CURVES
100
AcDbLine
 62
40
  6
CONTINUOUS
 10
3.4558157622
 20
5.9771068461
 11
3.4658735747
 21
5.9905172691
  0
LINE
  5
276
100
AcDbEntity
  8
03__ASM_ALL_CURVES
100
AcDbLine
 62
40
  6
CONTINUOUS
 10
3.5161626372
 20
5.8698235167
 11
3.5061048247
 21
5.8564130997
  0
LINE
  5
277
100
AcDbEntity
  8
03__ASM_ALL_CURVES
100
AcDbLine
 62
40
  6
CONTINUOUS
 10
3.6167407622
 20
5.9771068461
 11
3.6267985747
 21
5.9905172691
  0
LINE
  5
278
100
AcDbEntity
  8
0
100
AcDbLine
 62
7
  6
CONTINUOUS
 10
2.1234899852
 20
4.7571654682
 11
2.1079891997
 21
4.7416646826
  0
LINE
  5
279
100
AcDbEntity
  8
03__ASM_ALL_CURVES
100
AcDbLine
 62
40
  6
CONTINUOUS
 10
2.7115376372
 20
5.8564130997
 11
2.6914220122
 21
5.8430026826
  0
LINE
  5
27A
100
AcDbEntity
  8
03__ASM_ALL_CURVES
100
AcDbLine
 62
40
  6
CONTINUOUS
 10
2.9830985747
 20
5.9905172691
 11
3.0032141997
 21
6.0039276826
  0
LINE
  5
27B
100
AcDbEntity
  8
03__ASM_ALL_CURVES
100
AcDbLine
 62
40
  6
CONTINUOUS
 10
3.1339657622
 20
5.9905172691
 11
3.1540813872
 21
6.0039276826
  0
LINE
  5
27C
100
AcDbEntity
  8
03__ASM_ALL_CURVES
100
AcDbLine
 62
40
  6
CONTINUOUS
 10
3.0233298247
 20
5.8564130997
 11
3.0032141997
 21
5.8430026826
  0
LINE
  5
27D
100
AcDbEntity
  8
03__ASM_ALL_CURVES
100
AcDbLine
 62
40
  6
CONTINUOUS
 10
3.1943126372
 20
5.9502860191
 11
3.1741970122
 21
5.9368755961
  0
LINE
  5
27E
100
AcDbEntity
  8
03__ASM_ALL_CURVES
100
AcDbLine
 62
40
  6
CONTINUOUS
 10
3.1943126372
 20
5.8564130997
 11
3.1741970122
 21
5.8430026826
  0
LINE
  5
27F
100
AcDbEntity
  8
0
100
AcDbLine
 62
7
  6
CONTINUOUS
 10
1.5174891997
 20
4.3231646826
 11
1.5484891997
 21
4.2921646826
  0
LINE
  5
280
100
AcDbEntity
  8
0
100
AcDbLine
 62
7
  6
CONTINUOUS
 10
2.3924891997
 20
3.6951646826
 11
2.3304891997
 21
3.7571646826
  0
LINE
  5
281
100
AcDbEntity
  8
0
100
AcDbLine
 62
7
  6
CONTINUOUS
 10
2.2994891997
 20
4.7471646826
 11
2.2933944275
 21
4.7577211376
  0
LINE
  5
282
100
AcDbEntity
  8
0
100
AcDbLine
 62
7
  6
CONTINUOUS
 10
3.1434891997
 20
3.6691646826
 11
3.1434891997
 21
5.2831646826
  0
LINE
  5
283
100
AcDbEntity
  8
03__ASM_ALL_CURVES
100
AcDbLine
 62
40
  6
CONTINUOUS
 10
3.2043704497
 20
5.9771068461
 11
3.2043704497
 21
5.9636964326
  0
LINE
  5
284
100
AcDbEntity
  8
0
100
AcDbLine
 62
7
  6
CONTINUOUS
 10
3.2104618309
 20
3.5531646826
 11
3.2104618309
 21
3.553560024
  0
LINE
  5
285
100
AcDbEntity
  8
0
100
AcDbLine
 62
7
  6
CONTINUOUS
 10
3.2104618309
 20
3.9914693411
 11
3.2104618309
 21
4.0382553655
  0
LINE
  5
286
100
AcDbEntity
  8
0
100
AcDbLine
 62
7
  6
CONTINUOUS
 10
3.2104618309
 20
4.9140739997
 11
3.2104618309
 21
4.960860024
  0
LINE
  5
287
100
AcDbEntity
  8
0
100
AcDbLine
 62
7
  6
CONTINUOUS
 10
3.2104618309
 20
5.3987693411
 11
3.2104618309
 21
5.3991646826
  0
LINE
  5
288
100
AcDbEntity
  8
03__ASM_ALL_CURVES
100
AcDbLine
 62
40
  6
CONTINUOUS
 10
3.2144282622
 20
5.8966443509
 11
3.2144282622
 21
5.8832339326
  0
LINE
  5
289
100
AcDbEntity
  8
03__ASM_ALL_CURVES
100
AcDbLine
 62
40
  6
CONTINUOUS
 10
3.3049485747
 20
5.9368755961
 11
3.3049485747
 21
5.9100547643
  0
LINE
  5
28A
100
AcDbEntity
  8
03__ASM_ALL_CURVES
100
AcDbLine
 62
40
  6
CONTINUOUS
 10
3.5262204497
 20
5.9502860191
 11
3.5161626372
 21
5.9234651826
  0
LINE
  5
28B
100
AcDbEntity
  8
03__ASM_ALL_CURVES
100
AcDbLine
 62
40
  6
CONTINUOUS
 10
3.5262204497
 20
5.8966443509
 11
3.5161626372
 21
5.8698235167
  0
LINE
  5
28C
100
AcDbEntity
  8
03__ASM_ALL_CURVES
100
AcDbLine
 62
40
  6
CONTINUOUS
 10
3.6066829497
 20
5.9502860191
 11
3.6167407622
 21
5.9771068461
  0
LINE
  5
28D
100
AcDbEntity
  8
03__ASM_ALL_CURVES
100
AcDbLine
 62
40
  6
CONTINUOUS
 10
3.6871454497
 20
5.9502860191
 11
3.6770876372
 21
5.9234651826
  0
LINE
  5
28E
100
AcDbEntity
  8
03__ASM_ALL_CURVES
100
AcDbLine
 62
40
  6
CONTINUOUS
 10
3.6871454497
 20
5.8966443509
 11
3.6770876372
 21
5.8698235167
  0
LINE
  5
28F
100
AcDbEntity
  8
03__ASM_ALL_CURVES
100
AcDbLine
 62
40
  6
CONTINUOUS
 10
3.6770876372
 20
5.8698235167
 11
3.6670298247
 21
5.8564130997
  0
LINE
  5
290
100
AcDbEntity
  8
03__ASM_ALL_CURVES
100
AcDbLine
 62
40
  6
CONTINUOUS
 10
3.9285329497
 20
5.9771068461
 11
3.9385907622
 21
5.9905172691
  0
LINE
  5
291
100
AcDbEntity
  8
03__ASM_ALL_CURVES
100
AcDbLine
 62
40
  6
CONTINUOUS
 10
3.9184751372
 20
5.8966443509
 11
3.9385907622
 21
5.9234651826
  0
LINE
  5
292
100
AcDbEntity
  8
03__ASM_ALL_CURVES
100
AcDbLine
 62
40
  6
CONTINUOUS
 10
4.0089954497
 20
5.9636964326
 11
3.9989376372
 21
5.9502860191
  0
LINE
  5
293
100
AcDbEntity
  8
0
100
AcDbLine
 62
7
  6
CONTINUOUS
 10
2.0919891997
 20
4.2106646826
 11
2.0864891997
 21
4.2051646826
  0
LINE
  5
294
100
AcDbEntity
  8
03__ASM_ALL_CURVES
100
AcDbLine
 62
40
  6
CONTINUOUS
 10
3.4658735747
 20
5.9905172691
 11
3.4859891997
 21
6.0039276826
  0
LINE
  5
295
100
AcDbEntity
  8
03__ASM_ALL_CURVES
100
AcDbLine
 62
40
  6
CONTINUOUS
 10
3.6267985747
 20
5.9905172691
 11
3.6469141997
 21
6.0039276826
  0
LINE
  5
296
100
AcDbEntity
  8
03__ASM_ALL_CURVES
100
AcDbLine
 62
40
  6
CONTINUOUS
 10
3.5061048247
 20
5.8564130997
 11
3.4859891997
 21
5.8430026826
  0
LINE
  5
297
100
AcDbEntity
  8
03__ASM_ALL_CURVES
100
AcDbLine
 62
40
  6
CONTINUOUS
 10
3.6670298247
 20
5.8564130997
 11
3.6469141997
 21
5.8430026826
  0
LINE
  5
298
100
AcDbEntity
  8
03__ASM_ALL_CURVES
100
AcDbLine
 62
40
  6
CONTINUOUS
 10
3.9385907622
 20
5.9905172691
 11
3.9587063872
 21
6.0039276826
  0
LINE
  5
299
100
AcDbEntity
  8
03__ASM_ALL_CURVES
100
AcDbLine
 62
40
  6
CONTINUOUS
 10
3.0333876372
 20
5.9234651826
 11
3.0032141997
 21
5.9100547643
  0
LINE
  5
29A
100
AcDbEntity
  8
03__ASM_ALL_CURVES
100
AcDbLine
 62
40
  6
CONTINUOUS
 10
3.5161626372
 20
5.9234651826
 11
3.4859891997
 21
5.9100547643
  0
LINE
  5
29B
100
AcDbEntity
  8
0
100
AcDbLine
 62
7
  6
CONTINUOUS
 10
2.1234899852
 20
4.195163897
 11
2.1079891997
 21
4.2106646826
  0
LINE
  5
29C
100
AcDbEntity
  8
0
100
AcDbLine
 62
7
  6
CONTINUOUS
 10
3.2104618309
 20
3.5531646826
 11
3.1434891997
 21
3.6691646826
  0
LINE
  5
29D
100
AcDbEntity
  8
03__ASM_ALL_CURVES
100
AcDbLine
 62
40
  6
CONTINUOUS
 10
3.5262204497
 20
5.9502860191
 11
3.5262204497
 21
5.8966443509
  0
LINE
  5
29E
100
AcDbEntity
  8
03__ASM_ALL_CURVES
100
AcDbLine
 62
40
  6
CONTINUOUS
 10
3.6871454497
 20
5.9502860191
 11
3.6871454497
 21
5.8966443509
  0
LINE
  5
29F
100
AcDbEntity
  8
03__ASM_ALL_CURVES
100
AcDbLine
 62
40
  6
CONTINUOUS
 10
4.0190532622
 20
5.8832339326
 11
3.9989376372
 21
5.8564130997
  0
LINE
  5
2A0
100
AcDbEntity
  8
03__ASM_ALL_CURVES
100
AcDbLine
 62
40
  6
CONTINUOUS
 10
4.0894579497
 20
5.9771068461
 11
4.0995157622
 21
5.9905172691
  0
LINE
  5
2A1
100
AcDbEntity
  8
03__ASM_ALL_CURVES
100
AcDbLine
 62
40
  6
CONTINUOUS
 10
4.1196313872
 20
5.9100547643
 11
4.0995157622
 21
5.8832339326
  0
LINE
  5
2A2
100
AcDbEntity
  8
03__ASM_ALL_CURVES
100
AcDbLine
 62
40
  6
CONTINUOUS
 10
4.1699204497
 20
5.9502860191
 11
4.1598626372
 21
5.9368755961
  0
LINE
  5
2A3
100
AcDbEntity
  8
03__ASM_ALL_CURVES
100
AcDbLine
 62
40
  6
CONTINUOUS
 10
4.3006720122
 20
5.8698235167
 11
4.2805563872
 21
5.8430026826
  0
LINE
  5
2A4
100
AcDbEntity
  8
03__ASM_ALL_CURVES
100
AcDbLine
 62
40
  6
CONTINUOUS
 10
3.9385907622
 20
5.9234651826
 11
3.9587063872
 21
5.9368755961
  0
LINE
  5
2A5
100
AcDbEntity
  8
03__ASM_ALL_CURVES
100
AcDbLine
 62
40
  6
CONTINUOUS
 10
3.9989376372
 20
5.9502860191
 11
3.9788220122
 21
5.9368755961
  0
LINE
  5
2A6
100
AcDbEntity
  8
03__ASM_ALL_CURVES
100
AcDbLine
 62
40
  6
CONTINUOUS
 10
4.0995157622
 20
5.9905172691
 11
4.1196313872
 21
6.0039276826
  0
LINE
  5
2A7
100
AcDbEntity
  8
03__ASM_ALL_CURVES
100
AcDbLine
 62
40
  6
CONTINUOUS
 10
3.9989376372
 20
5.8564130997
 11
3.9788220122
 21
5.8430026826
  0
LINE
  5
2A8
100
AcDbEntity
  8
03__ASM_ALL_CURVES
100
AcDbLine
 62
40
  6
CONTINUOUS
 10
4.1598626372
 20
5.9368755961
 11
4.1196313872
 21
5.9100547643
  0
LINE
  5
2A9
100
AcDbEntity
  8
03__ASM_ALL_CURVES
100
AcDbLine
 62
40
  6
CONTINUOUS
 10
3.6770876372
 20
5.9234651826
 11
3.6469141997
 21
5.9100547643
  0
LINE
  5
2AA
100
AcDbEntity
  8
0
100
AcDbLine
 62
7
  6
CONTINUOUS
 10
2.0919891997
 20
4.7416646826
 11
2.0864891997
 21
4.7471646826
  0
LINE
  5
2AB
100
AcDbEntity
  8
03__ASM_ALL_CURVES
100
AcDbLine
 62
40
  6
CONTINUOUS
 10
3.7977813872
 20
5.8430026826
 11
3.7977813872
 21
5.8564130997
  0
LINE
  5
2AC
100
AcDbEntity
  8
03__ASM_ALL_CURVES
100
AcDbLine
 62
40
  6
CONTINUOUS
 10
3.9184751372
 20
5.8832339326
 11
3.9184751372
 21
5.8966443509
  0
LINE
  5
2AD
100
AcDbEntity
  8
03__ASM_ALL_CURVES
100
AcDbLine
 62
40
  6
CONTINUOUS
 10
3.9285329497
 20
5.9636964326
 11
3.9285329497
 21
5.9771068461
  0
LINE
  5
2AE
100
AcDbEntity
  8
03__ASM_ALL_CURVES
100
AcDbLine
 62
40
  6
CONTINUOUS
 10
4.0995157622
 20
5.8832339326
 11
4.0894579497
 21
5.8430026826
  0
LINE
  5
2AF
100
AcDbEntity
  8
03__ASM_ALL_CURVES
100
AcDbLine
 62
40
  6
CONTINUOUS
 10
4.3107298247
 20
5.9100547643
 11
4.3006720122
 21
5.8698235167
  0
LINE
  5
2B0
100
AcDbEntity
  8
0
100
AcDbLine
 62
7
  6
CONTINUOUS
 10
4.1424891997
 20
5.5056646826
 11
4.081001396
 21
5.3991646826
  0
LINE
  5
2B1
100
AcDbEntity
  8
03__ASM_ALL_CURVES
100
AcDbLine
 62
40
  6
CONTINUOUS
 10
4.6631016849
 20
2.6911009326
 11
4.6781884037
 21
2.6810431225
  0
LINE
  5
2B2
100
AcDbEntity
  8
03__ASM_ALL_CURVES
100
AcDbLine
 62
40
  6
CONTINUOUS
 10
4.7913387943
 20
2.6911009326
 11
4.806425513
 21
2.6810431225
  0
LINE
  5
2B3
100
AcDbEntity
  8
03__ASM_ALL_CURVES
100
AcDbLine
 62
40
  6
CONTINUOUS
 10
4.7724803961
 20
2.7554709326
 11
4.7573936773
 21
2.7655287454
  0
LINE
  5
2B4
100
AcDbEntity
  8
03__ASM_ALL_CURVES
100
AcDbLine
 62
40
  6
CONTINUOUS
 10
4.6781884037
 20
2.6810431225
 11
4.6932751224
 21
2.6609274951
  0
LINE
  5
2B5
100
AcDbEntity
  8
0
100
AcDbLine
 62
7
  6
CONTINUOUS
 10
4.1424891997
 20
3.4466646826
 11
4.081001396
 21
3.5531646826
  0
LINE
  5
2B6
100
AcDbEntity
  8
03__ASM_ALL_CURVES
100
AcDbLine
 62
40
  6
CONTINUOUS
 10
2.9730407622
 20
5.9234651826
 11
2.9629829497
 21
5.9502860191
  0
LINE
  5
2B7
100
AcDbEntity
  8
03__ASM_ALL_CURVES
100
AcDbLine
 62
40
  6
CONTINUOUS
 10
3.0333876372
 20
5.9771068461
 11
3.0434454497
 21
5.9502860191
  0
LINE
  5
2B8
100
AcDbEntity
  8
03__ASM_ALL_CURVES
100
AcDbLine
 62
40
  6
CONTINUOUS
 10
3.3049485747
 20
5.9100547643
 11
3.3150063872
 21
5.8698235167
  0
LINE
  5
2B9
100
AcDbEntity
  8
03__ASM_ALL_CURVES
100
AcDbLine
 62
40
  6
CONTINUOUS
 10
4.0089954497
 20
5.9771068461
 11
4.0089954497
 21
5.9636964326
  0
LINE
  5
2BA
100
AcDbEntity
  8
03__ASM_ALL_CURVES
100
AcDbLine
 62
40
  6
CONTINUOUS
 10
4.0190532622
 20
5.8966443509
 11
4.0190532622
 21
5.8832339326
  0
LINE
  5
2BB
100
AcDbEntity
  8
0
100
AcDbLine
 62
7
  6
CONTINUOUS
 10
4.081001396
 20
3.5531646826
 11
4.081001396
 21
5.3991646826
  0
LINE
  5
2BC
100
AcDbEntity
  8
0
100
AcDbLine
 62
7
  6
CONTINUOUS
 10
4.1424891997
 20
3.4466646826
 11
4.1424891997
 21
5.5056646826
  0
LINE
  5
2BD
100
AcDbEntity
  8
03__ASM_ALL_CURVES
100
AcDbLine
 62
40
  6
CONTINUOUS
 10
4.1699204497
 20
5.9771068461
 11
4.1699204497
 21
5.9502860191
  0
LINE
  5
2BE
100
AcDbEntity
  8
03__ASM_ALL_CURVES
100
AcDbLine
 62
40
  6
CONTINUOUS
 10
7.2114979676
 20
2.5704071826
 11
7.1511510926
 21
2.5704071826
  0
LINE
  5
2BF
100
AcDbEntity
  8
03__ASM_ALL_CURVES
100
AcDbLine
 62
40
  6
CONTINUOUS
 10
4.6631016849
 20
2.5704071826
 11
4.6329282474
 21
2.5704071826
  0
LINE
  5
2C0
100
AcDbEntity
  8
03__ASM_ALL_CURVES
100
AcDbLine
 62
40
  6
CONTINUOUS
 10
7.0304573426
 20
2.5704071826
 11
7.0908042176
 21
2.5704071826
  0
LINE
  5
2C1
100
AcDbEntity
  8
03__ASM_ALL_CURVES
100
AcDbLine
 62
40
  6
CONTINUOUS
 10
4.8818591068
 20
2.6106384338
 11
4.927119263
 21
2.6106384338
  0
LINE
  5
2C2
100
AcDbEntity
  8
03__ASM_ALL_CURVES
100
AcDbLine
 62
40
  6
CONTINUOUS
 10
4.7913387943
 20
2.6307540576
 11
4.7536219974
 21
2.6307540576
  0
LINE
  5
2C3
100
AcDbEntity
  8
03__ASM_ALL_CURVES
100
AcDbLine
 62
40
  6
CONTINUOUS
 10
7.1511510926
 20
2.6307540576
 11
7.1888678895
 21
2.6307540576
  0
LINE
  5
2C4
100
AcDbEntity
  8
03__ASM_ALL_CURVES
100
AcDbLine
 62
40
  6
CONTINUOUS
 10
4.6329282474
 20
2.6911009326
 11
4.6631016849
 21
2.6911009326
  0
LINE
  5
2C5
100
AcDbEntity
  8
03__ASM_ALL_CURVES
100
AcDbLine
 62
40
  6
CONTINUOUS
 10
4.7536219974
 20
2.6911009326
 11
4.7913387943
 21
2.6911009326
  0
LINE
  5
2C6
100
AcDbEntity
  8
03__ASM_ALL_CURVES
100
AcDbLine
 62
40
  6
CONTINUOUS
 10
7.1511510926
 20
2.6911009326
 11
7.2114979676
 21
2.6911009326
  0
LINE
  5
2C7
100
AcDbEntity
  8
03__ASM_ALL_CURVES
100
AcDbLine
 62
40
  6
CONTINUOUS
 10
7.2643014832
 20
2.6911009326
 11
7.339735077
 21
2.6911009326
  0
LINE
  5
2C8
100
AcDbEntity
  8
03__ASM_ALL_CURVES
100
AcDbLine
 62
40
  6
CONTINUOUS
 10
6.9663387794
 20
2.7554709326
 11
6.9512520606
 21
2.7554709326
  0
LINE
  5
2C9
100
AcDbEntity
  8
03__ASM_ALL_CURVES
100
AcDbLine
 62
40
  6
CONTINUOUS
 10
5.1496483648
 20
2.7554709326
 11
5.1345616461
 21
2.7554709326
  0
LINE
  5
2CA
100
AcDbEntity
  8
03__ASM_ALL_CURVES
100
AcDbLine
 62
40
  6
CONTINUOUS
 10
4.7875671148
 20
2.7554709326
 11
4.7724803961
 21
2.7554709326
  0
LINE
  5
2CB
100
AcDbEntity
  8
03__ASM_ALL_CURVES
100
AcDbLine
 62
40
  6
CONTINUOUS
 10
7.2907032325
 20
2.7554709326
 11
7.3510501075
 21
2.7554709326
  0
LINE
  5
2CC
100
AcDbEntity
  8
03__ASM_ALL_CURVES
100
AcDbLine
 62
40
  6
CONTINUOUS
 10
4.6668733648
 20
2.8761646826
 11
4.6819600836
 21
2.8661068725
  0
LINE
  5
2CD
100
AcDbEntity
  8
03__ASM_ALL_CURVES
100
AcDbLine
 62
40
  6
CONTINUOUS
 10
4.7875671148
 20
2.8761646826
 11
4.8026538336
 21
2.8661068725
  0
LINE
  5
2CE
100
AcDbEntity
  8
03__ASM_ALL_CURVES
100
AcDbLine
 62
40
  6
CONTINUOUS
 10
4.9082608648
 20
2.8761646826
 11
4.9233475836
 21
2.8661068725
  0
LINE
  5
2CF
100
AcDbEntity
  8
03__ASM_ALL_CURVES
100
AcDbLine
 62
40
  6
CONTINUOUS
 10
5.1345616461
 20
2.7554709326
 11
5.1194749273
 21
2.7655287454
  0
LINE
  5
2D0
100
AcDbEntity
  8
03__ASM_ALL_CURVES
100
AcDbLine
 62
40
  6
CONTINUOUS
 10
5.1496483648
 20
2.8258756177
 11
5.1647350836
 21
2.8158178076
  0
LINE
  5
2D1
100
AcDbEntity
  8
03__ASM_ALL_CURVES
100
AcDbLine
 62
40
  6
CONTINUOUS
 10
5.1496483648
 20
2.8761646826
 11
5.1647350836
 21
2.8661068725
  0
LINE
  5
2D2
100
AcDbEntity
  8
03__ASM_ALL_CURVES
100
AcDbLine
 62
40
  6
CONTINUOUS
 10
4.806425513
 20
2.6810431225
 11
4.8139688724
 21
2.6709853052
  0
LINE
  5
2D3
100
AcDbEntity
  8
03__ASM_ALL_CURVES
100
AcDbLine
 62
40
  6
CONTINUOUS
 10
4.6819600836
 20
2.8661068725
 11
4.6895034429
 21
2.8560490552
  0
LINE
  5
2D4
100
AcDbEntity
  8
03__ASM_ALL_CURVES
100
AcDbLine
 62
40
  6
CONTINUOUS
 10
4.7573936773
 20
2.7655287454
 11
4.7423069586
 21
2.7856443701
  0
LINE
  5
2D5
100
AcDbEntity
  8
03__ASM_ALL_CURVES
100
AcDbLine
 62
40
  6
CONTINUOUS
 10
4.8026538336
 20
2.8661068725
 11
4.8177405523
 21
2.8459912451
  0
LINE
  5
2D6
100
AcDbEntity
  8
03__ASM_ALL_CURVES
100
AcDbLine
 62
40
  6
CONTINUOUS
 10
2.6511907622
 20
5.8564130997
 11
2.6411329497
 21
5.8698235167
  0
LINE
  5
2D7
100
AcDbEntity
  8
03__ASM_ALL_CURVES
100
AcDbLine
 62
40
  6
CONTINUOUS
 10
4.9233475836
 20
2.8661068725
 11
4.9308909429
 21
2.8560490552
  0
LINE
  5
2D8
100
AcDbEntity
  8
03__ASM_ALL_CURVES
100
AcDbLine
 62
40
  6
CONTINUOUS
 10
3.4558157622
 20
5.9234651826
 11
3.4457579497
 21
5.9502860191
  0
LINE
  5
2D9
100
AcDbEntity
  8
03__ASM_ALL_CURVES
100
AcDbLine
 62
40
  6
CONTINUOUS
 10
3.5161626372
 20
5.9771068461
 11
3.5262204497
 21
5.9502860191
  0
LINE
  5
2DA
100
AcDbEntity
  8
03__ASM_ALL_CURVES
100
AcDbLine
 62
40
  6
CONTINUOUS
 10
4.7913387943
 20
2.6307540576
 11
4.8139688724
 21
2.5704071826
  0
LINE
  5
2DB
100
AcDbEntity
  8
03__ASM_ALL_CURVES
100
AcDbLine
 62
40
  6
CONTINUOUS
 10
4.3107298247
 20
5.9368755961
 11
4.3107298247
 21
5.9100547643
  0
LINE
  5
2DC
100
AcDbEntity
  8
0
100
AcDbLine
 62
7
  6
CONTINUOUS
 10
4.3924891997
 20
3.4466646826
 11
4.3924891997
 21
5.5056646826
  0
LINE
  5
2DD
100
AcDbEntity
  8
0
100
AcDbLine
 62
7
  6
CONTINUOUS
 10
4.4424891997
 20
3.4466646826
 11
4.4424891997
 21
5.5056646826
  0
LINE
  5
2DE
100
AcDbEntity
  8
0
100
AcDbLine
 62
7
  6
CONTINUOUS
 10
4.5454891997
 20
5.4691646826
 11
4.5454891997
 21
3.4831646826
  0
LINE
  5
2DF
100
AcDbEntity
  8
0
100
AcDbLine
 62
7
  6
CONTINUOUS
 10
4.5664891997
 20
3.4466646826
 11
4.5664891997
 21
5.5056646826
  0
LINE
  5
2E0
100
AcDbEntity
  8
03__ASM_ALL_CURVES
100
AcDbLine
 62
40
  6
CONTINUOUS
 10
5.8829520119
 20
5.9905172691
 11
5.9030676369
 21
6.0039276826
  0
LINE
  5
2E1
100
AcDbEntity
  8
03__ASM_ALL_CURVES
100
AcDbLine
 62
40
  6
CONTINUOUS
 10
6.0438770119
 20
5.9905172691
 11
6.0639926369
 21
6.0039276826
  0
LINE
  5
2E2
100
AcDbEntity
  8
03__ASM_ALL_CURVES
100
AcDbLine
 62
40
  6
CONTINUOUS
 10
5.9432988869
 20
5.8564130997
 11
5.9231832619
 21
5.8430026826
  0
LINE
  5
2E3
100
AcDbEntity
  8
03__ASM_ALL_CURVES
100
AcDbLine
 62
40
  6
CONTINUOUS
 10
7.0870325294
 20
2.8158178076
 11
7.0493157325
 21
2.8158178076
  0
LINE
  5
2E4
100
AcDbEntity
  8
03__ASM_ALL_CURVES
100
AcDbLine
 62
40
  6
CONTINUOUS
 10
6.8456450294
 20
2.8158178076
 11
6.8079282325
 21
2.8158178076
  0
LINE
  5
2E5
100
AcDbEntity
  8
03__ASM_ALL_CURVES
100
AcDbLine
 62
40
  6
CONTINUOUS
 10
4.9082608648
 20
2.8158178076
 11
4.8705440679
 21
2.8158178076
  0
LINE
  5
2E6
100
AcDbEntity
  8
03__ASM_ALL_CURVES
100
AcDbLine
 62
40
  6
CONTINUOUS
 10
4.6668733648
 20
2.8158178076
 11
4.6291565679
 21
2.8158178076
  0
LINE
  5
2E7
100
AcDbEntity
  8
03__ASM_ALL_CURVES
100
AcDbLine
 62
40
  6
CONTINUOUS
 10
5.1345616461
 20
2.8258756177
 11
5.1496483648
 21
2.8258756177
  0
LINE
  5
2E8
100
AcDbEntity
  8
03__ASM_ALL_CURVES
100
AcDbLine
 62
40
  6
CONTINUOUS
 10
4.6291565679
 20
2.8761646826
 11
4.6668733648
 21
2.8761646826
  0
LINE
  5
2E9
100
AcDbEntity
  8
03__ASM_ALL_CURVES
100
AcDbLine
 62
40
  6
CONTINUOUS
 10
4.7724803961
 20
2.8761646826
 11
4.7875671148
 21
2.8761646826
  0
LINE
  5
2EA
100
AcDbEntity
  8
03__ASM_ALL_CURVES
100
AcDbLine
 62
40
  6
CONTINUOUS
 10
4.8705440679
 20
2.8761646826
 11
4.9082608648
 21
2.8761646826
  0
LINE
  5
2EB
100
AcDbEntity
  8
03__ASM_ALL_CURVES
100
AcDbLine
 62
40
  6
CONTINUOUS
 10
4.9836944586
 20
2.8761646826
 11
5.0591280523
 21
2.8761646826
  0
LINE
  5
2EC
100
AcDbEntity
  8
03__ASM_ALL_CURVES
100
AcDbLine
 62
40
  6
CONTINUOUS
 10
5.1345616461
 20
2.8761646826
 11
5.1496483648
 21
2.8761646826
  0
LINE
  5
2ED
100
AcDbEntity
  8
03__ASM_ALL_CURVES
100
AcDbLine
 62
40
  6
CONTINUOUS
 10
6.8079282325
 20
2.8761646826
 11
6.8456450294
 21
2.8761646826
  0
LINE
  5
2EE
100
AcDbEntity
  8
03__ASM_ALL_CURVES
100
AcDbLine
 62
40
  6
CONTINUOUS
 10
6.9512520606
 20
2.8761646826
 11
6.9663387794
 21
2.8761646826
  0
LINE
  5
2EF
100
AcDbEntity
  8
03__ASM_ALL_CURVES
100
AcDbLine
 62
40
  6
CONTINUOUS
 10
7.0493157325
 20
2.8761646826
 11
7.0870325294
 21
2.8761646826
  0
LINE
  5
2F0
100
AcDbEntity
  8
03__ASM_ALL_CURVES
100
AcDbLine
 62
40
  6
CONTINUOUS
 10
7.1624661231
 20
2.8761646826
 11
7.2378997169
 21
2.8761646826
  0
LINE
  5
2F1
100
AcDbEntity
  8
03__ASM_ALL_CURVES
100
AcDbLine
 62
40
  6
CONTINUOUS
 10
7.3133333106
 20
2.8761646826
 11
7.3284200294
 21
2.8761646826
  0
LINE
  5
2F2
100
AcDbEntity
  8
03__ASM_ALL_CURVES
100
AcDbLine
 62
40
  6
CONTINUOUS
 10
2.7115376372
 20
5.9234651826
 11
2.7316532622
 21
5.8966443509
  0
LINE
  5
2F3
100
AcDbEntity
  8
03__ASM_ALL_CURVES
100
AcDbLine
 62
40
  6
CONTINUOUS
 10
5.1194749273
 20
2.7655287454
 11
5.1119315679
 21
2.7755865582
  0
LINE
  5
2F4
100
AcDbEntity
  8
03__ASM_ALL_CURVES
100
AcDbLine
 62
40
  6
CONTINUOUS
 10
2.7115376372
 20
5.9905172691
 11
2.7215954497
 21
5.9771068461
  0
LINE
  5
2F5
100
AcDbEntity
  8
03__ASM_ALL_CURVES
100
AcDbLine
 62
40
  6
CONTINUOUS
 10
2.8322313872
 20
5.8564130997
 11
2.8422891997
 21
5.8430026826
  0
LINE
  5
2F6
100
AcDbEntity
  8
03__ASM_ALL_CURVES
100
AcDbLine
 62
40
  6
CONTINUOUS
 10
5.1647350836
 20
2.8158178076
 11
5.1798218023
 21
2.7957021838
  0
LINE
  5
2F7
100
AcDbEntity
  8
03__ASM_ALL_CURVES
100
AcDbLine
 62
40
  6
CONTINUOUS
 10
5.1647350836
 20
2.8661068725
 11
5.1722784429
 21
2.8560490552
  0
LINE
  5
2F8
100
AcDbEntity
  8
03__ASM_ALL_CURVES
100
AcDbLine
 62
40
  6
CONTINUOUS
 10
2.9830985747
 20
5.8564130997
 11
2.9730407622
 21
5.8698235167
  0
LINE
  5
2F9
100
AcDbEntity
  8
03__ASM_ALL_CURVES
100
AcDbLine
 62
40
  6
CONTINUOUS
 10
3.0233298247
 20
5.9905172691
 11
3.0333876372
 21
5.9771068461
  0
LINE
  5
2FA
100
AcDbEntity
  8
03__ASM_ALL_CURVES
100
AcDbLine
 62
40
  6
CONTINUOUS
 10
3.1339657622
 20
5.8564130997
 11
3.1239079497
 21
5.8698235167
  0
LINE
  5
2FB
100
AcDbEntity
  8
03__ASM_ALL_CURVES
100
AcDbLine
 62
40
  6
CONTINUOUS
 10
5.1157032474
 20
2.6911009326
 11
5.1760501224
 21
2.5704071826
  0
LINE
  5
2FC
100
AcDbEntity
  8
03__ASM_ALL_CURVES
100
AcDbLine
 62
40
  6
CONTINUOUS
 10
3.6167407622
 20
5.9234651826
 11
3.6066829497
 21
5.9502860191
  0
LINE
  5
2FD
100
AcDbEntity
  8
03__ASM_ALL_CURVES
100
AcDbLine
 62
40
  6
CONTINUOUS
 10
3.6770876372
 20
5.9771068461
 11
3.6871454497
 21
5.9502860191
  0
LINE
  5
2FE
100
AcDbEntity
  8
03__ASM_ALL_CURVES
100
AcDbLine
 62
40
  6
CONTINUOUS
 10
4.9082608648
 20
2.8158178076
 11
4.9308909429
 21
2.7554709326
  0
LINE
  5
2FF
100
AcDbEntity
  8
03__ASM_ALL_CURVES
100
AcDbLine
 62
40
  6
CONTINUOUS
 10
4.9044891849
 20
2.6911009326
 11
4.9422059818
 21
2.5704071826
  0
LINE
  5
300
100
AcDbEntity
  8
03__ASM_ALL_CURVES
100
AcDbLine
 62
40
  6
CONTINUOUS
 10
4.6932751224
 20
2.6609274951
 11
4.7008184818
 21
2.6307540576
  0
LINE
  5
301
100
AcDbEntity
  8
03__ASM_ALL_CURVES
100
AcDbLine
 62
40
  6
CONTINUOUS
 10
4.7423069586
 20
2.7856443701
 11
4.7347635992
 21
2.8158178076
  0
LINE
  5
302
100
AcDbEntity
  8
03__ASM_ALL_CURVES
100
AcDbLine
 62
40
  6
CONTINUOUS
 10
4.8177405523
 20
2.8459912451
 11
4.8252839117
 21
2.8158178076
  0
LINE
  5
303
100
AcDbEntity
  8
03__ASM_ALL_CURVES
100
AcDbLine
 62
40
  6
CONTINUOUS
 10
4.6291565679
 20
2.7554709326
 11
4.6291565679
 21
2.8761646826
  0
LINE
  5
304
100
AcDbEntity
  8
03__ASM_ALL_CURVES
100
AcDbLine
 62
40
  6
CONTINUOUS
 10
4.6329282474
 20
2.5704071826
 11
4.6329282474
 21
2.6911009326
  0
LINE
  5
305
100
AcDbEntity
  8
0
100
AcDbLine
 62
7
  6
CONTINUOUS
 10
4.6434891997
 20
3.4466646826
 11
4.6434891997
 21
5.5056646826
  0
LINE
  5
306
100
AcDbEntity
  8
03__ASM_ALL_CURVES
100
AcDbLine
 62
40
  6
CONTINUOUS
 10
4.6895034429
 20
2.8560490552
 11
4.6895034429
 21
2.835933435
  0
LINE
  5
307
100
AcDbEntity
  8
129-401_FEATURES
100
AcDbLine
 62
7
  6
CONTINUOUS
 10
4.7147919579
 20
3.5706951134
 11
4.7147919579
 21
5.3821646826
  0
LINE
  5
308
100
AcDbEntity
  8
03__ASM_ALL_CURVES
100
AcDbLine
 62
40
  6
CONTINUOUS
 10
4.7536219974
 20
2.5704071826
 11
4.7536219974
 21
2.6911009326
  0
LINE
  5
309
100
AcDbEntity
  8
03__ASM_ALL_CURVES
100
AcDbLine
 62
40
  6
CONTINUOUS
 10
4.8139688724
 20
2.6709853052
 11
4.8139688724
 21
2.650869685
  0
LINE
  5
30A
100
AcDbEntity
  8
03__ASM_ALL_CURVES
100
AcDbLine
 62
40
  6
CONTINUOUS
 10
4.8705440679
 20
2.7554709326
 11
4.8705440679
 21
2.8761646826
  0
LINE
  5
30B
100
AcDbEntity
  8
0
100
AcDbLine
 62
7
  6
CONTINUOUS
 10
5.3324891997
 20
5.5036646826
 11
5.2623411419
 21
5.3821646826
  0
LINE
  5
30C
100
AcDbEntity
  8
03__ASM_ALL_CURVES
100
AcDbLine
 62
40
  6
CONTINUOUS
 10
5.8628363869
 20
5.9636964326
 11
5.8829520119
 21
5.9905172691
  0
LINE
  5
30D
100
AcDbEntity
  8
03__ASM_ALL_CURVES
100
AcDbLine
 62
40
  6
CONTINUOUS
 10
6.1042238869
 20
5.8564130997
 11
6.0841082619
 21
5.8430026826
  0
LINE
  5
30E
100
AcDbEntity
  8
03__ASM_ALL_CURVES
100
AcDbLine
 62
40
  6
CONTINUOUS
 10
3.1943126372
 20
5.9234651826
 11
3.2144282622
 21
5.8966443509
  0
LINE
  5
30F
100
AcDbEntity
  8
03__ASM_ALL_CURVES
100
AcDbLine
 62
40
  6
CONTINUOUS
 10
3.1943126372
 20
5.9905172691
 11
3.2043704497
 21
5.9771068461
  0
LINE
  5
310
100
AcDbEntity
  8
03__ASM_ALL_CURVES
100
AcDbLine
 62
40
  6
CONTINUOUS
 10
3.3150063872
 20
5.8698235167
 11
3.3351220122
 21
5.8430026826
  0
LINE
  5
311
100
AcDbEntity
  8
03__ASM_ALL_CURVES
100
AcDbLine
 62
40
  6
CONTINUOUS
 10
3.4658735747
 20
5.8564130997
 11
3.4558157622
 21
5.8698235167
  0
LINE
  5
312
100
AcDbEntity
  8
03__ASM_ALL_CURVES
100
AcDbLine
 62
40
  6
CONTINUOUS
 10
4.3006720122
 20
5.9771068461
 11
4.3107298247
 21
5.9368755961
  0
LINE
  5
313
100
AcDbEntity
  8
03__ASM_ALL_CURVES
100
AcDbLine
 62
40
  6
CONTINUOUS
 10
4.9308909429
 20
2.8560490552
 11
4.9308909429
 21
2.835933435
  0
LINE
  5
314
100
AcDbEntity
  8
03__ASM_ALL_CURVES
100
AcDbLine
 62
40
  6
CONTINUOUS
 10
5.0214112554
 20
2.8761646826
 11
5.0214112554
 21
2.7554709326
  0
LINE
  5
315
100
AcDbEntity
  8
03__ASM_ALL_CURVES
100
AcDbLine
 62
40
  6
CONTINUOUS
 10
5.0251829349
 20
2.6911009326
 11
5.0251829349
 21
2.5704071826
  0
LINE
  5
316
100
AcDbEntity
  8
03__ASM_ALL_CURVES
100
AcDbLine
 62
40
  6
CONTINUOUS
 10
5.1157032474
 20
2.5704071826
 11
5.1157032474
 21
2.6911009326
  0
LINE
  5
317
100
AcDbEntity
  8
03__ASM_ALL_CURVES
100
AcDbLine
 62
40
  6
CONTINUOUS
 10
5.1722784429
 20
2.8560490552
 11
5.1722784429
 21
2.8459912451
  0
LINE
  5
318
100
AcDbEntity
  8
03__ASM_ALL_CURVES
100
AcDbLine
 62
40
  6
CONTINUOUS
 10
5.1760501224
 20
2.5704071826
 11
5.1760501224
 21
2.6911009326
  0
LINE
  5
319
100
AcDbEntity
  8
03__ASM_ALL_CURVES
100
AcDbLine
 62
40
  6
CONTINUOUS
 10
5.1798218023
 20
2.7957021838
 11
5.1798218023
 21
2.7856443701
  0
LINE
  5
31A
100
AcDbEntity
  8
03__ASM_ALL_CURVES
100
AcDbLine
 62
40
  6
CONTINUOUS
 10
4.7347635992
 20
2.8158178076
 11
4.7423069586
 21
2.8459912451
  0
LINE
  5
31B
100
AcDbEntity
  8
03__ASM_ALL_CURVES
100
AcDbLine
 62
40
  6
CONTINUOUS
 10
4.7008184818
 20
2.6307540576
 11
4.6932751224
 21
2.6005806201
  0
LINE
  5
31C
100
AcDbEntity
  8
03__ASM_ALL_CURVES
100
AcDbLine
 62
40
  6
CONTINUOUS
 10
4.8252839117
 20
2.8158178076
 11
4.8177405523
 21
2.7856443701
  0
LINE
  5
31D
100
AcDbEntity
  8
THREAD
100
AcDbLine
 62
7
  6
CONTINUOUS
 10
5.7055114136
 20
5.4176646826
 11
5.6754891997
 21
5.3656646826
  0
LINE
  5
31E
100
AcDbEntity
  8
0
100
AcDbLine
 62
7
  6
CONTINUOUS
 10
4.6987451771
 20
3.542370843
 11
4.6434891997
 21
3.4466646826
  0
LINE
  5
31F
100
AcDbEntity
  8
03__ASM_ALL_CURVES
100
AcDbLine
 62
40
  6
CONTINUOUS
 10
5.9634145119
 20
5.8832339326
 11
5.9432988869
 21
5.8564130997
  0
LINE
  5
320
100
AcDbEntity
  8
03__ASM_ALL_CURVES
100
AcDbLine
 62
40
  6
CONTINUOUS
 10
6.0237613869
 20
5.9636964326
 11
6.0438770119
 21
5.9905172691
  0
LINE
  5
321
100
AcDbEntity
  8
03__ASM_ALL_CURVES
100
AcDbLine
 62
40
  6
CONTINUOUS
 10
6.1142816994
 20
5.8698235167
 11
6.1042238869
 21
5.8564130997
  0
LINE
  5
322
100
AcDbEntity
  8
03__ASM_ALL_CURVES
100
AcDbLine
 62
40
  6
CONTINUOUS
 10
6.8485020119
 20
5.9905172691
 11
6.8686176369
 21
6.0039276826
  0
LINE
  5
323
100
AcDbEntity
  8
03__ASM_ALL_CURVES
100
AcDbLine
 62
40
  6
CONTINUOUS
 10
6.9088488869
 20
5.8564130997
 11
6.8887332619
 21
5.8430026826
  0
LINE
  5
324
100
AcDbEntity
  8
03__ASM_ALL_CURVES
100
AcDbLine
 62
40
  6
CONTINUOUS
 10
7.1904676369
 20
6.0039276826
 11
7.1703520119
 21
5.9905172691
  0
LINE
  5
325
100
AcDbEntity
  8
0
100
AcDbLine
 62
7
  6
CONTINUOUS
 10
4.6434891997
 20
3.4466646826
 11
4.5664891997
 21
3.4466646826
  0
LINE
  5
326
100
AcDbEntity
  8
0
100
AcDbLine
 62
7
  6
CONTINUOUS
 10
4.1424891997
 20
3.4466646826
 11
4.4424891997
 21
3.4466646826
  0
LINE
  5
327
100
AcDbEntity
  8
0
100
AcDbLine
 62
7
  6
CONTINUOUS
 10
5.4544891997
 20
3.4486646826
 11
5.3324891997
 21
3.4486646826
  0
LINE
  5
328
100
AcDbEntity
  8
0
100
AcDbLine
 62
7
  6
CONTINUOUS
 10
5.6044891997
 20
3.5221646826
 11
5.6544891997
 21
3.5221646826
  0
LINE
  5
329
100
AcDbEntity
  8
THREAD
100
AcDbLine
 62
7
  6
CONTINUOUS
 10
5.5014891997
 20
3.5226646826
 11
5.4544891997
 21
3.5226646826
  0
LINE
  5
32A
100
AcDbEntity
  8
THREAD
100
AcDbLine
 62
7
  6
CONTINUOUS
 10
6.1749891997
 20
3.5346646826
 11
5.7055114136
 21
3.5346646826
  0
LINE
  5
32B
100
AcDbEntity
  8
0
100
AcDbLine
 62
7
  6
CONTINUOUS
 10
4.5664891997
 20
3.5346646826
 11
4.5454891997
 21
3.5346646826
  0
LINE
  5
32C
100
AcDbEntity
  8
0
100
AcDbLine
 62
7
  6
CONTINUOUS
 10
4.081001396
 20
3.5531646826
 11
3.2104618309
 21
3.5531646826
  0
LINE
  5
32D
100
AcDbEntity
  8
0
100
AcDbLine
 62
7
  6
CONTINUOUS
 10
4.081001396
 20
3.553560024
 11
3.2104618309
 21
3.553560024
  0
LINE
  5
32E
100
AcDbEntity
  8
0
100
AcDbLine
 62
7
  6
CONTINUOUS
 10
5.2623411419
 20
3.5701646826
 11
4.7586325783
 21
3.5701646826
  0
LINE
  5
32F
100
AcDbEntity
  8
THREAD
100
AcDbLine
 62
7
  6
CONTINUOUS
 10
6.3794891997
 20
3.6321646826
 11
6.2724891997
 21
3.6321646826
  0
LINE
  5
330
100
AcDbEntity
  8
0
100
AcDbLine
 62
7
  6
CONTINUOUS
 10
7.5174891997
 20
3.6651646826
 11
7.6114891997
 21
3.6651646826
  0
LINE
  5
331
100
AcDbEntity
  8
0
100
AcDbLine
 62
7
  6
CONTINUOUS
 10
7.8524891997
 20
3.6651646826
 11
7.9614891997
 21
3.6651646826
  0
LINE
  5
332
100
AcDbEntity
  8
0
100
AcDbLine
 62
7
  6
CONTINUOUS
 10
7.6114891997
 20
3.6704146826
 11
7.6614891997
 21
3.6704146826
  0
LINE
  5
333
100
AcDbEntity
  8
0
100
AcDbLine
 62
7
  6
CONTINUOUS
 10
7.7644891997
 20
3.6704146826
 11
7.8144891997
 21
3.6704146826
  0
LINE
  5
334
100
AcDbEntity
  8
0
100
AcDbLine
 62
7
  6
CONTINUOUS
 10
3.1434891997
 20
3.6951646826
 11
2.3924891997
 21
3.6951646826
  0
LINE
  5
335
100
AcDbEntity
  8
03__ASM_ALL_CURVES
100
AcDbLine
 62
40
  6
CONTINUOUS
 10
6.9512520606
 20
2.7554709326
 11
6.9361653419
 21
2.7655287454
  0
LINE
  5
336
100
AcDbEntity
  8
03__ASM_ALL_CURVES
100
AcDbLine
 62
40
  6
CONTINUOUS
 10
6.8456450294
 20
2.8761646826
 11
6.8607317481
 21
2.8661068725
  0
LINE
  5
337
100
AcDbEntity
  8
03__ASM_ALL_CURVES
100
AcDbLine
 62
40
  6
CONTINUOUS
 10
3.5061048247
 20
5.9905172691
 11
3.5161626372
 21
5.9771068461
  0
LINE
  5
338
100
AcDbEntity
  8
03__ASM_ALL_CURVES
100
AcDbLine
 62
40
  6
CONTINUOUS
 10
3.6267985747
 20
5.8564130997
 11
3.6167407622
 21
5.8698235167
  0
LINE
  5
339
100
AcDbEntity
  8
03__ASM_ALL_CURVES
100
AcDbLine
 62
40
  6
CONTINUOUS
 10
3.6670298247
 20
5.9905172691
 11
3.6770876372
 21
5.9771068461
  0
LINE
  5
33A
100
AcDbEntity
  8
03__ASM_ALL_CURVES
100
AcDbLine
 62
40
  6
CONTINUOUS
 10
3.7977813872
 20
5.8564130997
 11
3.8078391997
 21
5.8430026826
  0
LINE
  5
33B
100
AcDbEntity
  8
0
100
AcDbLine
 62
7
  6
CONTINUOUS
 10
5.3324891997
 20
3.4486646826
 11
5.2623411419
 21
3.5701646826
  0
LINE
  5
33C
100
AcDbEntity
  8
03__ASM_ALL_CURVES
100
AcDbLine
 62
40
  6
CONTINUOUS
 10
5.2613791997
 20
5.8108176826
 11
5.2613791997
 21
5.7464476826
  0
LINE
  5
33D
100
AcDbEntity
  8
0
100
AcDbLine
 62
7
  6
CONTINUOUS
 10
5.2623411419
 20
3.5701646826
 11
5.2623411419
 21
5.3821646826
  0
LINE
  5
33E
100
AcDbEntity
  8
0
100
AcDbLine
 62
7
  6
CONTINUOUS
 10
5.3324891997
 20
3.4486646826
 11
5.3324891997
 21
5.5036646826
  0
LINE
  5
33F
100
AcDbEntity
  8
0
100
AcDbLine
 62
7
  6
CONTINUOUS
 10
5.4544891997
 20
3.4486646826
 11
5.4544891997
 21
5.5036646826
  0
LINE
  5
340
100
AcDbEntity
  8
03__ASM_ALL_CURVES
100
AcDbLine
 62
40
  6
CONTINUOUS
 10
5.4544891997
 20
5.5378496826
 11
5.4544891997
 21
5.8430026826
  0
LINE
  5
341
100
AcDbEntity
  8
THREAD
100
AcDbLine
 62
7
  6
CONTINUOUS
 10
5.5014891997
 20
3.5226646826
 11
5.5014891997
 21
5.4296646826
  0
LINE
  5
342
100
AcDbEntity
  8
03__ASM_ALL_CURVES
100
AcDbLine
 62
40
  6
CONTINUOUS
 10
5.8527785744
 20
5.9234651826
 11
5.8628363869
 21
5.9636964326
  0
LINE
  5
343
100
AcDbEntity
  8
03__ASM_ALL_CURVES
100
AcDbLine
 62
40
  6
CONTINUOUS
 10
4.866772388
 20
2.5704071826
 11
4.9044891849
 21
2.6911009326
  0
LINE
  5
344
100
AcDbEntity
  8
03__ASM_ALL_CURVES
100
AcDbLine
 62
40
  6
CONTINUOUS
 10
7.2306988869
 20
5.8564130997
 11
7.2105832619
 21
5.8430026826
  0
LINE
  5
345
100
AcDbEntity
  8
03__ASM_ALL_CURVES
100
AcDbLine
 62
40
  6
CONTINUOUS
 10
7.4922020119
 20
5.9905172691
 11
7.5123176369
 21
6.0039276826
  0
LINE
  5
346
100
AcDbEntity
  8
03__ASM_ALL_CURVES
100
AcDbLine
 62
40
  6
CONTINUOUS
 10
7.5525488869
 20
5.8564130997
 11
7.5324332619
 21
5.8430026826
  0
LINE
  5
347
100
AcDbEntity
  8
0
100
AcDbLine
 62
7
  6
CONTINUOUS
 10
7.8524891997
 20
3.7584146826
 11
7.8144891997
 21
3.7584146826
  0
LINE
  5
348
100
AcDbEntity
  8
0
100
AcDbLine
 62
7
  6
CONTINUOUS
 10
7.5174891997
 20
3.7584146826
 11
7.0484891997
 21
3.7584146826
  0
LINE
  5
349
100
AcDbEntity
  8
0
100
AcDbLine
 62
7
  6
CONTINUOUS
 10
6.7364891997
 20
3.7584146826
 11
6.3924891997
 21
3.7584146826
  0
LINE
  5
34A
100
AcDbEntity
  8
0
100
AcDbLine
 62
7
  6
CONTINUOUS
 10
4.081001396
 20
3.9914693411
 11
3.2104618309
 21
3.9914693411
  0
LINE
  5
34B
100
AcDbEntity
  8
03__ASM_ALL_CURVES
100
AcDbLine
 62
40
  6
CONTINUOUS
 10
6.9663387794
 20
2.8761646826
 11
6.9814254981
 21
2.8661068725
  0
LINE
  5
34C
100
AcDbEntity
  8
03__ASM_ALL_CURVES
100
AcDbLine
 62
40
  6
CONTINUOUS
 10
7.0870325294
 20
2.8761646826
 11
7.1021192481
 21
2.8661068725
  0
LINE
  5
34D
100
AcDbEntity
  8
03__ASM_ALL_CURVES
100
AcDbLine
 62
40
  6
CONTINUOUS
 10
2.6713063872
 20
5.8430026826
 11
2.6511907622
 21
5.8564130997
  0
LINE
  5
34E
100
AcDbEntity
  8
03__ASM_ALL_CURVES
100
AcDbLine
 62
40
  6
CONTINUOUS
 10
2.6914220122
 20
5.9368755961
 11
2.7115376372
 21
5.9234651826
  0
LINE
  5
34F
100
AcDbEntity
  8
03__ASM_ALL_CURVES
100
AcDbLine
 62
40
  6
CONTINUOUS
 10
7.3284200294
 20
2.8761646826
 11
7.3435067481
 21
2.8661068725
  0
LINE
  5
350
100
AcDbEntity
  8
03__ASM_ALL_CURVES
100
AcDbLine
 62
40
  6
CONTINUOUS
 10
2.6914220122
 20
6.0039276826
 11
2.7115376372
 21
5.9905172691
  0
LINE
  5
351
100
AcDbEntity
  8
03__ASM_ALL_CURVES
100
AcDbLine
 62
40
  6
CONTINUOUS
 10
3.9385907622
 20
5.8564130997
 11
3.9184751372
 21
5.8832339326
  0
LINE
  5
352
100
AcDbEntity
  8
03__ASM_ALL_CURVES
100
AcDbLine
 62
40
  6
CONTINUOUS
 10
3.9385907622
 20
5.9502860191
 11
3.9285329497
 21
5.9636964326
  0
LINE
  5
353
100
AcDbEntity
  8
03__ASM_ALL_CURVES
100
AcDbLine
 62
40
  6
CONTINUOUS
 10
3.9989376372
 20
5.9234651826
 11
4.0190532622
 21
5.8966443509
  0
LINE
  5
354
100
AcDbEntity
  8
03__ASM_ALL_CURVES
100
AcDbLine
 62
40
  6
CONTINUOUS
 10
3.9989376372
 20
5.9905172691
 11
4.0089954497
 21
5.9771068461
  0
LINE
  5
355
100
AcDbEntity
  8
03__ASM_ALL_CURVES
100
AcDbLine
 62
40
  6
CONTINUOUS
 10
4.1598626372
 20
5.9905172691
 11
4.1699204497
 21
5.9771068461
  0
LINE
  5
356
100
AcDbEntity
  8
THREAD
100
AcDbLine
 62
7
  6
CONTINUOUS
 10
5.7055114136
 20
3.5346646826
 11
5.6754891997
 21
3.5866646826
  0
LINE
  5
357
100
AcDbEntity
  8
0
100
AcDbLine
 62
7
  6
CONTINUOUS
 10
4.7147919579
 20
5.3821646826
 11
4.6434891997
 21
5.5056646826
  0
LINE
  5
358
100
AcDbEntity
  8
0
100
AcDbLine
 62
7
  6
CONTINUOUS
 10
5.6044891997
 20
3.5221646826
 11
5.6044891997
 21
5.4301646826
  0
LINE
  5
359
100
AcDbEntity
  8
03__ASM_ALL_CURVES
100
AcDbLine
 62
40
  6
CONTINUOUS
 10
5.6475991997
 20
5.8108176826
 11
5.6475991997
 21
5.7464476826
  0
LINE
  5
35A
100
AcDbEntity
  8
0
100
AcDbLine
 62
7
  6
CONTINUOUS
 10
5.6544891997
 20
3.5221646826
 11
5.6544891997
 21
5.4301646826
  0
LINE
  5
35B
100
AcDbEntity
  8
0
100
AcDbLine
 62
7
  6
CONTINUOUS
 10
5.6754891997
 20
3.5866646826
 11
5.6754891997
 21
5.3656646826
  0
LINE
  5
35C
100
AcDbEntity
  8
THREAD
100
AcDbLine
 62
7
  6
CONTINUOUS
 10
5.7055114136
 20
3.5346646826
 11
5.7055114136
 21
5.4176646826
  0
LINE
  5
35D
100
AcDbEntity
  8
03__ASM_ALL_CURVES
100
AcDbLine
 62
40
  6
CONTINUOUS
 10
5.7119691994
 20
6.0039276826
 11
5.7119691994
 21
5.8430026826
  0
LINE
  5
35E
100
AcDbEntity
  8
03__ASM_ALL_CURVES
100
AcDbLine
 62
40
  6
CONTINUOUS
 10
5.9734723244
 20
5.9234651826
 11
5.9634145119
 21
5.8832339326
  0
LINE
  5
35F
100
AcDbEntity
  8
03__ASM_ALL_CURVES
100
AcDbLine
 62
40
  6
CONTINUOUS
 10
6.0137035744
 20
5.9234651826
 11
6.0237613869
 21
5.9636964326
  0
LINE
  5
360
100
AcDbEntity
  8
03__ASM_ALL_CURVES
100
AcDbLine
 62
40
  6
CONTINUOUS
 10
6.1846863869
 20
5.8430026826
 11
6.2349754494
 21
6.0039276826
  0
LINE
  5
361
100
AcDbEntity
  8
03__ASM_ALL_CURVES
100
AcDbLine
 62
40
  6
CONTINUOUS
 10
6.8283863869
 20
5.9636964326
 11
6.8485020119
 21
5.9905172691
  0
LINE
  5
362
100
AcDbEntity
  8
03__ASM_ALL_CURVES
100
AcDbLine
 62
40
  6
CONTINUOUS
 10
6.9189066994
 20
5.8698235167
 11
6.9088488869
 21
5.8564130997
  0
LINE
  5
363
100
AcDbEntity
  8
03__ASM_ALL_CURVES
100
AcDbLine
 62
40
  6
CONTINUOUS
 10
4.6895034429
 20
2.835933435
 11
4.6819600836
 21
2.8258756177
  0
LINE
  5
364
100
AcDbEntity
  8
03__ASM_ALL_CURVES
100
AcDbLine
 62
40
  6
CONTINUOUS
 10
4.7423069586
 20
2.8459912451
 11
4.7573936773
 21
2.8661068725
  0
LINE
  5
365
100
AcDbEntity
  8
03__ASM_ALL_CURVES
100
AcDbLine
 62
40
  6
CONTINUOUS
 10
7.7134738869
 20
5.8564130997
 11
7.6933582619
 21
5.8430026826
  0
LINE
  5
366
100
AcDbEntity
  8
03__ASM_ALL_CURVES
100
AcDbLine
 62
40
  6
CONTINUOUS
 10
8.0252660744
 20
5.8564130997
 11
8.0051504494
 21
5.8430026826
  0
LINE
  5
367
100
AcDbEntity
  8
0
100
AcDbLine
 62
7
  6
CONTINUOUS
 10
4.081001396
 20
4.0382553655
 11
3.2104618309
 21
4.0382553655
  0
LINE
  5
368
100
AcDbEntity
  8
0
100
AcDbLine
 62
7
  6
CONTINUOUS
 10
6.9464891997
 20
4.0391646826
 11
6.8194288812
 21
4.0391646826
  0
LINE
  5
369
100
AcDbEntity
  8
0
100
AcDbLine
 62
7
  6
CONTINUOUS
 10
2.1234891997
 20
4.1951646826
 11
2.2937129213
 21
4.1951646826
  0
LINE
  5
36A
100
AcDbEntity
  8
0
100
AcDbLine
 62
7
  6
CONTINUOUS
 10
2.3304891997
 20
4.2051646826
 11
2.2994891997
 21
4.2051646826
  0
LINE
  5
36B
100
AcDbEntity
  8
0
100
AcDbLine
 62
7
  6
CONTINUOUS
 10
2.0864891997
 20
4.2051646826
 11
2.0804891997
 21
4.2051646826
  0
LINE
  5
36C
100
AcDbEntity
  8
0
100
AcDbLine
 62
7
  6
CONTINUOUS
 10
2.1079891997
 20
4.2106646826
 11
2.0919891997
 21
4.2106646826
  0
LINE
  5
36D
100
AcDbEntity
  8
0
100
AcDbLine
 62
7
  6
CONTINUOUS
 10
1.5484891997
 20
4.2921646826
 11
1.7474891997
 21
4.2921646826
  0
LINE
  5
36E
100
AcDbEntity
  8
0
100
AcDbLine
 62
7
  6
CONTINUOUS
 10
1.7854891997
 20
4.2921646826
 11
2.0184891997
 21
4.2921646826
  0
LINE
  5
36F
100
AcDbEntity
  8
03__ASM_ALL_CURVES
100
AcDbLine
 62
40
  6
CONTINUOUS
 10
10.0852423245
 20
4.3232859326
 11
10.0248954495
 21
4.3232859326
  0
LINE
  5
370
100
AcDbEntity
  8
03__ASM_ALL_CURVES
100
AcDbLine
 62
40
  6
CONTINUOUS
 10
9.8212247464
 20
4.3232859326
 11
9.8061380276
 21
4.3232859326
  0
LINE
  5
371
100
AcDbEntity
  8
03__ASM_ALL_CURVES
100
AcDbLine
 62
40
  6
CONTINUOUS
 10
9.7005309964
 20
4.3232859326
 11
9.6854442776
 21
4.3232859326
  0
LINE
  5
372
100
AcDbEntity
  8
03__ASM_ALL_CURVES
100
AcDbLine
 62
40
  6
CONTINUOUS
 10
9.5798372464
 20
4.3232859326
 11
9.5647505276
 21
4.3232859326
  0
LINE
  5
373
100
AcDbEntity
  8
03__ASM_ALL_CURVES
100
AcDbLine
 62
40
  6
CONTINUOUS
 10
9.4817735745
 20
4.3232859326
 11
9.4214266995
 21
4.3232859326
  0
LINE
  5
374
100
AcDbEntity
  8
03__ASM_ALL_CURVES
100
AcDbLine
 62
40
  6
CONTINUOUS
 10
8.968825137
 20
4.3232859326
 11
8.9386516995
 21
4.3232859326
  0
LINE
  5
375
100
AcDbEntity
  8
03__ASM_ALL_CURVES
100
AcDbLine
 62
40
  6
CONTINUOUS
 10
8.8783048245
 20
4.3232859326
 11
8.8179579495
 21
4.3232859326
  0
LINE
  5
376
100
AcDbEntity
  8
03__ASM_ALL_CURVES
100
AcDbLine
 62
40
  6
CONTINUOUS
 10
8.7349809964
 20
4.3232859326
 11
8.7198942776
 21
4.3232859326
  0
LINE
  5
377
100
AcDbEntity
  8
03__ASM_ALL_CURVES
100
AcDbLine
 62
40
  6
CONTINUOUS
 10
8.6142872464
 20
4.3232859326
 11
8.5992005276
 21
4.3232859326
  0
LINE
  5
378
100
AcDbEntity
  8
03__ASM_ALL_CURVES
100
AcDbLine
 62
40
  6
CONTINUOUS
 10
8.486050137
 20
4.3232859326
 11
8.4558766995
 21
4.3232859326
  0
LINE
  5
379
100
AcDbEntity
  8
03__ASM_ALL_CURVES
100
AcDbLine
 62
40
  6
CONTINUOUS
 10
8.3955298245
 20
4.3232859326
 11
8.3351829495
 21
4.3232859326
  0
LINE
  5
37A
100
AcDbEntity
  8
0
100
AcDbLine
 62
7
  6
CONTINUOUS
 10
1.7474891997
 20
4.3251646826
 11
1.7489891997
 21
4.3251646826
  0
LINE
  5
37B
100
AcDbEntity
  8
0
100
AcDbLine
 62
7
  6
CONTINUOUS
 10
1.7839891997
 20
4.3251646826
 11
1.7854891997
 21
4.3251646826
  0
LINE
  5
37C
100
AcDbEntity
  8
03__ASM_ALL_CURVES
100
AcDbLine
 62
40
  6
CONTINUOUS
 10
3.0032141997
 20
5.8430026826
 11
2.9830985747
 21
5.8564130997
  0
LINE
  5
37D
100
AcDbEntity
  8
03__ASM_ALL_CURVES
100
AcDbLine
 62
40
  6
CONTINUOUS
 10
3.1540813872
 20
5.8430026826
 11
3.1339657622
 21
5.8564130997
  0
LINE
  5
37E
100
AcDbEntity
  8
03__ASM_ALL_CURVES
100
AcDbLine
 62
40
  6
CONTINUOUS
 10
3.0032141997
 20
6.0039276826
 11
3.0233298247
 21
5.9905172691
  0
LINE
  5
37F
100
AcDbEntity
  8
03__ASM_ALL_CURVES
100
AcDbLine
 62
40
  6
CONTINUOUS
 10
3.1741970122
 20
5.9368755961
 11
3.1943126372
 21
5.9234651826
  0
LINE
  5
380
100
AcDbEntity
  8
03__ASM_ALL_CURVES
100
AcDbLine
 62
40
  6
CONTINUOUS
 10
3.1741970122
 20
6.0039276826
 11
3.1943126372
 21
5.9905172691
  0
LINE
  5
381
100
AcDbEntity
  8
03__ASM_ALL_CURVES
100
AcDbLine
 62
40
  6
CONTINUOUS
 10
3.4859891997
 20
5.8430026826
 11
3.4658735747
 21
5.8564130997
  0
LINE
  5
382
100
AcDbEntity
  8
03__ASM_ALL_CURVES
100
AcDbLine
 62
40
  6
CONTINUOUS
 10
4.2805563872
 20
6.0039276826
 11
4.3006720122
 21
5.9771068461
  0
LINE
  5
383
100
AcDbEntity
  8
03__ASM_ALL_CURVES
100
AcDbLine
 62
40
  6
CONTINUOUS
 10
6.9361653419
 20
2.7655287454
 11
6.9210786231
 21
2.7856443701
  0
LINE
  5
384
100
AcDbEntity
  8
03__ASM_ALL_CURVES
100
AcDbLine
 62
40
  6
CONTINUOUS
 10
6.8607317481
 20
2.8661068725
 11
6.8682751075
 21
2.8560490552
  0
LINE
  5
385
100
AcDbEntity
  8
03__ASM_ALL_CURVES
100
AcDbLine
 62
40
  6
CONTINUOUS
 10
7.1703520119
 20
5.9905172691
 11
7.1602941994
 21
5.9771068461
  0
LINE
  5
386
100
AcDbEntity
  8
03__ASM_ALL_CURVES
100
AcDbLine
 62
40
  6
CONTINUOUS
 10
4.8177405523
 20
2.7856443701
 11
4.8026538336
 21
2.7655287454
  0
LINE
  5
387
100
AcDbEntity
  8
03__ASM_ALL_CURVES
100
AcDbLine
 62
40
  6
CONTINUOUS
 10
4.6932751224
 20
2.6005806201
 11
4.6781884037
 21
2.5804649954
  0
LINE
  5
388
100
AcDbEntity
  8
03__ASM_ALL_CURVES
100
AcDbLine
 62
40
  6
CONTINUOUS
 10
4.9308909429
 20
2.835933435
 11
4.9233475836
 21
2.8258756177
  0
LINE
  5
389
100
AcDbEntity
  8
03__ASM_ALL_CURVES
100
AcDbLine
 62
40
  6
CONTINUOUS
 10
4.8139688724
 20
2.650869685
 11
4.806425513
 21
2.6408118677
  0
LINE
  5
38A
100
AcDbEntity
  8
03__ASM_ALL_CURVES
100
AcDbLine
 62
40
  6
CONTINUOUS
 10
7.2407566994
 20
5.8698235167
 11
7.2306988869
 21
5.8564130997
  0
LINE
  5
38B
100
AcDbEntity
  8
03__ASM_ALL_CURVES
100
AcDbLine
 62
40
  6
CONTINUOUS
 10
7.4720863869
 20
5.9636964326
 11
7.4922020119
 21
5.9905172691
  0
LINE
  5
38C
100
AcDbEntity
  8
03__ASM_ALL_CURVES
100
AcDbLine
 62
40
  6
CONTINUOUS
 10
8.3571738869
 20
5.9368755961
 11
8.3370582619
 21
5.9234651826
  0
LINE
  5
38D
100
AcDbEntity
  8
03__ASM_ALL_CURVES
100
AcDbLine
 62
40
  6
CONTINUOUS
 10
9.9419184964
 20
4.3836328076
 11
9.9042016995
 21
4.3836328076
  0
LINE
  5
38E
100
AcDbEntity
  8
03__ASM_ALL_CURVES
100
AcDbLine
 62
40
  6
CONTINUOUS
 10
9.3384497464
 20
4.3836328076
 11
9.3007329495
 21
4.3836328076
  0
LINE
  5
38F
100
AcDbEntity
  8
03__ASM_ALL_CURVES
100
AcDbLine
 62
40
  6
CONTINUOUS
 10
9.2177559964
 20
4.3836328076
 11
9.1800391995
 21
4.3836328076
  0
LINE
  5
390
100
AcDbEntity
  8
03__ASM_ALL_CURVES
100
AcDbLine
 62
40
  6
CONTINUOUS
 10
8.2522059964
 20
4.3836328076
 11
8.2144891995
 21
4.3836328076
  0
LINE
  5
391
100
AcDbEntity
  8
03__ASM_ALL_CURVES
100
AcDbLine
 62
40
  6
CONTINUOUS
 10
8.3351829495
 20
4.3836328076
 11
8.3728997464
 21
4.3836328076
  0
LINE
  5
392
100
AcDbEntity
  8
03__ASM_ALL_CURVES
100
AcDbLine
 62
40
  6
CONTINUOUS
 10
8.8179579495
 20
4.3836328076
 11
8.8556747464
 21
4.3836328076
  0
LINE
  5
393
100
AcDbEntity
  8
03__ASM_ALL_CURVES
100
AcDbLine
 62
40
  6
CONTINUOUS
 10
9.4214266995
 20
4.3836328076
 11
9.4591434964
 21
4.3836328076
  0
LINE
  5
394
100
AcDbEntity
  8
03__ASM_ALL_CURVES
100
AcDbLine
 62
40
  6
CONTINUOUS
 10
10.0248954495
 20
4.3836328076
 11
10.0626122464
 21
4.3836328076
  0
LINE
  5
395
100
AcDbEntity
  8
03__ASM_ALL_CURVES
100
AcDbLine
 62
40
  6
CONTINUOUS
 10
9.7005309964
 20
4.4439796826
 11
9.6854442776
 21
4.4439796826
  0
LINE
  5
396
100
AcDbEntity
  8
03__ASM_ALL_CURVES
100
AcDbLine
 62
40
  6
CONTINUOUS
 10
9.5798372464
 20
4.4439796826
 11
9.5647505276
 21
4.4439796826
  0
LINE
  5
397
100
AcDbEntity
  8
03__ASM_ALL_CURVES
100
AcDbLine
 62
40
  6
CONTINUOUS
 10
8.2144891995
 20
4.4439796826
 11
8.2522059964
 21
4.4439796826
  0
LINE
  5
398
100
AcDbEntity
  8
03__ASM_ALL_CURVES
100
AcDbLine
 62
40
  6
CONTINUOUS
 10
8.3351829495
 20
4.4439796826
 11
8.3955298245
 21
4.4439796826
  0
LINE
  5
399
100
AcDbEntity
  8
03__ASM_ALL_CURVES
100
AcDbLine
 62
40
  6
CONTINUOUS
 10
8.4558766995
 20
4.4439796826
 11
8.486050137
 21
4.4439796826
  0
LINE
  5
39A
100
AcDbEntity
  8
03__ASM_ALL_CURVES
100
AcDbLine
 62
40
  6
CONTINUOUS
 10
8.7198942776
 20
4.4439796826
 11
8.7349809964
 21
4.4439796826
  0
LINE
  5
39B
100
AcDbEntity
  8
03__ASM_ALL_CURVES
100
AcDbLine
 62
40
  6
CONTINUOUS
 10
8.8179579495
 20
4.4439796826
 11
8.8783048245
 21
4.4439796826
  0
LINE
  5
39C
100
AcDbEntity
  8
03__ASM_ALL_CURVES
100
AcDbLine
 62
40
  6
CONTINUOUS
 10
8.9386516995
 20
4.4439796826
 11
8.968825137
 21
4.4439796826
  0
LINE
  5
39D
100
AcDbEntity
  8
03__ASM_ALL_CURVES
100
AcDbLine
 62
40
  6
CONTINUOUS
 10
9.1800391995
 20
4.4439796826
 11
9.2177559964
 21
4.4439796826
  0
LINE
  5
39E
100
AcDbEntity
  8
03__ASM_ALL_CURVES
100
AcDbLine
 62
40
  6
CONTINUOUS
 10
9.3007329495
 20
4.4439796826
 11
9.3384497464
 21
4.4439796826
  0
LINE
  5
39F
100
AcDbEntity
  8
03__ASM_ALL_CURVES
100
AcDbLine
 62
40
  6
CONTINUOUS
 10
9.4214266995
 20
4.4439796826
 11
9.4817735745
 21
4.4439796826
  0
LINE
  5
3A0
100
AcDbEntity
  8
03__ASM_ALL_CURVES
100
AcDbLine
 62
40
  6
CONTINUOUS
 10
9.9042016995
 20
4.4439796826
 11
9.9419184964
 21
4.4439796826
  0
LINE
  5
3A1
100
AcDbEntity
  8
03__ASM_ALL_CURVES
100
AcDbLine
 62
40
  6
CONTINUOUS
 10
10.0248954495
 20
4.4439796826
 11
10.0852423245
 21
4.4439796826
  0
LINE
  5
3A2
100
AcDbEntity
  8
0
100
AcDbLine
 62
7
  6
CONTINUOUS
 10
2.2686177893
 20
4.4761646826
 11
2.1669600509
 21
4.4761646826
  0
LINE
  5
3A3
100
AcDbEntity
  8
03__ASM_ALL_CURVES
100
AcDbLine
 62
40
  6
CONTINUOUS
 10
8.3728997464
 20
4.5083496826
 11
8.3578130276
 21
4.5083496826
  0
LINE
  5
3A4
100
AcDbEntity
  8
03__ASM_ALL_CURVES
100
AcDbLine
 62
40
  6
CONTINUOUS
 10
8.4935934964
 20
4.5686965576
 11
8.4558766995
 21
4.5686965576
  0
LINE
  5
3A5
100
AcDbEntity
  8
03__ASM_ALL_CURVES
100
AcDbLine
 62
40
  6
CONTINUOUS
 10
8.2522059964
 20
4.5686965576
 11
8.2144891995
 21
4.5686965576
  0
LINE
  5
3A6
100
AcDbEntity
  8
0
100
AcDbLine
 62
7
  6
CONTINUOUS
 10
1.7474891997
 20
4.6271646826
 11
1.7854891997
 21
4.6271646826
  0
LINE
  5
3A7
100
AcDbEntity
  8
03__ASM_ALL_CURVES
100
AcDbLine
 62
40
  6
CONTINUOUS
 10
8.2144891995
 20
4.6290434326
 11
8.2522059964
 21
4.6290434326
  0
LINE
  5
3A8
100
AcDbEntity
  8
03__ASM_ALL_CURVES
100
AcDbLine
 62
40
  6
CONTINUOUS
 10
8.3578130276
 20
4.6290434326
 11
8.3728997464
 21
4.6290434326
  0
LINE
  5
3A9
100
AcDbEntity
  8
03__ASM_ALL_CURVES
100
AcDbLine
 62
40
  6
CONTINUOUS
 10
8.4558766995
 20
4.6290434326
 11
8.4935934964
 21
4.6290434326
  0
LINE
  5
3AA
100
AcDbEntity
  8
03__ASM_ALL_CURVES
100
AcDbLine
 62
40
  6
CONTINUOUS
 10
8.5690270901
 20
4.6290434326
 11
8.6444606839
 21
4.6290434326
  0
LINE
  5
3AB
100
AcDbEntity
  8
03__ASM_ALL_CURVES
100
AcDbLine
 62
40
  6
CONTINUOUS
 10
3.0032141997
 20
5.9100547643
 11
2.9730407622
 21
5.9234651826
  0
LINE
  5
3AC
100
AcDbEntity
  8
03__ASM_ALL_CURVES
100
AcDbLine
 62
40
  6
CONTINUOUS
 10
3.6469141997
 20
5.8430026826
 11
3.6267985747
 21
5.8564130997
  0
LINE
  5
3AD
100
AcDbEntity
  8
03__ASM_ALL_CURVES
100
AcDbLine
 62
40
  6
CONTINUOUS
 10
3.4859891997
 20
6.0039276826
 11
3.5061048247
 21
5.9905172691
  0
LINE
  5
3AE
100
AcDbEntity
  8
03__ASM_ALL_CURVES
100
AcDbLine
 62
40
  6
CONTINUOUS
 10
3.6469141997
 20
6.0039276826
 11
3.6670298247
 21
5.9905172691
  0
LINE
  5
3AF
100
AcDbEntity
  8
03__ASM_ALL_CURVES
100
AcDbLine
 62
40
  6
CONTINUOUS
 10
3.9587063872
 20
5.8430026826
 11
3.9385907622
 21
5.8564130997
  0
LINE
  5
3B0
100
AcDbEntity
  8
03__ASM_ALL_CURVES
100
AcDbLine
 62
40
  6
CONTINUOUS
 10
6.9814254981
 20
2.8661068725
 11
6.9965122169
 21
2.8459912451
  0
LINE
  5
3B1
100
AcDbEntity
  8
03__ASM_ALL_CURVES
100
AcDbLine
 62
40
  6
CONTINUOUS
 10
7.1021192481
 20
2.8661068725
 11
7.1096626075
 21
2.8560490552
  0
LINE
  5
3B2
100
AcDbEntity
  8
03__ASM_ALL_CURVES
100
AcDbLine
 62
40
  6
CONTINUOUS
 10
6.9097635926
 20
2.6911009326
 11
6.9701104676
 21
2.5704071826
  0
LINE
  5
3B3
100
AcDbEntity
  8
THREAD
100
AcDbLine
 62
7
  6
CONTINUOUS
 10
6.1749891997
 20
3.5346646826
 11
6.1749891997
 21
5.4176646826
  0
LINE
  5
3B4
100
AcDbEntity
  8
THREAD
100
AcDbLine
 62
7
  6
CONTINUOUS
 10
6.2724891997
 20
3.6321646826
 11
6.2724891997
 21
5.3201646826
  0
LINE
  5
3B5
100
AcDbEntity
  8
0
100
AcDbLine
 62
7
  6
CONTINUOUS
 10
6.3794891997
 20
3.6321646826
 11
6.3794891997
 21
5.3201646826
  0
LINE
  5
3B6
100
AcDbEntity
  8
0
100
AcDbLine
 62
7
  6
CONTINUOUS
 10
6.3924891997
 20
3.6451646826
 11
6.3924891997
 21
5.3071646826
  0
LINE
  5
3B7
100
AcDbEntity
  8
03__ASM_ALL_CURVES
100
AcDbLine
 62
40
  6
CONTINUOUS
 10
6.3959004494
 20
6.0039276826
 11
6.3959004494
 21
5.8430026826
  0
LINE
  5
3B8
100
AcDbEntity
  8
03__ASM_ALL_CURVES
100
AcDbLine
 62
40
  6
CONTINUOUS
 10
6.8183285744
 20
5.9234651826
 11
6.8283863869
 21
5.9636964326
  0
LINE
  5
3B9
100
AcDbEntity
  8
03__ASM_ALL_CURVES
100
AcDbLine
 62
40
  6
CONTINUOUS
 10
5.1722784429
 20
2.8459912451
 11
5.1647350836
 21
2.835933435
  0
LINE
  5
3BA
100
AcDbEntity
  8
03__ASM_ALL_CURVES
100
AcDbLine
 62
40
  6
CONTINUOUS
 10
5.1798218023
 20
2.7856443701
 11
5.1647350836
 21
2.7655287454
  0
LINE
  5
3BB
100
AcDbEntity
  8
03__ASM_ALL_CURVES
100
AcDbLine
 62
40
  6
CONTINUOUS
 10
7.5726645119
 20
5.8832339326
 11
7.5525488869
 21
5.8564130997
  0
LINE
  5
3BC
100
AcDbEntity
  8
03__ASM_ALL_CURVES
100
AcDbLine
 62
40
  6
CONTINUOUS
 10
7.7235316994
 20
5.8698235167
 11
7.7134738869
 21
5.8564130997
  0
LINE
  5
3BD
100
AcDbEntity
  8
03__ASM_ALL_CURVES
100
AcDbLine
 62
40
  6
CONTINUOUS
 10
4.6819600836
 20
2.8258756177
 11
4.6668733648
 21
2.8158178076
  0
LINE
  5
3BE
100
AcDbEntity
  8
03__ASM_ALL_CURVES
100
AcDbLine
 62
40
  6
CONTINUOUS
 10
4.7573936773
 20
2.8661068725
 11
4.7724803961
 21
2.8761646826
  0
LINE
  5
3BF
100
AcDbEntity
  8
0
100
AcDbLine
 62
7
  6
CONTINUOUS
 10
1.5484891997
 20
4.6601646826
 11
1.7474891997
 21
4.6601646826
  0
LINE
  5
3C0
100
AcDbEntity
  8
0
100
AcDbLine
 62
7
  6
CONTINUOUS
 10
1.7854891997
 20
4.6601646826
 11
2.0184891997
 21
4.6601646826
  0
LINE
  5
3C1
100
AcDbEntity
  8
0
100
AcDbLine
 62
7
  6
CONTINUOUS
 10
2.1079891997
 20
4.7416646826
 11
2.0919891997
 21
4.7416646826
  0
LINE
  5
3C2
100
AcDbEntity
  8
0
100
AcDbLine
 62
7
  6
CONTINUOUS
 10
2.3304891997
 20
4.7471646826
 11
2.2994891997
 21
4.7471646826
  0
LINE
  5
3C3
100
AcDbEntity
  8
0
100
AcDbLine
 62
7
  6
CONTINUOUS
 10
2.0864891997
 20
4.7471646826
 11
2.0804891997
 21
4.7471646826
  0
LINE
  5
3C4
100
AcDbEntity
  8
0
100
AcDbLine
 62
7
  6
CONTINUOUS
 10
2.1234891997
 20
4.7571646826
 11
2.2937129213
 21
4.7571646826
  0
LINE
  5
3C5
100
AcDbEntity
  8
0
100
AcDbLine
 62
7
  6
CONTINUOUS
 10
6.9464891997
 20
4.9131646826
 11
6.8194203109
 21
4.9131646826
  0
LINE
  5
3C6
100
AcDbEntity
  8
0
100
AcDbLine
 62
7
  6
CONTINUOUS
 10
4.081001396
 20
4.9140739997
 11
3.2104618309
 21
4.9140739997
  0
LINE
  5
3C7
100
AcDbEntity
  8
03__ASM_ALL_CURVES
100
AcDbLine
 62
40
  6
CONTINUOUS
 10
3.4859891997
 20
5.9100547643
 11
3.4558157622
 21
5.9234651826
  0
LINE
  5
3C8
100
AcDbEntity
  8
03__ASM_ALL_CURVES
100
AcDbLine
 62
40
  6
CONTINUOUS
 10
3.6469141997
 20
5.9100547643
 11
3.6167407622
 21
5.9234651826
  0
LINE
  5
3C9
100
AcDbEntity
  8
03__ASM_ALL_CURVES
100
AcDbLine
 62
40
  6
CONTINUOUS
 10
3.9587063872
 20
5.9368755961
 11
3.9385907622
 21
5.9502860191
  0
LINE
  5
3CA
100
AcDbEntity
  8
03__ASM_ALL_CURVES
100
AcDbLine
 62
40
  6
CONTINUOUS
 10
3.9788220122
 20
5.9368755961
 11
3.9989376372
 21
5.9234651826
  0
LINE
  5
3CB
100
AcDbEntity
  8
03__ASM_ALL_CURVES
100
AcDbLine
 62
40
  6
CONTINUOUS
 10
3.9788220122
 20
6.0039276826
 11
3.9989376372
 21
5.9905172691
  0
LINE
  5
3CC
100
AcDbEntity
  8
03__ASM_ALL_CURVES
100
AcDbLine
 62
40
  6
CONTINUOUS
 10
4.1397470122
 20
6.0039276826
 11
4.1598626372
 21
5.9905172691
  0
LINE
  5
3CD
100
AcDbEntity
  8
03__ASM_ALL_CURVES
100
AcDbLine
 62
40
  6
CONTINUOUS
 10
7.3435067481
 20
2.8661068725
 11
7.3510501075
 21
2.8560490552
  0
LINE
  5
3CE
100
AcDbEntity
  8
03__ASM_ALL_CURVES
100
AcDbLine
 62
40
  6
CONTINUOUS
 10
5.8628363869
 20
5.8832339326
 11
5.8527785744
 21
5.9234651826
  0
LINE
  5
3CF
100
AcDbEntity
  8
03__ASM_ALL_CURVES
100
AcDbLine
 62
40
  6
CONTINUOUS
 10
5.9634145119
 20
5.9636964326
 11
5.9734723244
 21
5.9234651826
  0
LINE
  5
3D0
100
AcDbEntity
  8
03__ASM_ALL_CURVES
100
AcDbLine
 62
40
  6
CONTINUOUS
 10
6.0237613869
 20
5.8832339326
 11
6.0137035744
 21
5.9234651826
  0
LINE
  5
3D1
100
AcDbEntity
  8
03__ASM_ALL_CURVES
100
AcDbLine
 62
40
  6
CONTINUOUS
 10
6.5568254494
 20
6.0039276826
 11
6.5568254494
 21
5.8430026826
  0
LINE
  5
3D2
100
AcDbEntity
  8
03__ASM_ALL_CURVES
100
AcDbLine
 62
40
  6
CONTINUOUS
 10
6.6775191994
 20
5.8430026826
 11
6.6775191994
 21
6.0039276826
  0
LINE
  5
3D3
100
AcDbEntity
  8
03__ASM_ALL_CURVES
100
AcDbLine
 62
40
  6
CONTINUOUS
 10
6.7579816994
 20
5.8430026826
 11
6.7579816994
 21
6.0039276826
  0
LINE
  5
3D4
100
AcDbEntity
  8
03__ASM_ALL_CURVES
100
AcDbLine
 62
40
  6
CONTINUOUS
 10
8.0453816994
 20
5.8832339326
 11
8.0252660744
 21
5.8564130997
  0
LINE
  5
3D5
100
AcDbEntity
  8
THREAD
100
AcDbLine
 62
7
  6
CONTINUOUS
 10
6.2724891997
 20
3.6321646826
 11
6.1749891997
 21
3.5346646826
  0
LINE
  5
3D6
100
AcDbEntity
  8
0
100
AcDbLine
 62
7
  6
CONTINUOUS
 10
6.3924891997
 20
3.6451646826
 11
6.3794891997
 21
3.6321646826
  0
LINE
  5
3D7
100
AcDbEntity
  8
03__ASM_ALL_CURVES
100
AcDbLine
 62
40
  6
CONTINUOUS
 10
4.8026538336
 20
2.7655287454
 11
4.7875671148
 21
2.7554709326
  0
LINE
  5
3D8
100
AcDbEntity
  8
03__ASM_ALL_CURVES
100
AcDbLine
 62
40
  6
CONTINUOUS
 10
4.9233475836
 20
2.8258756177
 11
4.9082608648
 21
2.8158178076
  0
LINE
  5
3D9
100
AcDbEntity
  8
03__ASM_ALL_CURVES
100
AcDbLine
 62
40
  6
CONTINUOUS
 10
4.6781884037
 20
2.5804649954
 11
4.6631016849
 21
2.5704071826
  0
LINE
  5
3DA
100
AcDbEntity
  8
03__ASM_ALL_CURVES
100
AcDbLine
 62
40
  6
CONTINUOUS
 10
5.1194749273
 20
2.8661068725
 11
5.1345616461
 21
2.8761646826
  0
LINE
  5
3DB
100
AcDbEntity
  8
03__ASM_ALL_CURVES
100
AcDbLine
 62
40
  6
CONTINUOUS
 10
4.806425513
 20
2.6408118677
 11
4.7913387943
 21
2.6307540576
  0
LINE
  5
3DC
100
AcDbEntity
  8
03__ASM_ALL_CURVES
100
AcDbLine
 62
40
  6
CONTINUOUS
 10
5.1647350836
 20
2.835933435
 11
5.1496483648
 21
2.8258756177
  0
LINE
  5
3DD
100
AcDbEntity
  8
03__ASM_ALL_CURVES
100
AcDbLine
 62
40
  6
CONTINUOUS
 10
5.1647350836
 20
2.7655287454
 11
5.1496483648
 21
2.7554709326
  0
LINE
  5
3DE
100
AcDbEntity
  8
0
100
AcDbLine
 62
7
  6
CONTINUOUS
 10
4.081001396
 20
4.960860024
 11
3.2104618309
 21
4.960860024
  0
LINE
  5
3DF
100
AcDbEntity
  8
0
100
AcDbLine
 62
7
  6
CONTINUOUS
 10
7.8524891997
 20
5.1939146826
 11
7.8144891997
 21
5.1939146826
  0
LINE
  5
3E0
100
AcDbEntity
  8
0
100
AcDbLine
 62
7
  6
CONTINUOUS
 10
7.5174891997
 20
5.1939146826
 11
7.0484891997
 21
5.1939146826
  0
LINE
  5
3E1
100
AcDbEntity
  8
0
100
AcDbLine
 62
7
  6
CONTINUOUS
 10
6.7364891997
 20
5.1939146826
 11
6.3924891997
 21
5.1939146826
  0
LINE
  5
3E2
100
AcDbEntity
  8
03__ASM_ALL_CURVES
100
AcDbLine
 62
40
  6
CONTINUOUS
 10
1.7105991997
 20
5.7518118493
 11
1.5174891997
 21
5.7786326826
  0
LINE
  5
3E3
100
AcDbEntity
  8
03__ASM_ALL_CURVES
100
AcDbLine
 62
40
  6
CONTINUOUS
 10
1.7105991997
 20
5.7464476826
 11
1.5174891997
 21
5.7786326826
  0
LINE
  5
3E4
100
AcDbEntity
  8
03__ASM_ALL_CURVES
100
AcDbLine
 62
40
  6
CONTINUOUS
 10
7.0870325294
 20
2.8158178076
 11
7.1096626075
 21
2.7554709326
  0
LINE
  5
3E5
100
AcDbEntity
  8
03__ASM_ALL_CURVES
100
AcDbLine
 62
40
  6
CONTINUOUS
 10
6.2349754494
 20
6.0039276826
 11
6.2852645119
 21
5.8430026826
  0
LINE
  5
3E6
100
AcDbEntity
  8
03__ASM_ALL_CURVES
100
AcDbLine
 62
40
  6
CONTINUOUS
 10
6.9210786231
 20
2.7856443701
 11
6.9135352638
 21
2.8158178076
  0
LINE
  5
3E7
100
AcDbEntity
  8
03__ASM_ALL_CURVES
100
AcDbLine
 62
40
  6
CONTINUOUS
 10
6.9965122169
 20
2.8459912451
 11
7.0040555763
 21
2.8158178076
  0
LINE
  5
3E8
100
AcDbEntity
  8
03__ASM_ALL_CURVES
100
AcDbLine
 62
40
  6
CONTINUOUS
 10
6.8079282325
 20
2.7554709326
 11
6.8079282325
 21
2.8761646826
  0
LINE
  5
3E9
100
AcDbEntity
  8
03__ASM_ALL_CURVES
100
AcDbLine
 62
40
  6
CONTINUOUS
 10
6.8192432801
 20
2.6911009326
 11
6.8192432801
 21
2.5704071826
  0
LINE
  5
3EA
100
AcDbEntity
  8
03__ASM_ALL_CURVES
100
AcDbLine
 62
40
  6
CONTINUOUS
 10
6.8682751075
 20
2.8560490552
 11
6.8682751075
 21
2.835933435
  0
LINE
  5
3EB
100
AcDbEntity
  8
03__ASM_ALL_CURVES
100
AcDbLine
 62
40
  6
CONTINUOUS
 10
6.9097635926
 20
2.5704071826
 11
6.9097635926
 21
2.6911009326
  0
LINE
  5
3EC
100
AcDbEntity
  8
03__ASM_ALL_CURVES
100
AcDbLine
 62
40
  6
CONTINUOUS
 10
6.9189066994
 20
5.9234651826
 11
6.9189066994
 21
5.8698235167
  0
LINE
  5
3ED
100
AcDbEntity
  8
0
100
AcDbLine
 62
7
  6
CONTINUOUS
 10
6.9464891997
 20
4.9131646826
 11
6.9464891997
 21
4.8703788516
  0
LINE
  5
3EE
100
AcDbEntity
  8
0
100
AcDbLine
 62
7
  6
CONTINUOUS
 10
6.9464891997
 20
4.0391646826
 11
6.9464891997
 21
4.0819505562
  0
LINE
  5
3EF
100
AcDbEntity
  8
0
100
AcDbLine
 62
7
  6
CONTINUOUS
 10
6.9464891997
 20
4.3304279869
 11
6.9464891997
 21
4.6220562931
  0
LINE
  5
3F0
100
AcDbEntity
  8
0
100
AcDbLine
 62
7
  6
CONTINUOUS
 10
6.9544891997
 20
4.0361205289
 11
6.9544891997
 21
4.0795757223
  0
LINE
  5
3F1
100
AcDbEntity
  8
0
100
AcDbLine
 62
7
  6
CONTINUOUS
 10
6.9544891997
 20
4.3339499255
 11
6.9544891997
 21
4.6184117408
  0
LINE
  5
3F2
100
AcDbEntity
  8
0
100
AcDbLine
 62
7
  6
CONTINUOUS
 10
6.9544891997
 20
4.8727537489
 11
6.9544891997
 21
4.9162421246
  0
LINE
  5
3F3
100
AcDbEntity
  8
03__ASM_ALL_CURVES
100
AcDbLine
 62
40
  6
CONTINUOUS
 10
6.9701104676
 20
2.5704071826
 11
6.9701104676
 21
2.6911009326
  0
LINE
  5
3F4
100
AcDbEntity
  8
0
100
AcDbLine
 62
7
  6
CONTINUOUS
 10
7.0114891997
 20
4.3764433336
 11
7.0114891997
 21
4.5758502742
  0
LINE
  5
3F5
100
AcDbEntity
  8
0
100
AcDbLine
 62
7
  6
CONTINUOUS
 10
7.0184891997
 20
4.3842033503
 11
7.0184891997
 21
4.5679873573
  0
LINE
  5
3F6
100
AcDbEntity
  8
0
100
AcDbLine
 62
7
  6
CONTINUOUS
 10
7.0284891997
 20
4.4014301985
 11
7.0284891997
 21
4.5508993192
  0
LINE
  5
3F7
100
AcDbEntity
  8
03__ASM_ALL_CURVES
100
AcDbLine
 62
40
  6
CONTINUOUS
 10
7.0304573426
 20
2.6911009326
 11
7.0304573426
 21
2.5704071826
  0
LINE
  5
3F8
100
AcDbEntity
  8
0
100
AcDbLine
 62
7
  6
CONTINUOUS
 10
7.0354891997
 20
4.4143059904
 11
7.0354891997
 21
4.5382596613
  0
LINE
  5
3F9
100
AcDbEntity
  8
03__ASM_ALL_CURVES
100
AcDbLine
 62
40
  6
CONTINUOUS
 10
7.0493157325
 20
2.7554709326
 11
7.0493157325
 21
2.8761646826
  0
LINE
  5
3FA
100
AcDbEntity
  8
03__ASM_ALL_CURVES
100
AcDbLine
 62
40
  6
CONTINUOUS
 10
7.4620285744
 20
5.9234651826
 11
7.4720863869
 21
5.9636964326
  0
LINE
  5
3FB
100
AcDbEntity
  8
03__ASM_ALL_CURVES
100
AcDbLine
 62
40
  6
CONTINUOUS
 10
8.3672316994
 20
5.9502860191
 11
8.3571738869
 21
5.9368755961
  0
LINE
  5
3FC
100
AcDbEntity
  8
03__ASM_ALL_CURVES
100
AcDbLine
 62
40
  6
CONTINUOUS
 10
8.2672927151
 20
4.5787543677
 11
8.2522059964
 21
4.5686965576
  0
LINE
  5
3FD
100
AcDbEntity
  8
03__ASM_ALL_CURVES
100
AcDbLine
 62
40
  6
CONTINUOUS
 10
8.3427263089
 20
4.6189856225
 11
8.3578130276
 21
4.6290434326
  0
LINE
  5
3FE
100
AcDbEntity
  8
03__ASM_ALL_CURVES
100
AcDbLine
 62
40
  6
CONTINUOUS
 10
8.3879864651
 20
4.5184074954
 11
8.3728997464
 21
4.5083496826
  0
LINE
  5
3FF
100
AcDbEntity
  8
03__ASM_ALL_CURVES
100
AcDbLine
 62
40
  6
CONTINUOUS
 10
8.5086802151
 20
4.5787543677
 11
8.4935934964
 21
4.5686965576
  0
LINE
  5
400
100
AcDbEntity
  8
0
100
AcDbLine
 62
7
  6
CONTINUOUS
 10
3.1434891997
 20
5.2571646826
 11
2.3924891997
 21
5.2571646826
  0
LINE
  5
401
100
AcDbEntity
  8
0
100
AcDbLine
 62
7
  6
CONTINUOUS
 10
7.6114891997
 20
5.2819146826
 11
7.6614891997
 21
5.2819146826
  0
LINE
  5
402
100
AcDbEntity
  8
0
100
AcDbLine
 62
7
  6
CONTINUOUS
 10
7.7644891997
 20
5.2819146826
 11
7.8144891997
 21
5.2819146826
  0
LINE
  5
403
100
AcDbEntity
  8
0
100
AcDbLine
 62
7
  6
CONTINUOUS
 10
7.5174891997
 20
5.2871646826
 11
7.6114891997
 21
5.2871646826
  0
LINE
  5
404
100
AcDbEntity
  8
0
100
AcDbLine
 62
7
  6
CONTINUOUS
 10
7.8524891997
 20
5.2871646826
 11
7.9614891997
 21
5.2871646826
  0
LINE
  5
405
100
AcDbEntity
  8
THREAD
100
AcDbLine
 62
7
  6
CONTINUOUS
 10
6.3794891997
 20
5.3201646826
 11
6.2724891997
 21
5.3201646826
  0
LINE
  5
406
100
AcDbEntity
  8
0
100
AcDbLine
 62
7
  6
CONTINUOUS
 10
5.2623411419
 20
5.3821646826
 11
4.7147919579
 21
5.3821646826
  0
LINE
  5
407
100
AcDbEntity
  8
0
100
AcDbLine
 62
7
  6
CONTINUOUS
 10
4.081001396
 20
5.3987693411
 11
3.2104618309
 21
5.3987693411
  0
LINE
  5
408
100
AcDbEntity
  8
0
100
AcDbLine
 62
7
  6
CONTINUOUS
 10
4.081001396
 20
5.3991646826
 11
3.2104618309
 21
5.3991646826
  0
LINE
  5
409
100
AcDbEntity
  8
THREAD
100
AcDbLine
 62
7
  6
CONTINUOUS
 10
6.1749891997
 20
5.4176646826
 11
5.7055114136
 21
5.4176646826
  0
LINE
  5
40A
100
AcDbEntity
  8
0
100
AcDbLine
 62
7
  6
CONTINUOUS
 10
4.5664891997
 20
5.4176646826
 11
4.5454891997
 21
5.4176646826
  0
LINE
  5
40B
100
AcDbEntity
  8
THREAD
100
AcDbLine
 62
7
  6
CONTINUOUS
 10
5.5014891997
 20
5.4296646826
 11
5.4544891997
 21
5.4296646826
  0
LINE
  5
40C
100
AcDbEntity
  8
0
100
AcDbLine
 62
7
  6
CONTINUOUS
 10
5.6044891997
 20
5.4301646826
 11
5.6544891997
 21
5.4301646826
  0
LINE
  5
40D
100
AcDbEntity
  8
0
100
AcDbLine
 62
7
  6
CONTINUOUS
 10
5.4544891997
 20
5.5036646826
 11
5.3324891997
 21
5.5036646826
  0
LINE
  5
40E
100
AcDbEntity
  8
0
100
AcDbLine
 62
7
  6
CONTINUOUS
 10
4.6434891997
 20
5.5056646826
 11
4.5664891997
 21
5.5056646826
  0
LINE
  5
40F
100
AcDbEntity
  8
0
100
AcDbLine
 62
7
  6
CONTINUOUS
 10
4.1424891997
 20
5.5056646826
 11
4.4424891997
 21
5.5056646826
  0
LINE
  5
410
100
AcDbEntity
  8
03__ASM_ALL_CURVES
100
AcDbLine
 62
40
  6
CONTINUOUS
 10
1.7105991997
 20
5.7679043493
 11
1.5174891997
 21
5.7786326826
  0
LINE
  5
411
100
AcDbEntity
  8
03__ASM_ALL_CURVES
100
AcDbLine
 62
40
  6
CONTINUOUS
 10
1.7105991997
 20
5.7625401826
 11
1.5174891997
 21
5.7786326826
  0
LINE
  5
412
100
AcDbEntity
  8
03__ASM_ALL_CURVES
100
AcDbLine
 62
40
  6
CONTINUOUS
 10
1.7105991997
 20
5.7571760159
 11
1.5174891997
 21
5.7786326826
  0
LINE
  5
413
100
AcDbEntity
  8
THREAD
100
AcDbLine
 62
7
  6
CONTINUOUS
 10
6.2724891997
 20
5.3201646826
 11
6.1749891997
 21
5.4176646826
  0
LINE
  5
414
100
AcDbEntity
  8
0
100
AcDbLine
 62
7
  6
CONTINUOUS
 10
6.3924891997
 20
5.3071646826
 11
6.3794891997
 21
5.3201646826
  0
LINE
  5
415
100
AcDbEntity
  8
03__ASM_ALL_CURVES
100
AcDbLine
 62
40
  6
CONTINUOUS
 10
5.8829520119
 20
5.8564130997
 11
5.8628363869
 21
5.8832339326
  0
LINE
  5
416
100
AcDbEntity
  8
03__ASM_ALL_CURVES
100
AcDbLine
 62
40
  6
CONTINUOUS
 10
6.0438770119
 20
5.8564130997
 11
6.0237613869
 21
5.8832339326
  0
LINE
  5
417
100
AcDbEntity
  8
03__ASM_ALL_CURVES
100
AcDbLine
 62
40
  6
CONTINUOUS
 10
5.9432988869
 20
5.9905172691
 11
5.9634145119
 21
5.9636964326
  0
LINE
  5
418
100
AcDbEntity
  8
03__ASM_ALL_CURVES
100
AcDbLine
 62
40
  6
CONTINUOUS
 10
6.1042238869
 20
5.9905172691
 11
6.1142816994
 21
5.9771068461
  0
LINE
  5
419
100
AcDbEntity
  8
03__ASM_ALL_CURVES
100
AcDbLine
 62
40
  6
CONTINUOUS
 10
7.1096626075
 20
2.8560490552
 11
7.1096626075
 21
2.835933435
  0
LINE
  5
41A
100
AcDbEntity
  8
03__ASM_ALL_CURVES
100
AcDbLine
 62
40
  6
CONTINUOUS
 10
7.1511510926
 20
2.5704071826
 11
7.1511510926
 21
2.6911009326
  0
LINE
  5
41B
100
AcDbEntity
  8
03__ASM_ALL_CURVES
100
AcDbLine
 62
40
  6
CONTINUOUS
 10
7.1602941994
 20
5.9771068461
 11
7.1602941994
 21
5.9636964326
  0
LINE
  5
41C
100
AcDbEntity
  8
03__ASM_ALL_CURVES
100
AcDbLine
 62
40
  6
CONTINUOUS
 10
7.20018292
 20
2.8761646826
 11
7.20018292
 21
2.7554709326
  0
LINE
  5
41D
100
AcDbEntity
  8
03__ASM_ALL_CURVES
100
AcDbLine
 62
40
  6
CONTINUOUS
 10
7.2407566994
 20
5.8966443509
 11
7.2407566994
 21
5.8698235167
  0
LINE
  5
41E
100
AcDbEntity
  8
03__ASM_ALL_CURVES
100
AcDbLine
 62
40
  6
CONTINUOUS
 10
7.3020182801
 20
2.6911009326
 11
7.3020182801
 21
2.5704071826
  0
LINE
  5
41F
100
AcDbEntity
  8
03__ASM_ALL_CURVES
100
AcDbLine
 62
40
  6
CONTINUOUS
 10
7.3212191994
 20
6.0039276826
 11
7.3212191994
 21
5.8430026826
  0
LINE
  5
420
100
AcDbEntity
  8
03__ASM_ALL_CURVES
100
AcDbLine
 62
40
  6
CONTINUOUS
 10
7.3510501075
 20
2.8560490552
 11
7.3510501075
 21
2.835933435
  0
LINE
  5
421
100
AcDbEntity
  8
03__ASM_ALL_CURVES
100
AcDbLine
 62
40
  6
CONTINUOUS
 10
7.5827223244
 20
5.9234651826
 11
7.5726645119
 21
5.8832339326
  0
LINE
  5
422
100
AcDbEntity
  8
03__ASM_ALL_CURVES
100
AcDbLine
 62
40
  6
CONTINUOUS
 10
6.9135352638
 20
2.8158178076
 11
6.9210786231
 21
2.8459912451
  0
LINE
  5
423
100
AcDbEntity
  8
03__ASM_ALL_CURVES
100
AcDbLine
 62
40
  6
CONTINUOUS
 10
7.0040555763
 20
2.8158178076
 11
6.9965122169
 21
2.7856443701
  0
LINE
  5
424
100
AcDbEntity
  8
03__ASM_ALL_CURVES
100
AcDbLine
 62
40
  6
CONTINUOUS
 10
8.2672927151
 20
4.3936906177
 11
8.2522059964
 21
4.3836328076
  0
LINE
  5
425
100
AcDbEntity
  8
03__ASM_ALL_CURVES
100
AcDbLine
 62
40
  6
CONTINUOUS
 10
8.5011368557
 20
4.3333437454
 11
8.486050137
 21
4.3232859326
  0
LINE
  5
426
100
AcDbEntity
  8
03__ASM_ALL_CURVES
100
AcDbLine
 62
40
  6
CONTINUOUS
 10
8.7048075589
 20
4.4339218725
 11
8.7198942776
 21
4.4439796826
  0
LINE
  5
427
100
AcDbEntity
  8
03__ASM_ALL_CURVES
100
AcDbLine
 62
40
  6
CONTINUOUS
 10
8.6293739651
 20
4.3333437454
 11
8.6142872464
 21
4.3232859326
  0
LINE
  5
428
100
AcDbEntity
  8
03__ASM_ALL_CURVES
100
AcDbLine
 62
40
  6
CONTINUOUS
 10
5.2613791997
 20
5.7464476826
 11
5.6475991997
 21
5.8108176826
  0
LINE
  5
429
100
AcDbEntity
  8
03__ASM_ALL_CURVES
100
AcDbLine
 62
40
  6
CONTINUOUS
 10
5.2613791997
 20
5.7518118493
 11
5.6475991997
 21
5.8054535159
  0
LINE
  5
42A
100
AcDbEntity
  8
03__ASM_ALL_CURVES
100
AcDbLine
 62
40
  6
CONTINUOUS
 10
5.2613791997
 20
5.7571760159
 11
5.6475991997
 21
5.8000893493
  0
LINE
  5
42B
100
AcDbEntity
  8
03__ASM_ALL_CURVES
100
AcDbLine
 62
40
  6
CONTINUOUS
 10
5.2613791997
 20
5.7625401826
 11
5.6475991997
 21
5.7947251826
  0
LINE
  5
42C
100
AcDbEntity
  8
03__ASM_ALL_CURVES
100
AcDbLine
 62
40
  6
CONTINUOUS
 10
5.2613791997
 20
5.7679043493
 11
5.6475991997
 21
5.7893610159
  0
LINE
  5
42D
100
AcDbEntity
  8
03__ASM_ALL_CURVES
100
AcDbLine
 62
40
  6
CONTINUOUS
 10
5.2613791997
 20
5.7732685159
 11
5.6475991997
 21
5.7839968493
  0
LINE
  5
42E
100
AcDbEntity
  8
03__ASM_ALL_CURVES
100
AcDbLine
 62
40
  6
CONTINUOUS
 10
1.5174891997
 20
5.7786326826
 11
8.5442491997
 21
5.7786326826
  0
LINE
  5
42F
100
AcDbEntity
  8
03__ASM_ALL_CURVES
100
AcDbLine
 62
40
  6
CONTINUOUS
 10
8.2063066994
 20
5.8430026826
 11
8.1258441994
 21
5.8430026826
  0
LINE
  5
430
100
AcDbEntity
  8
03__ASM_ALL_CURVES
100
AcDbLine
 62
40
  6
CONTINUOUS
 10
8.0051504494
 20
5.8430026826
 11
7.9649191994
 21
5.8430026826
  0
LINE
  5
431
100
AcDbEntity
  8
03__ASM_ALL_CURVES
100
AcDbLine
 62
40
  6
CONTINUOUS
 10
7.6933582619
 20
5.8430026826
 11
7.6732426369
 21
5.8430026826
  0
LINE
  5
432
100
AcDbEntity
  8
03__ASM_ALL_CURVES
100
AcDbLine
 62
40
  6
CONTINUOUS
 10
7.5324332619
 20
5.8430026826
 11
7.5123176369
 21
5.8430026826
  0
LINE
  5
433
100
AcDbEntity
  8
03__ASM_ALL_CURVES
100
AcDbLine
 62
40
  6
CONTINUOUS
 10
7.2105832619
 20
5.8430026826
 11
7.1904676369
 21
5.8430026826
  0
LINE
  5
434
100
AcDbEntity
  8
03__ASM_ALL_CURVES
100
AcDbLine
 62
40
  6
CONTINUOUS
 10
6.8887332619
 20
5.8430026826
 11
6.8686176369
 21
5.8430026826
  0
LINE
  5
435
100
AcDbEntity
  8
03__ASM_ALL_CURVES
100
AcDbLine
 62
40
  6
CONTINUOUS
 10
6.0841082619
 20
5.8430026826
 11
6.0639926369
 21
5.8430026826
  0
LINE
  5
436
100
AcDbEntity
  8
03__ASM_ALL_CURVES
100
AcDbLine
 62
40
  6
CONTINUOUS
 10
5.9231832619
 20
5.8430026826
 11
5.9030676369
 21
5.8430026826
  0
LINE
  5
437
100
AcDbEntity
  8
03__ASM_ALL_CURVES
100
AcDbLine
 62
40
  6
CONTINUOUS
 10
3.9788220122
 20
5.8430026826
 11
3.9587063872
 21
5.8430026826
  0
LINE
  5
438
100
AcDbEntity
  8
03__ASM_ALL_CURVES
100
AcDbLine
 62
40
  6
CONTINUOUS
 10
3.8078391997
 20
5.8430026826
 11
3.7977813872
 21
5.8430026826
  0
LINE
  5
439
100
AcDbEntity
  8
03__ASM_ALL_CURVES
100
AcDbLine
 62
40
  6
CONTINUOUS
 10
3.1741970122
 20
5.8430026826
 11
3.1540813872
 21
5.8430026826
  0
LINE
  5
43A
100
AcDbEntity
  8
03__ASM_ALL_CURVES
100
AcDbLine
 62
40
  6
CONTINUOUS
 10
2.8422891997
 20
5.8430026826
 11
2.8322313872
 21
5.8430026826
  0
LINE
  5
43B
100
AcDbEntity
  8
03__ASM_ALL_CURVES
100
AcDbLine
 62
40
  6
CONTINUOUS
 10
2.6914220122
 20
5.8430026826
 11
2.6713063872
 21
5.8430026826
  0
LINE
  5
43C
100
AcDbEntity
  8
03__ASM_ALL_CURVES
100
AcDbLine
 62
40
  6
CONTINUOUS
 10
4.0894579497
 20
5.8430026826
 11
4.1699204497
 21
5.8430026826
  0
LINE
  5
43D
100
AcDbEntity
  8
03__ASM_ALL_CURVES
100
AcDbLine
 62
40
  6
CONTINUOUS
 10
5.7119691994
 20
5.8430026826
 11
5.7924316994
 21
5.8430026826
  0
LINE
  5
43E
100
AcDbEntity
  8
03__ASM_ALL_CURVES
100
AcDbLine
 62
40
  6
CONTINUOUS
 10
7.8039941994
 20
5.8430026826
 11
7.8844566994
 21
5.8430026826
  0
LINE
  5
43F
100
AcDbEntity
  8
03__ASM_ALL_CURVES
100
AcDbLine
 62
40
  6
CONTINUOUS
 10
1.7105991997
 20
5.7732685159
 11
1.5174891997
 21
5.7786326826
  0
LINE
  5
440
100
AcDbEntity
  8
03__ASM_ALL_CURVES
100
AcDbLine
 62
40
  6
CONTINUOUS
 10
5.2613791997
 20
5.7839968493
 11
5.6475991997
 21
5.7732685159
  0
LINE
  5
441
100
AcDbEntity
  8
03__ASM_ALL_CURVES
100
AcDbLine
 62
40
  6
CONTINUOUS
 10
5.2613791997
 20
5.7893610159
 11
5.6475991997
 21
5.7679043493
  0
LINE
  5
442
100
AcDbEntity
  8
03__ASM_ALL_CURVES
100
AcDbLine
 62
40
  6
CONTINUOUS
 10
5.2613791997
 20
5.7947251826
 11
5.6475991997
 21
5.7625401826
  0
LINE
  5
443
100
AcDbEntity
  8
03__ASM_ALL_CURVES
100
AcDbLine
 62
40
  6
CONTINUOUS
 10
5.2613791997
 20
5.8000893493
 11
5.6475991997
 21
5.7571760159
  0
LINE
  5
444
100
AcDbEntity
  8
03__ASM_ALL_CURVES
100
AcDbLine
 62
40
  6
CONTINUOUS
 10
5.2613791997
 20
5.8054535159
 11
5.6475991997
 21
5.7518118493
  0
LINE
  5
445
100
AcDbEntity
  8
03__ASM_ALL_CURVES
100
AcDbLine
 62
40
  6
CONTINUOUS
 10
5.6475991997
 20
5.7464476826
 11
5.2613791997
 21
5.8108176826
  0
LINE
  5
446
100
AcDbEntity
  8
03__ASM_ALL_CURVES
100
AcDbLine
 62
40
  6
CONTINUOUS
 10
5.9030676369
 20
5.8430026826
 11
5.8829520119
 21
5.8564130997
  0
LINE
  5
447
100
AcDbEntity
  8
03__ASM_ALL_CURVES
100
AcDbLine
 62
40
  6
CONTINUOUS
 10
6.0639926369
 20
5.8430026826
 11
6.0438770119
 21
5.8564130997
  0
LINE
  5
448
100
AcDbEntity
  8
03__ASM_ALL_CURVES
100
AcDbLine
 62
40
  6
CONTINUOUS
 10
8.2522059964
 20
4.4439796826
 11
8.2672927151
 21
4.4339218725
  0
LINE
  5
449
100
AcDbEntity
  8
03__ASM_ALL_CURVES
100
AcDbLine
 62
40
  6
CONTINUOUS
 10
5.9231832619
 20
6.0039276826
 11
5.9432988869
 21
5.9905172691
  0
LINE
  5
44A
100
AcDbEntity
  8
03__ASM_ALL_CURVES
100
AcDbLine
 62
40
  6
CONTINUOUS
 10
6.6775191994
 20
6.0039276826
 11
6.7579816994
 21
5.8430026826
  0
LINE
  5
44B
100
AcDbEntity
  8
03__ASM_ALL_CURVES
100
AcDbLine
 62
40
  6
CONTINUOUS
 10
6.8283863869
 20
5.8832339326
 11
6.8183285744
 21
5.9234651826
  0
LINE
  5
44C
100
AcDbEntity
  8
03__ASM_ALL_CURVES
100
AcDbLine
 62
40
  6
CONTINUOUS
 10
7.4016816994
 20
6.0039276826
 11
7.4016816994
 21
5.8430026826
  0
LINE
  5
44D
100
AcDbEntity
  8
0
100
AcDbLine
 62
7
  6
CONTINUOUS
 10
7.5174891997
 20
5.2871646826
 11
7.5174891997
 21
3.6651646826
  0
LINE
  5
44E
100
AcDbEntity
  8
0
100
AcDbLine
 62
7
  6
CONTINUOUS
 10
7.6114891997
 20
5.2871646826
 11
7.6114891997
 21
3.6651646826
  0
LINE
  5
44F
100
AcDbEntity
  8
03__ASM_ALL_CURVES
100
AcDbLine
 62
40
  6
CONTINUOUS
 10
7.6430691994
 20
5.8698235167
 11
7.6430691994
 21
6.0039276826
  0
LINE
  5
450
100
AcDbEntity
  8
0
100
AcDbLine
 62
7
  6
CONTINUOUS
 10
7.6614891997
 20
3.6704146826
 11
7.6614891997
 21
5.2819146826
  0
LINE
  5
451
100
AcDbEntity
  8
03__ASM_ALL_CURVES
100
AcDbLine
 62
40
  6
CONTINUOUS
 10
8.0554395119
 20
5.9234651826
 11
8.0453816994
 21
5.8832339326
  0
LINE
  5
452
100
AcDbEntity
  8
03__ASM_ALL_CURVES
100
AcDbLine
 62
40
  6
CONTINUOUS
 10
7.2982465919
 20
2.7856443701
 11
7.2907032325
 21
2.7554709326
  0
LINE
  5
453
100
AcDbEntity
  8
03__ASM_ALL_CURVES
100
AcDbLine
 62
40
  6
CONTINUOUS
 10
6.8682751075
 20
2.835933435
 11
6.8607317481
 21
2.8258756177
  0
LINE
  5
454
100
AcDbEntity
  8
03__ASM_ALL_CURVES
100
AcDbLine
 62
40
  6
CONTINUOUS
 10
6.9210786231
 20
2.8459912451
 11
6.9361653419
 21
2.8661068725
  0
LINE
  5
455
100
AcDbEntity
  8
03__ASM_ALL_CURVES
100
AcDbLine
 62
40
  6
CONTINUOUS
 10
8.2748360745
 20
4.588812185
 11
8.2672927151
 21
4.5787543677
  0
LINE
  5
456
100
AcDbEntity
  8
03__ASM_ALL_CURVES
100
AcDbLine
 62
40
  6
CONTINUOUS
 10
8.3276395901
 20
4.5988699951
 11
8.3427263089
 21
4.6189856225
  0
LINE
  5
457
100
AcDbEntity
  8
03__ASM_ALL_CURVES
100
AcDbLine
 62
40
  6
CONTINUOUS
 10
6.9965122169
 20
2.7856443701
 11
6.9814254981
 21
2.7655287454
  0
LINE
  5
458
100
AcDbEntity
  8
03__ASM_ALL_CURVES
100
AcDbLine
 62
40
  6
CONTINUOUS
 10
8.7500677151
 20
4.3333437454
 11
8.7349809964
 21
4.3232859326
  0
LINE
  5
459
100
AcDbEntity
  8
03__ASM_ALL_CURVES
100
AcDbLine
 62
40
  6
CONTINUOUS
 10
8.9839118557
 20
4.3333437454
 11
8.968825137
 21
4.3232859326
  0
LINE
  5
45A
100
AcDbEntity
  8
03__ASM_ALL_CURVES
100
AcDbLine
 62
40
  6
CONTINUOUS
 10
6.8607317481
 20
2.8258756177
 11
6.8456450294
 21
2.8158178076
  0
LINE
  5
45B
100
AcDbEntity
  8
03__ASM_ALL_CURVES
100
AcDbLine
 62
40
  6
CONTINUOUS
 10
6.9361653419
 20
2.8661068725
 11
6.9512520606
 21
2.8761646826
  0
LINE
  5
45C
100
AcDbEntity
  8
03__ASM_ALL_CURVES
100
AcDbLine
 62
40
  6
CONTINUOUS
 10
9.2328427151
 20
4.3936906177
 11
9.2177559964
 21
4.3836328076
  0
LINE
  5
45D
100
AcDbEntity
  8
03__ASM_ALL_CURVES
100
AcDbLine
 62
40
  6
CONTINUOUS
 10
9.3535364651
 20
4.3936906177
 11
9.3384497464
 21
4.3836328076
  0
LINE
  5
45E
100
AcDbEntity
  8
03__ASM_ALL_CURVES
100
AcDbLine
 62
40
  6
CONTINUOUS
 10
1.7105991997
 20
5.7947251826
 11
1.5174891997
 21
5.7786326826
  0
LINE
  5
45F
100
AcDbEntity
  8
03__ASM_ALL_CURVES
100
AcDbLine
 62
40
  6
CONTINUOUS
 10
1.7105991997
 20
5.7893610159
 11
1.5174891997
 21
5.7786326826
  0
LINE
  5
460
100
AcDbEntity
  8
03__ASM_ALL_CURVES
100
AcDbLine
 62
40
  6
CONTINUOUS
 10
1.7105991997
 20
5.7839968493
 11
1.5174891997
 21
5.7786326826
  0
LINE
  5
461
100
AcDbEntity
  8
03__ASM_ALL_CURVES
100
AcDbLine
 62
40
  6
CONTINUOUS
 10
6.2048020119
 20
5.8966443509
 11
6.2651488869
 21
5.8966443509
  0
LINE
  5
462
100
AcDbEntity
  8
03__ASM_ALL_CURVES
100
AcDbLine
 62
40
  6
CONTINUOUS
 10
8.3370582619
 20
5.9234651826
 11
8.2867691994
 21
5.9234651826
  0
LINE
  5
463
100
AcDbEntity
  8
03__ASM_ALL_CURVES
100
AcDbLine
 62
40
  6
CONTINUOUS
 10
6.8786754494
 20
5.9234651826
 11
6.9189066994
 21
5.9234651826
  0
LINE
  5
464
100
AcDbEntity
  8
03__ASM_ALL_CURVES
100
AcDbLine
 62
40
  6
CONTINUOUS
 10
7.3212191994
 20
5.9234651826
 11
7.4016816994
 21
5.9234651826
  0
LINE
  5
465
100
AcDbEntity
  8
03__ASM_ALL_CURVES
100
AcDbLine
 62
40
  6
CONTINUOUS
 10
8.1258441994
 20
5.9234651826
 11
8.1761332619
 21
5.9234651826
  0
LINE
  5
466
100
AcDbEntity
  8
03__ASM_ALL_CURVES
100
AcDbLine
 62
40
  6
CONTINUOUS
 10
2.6713063872
 20
5.9368755961
 11
2.6914220122
 21
5.9368755961
  0
LINE
  5
467
100
AcDbEntity
  8
03__ASM_ALL_CURVES
100
AcDbLine
 62
40
  6
CONTINUOUS
 10
3.1540813872
 20
5.9368755961
 11
3.1741970122
 21
5.9368755961
  0
LINE
  5
468
100
AcDbEntity
  8
03__ASM_ALL_CURVES
100
AcDbLine
 62
40
  6
CONTINUOUS
 10
3.9587063872
 20
5.9368755961
 11
3.9788220122
 21
5.9368755961
  0
LINE
  5
469
100
AcDbEntity
  8
03__ASM_ALL_CURVES
100
AcDbLine
 62
40
  6
CONTINUOUS
 10
7.2105832619
 20
6.0039276826
 11
7.1904676369
 21
6.0039276826
  0
LINE
  5
46A
100
AcDbEntity
  8
03__ASM_ALL_CURVES
100
AcDbLine
 62
40
  6
CONTINUOUS
 10
2.6713063872
 20
6.0039276826
 11
2.6914220122
 21
6.0039276826
  0
LINE
  5
46B
100
AcDbEntity
  8
03__ASM_ALL_CURVES
100
AcDbLine
 62
40
  6
CONTINUOUS
 10
3.1540813872
 20
6.0039276826
 11
3.1741970122
 21
6.0039276826
  0
LINE
  5
46C
100
AcDbEntity
  8
03__ASM_ALL_CURVES
100
AcDbLine
 62
40
  6
CONTINUOUS
 10
3.9587063872
 20
6.0039276826
 11
3.9788220122
 21
6.0039276826
  0
LINE
  5
46D
100
AcDbEntity
  8
03__ASM_ALL_CURVES
100
AcDbLine
 62
40
  6
CONTINUOUS
 10
4.1196313872
 20
6.0039276826
 11
4.1397470122
 21
6.0039276826
  0
LINE
  5
46E
100
AcDbEntity
  8
03__ASM_ALL_CURVES
100
AcDbLine
 62
40
  6
CONTINUOUS
 10
5.9030676369
 20
6.0039276826
 11
5.9231832619
 21
6.0039276826
  0
LINE
  5
46F
100
AcDbEntity
  8
03__ASM_ALL_CURVES
100
AcDbLine
 62
40
  6
CONTINUOUS
 10
6.0639926369
 20
6.0039276826
 11
6.0841082619
 21
6.0039276826
  0
LINE
  5
470
100
AcDbEntity
  8
03__ASM_ALL_CURVES
100
AcDbLine
 62
40
  6
CONTINUOUS
 10
6.3456113869
 20
6.0039276826
 11
6.4461895119
 21
6.0039276826
  0
LINE
  5
471
100
AcDbEntity
  8
03__ASM_ALL_CURVES
100
AcDbLine
 62
40
  6
CONTINUOUS
 10
6.8686176369
 20
6.0039276826
 11
6.8887332619
 21
6.0039276826
  0
LINE
  5
472
100
AcDbEntity
  8
03__ASM_ALL_CURVES
100
AcDbLine
 62
40
  6
CONTINUOUS
 10
7.5123176369
 20
6.0039276826
 11
7.5324332619
 21
6.0039276826
  0
LINE
  5
473
100
AcDbEntity
  8
03__ASM_ALL_CURVES
100
AcDbLine
 62
40
  6
CONTINUOUS
 10
7.9649191994
 20
6.0039276826
 11
8.0051504494
 21
6.0039276826
  0
LINE
  5
474
100
AcDbEntity
  8
03__ASM_ALL_CURVES
100
AcDbLine
 62
40
  6
CONTINUOUS
 10
8.1258441994
 20
6.0039276826
 11
8.2063066994
 21
6.0039276826
  0
LINE
  5
475
100
AcDbEntity
  8
03__ASM_ALL_CURVES
100
AcDbLine
 62
40
  6
CONTINUOUS
 10
8.2867691994
 20
6.0039276826
 11
8.3370582619
 21
6.0039276826
  0
LINE
  5
476
100
AcDbEntity
  8
03__ASM_ALL_CURVES
100
AcDbLine
 62
40
  6
CONTINUOUS
 10
8.5992005276
 20
4.3232859326
 11
8.5841138089
 21
4.3333437454
  0
LINE
  5
477
100
AcDbEntity
  8
03__ASM_ALL_CURVES
100
AcDbLine
 62
40
  6
CONTINUOUS
 10
6.0841082619
 20
6.0039276826
 11
6.1042238869
 21
5.9905172691
  0
LINE
  5
478
100
AcDbEntity
  8
03__ASM_ALL_CURVES
100
AcDbLine
 62
40
  6
CONTINUOUS
 10
8.3578130276
 20
4.5083496826
 11
8.3427263089
 21
4.5184074954
  0
LINE
  5
479
100
AcDbEntity
  8
03__ASM_ALL_CURVES
100
AcDbLine
 62
40
  6
CONTINUOUS
 10
8.486050137
 20
4.4439796826
 11
8.5011368557
 21
4.4339218725
  0
LINE
  5
47A
100
AcDbEntity
  8
03__ASM_ALL_CURVES
100
AcDbLine
 62
40
  6
CONTINUOUS
 10
8.2522059964
 20
4.6290434326
 11
8.2672927151
 21
4.6189856225
  0
LINE
  5
47B
100
AcDbEntity
  8
03__ASM_ALL_CURVES
100
AcDbLine
 62
40
  6
CONTINUOUS
 10
8.7198942776
 20
4.3232859326
 11
8.7048075589
 21
4.3333437454
  0
LINE
  5
47C
100
AcDbEntity
  8
03__ASM_ALL_CURVES
100
AcDbLine
 62
40
  6
CONTINUOUS
 10
8.3728997464
 20
4.6290434326
 11
8.3879864651
 21
4.6189856225
  0
LINE
  5
47D
100
AcDbEntity
  8
03__ASM_ALL_CURVES
100
AcDbLine
 62
40
  6
CONTINUOUS
 10
8.7349809964
 20
4.4439796826
 11
8.7500677151
 21
4.4339218725
  0
LINE
  5
47E
100
AcDbEntity
  8
03__ASM_ALL_CURVES
100
AcDbLine
 62
40
  6
CONTINUOUS
 10
8.4935934964
 20
4.6290434326
 11
8.5086802151
 21
4.6189856225
  0
LINE
  5
47F
100
AcDbEntity
  8
03__ASM_ALL_CURVES
100
AcDbLine
 62
40
  6
CONTINUOUS
 10
6.8686176369
 20
5.8430026826
 11
6.8485020119
 21
5.8564130997
  0
LINE
  5
480
100
AcDbEntity
  8
03__ASM_ALL_CURVES
100
AcDbLine
 62
40
  6
CONTINUOUS
 10
6.8485020119
 20
5.8564130997
 11
6.8283863869
 21
5.8832339326
  0
LINE
  5
481
100
AcDbEntity
  8
03__ASM_ALL_CURVES
100
AcDbLine
 62
40
  6
CONTINUOUS
 10
7.7235316994
 20
6.0039276826
 11
7.7235316994
 21
5.8698235167
  0
LINE
  5
482
100
AcDbEntity
  8
0
100
AcDbLine
 62
7
  6
CONTINUOUS
 10
7.7644891997
 20
3.6704146826
 11
7.7644891997
 21
5.2819146826
  0
LINE
  5
483
100
AcDbEntity
  8
03__ASM_ALL_CURVES
100
AcDbLine
 62
40
  6
CONTINUOUS
 10
7.8039941994
 20
6.0039276826
 11
7.8039941994
 21
5.8430026826
  0
LINE
  5
484
100
AcDbEntity
  8
0
100
AcDbLine
 62
7
  6
CONTINUOUS
 10
7.8144891997
 20
3.6704146826
 11
7.8144891997
 21
5.2819146826
  0
LINE
  5
485
100
AcDbEntity
  8
0
100
AcDbLine
 62
7
  6
CONTINUOUS
 10
7.8524891997
 20
3.6651659156
 11
7.8524891997
 21
5.2871634496
  0
LINE
  5
486
100
AcDbEntity
  8
0
100
AcDbLine
 62
7
  6
CONTINUOUS
 10
7.9614891997
 20
3.6651646826
 11
7.9614891997
 21
5.2871646826
  0
LINE
  5
487
100
AcDbEntity
  8
03__ASM_ALL_CURVES
100
AcDbLine
 62
40
  6
CONTINUOUS
 10
7.9649191994
 20
5.8430026826
 11
7.9649191994
 21
6.0039276826
  0
LINE
  5
488
100
AcDbEntity
  8
0
100
AcDbLine
 62
7
  6
CONTINUOUS
 10
7.9924891997
 20
3.6961646826
 11
7.9924891997
 21
5.2561646826
  0
LINE
  5
489
100
AcDbEntity
  8
03__ASM_ALL_CURVES
100
AcDbLine
 62
40
  6
CONTINUOUS
 10
8.2748360745
 20
4.403748435
 11
8.2672927151
 21
4.3936906177
  0
LINE
  5
48A
100
AcDbEntity
  8
03__ASM_ALL_CURVES
100
AcDbLine
 62
40
  6
CONTINUOUS
 10
7.1096626075
 20
2.835933435
 11
7.1021192481
 21
2.8258756177
  0
LINE
  5
48B
100
AcDbEntity
  8
03__ASM_ALL_CURVES
100
AcDbLine
 62
40
  6
CONTINUOUS
 10
8.4030731839
 20
4.5385231201
 11
8.3879864651
 21
4.5184074954
  0
LINE
  5
48C
100
AcDbEntity
  8
03__ASM_ALL_CURVES
100
AcDbLine
 62
40
  6
CONTINUOUS
 10
8.5162235745
 20
4.588812185
 11
8.5086802151
 21
4.5787543677
  0
LINE
  5
48D
100
AcDbEntity
  8
03__ASM_ALL_CURVES
100
AcDbLine
 62
40
  6
CONTINUOUS
 10
7.2907032325
 20
2.8560490552
 11
7.2982465919
 21
2.8661068725
  0
LINE
  5
48E
100
AcDbEntity
  8
03__ASM_ALL_CURVES
100
AcDbLine
 62
40
  6
CONTINUOUS
 10
7.3133333106
 20
2.8057599939
 11
7.2982465919
 21
2.7856443701
  0
LINE
  5
48F
100
AcDbEntity
  8
03__ASM_ALL_CURVES
100
AcDbLine
 62
40
  6
CONTINUOUS
 10
7.3510501075
 20
2.835933435
 11
7.3435067481
 21
2.8258756177
  0
LINE
  5
490
100
AcDbEntity
  8
03__ASM_ALL_CURVES
100
AcDbLine
 62
40
  6
CONTINUOUS
 10
8.5162235745
 20
4.3534593701
 11
8.5011368557
 21
4.3333437454
  0
LINE
  5
491
100
AcDbEntity
  8
0
100
AcDbLine
 62
7
  6
CONTINUOUS
 10
7.9614891997
 20
3.6651646826
 11
7.9924891997
 21
3.6961646826
  0
LINE
  5
492
100
AcDbEntity
  8
03__ASM_ALL_CURVES
100
AcDbLine
 62
40
  6
CONTINUOUS
 10
6.9814254981
 20
2.7655287454
 11
6.9663387794
 21
2.7554709326
  0
LINE
  5
493
100
AcDbEntity
  8
03__ASM_ALL_CURVES
100
AcDbLine
 62
40
  6
CONTINUOUS
 10
7.1021192481
 20
2.8258756177
 11
7.0870325294
 21
2.8158178076
  0
LINE
  5
494
100
AcDbEntity
  8
03__ASM_ALL_CURVES
100
AcDbLine
 62
40
  6
CONTINUOUS
 10
9.5647505276
 20
4.4439796826
 11
9.5496638089
 21
4.4339218725
  0
LINE
  5
495
100
AcDbEntity
  8
03__ASM_ALL_CURVES
100
AcDbLine
 62
40
  6
CONTINUOUS
 10
7.2982465919
 20
2.8661068725
 11
7.3133333106
 21
2.8761646826
  0
LINE
  5
496
100
AcDbEntity
  8
03__ASM_ALL_CURVES
100
AcDbLine
 62
40
  6
CONTINUOUS
 10
9.6854442776
 20
4.4439796826
 11
9.6703575589
 21
4.4339218725
  0
LINE
  5
497
100
AcDbEntity
  8
03__ASM_ALL_CURVES
100
AcDbLine
 62
40
  6
CONTINUOUS
 10
9.5949239651
 20
4.3333437454
 11
9.5798372464
 21
4.3232859326
  0
LINE
  5
498
100
AcDbEntity
  8
03__ASM_ALL_CURVES
100
AcDbLine
 62
40
  6
CONTINUOUS
 10
7.3435067481
 20
2.8258756177
 11
7.3133333106
 21
2.8057599939
  0
LINE
  5
499
100
AcDbEntity
  8
03__ASM_ALL_CURVES
100
AcDbLine
 62
40
  6
CONTINUOUS
 10
9.7156177151
 20
4.3333437454
 11
9.7005309964
 21
4.3232859326
  0
LINE
  5
49A
100
AcDbEntity
  8
03__ASM_ALL_CURVES
100
AcDbLine
 62
40
  6
CONTINUOUS
 10
1.5174891997
 20
5.7786326826
 11
1.7105991997
 21
5.8108176826
  0
LINE
  5
49B
100
AcDbEntity
  8
03__ASM_ALL_CURVES
100
AcDbLine
 62
40
  6
CONTINUOUS
 10
1.7105991997
 20
5.8054535159
 11
1.5174891997
 21
5.7786326826
  0
LINE
  5
49C
100
AcDbEntity
  8
03__ASM_ALL_CURVES
100
AcDbLine
 62
40
  6
CONTINUOUS
 10
1.7105991997
 20
5.8000893493
 11
1.5174891997
 21
5.7786326826
  0
LINE
  5
49D
100
AcDbEntity
  8
03__ASM_ALL_CURVES
100
AcDbLine
 62
40
  6
CONTINUOUS
 10
8.968825137
 20
4.4439796826
 11
8.9839118557
 21
4.4339218725
  0
LINE
  5
49E
100
AcDbEntity
  8
03__ASM_ALL_CURVES
100
AcDbLine
 62
40
  6
CONTINUOUS
 10
9.2177559964
 20
4.4439796826
 11
9.2328427151
 21
4.4339218725
  0
LINE
  5
49F
100
AcDbEntity
  8
03__ASM_ALL_CURVES
100
AcDbLine
 62
40
  6
CONTINUOUS
 10
6.8887332619
 20
6.0039276826
 11
6.9088488869
 21
5.9905172691
  0
LINE
  5
4A0
100
AcDbEntity
  8
03__ASM_ALL_CURVES
100
AcDbLine
 62
40
  6
CONTINUOUS
 10
7.1904676369
 20
5.8430026826
 11
7.1703520119
 21
5.8564130997
  0
LINE
  5
4A1
100
AcDbEntity
  8
03__ASM_ALL_CURVES
100
AcDbLine
 62
40
  6
CONTINUOUS
 10
9.3384497464
 20
4.4439796826
 11
9.3535364651
 21
4.4339218725
  0
LINE
  5
4A2
100
AcDbEntity
  8
03__ASM_ALL_CURVES
100
AcDbLine
 62
40
  6
CONTINUOUS
 10
9.5647505276
 20
4.3232859326
 11
9.5496638089
 21
4.3333437454
  0
LINE
  5
4A3
100
AcDbEntity
  8
03__ASM_ALL_CURVES
100
AcDbLine
 62
40
  6
CONTINUOUS
 10
7.1703520119
 20
5.9502860191
 11
7.2306988869
 21
5.9100547643
  0
LINE
  5
4A4
100
AcDbEntity
  8
03__ASM_ALL_CURVES
100
AcDbLine
 62
40
  6
CONTINUOUS
 10
9.5496638089
 20
4.403748435
 11
9.5949239651
 21
4.3735749939
  0
LINE
  5
4A5
100
AcDbEntity
  8
03__ASM_ALL_CURVES
100
AcDbLine
 62
40
  6
CONTINUOUS
 10
9.6854442776
 20
4.3232859326
 11
9.6703575589
 21
4.3333437454
  0
LINE
  5
4A6
100
AcDbEntity
  8
03__ASM_ALL_CURVES
100
AcDbLine
 62
40
  6
CONTINUOUS
 10
6.9088488869
 20
5.9905172691
 11
6.9189066994
 21
5.9771068461
  0
LINE
  5
4A7
100
AcDbEntity
  8
03__ASM_ALL_CURVES
100
AcDbLine
 62
40
  6
CONTINUOUS
 10
7.1703520119
 20
5.8564130997
 11
7.1502363869
 21
5.8832339326
  0
LINE
  5
4A8
100
AcDbEntity
  8
03__ASM_ALL_CURVES
100
AcDbLine
 62
40
  6
CONTINUOUS
 10
8.2672927151
 20
4.4339218725
 11
8.2748360745
 21
4.4238640552
  0
LINE
  5
4A9
100
AcDbEntity
  8
03__ASM_ALL_CURVES
100
AcDbLine
 62
40
  6
CONTINUOUS
 10
7.1602941994
 20
5.9636964326
 11
7.1703520119
 21
5.9502860191
  0
LINE
  5
4AA
100
AcDbEntity
  8
03__ASM_ALL_CURVES
100
AcDbLine
 62
40
  6
CONTINUOUS
 10
7.2306988869
 20
5.9100547643
 11
7.2407566994
 21
5.8966443509
  0
LINE
  5
4AB
100
AcDbEntity
  8
03__ASM_ALL_CURVES
100
AcDbLine
 62
40
  6
CONTINUOUS
 10
7.2407566994
 20
5.9771068461
 11
7.2306988869
 21
5.9905172691
  0
LINE
  5
4AC
100
AcDbEntity
  8
03__ASM_ALL_CURVES
100
AcDbLine
 62
40
  6
CONTINUOUS
 10
8.3427263089
 20
4.5184074954
 11
8.3276395901
 21
4.5385231201
  0
LINE
  5
4AD
100
AcDbEntity
  8
03__ASM_ALL_CURVES
100
AcDbLine
 62
40
  6
CONTINUOUS
 10
8.2672927151
 20
4.6189856225
 11
8.2748360745
 21
4.6089278052
  0
LINE
  5
4AE
100
AcDbEntity
  8
03__ASM_ALL_CURVES
100
AcDbLine
 62
40
  6
CONTINUOUS
 10
7.4720863869
 20
5.8832339326
 11
7.4620285744
 21
5.9234651826
  0
LINE
  5
4AF
100
AcDbEntity
  8
03__ASM_ALL_CURVES
100
AcDbLine
 62
40
  6
CONTINUOUS
 10
7.5726645119
 20
5.9636964326
 11
7.5827223244
 21
5.9234651826
  0
LINE
  5
4B0
100
AcDbEntity
  8
03__ASM_ALL_CURVES
100
AcDbLine
 62
40
  6
CONTINUOUS
 10
8.1258441994
 20
5.8430026826
 11
8.1258441994
 21
6.0039276826
  0
LINE
  5
4B1
100
AcDbEntity
  8
03__ASM_ALL_CURVES
100
AcDbLine
 62
40
  6
CONTINUOUS
 10
8.2144891995
 20
4.3232859326
 11
8.2144891995
 21
4.4439796826
  0
LINE
  5
4B2
100
AcDbEntity
  8
03__ASM_ALL_CURVES
100
AcDbLine
 62
40
  6
CONTINUOUS
 10
8.2144891995
 20
4.5083496826
 11
8.2144891995
 21
4.6290434326
  0
LINE
  5
4B3
100
AcDbEntity
  8
03__ASM_ALL_CURVES
100
AcDbLine
 62
40
  6
CONTINUOUS
 10
8.2748360745
 20
4.6089278052
 11
8.2748360745
 21
4.588812185
  0
LINE
  5
4B4
100
AcDbEntity
  8
03__ASM_ALL_CURVES
100
AcDbLine
 62
40
  6
CONTINUOUS
 10
8.2748360745
 20
4.4238640552
 11
8.2748360745
 21
4.403748435
  0
LINE
  5
4B5
100
AcDbEntity
  8
03__ASM_ALL_CURVES
100
AcDbLine
 62
40
  6
CONTINUOUS
 10
8.2867691994
 20
5.8430026826
 11
8.2867691994
 21
6.0039276826
  0
LINE
  5
4B6
100
AcDbEntity
  8
03__ASM_ALL_CURVES
100
AcDbLine
 62
40
  6
CONTINUOUS
 10
8.3200962307
 20
4.5686965576
 11
8.3276395901
 21
4.5988699951
  0
LINE
  5
4B7
100
AcDbEntity
  8
03__ASM_ALL_CURVES
100
AcDbLine
 62
40
  6
CONTINUOUS
 10
8.4106165432
 20
4.5686965576
 11
8.4030731839
 21
4.5385231201
  0
LINE
  5
4B8
100
AcDbEntity
  8
03__ASM_ALL_CURVES
100
AcDbLine
 62
40
  6
CONTINUOUS
 10
8.6369173245
 20
4.3434015582
 11
8.6293739651
 21
4.3333437454
  0
LINE
  5
4B9
100
AcDbEntity
  8
03__ASM_ALL_CURVES
100
AcDbLine
 62
40
  6
CONTINUOUS
 10
8.6897208401
 20
4.4138062451
 11
8.7048075589
 21
4.4339218725
  0
LINE
  5
4BA
100
AcDbEntity
  8
03__ASM_ALL_CURVES
100
AcDbLine
 62
40
  6
CONTINUOUS
 10
8.7576110745
 20
4.3434015582
 11
8.7500677151
 21
4.3333437454
  0
LINE
  5
4BB
100
AcDbEntity
  8
03__ASM_ALL_CURVES
100
AcDbLine
 62
40
  6
CONTINUOUS
 10
9.8363114651
 20
4.3333437454
 11
9.8212247464
 21
4.3232859326
  0
LINE
  5
4BC
100
AcDbEntity
  8
03__ASM_ALL_CURVES
100
AcDbLine
 62
40
  6
CONTINUOUS
 10
9.9570052151
 20
4.3936906177
 11
9.9419184964
 21
4.3836328076
  0
LINE
  5
4BD
100
AcDbEntity
  8
03__ASM_ALL_CURVES
100
AcDbLine
 62
40
  6
CONTINUOUS
 10
7.2306988869
 20
5.9905172691
 11
7.2105832619
 21
6.0039276826
  0
LINE
  5
4BE
100
AcDbEntity
  8
03__ASM_ALL_CURVES
100
AcDbLine
 62
40
  6
CONTINUOUS
 10
9.5949239651
 20
4.4339218725
 11
9.5798372464
 21
4.4439796826
  0
LINE
  5
4BF
100
AcDbEntity
  8
03__ASM_ALL_CURVES
100
AcDbLine
 62
40
  6
CONTINUOUS
 10
9.6703575589
 20
4.403748435
 11
9.7156177151
 21
4.3735749939
  0
LINE
  5
4C0
100
AcDbEntity
  8
03__ASM_ALL_CURVES
100
AcDbLine
 62
40
  6
CONTINUOUS
 10
7.5123176369
 20
5.8430026826
 11
7.4922020119
 21
5.8564130997
  0
LINE
  5
4C1
100
AcDbEntity
  8
03__ASM_ALL_CURVES
100
AcDbLine
 62
40
  6
CONTINUOUS
 10
9.8061380276
 20
4.3232859326
 11
9.7910513089
 21
4.3333437454
  0
LINE
  5
4C2
100
AcDbEntity
  8
03__ASM_ALL_CURVES
100
AcDbLine
 62
40
  6
CONTINUOUS
 10
9.7156177151
 20
4.4339218725
 11
9.7005309964
 21
4.4439796826
  0
LINE
  5
4C3
100
AcDbEntity
  8
03__ASM_ALL_CURVES
100
AcDbLine
 62
40
  6
CONTINUOUS
 10
7.6732426369
 20
5.8430026826
 11
7.6531270119
 21
5.8564130997
  0
LINE
  5
4C4
100
AcDbEntity
  8
03__ASM_ALL_CURVES
100
AcDbLine
 62
40
  6
CONTINUOUS
 10
7.5324332619
 20
6.0039276826
 11
7.5525488869
 21
5.9905172691
  0
LINE
  5
4C5
100
AcDbEntity
  8
03__ASM_ALL_CURVES
100
AcDbLine
 62
40
  6
CONTINUOUS
 10
9.9419184964
 20
4.4439796826
 11
9.9570052151
 21
4.4339218725
  0
LINE
  5
4C6
100
AcDbEntity
  8
0
100
AcDbLine
 62
7
  6
CONTINUOUS
 10
7.9614891997
 20
5.2871646826
 11
7.9924891997
 21
5.2561646826
  0
LINE
  5
4C7
100
AcDbEntity
  8
03__ASM_ALL_CURVES
100
AcDbLine
 62
40
  6
CONTINUOUS
 10
8.5011368557
 20
4.4339218725
 11
8.5162235745
 21
4.4138062451
  0
LINE
  5
4C8
100
AcDbEntity
  8
03__ASM_ALL_CURVES
100
AcDbLine
 62
40
  6
CONTINUOUS
 10
8.5841138089
 20
4.3333437454
 11
8.5765704495
 21
4.3434015582
  0
LINE
  5
4C9
100
AcDbEntity
  8
03__ASM_ALL_CURVES
100
AcDbLine
 62
40
  6
CONTINUOUS
 10
8.3879864651
 20
4.6189856225
 11
8.4030731839
 21
4.5988699951
  0
LINE
  5
4CA
100
AcDbEntity
  8
03__ASM_ALL_CURVES
100
AcDbLine
 62
40
  6
CONTINUOUS
 10
7.4922020119
 20
5.8564130997
 11
7.4720863869
 21
5.8832339326
  0
LINE
  5
4CB
100
AcDbEntity
  8
03__ASM_ALL_CURVES
100
AcDbLine
 62
40
  6
CONTINUOUS
 10
8.7048075589
 20
4.3333437454
 11
8.6897208401
 21
4.3534593701
  0
LINE
  5
4CC
100
AcDbEntity
  8
03__ASM_ALL_CURVES
100
AcDbLine
 62
40
  6
CONTINUOUS
 10
8.5086802151
 20
4.6189856225
 11
8.5162235745
 21
4.6089278052
  0
LINE
  5
4CD
100
AcDbEntity
  8
03__ASM_ALL_CURVES
100
AcDbLine
 62
40
  6
CONTINUOUS
 10
7.5525488869
 20
5.9905172691
 11
7.5726645119
 21
5.9636964326
  0
LINE
  5
4CE
100
AcDbEntity
  8
03__ASM_ALL_CURVES
100
AcDbLine
 62
40
  6
CONTINUOUS
 10
7.6531270119
 20
5.8564130997
 11
7.6430691994
 21
5.8698235167
  0
LINE
  5
4CF
100
AcDbEntity
  8
03__ASM_ALL_CURVES
100
AcDbLine
 62
40
  6
CONTINUOUS
 10
8.7500677151
 20
4.4339218725
 11
8.7576110745
 21
4.4238640552
  0
LINE
  5
4D0
100
AcDbEntity
  8
03__ASM_ALL_CURVES
100
AcDbLine
 62
40
  6
CONTINUOUS
 10
8.2522059964
 20
4.3836328076
 11
8.2748360745
 21
4.3232859326
  0
LINE
  5
4D1
100
AcDbEntity
  8
03__ASM_ALL_CURVES
100
AcDbLine
 62
40
  6
CONTINUOUS
 10
8.3351829495
 20
4.3232859326
 11
8.3351829495
 21
4.4439796826
  0
LINE
  5
4D2
100
AcDbEntity
  8
03__ASM_ALL_CURVES
100
AcDbLine
 62
40
  6
CONTINUOUS
 10
8.3672316994
 20
5.9771068461
 11
8.3672316994
 21
5.9502860191
  0
LINE
  5
4D3
100
AcDbEntity
  8
03__ASM_ALL_CURVES
100
AcDbLine
 62
40
  6
CONTINUOUS
 10
8.4558766995
 20
4.3232859326
 11
8.4558766995
 21
4.4439796826
  0
LINE
  5
4D4
100
AcDbEntity
  8
03__ASM_ALL_CURVES
100
AcDbLine
 62
40
  6
CONTINUOUS
 10
8.4558766995
 20
4.5083496826
 11
8.4558766995
 21
4.6290434326
  0
LINE
  5
4D5
100
AcDbEntity
  8
03__ASM_ALL_CURVES
100
AcDbLine
 62
40
  6
CONTINUOUS
 10
8.5162235745
 20
4.6089278052
 11
8.5162235745
 21
4.588812185
  0
LINE
  5
4D6
100
AcDbEntity
  8
03__ASM_ALL_CURVES
100
AcDbLine
 62
40
  6
CONTINUOUS
 10
8.5765704495
 20
4.3434015582
 11
8.5765704495
 21
4.4439796826
  0
LINE
  5
4D7
100
AcDbEntity
  8
03__ASM_ALL_CURVES
100
AcDbLine
 62
40
  6
CONTINUOUS
 10
8.606743887
 20
4.6290434326
 11
8.606743887
 21
4.5083496826
  0
LINE
  5
4D8
100
AcDbEntity
  8
03__ASM_ALL_CURVES
100
AcDbLine
 62
40
  6
CONTINUOUS
 10
8.5237669339
 20
4.3836328076
 11
8.5162235745
 21
4.3534593701
  0
LINE
  5
4D9
100
AcDbEntity
  8
03__ASM_ALL_CURVES
100
AcDbLine
 62
40
  6
CONTINUOUS
 10
8.6821774807
 20
4.3836328076
 11
8.6897208401
 21
4.4138062451
  0
LINE
  5
4DA
100
AcDbEntity
  8
03__ASM_ALL_CURVES
100
AcDbLine
 62
40
  6
CONTINUOUS
 10
8.9989985745
 20
4.3534593701
 11
8.9839118557
 21
4.3333437454
  0
LINE
  5
4DB
100
AcDbEntity
  8
03__ASM_ALL_CURVES
100
AcDbLine
 62
40
  6
CONTINUOUS
 10
9.2403860745
 20
4.403748435
 11
9.2328427151
 21
4.3936906177
  0
LINE
  5
4DC
100
AcDbEntity
  8
03__ASM_ALL_CURVES
100
AcDbLine
 62
40
  6
CONTINUOUS
 10
9.3610798245
 20
4.403748435
 11
9.3535364651
 21
4.3936906177
  0
LINE
  5
4DD
100
AcDbEntity
  8
03__ASM_ALL_CURVES
100
AcDbLine
 62
40
  6
CONTINUOUS
 10
8.0051504494
 20
6.0039276826
 11
8.0252660744
 21
5.9905172691
  0
LINE
  5
4DE
100
AcDbEntity
  8
03__ASM_ALL_CURVES
100
AcDbLine
 62
40
  6
CONTINUOUS
 10
8.9839118557
 20
4.4339218725
 11
8.9989985745
 21
4.4138062451
  0
LINE
  5
4DF
100
AcDbEntity
  8
03__ASM_ALL_CURVES
100
AcDbLine
 62
40
  6
CONTINUOUS
 10
8.0252660744
 20
5.9905172691
 11
8.0453816994
 21
5.9636964326
  0
LINE
  5
4E0
100
AcDbEntity
  8
03__ASM_ALL_CURVES
100
AcDbLine
 62
40
  6
CONTINUOUS
 10
8.4935934964
 20
4.5686965576
 11
8.5162235745
 21
4.5083496826
  0
LINE
  5
4E1
100
AcDbEntity
  8
03__ASM_ALL_CURVES
100
AcDbLine
 62
40
  6
CONTINUOUS
 10
8.3276395901
 20
4.5385231201
 11
8.3200962307
 21
4.5686965576
  0
LINE
  5
4E2
100
AcDbEntity
  8
03__ASM_ALL_CURVES
100
AcDbLine
 62
40
  6
CONTINUOUS
 10
8.0453816994
 20
5.9636964326
 11
8.0554395119
 21
5.9234651826
  0
LINE
  5
4E3
100
AcDbEntity
  8
03__ASM_ALL_CURVES
100
AcDbLine
 62
40
  6
CONTINUOUS
 10
8.4030731839
 20
4.5988699951
 11
8.4106165432
 21
4.5686965576
  0
LINE
  5
4E4
100
AcDbEntity
  8
03__ASM_ALL_CURVES
100
AcDbLine
 62
40
  6
CONTINUOUS
 10
8.5162235745
 20
4.4138062451
 11
8.5237669339
 21
4.3836328076
  0
LINE
  5
4E5
100
AcDbEntity
  8
03__ASM_ALL_CURVES
100
AcDbLine
 62
40
  6
CONTINUOUS
 10
8.6369173245
 20
4.4439796826
 11
8.6369173245
 21
4.3434015582
  0
LINE
  5
4E6
100
AcDbEntity
  8
03__ASM_ALL_CURVES
100
AcDbLine
 62
40
  6
CONTINUOUS
 10
8.727437637
 20
4.6290434326
 11
8.727437637
 21
4.5083496826
  0
LINE
  5
4E7
100
AcDbEntity
  8
03__ASM_ALL_CURVES
100
AcDbLine
 62
40
  6
CONTINUOUS
 10
8.8179579495
 20
4.3232859326
 11
8.8179579495
 21
4.4439796826
  0
LINE
  5
4E8
100
AcDbEntity
  8
03__ASM_ALL_CURVES
100
AcDbLine
 62
40
  6
CONTINUOUS
 10
9.0065419339
 20
4.3836328076
 11
8.9989985745
 21
4.3534593701
  0
LINE
  5
4E9
100
AcDbEntity
  8
03__ASM_ALL_CURVES
100
AcDbLine
 62
40
  6
CONTINUOUS
 10
9.5496638089
 20
4.4339218725
 11
9.5421204495
 21
4.4238640552
  0
LINE
  5
4EA
100
AcDbEntity
  8
03__ASM_ALL_CURVES
100
AcDbLine
 62
40
  6
CONTINUOUS
 10
9.6024673245
 20
4.3434015582
 11
9.5949239651
 21
4.3333437454
  0
LINE
  5
4EB
100
AcDbEntity
  8
03__ASM_ALL_CURVES
100
AcDbLine
 62
40
  6
CONTINUOUS
 10
9.6703575589
 20
4.4339218725
 11
9.6628141995
 21
4.4238640552
  0
LINE
  5
4EC
100
AcDbEntity
  8
03__ASM_ALL_CURVES
100
AcDbLine
 62
40
  6
CONTINUOUS
 10
9.7231610745
 20
4.3434015582
 11
9.7156177151
 21
4.3333437454
  0
LINE
  5
4ED
100
AcDbEntity
  8
03__ASM_ALL_CURVES
100
AcDbLine
 62
40
  6
CONTINUOUS
 10
8.3370582619
 20
6.0039276826
 11
8.3571738869
 21
5.9905172691
  0
LINE
  5
4EE
100
AcDbEntity
  8
03__ASM_ALL_CURVES
100
AcDbLine
 62
40
  6
CONTINUOUS
 10
9.2328427151
 20
4.4339218725
 11
9.2403860745
 21
4.4238640552
  0
LINE
  5
4EF
100
AcDbEntity
  8
03__ASM_ALL_CURVES
100
AcDbLine
 62
40
  6
CONTINUOUS
 10
9.3535364651
 20
4.4339218725
 11
9.3610798245
 21
4.4238640552
  0
LINE
  5
4F0
100
AcDbEntity
  8
03__ASM_ALL_CURVES
100
AcDbLine
 62
40
  6
CONTINUOUS
 10
9.5496638089
 20
4.3333437454
 11
9.5345770901
 21
4.3534593701
  0
LINE
  5
4F1
100
AcDbEntity
  8
03__ASM_ALL_CURVES
100
AcDbLine
 62
40
  6
CONTINUOUS
 10
8.3571738869
 20
5.9905172691
 11
8.3672316994
 21
5.9771068461
  0
LINE
  5
4F2
100
AcDbEntity
  8
03__ASM_ALL_CURVES
100
AcDbLine
 62
40
  6
CONTINUOUS
 10
9.5421204495
 20
4.4138062451
 11
9.5496638089
 21
4.403748435
  0
LINE
  5
4F3
100
AcDbEntity
  8
03__ASM_ALL_CURVES
100
AcDbLine
 62
40
  6
CONTINUOUS
 10
9.5949239651
 20
4.3735749939
 11
9.6024673245
 21
4.3635171838
  0
LINE
  5
4F4
100
AcDbEntity
  8
03__ASM_ALL_CURVES
100
AcDbLine
 62
40
  6
CONTINUOUS
 10
8.3370582619
 20
5.9234651826
 11
8.3672316994
 21
5.8430026826
  0
LINE
  5
4F5
100
AcDbEntity
  8
03__ASM_ALL_CURVES
100
AcDbLine
 62
40
  6
CONTINUOUS
 10
8.6897208401
 20
4.3534593701
 11
8.6821774807
 21
4.3836328076
  0
LINE
  5
4F6
100
AcDbEntity
  8
03__ASM_ALL_CURVES
100
AcDbLine
 62
40
  6
CONTINUOUS
 10
8.9386516995
 20
4.3232859326
 11
8.9386516995
 21
4.4439796826
  0
LINE
  5
4F7
100
AcDbEntity
  8
03__ASM_ALL_CURVES
100
AcDbLine
 62
40
  6
CONTINUOUS
 10
9.1800391995
 20
4.3232859326
 11
9.1800391995
 21
4.4439796826
  0
LINE
  5
4F8
100
AcDbEntity
  8
03__ASM_ALL_CURVES
100
AcDbLine
 62
40
  6
CONTINUOUS
 10
9.8438548245
 20
4.3434015582
 11
9.8363114651
 21
4.3333437454
  0
LINE
  5
4F9
100
AcDbEntity
  8
03__ASM_ALL_CURVES
100
AcDbLine
 62
40
  6
CONTINUOUS
 10
9.9645485745
 20
4.403748435
 11
9.9570052151
 21
4.3936906177
  0
LINE
  5
4FA
100
AcDbEntity
  8
03__ASM_ALL_CURVES
100
AcDbLine
 62
40
  6
CONTINUOUS
 10
9.6703575589
 20
4.3333437454
 11
9.6552708401
 21
4.3534593701
  0
LINE
  5
4FB
100
AcDbEntity
  8
03__ASM_ALL_CURVES
100
AcDbLine
 62
40
  6
CONTINUOUS
 10
9.6024673245
 20
4.4238640552
 11
9.5949239651
 21
4.4339218725
  0
LINE
  5
4FC
100
AcDbEntity
  8
03__ASM_ALL_CURVES
100
AcDbLine
 62
40
  6
CONTINUOUS
 10
9.6628141995
 20
4.4138062451
 11
9.6703575589
 21
4.403748435
  0
LINE
  5
4FD
100
AcDbEntity
  8
03__ASM_ALL_CURVES
100
AcDbLine
 62
40
  6
CONTINUOUS
 10
9.7156177151
 20
4.3735749939
 11
9.7231610745
 21
4.3635171838
  0
LINE
  5
4FE
100
AcDbEntity
  8
03__ASM_ALL_CURVES
100
AcDbLine
 62
40
  6
CONTINUOUS
 10
9.7910513089
 20
4.3333437454
 11
9.7835079495
 21
4.3434015582
  0
LINE
  5
4FF
100
AcDbEntity
  8
03__ASM_ALL_CURVES
100
AcDbLine
 62
40
  6
CONTINUOUS
 10
9.7231610745
 20
4.4238640552
 11
9.7156177151
 21
4.4339218725
  0
LINE
  5
500
100
AcDbEntity
  8
03__ASM_ALL_CURVES
100
AcDbLine
 62
40
  6
CONTINUOUS
 10
9.9570052151
 20
4.4339218725
 11
9.9645485745
 21
4.4238640552
  0
LINE
  5
501
100
AcDbEntity
  8
03__ASM_ALL_CURVES
100
AcDbLine
 62
40
  6
CONTINUOUS
 10
9.3384497464
 20
4.3836328076
 11
9.3610798245
 21
4.3232859326
  0
LINE
  5
502
100
AcDbEntity
  8
03__ASM_ALL_CURVES
100
AcDbLine
 62
40
  6
CONTINUOUS
 10
8.9989985745
 20
4.4138062451
 11
9.0065419339
 21
4.3836328076
  0
LINE
  5
503
100
AcDbEntity
  8
03__ASM_ALL_CURVES
100
AcDbLine
 62
40
  6
CONTINUOUS
 10
9.2403860745
 20
4.4238640552
 11
9.2403860745
 21
4.403748435
  0
LINE
  5
504
100
AcDbEntity
  8
03__ASM_ALL_CURVES
100
AcDbLine
 62
40
  6
CONTINUOUS
 10
9.3007329495
 20
4.3232859326
 11
9.3007329495
 21
4.4439796826
  0
LINE
  5
505
100
AcDbEntity
  8
03__ASM_ALL_CURVES
100
AcDbLine
 62
40
  6
CONTINUOUS
 10
9.3610798245
 20
4.4238640552
 11
9.3610798245
 21
4.403748435
  0
LINE
  5
506
100
AcDbEntity
  8
03__ASM_ALL_CURVES
100
AcDbLine
 62
40
  6
CONTINUOUS
 10
9.4214266995
 20
4.3232859326
 11
9.4214266995
 21
4.4439796826
  0
LINE
  5
507
100
AcDbEntity
  8
03__ASM_ALL_CURVES
100
AcDbLine
 62
40
  6
CONTINUOUS
 10
9.5421204495
 20
4.4238640552
 11
9.5421204495
 21
4.4138062451
  0
LINE
  5
508
100
AcDbEntity
  8
03__ASM_ALL_CURVES
100
AcDbLine
 62
40
  6
CONTINUOUS
 10
9.6024673245
 20
4.3635171838
 11
9.6024673245
 21
4.3434015582
  0
LINE
  5
509
100
AcDbEntity
  8
03__ASM_ALL_CURVES
100
AcDbLine
 62
40
  6
CONTINUOUS
 10
9.6628141995
 20
4.4238640552
 11
9.6628141995
 21
4.4138062451
  0
LINE
  5
50A
100
AcDbEntity
  8
03__ASM_ALL_CURVES
100
AcDbLine
 62
40
  6
CONTINUOUS
 10
9.7231610745
 20
4.3635171838
 11
9.7231610745
 21
4.3434015582
  0
LINE
  5
50B
100
AcDbEntity
  8
03__ASM_ALL_CURVES
100
AcDbLine
 62
40
  6
CONTINUOUS
 10
9.7835079495
 20
4.3434015582
 11
9.7835079495
 21
4.4439796826
  0
LINE
  5
50C
100
AcDbEntity
  8
03__ASM_ALL_CURVES
100
AcDbLine
 62
40
  6
CONTINUOUS
 10
9.9419184964
 20
4.3836328076
 11
9.9645485745
 21
4.3232859326
  0
LINE
  5
50D
100
AcDbEntity
  8
03__ASM_ALL_CURVES
100
AcDbLine
 62
40
  6
CONTINUOUS
 10
9.8438548245
 20
4.4439796826
 11
9.8438548245
 21
4.3434015582
  0
LINE
  5
50E
100
AcDbEntity
  8
03__ASM_ALL_CURVES
100
AcDbLine
 62
40
  6
CONTINUOUS
 10
9.9042016995
 20
4.3232859326
 11
9.9042016995
 21
4.4439796826
  0
LINE
  5
50F
100
AcDbEntity
  8
03__ASM_ALL_CURVES
100
AcDbLine
 62
40
  6
CONTINUOUS
 10
9.9645485745
 20
4.4238640552
 11
9.9645485745
 21
4.403748435
  0
LINE
  5
510
100
AcDbEntity
  8
03__ASM_ALL_CURVES
100
AcDbLine
 62
40
  6
CONTINUOUS
 10
10.0248954495
 20
4.3232859326
 11
10.0248954495
 21
4.4439796826
  0
CIRCLE
  5
511
100
AcDbEntity
  8
0
100
AcDbCircle
 62
7
  6
CONTINUOUS
 10
6.8924891997
 20
4.4761646826
 40
0.156
  0
ARC
  5
512
100
AcDbEntity
  8
0
100
AcDbCircle
 62
7
  6
CONTINUOUS
 10
6.8194891997
 20
4.4761646826
 40
0.125
100
AcDbArc
 50
259.6972193257
 51
100.3268293892
  0
ARC
  5
513
100
AcDbEntity
  8
0
100
AcDbCircle
 62
7
  6
CONTINUOUS
 10
2.0804891997
 20
4.6531646826
 40
0.094
100
AcDbArc
 50
90.0
 51
131.267427381
  0
ARC
  5
514
100
AcDbEntity
  8
0
100
AcDbCircle
 62
7
  6
CONTINUOUS
 10
2.0804891997
 20
4.2991646826
 40
0.094
100
AcDbArc
 50
228.732572619
 51
270.0
  0
ARC
  5
515
100
AcDbEntity
  8
0
100
AcDbCircle
 62
7
  6
CONTINUOUS
 10
5.6478531704
 20
3.5821646826
 40
0.028
100
AcDbArc
 50
9.2483576598
 51
76.1357474108
  0
ARC
  5
516
100
AcDbEntity
  8
0
100
AcDbCircle
 62
7
  6
CONTINUOUS
 10
5.6478531704
 20
5.3701646826
 40
0.028
100
AcDbArc
 50
283.8642525892
 51
350.7516423402
  0
ARC
  5
517
100
AcDbEntity
  8
0
100
AcDbCircle
 62
7
  6
CONTINUOUS
 10
1.7664891997
 20
4.3146646826
 40
0.0175
100
AcDbArc
 50
180.0
 51
360.0
  0
ARC
  5
518
100
AcDbEntity
  8
0
100
AcDbCircle
 62
7
  6
CONTINUOUS
 10
6.9464891997
 20
4.0311646826
 40
0.008
100
AcDbArc
 50
36.5803309448
 51
90.0
  0
ARC
  5
519
100
AcDbEntity
  8
0
100
AcDbCircle
 62
7
  6
CONTINUOUS
 10
6.9464891997
 20
4.9211646826
 40
0.008
100
AcDbArc
 50
270.0
 51
324.5599477665
  0
SPLINE
  5
51A
100
AcDbEntity
  8
0
100
AcDbSpline
 62
7
  6
CONTINUOUS
 70
0
 71
3
 72
20
 73
16
 74
14
 42
0.0000001
 43
0.0000001
 44
0.0000000001
 12
0.0
 22
0.0416605862
 32
0.0
 13
0.0
 23
-0.0416605862
 33
0.0
 40
0.0
 40
0.0
 40
0.0
 40
0.0
 40
0.0489307848
 40
0.1062135912
 40
0.175871992
 40
0.2580136346
 40
0.3503828832
 40
0.4493672053
 40
0.5506327947
 40
0.6496171168
 40
0.7419863654
 40
0.824128008
 40
0.8937864088
 40
0.9510692152
 40
1.0
 40
1.0
 40
1.0
 40
1.0
 10
1.7839891997
 20
4.5522882514
 30
0.0
 10
1.7839891997
 20
4.5529677465
 30
0.0
 10
1.7835676657
 20
4.5544537575
 30
0.0
 10
1.7819323979
 20
4.5563321848
 30
0.0
 10
1.7794804774
 20
4.5579311851
 30
0.0
 10
1.776321245
 20
4.5592059362
 30
0.0
 10
1.7726181514
 20
4.560097924
 30
0.0
 10
1.7685712424
 20
4.5605571617
 30
0.0
 10
1.7644071569
 20
4.5605571617
 30
0.0
 10
1.7603602479
 20
4.560097924
 30
0.0
 10
1.7566571543
 20
4.5592059362
 30
0.0
 10
1.7534979219
 20
4.5579311851
 30
0.0
 10
1.7510460014
 20
4.5563321848
 30
0.0
 10
1.7494107336
 20
4.5544537575
 30
0.0
 10
1.7489891997
 20
4.5529677465
 30
0.0
 10
1.7489891997
 20
4.5522882514
 30
0.0
 11
1.7839891997
 21
4.5522882514
 31
0.0
 11
1.7834806815
 21
4.5542622907
 31
0.0
 11
1.7819846801
 21
4.556121606
 31
0.0
 11
1.7795881377
 21
4.5577581406
 31
0.0
 11
1.7764303327
 21
4.5590767852
 31
0.0
 11
1.7726947852
 21
4.5600009049
 31
0.0
 11
1.7685985916
 21
4.5604767932
 31
0.0
 11
1.7643798077
 21
4.5604767932
 31
0.0
 11
1.7602836141
 21
4.5600009049
 31
0.0
 11
1.7565480666
 21
4.5590767852
 31
0.0
 11
1.7533902616
 21
4.5577581406
 31
0.0
 11
1.7509937192
 21
4.556121606
 31
0.0
 11
1.7494977178
 21
4.5542622907
 31
0.0
 11
1.7489891997
 21
4.5522882514
 31
0.0
  0
SPLINE
  5
51B
100
AcDbEntity
  8
0
100
AcDbSpline
 62
7
  6
CONTINUOUS
 70
0
 71
3
 72
16
 73
12
 74
10
 42
0.0000001
 43
0.0000001
 44
0.0000000001
 12
0.0906480335
 22
0.2719441006
 32
0.0
 13
-0.0906480335
 23
0.2719441006
 33
0.0
 40
0.0
 40
0.0
 40
0.0
 40
0.0
 40
0.1184548733
 40
0.230565332
 40
0.3393089466
 40
0.4465959239
 40
0.5535015371
 40
0.6607803311
 40
0.769505023
 40
0.8815660643
 40
1.0
 40
1.0
 40
1.0
 40
1.0
 10
2.2686177893
 20
4.1951646826
 30
0.0
 10
2.272197023
 20
4.2059023839
 30
0.0
 10
2.2786281097
 20
4.2269884308
 30
0.0
 10
2.2861475394
 20
4.2585494856
 30
0.0
 10
2.2912357668
 20
4.2895183037
 30
0.0
 10
2.293822629
 20
4.3203013733
 30
0.0
 10
2.2938214407
 20
4.3510551743
 30
0.0
 10
2.2912326001
 20
4.3818354657
 30
0.0
 10
2.2861438654
 20
4.4127967675
 30
0.0
 10
2.2786256086
 20
4.4443492991
 30
0.0
 10
2.2721963904
 20
4.4654288792
 30
0.0
 10
2.2686177893
 20
4.4761646826
 30
0.0
 11
2.2686177893
 21
4.1951646826
 31
0.0
 11
2.2784562589
 21
4.2276637105
 31
0.0
 11
2.2858434294
 21
4.2589401009
 31
0.0
 11
2.2908480468
 21
4.2897075534
 31
0.0
 11
2.2933950121
 21
4.3203561746
 31
0.0
 11
2.2933938419
 21
4.3510011231
 31
0.0
 11
2.2908449018
 21
4.3816472262
 31
0.0
 11
2.2858394628
 21
4.4124090494
 31
0.0
 11
2.2784546913
 21
4.443671451
 31
0.0
 11
2.2686177893
 21
4.4761646826
 31
0.0
  0
SPLINE
  5
51C
100
AcDbEntity
  8
0
100
AcDbSpline
 62
7
  6
CONTINUOUS
 70
0
 71
3
 72
17
 73
13
 74
11
 42
0.0000001
 43
0.0000001
 44
0.0000000001
 12
-0.1487434696
 22
0.2576312467
 32
0.0
 13
0.1487434696
 23
0.2576312467
 33
0.0
 40
0.0
 40
0.0
 40
0.0
 40
0.0
 40
0.1169386465
 40
0.2216811606
 40
0.3184580982
 40
0.4103908543
 40
0.5000417254
 40
0.5896883004
 40
0.6816074548
 40
0.7783545182
 40
0.8830694657
 40
1.0
 40
1.0
 40
1.0
 40
1.0
 10
2.1669600509
 20
4.1951646826
 30
0.0
 10
2.1611620976
 20
4.2052070324
 30
0.0
 10
2.15082227
 20
4.2246368798
 30
0.0
 10
2.1384486466
 20
4.2537389574
 30
0.0
 10
2.1297951999
 20
4.2815805201
 30
0.0
 10
2.1246380952
 20
4.3087638397
 30
0.0
 10
2.1229212149
 20
4.3356767246
 30
0.0
 10
2.1246411005
 20
4.3625880494
 30
0.0
 10
2.1297998522
 20
4.38976619
 30
0.0
 10
2.138452704
 20
4.417600496
 30
0.0
 10
2.1508242914
 20
4.4466963357
 30
0.0
 10
2.1611624998
 20
4.4661230295
 30
0.0
 10
2.1669600509
 20
4.4761646826
 30
0.0
 11
2.1669600509
 21
4.1951646826
 31
0.0
 11
2.1507338195
 21
4.2259363396
 31
0.0
 11
2.138649063
 21
4.2546569762
 31
0.0
 11
2.1301963897
 21
4.2821780448
 31
0.0
 11
2.1251635044
 21
4.30905976
 31
0.0
 11
2.1234892
 21
4.3356771161
 31
0.0
 11
2.1251664423
 21
4.3622930066
 31
0.0
 11
2.130201089
 21
4.3891702753
 31
0.0
 11
2.138652704
 21
4.4166823719
 31
0.0
 11
2.1507348552
 21
4.4453952076
 31
0.0
 11
2.1669600509
 21
4.4761646826
 31
0.0
  0
SPLINE
  5
51D
100
AcDbEntity
  8
0
100
AcDbSpline
 62
7
  6
CONTINUOUS
 70
0
 71
3
 72
16
 73
12
 74
10
 42
0.0000001
 43
0.0000001
 44
0.0000000001
 12
0.0906480335
 22
0.2719441006
 32
0.0
 13
-0.0906480335
 23
0.2719441006
 33
0.0
 40
0.0
 40
0.0
 40
0.0
 40
0.0
 40
0.1184548733
 40
0.230565332
 40
0.3393089466
 40
0.4465959239
 40
0.5535015371
 40
0.6607803311
 40
0.769505023
 40
0.8815660643
 40
1.0
 40
1.0
 40
1.0
 40
1.0
 10
2.2686177893
 20
4.4761646826
 30
0.0
 10
2.272197023
 20
4.4869023839
 30
0.0
 10
2.2786281097
 20
4.5079884308
 30
0.0
 10
2.2861475394
 20
4.5395494856
 30
0.0
 10
2.2912357668
 20
4.5705183037
 30
0.0
 10
2.293822629
 20
4.6013013733
 30
0.0
 10
2.2938214407
 20
4.6320551743
 30
0.0
 10
2.2912326001
 20
4.6628354657
 30
0.0
 10
2.2861438654
 20
4.6937967675
 30
0.0
 10
2.2786256086
 20
4.7253492991
 30
0.0
 10
2.2721963904
 20
4.7464288792
 30
0.0
 10
2.2686177893
 20
4.7571646826
 30
0.0
 11
2.2686177893
 21
4.4761646826
 31
0.0
 11
2.2784562589
 21
4.5086637105
 31
0.0
 11
2.2858434294
 21
4.5399401009
 31
0.0
 11
2.2908480468
 21
4.5707075534
 31
0.0
 11
2.2933950121
 21
4.6013561746
 31
0.0
 11
2.2933938419
 21
4.6320011231
 31
0.0
 11
2.2908449018
 21
4.6626472262
 31
0.0
 11
2.2858394628
 21
4.6934090494
 31
0.0
 11
2.2784546913
 21
4.724671451
 31
0.0
 11
2.2686177893
 21
4.7571646826
 31
0.0
  0
SPLINE
  5
51E
100
AcDbEntity
  8
0
100
AcDbSpline
 62
7
  6
CONTINUOUS
 70
0
 71
3
 72
17
 73
13
 74
11
 42
0.0000001
 43
0.0000001
 44
0.0000000001
 12
-0.1487434696
 22
0.2576312467
 32
0.0
 13
0.1487434696
 23
0.2576312467
 33
0.0
 40
0.0
 40
0.0
 40
0.0
 40
0.0
 40
0.1169386465
 40
0.2216811606
 40
0.3184580982
 40
0.4103908543
 40
0.5000417254
 40
0.5896883004
 40
0.6816074548
 40
0.7783545182
 40
0.8830694657
 40
1.0
 40
1.0
 40
1.0
 40
1.0
 10
2.1669600509
 20
4.4761646826
 30
0.0
 10
2.1611620976
 20
4.4862070324
 30
0.0
 10
2.15082227
 20
4.5056368798
 30
0.0
 10
2.1384486466
 20
4.5347389574
 30
0.0
 10
2.1297951999
 20
4.5625805201
 30
0.0
 10
2.1246380952
 20
4.5897638397
 30
0.0
 10
2.1229212149
 20
4.6166767246
 30
0.0
 10
2.1246411005
 20
4.6435880494
 30
0.0
 10
2.1297998522
 20
4.67076619
 30
0.0
 10
2.138452704
 20
4.698600496
 30
0.0
 10
2.1508242914
 20
4.7276963357
 30
0.0
 10
2.1611624998
 20
4.7471230295
 30
0.0
 10
2.1669600509
 20
4.7571646826
 30
0.0
 11
2.1669600509
 21
4.4761646826
 31
0.0
 11
2.1507338195
 21
4.5069363396
 31
0.0
 11
2.138649063
 21
4.5356569762
 31
0.0
 11
2.1301963897
 21
4.5631780448
 31
0.0
 11
2.1251635044
 21
4.59005976
 31
0.0
 11
2.1234892
 21
4.6166771161
 31
0.0
 11
2.1251664423
 21
4.6432930066
 31
0.0
 11
2.130201089
 21
4.6701702753
 31
0.0
 11
2.138652704
 21
4.6976823719
 31
0.0
 11
2.1507348552
 21
4.7263952076
 31
0.0
 11
2.1669600509
 21
4.7571646826
 31
0.0
  0
SPLINE
  5
51F
100
AcDbEntity
  8
0
100
AcDbSpline
 62
7
  6
CONTINUOUS
 70
0
 71
3
 72
15
 73
11
 74
9
 42
0.0000001
 43
0.0000001
 44
0.0000000001
 12
0.0
 22
0.1617702498
 32
0.0
 13
0.0
 23
-0.1617702498
 33
0.0
 40
0.0
 40
0.0
 40
0.0
 40
0.0
 40
0.125
 40
0.25
 40
0.375
 40
0.5
 40
0.625
 40
0.75
 40
0.875
 40
1.0
 40
1.0
 40
1.0
 40
1.0
 10
7.7644891997
 20
5.2454146826
 30
0.0
 10
7.7644891997
 20
5.2521551097
 30
0.0
 10
7.761807691
 20
5.2656359638
 30
0.0
 10
7.7503532553
 20
5.2827787383
 30
0.0
 10
7.7332104809
 20
5.294233174
 30
0.0
 10
7.7129891997
 20
5.2982554369
 30
0.0
 10
7.6927679184
 20
5.294233174
 30
0.0
 10
7.675625144
 20
5.2827787383
 30
0.0
 10
7.6641707083
 20
5.2656359638
 30
0.0
 10
7.6614891997
 20
5.2521551097
 30
0.0
 10
7.6614891997
 20
5.2454146826
 30
0.0
 11
7.7644891997
 21
5.2454146826
 31
0.0
 11
7.7605689956
 21
5.2651228794
 31
0.0
 11
7.7494051989
 21
5.2818306818
 31
0.0
 11
7.7326973964
 21
5.2929944785
 31
0.0
 11
7.7129891997
 21
5.2969146826
 31
0.0
 11
7.6932810029
 21
5.2929944785
 31
0.0
 11
7.6765732004
 21
5.2818306818
 31
0.0
 11
7.6654094037
 21
5.2651228794
 31
0.0
 11
7.6614891997
 21
5.2454146826
 31
0.0
  0
SPLINE
  5
520
100
AcDbEntity
  8
0
100
AcDbSpline
 62
7
  6
CONTINUOUS
 70
0
 71
3
 72
15
 73
11
 74
9
 42
0.0000001
 43
0.0000001
 44
0.0000000001
 12
0.0
 22
-0.1617702498
 32
0.0
 13
0.0
 23
0.1617702498
 33
0.0
 40
0.0
 40
0.0
 40
0.0
 40
0.0
 40
0.125
 40
0.25
 40
0.375
 40
0.5
 40
0.625
 40
0.75
 40
0.875
 40
1.0
 40
1.0
 40
1.0
 40
1.0
 10
7.7644891997
 20
3.7069146826
 30
0.0
 10
7.7644891997
 20
3.7001742555
 30
0.0
 10
7.761807691
 20
3.6866934014
 30
0.0
 10
7.7503532553
 20
3.6695506269
 30
0.0
 10
7.7332104809
 20
3.6580961912
 30
0.0
 10
7.7129891997
 20
3.6540739283
 30
0.0
 10
7.6927679184
 20
3.6580961912
 30
0.0
 10
7.675625144
 20
3.6695506269
 30
0.0
 10
7.6641707083
 20
3.6866934014
 30
0.0
 10
7.6614891997
 20
3.7001742555
 30
0.0
 10
7.6614891997
 20
3.7069146826
 30
0.0
 11
7.7644891997
 21
3.7069146826
 31
0.0
 11
7.7605689956
 21
3.6872064858
 31
0.0
 11
7.7494051989
 21
3.6704986834
 31
0.0
 11
7.7326973964
 21
3.6593348867
 31
0.0
 11
7.7129891997
 21
3.6554146826
 31
0.0
 11
7.6932810029
 21
3.6593348867
 31
0.0
 11
7.6765732004
 21
3.6704986834
 31
0.0
 11
7.6654094037
 21
3.6872064858
 31
0.0
 11
7.6614891997
 21
3.7069146826
 31
0.0
  0
SPLINE
  5
521
100
AcDbEntity
  8
0
100
AcDbSpline
 62
7
  6
CONTINUOUS
 70
0
 71
3
 72
14
 73
10
 74
8
 42
0.0000001
 43
0.0000001
 44
0.0000000001
 12
0.0
 22
0.1323573704
 32
0.0
 13
-0.0715842835
 23
-0.1113582083
 33
0.0
 40
0.0
 40
0.0
 40
0.0
 40
0.0
 40
0.152777901
 40
0.305555802
 40
0.458333703
 40
0.6111116041
 40
0.7638895051
 40
0.9166674061
 40
1.0
 40
1.0
 40
1.0
 40
1.0
 10
5.6044891997
 20
5.3936646826
 30
0.0
 10
5.6044891997
 20
5.4004051097
 30
0.0
 10
5.601807691
 20
5.4138859638
 30
0.0
 10
5.5903532553
 20
5.4310287383
 30
0.0
 10
5.5732104809
 20
5.442483174
 30
0.0
 10
5.5529891997
 20
5.4465054369
 30
0.0
 10
5.5327679184
 20
5.442483174
 30
0.0
 10
5.5182225642
 20
5.432764279
 30
0.0
 10
5.5116558189
 20
5.4245991785
 30
0.0
 10
5.5096673842
 20
5.4215059224
 30
0.0
 11
5.6044891997
 21
5.3936646826
 31
0.0
 11
5.6005689956
 21
5.4133728794
 31
0.0
 11
5.5894051989
 21
5.4300806818
 31
0.0
 11
5.5726973964
 21
5.4412444785
 31
0.0
 11
5.5529891997
 21
5.4451646826
 31
0.0
 11
5.5332810029
 21
5.4412444785
 31
0.0
 11
5.5165732004
 21
5.4300806818
 31
0.0
 11
5.5096673842
 21
5.4215059224
 31
0.0
  0
SPLINE
  5
522
100
AcDbEntity
  8
0
100
AcDbSpline
 62
7
  6
CONTINUOUS
 70
0
 71
3
 72
9
 73
5
 74
3
 42
0.0000001
 43
0.0000001
 44
0.0000000001
 12
-0.0159076891
 22
-0.0247463783
 32
0.0
 13
0.0
 23
-0.0294128795
 33
0.0
 40
0.0
 40
0.0
 40
0.0
 40
0.0
 40
0.3125024955
 40
1.0
 40
1.0
 40
1.0
 40
1.0
 10
5.5096673842
 20
5.4215059224
 30
0.0
 10
5.5080103201
 20
5.418928154
 30
0.0
 10
5.5034393948
 20
5.4102094028
 30
0.0
 10
5.5014891997
 20
5.4004051097
 30
0.0
 10
5.5014891997
 20
5.3936646826
 30
0.0
 11
5.5096673842
 21
5.4215059224
 31
0.0
 11
5.5054094037
 21
5.4133728794
 31
0.0
 11
5.5014891997
 21
5.3936646826
 31
0.0
  0
SPLINE
  5
523
100
AcDbEntity
  8
0
100
AcDbSpline
 62
7
  6
CONTINUOUS
 70
0
 71
3
 72
14
 73
10
 74
8
 42
0.0000001
 43
0.0000001
 44
0.0000000001
 12
0.0
 22
-0.1323573704
 32
0.0
 13
-0.0715842835
 23
0.1113582083
 33
0.0
 40
0.0
 40
0.0
 40
0.0
 40
0.0
 40
0.152777901
 40
0.305555802
 40
0.458333703
 40
0.6111116041
 40
0.7638895051
 40
0.9166674061
 40
1.0
 40
1.0
 40
1.0
 40
1.0
 10
5.6044891997
 20
3.5586646826
 30
0.0
 10
5.6044891997
 20
3.5519242555
 30
0.0
 10
5.601807691
 20
3.5384434014
 30
0.0
 10
5.5903532553
 20
3.5213006269
 30
0.0
 10
5.5732104809
 20
3.5098461912
 30
0.0
 10
5.5529891997
 20
3.5058239283
 30
0.0
 10
5.5327679184
 20
3.5098461912
 30
0.0
 10
5.5182225642
 20
3.5195650862
 30
0.0
 10
5.5116558189
 20
3.5277301867
 30
0.0
 10
5.5096673842
 20
3.5308234428
 30
0.0
 11
5.6044891997
 21
3.5586646826
 31
0.0
 11
5.6005689956
 21
3.5389564858
 31
0.0
 11
5.5894051989
 21
3.5222486834
 31
0.0
 11
5.5726973964
 21
3.5110848867
 31
0.0
 11
5.5529891997
 21
3.5071646826
 31
0.0
 11
5.5332810029
 21
3.5110848867
 31
0.0
 11
5.5165732004
 21
3.5222486834
 31
0.0
 11
5.5096673842
 21
3.5308234428
 31
0.0
  0
SPLINE
  5
524
100
AcDbEntity
  8
0
100
AcDbSpline
 62
7
  6
CONTINUOUS
 70
0
 71
3
 72
9
 73
5
 74
3
 42
0.0000001
 43
0.0000001
 44
0.0000000001
 12
-0.0159076891
 22
0.0247463783
 32
0.0
 13
0.0
 23
0.0294128795
 33
0.0
 40
0.0
 40
0.0
 40
0.0
 40
0.0
 40
0.3125024955
 40
1.0
 40
1.0
 40
1.0
 40
1.0
 10
5.5096673842
 20
3.5308234428
 30
0.0
 10
5.5080103201
 20
3.5334012112
 30
0.0
 10
5.5034393948
 20
3.5421199624
 30
0.0
 10
5.5014891997
 20
3.5519242555
 30
0.0
 10
5.5014891997
 20
3.5586646826
 30
0.0
 11
5.5096673842
 21
3.5308234428
 31
0.0
 11
5.5054094037
 21
3.5389564858
 31
0.0
 11
5.5014891997
 21
3.5586646826
 31
0.0
  0
SPLINE
  5
525
100
AcDbEntity
  8
0
100
AcDbSpline
 62
7
  6
CONTINUOUS
 70
0
 71
3
 72
15
 73
11
 74
9
 42
0.0000001
 43
0.0000001
 44
0.0000000001
 12
0.0
 22
0.1617702498
 32
0.0
 13
-0.0
 23
-0.1617702498
 33
0.0
 40
0.0
 40
0.0
 40
0.0
 40
0.0
 40
0.125
 40
0.25
 40
0.375
 40
0.5
 40
0.625
 40
0.75
 40
0.875
 40
1.0
 40
1.0
 40
1.0
 40
1.0
 10
4.5454891997
 20
5.4691646826
 30
0.0
 10
4.5454891997
 20
5.4759051097
 30
0.0
 10
4.542807691
 20
5.4893859638
 30
0.0
 10
4.5313532553
 20
5.5065287383
 30
0.0
 10
4.5142104809
 20
5.517983174
 30
0.0
 10
4.4939891997
 20
5.5220054369
 30
0.0
 10
4.4737679184
 20
5.517983174
 30
0.0
 10
4.456625144
 20
5.5065287383
 30
0.0
 10
4.4451707083
 20
5.4893859638
 30
0.0
 10
4.4424891997
 20
5.4759051097
 30
0.0
 10
4.4424891997
 20
5.4691646826
 30
0.0
 11
4.5454891997
 21
5.4691646826
 31
0.0
 11
4.5415689956
 21
5.4888728794
 31
0.0
 11
4.5304051989
 21
5.5055806818
 31
0.0
 11
4.5136973964
 21
5.5167444785
 31
0.0
 11
4.4939891997
 21
5.5206646826
 31
0.0
 11
4.4742810029
 21
5.5167444785
 31
0.0
 11
4.4575732004
 21
5.5055806818
 31
0.0
 11
4.4464094037
 21
5.4888728794
 31
0.0
 11
4.4424891997
 21
5.4691646826
 31
0.0
  0
SPLINE
  5
526
100
AcDbEntity
  8
0
100
AcDbSpline
 62
7
  6
CONTINUOUS
 70
0
 71
3
 72
15
 73
11
 74
9
 42
0.0000001
 43
0.0000001
 44
0.0000000001
 12
0.0
 22
-0.1617702498
 32
0.0
 13
-0.0
 23
0.1617702498
 33
0.0
 40
0.0
 40
0.0
 40
0.0
 40
0.0
 40
0.125
 40
0.25
 40
0.375
 40
0.5
 40
0.625
 40
0.75
 40
0.875
 40
1.0
 40
1.0
 40
1.0
 40
1.0
 10
4.5454891997
 20
3.4831646826
 30
0.0
 10
4.5454891997
 20
3.4764242555
 30
0.0
 10
4.542807691
 20
3.4629434014
 30
0.0
 10
4.5313532553
 20
3.4458006269
 30
0.0
 10
4.5142104809
 20
3.4343461912
 30
0.0
 10
4.4939891997
 20
3.4303239283
 30
0.0
 10
4.4737679184
 20
3.4343461912
 30
0.0
 10
4.456625144
 20
3.4458006269
 30
0.0
 10
4.4451707083
 20
3.4629434014
 30
0.0
 10
4.4424891997
 20
3.4764242555
 30
0.0
 10
4.4424891997
 20
3.4831646826
 30
0.0
 11
4.5454891997
 21
3.4831646826
 31
0.0
 11
4.5415689956
 21
3.4634564858
 31
0.0
 11
4.5304051989
 21
3.4467486834
 31
0.0
 11
4.5136973964
 21
3.4355848867
 31
0.0
 11
4.4939891997
 21
3.4316646826
 31
0.0
 11
4.4742810029
 21
3.4355848867
 31
0.0
 11
4.4575732004
 21
3.4467486834
 31
0.0
 11
4.4464094037
 21
3.4634564858
 31
0.0
 11
4.4424891997
 21
3.4831646826
 31
0.0
  0
SPLINE
  5
527
100
AcDbEntity
  8
0
100
AcDbSpline
 62
7
  6
CONTINUOUS
 70
0
 71
3
 72
13
 73
9
 74
7
 42
0.0000001
 43
0.0000001
 44
0.0000000001
 12
0.1297602191
 22
0.0
 32
0.0
 13
0.0637175348
 23
-0.1136205292
 33
0.0
 40
0.0
 40
0.0
 40
0.0
 40
0.0
 40
0.2130623139
 40
0.4202351767
 40
0.6058126457
 40
0.7626312128
 40
0.8964056734
 40
1.0
 40
1.0
 40
1.0
 40
1.0
 10
6.8194891997
 20
4.9013050003
 30
0.0
 10
6.8287048705
 20
4.9013050003
 30
0.0
 10
6.8468857911
 20
4.9008318615
 30
0.0
 10
6.8730126757
 20
4.8985908457
 30
0.0
 10
6.8964875391
 20
4.8946018717
 30
0.0
 10
6.9162713902
 20
4.8885998231
 30
0.0
 10
6.9314438105
 20
4.8804429284
 30
0.0
 10
6.9386226952
 20
4.8726777064
 30
0.0
 10
6.9408229536
 20
4.8687542257
 30
0.0
 11
6.8194891997
 21
4.9013050003
 31
0.0
 11
6.8471258261
 21
4.9005472522
 31
0.0
 11
6.8738990011
 21
4.8981220055
 31
0.0
 11
6.8975985753
 21
4.8938553693
 31
0.0
 11
6.9169700793
 21
4.8876248824
 31
0.0
 11
6.9319837171
 21
4.8789121452
 31
0.0
 11
6.9408229536
 21
4.8687542257
 31
0.0
  0
SPLINE
  5
528
100
AcDbEntity
  8
0
100
AcDbSpline
 62
7
  6
CONTINUOUS
 70
0
 71
3
 72
9
 73
5
 74
3
 42
0.0000001
 43
0.0000001
 44
0.0000000001
 12
-0.0355157757
 22
0.0
 32
0.0
 13
-0.0354237784
 23
0.0026495089
 33
0.0
 40
0.0
 40
0.0
 40
0.0
 40
0.0
 40
0.7468506662
 40
1.0
 40
1.0
 40
1.0
 40
1.0
 10
6.8194891997
 20
4.0510243649
 30
0.0
 10
6.8106475394
 20
4.0510243649
 30
0.0
 10
6.7988064919
 20
4.0513208532
 30
0.0
 10
6.7869883955
 20
4.0520712333
 30
0.0
 10
6.7839992269
 20
4.0522948071
 30
0.0
 11
6.8194891997
 21
4.0510243649
 31
0.0
 11
6.7929733528
 21
4.0517204044
 31
0.0
 11
6.7839992269
 21
4.0522948071
 31
0.0
  0
SPLINE
  5
529
100
AcDbEntity
  8
0
100
AcDbSpline
 62
7
  6
CONTINUOUS
 70
0
 71
3
 72
13
 73
9
 74
7
 42
0.0000001
 43
0.0000001
 44
0.0000000001
 12
-0.0638246806
 22
-0.1135408277
 32
0.0
 13
-0.1297495967
 23
0.0
 33
0.0
 40
0.0
 40
0.0
 40
0.0
 40
0.0
 40
0.1003809767
 40
0.2337609862
 40
0.3933410649
 40
0.5842378906
 40
0.7942507451
 40
1.0
 40
1.0
 40
1.0
 40
1.0
 10
6.9408180744
 20
4.0835667565
 30
0.0
 10
6.9386824798
 20
4.0797676435
 30
0.0
 10
6.9316751976
 20
4.0720757557
 30
0.0
 10
6.9165813026
 20
4.0638354762
 30
0.0
 10
6.8964856458
 20
4.0577039177
 30
0.0
 10
6.8725388772
 20
4.0536686966
 30
0.0
 10
6.8463732663
 20
4.0514774619
 30
0.0
 10
6.8283878273
 20
4.0510243649
 30
0.0
 10
6.8194891997
 20
4.0510243649
 30
0.0
 11
6.9408180744
 21
4.0835667565
 31
0.0
 11
6.9323024178
 21
4.0736769308
 31
0.0
 11
6.9173948794
 21
4.0648869923
 31
0.0
 11
6.8976996532
 21
4.0584984275
 31
0.0
 11
6.8733187038
 21
4.0541324141
 31
0.0
 11
6.8461757651
 21
4.0517296222
 31
0.0
 11
6.8194891997
 21
4.0510243649
 31
0.0
  0
SPLINE
  5
52A
100
AcDbEntity
  8
0
100
AcDbSpline
 62
7
  6
CONTINUOUS
 70
0
 71
3
 72
9
 73
5
 74
3
 42
0.0000001
 43
0.0000001
 44
0.0000000001
 12
0.0346814036
 22
0.0025286754
 32
0.0
 13
0.0347663985
 23
0.0
 33
0.0
 40
0.0
 40
0.0
 40
0.0
 40
0.0
 40
0.2318994718
 40
1.0
 40
1.0
 40
1.0
 40
1.0
 10
6.7847466529
 20
4.9000897604
 30
0.0
 10
6.7874275193
 20
4.9002852266
 30
0.0
 10
6.7989965965
 20
4.9010129056
 30
0.0
 10
6.8105878366
 20
4.9013050003
 30
0.0
 10
6.8194891997
 20
4.9013050003
 30
0.0
 11
6.7847466529
 21
4.9000897604
 31
0.0
 11
6.7927944369
 21
4.9005992988
 31
0.0
 11
6.8194891997
 21
4.9013050003
 31
0.0
  0
SPLINE
  5
52B
100
AcDbEntity
  8
0
100
AcDbSpline
 62
7
  6
CONTINUOUS
 70
0
 71
3
 72
14
 73
10
 74
8
 42
0.0000001
 43
0.0000001
 44
0.0000000001
 12
-0.2174062771
 22
0.0
 32
0.0
 13
0.0001344125
 23
-0.2182382378
 33
0.0
 40
0.0
 40
0.0
 40
0.0
 40
0.0
 40
0.1590141434
 40
0.3170056609
 40
0.4717498425
 40
0.6198022843
 40
0.7577326444
 40
0.8839572811
 40
1.0
 40
1.0
 40
1.0
 40
1.0
 10
6.8924891997
 20
4.0910800308
 30
0.0
 10
6.880965642
 20
4.0910800308
 30
0.0
 10
6.8579315183
 20
4.0888673522
 30
0.0
 10
6.8249579196
 20
4.0791008439
 30
0.0
 10
6.7951682481
 20
4.0635392416
 30
0.0
 10
6.7701677115
 20
4.0433067178
 30
0.0
 10
6.7512686761
 20
4.0198529526
 30
0.0
 10
6.739388846
 20
3.9946617698
 30
0.0
 10
6.7364839998
 20
3.9770804346
 30
0.0
 10
6.736489199
 20
3.9686387817
 30
0.0
 11
6.8924891997
 21
4.0910800308
 31
0.0
 11
6.8580777741
 21
4.0877656356
 31
0.0
 11
6.8251497354
 21
4.0779905012
 31
0.0
 11
6.7953622541
 21
4.0623535544
 31
0.0
 11
6.7704272357
 21
4.041999637
 31
0.0
 11
6.7517836362
 21
4.018512791
 31
0.0
 11
6.7403370771
 21
3.9935720371
 31
0.0
 11
6.736489199
 21
3.9686387817
 31
0.0
  0
SPLINE
  5
52C
100
AcDbEntity
  8
0
100
AcDbSpline
 62
7
  6
CONTINUOUS
 70
0
 71
3
 72
14
 73
10
 74
8
 42
0.0000001
 43
0.0000001
 44
0.0000000001
 12
0.2174062762
 22
0.0
 32
0.0
 13
-0.0001344064
 23
0.2182382383
 33
0.0
 40
0.0
 40
0.0
 40
0.0
 40
0.0
 40
0.1590134383
 40
0.3170042965
 40
0.4717478806
 40
0.6198001944
 40
0.7577309131
 40
0.8839563895
 40
1.0
 40
1.0
 40
1.0
 40
1.0
 10
6.8924891997
 20
4.8612493344
 30
0.0
 10
6.9040127061
 20
4.8612493344
 30
0.0
 10
6.92704673
 20
4.8634619935
 30
0.0
 10
6.9600202022
 20
4.873228419
 30
0.0
 10
6.9898098149
 20
4.888789911
 30
0.0
 10
7.0148103864
 20
4.9090223472
 30
0.0
 10
7.0337095436
 20
4.9324761143
 30
0.0
 10
7.0455895097
 20
4.957667404
 30
0.0
 10
7.0484943994
 20
4.9752488665
 30
0.0
 10
7.0484892004
 20
4.9836905842
 30
0.0
 11
6.8924891997
 21
4.8612493344
 31
0.0
 11
6.9269004739
 21
4.8645637001
 31
0.0
 11
6.9598283875
 21
4.8743387518
 31
0.0
 11
6.989615787
 21
4.8899755746
 31
0.0
 11
7.0145508418
 21
4.9103294033
 31
0.0
 11
7.0331945635
 21
4.9338162516
 31
0.0
 11
7.044641265
 21
4.9587571409
 31
0.0
 11
7.0484892004
 21
4.9836905842
 31
0.0
  0
SPLINE
  5
52D
100
AcDbEntity
  8
0
100
AcDbSpline
 62
7
  6
CONTINUOUS
 70
0
 71
3
 72
11
 73
7
 74
5
 42
0.0000001
 43
0.0000001
 44
0.0000000001
 12
-0.1122350769
 22
0.0
 32
0.0
 13
-0.0992072776
 23
-0.0528079177
 33
0.0
 40
0.0
 40
0.0
 40
0.0
 40
0.0
 40
0.2906004506
 40
0.5712216286
 40
0.8332577802
 40
1.0
 40
1.0
 40
1.0
 40
1.0
 10
6.8924891997
 20
4.922545543
 30
0.0
 10
6.881617345
 20
4.922545543
 30
0.0
 10
6.8602303133
 20
4.921497951
 30
0.0
 10
6.8293614316
 20
4.9167159981
 30
0.0
 10
6.8037648222
 20
4.909375402
 30
0.0
 10
6.7890504857
 20
4.9028390431
 30
0.0
 10
6.7835364718
 20
4.89990394
 30
0.0
 11
6.8924891997
 21
4.922545543
 31
0.0
 11
6.8599150545
 21
4.9209023524
 31
0.0
 11
6.8288128134
 21
4.9159405372
 31
0.0
 11
6.800609091
 21
4.9076052258
 31
0.0
 11
6.7835364718
 21
4.89990394
 31
0.0
  0
SPLINE
  5
52E
100
AcDbEntity
  8
0
100
AcDbSpline
 62
7
  6
CONTINUOUS
 70
0
 71
3
 72
14
 73
10
 74
8
 42
0.0000001
 43
0.0000001
 44
0.0000000001
 12
-0.0001343736
 22
-0.2182382442
 32
0.0
 13
0.217406271
 23
-0.0
 33
0.0
 40
0.0
 40
0.0
 40
0.0
 40
0.0
 40
0.1160492604
 40
0.2422791447
 40
0.380213652
 40
0.5282639565
 40
0.6830058277
 40
0.8409932332
 40
1.0
 40
1.0
 40
1.0
 40
1.0
 10
6.7364891987
 20
4.9836905872
 30
0.0
 10
6.7364840007
 20
4.9752484583
 30
0.0
 10
6.7393891549
 20
4.9576662582
 30
0.0
 10
6.7512699736
 20
4.932474242
 30
0.0
 10
6.7701698775
 20
4.9090204884
 30
0.0
 10
6.7951707997
 20
4.8887885005
 30
0.0
 10
6.8249601592
 20
4.8732276675
 30
0.0
 10
6.857932895
 20
4.8634618288
 30
0.0
 10
6.8809661769
 20
4.8612493344
 30
0.0
 10
6.8924891997
 20
4.8612493344
 30
0.0
 11
6.7364891987
 21
4.9836905872
 31
0.0
 11
6.7403374966
 21
4.9587559546
 31
0.0
 11
6.7517849954
 21
4.9338143775
 31
0.0
 11
6.7704296894
 21
4.9103272504
 31
0.0
 11
6.7953647731
 21
4.8899741491
 31
0.0
 11
6.8251520623
 21
4.8743379192
 31
0.0
 11
6.8580793565
 21
4.8645634216
 31
0.0
 11
6.8924891997
 21
4.8612493344
 31
0.0
  0
SPLINE
  5
52F
100
AcDbEntity
  8
0
100
AcDbSpline
 62
7
  6
CONTINUOUS
 70
0
 71
3
 72
9
 73
5
 74
3
 42
0.0000001
 43
0.0000001
 44
0.0000000001
 12
0.0624169463
 22
0.0
 32
0.0
 13
0.0610632271
 23
0.0131252863
 33
0.0
 40
0.0
 40
0.0
 40
0.0
 40
0.0
 40
0.5224194239
 40
1.0
 40
1.0
 40
1.0
 40
1.0
 10
6.8924891997
 20
4.0297838222
 30
0.0
 10
6.9033584747
 20
4.0297838222
 30
0.0
 10
6.9241803389
 20
4.0308034954
 30
0.0
 10
6.9447884747
 20
4.0339373449
 30
0.0
 10
6.9545093451
 20
4.0360268055
 30
0.0
 11
6.8924891997
 21
4.0297838222
 31
0.0
 11
6.9250556361
 21
4.0314262217
 31
0.0
 11
6.9545093451
 21
4.0360268055
 31
0.0
  0
SPLINE
  5
530
100
AcDbEntity
  8
0
100
AcDbSpline
 62
7
  6
CONTINUOUS
 70
0
 71
3
 72
10
 73
6
 74
4
 42
0.0000001
 43
0.0000001
 44
0.0000000001
 12
0.0487382044
 22
0.010476074
 32
0.0
 13
0.0440357903
 23
0.0234404706
 33
0.0
 40
0.0
 40
0.0
 40
0.0
 40
0.0
 40
0.0337004996
 40
0.623914081
 40
1.0
 40
1.0
 40
1.0
 40
1.0
 10
6.9545093451
 20
4.0360268055
 30
0.0
 10
6.9550568457
 20
4.0361444885
 30
0.0
 10
6.96518588
 20
4.0383580257
 30
0.0
 10
6.9812022673
 20
4.0429497397
 30
0.0
 10
6.9959219598
 20
4.0494871271
 30
0.0
 10
7.0014423733
 20
4.0524256708
 30
0.0
 11
6.9545093451
 21
4.0360268055
 31
0.0
 11
6.9561506808
 21
4.0363855156
 31
0.0
 11
6.9843494263
 21
4.0447165633
 31
0.0
 11
7.0014423733
 21
4.0524256708
 31
0.0
  0
SPLINE
  5
531
100
AcDbEntity
  8
0
100
AcDbSpline
 62
7
  6
CONTINUOUS
 70
0
 71
3
 72
9
 73
5
 74
3
 42
0.0000001
 43
0.0000001
 44
0.0000000001
 12
-0.0441306685
 22
0.0235440227
 32
0.0
 13
-0.0488701983
 23
0.0104955124
 33
0.0
 40
0.0
 40
0.0
 40
0.0
 40
0.0
 40
0.4533009192
 40
1.0
 40
1.0
 40
1.0
 40
1.0
 10
7.001546915
 20
4.8998462464
 30
0.0
 10
6.9948787575
 20
4.9034037554
 30
0.0
 10
6.9795112386
 20
4.9099832524
 30
0.0
 10
6.9634082639
 20
4.9143914246
 30
0.0
 10
6.9545024997
 20
4.9163040536
 30
0.0
 11
7.001546915
 21
4.8998462464
 31
0.0
 11
6.9807954139
 21
4.908922572
 31
0.0
 11
6.9545024997
 21
4.9163040536
 31
0.0
  0
SPLINE
  5
532
100
AcDbEntity
  8
0
100
AcDbSpline
 62
7
  6
CONTINUOUS
 70
0
 71
3
 72
10
 73
6
 74
4
 42
0.0000001
 43
0.0000001
 44
0.0000000001
 12
-0.0610623274
 22
0.0131139311
 32
0.0
 13
-0.0624124876
 23
0.0
 33
0.0
 40
0.0
 40
0.0
 40
0.0
 40
0.0
 40
0.0163642682
 40
0.500478473
 40
1.0
 40
1.0
 40
1.0
 40
1.0
 10
6.9545024997
 20
4.9163040536
 30
0.0
 10
6.9541694196
 20
4.9163755869
 30
0.0
 10
6.9439782505
 20
4.9185420584
 30
0.0
 10
6.9233594972
 20
4.9215855812
 30
0.0
 10
6.9028813267
 20
4.922545543
 30
0.0
 10
6.8924891997
 20
4.922545543
 30
0.0
 11
6.9545024997
 21
4.9163040536
 31
0.0
 11
6.9535028363
 21
4.9165165745
 31
0.0
 11
6.9236294994
 21
4.9210460529
 31
0.0
 11
6.8924891997
 21
4.922545543
 31
0.0
  0
SPLINE
  5
533
100
AcDbEntity
  8
0
100
AcDbSpline
 62
7
  6
CONTINUOUS
 70
0
 71
3
 72
11
 73
7
 74
5
 42
0.0000001
 43
0.0000001
 44
0.0000000001
 12
0.0992711643
 22
-0.0529620092
 32
0.0
 13
0.1123634391
 23
-0.0
 33
0.0
 40
0.0
 40
0.0
 40
0.0
 40
0.0
 40
0.2015549479
 40
0.4536660885
 40
0.722554747
 40
1.0
 40
1.0
 40
1.0
 40
1.0
 10
6.783431338
 20
4.0524831986
 30
0.0
 10
6.7901008694
 20
4.0489249469
 30
0.0
 10
6.8057837543
 20
4.0422107213
 30
0.0
 10
6.8319816759
 20
4.0351184064
 30
0.0
 10
6.8616205293
 20
4.0307436835
 30
0.0
 10
6.8820976321
 20
4.0297838222
 30
0.0
 10
6.8924891997
 20
4.0297838222
 30
0.0
 11
6.783431338
 21
4.0524831986
 31
0.0
 11
6.8041872325
 21
4.0434052797
 31
0.0
 11
6.8314786949
 21
4.0358121315
 31
0.0
 11
6.8613505723
 21
4.0312831487
 31
0.0
 11
6.8924891997
 21
4.0297838222
 31
0.0
  0
SPLINE
  5
534
100
AcDbEntity
  8
0
100
AcDbSpline
 62
7
  6
CONTINUOUS
 70
0
 71
3
 72
14
 73
10
 74
8
 42
0.0000001
 43
0.0000001
 44
0.0000000001
 12
0.0001343846
 22
0.2182382423
 32
0.0
 13
-0.2174062728
 23
0.0
 33
0.0
 40
0.0
 40
0.0
 40
0.0
 40
0.0
 40
0.1160472554
 40
0.2422755238
 40
0.3802091755
 40
0.5282596487
 40
0.6830024133
 40
0.8409917007
 40
1.0
 40
1.0
 40
1.0
 40
1.0
 10
7.0484892005
 20
3.9686387789
 30
0.0
 10
7.0484943989
 20
3.9770807619
 30
0.0
 10
7.0455893392
 20
3.9946626968
 30
0.0
 10
7.033708811
 20
4.0198544843
 30
0.0
 10
7.0148091674
 20
4.0433082318
 30
0.0
 10
6.9898083543
 20
4.0635403825
 30
0.0
 10
6.9600188776
 20
4.079101462
 30
0.0
 10
6.9270458648
 20
4.0888674911
 30
0.0
 10
6.9040123336
 20
4.0910800308
 30
0.0
 10
6.8924891997
 20
4.0910800308
 30
0.0
 11
7.0484892005
 21
3.9686387789
 31
0.0
 11
7.0446410313
 21
3.9935729896
 31
0.0
 11
7.0331938214
 21
4.018514313
 31
0.0
 11
7.0145493992
 21
4.0420014188
 31
0.0
 11
6.9896144126
 21
4.0623546973
 31
0.0
 11
6.9598270286
 21
4.0779911652
 31
0.0
 11
6.9268993716
 21
4.0877658796
 31
0.0
 11
6.8924891997
 21
4.0910800308
 31
0.0
  0
SPLINE
  5
535
100
AcDbEntity
  8
0
100
AcDbSpline
 62
7
  6
CONTINUOUS
 70
0
 71
3
 72
22
 73
18
 74
16
 42
0.0000001
 43
0.0000001
 44
0.0000000001
 12
-0.3072938126
 22
-0.0667891076
 32
0.0
 13
-0.3072938128
 23
0.0667891073
 33
0.0
 40
0.0
 40
0.0
 40
0.0
 40
0.0
 40
0.0110875899
 40
0.043813122
 40
0.0965532293
 40
0.1665186975
 40
0.2510933848
 40
0.3460139288
 40
0.4481388017
 40
0.552035763
 40
0.6541865927
 40
0.7491513348
 40
0.8336967976
 40
0.9036198901
 40
0.9562685546
 40
0.9889400206
 40
1.0
 40
1.0
 40
1.0
 40
1.0
 10
7.0484891997
 20
5.1939146826
 30
0.0
 10
7.0473534837
 20
5.1936678392
 30
0.0
 10
7.0428635351
 20
5.1927021166
 30
0.0
 10
7.0329506604
 20
5.1906588577
 30
0.0
 10
7.016938491
 20
5.1876416485
 30
0.0
 10
6.9954894132
 20
5.1841541831
 30
0.0
 10
6.9695507586
 20
5.1807979703
 30
0.0
 10
6.9401410429
 20
5.178149281
 30
0.0
 10
6.9086180407
 20
5.1766925913
 30
0.0
 10
6.8763027363
 20
5.1766938594
 30
0.0
 10
6.844772503
 20
5.1781535312
 30
0.0
 10
6.8153587637
 20
5.180805482
 30
0.0
 10
6.789423294
 20
5.1841638732
 30
0.0
 10
6.7679913718
 20
5.1876503198
 30
0.0
 10
6.7519987168
 20
5.1906646995
 30
0.0
 10
6.7421036606
 20
5.1927045075
 30
0.0
 10
6.7376220874
 20
5.1936684539
 30
0.0
 10
6.7364891997
 20
5.1939146826
 30
0.0
 11
7.0484891997
 21
5.1939146826
 31
0.0
 11
7.0450804542
 21
5.1931815258
 31
0.0
 11
7.035001116
 21
5.1911043366
 31
0.0
 11
7.0187025632
 21
5.1880346677
 31
0.0
 11
6.9969853081
 21
5.1845067604
 31
0.0
 11
6.9706085161
 21
5.1810985023
 31
0.0
 11
6.9408788912
 21
5.1784257628
 31
0.0
 11
6.9087979221
 21
5.1769464153
 31
0.0
 11
6.8761255965
 21
5.1769476947
 31
0.0
 11
6.8440365972
 21
5.1784301005
 31
0.0
 11
6.8142933901
 21
5.1811069832
 31
0.0
 11
6.7879260473
 21
5.184516654
 31
0.0
 11
6.7662222298
 21
5.1880441739
 31
0.0
 11
6.7499520938
 21
5.1911093581
 31
0.0
 11
6.7398894526
 21
5.1931833332
 31
0.0
 11
6.7364891997
 21
5.1939146826
 31
0.0
  0
SPLINE
  5
536
100
AcDbEntity
  8
0
100
AcDbSpline
 62
7
  6
CONTINUOUS
 70
0
 71
3
 72
22
 73
18
 74
16
 42
0.0000001
 43
0.0000001
 44
0.0000000001
 12
0.3072938126
 22
0.0667891076
 32
0.0
 13
0.3072938128
 23
-0.0667891073
 33
0.0
 40
0.0
 40
0.0
 40
0.0
 40
0.0
 40
0.0110875899
 40
0.043813122
 40
0.0965532293
 40
0.1665186975
 40
0.2510933848
 40
0.3460139288
 40
0.4481388017
 40
0.552035763
 40
0.6541865927
 40
0.7491513348
 40
0.8336967976
 40
0.9036198901
 40
0.9562685546
 40
0.9889400206
 40
1.0
 40
1.0
 40
1.0
 40
1.0
 10
6.7364891997
 20
3.7584146826
 30
0.0
 10
6.7376249156
 20
3.758661526
 30
0.0
 10
6.7421148642
 20
3.7596272486
 30
0.0
 10
6.7520277389
 20
3.7616705075
 30
0.0
 10
6.7680399083
 20
3.7646877167
 30
0.0
 10
6.7894889861
 20
3.7681751821
 30
0.0
 10
6.8154276407
 20
3.7715313948
 30
0.0
 10
6.8448373564
 20
3.7741800842
 30
0.0
 10
6.8763603586
 20
3.7756367739
 30
0.0
 10
6.908675663
 20
3.7756355058
 30
0.0
 10
6.9402058963
 20
3.774175834
 30
0.0
 10
6.9696196356
 20
3.7715238832
 30
0.0
 10
6.9955551053
 20
3.768165492
 30
0.0
 10
7.0169870275
 20
3.7646790454
 30
0.0
 10
7.0329796825
 20
3.7616646656
 30
0.0
 10
7.0428747387
 20
3.7596248577
 30
0.0
 10
7.0473563119
 20
3.7586609113
 30
0.0
 10
7.0484891997
 20
3.7584146826
 30
0.0
 11
6.7364891997
 21
3.7584146826
 31
0.0
 11
6.7398979451
 21
3.7591478394
 31
0.0
 11
6.7499772833
 21
3.7612250286
 31
0.0
 11
6.7662758361
 21
3.7642946975
 31
0.0
 11
6.7879930912
 21
3.7678226048
 31
0.0
 11
6.8143698832
 21
3.7712308629
 31
0.0
 11
6.8440995081
 21
3.7739036024
 31
0.0
 11
6.8761804772
 21
3.7753829499
 31
0.0
 11
6.9088528028
 21
3.7753816705
 31
0.0
 11
6.9409418021
 21
3.7738992647
 31
0.0
 11
6.9706850092
 21
3.771222382
 31
0.0
 11
6.997052352
 21
3.7678127112
 31
0.0
 11
7.0187561695
 21
3.7642851913
 31
0.0
 11
7.0350263055
 21
3.7612200071
 31
0.0
 11
7.0450889467
 21
3.759146032
 31
0.0
 11
7.0484891997
 21
3.7584146826
 31
0.0
  0
SPLINE
  5
537
100
AcDbEntity
  8
0
100
AcDbSpline
 62
7
  6
CONTINUOUS
 70
0
 71
3
 72
14
 73
10
 74
8
 42
0.0000001
 43
0.0000001
 44
0.0000000001
 12
0.0001258961
 22
-0.2044107389
 32
0.0
 13
0.2036314909
 23
0.0
 33
0.0
 40
0.0
 40
0.0
 40
0.0
 40
0.0
 40
0.1182325353
 40
0.2384015659
 40
0.3678212125
 40
0.5104861865
 40
0.6659634732
 40
0.8306775991
 40
1.0
 40
1.0
 40
1.0
 40
1.0
 10
6.736489199
 20
3.9686387817
 30
0.0
 10
6.7364941607
 20
3.9605827818
 30
0.0
 10
6.7390688034
 20
3.9443012919
 30
0.0
 10
6.7511320597
 20
3.9219347448
 30
0.0
 10
6.7704748483
 20
3.9031489375
 30
0.0
 10
6.7957658453
 20
3.8884676486
 30
0.0
 10
6.8255544176
 20
3.8780325158
 30
0.0
 10
6.8582965631
 20
3.8718264632
 30
0.0
 10
6.8809960753
 20
3.8704627151
 30
0.0
 10
6.8924891997
 20
3.8704627151
 30
0.0
 11
6.736489199
 21
3.9686387817
 31
0.0
 11
6.7403377029
 21
3.9448725044
 31
0.0
 11
6.7517842138
 21
3.923244559
 31
0.0
 11
6.7704274257
 21
3.9046177097
 31
0.0
 11
6.7953634062
 21
3.889712603
 31
0.0
 11
6.8251508769
 21
3.8789856869
 31
0.0
 11
6.8580750818
 21
3.8725830098
 31
0.0
 11
6.8924891997
 21
3.8704627151
 31
0.0
  0
SPLINE
  5
538
100
AcDbEntity
  8
0
100
AcDbSpline
 62
7
  6
CONTINUOUS
 70
0
 71
3
 72
14
 73
10
 74
8
 42
0.0000001
 43
0.0000001
 44
0.0000000001
 12
0.2036314889
 22
0.0
 32
0.0
 13
0.00012587
 23
0.2044107451
 33
0.0
 40
0.0
 40
0.0
 40
0.0
 40
0.0
 40
0.1693214175
 40
0.3340350738
 40
0.4895117484
 40
0.6321766513
 40
0.7615964192
 40
0.8817658625
 40
1.0
 40
1.0
 40
1.0
 40
1.0
 10
6.8924891997
 20
3.8704627151
 30
0.0
 10
6.9039822571
 20
3.8704627151
 30
0.0
 10
6.92668167
 20
3.8718264495
 30
0.0
 10
6.9594236825
 20
3.8780324434
 30
0.0
 10
6.9892121972
 20
3.8884674948
 30
0.0
 10
7.0145032045
 20
3.9031486838
 30
0.0
 10
7.0338460971
 20
3.9219344246
 30
0.0
 10
7.0459095353
 20
3.9443010431
 30
0.0
 10
7.0484842398
 20
3.9605826695
 30
0.0
 10
7.0484892005
 20
3.9686387789
 30
0.0
 11
6.8924891997
 21
3.8704627151
 31
0.0
 11
6.9269031181
 21
3.8725829848
 31
0.0
 11
6.9598272355
 21
3.8789856093
 31
0.0
 11
6.9896146097
 21
3.8897124245
 31
0.0
 11
7.0145506258
 21
3.9046174429
 31
0.0
 11
7.0331939374
 21
3.923244227
 31
0.0
 11
7.0446405912
 21
3.9448721915
 31
0.0
 11
7.0484892005
 21
3.9686387789
 31
0.0
  0
SPLINE
  5
539
100
AcDbEntity
  8
0
100
AcDbSpline
 62
7
  6
CONTINUOUS
 70
0
 71
3
 72
14
 73
10
 74
8
 42
0.0000001
 43
0.0000001
 44
0.0000000001
 12
-0.2036314887
 22
0.0
 32
0.0
 13
-0.0001258597
 23
-0.2044107483
 33
0.0
 40
0.0
 40
0.0
 40
0.0
 40
0.0
 40
0.1693212972
 40
0.3340348527
 40
0.4895114619
 40
0.6321763141
 40
0.7615960165
 40
0.8817654889
 40
1.0
 40
1.0
 40
1.0
 40
1.0
 10
6.8924891997
 20
5.0818666501
 30
0.0
 10
6.8809961504
 20
5.0818666501
 30
0.0
 10
6.8582967526
 20
5.0805029175
 30
0.0
 10
6.8255547586
 20
5.0742969318
 30
0.0
 10
6.7957662554
 20
5.0638618934
 30
0.0
 10
6.7704752526
 20
5.0491807224
 30
0.0
 10
6.7511323504
 20
5.0303950017
 30
0.0
 10
6.7390688775
 20
5.0080283754
 30
0.0
 10
6.736494159
 20
4.9917467222
 30
0.0
 10
6.7364891987
 20
4.9836905872
 30
0.0
 11
6.8924891997
 21
5.0818666501
 31
0.0
 11
6.8580753056
 21
5.0797463835
 31
0.0
 11
6.8251512075
 21
5.0733437678
 31
0.0
 11
6.7953638428
 21
5.0626169654
 31
0.0
 11
6.7704278284
 21
5.0477119645
 31
0.0
 11
6.7517845115
 21
5.0290852045
 31
0.0
 11
6.7403378326
 21
5.0074572466
 31
0.0
 11
6.7364891987
 21
4.9836905872
 31
0.0
  0
SPLINE
  5
53A
100
AcDbEntity
  8
0
100
AcDbSpline
 62
7
  6
CONTINUOUS
 70
0
 71
3
 72
14
 73
10
 74
8
 42
0.0000001
 43
0.0000001
 44
0.0000000001
 12
-0.0001258905
 22
0.2044107399
 32
0.0
 13
-0.2036314907
 23
-0.0
 33
0.0
 40
0.0
 40
0.0
 40
0.0
 40
0.0
 40
0.1182329972
 40
0.2384019325
 40
0.3678215344
 40
0.5104864512
 40
0.6659636654
 40
0.8306776985
 40
1.0
 40
1.0
 40
1.0
 40
1.0
 10
7.0484892004
 20
4.9836905842
 30
0.0
 10
7.0484842389
 20
4.9917466157
 30
0.0
 10
7.0459095807
 20
5.0080281305
 30
0.0
 10
7.0338462893
 20
5.0303946826
 30
0.0
 10
7.0145034974
 20
5.0491804659
 30
0.0
 10
6.9892125048
 20
5.0638617376
 30
0.0
 10
6.9594239446
 20
5.0742968582
 30
0.0
 10
6.9266818163
 20
5.0805029035
 30
0.0
 10
6.9039823172
 20
5.0818666501
 30
0.0
 10
6.8924891997
 20
5.0818666501
 30
0.0
 11
7.0484892004
 21
4.9836905842
 31
0.0
 11
7.0446406661
 21
5.007456951
 31
0.0
 11
7.0331941404
 21
5.0290848666
 31
0.0
 11
7.0145509212
 21
5.0477116957
 31
0.0
 11
6.989614944
 21
5.062616785
 31
0.0
 11
6.9598274845
 21
5.0733436885
 31
0.0
 11
6.9269032974
 21
5.079746358
 31
0.0
 11
6.8924891997
 21
5.0818666501
 31
0.0
  0
SPLINE
  5
53B
100
AcDbEntity
  8
129-401_FEATURES
100
AcDbSpline
 62
7
  6
CONTINUOUS
 70
0
 71
3
 72
12
 73
8
 74
6
 42
0.0000001
 43
0.0000001
 44
0.0000000001
 12
0.0368315947
 22
-0.000010785
 32
0.0
 13
0.0368242413
 23
-0.0007366551
 33
0.0
 40
0.0
 40
0.0
 40
0.0
 40
0.0
 40
0.2349030602
 40
0.466058966
 40
0.682021414
 40
0.875357907
 40
1.0
 40
1.0
 40
1.0
 40
1.0
 10
4.7147919579
 20
3.5706951134
 30
0.0
 10
4.7176759093
 20
3.570694269
 30
0.0
 10
4.7233978128
 20
3.5706789373
 30
0.0
 10
4.7317709273
 20
3.5706174177
 30
0.0
 10
4.7396333988
 20
3.5705249353
 30
0.0
 10
4.7461879012
 20
3.5704216941
 30
0.0
 10
4.7500911013
 20
3.5703482615
 30
0.0
 10
4.7516210514
 20
3.5703176554
 30
0.0
 11
4.7147919579
 21
3.5706951134
 31
0.0
 11
4.7234437818
 21
3.5706720293
 31
0.0
 11
4.7319573937
 21
3.5706095701
 31
0.0
 11
4.739911086
 21
3.5705160896
 31
0.0
 11
4.7470310953
 21
3.5704039941
 31
0.0
 11
4.7516210514
 21
3.5703176554
 31
0.0
  0
SPLINE
  5
53C
100
AcDbEntity
  8
129-401_FEATURES
100
AcDbSpline
 62
7
  6
CONTINUOUS
 70
0
 71
3
 72
9
 73
5
 74
3
 42
0.0000001
 43
0.0000001
 44
0.0000000001
 12
0.0041815262
 22
-0.0000836499
 32
0.0
 13
0.0041813348
 23
-0.0000926901
 33
0.0
 40
0.0
 40
0.0
 40
0.0
 40
0.0
 40
0.3166332889
 40
1.0
 40
1.0
 40
1.0
 40
1.0
 10
4.7516210514
 20
3.5703176554
 30
0.0
 10
4.7520623883
 20
3.5703088267
 30
0.0
 10
4.7534562207
 20
3.5702804646
 30
0.0
 10
4.7548500218
 20
3.5702505939
 30
0.0
 10
4.7558024835
 20
3.5702294801
 30
0.0
 11
4.7516210514
 21
3.5703176554
 31
0.0
 11
4.7529450526
 21
3.5702907147
 31
0.0
 11
4.7558024835
 21
3.5702294801
 31
0.0
  0
SPLINE
  5
53D
100
AcDbEntity
  8
129-401_FEATURES
100
AcDbSpline
 62
7
  6
CONTINUOUS
 70
0
 71
3
 72
8
 73
4
 74
2
 42
0.0000001
 43
0.0000001
 44
0.0000000001
 12
0.0010776824
 22
-0.0000238896
 32
0.0
 13
0.0010776689
 23
-0.0000244875
 33
0.0
 40
0.0
 40
0.0
 40
0.0
 40
0.0
 40
1.0
 40
1.0
 40
1.0
 40
1.0
 10
4.7558024835
 20
3.5702294801
 30
0.0
 10
4.756161711
 20
3.5702215169
 30
0.0
 10
4.7565209362
 20
3.570213454
 30
0.0
 10
4.7568801592
 20
3.5702052915
 30
0.0
 11
4.7558024835
 21
3.5702294801
 31
0.0
 11
4.7568801592
 21
3.5702052915
 31
0.0
  0
SPLINE
  5
53E
100
AcDbEntity
  8
129-401_FEATURES
100
AcDbSpline
 62
7
  6
CONTINUOUS
 70
0
 71
3
 72
9
 73
5
 74
3
 42
0.0000001
 43
0.0000001
 44
0.0000000001
 12
0.0017524374
 22
-0.00003982
 32
0.0
 13
0.0017524006
 23
-0.000041397
 33
0.0
 40
0.0
 40
0.0
 40
0.0
 40
0.0
 40
0.1053894497
 40
1.0
 40
1.0
 40
1.0
 40
1.0
 10
4.7568801592
 20
3.5702052915
 30
0.0
 10
4.756941722
 20
3.5702038926
 30
0.0
 10
4.7575258672
 20
3.5701905916
 30
0.0
 10
4.7581100063
 20
3.5701770273
 30
0.0
 10
4.7586325783
 20
3.5701646826
 30
0.0
 11
4.7568801592
 21
3.5702052915
 31
0.0
 11
4.7570648474
 21
3.5702010861
 31
0.0
 11
4.7586325783
 21
3.5701646826
 31
0.0
  0
SPLINE
  5
53F
100
AcDbEntity
  8
129-401_FEATURES
100
AcDbSpline
 62
7
  6
CONTINUOUS
 70
0
 71
3
 72
8
 73
4
 74
2
 42
0.0000001
 43
0.0000001
 44
0.0000000001
 12
0.0007525602
 22
0.001352897
 32
0.0
 13
0.0007535338
 23
0.0013523551
 33
0.0
 40
0.0
 40
0.0
 40
0.0
 40
0.0
 40
1.0
 40
1.0
 40
1.0
 40
1.0
 10
4.6987451771
 20
3.542370843
 30
0.0
 10
4.6989960305
 20
3.5428218086
 30
0.0
 10
4.6992470458
 20
3.5432726842
 30
0.0
 10
4.6994982238
 20
3.5437234693
 30
0.0
 11
4.6987451771
 21
3.542370843
 31
0.0
 11
4.6994982238
 21
3.5437234693
 31
0.0
  0
SPLINE
  5
540
100
AcDbEntity
  8
129-401_FEATURES
100
AcDbSpline
 62
7
  6
CONTINUOUS
 70
0
 71
3
 72
8
 73
4
 74
2
 42
0.0000001
 43
0.0000001
 44
0.0000000001
 12
0.0005748536
 22
0.0010316806
 32
0.0
 13
0.0005754225
 23
0.0010313635
 33
0.0
 40
0.0
 40
0.0
 40
0.0
 40
0.0
 40
1.0
 40
1.0
 40
1.0
 40
1.0
 10
4.6994982238
 20
3.5437234693
 30
0.0
 10
4.6996898416
 20
3.5440673628
 30
0.0
 10
4.6998815542
 20
3.5444112036
 30
0.0
 10
4.7000733617
 20
3.5447549914
 30
0.0
 11
4.6994982238
 21
3.5437234693
 31
0.0
 11
4.7000733617
 21
3.5447549914
 31
0.0
  0
SPLINE
  5
541
100
AcDbEntity
  8
129-401_FEATURES
100
AcDbSpline
 62
7
  6
CONTINUOUS
 70
0
 71
3
 72
11
 73
7
 74
5
 42
0.0000001
 43
0.0000001
 44
0.0000000001
 12
0.0145315077
 22
0.026045672
 32
0.0
 13
0.0149112072
 23
0.0258301648
 33
0.0
 40
0.0
 40
0.0
 40
0.0
 40
0.0
 40
0.1152496033
 40
0.355378162
 40
0.6593384272
 40
1.0
 40
1.0
 40
1.0
 40
1.0
 10
4.7000733617
 20
3.5447549914
 30
0.0
 10
4.7006316118
 20
3.5457555759
 30
0.0
 10
4.7023554862
 20
3.5488395465
 30
0.0
 10
4.7055681501
 20
3.5545532584
 30
0.0
 10
4.7099092128
 20
3.5622033787
 30
0.0
 10
4.7130987328
 20
3.5677619986
 30
0.0
 10
4.7147919579
 20
3.5706951134
 30
0.0
 11
4.7000733617
 21
3.5447549914
 31
0.0
 11
4.7017505338
 21
3.5477553924
 31
0.0
 11
4.7052607279
 21
3.5539980709
 31
0.0
 11
4.7097350635
 21
3.5618826572
 31
0.0
 11
4.7147919579
 21
3.5706951134
 31
0.0
  0
SPLINE
  5
542
100
AcDbEntity
  8
0
100
AcDbSpline
 62
7
  6
CONTINUOUS
 70
0
 71
3
 72
15
 73
11
 74
9
 42
0.0000001
 43
0.0000001
 44
0.0000000001
 12
-0.2213747391
 22
0.4040882383
 32
0.0
 13
0.2213747391
 23
0.4040882383
 33
0.0
 40
0.0
 40
0.0
 40
0.0
 40
0.0
 40
0.1363385306
 40
0.2625242499
 40
0.3826814249
 40
0.5000474403
 40
0.6174094987
 40
0.7375563123
 40
0.8636900968
 40
1.0
 40
1.0
 40
1.0
 40
1.0
 10
3.2104618309
 20
3.553560024
 30
0.0
 10
3.2004011953
 20
3.5719242896
 30
0.0
 10
3.1824539918
 20
3.6081080653
 30
0.0
 10
3.1620325441
 20
3.6633587831
 30
0.0
 10
3.1495083647
 20
3.7179818257
 30
0.0
 10
3.1452621794
 20
3.7725360732
 30
0.0
 10
3.1495148839
 20
3.8270881708
 30
0.0
 10
3.1620421533
 20
3.8816999545
 30
0.0
 10
3.1824613201
 20
3.9369364306
 30
0.0
 10
3.2004033078
 20
3.9731089316
 30
0.0
 10
3.2104618309
 20
3.9914693411
 30
0.0
 11
3.2104618309
 21
3.553560024
 31
0.0
 11
3.1828219818
 21
3.6099710378
 31
0.0
 11
3.1629343782
 21
3.6646044249
 31
0.0
 11
3.1507780616
 21
3.7186162024
 31
0.0
 11
3.1466675331
 21
3.7725365893
 31
0.0
 11
3.150784367
 21
3.8264546667
 31
0.0
 11
3.1629449479
 21
3.8804605908
 31
0.0
 11
3.1828271882
 21
3.9350704648
 31
0.0
 11
3.2104618309
 21
3.9914693411
 31
0.0
  0
SPLINE
  5
543
100
AcDbEntity
  8
0
100
AcDbSpline
 62
7
  6
CONTINUOUS
 70
0
 71
3
 72
15
 73
11
 74
9
 42
0.0000001
 43
0.0000001
 44
0.0000000001
 12
-0.2344928018
 22
0.8560668082
 32
0.0
 13
0.2344928018
 23
0.8560668082
 33
0.0
 40
0.0
 40
0.0
 40
0.0
 40
0.0
 40
0.130867655
 40
0.2559934432
 40
0.3784643323
 40
0.5000493322
 40
0.6216294027
 40
0.7440877225
 40
0.8691603039
 40
1.0
 40
1.0
 40
1.0
 40
1.0
 10
3.2104618309
 20
4.0382553655
 30
0.0
 10
3.2002326565
 20
4.0755991841
 30
0.0
 10
3.1820600234
 20
4.1491742848
 30
0.0
 10
3.1618096248
 20
4.2593790684
 30
0.0
 10
3.1494520018
 20
4.3680019272
 30
0.0
 10
3.1452787309
 20
4.4762070821
 30
0.0
 10
3.1494584238
 20
4.5844082475
 30
0.0
 10
3.1618192389
 20
4.6930096392
 30
0.0
 10
3.1820675811
 20
4.8031864997
 30
0.0
 10
3.2002348419
 20
4.8767381594
 30
0.0
 10
3.2104618309
 20
4.9140739997
 30
0.0
 11
3.2104618309
 21
4.0382553655
 31
0.0
 11
3.1828219818
 21
4.151077393
 31
0.0
 11
3.1629343782
 21
4.2603441672
 31
0.0
 11
3.1507780616
 21
4.3683677222
 31
0.0
 11
3.1466675331
 21
4.4762084961
 31
0.0
 11
3.150784367
 21
4.5840446509
 31
0.0
 11
3.1629449479
 21
4.6920564989
 31
0.0
 11
3.1828271882
 21
4.801276247
 31
0.0
 11
3.2104618309
 21
4.9140739997
 31
0.0
  0
SPLINE
  5
544
100
AcDbEntity
  8
0
100
AcDbSpline
 62
7
  6
CONTINUOUS
 70
0
 71
3
 72
15
 73
11
 74
9
 42
0.0000001
 43
0.0000001
 44
0.0000000001
 12
-0.2213747391
 22
0.4040882383
 32
0.0
 13
0.2213747391
 23
0.4040882383
 33
0.0
 40
0.0
 40
0.0
 40
0.0
 40
0.0
 40
0.1363385306
 40
0.2625242499
 40
0.3826814249
 40
0.5000474403
 40
0.6174094987
 40
0.7375563123
 40
0.8636900968
 40
1.0
 40
1.0
 40
1.0
 40
1.0
 10
3.2104618309
 20
4.960860024
 30
0.0
 10
3.2004011953
 20
4.9792242896
 30
0.0
 10
3.1824539918
 20
5.0154080653
 30
0.0
 10
3.1620325441
 20
5.0706587831
 30
0.0
 10
3.1495083647
 20
5.1252818257
 30
0.0
 10
3.1452621794
 20
5.1798360732
 30
0.0
 10
3.1495148839
 20
5.2343881708
 30
0.0
 10
3.1620421533
 20
5.2889999545
 30
0.0
 10
3.1824613201
 20
5.3442364306
 30
0.0
 10
3.2004033078
 20
5.3804089316
 30
0.0
 10
3.2104618309
 20
5.3987693411
 30
0.0
 11
3.2104618309
 21
4.960860024
 31
0.0
 11
3.1828219818
 21
5.0172710378
 31
0.0
 11
3.1629343782
 21
5.0719044249
 31
0.0
 11
3.1507780616
 21
5.1259162024
 31
0.0
 11
3.1466675331
 21
5.1798365893
 31
0.0
 11
3.150784367
 21
5.2337546667
 31
0.0
 11
3.1629449479
 21
5.2877605908
 31
0.0
 11
3.1828271882
 21
5.3423704648
 31
0.0
 11
3.2104618309
 21
5.3987693411
 31
0.0
  0
ENDSEC
  0
SECTION
  2
OBJECTS
  0
DICTIONARY
  5
C
100
AcDbDictionary
280
0
281
1
  3
ACAD_GROUP
350
D
  3
ACAD_MLINESTYLE
350
17
  3
ACAD_LAYOUT
350
1A
  3
ACAD_PLOTSETTINGS
350
19
  3
ACAD_PLOTSTYLENAME
350
E
  0
DICTIONARY
  5
D
102
{ACAD_REACTORS
330
C
102
}
100
AcDbDictionary
280
0
281
1
  0
ACDBDICTIONARYWDFLT
  5
E
102
{ACAD_REACTORS
330
C
102
}
100
AcDbDictionary
281
1
  3
Normal
350
F
100
AcDbDictionaryWithDefault
340
F
  0
DICTIONARY
  5
17
102
{ACAD_REACTORS
330
C
102
}
100
AcDbDictionary
280
0
281
1
  3
Standard
350
18
  0
DICTIONARY
  5
19
102
{ACAD_REACTORS
330
C
102
}
100
AcDbDictionary
281
1
  0
DICTIONARY
  5
1A
102
{ACAD_REACTORS
330
C
102
}
100
AcDbDictionary
281
1
  3
Layout1
350
1E
  3
Model
350
22
  0
ACDBPLACEHOLDER
  5
F
102
{ACAD_REACTORS
330
E
102
}
  0
MLINESTYLE
  5
18
102
{ACAD_REACTORS
330
17
102
}
100
AcDbMlineStyle
  2
STANDARD
 70
0
  3

 62
256
 51
90.0
 52
90.0
 71
2
 49
0.5
 62
256
  6
BYLAYER
 49
-0.5
 62
256
  6
BYLAYER
  0
LAYOUT
  5
1E
102
{ACAD_REACTORS
330
1A
102
}
100
AcDbPlotSettings
  1

  2

  4

  6

 40
0.0
 41
0.0
 42
0.0
 43
0.0
 44
0.0
 45
0.0
 46
0.0
 47
0.0
 48
0.0
 49
0.0
140
0.0
141
0.0
142
1.0
143
1.0
 70
0
 72
0
 73
0
 74
0
  7

 75
0
147
1.0
148
0.0
149
0.0
100
AcDbLayout
  1
Layout1
 70
0
 71
0
 10
0.0
 20
0.0
 11
0.0
 21
0.0
 12
0.0
 22
0.0
 32
0.0
 14
0.0
 24
0.0
 34
0.0
 15
0.0
 25
0.0
 35
0.0
146
0.0
 13
0.0
 23
0.0
 33
0.0
 16
0.0
 26
0.0
 36
0.0
 17
0.0
 27
0.0
 37
0.0
 76
0
330
1B
331
0
345
0
346
0
  0
LAYOUT
  5
22
102
{ACAD_REACTORS
330
1A
102
}
100
AcDbPlotSettings
  1

  2

  4

  6

 40
0.0
 41
0.0
 42
0.0
 43
0.0
 44
0.0
 45
0.0
 46
0.0
 47
0.0
 48
0.0
 49
0.0
140
0.0
141
0.0
142
1.0
143
1.0
 70
0
 72
0
 73
0
 74
0
  7

 75
0
147
1.0
148
0.0
149
0.0
100
AcDbLayout
  1
Model
 70
0
 71
0
 10
0.0
 20
0.0
 11
0.0
 21
0.0
 12
0.0
 22
0.0
 32
0.0
 14
0.0
 24
0.0
 34
0.0
 15
0.0
 25
0.0
 35
0.0
146
0.0
 13
0.0
 23
0.0
 33
0.0
 16
0.0
 26
0.0
 36
0.0
 17
0.0
 27
0.0
 37
0.0
 76
0
330
1F
331
0
345
0
346
0
  0
ENDSEC
  0
EOF
