999
DXF file: PBFB-LAN.dxf
999
Pro/ENGINEER 2006240 by Parametric Technology Corporation
  0
SECTION
  2
HEADER
  9
$ACADVER
  1
AC1015
  9
$DWGCODEPAGE
  3
ANSI_1252
  9
$EXTMAX
 10
11.6929133858
 20
8.2677165354
 30
0.0
  9
$EXTMIN
 10
0.0
 20
0.0
 30
0.0
  9
$LIMMIN
 10
0.0
 20
0.0
  9
$LIMMAX
 10
11.6929133858
 20
8.2677165354
  9
$VIEWCTR
 10
5.8464566929
 20
4.1338582677
  9
$VIEWSIZE
 40
8.2677165354
  9
$CLAYER
  8
0
  9
$LTSCALE
 40
0.6431102362
  9
$CELTYPE
  6
BYLAYER
  9
$DIMSCALE
 40
1.0
  9
$DIMASZ
 40
0.1875
  9
$DIMEXO
 40
0.0730807087
  9
$DIMDLI
 40
0.4443307087
  9
$DIMEXE
 40
0.2104724409
  9
$DIMCEN
 40
0.1052362205
  9
$DIMLFAC
 40
1.0
  9
$DIMBLK
  1
_CLOSED
  9
$DIMTXT
 40
0.15625
  9
$DIMTOL
 70
0
  9
$DIMLIM
 70
0
  9
$DIMTFAC
 40
1.0
  9
$PDMODE
 70
3
  9
$PDSIZE
 40
0.3125
  9
$HANDSEED
  5
527
  9
$MEASUREMENT
 70
0
  9
$INSUNITS
 70
1
  0
ENDSEC
  0
SECTION
  2
CLASSES
  0
CLASS
  1
ACDBDICTIONARYWDFLT
  2
AcDbDictionaryWithDefault
  3
AutoCAD 2000
 90
0
280
0
281
0
  0
CLASS
  1
ACDBPLACEHOLDER
  2
AcDbPlaceHolder
  3
AutoCAD 2000
 90
0
280
0
281
0
  0
CLASS
  1
LAYOUT
  2
AcDbLayout
  3
AutoCAD 2000
 90
0
280
0
281
0
  0
ENDSEC
  0
SECTION
  2
TABLES
  0
TABLE
  2
VPORT
  5
8
100
AcDbSymbolTable
 70
2
  0
VPORT
  5
1F4
100
AcDbSymbolTableRecord
100
AcDbViewportTableRecord
  2
*ACTIVE
 70
0
 10
0.0
 20
0.0
 11
1.0
 21
1.0
 12
5.8464566929
 22
4.1338582677
 13
0.0
 23
0.0
 14
1.0
 24
1.0
 15
0.0
 25
0.0
 16
0.0
 26
0.0
 36
1.0
 17
0.0
 27
0.0
 37
0.0
 40
8.2677165354
 41
1.4142857143
 42
50.0
 43
0.0
 44
0.0
 50
0.0
 51
0.0
 71
0
 72
100
 73
1
 74
1
 75
0
 76
0
 77
0
 78
0
  0
ENDTAB
  0
TABLE
  2
LTYPE
  5
5
100
AcDbSymbolTable
 70
6
  0
LTYPE
  5
14
100
AcDbSymbolTableRecord
100
AcDbLinetypeTableRecord
  2
BYBLOCK
 70
0
  3

 72
65
 73
0
 40
0.0
  0
LTYPE
  5
15
100
AcDbSymbolTableRecord
100
AcDbLinetypeTableRecord
  2
BYLAYER
 70
0
  3

 72
65
 73
0
 40
0.0
  0
LTYPE
  5
16
100
AcDbSymbolTableRecord
100
AcDbLinetypeTableRecord
  2
CONTINUOUS
 70
64
  3
Solid line
 72
65
 73
0
 40
0.0
  0
LTYPE
  5
1F5
100
AcDbSymbolTableRecord
100
AcDbLinetypeTableRecord
  2
CENTER
 70
64
  3
____ _ ____ _ ____ _ ____ _ ____ _ ____ _ ____
 72
65
 73
4
 40
0.6
 49
0.375
 74
0
 49
-0.075
 74
0
 49
0.075
 74
0
 49
-0.075
 74
0
  0
LTYPE
  5
1F6
100
AcDbSymbolTableRecord
100
AcDbLinetypeTableRecord
  2
HIDDEN
 70
64
  3
- - - - - - - - - - - - - - - - - - - -
 72
65
 73
2
 40
0.2
 49
0.1
 74
0
 49
-0.1
 74
0
  0
LTYPE
  5
1F7
100
AcDbSymbolTableRecord
100
AcDbLinetypeTableRecord
  2
PHANTOM
 70
64
  3
_____ _ _ _____ _ _ _____ _ _ _____
 72
65
 73
6
 40
0.8
 49
0.45
 74
0
 49
-0.05
 74
0
 49
0.1
 74
0
 49
-0.05
 74
0
 49
0.1
 74
0
 49
-0.05
 74
0
  0
LTYPE
  5
1F8
100
AcDbSymbolTableRecord
100
AcDbLinetypeTableRecord
  2
DOT
 70
64
  3
. . . . . . . . . . . . . . . . . . . .
 72
65
 73
2
 40
0.2
 49
0.1
 74
0
 49
-0.1
 74
0
  0
LTYPE
  5
1F9
100
AcDbSymbolTableRecord
100
AcDbLinetypeTableRecord
  2
DASHED
 70
64
  3
- - - - - - - - - - - - - - - - - - - -
 72
65
 73
2
 40
0.2
 49
0.1
 74
0
 49
-0.1
 74
0
  0
ENDTAB
  0
TABLE
  2
LAYER
  5
2
100
AcDbSymbolTable
 70
36
  0
LAYER
  5
10
100
AcDbSymbolTableRecord
100
AcDbLayerTableRecord
  2
0
 70
0
 62
7
  6
CONTINUOUS
370
-3
390
F
  0
LAYER
  5
1FA
100
AcDbSymbolTableRecord
100
AcDbLayerTableRecord
  2
DEFAULT_1
 70
0
 62
7
  6
CENTER
370
-3
390
F
  0
LAYER
  5
1FB
100
AcDbSymbolTableRecord
100
AcDbLayerTableRecord
  2
DEFAULT_2
 70
0
 62
8
  6
HIDDEN
370
-3
390
F
  0
LAYER
  5
1FC
100
AcDbSymbolTableRecord
100
AcDbLayerTableRecord
  2
DEFAULT_3
 70
0
 62
7
  6
PHANTOM
370
-3
390
F
  0
LAYER
  5
1FD
100
AcDbSymbolTableRecord
100
AcDbLayerTableRecord
  2
_BLACK_HOLE
 70
0
 62
7
  6
CONTINUOUS
370
-3
390
F
  0
LAYER
  5
1FE
100
AcDbSymbolTableRecord
100
AcDbLayerTableRecord
  2
01_ALL_DTM_PLN
 70
0
 62
7
  6
CONTINUOUS
370
-3
390
F
  0
LAYER
  5
1FF
100
AcDbSymbolTableRecord
100
AcDbLayerTableRecord
  2
01__ASM_ALL_DTM_PLN
 70
0
 62
7
  6
CONTINUOUS
370
-3
390
F
  0
LAYER
  5
200
100
AcDbSymbolTableRecord
100
AcDbLayerTableRecord
  2
01__ASM_DEF_DTM_PLN
 70
0
 62
7
  6
CONTINUOUS
370
-3
390
F
  0
LAYER
  5
201
100
AcDbSymbolTableRecord
100
AcDbLayerTableRecord
  2
01___PRT_ALL_DTM_PLN
 70
0
 62
7
  6
CONTINUOUS
370
-3
390
F
  0
LAYER
  5
202
100
AcDbSymbolTableRecord
100
AcDbLayerTableRecord
  2
01___PRT_DEF_DTM_PLN
 70
0
 62
7
  6
CONTINUOUS
370
-3
390
F
  0
LAYER
  5
203
100
AcDbSymbolTableRecord
100
AcDbLayerTableRecord
  2
02_ALL_AXES
 70
0
 62
7
  6
CONTINUOUS
370
-3
390
F
  0
LAYER
  5
204
100
AcDbSymbolTableRecord
100
AcDbLayerTableRecord
  2
02__ASM_ALL_AXES
 70
0
 62
7
  6
CONTINUOUS
370
-3
390
F
  0
LAYER
  5
205
100
AcDbSymbolTableRecord
100
AcDbLayerTableRecord
  2
02___PRT_ALL_AXES
 70
0
 62
7
  6
CONTINUOUS
370
-3
390
F
  0
LAYER
  5
206
100
AcDbSymbolTableRecord
100
AcDbLayerTableRecord
  2
03_ALL_CURVES
 70
0
 62
7
  6
CONTINUOUS
370
-3
390
F
  0
LAYER
  5
207
100
AcDbSymbolTableRecord
100
AcDbLayerTableRecord
  2
03__ASM_ALL_CURVES
 70
0
 62
7
  6
CONTINUOUS
370
-3
390
F
  0
LAYER
  5
208
100
AcDbSymbolTableRecord
100
AcDbLayerTableRecord
  2
03___PRT_ALL_CURVES
 70
0
 62
7
  6
CONTINUOUS
370
-3
390
F
  0
LAYER
  5
209
100
AcDbSymbolTableRecord
100
AcDbLayerTableRecord
  2
04_ALL_DTM_PNT
 70
0
 62
7
  6
CONTINUOUS
370
-3
390
F
  0
LAYER
  5
20A
100
AcDbSymbolTableRecord
100
AcDbLayerTableRecord
  2
04__ASM_ALL_DTM_PNT
 70
0
 62
7
  6
CONTINUOUS
370
-3
390
F
  0
LAYER
  5
20B
100
AcDbSymbolTableRecord
100
AcDbLayerTableRecord
  2
04___PRT_ALL_DTM_PNT
 70
0
 62
7
  6
CONTINUOUS
370
-3
390
F
  0
LAYER
  5
20C
100
AcDbSymbolTableRecord
100
AcDbLayerTableRecord
  2
05_ALL_DTM_CSYS
 70
0
 62
7
  6
CONTINUOUS
370
-3
390
F
  0
LAYER
  5
20D
100
AcDbSymbolTableRecord
100
AcDbLayerTableRecord
  2
05__ASM_ALL_DTM_CSYS
 70
0
 62
7
  6
CONTINUOUS
370
-3
390
F
  0
LAYER
  5
20E
100
AcDbSymbolTableRecord
100
AcDbLayerTableRecord
  2
05__ASM_DEF_DTM_CSYS
 70
0
 62
7
  6
CONTINUOUS
370
-3
390
F
  0
LAYER
  5
20F
100
AcDbSymbolTableRecord
100
AcDbLayerTableRecord
  2
05___PRT_ALL_DTM_CSYS
 70
0
 62
7
  6
CONTINUOUS
370
-3
390
F
  0
LAYER
  5
210
100
AcDbSymbolTableRecord
100
AcDbLayerTableRecord
  2
05___PRT_DEF_DTM_CSYS
 70
0
 62
7
  6
CONTINUOUS
370
-3
390
F
  0
LAYER
  5
211
100
AcDbSymbolTableRecord
100
AcDbLayerTableRecord
  2
06_ALL_SURFS
 70
0
 62
7
  6
CONTINUOUS
370
-3
390
F
  0
LAYER
  5
212
100
AcDbSymbolTableRecord
100
AcDbLayerTableRecord
  2
06__ASM_ALL_SURFS
 70
0
 62
7
  6
CONTINUOUS
370
-3
390
F
  0
LAYER
  5
213
100
AcDbSymbolTableRecord
100
AcDbLayerTableRecord
  2
06___PRT_ALL_SURFS
 70
0
 62
7
  6
CONTINUOUS
370
-3
390
F
  0
LAYER
  5
214
100
AcDbSymbolTableRecord
100
AcDbLayerTableRecord
  2
07__ASM_ALL_SKELETONS
 70
0
 62
7
  6
CONTINUOUS
370
-3
390
F
  0
LAYER
  5
215
100
AcDbSymbolTableRecord
100
AcDbLayerTableRecord
  2
127-001_FEATURES
 70
0
 62
7
  6
CONTINUOUS
370
-3
390
F
  0
LAYER
  5
216
100
AcDbSymbolTableRecord
100
AcDbLayerTableRecord
  2
127-001_REF_GEOMETRY
 70
0
 62
7
  6
CONTINUOUS
370
-3
390
F
  0
LAYER
  5
217
100
AcDbSymbolTableRecord
100
AcDbLayerTableRecord
  2
127-004_FEATURES
 70
0
 62
7
  6
CONTINUOUS
370
-3
390
F
  0
LAYER
  5
218
100
AcDbSymbolTableRecord
100
AcDbLayerTableRecord
  2
127-004_REF_GEOMETRY
 70
0
 62
7
  6
CONTINUOUS
370
-3
390
F
  0
LAYER
  5
219
100
AcDbSymbolTableRecord
100
AcDbLayerTableRecord
  2
127-008_FEATURES
 70
0
 62
7
  6
CONTINUOUS
370
-3
390
F
  0
LAYER
  5
21A
100
AcDbSymbolTableRecord
100
AcDbLayerTableRecord
  2
127-008_REF_GEOMETRY
 70
0
 62
7
  6
CONTINUOUS
370
-3
390
F
  0
LAYER
  5
21B
100
AcDbSymbolTableRecord
100
AcDbLayerTableRecord
  2
127-410_FEATURES
 70
0
 62
7
  6
CONTINUOUS
370
-3
390
F
  0
LAYER
  5
21C
100
AcDbSymbolTableRecord
100
AcDbLayerTableRecord
  2
127-410_REF_GEOMETRY
 70
0
 62
7
  6
CONTINUOUS
370
-3
390
F
  0
LAYER
  5
21D
100
AcDbSymbolTableRecord
100
AcDbLayerTableRecord
  2
127-411_FEATURES
 70
0
 62
7
  6
CONTINUOUS
370
-3
390
F
  0
LAYER
  5
21E
100
AcDbSymbolTableRecord
100
AcDbLayerTableRecord
  2
127-411_REF_GEOMETRY
 70
0
 62
7
  6
CONTINUOUS
370
-3
390
F
  0
LAYER
  5
21F
100
AcDbSymbolTableRecord
100
AcDbLayerTableRecord
  2
127-412_FEATURES
 70
0
 62
7
  6
CONTINUOUS
370
-3
390
F
  0
LAYER
  5
220
100
AcDbSymbolTableRecord
100
AcDbLayerTableRecord
  2
127-412_REF_GEOMETRY
 70
0
 62
7
  6
CONTINUOUS
370
-3
390
F
  0
LAYER
  5
221
100
AcDbSymbolTableRecord
100
AcDbLayerTableRecord
  2
127-413_FEATURES
 70
0
 62
7
  6
CONTINUOUS
370
-3
390
F
  0
LAYER
  5
222
100
AcDbSymbolTableRecord
100
AcDbLayerTableRecord
  2
127-413_REF_GEOMETRY
 70
0
 62
7
  6
CONTINUOUS
370
-3
390
F
  0
LAYER
  5
223
100
AcDbSymbolTableRecord
100
AcDbLayerTableRecord
  2
127-414_FEATURES
 70
0
 62
7
  6
CONTINUOUS
370
-3
390
F
  0
LAYER
  5
224
100
AcDbSymbolTableRecord
100
AcDbLayerTableRecord
  2
127-414_REF_GEOMETRY
 70
0
 62
7
  6
CONTINUOUS
370
-3
390
F
  0
LAYER
  5
225
100
AcDbSymbolTableRecord
100
AcDbLayerTableRecord
  2
127-415_FEATURES
 70
0
 62
7
  6
CONTINUOUS
370
-3
390
F
  0
LAYER
  5
226
100
AcDbSymbolTableRecord
100
AcDbLayerTableRecord
  2
127-415_REF_GEOMETRY
 70
0
 62
7
  6
CONTINUOUS
370
-3
390
F
  0
LAYER
  5
227
100
AcDbSymbolTableRecord
100
AcDbLayerTableRecord
  2
127-416_FEATURES
 70
0
 62
7
  6
CONTINUOUS
370
-3
390
F
  0
LAYER
  5
228
100
AcDbSymbolTableRecord
100
AcDbLayerTableRecord
  2
127-416_REF_GEOMETRY
 70
0
 62
7
  6
CONTINUOUS
370
-3
390
F
  0
LAYER
  5
229
100
AcDbSymbolTableRecord
100
AcDbLayerTableRecord
  2
250-NPTF_PORT
 70
0
 62
7
  6
CONTINUOUS
370
-3
390
F
  0
LAYER
  5
22A
100
AcDbSymbolTableRecord
100
AcDbLayerTableRecord
  2
COPY_GEO_FET
 70
0
 62
7
  6
CONTINUOUS
370
-3
390
F
  0
LAYER
  5
22B
100
AcDbSymbolTableRecord
100
AcDbLayerTableRecord
  2
COSMETIC
 70
0
 62
7
  6
CONTINUOUS
370
-3
390
F
  0
LAYER
  5
22C
100
AcDbSymbolTableRecord
100
AcDbLayerTableRecord
  2
COSM_REF
 70
0
 62
7
  6
CONTINUOUS
370
-3
390
F
  0
LAYER
  5
22D
100
AcDbSymbolTableRecord
100
AcDbLayerTableRecord
  2
CURVES
 70
0
 62
7
  6
CONTINUOUS
370
-3
390
F
  0
LAYER
  5
22E
100
AcDbSymbolTableRecord
100
AcDbLayerTableRecord
  2
CUT_REF_SURF
 70
0
 62
7
  6
CONTINUOUS
370
-3
390
F
  0
LAYER
  5
22F
100
AcDbSymbolTableRecord
100
AcDbLayerTableRecord
  2
DATUM
 70
0
 62
7
  6
CONTINUOUS
370
-3
390
F
  0
LAYER
  5
230
100
AcDbSymbolTableRecord
100
AcDbLayerTableRecord
  2
DATUMCURVES
 70
0
 62
7
  6
CONTINUOUS
370
-3
390
F
  0
LAYER
  5
231
100
AcDbSymbolTableRecord
100
AcDbLayerTableRecord
  2
DATUM_ADDED_230
 70
0
 62
7
  6
CONTINUOUS
370
-3
390
F
  0
LAYER
  5
232
100
AcDbSymbolTableRecord
100
AcDbLayerTableRecord
  2
DATUM_ADDED_280-022
 70
0
 62
7
  6
CONTINUOUS
370
-3
390
F
  0
LAYER
  5
233
100
AcDbSymbolTableRecord
100
AcDbLayerTableRecord
  2
DATUM_PLANES
 70
0
 62
7
  6
CONTINUOUS
370
-3
390
F
  0
LAYER
  5
234
100
AcDbSymbolTableRecord
100
AcDbLayerTableRecord
  2
DIMENSIONS
 70
0
 62
7
  6
CONTINUOUS
370
-3
390
F
  0
LAYER
  5
235
100
AcDbSymbolTableRecord
100
AcDbLayerTableRecord
  2
DRAWINGNOTES
 70
0
 62
7
  6
CONTINUOUS
370
-3
390
F
  0
LAYER
  5
236
100
AcDbSymbolTableRecord
100
AcDbLayerTableRecord
  2
DTM
 70
0
 62
7
  6
CONTINUOUS
370
-3
390
F
  0
LAYER
  5
237
100
AcDbSymbolTableRecord
100
AcDbLayerTableRecord
  2
DTM230
 70
0
 62
7
  6
CONTINUOUS
370
-3
390
F
  0
LAYER
  5
238
100
AcDbSymbolTableRecord
100
AcDbLayerTableRecord
  2
DTM325
 70
0
 62
7
  6
CONTINUOUS
370
-3
390
F
  0
LAYER
  5
239
100
AcDbSymbolTableRecord
100
AcDbLayerTableRecord
  2
DTM_280-022
 70
0
 62
7
  6
CONTINUOUS
370
-3
390
F
  0
LAYER
  5
23A
100
AcDbSymbolTableRecord
100
AcDbLayerTableRecord
  2
DTM_500001
 70
0
 62
7
  6
CONTINUOUS
370
-3
390
F
  0
LAYER
  5
23B
100
AcDbSymbolTableRecord
100
AcDbLayerTableRecord
  2
DTM_500002
 70
0
 62
7
  6
CONTINUOUS
370
-3
390
F
  0
LAYER
  5
23C
100
AcDbSymbolTableRecord
100
AcDbLayerTableRecord
  2
DTM_515002
 70
0
 62
7
  6
CONTINUOUS
370
-3
390
F
  0
LAYER
  5
23D
100
AcDbSymbolTableRecord
100
AcDbLayerTableRecord
  2
DTM_700-003
 70
0
 62
7
  6
CONTINUOUS
370
-3
390
F
  0
LAYER
  5
23E
100
AcDbSymbolTableRecord
100
AcDbLayerTableRecord
  2
DTM_800001
 70
0
 62
7
  6
CONTINUOUS
370
-3
390
F
  0
LAYER
  5
23F
100
AcDbSymbolTableRecord
100
AcDbLayerTableRecord
  2
DTM_BALLHOLDER
 70
0
 62
7
  6
CONTINUOUS
370
-3
390
F
  0
LAYER
  5
240
100
AcDbSymbolTableRecord
100
AcDbLayerTableRecord
  2
DTM_ORIFICE_SEAT
 70
0
 62
7
  6
CONTINUOUS
370
-3
390
F
  0
LAYER
  5
241
100
AcDbSymbolTableRecord
100
AcDbLayerTableRecord
  2
DTM_SPRING_RH
 70
0
 62
7
  6
CONTINUOUS
370
-3
390
F
  0
LAYER
  5
242
100
AcDbSymbolTableRecord
100
AcDbLayerTableRecord
  2
DTM_SP_RH_CONSTR
 70
0
 62
7
  6
CONTINUOUS
370
-3
390
F
  0
LAYER
  5
243
100
AcDbSymbolTableRecord
100
AcDbLayerTableRecord
  2
FACE1
 70
0
 62
7
  6
CONTINUOUS
370
-3
390
F
  0
LAYER
  5
244
100
AcDbSymbolTableRecord
100
AcDbLayerTableRecord
  2
FACE2
 70
0
 62
7
  6
CONTINUOUS
370
-3
390
F
  0
LAYER
  5
245
100
AcDbSymbolTableRecord
100
AcDbLayerTableRecord
  2
FACE3
 70
0
 62
7
  6
CONTINUOUS
370
-3
390
F
  0
LAYER
  5
246
100
AcDbSymbolTableRecord
100
AcDbLayerTableRecord
  2
FACE4
 70
0
 62
7
  6
CONTINUOUS
370
-3
390
F
  0
LAYER
  5
247
100
AcDbSymbolTableRecord
100
AcDbLayerTableRecord
  2
GEOMETRICTOLERANCES
 70
0
 62
7
  6
CONTINUOUS
370
-3
390
F
  0
LAYER
  5
248
100
AcDbSymbolTableRecord
100
AcDbLayerTableRecord
  2
HOLE_FEATURES
 70
0
 62
7
  6
CONTINUOUS
370
-3
390
F
  0
LAYER
  5
249
100
AcDbSymbolTableRecord
100
AcDbLayerTableRecord
  2
LAY0001
 70
0
 62
7
  6
CONTINUOUS
370
-3
390
F
  0
LAYER
  5
24A
100
AcDbSymbolTableRecord
100
AcDbLayerTableRecord
  2
PARAMETERDIMENSIONS
 70
0
 62
7
  6
CONTINUOUS
370
-3
390
F
  0
LAYER
  5
24B
100
AcDbSymbolTableRecord
100
AcDbLayerTableRecord
  2
PLANE
 70
0
 62
7
  6
CONTINUOUS
370
-3
390
F
  0
LAYER
  5
24C
100
AcDbSymbolTableRecord
100
AcDbLayerTableRecord
  2
PROTRUSIONS
 70
0
 62
7
  6
CONTINUOUS
370
-3
390
F
  0
LAYER
  5
24D
100
AcDbSymbolTableRecord
100
AcDbLayerTableRecord
  2
SUN_SAE-4_PORT
 70
0
 62
7
  6
CONTINUOUS
370
-3
390
F
  0
LAYER
  5
24E
100
AcDbSymbolTableRecord
100
AcDbLayerTableRecord
  2
TEXT
 70
0
 62
7
  6
CONTINUOUS
370
-3
390
F
  0
LAYER
  5
24F
100
AcDbSymbolTableRecord
100
AcDbLayerTableRecord
  2
THREAD
 70
0
 62
7
  6
CONTINUOUS
370
-3
390
F
  0
LAYER
  5
250
100
AcDbSymbolTableRecord
100
AcDbLayerTableRecord
  2
XSEC_DATUMS
 70
0
 62
7
  6
CONTINUOUS
370
-3
390
F
  0
ENDTAB
  0
TABLE
  2
STYLE
  5
3
100
AcDbSymbolTable
 70
1
  0
STYLE
  5
11
100
AcDbSymbolTableRecord
100
AcDbTextStyleTableRecord
  2
STANDARD
 70
0
 40
0.0
 41
0.8
 50
0.0
 71
0
 42
0.2
  3
txt
  4

  0
ENDTAB
  0
TABLE
  2
VIEW
  5
6
100
AcDbSymbolTable
 70
0
  0
ENDTAB
  0
TABLE
  2
UCS
  5
7
100
AcDbSymbolTable
 70
0
  0
ENDTAB
  0
TABLE
  2
APPID
  5
9
100
AcDbSymbolTable
 70
1
  0
APPID
  5
251
100
AcDbSymbolTableRecord
100
AcDbRegAppTableRecord
  2
ACAD
 70
0
  0
ENDTAB
  0
TABLE
  2
BLOCK_RECORD
  5
1
100
AcDbSymbolTable
 70
0
  0
BLOCK_RECORD
  5
1F
100
AcDbSymbolTableRecord
100
AcDbBlockTableRecord
  2
*MODEL_SPACE
  0
BLOCK_RECORD
  5
1B
100
AcDbSymbolTableRecord
100
AcDbBlockTableRecord
  2
*PAPER_SPACE
  0
ENDTAB
  0
TABLE
  2
DIMSTYLE
  5
A
100
AcDbSymbolTable
 70
1
100
AcDbDimStyleTable
 71
0
  0
DIMSTYLE
105
252
100
AcDbSymbolTableRecord
100
AcDbDimStyleTableRecord
  2
STANDARD
 70
0
  3

  4

 40
1.0
 41
0.1875
 42
0.0625
 43
0.38
 44
0.18
 45
0.0
 46
0.0
 47
0.01
 48
0.01
140
0.15625
141
0.09
142
0.0
143
25.4
144
1.0
145
0.0
146
1.0
147
0.09
 71
0.0
 72
0.0
 73
1
 74
1
 75
0
 76
0
 77
0
 78
4
170
0
171
2
172
0
173
0
174
0
175
0
176
0
177
0
178
0
270
2
271
2
272
2
273
2
274
2
275
0
280
0
281
0
282
0
283
1
284
4
285
0
286
0
287
3
288
0
340
11
  0
ENDTAB
  0
ENDSEC
  0
SECTION
  2
BLOCKS
  0
BLOCK
  5
20
100
AcDbEntity
  8
0
100
AcDbBlockBegin
  2
*MODEL_SPACE
 70
0
 10
0.0
 20
0.0
 30
0.0
  3
*MODEL_SPACE
  1

  0
ENDBLK
  5
21
100
AcDbEntity
  8
0
100
AcDbBlockEnd
  0
BLOCK
  5
1C
100
AcDbEntity
  8
0
100
AcDbBlockBegin
  2
*PAPER_SPACE
 70
0
 10
0.0
 20
0.0
 30
0.0
  3
*PAPER_SPACE
  1

  0
ENDBLK
  5
1D
100
AcDbEntity
  8
0
100
AcDbBlockEnd
  0
ENDSEC
  0
SECTION
  2
ENTITIES
  0
LINE
  5
253
100
AcDbEntity
  8
0
100
AcDbLine
 62
7
  6
CONTINUOUS
 10
2.911797012
 20
4.4086584326
 11
2.911797012
 21
4.1026584326
  0
LINE
  5
254
100
AcDbEntity
  8
03__ASM_ALL_CURVES
100
AcDbLine
 62
40
  6
CONTINUOUS
 10
2.911797012
 20
4.4086584326
 11
2.911797012
 21
5.1629064326
  0
LINE
  5
255
100
AcDbEntity
  8
0
100
AcDbLine
 62
7
  6
CONTINUOUS
 10
2.942797012
 20
4.4396584326
 11
2.942797012
 21
4.0716584326
  0
LINE
  5
256
100
AcDbEntity
  8
03__ASM_ALL_CURVES
100
AcDbLine
 62
40
  6
CONTINUOUS
 10
3.037437012
 20
5.1419664326
 11
3.037437012
 21
5.1000864326
  0
LINE
  5
257
100
AcDbEntity
  8
0
100
AcDbLine
 62
7
  6
CONTINUOUS
 10
3.141797012
 20
4.4396534173
 11
3.141797012
 21
4.0716634479
  0
LINE
  5
258
100
AcDbEntity
  8
0
100
AcDbLine
 62
7
  6
CONTINUOUS
 10
3.143297012
 20
4.0945154396
 11
3.143297012
 21
4.3317820014
  0
LINE
  5
259
100
AcDbEntity
  8
0
100
AcDbLine
 62
7
  6
CONTINUOUS
 10
3.178297012
 20
4.0945154396
 11
3.178297012
 21
4.3317820014
  0
LINE
  5
25A
100
AcDbEntity
  8
0
100
AcDbLine
 62
7
  6
CONTINUOUS
 10
3.179797012
 20
4.4396534173
 11
3.179797012
 21
4.0716634479
  0
LINE
  5
25B
100
AcDbEntity
  8
0
100
AcDbLine
 62
7
  6
CONTINUOUS
 10
3.411797012
 20
4.0080072475
 11
3.411797012
 21
4.5033096177
  0
LINE
  5
25C
100
AcDbEntity
  8
0
100
AcDbLine
 62
7
  6
CONTINUOUS
 10
3.473797012
 20
3.9846584326
 11
3.473797012
 21
4.5266584326
  0
LINE
  5
25D
100
AcDbEntity
  8
0
100
AcDbLine
 62
7
  6
CONTINUOUS
 10
3.479797012
 20
3.9846584326
 11
3.479797012
 21
4.5266584326
  0
LINE
  5
25E
100
AcDbEntity
  8
0
100
AcDbLine
 62
7
  6
CONTINUOUS
 10
3.485297012
 20
3.9901584326
 11
3.485297012
 21
4.5211584326
  0
LINE
  5
25F
100
AcDbEntity
  8
0
100
AcDbLine
 62
7
  6
CONTINUOUS
 10
3.501297012
 20
3.9901584326
 11
3.501297012
 21
4.5211584326
  0
LINE
  5
260
100
AcDbEntity
  8
0
100
AcDbLine
 62
7
  6
CONTINUOUS
 10
3.692797012
 20
3.9846584326
 11
3.692797012
 21
4.5266584326
  0
LINE
  5
261
100
AcDbEntity
  8
0
100
AcDbLine
 62
7
  6
CONTINUOUS
 10
3.723797012
 20
3.8206584326
 11
3.723797012
 21
4.6906584326
  0
LINE
  5
262
100
AcDbEntity
  8
0
100
AcDbLine
 62
7
  6
CONTINUOUS
 10
3.785797012
 20
3.7586584326
 11
3.785797012
 21
4.7526584326
  0
LINE
  5
263
100
AcDbEntity
  8
03__ASM_ALL_CURVES
100
AcDbLine
 62
40
  6
CONTINUOUS
 10
3.774665762
 20
5.1890814326
 11
3.768122012
 21
5.1629064326
  0
LINE
  5
264
100
AcDbEntity
  8
03__ASM_ALL_CURVES
100
AcDbLine
 62
40
  6
CONTINUOUS
 10
3.768122012
 20
5.2501564305
 11
3.774665762
 21
5.2588814347
  0
LINE
  5
265
100
AcDbEntity
  8
03__ASM_ALL_CURVES
100
AcDbLine
 62
40
  6
CONTINUOUS
 10
3.787753262
 20
5.2065314316
 11
3.774665762
 21
5.1890814326
  0
LINE
  5
266
100
AcDbEntity
  8
03__ASM_ALL_CURVES
100
AcDbLine
 62
40
  6
CONTINUOUS
 10
3.820472012
 20
5.2327064347
 11
3.813928262
 21
5.2239814305
  0
LINE
  5
267
100
AcDbEntity
  8
03__ASM_ALL_CURVES
100
AcDbLine
 62
40
  6
CONTINUOUS
 10
3.977522012
 20
5.2501564305
 11
3.984065762
 21
5.2588814347
  0
LINE
  5
268
100
AcDbEntity
  8
03__ASM_ALL_CURVES
100
AcDbLine
 62
40
  6
CONTINUOUS
 10
3.970978262
 20
5.1978064336
 11
3.984065762
 21
5.2152564326
  0
LINE
  5
269
100
AcDbEntity
  8
0
100
AcDbLine
 62
7
  6
CONTINUOUS
 10
2.911797012
 20
4.4086584326
 11
2.942797012
 21
4.4396584326
  0
LINE
  5
26A
100
AcDbEntity
  8
0
100
AcDbLine
 62
7
  6
CONTINUOUS
 10
2.911797012
 20
4.1026584326
 11
2.942797012
 21
4.0716584326
  0
LINE
  5
26B
100
AcDbEntity
  8
03__ASM_ALL_CURVES
100
AcDbLine
 62
40
  6
CONTINUOUS
 10
3.820472012
 20
5.2501564305
 11
3.820472012
 21
5.2327064347
  0
LINE
  5
26C
100
AcDbEntity
  8
03__ASM_ALL_CURVES
100
AcDbLine
 62
40
  6
CONTINUOUS
 10
3.892453262
 20
5.1629064326
 11
3.892453262
 21
5.1716314329
  0
LINE
  5
26D
100
AcDbEntity
  8
03__ASM_ALL_CURVES
100
AcDbLine
 62
40
  6
CONTINUOUS
 10
3.970978262
 20
5.1890814326
 11
3.970978262
 21
5.1978064336
  0
LINE
  5
26E
100
AcDbEntity
  8
03__ASM_ALL_CURVES
100
AcDbLine
 62
40
  6
CONTINUOUS
 10
3.977522012
 20
5.2414314326
 11
3.977522012
 21
5.2501564305
  0
LINE
  5
26F
100
AcDbEntity
  8
03__ASM_ALL_CURVES
100
AcDbLine
 62
40
  6
CONTINUOUS
 10
4.029872012
 20
5.2414314326
 11
4.023328262
 21
5.2327064347
  0
LINE
  5
270
100
AcDbEntity
  8
03__ASM_ALL_CURVES
100
AcDbLine
 62
40
  6
CONTINUOUS
 10
4.036415762
 20
5.1890814326
 11
4.023328262
 21
5.1716314329
  0
LINE
  5
271
100
AcDbEntity
  8
03__ASM_ALL_CURVES
100
AcDbLine
 62
40
  6
CONTINUOUS
 10
4.219640762
 20
5.2676064326
 11
4.206553262
 21
5.2501564305
  0
LINE
  5
272
100
AcDbEntity
  8
03__ASM_ALL_CURVES
100
AcDbLine
 62
40
  6
CONTINUOUS
 10
3.774665762
 20
5.2588814347
 11
3.787753262
 21
5.2676064326
  0
LINE
  5
273
100
AcDbEntity
  8
03__ASM_ALL_CURVES
100
AcDbLine
 62
40
  6
CONTINUOUS
 10
3.813928262
 20
5.2239814305
 11
3.787753262
 21
5.2065314316
  0
LINE
  5
274
100
AcDbEntity
  8
03__ASM_ALL_CURVES
100
AcDbLine
 62
40
  6
CONTINUOUS
 10
3.984065762
 20
5.2588814347
 11
3.997153262
 21
5.2676064326
  0
LINE
  5
275
100
AcDbEntity
  8
0
100
AcDbLine
 62
7
  6
CONTINUOUS
 10
3.5167977976
 20
3.974657647
 11
3.501297012
 21
3.9901584326
  0
LINE
  5
276
100
AcDbEntity
  8
03__ASM_ALL_CURVES
100
AcDbLine
 62
40
  6
CONTINUOUS
 10
4.029872012
 20
5.2501564305
 11
4.029872012
 21
5.2414314326
  0
LINE
  5
277
100
AcDbEntity
  8
03__ASM_ALL_CURVES
100
AcDbLine
 62
40
  6
CONTINUOUS
 10
4.036415762
 20
5.1978064336
 11
4.036415762
 21
5.1890814326
  0
LINE
  5
278
100
AcDbEntity
  8
03__ASM_ALL_CURVES
100
AcDbLine
 62
40
  6
CONTINUOUS
 10
4.108397012
 20
5.2676064326
 11
4.108397012
 21
5.1629064326
  0
LINE
  5
279
100
AcDbEntity
  8
03__ASM_ALL_CURVES
100
AcDbLine
 62
40
  6
CONTINUOUS
 10
4.200009512
 20
5.2239814305
 11
4.200009512
 21
5.2065314316
  0
LINE
  5
27A
100
AcDbEntity
  8
03__ASM_ALL_CURVES
100
AcDbLine
 62
40
  6
CONTINUOUS
 10
4.206553262
 20
5.2501564305
 11
4.200009512
 21
5.2239814305
  0
LINE
  5
27B
100
AcDbEntity
  8
03__ASM_ALL_CURVES
100
AcDbLine
 62
40
  6
CONTINUOUS
 10
4.324340762
 20
5.2065314316
 11
4.330884512
 21
5.2327064347
  0
LINE
  5
27C
100
AcDbEntity
  8
03__ASM_ALL_CURVES
100
AcDbLine
 62
40
  6
CONTINUOUS
 10
4.330884512
 20
5.2327064347
 11
4.343972012
 21
5.2676064326
  0
LINE
  5
27D
100
AcDbEntity
  8
0
100
AcDbLine
 62
7
  6
CONTINUOUS
 10
3.692797012
 20
3.9846584326
 11
3.6867022398
 21
3.9741019776
  0
LINE
  5
27E
100
AcDbEntity
  8
0
100
AcDbLine
 62
7
  6
CONTINUOUS
 10
4.2691415144
 20
4.8891974147
 11
4.223797012
 21
4.8106584326
  0
LINE
  5
27F
100
AcDbEntity
  8
0
100
AcDbLine
 62
7
  6
CONTINUOUS
 10
3.5167977976
 20
4.5366592182
 11
3.501297012
 21
4.5211584326
  0
LINE
  5
280
100
AcDbEntity
  8
0
100
AcDbLine
 62
7
  6
CONTINUOUS
 10
3.785797012
 20
4.7526584326
 11
3.723797012
 21
4.6906584326
  0
LINE
  5
281
100
AcDbEntity
  8
03__ASM_ALL_CURVES
100
AcDbLine
 62
40
  6
CONTINUOUS
 10
3.984065762
 20
5.2152564326
 11
3.997153262
 21
5.2239814305
  0
LINE
  5
282
100
AcDbEntity
  8
03__ASM_ALL_CURVES
100
AcDbLine
 62
40
  6
CONTINUOUS
 10
4.023328262
 20
5.2327064347
 11
4.010240762
 21
5.2239814305
  0
LINE
  5
283
100
AcDbEntity
  8
03__ASM_ALL_CURVES
100
AcDbLine
 62
40
  6
CONTINUOUS
 10
4.023328262
 20
5.1716314329
 11
4.010240762
 21
5.1629064326
  0
LINE
  5
284
100
AcDbEntity
  8
0
100
AcDbLine
 62
7
  6
CONTINUOUS
 10
3.785797012
 20
3.7586584326
 11
3.723797012
 21
3.8206584326
  0
LINE
  5
285
100
AcDbEntity
  8
0
100
AcDbLine
 62
7
  6
CONTINUOUS
 10
3.692797012
 20
4.5266584326
 11
3.6867022398
 21
4.5372148876
  0
LINE
  5
286
100
AcDbEntity
  8
0
100
AcDbLine
 62
7
  6
CONTINUOUS
 10
4.2694076832
 20
3.6216584326
 11
4.223797012
 21
3.7006584326
  0
LINE
  5
287
100
AcDbEntity
  8
0
100
AcDbLine
 62
7
  6
CONTINUOUS
 10
4.223797012
 20
3.7006584326
 11
4.223797012
 21
4.8106584326
  0
LINE
  5
288
100
AcDbEntity
  8
0
100
AcDbLine
 62
7
  6
CONTINUOUS
 10
4.2694076832
 20
3.6216584326
 11
4.2694076832
 21
3.6222731231
  0
LINE
  5
289
100
AcDbEntity
  8
0
100
AcDbLine
 62
7
  6
CONTINUOUS
 10
4.2694076832
 20
3.9147937421
 11
4.2694076832
 21
3.9631378137
  0
LINE
  5
28A
100
AcDbEntity
  8
0
100
AcDbLine
 62
7
  6
CONTINUOUS
 10
4.2694076832
 20
4.5481790515
 11
4.2694076832
 21
4.5965231231
  0
LINE
  5
28B
100
AcDbEntity
  8
0
100
AcDbLine
 62
7
  6
CONTINUOUS
 10
4.2694076832
 20
4.8890437421
 11
4.2694076832
 21
4.8896584326
  0
LINE
  5
28C
100
AcDbEntity
  8
03__ASM_ALL_CURVES
100
AcDbLine
 62
40
  6
CONTINUOUS
 10
4.317797012
 20
5.1629064326
 11
4.324340762
 21
5.2065314316
  0
LINE
  5
28D
100
AcDbEntity
  8
03__ASM_ALL_CURVES
100
AcDbLine
 62
40
  6
CONTINUOUS
 10
4.658072012
 20
5.2414314326
 11
4.651528262
 21
5.2327064347
  0
LINE
  5
28E
100
AcDbEntity
  8
03__ASM_ALL_CURVES
100
AcDbLine
 62
40
  6
CONTINUOUS
 10
4.664615762
 20
5.1890814326
 11
4.651528262
 21
5.1716314329
  0
LINE
  5
28F
100
AcDbEntity
  8
0
100
AcDbLine
 62
7
  6
CONTINUOUS
 10
3.485297012
 20
3.9901584326
 11
3.479797012
 21
3.9846584326
  0
LINE
  5
290
100
AcDbEntity
  8
03__ASM_ALL_CURVES
100
AcDbLine
 62
40
  6
CONTINUOUS
 10
4.612265762
 20
5.2588814347
 11
4.625353262
 21
5.2676064326
  0
LINE
  5
291
100
AcDbEntity
  8
03__ASM_ALL_CURVES
100
AcDbLine
 62
40
  6
CONTINUOUS
 10
4.651528262
 20
5.2327064347
 11
4.638440762
 21
5.2239814305
  0
LINE
  5
292
100
AcDbEntity
  8
0
100
AcDbLine
 62
7
  6
CONTINUOUS
 10
3.485297012
 20
4.5211584326
 11
3.479797012
 21
4.5266584326
  0
LINE
  5
293
100
AcDbEntity
  8
03__ASM_ALL_CURVES
100
AcDbLine
 62
40
  6
CONTINUOUS
 10
4.422497012
 20
5.2676064326
 11
4.422497012
 21
5.1629064326
  0
LINE
  5
294
100
AcDbEntity
  8
03__ASM_ALL_CURVES
100
AcDbLine
 62
40
  6
CONTINUOUS
 10
4.520653262
 20
5.1629064326
 11
4.520653262
 21
5.1716314329
  0
LINE
  5
295
100
AcDbEntity
  8
03__ASM_ALL_CURVES
100
AcDbLine
 62
40
  6
CONTINUOUS
 10
4.743140762
 20
5.2065314316
 11
4.749684512
 21
5.2327064347
  0
LINE
  5
296
100
AcDbEntity
  8
03__ASM_ALL_CURVES
100
AcDbLine
 62
40
  6
CONTINUOUS
 10
4.749684512
 20
5.2327064347
 11
4.762772012
 21
5.2676064326
  0
LINE
  5
297
100
AcDbEntity
  8
03__ASM_ALL_CURVES
100
AcDbLine
 62
40
  6
CONTINUOUS
 10
4.847840762
 20
5.1803564331
 11
4.834753262
 21
5.1629064326
  0
LINE
  5
298
100
AcDbEntity
  8
03__ASM_ALL_CURVES
100
AcDbLine
 62
40
  6
CONTINUOUS
 10
4.651528262
 20
5.1716314329
 11
4.638440762
 21
5.1629064326
  0
LINE
  5
299
100
AcDbEntity
  8
03__ASM_ALL_CURVES
100
AcDbLine
 62
40
  6
CONTINUOUS
 10
4.200009512
 20
5.2065314316
 11
4.206553262
 21
5.1803564331
  0
LINE
  5
29A
100
AcDbEntity
  8
03__ASM_ALL_CURVES
100
AcDbLine
 62
40
  6
CONTINUOUS
 10
4.658072012
 20
5.2501564305
 11
4.658072012
 21
5.2414314326
  0
LINE
  5
29B
100
AcDbEntity
  8
03__ASM_ALL_CURVES
100
AcDbLine
 62
40
  6
CONTINUOUS
 10
4.664615762
 20
5.1978064336
 11
4.664615762
 21
5.1890814326
  0
LINE
  5
29C
100
AcDbEntity
  8
03__ASM_ALL_CURVES
100
AcDbLine
 62
40
  6
CONTINUOUS
 10
4.736597012
 20
5.1629064326
 11
4.743140762
 21
5.2065314316
  0
LINE
  5
29D
100
AcDbEntity
  8
03__ASM_ALL_CURVES
100
AcDbLine
 62
40
  6
CONTINUOUS
 10
4.854384512
 20
5.2065314316
 11
4.847840762
 21
5.1803564331
  0
LINE
  5
29E
100
AcDbEntity
  8
03__ASM_ALL_CURVES
100
AcDbLine
 62
40
  6
CONTINUOUS
 10
5.2967470155
 20
3.3852534326
 11
5.3065626405
 21
3.3787096842
  0
LINE
  5
29F
100
AcDbEntity
  8
03__ASM_ALL_CURVES
100
AcDbLine
 62
40
  6
CONTINUOUS
 10
3.813928262
 20
5.2588814347
 11
3.820472012
 21
5.2501564305
  0
LINE
  5
2A0
100
AcDbEntity
  8
03__ASM_ALL_CURVES
100
AcDbLine
 62
40
  6
CONTINUOUS
 10
3.892453262
 20
5.1716314329
 11
3.898997012
 21
5.1629064326
  0
LINE
  5
2A1
100
AcDbEntity
  8
03__ASM_ALL_CURVES
100
AcDbLine
 62
40
  6
CONTINUOUS
 10
4.854384512
 20
5.2239814305
 11
4.854384512
 21
5.2065314316
  0
LINE
  5
2A2
100
AcDbEntity
  8
0
100
AcDbLine
 62
7
  6
CONTINUOUS
 10
4.8563713861
 20
3.6216584326
 11
4.8563713861
 21
3.6222731231
  0
LINE
  5
2A3
100
AcDbEntity
  8
0
100
AcDbLine
 62
7
  6
CONTINUOUS
 10
4.8563713861
 20
3.9147937421
 11
4.8563713861
 21
3.9631378137
  0
LINE
  5
2A4
100
AcDbEntity
  8
0
100
AcDbLine
 62
7
  6
CONTINUOUS
 10
4.8563713861
 20
4.5481790515
 11
4.8563713861
 21
4.5965231231
  0
LINE
  5
2A5
100
AcDbEntity
  8
0
100
AcDbLine
 62
7
  6
CONTINUOUS
 10
4.8563713861
 20
4.8890437421
 11
4.8563713861
 21
4.8896584326
  0
LINE
  5
2A6
100
AcDbEntity
  8
0
100
AcDbLine
 62
7
  6
CONTINUOUS
 10
4.911797012
 20
3.7176584326
 11
4.911797012
 21
4.7936584326
  0
LINE
  5
2A7
100
AcDbEntity
  8
03__ASM_ALL_CURVES
100
AcDbLine
 62
40
  6
CONTINUOUS
 10
6.6096837519
 20
3.3067284326
 11
6.5704212519
 21
3.3067284326
  0
LINE
  5
2A8
100
AcDbEntity
  8
03__ASM_ALL_CURVES
100
AcDbLine
 62
40
  6
CONTINUOUS
 10
5.2967470155
 20
3.3067284326
 11
5.2771157655
 21
3.3067284326
  0
LINE
  5
2A9
100
AcDbEntity
  8
03__ASM_ALL_CURVES
100
AcDbLine
 62
40
  6
CONTINUOUS
 10
6.4918962519
 20
3.3067284326
 11
6.5311587519
 21
3.3067284326
  0
LINE
  5
2AA
100
AcDbEntity
  8
03__ASM_ALL_CURVES
100
AcDbLine
 62
40
  6
CONTINUOUS
 10
5.439073578
 20
3.3329034334
 11
5.468520453
 21
3.3329034334
  0
LINE
  5
2AB
100
AcDbEntity
  8
03__ASM_ALL_CURVES
100
AcDbLine
 62
40
  6
CONTINUOUS
 10
5.380179828
 20
3.3459909326
 11
5.3556407655
 21
3.3459909326
  0
LINE
  5
2AC
100
AcDbEntity
  8
03__ASM_ALL_CURVES
100
AcDbLine
 62
40
  6
CONTINUOUS
 10
6.5704212519
 20
3.3459909326
 11
6.5949603144
 21
3.3459909326
  0
LINE
  5
2AD
100
AcDbEntity
  8
03__ASM_ALL_CURVES
100
AcDbLine
 62
40
  6
CONTINUOUS
 10
5.2771157655
 20
3.3852534326
 11
5.2967470155
 21
3.3852534326
  0
LINE
  5
2AE
100
AcDbEntity
  8
03__ASM_ALL_CURVES
100
AcDbLine
 62
40
  6
CONTINUOUS
 10
5.3556407655
 20
3.3852534326
 11
5.380179828
 21
3.3852534326
  0
LINE
  5
2AF
100
AcDbEntity
  8
03__ASM_ALL_CURVES
100
AcDbLine
 62
40
  6
CONTINUOUS
 10
6.5704212519
 20
3.3852534326
 11
6.6096837519
 21
3.3852534326
  0
LINE
  5
2B0
100
AcDbEntity
  8
03__ASM_ALL_CURVES
100
AcDbLine
 62
40
  6
CONTINUOUS
 10
6.6440384394
 20
3.3852534326
 11
6.6931165644
 21
3.3852534326
  0
LINE
  5
2B1
100
AcDbEntity
  8
03__ASM_ALL_CURVES
100
AcDbLine
 62
40
  6
CONTINUOUS
 10
6.4501798243
 20
3.4271334326
 11
6.4403641993
 21
3.4271334326
  0
LINE
  5
2B2
100
AcDbEntity
  8
03__ASM_ALL_CURVES
100
AcDbLine
 62
40
  6
CONTINUOUS
 10
5.6133009197
 20
3.4271334326
 11
5.6034852947
 21
3.4271334326
  0
LINE
  5
2B3
100
AcDbEntity
  8
03__ASM_ALL_CURVES
100
AcDbLine
 62
40
  6
CONTINUOUS
 10
5.3777259197
 20
3.4271334326
 11
5.3679102947
 21
3.4271334326
  0
LINE
  5
2B4
100
AcDbEntity
  8
03__ASM_ALL_CURVES
100
AcDbLine
 62
40
  6
CONTINUOUS
 10
6.6612157618
 20
3.4271334326
 11
6.7004782618
 21
3.4271334326
  0
LINE
  5
2B5
100
AcDbEntity
  8
03__ASM_ALL_CURVES
100
AcDbLine
 62
40
  6
CONTINUOUS
 10
6.5287048243
 20
3.4663959326
 11
6.5041657618
 21
3.4663959326
  0
LINE
  5
2B6
100
AcDbEntity
  8
03__ASM_ALL_CURVES
100
AcDbLine
 62
40
  6
CONTINUOUS
 10
6.3716548243
 20
3.4663959326
 11
6.3471157618
 21
3.4663959326
  0
LINE
  5
2B7
100
AcDbEntity
  8
03__ASM_ALL_CURVES
100
AcDbLine
 62
40
  6
CONTINUOUS
 10
5.4562509197
 20
3.4663959326
 11
5.4317118572
 21
3.4663959326
  0
LINE
  5
2B8
100
AcDbEntity
  8
03__ASM_ALL_CURVES
100
AcDbLine
 62
40
  6
CONTINUOUS
 10
5.2992009197
 20
3.4663959326
 11
5.2746618572
 21
3.4663959326
  0
LINE
  5
2B9
100
AcDbEntity
  8
03__ASM_ALL_CURVES
100
AcDbLine
 62
40
  6
CONTINUOUS
 10
5.6034852947
 20
3.472939681
 11
5.6133009197
 21
3.472939681
  0
LINE
  5
2BA
100
AcDbEntity
  8
03__ASM_ALL_CURVES
100
AcDbLine
 62
40
  6
CONTINUOUS
 10
5.380179828
 20
3.3852534326
 11
5.389995453
 21
3.3787096842
  0
LINE
  5
2BB
100
AcDbEntity
  8
03__ASM_ALL_CURVES
100
AcDbLine
 62
40
  6
CONTINUOUS
 10
5.3679102947
 20
3.4271334326
 11
5.3580946697
 21
3.4336771828
  0
LINE
  5
2BC
100
AcDbEntity
  8
03__ASM_ALL_CURVES
100
AcDbLine
 62
40
  6
CONTINUOUS
 10
5.2992009197
 20
3.5056584326
 11
5.3090165447
 21
3.4991146842
  0
LINE
  5
2BD
100
AcDbEntity
  8
03__ASM_ALL_CURVES
100
AcDbLine
 62
40
  6
CONTINUOUS
 10
5.3777259197
 20
3.5056584326
 11
5.3875415447
 21
3.4991146842
  0
LINE
  5
2BE
100
AcDbEntity
  8
03__ASM_ALL_CURVES
100
AcDbLine
 62
40
  6
CONTINUOUS
 10
5.4562509197
 20
3.5056584326
 11
5.4660665447
 21
3.4991146842
  0
LINE
  5
2BF
100
AcDbEntity
  8
03__ASM_ALL_CURVES
100
AcDbLine
 62
40
  6
CONTINUOUS
 10
5.6034852947
 20
3.4271334326
 11
5.5936696697
 21
3.4336771828
  0
LINE
  5
2C0
100
AcDbEntity
  8
03__ASM_ALL_CURVES
100
AcDbLine
 62
40
  6
CONTINUOUS
 10
5.3065626405
 20
3.3787096842
 11
5.3163782655
 21
3.3656221826
  0
LINE
  5
2C1
100
AcDbEntity
  8
03__ASM_ALL_CURVES
100
AcDbLine
 62
40
  6
CONTINUOUS
 10
3.984065762
 20
5.1716314329
 11
3.970978262
 21
5.1890814326
  0
LINE
  5
2C2
100
AcDbEntity
  8
03__ASM_ALL_CURVES
100
AcDbLine
 62
40
  6
CONTINUOUS
 10
3.984065762
 20
5.2327064347
 11
3.977522012
 21
5.2414314326
  0
LINE
  5
2C3
100
AcDbEntity
  8
03__ASM_ALL_CURVES
100
AcDbLine
 62
40
  6
CONTINUOUS
 10
5.389995453
 20
3.3787096842
 11
5.3949032655
 21
3.372165931
  0
LINE
  5
2C4
100
AcDbEntity
  8
03__ASM_ALL_CURVES
100
AcDbLine
 62
40
  6
CONTINUOUS
 10
5.3090165447
 20
3.4991146842
 11
5.3139243572
 21
3.492570931
  0
LINE
  5
2C5
100
AcDbEntity
  8
03__ASM_ALL_CURVES
100
AcDbLine
 62
40
  6
CONTINUOUS
 10
5.3580946697
 20
3.4336771828
 11
5.3482790447
 21
3.4467646826
  0
LINE
  5
2C6
100
AcDbEntity
  8
03__ASM_ALL_CURVES
100
AcDbLine
 62
40
  6
CONTINUOUS
 10
4.023328262
 20
5.2152564326
 11
4.036415762
 21
5.1978064336
  0
LINE
  5
2C7
100
AcDbEntity
  8
03__ASM_ALL_CURVES
100
AcDbLine
 62
40
  6
CONTINUOUS
 10
4.023328262
 20
5.2588814347
 11
4.029872012
 21
5.2501564305
  0
LINE
  5
2C8
100
AcDbEntity
  8
03__ASM_ALL_CURVES
100
AcDbLine
 62
40
  6
CONTINUOUS
 10
5.3875415447
 20
3.4991146842
 11
5.3973571697
 21
3.4860271826
  0
LINE
  5
2C9
100
AcDbEntity
  8
0
100
AcDbLine
 62
7
  6
CONTINUOUS
 10
5.098797012
 20
3.7176584326
 11
5.098797012
 21
4.7936584326
  0
LINE
  5
2CA
100
AcDbEntity
  8
0
100
AcDbLine
 62
7
  6
CONTINUOUS
 10
5.148797012
 20
3.7191584326
 11
5.148797012
 21
4.7921584326
  0
LINE
  5
2CB
100
AcDbEntity
  8
03__ASM_ALL_CURVES
100
AcDbLine
 62
40
  6
CONTINUOUS
 10
6.0025607622
 20
5.2588814347
 11
6.0156482622
 21
5.2676064326
  0
LINE
  5
2CC
100
AcDbEntity
  8
03__ASM_ALL_CURVES
100
AcDbLine
 62
40
  6
CONTINUOUS
 10
6.1072607622
 20
5.2588814347
 11
6.1203482622
 21
5.2676064326
  0
LINE
  5
2CD
100
AcDbEntity
  8
03__ASM_ALL_CURVES
100
AcDbLine
 62
40
  6
CONTINUOUS
 10
6.0418232622
 20
5.1716314329
 11
6.0287357622
 21
5.1629064326
  0
LINE
  5
2CE
100
AcDbEntity
  8
03__ASM_ALL_CURVES
100
AcDbLine
 62
40
  6
CONTINUOUS
 10
5.2746618572
 20
3.5056584326
 11
5.2992009197
 21
3.5056584326
  0
LINE
  5
2CF
100
AcDbEntity
  8
03__ASM_ALL_CURVES
100
AcDbLine
 62
40
  6
CONTINUOUS
 10
5.3679102947
 20
3.5056584326
 11
5.3777259197
 21
3.5056584326
  0
LINE
  5
2D0
100
AcDbEntity
  8
03__ASM_ALL_CURVES
100
AcDbLine
 62
40
  6
CONTINUOUS
 10
5.4317118572
 20
3.5056584326
 11
5.4562509197
 21
3.5056584326
  0
LINE
  5
2D1
100
AcDbEntity
  8
03__ASM_ALL_CURVES
100
AcDbLine
 62
40
  6
CONTINUOUS
 10
5.5053290447
 20
3.5056584326
 11
5.5544071697
 21
3.5056584326
  0
LINE
  5
2D2
100
AcDbEntity
  8
03__ASM_ALL_CURVES
100
AcDbLine
 62
40
  6
CONTINUOUS
 10
5.6034852947
 20
3.5056584326
 11
5.6133009197
 21
3.5056584326
  0
LINE
  5
2D3
100
AcDbEntity
  8
03__ASM_ALL_CURVES
100
AcDbLine
 62
40
  6
CONTINUOUS
 10
6.3471157618
 20
3.5056584326
 11
6.3716548243
 21
3.5056584326
  0
LINE
  5
2D4
100
AcDbEntity
  8
03__ASM_ALL_CURVES
100
AcDbLine
 62
40
  6
CONTINUOUS
 10
6.4403641993
 20
3.5056584326
 11
6.4501798243
 21
3.5056584326
  0
LINE
  5
2D5
100
AcDbEntity
  8
03__ASM_ALL_CURVES
100
AcDbLine
 62
40
  6
CONTINUOUS
 10
6.5041657618
 20
3.5056584326
 11
6.5287048243
 21
3.5056584326
  0
LINE
  5
2D6
100
AcDbEntity
  8
03__ASM_ALL_CURVES
100
AcDbLine
 62
40
  6
CONTINUOUS
 10
6.5777829493
 20
3.5056584326
 11
6.6268610743
 21
3.5056584326
  0
LINE
  5
2D7
100
AcDbEntity
  8
03__ASM_ALL_CURVES
100
AcDbLine
 62
40
  6
CONTINUOUS
 10
6.6759391993
 20
3.5056584326
 11
6.6857548243
 21
3.5056584326
  0
LINE
  5
2D8
100
AcDbEntity
  8
0
100
AcDbLine
 62
7
  6
CONTINUOUS
 10
4.8563713861
 20
3.6216584326
 11
4.2694076832
 21
3.6216584326
  0
LINE
  5
2D9
100
AcDbEntity
  8
0
100
AcDbLine
 62
7
  6
CONTINUOUS
 10
4.8563713861
 20
3.6222731231
 11
4.2694076832
 21
3.6222731231
  0
LINE
  5
2DA
100
AcDbEntity
  8
03__ASM_ALL_CURVES
100
AcDbLine
 62
40
  6
CONTINUOUS
 10
5.6133009197
 20
3.472939681
 11
5.6231165447
 21
3.4663959326
  0
LINE
  5
2DB
100
AcDbEntity
  8
03__ASM_ALL_CURVES
100
AcDbLine
 62
40
  6
CONTINUOUS
 10
5.6133009197
 20
3.5056584326
 11
5.6231165447
 21
3.4991146842
  0
LINE
  5
2DC
100
AcDbEntity
  8
03__ASM_ALL_CURVES
100
AcDbLine
 62
40
  6
CONTINUOUS
 10
5.4660665447
 20
3.4991146842
 11
5.4709743572
 21
3.492570931
  0
LINE
  5
2DD
100
AcDbEntity
  8
03__ASM_ALL_CURVES
100
AcDbLine
 62
40
  6
CONTINUOUS
 10
4.206553262
 20
5.1803564331
 11
4.219640762
 21
5.1629064326
  0
LINE
  5
2DE
100
AcDbEntity
  8
03__ASM_ALL_CURVES
100
AcDbLine
 62
40
  6
CONTINUOUS
 10
5.5936696697
 20
3.4336771828
 11
5.5887618572
 21
3.440220933
  0
LINE
  5
2DF
100
AcDbEntity
  8
03__ASM_ALL_CURVES
100
AcDbLine
 62
40
  6
CONTINUOUS
 10
5.6231165447
 20
3.4663959326
 11
5.6329321697
 21
3.4533084334
  0
LINE
  5
2E0
100
AcDbEntity
  8
03__ASM_ALL_CURVES
100
AcDbLine
 62
40
  6
CONTINUOUS
 10
5.6231165447
 20
3.4991146842
 11
5.6280243572
 21
3.492570931
  0
LINE
  5
2E1
100
AcDbEntity
  8
03__ASM_ALL_CURVES
100
AcDbLine
 62
40
  6
CONTINUOUS
 10
5.5912157655
 20
3.3852534326
 11
5.6304782655
 21
3.3067284326
  0
LINE
  5
2E2
100
AcDbEntity
  8
03__ASM_ALL_CURVES
100
AcDbLine
 62
40
  6
CONTINUOUS
 10
5.380179828
 20
3.3459909326
 11
5.3949032655
 21
3.3067284326
  0
LINE
  5
2E3
100
AcDbEntity
  8
03__ASM_ALL_CURVES
100
AcDbLine
 62
40
  6
CONTINUOUS
 10
5.4562509197
 20
3.4663959326
 11
5.4709743572
 21
3.4271334326
  0
LINE
  5
2E4
100
AcDbEntity
  8
03__ASM_ALL_CURVES
100
AcDbLine
 62
40
  6
CONTINUOUS
 10
5.4537970155
 20
3.3852534326
 11
5.478336078
 21
3.3067284326
  0
LINE
  5
2E5
100
AcDbEntity
  8
03__ASM_ALL_CURVES
100
AcDbLine
 62
40
  6
CONTINUOUS
 10
5.3163782655
 20
3.3656221826
 11
5.321286078
 21
3.3459909326
  0
LINE
  5
2E6
100
AcDbEntity
  8
03__ASM_ALL_CURVES
100
AcDbLine
 62
40
  6
CONTINUOUS
 10
4.847840762
 20
5.2501564305
 11
4.854384512
 21
5.2239814305
  0
LINE
  5
2E7
100
AcDbEntity
  8
03__ASM_ALL_CURVES
100
AcDbLine
 62
40
  6
CONTINUOUS
 10
5.3482790447
 20
3.4467646826
 11
5.3433712322
 21
3.4663959326
  0
LINE
  5
2E8
100
AcDbEntity
  8
03__ASM_ALL_CURVES
100
AcDbLine
 62
40
  6
CONTINUOUS
 10
5.3973571697
 20
3.4860271826
 11
5.4022649822
 21
3.4663959326
  0
LINE
  5
2E9
100
AcDbEntity
  8
0
100
AcDbLine
 62
7
  6
CONTINUOUS
 10
5.218797012
 20
4.7731584326
 11
5.218797012
 21
3.7381584326
  0
LINE
  5
2EA
100
AcDbEntity
  8
0
100
AcDbLine
 62
7
  6
CONTINUOUS
 10
5.239797012
 20
3.7176584326
 11
5.239797012
 21
4.7936584326
  0
LINE
  5
2EB
100
AcDbEntity
  8
03__ASM_ALL_CURVES
100
AcDbLine
 62
40
  6
CONTINUOUS
 10
5.2746618572
 20
3.4271334326
 11
5.2746618572
 21
3.5056584326
  0
LINE
  5
2EC
100
AcDbEntity
  8
03__ASM_ALL_CURVES
100
AcDbLine
 62
40
  6
CONTINUOUS
 10
5.2771157655
 20
3.3067284326
 11
5.2771157655
 21
3.3852534326
  0
LINE
  5
2ED
100
AcDbEntity
  8
0
100
AcDbLine
 62
7
  6
CONTINUOUS
 10
5.284797012
 20
3.7176584326
 11
5.284797012
 21
4.7936584326
  0
LINE
  5
2EE
100
AcDbEntity
  8
0
100
AcDbLine
 62
7
  6
CONTINUOUS
 10
5.3062329474
 20
3.7976584326
 11
5.3062329474
 21
4.7136584326
  0
LINE
  5
2EF
100
AcDbEntity
  8
03__ASM_ALL_CURVES
100
AcDbLine
 62
40
  6
CONTINUOUS
 10
5.3139243572
 20
3.492570931
 11
5.3139243572
 21
3.4794834342
  0
LINE
  5
2F0
100
AcDbEntity
  8
03__ASM_ALL_CURVES
100
AcDbLine
 62
40
  6
CONTINUOUS
 10
5.3556407655
 20
3.3067284326
 11
5.3556407655
 21
3.3852534326
  0
LINE
  5
2F1
100
AcDbEntity
  8
03__ASM_ALL_CURVES
100
AcDbLine
 62
40
  6
CONTINUOUS
 10
5.3949032655
 20
3.372165931
 11
5.3949032655
 21
3.3590784342
  0
LINE
  5
2F2
100
AcDbEntity
  8
0
100
AcDbLine
 62
7
  6
CONTINUOUS
 10
4.911797012
 20
3.7176584326
 11
4.8566375549
 21
3.6221194505
  0
LINE
  5
2F3
100
AcDbEntity
  8
03__ASM_ALL_CURVES
100
AcDbLine
 62
40
  6
CONTINUOUS
 10
5.9894732622
 20
5.2414314326
 11
6.0025607622
 21
5.2588814347
  0
LINE
  5
2F4
100
AcDbEntity
  8
03__ASM_ALL_CURVES
100
AcDbLine
 62
40
  6
CONTINUOUS
 10
6.1465232622
 20
5.1716314329
 11
6.1334357622
 21
5.1629064326
  0
LINE
  5
2F5
100
AcDbEntity
  8
0
100
AcDbLine
 62
7
  6
CONTINUOUS
 10
5.7451534184
 20
3.7404885596
 11
5.7476534184
 21
3.7411584326
  0
LINE
  5
2F6
100
AcDbEntity
  8
0
100
AcDbLine
 62
7
  6
CONTINUOUS
 10
5.720797012
 20
3.7176584326
 11
5.658797012
 21
3.7176584326
  0
LINE
  5
2F7
100
AcDbEntity
  8
0
100
AcDbLine
 62
7
  6
CONTINUOUS
 10
5.284797012
 20
3.7176584326
 11
5.239797012
 21
3.7176584326
  0
LINE
  5
2F8
100
AcDbEntity
  8
0
100
AcDbLine
 62
7
  6
CONTINUOUS
 10
5.098797012
 20
3.7176584326
 11
4.911797012
 21
3.7176584326
  0
LINE
  5
2F9
100
AcDbEntity
  8
0
100
AcDbLine
 62
7
  6
CONTINUOUS
 10
5.098797012
 20
3.7191584326
 11
5.148797012
 21
3.7191584326
  0
LINE
  5
2FA
100
AcDbEntity
  8
THREAD
100
AcDbLine
 62
7
  6
CONTINUOUS
 10
5.770797012
 20
3.7411584326
 11
5.7476534184
 21
3.7411584326
  0
LINE
  5
2FB
100
AcDbEntity
  8
0
100
AcDbLine
 62
7
  6
CONTINUOUS
 10
5.840797012
 20
3.7436584326
 11
5.890797012
 21
3.7436584326
  0
LINE
  5
2FC
100
AcDbEntity
  8
0
100
AcDbLine
 62
7
  6
CONTINUOUS
 10
4.223797012
 20
3.7586584326
 11
3.785797012
 21
3.7586584326
  0
LINE
  5
2FD
100
AcDbEntity
  8
THREAD
100
AcDbLine
 62
7
  6
CONTINUOUS
 10
6.204797012
 20
3.7596584326
 11
5.9337363222
 21
3.7596584326
  0
LINE
  5
2FE
100
AcDbEntity
  8
0
100
AcDbLine
 62
7
  6
CONTINUOUS
 10
5.239797012
 20
3.7731584326
 11
5.218797012
 21
3.7731584326
  0
LINE
  5
2FF
100
AcDbEntity
  8
THREAD
100
AcDbLine
 62
7
  6
CONTINUOUS
 10
5.9042914585
 20
3.7976584326
 11
5.890797012
 21
3.7976584326
  0
LINE
  5
300
100
AcDbEntity
  8
0
100
AcDbLine
 62
7
  6
CONTINUOUS
 10
5.6373610766
 20
3.7976584326
 11
5.376797012
 21
3.7976584326
  0
LINE
  5
301
100
AcDbEntity
  8
0
100
AcDbLine
 62
7
  6
CONTINUOUS
 10
5.314797012
 20
3.7976584326
 11
5.3062329474
 21
3.7976584326
  0
LINE
  5
302
100
AcDbEntity
  8
THREAD
100
AcDbLine
 62
7
  6
CONTINUOUS
 10
6.332797012
 20
3.8036584326
 11
6.248797012
 21
3.8036584326
  0
LINE
  5
303
100
AcDbEntity
  8
0
100
AcDbLine
 62
7
  6
CONTINUOUS
 10
7.083797012
 20
3.8191584326
 11
7.040797012
 21
3.8191584326
  0
LINE
  5
304
100
AcDbEntity
  8
0
100
AcDbLine
 62
7
  6
CONTINUOUS
 10
6.839297012
 20
3.8191584326
 11
6.789297012
 21
3.8191584326
  0
LINE
  5
305
100
AcDbEntity
  8
0
100
AcDbLine
 62
7
  6
CONTINUOUS
 10
6.842797012
 20
3.8196584326
 11
6.892797012
 21
3.8196584326
  0
LINE
  5
306
100
AcDbEntity
  8
0
100
AcDbLine
 62
7
  6
CONTINUOUS
 10
6.962797012
 20
3.8196584326
 11
7.012797012
 21
3.8196584326
  0
LINE
  5
307
100
AcDbEntity
  8
0
100
AcDbLine
 62
7
  6
CONTINUOUS
 10
7.012797012
 20
3.8736584326
 11
7.040797012
 21
3.8736584326
  0
LINE
  5
308
100
AcDbEntity
  8
0
100
AcDbLine
 62
7
  6
CONTINUOUS
 10
6.348797012
 20
3.8816584326
 11
6.613797012
 21
3.8816584326
  0
LINE
  5
309
100
AcDbEntity
  8
0
100
AcDbLine
 62
7
  6
CONTINUOUS
 10
6.769797012
 20
3.8816584326
 11
6.785797012
 21
3.8816584326
  0
LINE
  5
30A
100
AcDbEntity
  8
03__ASM_ALL_CURVES
100
AcDbLine
 62
40
  6
CONTINUOUS
 10
4.520653262
 20
5.1716314329
 11
4.527197012
 21
5.1629064326
  0
LINE
  5
30B
100
AcDbEntity
  8
03__ASM_ALL_CURVES
100
AcDbLine
 62
40
  6
CONTINUOUS
 10
4.612265762
 20
5.1716314329
 11
4.605722012
 21
5.1803564331
  0
LINE
  5
30C
100
AcDbEntity
  8
0
100
AcDbLine
 62
7
  6
CONTINUOUS
 10
4.911797012
 20
4.7936584326
 11
4.8566375549
 21
4.8891974147
  0
LINE
  5
30D
100
AcDbEntity
  8
03__ASM_ALL_CURVES
100
AcDbLine
 62
40
  6
CONTINUOUS
 10
5.4317118572
 20
3.4271334326
 11
5.4317118572
 21
3.5056584326
  0
LINE
  5
30E
100
AcDbEntity
  8
03__ASM_ALL_CURVES
100
AcDbLine
 62
40
  6
CONTINUOUS
 10
5.4709743572
 20
3.492570931
 11
5.4709743572
 21
3.4794834342
  0
LINE
  5
30F
100
AcDbEntity
  8
03__ASM_ALL_CURVES
100
AcDbLine
 62
40
  6
CONTINUOUS
 10
5.5298681072
 20
3.5056584326
 11
5.5298681072
 21
3.4271334326
  0
LINE
  5
310
100
AcDbEntity
  8
03__ASM_ALL_CURVES
100
AcDbLine
 62
40
  6
CONTINUOUS
 10
5.5323220155
 20
3.3852534326
 11
5.5323220155
 21
3.3067284326
  0
LINE
  5
311
100
AcDbEntity
  8
03__ASM_ALL_CURVES
100
AcDbLine
 62
40
  6
CONTINUOUS
 10
5.5912157655
 20
3.3067284326
 11
5.5912157655
 21
3.3852534326
  0
LINE
  5
312
100
AcDbEntity
  8
03__ASM_ALL_CURVES
100
AcDbLine
 62
40
  6
CONTINUOUS
 10
5.598157012
 20
5.1419664326
 11
5.598157012
 21
5.1000864326
  0
LINE
  5
313
100
AcDbEntity
  8
03__ASM_ALL_CURVES
100
AcDbLine
 62
40
  6
CONTINUOUS
 10
5.3433712322
 20
3.4663959326
 11
5.3482790447
 21
3.4860271826
  0
LINE
  5
314
100
AcDbEntity
  8
03__ASM_ALL_CURVES
100
AcDbLine
 62
40
  6
CONTINUOUS
 10
5.321286078
 20
3.3459909326
 11
5.3163782655
 21
3.3263596826
  0
LINE
  5
315
100
AcDbEntity
  8
03__ASM_ALL_CURVES
100
AcDbLine
 62
40
  6
CONTINUOUS
 10
5.4022649822
 20
3.4663959326
 11
5.3973571697
 21
3.4467646826
  0
LINE
  5
316
100
AcDbEntity
  8
0
100
AcDbLine
 62
7
  6
CONTINUOUS
 10
5.3062329474
 20
3.7976584326
 11
5.284797012
 21
3.7176584326
  0
LINE
  5
317
100
AcDbEntity
  8
0
100
AcDbLine
 62
7
  6
CONTINUOUS
 10
5.658797012
 20
4.7936584326
 11
5.6373610766
 21
4.7136584326
  0
LINE
  5
318
100
AcDbEntity
  8
03__ASM_ALL_CURVES
100
AcDbLine
 62
40
  6
CONTINUOUS
 10
6.0549107622
 20
5.1890814326
 11
6.0418232622
 21
5.1716314329
  0
LINE
  5
319
100
AcDbEntity
  8
03__ASM_ALL_CURVES
100
AcDbLine
 62
40
  6
CONTINUOUS
 10
6.0941732622
 20
5.2414314326
 11
6.1072607622
 21
5.2588814347
  0
LINE
  5
31A
100
AcDbEntity
  8
03__ASM_ALL_CURVES
100
AcDbLine
 62
40
  6
CONTINUOUS
 10
6.1530670122
 20
5.1803564331
 11
6.1465232622
 21
5.1716314329
  0
LINE
  5
31B
100
AcDbEntity
  8
03__ASM_ALL_CURVES
100
AcDbLine
 62
40
  6
CONTINUOUS
 10
6.6307607622
 20
5.2588814347
 11
6.6438482622
 21
5.2676064326
  0
LINE
  5
31C
100
AcDbEntity
  8
03__ASM_ALL_CURVES
100
AcDbLine
 62
40
  6
CONTINUOUS
 10
6.6700232622
 20
5.1716314329
 11
6.6569357622
 21
5.1629064326
  0
LINE
  5
31D
100
AcDbEntity
  8
03__ASM_ALL_CURVES
100
AcDbLine
 62
40
  6
CONTINUOUS
 10
6.8532482622
 20
5.2676064326
 11
6.8401607622
 21
5.2588814347
  0
LINE
  5
31E
100
AcDbEntity
  8
0
100
AcDbLine
 62
7
  6
CONTINUOUS
 10
4.8563713861
 20
3.9147937421
 11
4.2694076832
 21
3.9147937421
  0
LINE
  5
31F
100
AcDbEntity
  8
0
100
AcDbLine
 62
7
  6
CONTINUOUS
 10
4.8563713861
 20
3.9631378137
 11
4.2694076832
 21
3.9631378137
  0
LINE
  5
320
100
AcDbEntity
  8
0
100
AcDbLine
 62
7
  6
CONTINUOUS
 10
3.516797012
 20
3.9746584326
 11
3.6870207337
 21
3.9746584326
  0
LINE
  5
321
100
AcDbEntity
  8
0
100
AcDbLine
 62
7
  6
CONTINUOUS
 10
3.723797012
 20
3.9846584326
 11
3.692797012
 21
3.9846584326
  0
LINE
  5
322
100
AcDbEntity
  8
0
100
AcDbLine
 62
7
  6
CONTINUOUS
 10
3.479797012
 20
3.9846584326
 11
3.473797012
 21
3.9846584326
  0
LINE
  5
323
100
AcDbEntity
  8
0
100
AcDbLine
 62
7
  6
CONTINUOUS
 10
3.501297012
 20
3.9901584326
 11
3.485297012
 21
3.9901584326
  0
LINE
  5
324
100
AcDbEntity
  8
0
100
AcDbLine
 62
7
  6
CONTINUOUS
 10
2.942797012
 20
4.0716584326
 11
3.141797012
 21
4.0716584326
  0
LINE
  5
325
100
AcDbEntity
  8
0
100
AcDbLine
 62
7
  6
CONTINUOUS
 10
3.179797012
 20
4.0716584326
 11
3.411797012
 21
4.0716584326
  0
LINE
  5
326
100
AcDbEntity
  8
DEFAULT_2
100
AcDbLine
 62
8
  6
HIDDEN
 10
3.141797012
 20
4.0856584326
 11
3.1455999844
 21
4.0856584326
  0
LINE
  5
327
100
AcDbEntity
  8
DEFAULT_2
100
AcDbLine
 62
8
  6
HIDDEN
 10
3.1759940396
 20
4.0856584326
 11
3.179797012
 21
4.0856584326
  0
LINE
  5
328
100
AcDbEntity
  8
0
100
AcDbLine
 62
7
  6
CONTINUOUS
 10
3.141797012
 20
4.1046584326
 11
3.143297012
 21
4.1046584326
  0
LINE
  5
329
100
AcDbEntity
  8
0
100
AcDbLine
 62
7
  6
CONTINUOUS
 10
3.178297012
 20
4.1046584326
 11
3.179797012
 21
4.1046584326
  0
LINE
  5
32A
100
AcDbEntity
  8
03__ASM_ALL_CURVES
100
AcDbLine
 62
40
  6
CONTINUOUS
 10
6.4403641993
 20
3.4271334326
 11
6.4305485743
 21
3.4336771828
  0
LINE
  5
32B
100
AcDbEntity
  8
03__ASM_ALL_CURVES
100
AcDbLine
 62
40
  6
CONTINUOUS
 10
6.3716548243
 20
3.5056584326
 11
6.3814704493
 21
3.4991146842
  0
LINE
  5
32C
100
AcDbEntity
  8
03__ASM_ALL_CURVES
100
AcDbLine
 62
40
  6
CONTINUOUS
 10
3.800840762
 20
5.2676064326
 11
3.813928262
 21
5.2588814347
  0
LINE
  5
32D
100
AcDbEntity
  8
03__ASM_ALL_CURVES
100
AcDbLine
 62
40
  6
CONTINUOUS
 10
6.4501798243
 20
3.5056584326
 11
6.4599954493
 21
3.4991146842
  0
LINE
  5
32E
100
AcDbEntity
  8
03__ASM_ALL_CURVES
100
AcDbLine
 62
40
  6
CONTINUOUS
 10
3.997153262
 20
5.1629064326
 11
3.984065762
 21
5.1716314329
  0
LINE
  5
32F
100
AcDbEntity
  8
03__ASM_ALL_CURVES
100
AcDbLine
 62
40
  6
CONTINUOUS
 10
6.5287048243
 20
3.5056584326
 11
6.5385204493
 21
3.4991146842
  0
LINE
  5
330
100
AcDbEntity
  8
03__ASM_ALL_CURVES
100
AcDbLine
 62
40
  6
CONTINUOUS
 10
3.997153262
 20
5.2239814305
 11
3.984065762
 21
5.2327064347
  0
LINE
  5
331
100
AcDbEntity
  8
03__ASM_ALL_CURVES
100
AcDbLine
 62
40
  6
CONTINUOUS
 10
4.010240762
 20
5.2239814305
 11
4.023328262
 21
5.2152564326
  0
LINE
  5
332
100
AcDbEntity
  8
03__ASM_ALL_CURVES
100
AcDbLine
 62
40
  6
CONTINUOUS
 10
4.010240762
 20
5.2676064326
 11
4.023328262
 21
5.2588814347
  0
LINE
  5
333
100
AcDbEntity
  8
03__ASM_ALL_CURVES
100
AcDbLine
 62
40
  6
CONTINUOUS
 10
4.651528262
 20
5.2152564326
 11
4.664615762
 21
5.1978064336
  0
LINE
  5
334
100
AcDbEntity
  8
03__ASM_ALL_CURVES
100
AcDbLine
 62
40
  6
CONTINUOUS
 10
4.651528262
 20
5.2588814347
 11
4.658072012
 21
5.2501564305
  0
LINE
  5
335
100
AcDbEntity
  8
03__ASM_ALL_CURVES
100
AcDbLine
 62
40
  6
CONTINUOUS
 10
4.834753262
 20
5.2676064326
 11
4.847840762
 21
5.2501564305
  0
LINE
  5
336
100
AcDbEntity
  8
0
100
AcDbLine
 62
7
  6
CONTINUOUS
 10
5.3062329474
 20
4.7136584326
 11
5.284797012
 21
4.7936584326
  0
LINE
  5
337
100
AcDbEntity
  8
0
100
AcDbLine
 62
7
  6
CONTINUOUS
 10
5.658797012
 20
3.7176584326
 11
5.6373610766
 21
3.7976584326
  0
LINE
  5
338
100
AcDbEntity
  8
03__ASM_ALL_CURVES
100
AcDbLine
 62
40
  6
CONTINUOUS
 10
5.6280243572
 20
3.492570931
 11
5.6280243572
 21
3.4860271826
  0
LINE
  5
339
100
AcDbEntity
  8
03__ASM_ALL_CURVES
100
AcDbLine
 62
40
  6
CONTINUOUS
 10
5.6304782655
 20
3.3067284326
 11
5.6304782655
 21
3.3852534326
  0
LINE
  5
33A
100
AcDbEntity
  8
03__ASM_ALL_CURVES
100
AcDbLine
 62
40
  6
CONTINUOUS
 10
5.6329321697
 20
3.4533084334
 11
5.6329321697
 21
3.4467646826
  0
LINE
  5
33B
100
AcDbEntity
  8
0
100
AcDbLine
 62
7
  6
CONTINUOUS
 10
5.6373610766
 20
3.7976584326
 11
5.6373610766
 21
4.7136584326
  0
LINE
  5
33C
100
AcDbEntity
  8
0
100
AcDbLine
 62
7
  6
CONTINUOUS
 10
5.658797012
 20
3.7176584326
 11
5.658797012
 21
4.7936584326
  0
LINE
  5
33D
100
AcDbEntity
  8
0
100
AcDbLine
 62
7
  6
CONTINUOUS
 10
5.720797012
 20
4.7936584326
 11
5.720797012
 21
3.7176584326
  0
LINE
  5
33E
100
AcDbEntity
  8
0
100
AcDbLine
 62
7
  6
CONTINUOUS
 10
5.723797012
 20
4.7906584326
 11
5.723797012
 21
3.7206584326
  0
LINE
  5
33F
100
AcDbEntity
  8
03__ASM_ALL_CURVES
100
AcDbLine
 62
40
  6
CONTINUOUS
 10
5.723797012
 20
4.8145984326
 11
5.723797012
 21
5.1629064326
  0
LINE
  5
340
100
AcDbEntity
  8
0
100
AcDbLine
 62
7
  6
CONTINUOUS
 10
5.726297012
 20
3.7296018083
 11
5.726297012
 21
4.7817150569
  0
LINE
  5
341
100
AcDbEntity
  8
0
100
AcDbLine
 62
7
  6
CONTINUOUS
 10
5.745153412
 20
4.7701584566
 11
5.7451534184
 21
4.7708283056
  0
LINE
  5
342
100
AcDbEntity
  8
0
100
AcDbLine
 62
7
  6
CONTINUOUS
 10
5.7451534184
 20
3.7404885596
 11
5.745153412
 21
4.7701584566
  0
LINE
  5
343
100
AcDbEntity
  8
0
100
AcDbLine
 62
7
  6
CONTINUOUS
 10
5.7476534184
 20
3.7411584326
 11
5.7476534184
 21
4.7701584326
  0
LINE
  5
344
100
AcDbEntity
  8
THREAD
100
AcDbLine
 62
7
  6
CONTINUOUS
 10
5.770797012
 20
3.7411584326
 11
5.770797012
 21
4.7701584326
  0
LINE
  5
345
100
AcDbEntity
  8
03__ASM_ALL_CURVES
100
AcDbLine
 62
40
  6
CONTINUOUS
 10
5.9829295122
 20
5.2152564326
 11
5.9894732622
 21
5.2414314326
  0
LINE
  5
346
100
AcDbEntity
  8
03__ASM_ALL_CURVES
100
AcDbLine
 62
40
  6
CONTINUOUS
 10
6.0614545122
 20
5.2152564326
 11
6.0549107622
 21
5.1890814326
  0
LINE
  5
347
100
AcDbEntity
  8
03__ASM_ALL_CURVES
100
AcDbLine
 62
40
  6
CONTINUOUS
 10
5.429257953
 20
3.3067284326
 11
5.4537970155
 21
3.3852534326
  0
LINE
  5
348
100
AcDbEntity
  8
THREAD
100
AcDbLine
 62
7
  6
CONTINUOUS
 10
5.9337363222
 20
4.7516584326
 11
5.9155497887
 21
4.7201584326
  0
LINE
  5
349
100
AcDbEntity
  8
03__ASM_ALL_CURVES
100
AcDbLine
 62
40
  6
CONTINUOUS
 10
6.8794232622
 20
5.1716314329
 11
6.8663357622
 21
5.1629064326
  0
LINE
  5
34A
100
AcDbEntity
  8
03__ASM_ALL_CURVES
100
AcDbLine
 62
40
  6
CONTINUOUS
 10
7.0495607622
 20
5.2588814347
 11
7.0626482622
 21
5.2676064326
  0
LINE
  5
34B
100
AcDbEntity
  8
03__ASM_ALL_CURVES
100
AcDbLine
 62
40
  6
CONTINUOUS
 10
7.0888232622
 20
5.1716314329
 11
7.0757357622
 21
5.1629064326
  0
LINE
  5
34C
100
AcDbEntity
  8
03__ASM_ALL_CURVES
100
AcDbLine
 62
40
  6
CONTINUOUS
 10
8.6909345122
 20
4.1561934326
 11
8.6516720122
 21
4.1561934326
  0
LINE
  5
34D
100
AcDbEntity
  8
03__ASM_ALL_CURVES
100
AcDbLine
 62
40
  6
CONTINUOUS
 10
8.5191610747
 20
4.1561934326
 11
8.5093454497
 21
4.1561934326
  0
LINE
  5
34E
100
AcDbEntity
  8
03__ASM_ALL_CURVES
100
AcDbLine
 62
40
  6
CONTINUOUS
 10
8.4406360747
 20
4.1561934326
 11
8.4308204497
 21
4.1561934326
  0
LINE
  5
34F
100
AcDbEntity
  8
03__ASM_ALL_CURVES
100
AcDbLine
 62
40
  6
CONTINUOUS
 10
8.3621110747
 20
4.1561934326
 11
8.3522954497
 21
4.1561934326
  0
LINE
  5
350
100
AcDbEntity
  8
03__ASM_ALL_CURVES
100
AcDbLine
 62
40
  6
CONTINUOUS
 10
8.2983095122
 20
4.1561934326
 11
8.2590470122
 21
4.1561934326
  0
LINE
  5
351
100
AcDbEntity
  8
03__ASM_ALL_CURVES
100
AcDbLine
 62
40
  6
CONTINUOUS
 10
7.9645782622
 20
4.1561934326
 11
7.9449470122
 21
4.1561934326
  0
LINE
  5
352
100
AcDbEntity
  8
03__ASM_ALL_CURVES
100
AcDbLine
 62
40
  6
CONTINUOUS
 10
7.9056845122
 20
4.1561934326
 11
7.8664220122
 21
4.1561934326
  0
LINE
  5
353
100
AcDbEntity
  8
03__ASM_ALL_CURVES
100
AcDbLine
 62
40
  6
CONTINUOUS
 10
7.8124360747
 20
4.1561934326
 11
7.8026204497
 21
4.1561934326
  0
LINE
  5
354
100
AcDbEntity
  8
03__ASM_ALL_CURVES
100
AcDbLine
 62
40
  6
CONTINUOUS
 10
7.7339110747
 20
4.1561934326
 11
7.7240954497
 21
4.1561934326
  0
LINE
  5
355
100
AcDbEntity
  8
03__ASM_ALL_CURVES
100
AcDbLine
 62
40
  6
CONTINUOUS
 10
7.6504782622
 20
4.1561934326
 11
7.6308470122
 21
4.1561934326
  0
LINE
  5
356
100
AcDbEntity
  8
03__ASM_ALL_CURVES
100
AcDbLine
 62
40
  6
CONTINUOUS
 10
7.5915845122
 20
4.1561934326
 11
7.5523220122
 21
4.1561934326
  0
LINE
  5
357
100
AcDbEntity
  8
03__ASM_ALL_CURVES
100
AcDbLine
 62
40
  6
CONTINUOUS
 10
8.5976860747
 20
4.1954559326
 11
8.5731470122
 21
4.1954559326
  0
LINE
  5
358
100
AcDbEntity
  8
03__ASM_ALL_CURVES
100
AcDbLine
 62
40
  6
CONTINUOUS
 10
8.2050610747
 20
4.1954559326
 11
8.1805220122
 21
4.1954559326
  0
LINE
  5
359
100
AcDbEntity
  8
03__ASM_ALL_CURVES
100
AcDbLine
 62
40
  6
CONTINUOUS
 10
8.1265360747
 20
4.1954559326
 11
8.1019970122
 21
4.1954559326
  0
LINE
  5
35A
100
AcDbEntity
  8
03__ASM_ALL_CURVES
100
AcDbLine
 62
40
  6
CONTINUOUS
 10
7.4983360747
 20
4.1954559326
 11
7.4737970122
 21
4.1954559326
  0
LINE
  5
35B
100
AcDbEntity
  8
03__ASM_ALL_CURVES
100
AcDbLine
 62
40
  6
CONTINUOUS
 10
7.5523220122
 20
4.1954559326
 11
7.5768610747
 21
4.1954559326
  0
LINE
  5
35C
100
AcDbEntity
  8
03__ASM_ALL_CURVES
100
AcDbLine
 62
40
  6
CONTINUOUS
 10
7.8664220122
 20
4.1954559326
 11
7.8909610747
 21
4.1954559326
  0
LINE
  5
35D
100
AcDbEntity
  8
03__ASM_ALL_CURVES
100
AcDbLine
 62
40
  6
CONTINUOUS
 10
8.2590470122
 20
4.1954559326
 11
8.2835860747
 21
4.1954559326
  0
LINE
  5
35E
100
AcDbEntity
  8
03__ASM_ALL_CURVES
100
AcDbLine
 62
40
  6
CONTINUOUS
 10
8.6516720122
 20
4.1954559326
 11
8.6762110747
 21
4.1954559326
  0
LINE
  5
35F
100
AcDbEntity
  8
03__ASM_ALL_CURVES
100
AcDbLine
 62
40
  6
CONTINUOUS
 10
8.4406360747
 20
4.2347184326
 11
8.4308204497
 21
4.2347184326
  0
LINE
  5
360
100
AcDbEntity
  8
03__ASM_ALL_CURVES
100
AcDbLine
 62
40
  6
CONTINUOUS
 10
8.3621110747
 20
4.2347184326
 11
8.3522954497
 21
4.2347184326
  0
LINE
  5
361
100
AcDbEntity
  8
03__ASM_ALL_CURVES
100
AcDbLine
 62
40
  6
CONTINUOUS
 10
7.4737970122
 20
4.2347184326
 11
7.4983360747
 21
4.2347184326
  0
LINE
  5
362
100
AcDbEntity
  8
03__ASM_ALL_CURVES
100
AcDbLine
 62
40
  6
CONTINUOUS
 10
7.5523220122
 20
4.2347184326
 11
7.5915845122
 21
4.2347184326
  0
LINE
  5
363
100
AcDbEntity
  8
03__ASM_ALL_CURVES
100
AcDbLine
 62
40
  6
CONTINUOUS
 10
7.6308470122
 20
4.2347184326
 11
7.6504782622
 21
4.2347184326
  0
LINE
  5
364
100
AcDbEntity
  8
03__ASM_ALL_CURVES
100
AcDbLine
 62
40
  6
CONTINUOUS
 10
7.8026204497
 20
4.2347184326
 11
7.8124360747
 21
4.2347184326
  0
LINE
  5
365
100
AcDbEntity
  8
03__ASM_ALL_CURVES
100
AcDbLine
 62
40
  6
CONTINUOUS
 10
7.8664220122
 20
4.2347184326
 11
7.9056845122
 21
4.2347184326
  0
LINE
  5
366
100
AcDbEntity
  8
03__ASM_ALL_CURVES
100
AcDbLine
 62
40
  6
CONTINUOUS
 10
7.9449470122
 20
4.2347184326
 11
7.9645782622
 21
4.2347184326
  0
LINE
  5
367
100
AcDbEntity
  8
03__ASM_ALL_CURVES
100
AcDbLine
 62
40
  6
CONTINUOUS
 10
8.1019970122
 20
4.2347184326
 11
8.1265360747
 21
4.2347184326
  0
LINE
  5
368
100
AcDbEntity
  8
03__ASM_ALL_CURVES
100
AcDbLine
 62
40
  6
CONTINUOUS
 10
8.1805220122
 20
4.2347184326
 11
8.2050610747
 21
4.2347184326
  0
LINE
  5
369
100
AcDbEntity
  8
03__ASM_ALL_CURVES
100
AcDbLine
 62
40
  6
CONTINUOUS
 10
8.2590470122
 20
4.2347184326
 11
8.2983095122
 21
4.2347184326
  0
LINE
  5
36A
100
AcDbEntity
  8
03__ASM_ALL_CURVES
100
AcDbLine
 62
40
  6
CONTINUOUS
 10
8.5731470122
 20
4.2347184326
 11
8.5976860747
 21
4.2347184326
  0
LINE
  5
36B
100
AcDbEntity
  8
03__ASM_ALL_CURVES
100
AcDbLine
 62
40
  6
CONTINUOUS
 10
8.6516720122
 20
4.2347184326
 11
8.6909345122
 21
4.2347184326
  0
LINE
  5
36C
100
AcDbEntity
  8
0
100
AcDbLine
 62
7
  6
CONTINUOUS
 10
3.6619256016
 20
4.2556584326
 11
3.5602678633
 21
4.2556584326
  0
LINE
  5
36D
100
AcDbEntity
  8
03__ASM_ALL_CURVES
100
AcDbLine
 62
40
  6
CONTINUOUS
 10
7.5768610747
 20
4.2765984326
 11
7.5670454497
 21
4.2765984326
  0
LINE
  5
36E
100
AcDbEntity
  8
03__ASM_ALL_CURVES
100
AcDbLine
 62
40
  6
CONTINUOUS
 10
6.6857548243
 20
3.5056584326
 11
6.6955704493
 21
3.4991146842
  0
LINE
  5
36F
100
AcDbEntity
  8
03__ASM_ALL_CURVES
100
AcDbLine
 62
40
  6
CONTINUOUS
 10
6.4305485743
 20
3.4336771828
 11
6.4207329493
 21
3.4467646826
  0
LINE
  5
370
100
AcDbEntity
  8
03__ASM_ALL_CURVES
100
AcDbLine
 62
40
  6
CONTINUOUS
 10
6.3814704493
 20
3.4991146842
 11
6.3863782618
 21
3.492570931
  0
LINE
  5
371
100
AcDbEntity
  8
THREAD
100
AcDbLine
 62
7
  6
CONTINUOUS
 10
5.9337363222
 20
3.7596584326
 11
5.9155497887
 21
3.7911584326
  0
LINE
  5
372
100
AcDbEntity
  8
0
100
AcDbLine
 62
7
  6
CONTINUOUS
 10
5.840797012
 20
3.7436584326
 11
5.840797012
 21
4.7676584326
  0
LINE
  5
373
100
AcDbEntity
  8
03__ASM_ALL_CURVES
100
AcDbLine
 62
40
  6
CONTINUOUS
 10
5.849437012
 20
5.1419664326
 11
5.849437012
 21
5.1000864326
  0
LINE
  5
374
100
AcDbEntity
  8
0
100
AcDbLine
 62
7
  6
CONTINUOUS
 10
5.890797012
 20
3.7436584326
 11
5.890797012
 21
4.7676584326
  0
LINE
  5
375
100
AcDbEntity
  8
03__ASM_ALL_CURVES
100
AcDbLine
 62
40
  6
CONTINUOUS
 10
5.8913170122
 20
5.2676064326
 11
5.8913170122
 21
5.1629064326
  0
LINE
  5
376
100
AcDbEntity
  8
THREAD
100
AcDbLine
 62
7
  6
CONTINUOUS
 10
5.9042914585
 20
3.7976584326
 11
5.9042914585
 21
4.7136584326
  0
LINE
  5
377
100
AcDbEntity
  8
THREAD
100
AcDbLine
 62
7
  6
CONTINUOUS
 10
5.9155497887
 20
3.7911584326
 11
5.9155497887
 21
4.7201584326
  0
LINE
  5
378
100
AcDbEntity
  8
THREAD
100
AcDbLine
 62
7
  6
CONTINUOUS
 10
5.9337363222
 20
3.7596584326
 11
5.9337363222
 21
4.7516584326
  0
LINE
  5
379
100
AcDbEntity
  8
03__ASM_ALL_CURVES
100
AcDbLine
 62
40
  6
CONTINUOUS
 10
6.0876295122
 20
5.2152564326
 11
6.0941732622
 21
5.2414314326
  0
LINE
  5
37A
100
AcDbEntity
  8
03__ASM_ALL_CURVES
100
AcDbLine
 62
40
  6
CONTINUOUS
 10
6.1988732622
 20
5.1629064326
 11
6.2315920122
 21
5.2676064326
  0
LINE
  5
37B
100
AcDbEntity
  8
03__ASM_ALL_CURVES
100
AcDbLine
 62
40
  6
CONTINUOUS
 10
6.6176732622
 20
5.2414314326
 11
6.6307607622
 21
5.2588814347
  0
LINE
  5
37C
100
AcDbEntity
  8
03__ASM_ALL_CURVES
100
AcDbLine
 62
40
  6
CONTINUOUS
 10
5.3139243572
 20
3.4794834342
 11
5.3090165447
 21
3.472939681
  0
LINE
  5
37D
100
AcDbEntity
  8
03__ASM_ALL_CURVES
100
AcDbLine
 62
40
  6
CONTINUOUS
 10
5.3482790447
 20
3.4860271826
 11
5.3580946697
 21
3.4991146842
  0
LINE
  5
37E
100
AcDbEntity
  8
03__ASM_ALL_CURVES
100
AcDbLine
 62
40
  6
CONTINUOUS
 10
6.6765670122
 20
5.1803564331
 11
6.6700232622
 21
5.1716314329
  0
LINE
  5
37F
100
AcDbEntity
  8
03__ASM_ALL_CURVES
100
AcDbLine
 62
40
  6
CONTINUOUS
 10
5.3973571697
 20
3.4467646826
 11
5.3875415447
 21
3.4336771828
  0
LINE
  5
380
100
AcDbEntity
  8
03__ASM_ALL_CURVES
100
AcDbLine
 62
40
  6
CONTINUOUS
 10
5.3163782655
 20
3.3263596826
 11
5.3065626405
 21
3.3132721828
  0
LINE
  5
381
100
AcDbEntity
  8
03__ASM_ALL_CURVES
100
AcDbLine
 62
40
  6
CONTINUOUS
 10
5.4709743572
 20
3.4794834342
 11
5.4660665447
 21
3.472939681
  0
LINE
  5
382
100
AcDbEntity
  8
03__ASM_ALL_CURVES
100
AcDbLine
 62
40
  6
CONTINUOUS
 10
7.1935232622
 20
5.1716314329
 11
7.1804357622
 21
5.1629064326
  0
LINE
  5
383
100
AcDbEntity
  8
03__ASM_ALL_CURVES
100
AcDbLine
 62
40
  6
CONTINUOUS
 10
7.3963795122
 20
5.1716314329
 11
7.3832920122
 21
5.1629064326
  0
LINE
  5
384
100
AcDbEntity
  8
03__ASM_ALL_CURVES
100
AcDbLine
 62
40
  6
CONTINUOUS
 10
7.6123232622
 20
5.2239814305
 11
7.5992357622
 21
5.2152564326
  0
LINE
  5
385
100
AcDbEntity
  8
03__ASM_ALL_CURVES
100
AcDbLine
 62
40
  6
CONTINUOUS
 10
7.6553860747
 20
4.3158609326
 11
7.6308470122
 21
4.3158609326
  0
LINE
  5
386
100
AcDbEntity
  8
03__ASM_ALL_CURVES
100
AcDbLine
 62
40
  6
CONTINUOUS
 10
7.4983360747
 20
4.3158609326
 11
7.4737970122
 21
4.3158609326
  0
LINE
  5
387
100
AcDbEntity
  8
03__ASM_ALL_CURVES
100
AcDbLine
 62
40
  6
CONTINUOUS
 10
7.4737970122
 20
4.3551234326
 11
7.4983360747
 21
4.3551234326
  0
LINE
  5
388
100
AcDbEntity
  8
03__ASM_ALL_CURVES
100
AcDbLine
 62
40
  6
CONTINUOUS
 10
7.5670454497
 20
4.3551234326
 11
7.5768610747
 21
4.3551234326
  0
LINE
  5
389
100
AcDbEntity
  8
03__ASM_ALL_CURVES
100
AcDbLine
 62
40
  6
CONTINUOUS
 10
7.6308470122
 20
4.3551234326
 11
7.6553860747
 21
4.3551234326
  0
LINE
  5
38A
100
AcDbEntity
  8
03__ASM_ALL_CURVES
100
AcDbLine
 62
40
  6
CONTINUOUS
 10
7.7044641997
 20
4.3551234326
 11
7.7535423247
 21
4.3551234326
  0
LINE
  5
38B
100
AcDbEntity
  8
0
100
AcDbLine
 62
7
  6
CONTINUOUS
 10
3.141797012
 20
4.4066584326
 11
3.179797012
 21
4.4066584326
  0
LINE
  5
38C
100
AcDbEntity
  8
DEFAULT_2
100
AcDbLine
 62
8
  6
HIDDEN
 10
3.141797012
 20
4.4256584326
 11
3.179797012
 21
4.4256584326
  0
LINE
  5
38D
100
AcDbEntity
  8
0
100
AcDbLine
 62
7
  6
CONTINUOUS
 10
2.942797012
 20
4.4396584326
 11
3.141797012
 21
4.4396584326
  0
LINE
  5
38E
100
AcDbEntity
  8
0
100
AcDbLine
 62
7
  6
CONTINUOUS
 10
3.179797012
 20
4.4396584326
 11
3.411797012
 21
4.4396584326
  0
LINE
  5
38F
100
AcDbEntity
  8
03__ASM_ALL_CURVES
100
AcDbLine
 62
40
  6
CONTINUOUS
 10
4.625353262
 20
5.1629064326
 11
4.612265762
 21
5.1716314329
  0
LINE
  5
390
100
AcDbEntity
  8
03__ASM_ALL_CURVES
100
AcDbLine
 62
40
  6
CONTINUOUS
 10
4.638440762
 20
5.2239814305
 11
4.651528262
 21
5.2152564326
  0
LINE
  5
391
100
AcDbEntity
  8
03__ASM_ALL_CURVES
100
AcDbLine
 62
40
  6
CONTINUOUS
 10
4.638440762
 20
5.2676064326
 11
4.651528262
 21
5.2588814347
  0
LINE
  5
392
100
AcDbEntity
  8
03__ASM_ALL_CURVES
100
AcDbLine
 62
40
  6
CONTINUOUS
 10
6.4599954493
 20
3.4991146842
 11
6.4698110743
 21
3.4860271826
  0
LINE
  5
393
100
AcDbEntity
  8
03__ASM_ALL_CURVES
100
AcDbLine
 62
40
  6
CONTINUOUS
 10
6.5385204493
 20
3.4991146842
 11
6.5434282618
 21
3.492570931
  0
LINE
  5
394
100
AcDbEntity
  8
03__ASM_ALL_CURVES
100
AcDbLine
 62
40
  6
CONTINUOUS
 10
6.4133712519
 20
3.3852534326
 11
6.4526337519
 21
3.3067284326
  0
LINE
  5
395
100
AcDbEntity
  8
THREAD
100
AcDbLine
 62
7
  6
CONTINUOUS
 10
6.204797012
 20
3.7596584326
 11
6.204797012
 21
4.7516584326
  0
LINE
  5
396
100
AcDbEntity
  8
03__ASM_ALL_CURVES
100
AcDbLine
 62
40
  6
CONTINUOUS
 10
5.3949032655
 20
3.3590784342
 11
5.389995453
 21
3.352534681
  0
LINE
  5
397
100
AcDbEntity
  8
03__ASM_ALL_CURVES
100
AcDbLine
 62
40
  6
CONTINUOUS
 10
6.8401607622
 20
5.2588814347
 11
6.8336170122
 21
5.2501564305
  0
LINE
  5
398
100
AcDbEntity
  8
03__ASM_ALL_CURVES
100
AcDbLine
 62
40
  6
CONTINUOUS
 10
6.8859670122
 20
5.1803564331
 11
6.8794232622
 21
5.1716314329
  0
LINE
  5
399
100
AcDbEntity
  8
03__ASM_ALL_CURVES
100
AcDbLine
 62
40
  6
CONTINUOUS
 10
5.6280243572
 20
3.4860271826
 11
5.6231165447
 21
3.4794834342
  0
LINE
  5
39A
100
AcDbEntity
  8
03__ASM_ALL_CURVES
100
AcDbLine
 62
40
  6
CONTINUOUS
 10
5.6329321697
 20
3.4467646826
 11
5.6231165447
 21
3.4336771828
  0
LINE
  5
39B
100
AcDbEntity
  8
03__ASM_ALL_CURVES
100
AcDbLine
 62
40
  6
CONTINUOUS
 10
7.0364732622
 20
5.2414314326
 11
7.0495607622
 21
5.2588814347
  0
LINE
  5
39C
100
AcDbEntity
  8
0
100
AcDbLine
 62
7
  6
CONTINUOUS
 10
6.789297012
 20
4.6921584326
 11
6.785797012
 21
4.6886584326
  0
LINE
  5
39D
100
AcDbEntity
  8
03__ASM_ALL_CURVES
100
AcDbLine
 62
40
  6
CONTINUOUS
 10
5.3090165447
 20
3.472939681
 11
5.2992009197
 21
3.4663959326
  0
LINE
  5
39E
100
AcDbEntity
  8
03__ASM_ALL_CURVES
100
AcDbLine
 62
40
  6
CONTINUOUS
 10
5.3580946697
 20
3.4991146842
 11
5.3679102947
 21
3.5056584326
  0
LINE
  5
39F
100
AcDbEntity
  8
0
100
AcDbLine
 62
7
  6
CONTINUOUS
 10
3.501297012
 20
4.5211584326
 11
3.485297012
 21
4.5211584326
  0
LINE
  5
3A0
100
AcDbEntity
  8
0
100
AcDbLine
 62
7
  6
CONTINUOUS
 10
3.723797012
 20
4.5266584326
 11
3.692797012
 21
4.5266584326
  0
LINE
  5
3A1
100
AcDbEntity
  8
0
100
AcDbLine
 62
7
  6
CONTINUOUS
 10
3.479797012
 20
4.5266584326
 11
3.473797012
 21
4.5266584326
  0
LINE
  5
3A2
100
AcDbEntity
  8
0
100
AcDbLine
 62
7
  6
CONTINUOUS
 10
3.516797012
 20
4.5366584326
 11
3.6870207337
 21
4.5366584326
  0
LINE
  5
3A3
100
AcDbEntity
  8
0
100
AcDbLine
 62
7
  6
CONTINUOUS
 10
4.8563713861
 20
4.5481790515
 11
4.2694076832
 21
4.5481790515
  0
LINE
  5
3A4
100
AcDbEntity
  8
0
100
AcDbLine
 62
7
  6
CONTINUOUS
 10
4.8563713861
 20
4.5965231231
 11
4.2694076832
 21
4.5965231231
  0
LINE
  5
3A5
100
AcDbEntity
  8
0
100
AcDbLine
 62
7
  6
CONTINUOUS
 10
6.348797012
 20
4.6296584326
 11
6.613797012
 21
4.6296584326
  0
LINE
  5
3A6
100
AcDbEntity
  8
0
100
AcDbLine
 62
7
  6
CONTINUOUS
 10
6.769797012
 20
4.6296584326
 11
6.785797012
 21
4.6296584326
  0
LINE
  5
3A7
100
AcDbEntity
  8
0
100
AcDbLine
 62
7
  6
CONTINUOUS
 10
7.012797012
 20
4.6376584326
 11
7.040797012
 21
4.6376584326
  0
LINE
  5
3A8
100
AcDbEntity
  8
0
100
AcDbLine
 62
7
  6
CONTINUOUS
 10
6.842797012
 20
4.6916584326
 11
6.892797012
 21
4.6916584326
  0
LINE
  5
3A9
100
AcDbEntity
  8
0
100
AcDbLine
 62
7
  6
CONTINUOUS
 10
6.962797012
 20
4.6916584326
 11
7.012797012
 21
4.6916584326
  0
LINE
  5
3AA
100
AcDbEntity
  8
0
100
AcDbLine
 62
7
  6
CONTINUOUS
 10
7.083797012
 20
4.6921584326
 11
7.040797012
 21
4.6921584326
  0
LINE
  5
3AB
100
AcDbEntity
  8
0
100
AcDbLine
 62
7
  6
CONTINUOUS
 10
6.839297012
 20
4.6921584326
 11
6.789297012
 21
4.6921584326
  0
LINE
  5
3AC
100
AcDbEntity
  8
THREAD
100
AcDbLine
 62
7
  6
CONTINUOUS
 10
6.332797012
 20
4.7076584326
 11
6.248797012
 21
4.7076584326
  0
LINE
  5
3AD
100
AcDbEntity
  8
THREAD
100
AcDbLine
 62
7
  6
CONTINUOUS
 10
5.9042914585
 20
4.7136584326
 11
5.890797012
 21
4.7136584326
  0
LINE
  5
3AE
100
AcDbEntity
  8
0
100
AcDbLine
 62
7
  6
CONTINUOUS
 10
5.6373610766
 20
4.7136584326
 11
5.3062329474
 21
4.7136584326
  0
LINE
  5
3AF
100
AcDbEntity
  8
03__ASM_ALL_CURVES
100
AcDbLine
 62
40
  6
CONTINUOUS
 10
3.037437012
 20
5.1035764326
 11
2.911797012
 21
5.1210264326
  0
LINE
  5
3B0
100
AcDbEntity
  8
03__ASM_ALL_CURVES
100
AcDbLine
 62
40
  6
CONTINUOUS
 10
3.037437012
 20
5.1000864326
 11
2.911797012
 21
5.1210264326
  0
LINE
  5
3B1
100
AcDbEntity
  8
THREAD
100
AcDbLine
 62
7
  6
CONTINUOUS
 10
5.7451534184
 20
4.7708283056
 11
5.726297012
 21
4.7817150569
  0
LINE
  5
3B2
100
AcDbEntity
  8
0
100
AcDbLine
 62
7
  6
CONTINUOUS
 10
6.789297012
 20
3.8191584326
 11
6.785797012
 21
3.8226584326
  0
LINE
  5
3B3
100
AcDbEntity
  8
03__ASM_ALL_CURVES
100
AcDbLine
 62
40
  6
CONTINUOUS
 10
6.6955704493
 20
3.4991146842
 11
6.7004782618
 21
3.492570931
  0
LINE
  5
3B4
100
AcDbEntity
  8
03__ASM_ALL_CURVES
100
AcDbLine
 62
40
  6
CONTINUOUS
 10
6.5287048243
 20
3.4663959326
 11
6.5434282618
 21
3.4271334326
  0
LINE
  5
3B5
100
AcDbEntity
  8
03__ASM_ALL_CURVES
100
AcDbLine
 62
40
  6
CONTINUOUS
 10
6.4207329493
 20
3.4467646826
 11
6.4158251368
 21
3.4663959326
  0
LINE
  5
3B6
100
AcDbEntity
  8
03__ASM_ALL_CURVES
100
AcDbLine
 62
40
  6
CONTINUOUS
 10
5.9894732622
 20
5.1890814326
 11
5.9829295122
 21
5.2152564326
  0
LINE
  5
3B7
100
AcDbEntity
  8
THREAD
100
AcDbLine
 62
7
  6
CONTINUOUS
 10
6.248797012
 20
3.8036584326
 11
6.248797012
 21
4.7076584326
  0
LINE
  5
3B8
100
AcDbEntity
  8
0
100
AcDbLine
 62
7
  6
CONTINUOUS
 10
6.332797012
 20
3.8036584326
 11
6.332797012
 21
4.7076584326
  0
LINE
  5
3B9
100
AcDbEntity
  8
03__ASM_ALL_CURVES
100
AcDbLine
 62
40
  6
CONTINUOUS
 10
6.3362920122
 20
5.2676064326
 11
6.3362920122
 21
5.1629064326
  0
LINE
  5
3BA
100
AcDbEntity
  8
03__ASM_ALL_CURVES
100
AcDbLine
 62
40
  6
CONTINUOUS
 10
6.3471157618
 20
3.4271334326
 11
6.3471157618
 21
3.5056584326
  0
LINE
  5
3BB
100
AcDbEntity
  8
0
100
AcDbLine
 62
7
  6
CONTINUOUS
 10
6.348797012
 20
3.8196584326
 11
6.348797012
 21
4.6916584326
  0
LINE
  5
3BC
100
AcDbEntity
  8
03__ASM_ALL_CURVES
100
AcDbLine
 62
40
  6
CONTINUOUS
 10
6.3544775019
 20
3.3852534326
 11
6.3544775019
 21
3.3067284326
  0
LINE
  5
3BD
100
AcDbEntity
  8
03__ASM_ALL_CURVES
100
AcDbLine
 62
40
  6
CONTINUOUS
 10
6.3863782618
 20
3.492570931
 11
6.3863782618
 21
3.4794834342
  0
LINE
  5
3BE
100
AcDbEntity
  8
03__ASM_ALL_CURVES
100
AcDbLine
 62
40
  6
CONTINUOUS
 10
6.4133712519
 20
3.3067284326
 11
6.4133712519
 21
3.3852534326
  0
LINE
  5
3BF
100
AcDbEntity
  8
03__ASM_ALL_CURVES
100
AcDbLine
 62
40
  6
CONTINUOUS
 10
6.6111295122
 20
5.2152564326
 11
6.6176732622
 21
5.2414314326
  0
LINE
  5
3C0
100
AcDbEntity
  8
03__ASM_ALL_CURVES
100
AcDbLine
 62
40
  6
CONTINUOUS
 10
7.1019107622
 20
5.1890814326
 11
7.0888232622
 21
5.1716314329
  0
LINE
  5
3C1
100
AcDbEntity
  8
03__ASM_ALL_CURVES
100
AcDbLine
 62
40
  6
CONTINUOUS
 10
7.2000670122
 20
5.1803564331
 11
7.1935232622
 21
5.1716314329
  0
LINE
  5
3C2
100
AcDbEntity
  8
03__ASM_ALL_CURVES
100
AcDbLine
 62
40
  6
CONTINUOUS
 10
5.3875415447
 20
3.4336771828
 11
5.3777259197
 21
3.4271334326
  0
LINE
  5
3C3
100
AcDbEntity
  8
03__ASM_ALL_CURVES
100
AcDbLine
 62
40
  6
CONTINUOUS
 10
5.4660665447
 20
3.472939681
 11
5.4562509197
 21
3.4663959326
  0
LINE
  5
3C4
100
AcDbEntity
  8
03__ASM_ALL_CURVES
100
AcDbLine
 62
40
  6
CONTINUOUS
 10
5.3065626405
 20
3.3132721828
 11
5.2967470155
 21
3.3067284326
  0
LINE
  5
3C5
100
AcDbEntity
  8
03__ASM_ALL_CURVES
100
AcDbLine
 62
40
  6
CONTINUOUS
 10
5.5936696697
 20
3.4991146842
 11
5.6034852947
 21
3.5056584326
  0
LINE
  5
3C6
100
AcDbEntity
  8
03__ASM_ALL_CURVES
100
AcDbLine
 62
40
  6
CONTINUOUS
 10
5.389995453
 20
3.352534681
 11
5.380179828
 21
3.3459909326
  0
LINE
  5
3C7
100
AcDbEntity
  8
03__ASM_ALL_CURVES
100
AcDbLine
 62
40
  6
CONTINUOUS
 10
5.6231165447
 20
3.4794834342
 11
5.6133009197
 21
3.472939681
  0
LINE
  5
3C8
100
AcDbEntity
  8
03__ASM_ALL_CURVES
100
AcDbLine
 62
40
  6
CONTINUOUS
 10
5.6231165447
 20
3.4336771828
 11
5.6133009197
 21
3.4271334326
  0
LINE
  5
3C9
100
AcDbEntity
  8
THREAD
100
AcDbLine
 62
7
  6
CONTINUOUS
 10
5.7451534184
 20
3.7404885596
 11
5.726297012
 21
3.7296018083
  0
LINE
  5
3CA
100
AcDbEntity
  8
0
100
AcDbLine
 62
7
  6
CONTINUOUS
 10
5.239797012
 20
4.7381584326
 11
5.218797012
 21
4.7381584326
  0
LINE
  5
3CB
100
AcDbEntity
  8
THREAD
100
AcDbLine
 62
7
  6
CONTINUOUS
 10
6.204797012
 20
4.7516584326
 11
5.9337363222
 21
4.7516584326
  0
LINE
  5
3CC
100
AcDbEntity
  8
0
100
AcDbLine
 62
7
  6
CONTINUOUS
 10
4.223797012
 20
4.7526584326
 11
3.785797012
 21
4.7526584326
  0
LINE
  5
3CD
100
AcDbEntity
  8
0
100
AcDbLine
 62
7
  6
CONTINUOUS
 10
5.840797012
 20
4.7676584326
 11
5.890797012
 21
4.7676584326
  0
LINE
  5
3CE
100
AcDbEntity
  8
THREAD
100
AcDbLine
 62
7
  6
CONTINUOUS
 10
5.770797012
 20
4.7701584326
 11
5.7476534184
 21
4.7701584326
  0
LINE
  5
3CF
100
AcDbEntity
  8
0
100
AcDbLine
 62
7
  6
CONTINUOUS
 10
5.098797012
 20
4.7921584326
 11
5.148797012
 21
4.7921584326
  0
LINE
  5
3D0
100
AcDbEntity
  8
0
100
AcDbLine
 62
7
  6
CONTINUOUS
 10
5.720797012
 20
4.7936584326
 11
5.658797012
 21
4.7936584326
  0
LINE
  5
3D1
100
AcDbEntity
  8
0
100
AcDbLine
 62
7
  6
CONTINUOUS
 10
5.284797012
 20
4.7936584326
 11
5.239797012
 21
4.7936584326
  0
LINE
  5
3D2
100
AcDbEntity
  8
0
100
AcDbLine
 62
7
  6
CONTINUOUS
 10
5.098797012
 20
4.7936584326
 11
4.911797012
 21
4.7936584326
  0
LINE
  5
3D3
100
AcDbEntity
  8
0
100
AcDbLine
 62
7
  6
CONTINUOUS
 10
4.8563713861
 20
4.8890437421
 11
4.2694076832
 21
4.8890437421
  0
LINE
  5
3D4
100
AcDbEntity
  8
0
100
AcDbLine
 62
7
  6
CONTINUOUS
 10
4.8563713861
 20
4.8896584326
 11
4.2694076832
 21
4.8896584326
  0
LINE
  5
3D5
100
AcDbEntity
  8
03__ASM_ALL_CURVES
100
AcDbLine
 62
40
  6
CONTINUOUS
 10
3.037437012
 20
5.1105564326
 11
2.911797012
 21
5.1210264326
  0
LINE
  5
3D6
100
AcDbEntity
  8
03__ASM_ALL_CURVES
100
AcDbLine
 62
40
  6
CONTINUOUS
 10
3.037437012
 20
5.1070664326
 11
2.911797012
 21
5.1210264326
  0
LINE
  5
3D7
100
AcDbEntity
  8
0
100
AcDbLine
 62
7
  6
CONTINUOUS
 10
5.7451534184
 20
4.7708283056
 11
5.7476534184
 21
4.7701584326
  0
LINE
  5
3D8
100
AcDbEntity
  8
THREAD
100
AcDbLine
 62
7
  6
CONTINUOUS
 10
6.248797012
 20
4.7076584326
 11
6.204797012
 21
4.7516584326
  0
LINE
  5
3D9
100
AcDbEntity
  8
03__ASM_ALL_CURVES
100
AcDbLine
 62
40
  6
CONTINUOUS
 10
6.4698110743
 20
3.4860271826
 11
6.4747188868
 21
3.4663959326
  0
LINE
  5
3DA
100
AcDbEntity
  8
03__ASM_ALL_CURVES
100
AcDbLine
 62
40
  6
CONTINUOUS
 10
6.0549107622
 20
5.2414314326
 11
6.0614545122
 21
5.2152564326
  0
LINE
  5
3DB
100
AcDbEntity
  8
03__ASM_ALL_CURVES
100
AcDbLine
 62
40
  6
CONTINUOUS
 10
6.0941732622
 20
5.1890814326
 11
6.0876295122
 21
5.2152564326
  0
LINE
  5
3DC
100
AcDbEntity
  8
03__ASM_ALL_CURVES
100
AcDbLine
 62
40
  6
CONTINUOUS
 10
6.4409920122
 20
5.2676064326
 11
6.4409920122
 21
5.1629064326
  0
LINE
  5
3DD
100
AcDbEntity
  8
03__ASM_ALL_CURVES
100
AcDbLine
 62
40
  6
CONTINUOUS
 10
6.4526337519
 20
3.3067284326
 11
6.4526337519
 21
3.3852534326
  0
LINE
  5
3DE
100
AcDbEntity
  8
03__ASM_ALL_CURVES
100
AcDbLine
 62
40
  6
CONTINUOUS
 10
6.4918962519
 20
3.3852534326
 11
6.4918962519
 21
3.3067284326
  0
LINE
  5
3DF
100
AcDbEntity
  8
03__ASM_ALL_CURVES
100
AcDbLine
 62
40
  6
CONTINUOUS
 10
6.5041657618
 20
3.4271334326
 11
6.5041657618
 21
3.5056584326
  0
LINE
  5
3E0
100
AcDbEntity
  8
03__ASM_ALL_CURVES
100
AcDbLine
 62
40
  6
CONTINUOUS
 10
6.5195170122
 20
5.1629064326
 11
6.5195170122
 21
5.2676064326
  0
LINE
  5
3E1
100
AcDbEntity
  8
03__ASM_ALL_CURVES
100
AcDbLine
 62
40
  6
CONTINUOUS
 10
6.5434282618
 20
3.492570931
 11
6.5434282618
 21
3.4794834342
  0
LINE
  5
3E2
100
AcDbEntity
  8
03__ASM_ALL_CURVES
100
AcDbLine
 62
40
  6
CONTINUOUS
 10
6.5704212519
 20
3.3067284326
 11
6.5704212519
 21
3.3852534326
  0
LINE
  5
3E3
100
AcDbEntity
  8
03__ASM_ALL_CURVES
100
AcDbLine
 62
40
  6
CONTINUOUS
 10
6.5718670122
 20
5.1629064326
 11
6.5718670122
 21
5.2676064326
  0
LINE
  5
3E4
100
AcDbEntity
  8
03__ASM_ALL_CURVES
100
AcDbLine
 62
40
  6
CONTINUOUS
 10
6.6023220118
 20
3.5056584326
 11
6.6023220118
 21
3.4271334326
  0
LINE
  5
3E5
100
AcDbEntity
  8
03__ASM_ALL_CURVES
100
AcDbLine
 62
40
  6
CONTINUOUS
 10
6.4158251368
 20
3.4663959326
 11
6.4207329493
 21
3.4860271826
  0
LINE
  5
3E6
100
AcDbEntity
  8
03__ASM_ALL_CURVES
100
AcDbLine
 62
40
  6
CONTINUOUS
 10
7.4094670122
 20
5.1890814326
 11
7.3963795122
 21
5.1716314329
  0
LINE
  5
3E7
100
AcDbEntity
  8
THREAD
100
AcDbLine
 62
7
  6
CONTINUOUS
 10
6.248797012
 20
3.8036584326
 11
6.204797012
 21
3.7596584326
  0
LINE
  5
3E8
100
AcDbEntity
  8
0
100
AcDbLine
 62
7
  6
CONTINUOUS
 10
6.348797012
 20
3.8196584326
 11
6.332797012
 21
3.8036584326
  0
LINE
  5
3E9
100
AcDbEntity
  8
03__ASM_ALL_CURVES
100
AcDbLine
 62
40
  6
CONTINUOUS
 10
5.598157012
 20
5.1000864326
 11
5.849437012
 21
5.1419664326
  0
LINE
  5
3EA
100
AcDbEntity
  8
03__ASM_ALL_CURVES
100
AcDbLine
 62
40
  6
CONTINUOUS
 10
5.598157012
 20
5.1035764326
 11
5.849437012
 21
5.1384764326
  0
LINE
  5
3EB
100
AcDbEntity
  8
03__ASM_ALL_CURVES
100
AcDbLine
 62
40
  6
CONTINUOUS
 10
5.598157012
 20
5.1070664326
 11
5.849437012
 21
5.1349864326
  0
LINE
  5
3EC
100
AcDbEntity
  8
03__ASM_ALL_CURVES
100
AcDbLine
 62
40
  6
CONTINUOUS
 10
5.598157012
 20
5.1105564326
 11
5.849437012
 21
5.1314964326
  0
LINE
  5
3ED
100
AcDbEntity
  8
03__ASM_ALL_CURVES
100
AcDbLine
 62
40
  6
CONTINUOUS
 10
5.598157012
 20
5.1140464326
 11
5.849437012
 21
5.1280064326
  0
LINE
  5
3EE
100
AcDbEntity
  8
03__ASM_ALL_CURVES
100
AcDbLine
 62
40
  6
CONTINUOUS
 10
5.598157012
 20
5.1175364326
 11
5.849437012
 21
5.1245164326
  0
LINE
  5
3EF
100
AcDbEntity
  8
03__ASM_ALL_CURVES
100
AcDbLine
 62
40
  6
CONTINUOUS
 10
2.911797012
 20
5.1210264326
 11
7.734037012
 21
5.1210264326
  0
LINE
  5
3F0
100
AcDbEntity
  8
03__ASM_ALL_CURVES
100
AcDbLine
 62
40
  6
CONTINUOUS
 10
3.037437012
 20
5.1175364326
 11
2.911797012
 21
5.1210264326
  0
LINE
  5
3F1
100
AcDbEntity
  8
03__ASM_ALL_CURVES
100
AcDbLine
 62
40
  6
CONTINUOUS
 10
5.598157012
 20
5.1245164326
 11
5.849437012
 21
5.1175364326
  0
LINE
  5
3F2
100
AcDbEntity
  8
03__ASM_ALL_CURVES
100
AcDbLine
 62
40
  6
CONTINUOUS
 10
3.037437012
 20
5.1140464326
 11
2.911797012
 21
5.1210264326
  0
LINE
  5
3F3
100
AcDbEntity
  8
03__ASM_ALL_CURVES
100
AcDbLine
 62
40
  6
CONTINUOUS
 10
5.598157012
 20
5.1280064326
 11
5.849437012
 21
5.1140464326
  0
LINE
  5
3F4
100
AcDbEntity
  8
03__ASM_ALL_CURVES
100
AcDbLine
 62
40
  6
CONTINUOUS
 10
5.598157012
 20
5.1314964326
 11
5.849437012
 21
5.1105564326
  0
LINE
  5
3F5
100
AcDbEntity
  8
03__ASM_ALL_CURVES
100
AcDbLine
 62
40
  6
CONTINUOUS
 10
5.598157012
 20
5.1349864326
 11
5.849437012
 21
5.1070664326
  0
LINE
  5
3F6
100
AcDbEntity
  8
03__ASM_ALL_CURVES
100
AcDbLine
 62
40
  6
CONTINUOUS
 10
5.598157012
 20
5.1384764326
 11
5.849437012
 21
5.1035764326
  0
LINE
  5
3F7
100
AcDbEntity
  8
03__ASM_ALL_CURVES
100
AcDbLine
 62
40
  6
CONTINUOUS
 10
5.849437012
 20
5.1000864326
 11
5.598157012
 21
5.1419664326
  0
LINE
  5
3F8
100
AcDbEntity
  8
0
100
AcDbLine
 62
7
  6
CONTINUOUS
 10
6.348797012
 20
4.6916584326
 11
6.332797012
 21
4.7076584326
  0
LINE
  5
3F9
100
AcDbEntity
  8
03__ASM_ALL_CURVES
100
AcDbLine
 62
40
  6
CONTINUOUS
 10
6.0025607622
 20
5.1716314329
 11
5.9894732622
 21
5.1890814326
  0
LINE
  5
3FA
100
AcDbEntity
  8
03__ASM_ALL_CURVES
100
AcDbLine
 62
40
  6
CONTINUOUS
 10
6.0418232622
 20
5.2588814347
 11
6.0549107622
 21
5.2414314326
  0
LINE
  5
3FB
100
AcDbEntity
  8
03__ASM_ALL_CURVES
100
AcDbLine
 62
40
  6
CONTINUOUS
 10
6.1072607622
 20
5.1716314329
 11
6.0941732622
 21
5.1890814326
  0
LINE
  5
3FC
100
AcDbEntity
  8
03__ASM_ALL_CURVES
100
AcDbLine
 62
40
  6
CONTINUOUS
 10
6.2315920122
 20
5.2676064326
 11
6.2643107622
 21
5.1629064326
  0
LINE
  5
3FD
100
AcDbEntity
  8
03__ASM_ALL_CURVES
100
AcDbLine
 62
40
  6
CONTINUOUS
 10
6.6685775019
 20
3.3852534326
 11
6.6685775019
 21
3.3067284326
  0
LINE
  5
3FE
100
AcDbEntity
  8
03__ASM_ALL_CURVES
100
AcDbLine
 62
40
  6
CONTINUOUS
 10
6.6765670122
 20
5.2152564326
 11
6.6765670122
 21
5.1803564331
  0
LINE
  5
3FF
100
AcDbEntity
  8
03__ASM_ALL_CURVES
100
AcDbLine
 62
40
  6
CONTINUOUS
 10
6.7004782618
 20
3.492570931
 11
6.7004782618
 21
3.4794834342
  0
LINE
  5
400
100
AcDbEntity
  8
0
100
AcDbLine
 62
7
  6
CONTINUOUS
 10
6.723797012
 20
4.0351647867
 11
6.723797012
 21
4.0461639477
  0
LINE
  5
401
100
AcDbEntity
  8
0
100
AcDbLine
 62
7
  6
CONTINUOUS
 10
6.723797012
 20
4.1847479882
 11
6.723797012
 21
4.3265644459
  0
LINE
  5
402
100
AcDbEntity
  8
0
100
AcDbLine
 62
7
  6
CONTINUOUS
 10
6.723797012
 20
4.4651529506
 11
6.723797012
 21
4.4761545
  0
LINE
  5
403
100
AcDbEntity
  8
0
100
AcDbLine
 62
7
  6
CONTINUOUS
 10
6.785797012
 20
3.8226584326
 11
6.785797012
 21
4.6886584326
  0
LINE
  5
404
100
AcDbEntity
  8
0
100
AcDbLine
 62
7
  6
CONTINUOUS
 10
6.789297012
 20
3.8191584326
 11
6.789297012
 21
4.6921584326
  0
LINE
  5
405
100
AcDbEntity
  8
03__ASM_ALL_CURVES
100
AcDbLine
 62
40
  6
CONTINUOUS
 10
6.8336170122
 20
5.2501564305
 11
6.8336170122
 21
5.2414314326
  0
LINE
  5
406
100
AcDbEntity
  8
0
100
AcDbLine
 62
7
  6
CONTINUOUS
 10
6.839297012
 20
3.8191584326
 11
6.839297012
 21
4.6921584326
  0
LINE
  5
407
100
AcDbEntity
  8
0
100
AcDbLine
 62
7
  6
CONTINUOUS
 10
6.842797012
 20
3.8196590955
 11
6.842797012
 21
4.6916577697
  0
LINE
  5
408
100
AcDbEntity
  8
03__ASM_ALL_CURVES
100
AcDbLine
 62
40
  6
CONTINUOUS
 10
6.4747188868
 20
3.4663959326
 11
6.4698110743
 21
3.4467646826
  0
LINE
  5
409
100
AcDbEntity
  8
03__ASM_ALL_CURVES
100
AcDbLine
 62
40
  6
CONTINUOUS
 10
7.0299295122
 20
5.2152564326
 11
7.0364732622
 21
5.2414314326
  0
LINE
  5
40A
100
AcDbEntity
  8
03__ASM_ALL_CURVES
100
AcDbLine
 62
40
  6
CONTINUOUS
 10
6.6661235743
 20
3.4467646826
 11
6.6612157618
 21
3.4271334326
  0
LINE
  5
40B
100
AcDbEntity
  8
03__ASM_ALL_CURVES
100
AcDbLine
 62
40
  6
CONTINUOUS
 10
7.1084545122
 20
5.2152564326
 11
7.1019107622
 21
5.1890814326
  0
LINE
  5
40C
100
AcDbEntity
  8
03__ASM_ALL_CURVES
100
AcDbLine
 62
40
  6
CONTINUOUS
 10
7.6188670122
 20
5.2327064347
 11
7.6123232622
 21
5.2239814305
  0
LINE
  5
40D
100
AcDbEntity
  8
03__ASM_ALL_CURVES
100
AcDbLine
 62
40
  6
CONTINUOUS
 10
6.3863782618
 20
3.4794834342
 11
6.3814704493
 21
3.472939681
  0
LINE
  5
40E
100
AcDbEntity
  8
03__ASM_ALL_CURVES
100
AcDbLine
 62
40
  6
CONTINUOUS
 10
6.4207329493
 20
3.4860271826
 11
6.4305485743
 21
3.4991146842
  0
LINE
  5
40F
100
AcDbEntity
  8
03__ASM_ALL_CURVES
100
AcDbLine
 62
40
  6
CONTINUOUS
 10
6.4698110743
 20
3.4467646826
 11
6.4599954493
 21
3.4336771828
  0
LINE
  5
410
100
AcDbEntity
  8
03__ASM_ALL_CURVES
100
AcDbLine
 62
40
  6
CONTINUOUS
 10
7.5081516997
 20
4.322404681
 11
7.4983360747
 21
4.3158609326
  0
LINE
  5
411
100
AcDbEntity
  8
03__ASM_ALL_CURVES
100
AcDbLine
 62
40
  6
CONTINUOUS
 10
7.5572298247
 20
4.3485796842
 11
7.5670454497
 21
4.3551234326
  0
LINE
  5
412
100
AcDbEntity
  8
03__ASM_ALL_CURVES
100
AcDbLine
 62
40
  6
CONTINUOUS
 10
7.5866766997
 20
4.2831421828
 11
7.5768610747
 21
4.2765984326
  0
LINE
  5
413
100
AcDbEntity
  8
03__ASM_ALL_CURVES
100
AcDbLine
 62
40
  6
CONTINUOUS
 10
6.3814704493
 20
3.472939681
 11
6.3716548243
 21
3.4663959326
  0
LINE
  5
414
100
AcDbEntity
  8
03__ASM_ALL_CURVES
100
AcDbLine
 62
40
  6
CONTINUOUS
 10
7.6652016997
 20
4.322404681
 11
7.6553860747
 21
4.3158609326
  0
LINE
  5
415
100
AcDbEntity
  8
03__ASM_ALL_CURVES
100
AcDbLine
 62
40
  6
CONTINUOUS
 10
6.4305485743
 20
3.4991146842
 11
6.4403641993
 21
3.5056584326
  0
LINE
  5
416
100
AcDbEntity
  8
03__ASM_ALL_CURVES
100
AcDbLine
 62
40
  6
CONTINUOUS
 10
7.5081516997
 20
4.201999681
 11
7.4983360747
 21
4.1954559326
  0
LINE
  5
417
100
AcDbEntity
  8
03__ASM_ALL_CURVES
100
AcDbLine
 62
40
  6
CONTINUOUS
 10
3.037437012
 20
5.1280064326
 11
2.911797012
 21
5.1210264326
  0
LINE
  5
418
100
AcDbEntity
  8
03__ASM_ALL_CURVES
100
AcDbLine
 62
40
  6
CONTINUOUS
 10
3.037437012
 20
5.1245164326
 11
2.911797012
 21
5.1210264326
  0
LINE
  5
419
100
AcDbEntity
  8
03__ASM_ALL_CURVES
100
AcDbLine
 62
40
  6
CONTINUOUS
 10
7.5141670122
 20
5.1629064326
 11
7.4618170122
 21
5.1629064326
  0
LINE
  5
41A
100
AcDbEntity
  8
03__ASM_ALL_CURVES
100
AcDbLine
 62
40
  6
CONTINUOUS
 10
7.3832920122
 20
5.1629064326
 11
7.3571170122
 21
5.1629064326
  0
LINE
  5
41B
100
AcDbEntity
  8
03__ASM_ALL_CURVES
100
AcDbLine
 62
40
  6
CONTINUOUS
 10
7.1804357622
 20
5.1629064326
 11
7.1673482622
 21
5.1629064326
  0
LINE
  5
41C
100
AcDbEntity
  8
03__ASM_ALL_CURVES
100
AcDbLine
 62
40
  6
CONTINUOUS
 10
7.0757357622
 20
5.1629064326
 11
7.0626482622
 21
5.1629064326
  0
LINE
  5
41D
100
AcDbEntity
  8
03__ASM_ALL_CURVES
100
AcDbLine
 62
40
  6
CONTINUOUS
 10
6.8663357622
 20
5.1629064326
 11
6.8532482622
 21
5.1629064326
  0
LINE
  5
41E
100
AcDbEntity
  8
03__ASM_ALL_CURVES
100
AcDbLine
 62
40
  6
CONTINUOUS
 10
6.6569357622
 20
5.1629064326
 11
6.6438482622
 21
5.1629064326
  0
LINE
  5
41F
100
AcDbEntity
  8
03__ASM_ALL_CURVES
100
AcDbLine
 62
40
  6
CONTINUOUS
 10
6.1334357622
 20
5.1629064326
 11
6.1203482622
 21
5.1629064326
  0
LINE
  5
420
100
AcDbEntity
  8
03__ASM_ALL_CURVES
100
AcDbLine
 62
40
  6
CONTINUOUS
 10
6.0287357622
 20
5.1629064326
 11
6.0156482622
 21
5.1629064326
  0
LINE
  5
421
100
AcDbEntity
  8
03__ASM_ALL_CURVES
100
AcDbLine
 62
40
  6
CONTINUOUS
 10
4.638440762
 20
5.1629064326
 11
4.625353262
 21
5.1629064326
  0
LINE
  5
422
100
AcDbEntity
  8
03__ASM_ALL_CURVES
100
AcDbLine
 62
40
  6
CONTINUOUS
 10
4.527197012
 20
5.1629064326
 11
4.520653262
 21
5.1629064326
  0
LINE
  5
423
100
AcDbEntity
  8
03__ASM_ALL_CURVES
100
AcDbLine
 62
40
  6
CONTINUOUS
 10
4.010240762
 20
5.1629064326
 11
3.997153262
 21
5.1629064326
  0
LINE
  5
424
100
AcDbEntity
  8
03__ASM_ALL_CURVES
100
AcDbLine
 62
40
  6
CONTINUOUS
 10
3.898997012
 20
5.1629064326
 11
3.892453262
 21
5.1629064326
  0
LINE
  5
425
100
AcDbEntity
  8
03__ASM_ALL_CURVES
100
AcDbLine
 62
40
  6
CONTINUOUS
 10
3.768122012
 20
5.1629064326
 11
3.820472012
 21
5.1629064326
  0
LINE
  5
426
100
AcDbEntity
  8
03__ASM_ALL_CURVES
100
AcDbLine
 62
40
  6
CONTINUOUS
 10
5.8913170122
 20
5.1629064326
 11
5.9436670122
 21
5.1629064326
  0
LINE
  5
427
100
AcDbEntity
  8
03__ASM_ALL_CURVES
100
AcDbLine
 62
40
  6
CONTINUOUS
 10
7.2524170122
 20
5.1629064326
 11
7.3047670122
 21
5.1629064326
  0
LINE
  5
428
100
AcDbEntity
  8
03__ASM_ALL_CURVES
100
AcDbLine
 62
40
  6
CONTINUOUS
 10
6.2119607622
 20
5.1978064336
 11
6.2512232622
 21
5.1978064336
  0
LINE
  5
429
100
AcDbEntity
  8
03__ASM_ALL_CURVES
100
AcDbLine
 62
40
  6
CONTINUOUS
 10
7.5992357622
 20
5.2152564326
 11
7.5665170122
 21
5.2152564326
  0
LINE
  5
42A
100
AcDbEntity
  8
03__ASM_ALL_CURVES
100
AcDbLine
 62
40
  6
CONTINUOUS
 10
6.6503920122
 20
5.2152564326
 11
6.6765670122
 21
5.2152564326
  0
LINE
  5
42B
100
AcDbEntity
  8
03__ASM_ALL_CURVES
100
AcDbLine
 62
40
  6
CONTINUOUS
 10
6.9383170122
 20
5.2152564326
 11
6.9906670122
 21
5.2152564326
  0
LINE
  5
42C
100
AcDbEntity
  8
03__ASM_ALL_CURVES
100
AcDbLine
 62
40
  6
CONTINUOUS
 10
7.4618170122
 20
5.2152564326
 11
7.4945357622
 21
5.2152564326
  0
LINE
  5
42D
100
AcDbEntity
  8
03__ASM_ALL_CURVES
100
AcDbLine
 62
40
  6
CONTINUOUS
 10
3.997153262
 20
5.2239814305
 11
4.010240762
 21
5.2239814305
  0
LINE
  5
42E
100
AcDbEntity
  8
03__ASM_ALL_CURVES
100
AcDbLine
 62
40
  6
CONTINUOUS
 10
4.625353262
 20
5.2239814305
 11
4.638440762
 21
5.2239814305
  0
LINE
  5
42F
100
AcDbEntity
  8
03__ASM_ALL_CURVES
100
AcDbLine
 62
40
  6
CONTINUOUS
 10
6.8663357622
 20
5.2676064326
 11
6.8532482622
 21
5.2676064326
  0
LINE
  5
430
100
AcDbEntity
  8
03__ASM_ALL_CURVES
100
AcDbLine
 62
40
  6
CONTINUOUS
 10
4.762772012
 20
5.2676064326
 11
4.710422012
 21
5.2676064326
  0
LINE
  5
431
100
AcDbEntity
  8
03__ASM_ALL_CURVES
100
AcDbLine
 62
40
  6
CONTINUOUS
 10
4.343972012
 20
5.2676064326
 11
4.291622012
 21
5.2676064326
  0
LINE
  5
432
100
AcDbEntity
  8
03__ASM_ALL_CURVES
100
AcDbLine
 62
40
  6
CONTINUOUS
 10
3.787753262
 20
5.2676064326
 11
3.800840762
 21
5.2676064326
  0
LINE
  5
433
100
AcDbEntity
  8
03__ASM_ALL_CURVES
100
AcDbLine
 62
40
  6
CONTINUOUS
 10
3.997153262
 20
5.2676064326
 11
4.010240762
 21
5.2676064326
  0
LINE
  5
434
100
AcDbEntity
  8
03__ASM_ALL_CURVES
100
AcDbLine
 62
40
  6
CONTINUOUS
 10
4.625353262
 20
5.2676064326
 11
4.638440762
 21
5.2676064326
  0
LINE
  5
435
100
AcDbEntity
  8
03__ASM_ALL_CURVES
100
AcDbLine
 62
40
  6
CONTINUOUS
 10
6.0156482622
 20
5.2676064326
 11
6.0287357622
 21
5.2676064326
  0
LINE
  5
436
100
AcDbEntity
  8
03__ASM_ALL_CURVES
100
AcDbLine
 62
40
  6
CONTINUOUS
 10
6.1203482622
 20
5.2676064326
 11
6.1334357622
 21
5.2676064326
  0
LINE
  5
437
100
AcDbEntity
  8
03__ASM_ALL_CURVES
100
AcDbLine
 62
40
  6
CONTINUOUS
 10
6.3035732622
 20
5.2676064326
 11
6.3690107622
 21
5.2676064326
  0
LINE
  5
438
100
AcDbEntity
  8
03__ASM_ALL_CURVES
100
AcDbLine
 62
40
  6
CONTINUOUS
 10
6.6438482622
 20
5.2676064326
 11
6.6569357622
 21
5.2676064326
  0
LINE
  5
439
100
AcDbEntity
  8
03__ASM_ALL_CURVES
100
AcDbLine
 62
40
  6
CONTINUOUS
 10
7.0626482622
 20
5.2676064326
 11
7.0757357622
 21
5.2676064326
  0
LINE
  5
43A
100
AcDbEntity
  8
03__ASM_ALL_CURVES
100
AcDbLine
 62
40
  6
CONTINUOUS
 10
7.3571170122
 20
5.2676064326
 11
7.3832920122
 21
5.2676064326
  0
LINE
  5
43B
100
AcDbEntity
  8
03__ASM_ALL_CURVES
100
AcDbLine
 62
40
  6
CONTINUOUS
 10
7.4618170122
 20
5.2676064326
 11
7.5141670122
 21
5.2676064326
  0
LINE
  5
43C
100
AcDbEntity
  8
03__ASM_ALL_CURVES
100
AcDbLine
 62
40
  6
CONTINUOUS
 10
7.5665170122
 20
5.2676064326
 11
7.5992357622
 21
5.2676064326
  0
LINE
  5
43D
100
AcDbEntity
  8
03__ASM_ALL_CURVES
100
AcDbLine
 62
40
  6
CONTINUOUS
 10
6.0156482622
 20
5.1629064326
 11
6.0025607622
 21
5.1716314329
  0
LINE
  5
43E
100
AcDbEntity
  8
03__ASM_ALL_CURVES
100
AcDbLine
 62
40
  6
CONTINUOUS
 10
7.4983360747
 20
4.2347184326
 11
7.5081516997
 21
4.2281746842
  0
LINE
  5
43F
100
AcDbEntity
  8
03__ASM_ALL_CURVES
100
AcDbLine
 62
40
  6
CONTINUOUS
 10
6.1203482622
 20
5.1629064326
 11
6.1072607622
 21
5.1716314329
  0
LINE
  5
440
100
AcDbEntity
  8
03__ASM_ALL_CURVES
100
AcDbLine
 62
40
  6
CONTINUOUS
 10
6.0287357622
 20
5.2676064326
 11
6.0418232622
 21
5.2588814347
  0
LINE
  5
441
100
AcDbEntity
  8
03__ASM_ALL_CURVES
100
AcDbLine
 62
40
  6
CONTINUOUS
 10
7.7240954497
 20
4.1561934326
 11
7.7142798247
 21
4.1627371828
  0
LINE
  5
442
100
AcDbEntity
  8
03__ASM_ALL_CURVES
100
AcDbLine
 62
40
  6
CONTINUOUS
 10
7.5670454497
 20
4.2765984326
 11
7.5572298247
 21
4.2831421828
  0
LINE
  5
443
100
AcDbEntity
  8
03__ASM_ALL_CURVES
100
AcDbLine
 62
40
  6
CONTINUOUS
 10
7.6504782622
 20
4.2347184326
 11
7.6602938872
 21
4.2281746842
  0
LINE
  5
444
100
AcDbEntity
  8
03__ASM_ALL_CURVES
100
AcDbLine
 62
40
  6
CONTINUOUS
 10
7.4983360747
 20
4.3551234326
 11
7.5081516997
 21
4.3485796842
  0
LINE
  5
445
100
AcDbEntity
  8
03__ASM_ALL_CURVES
100
AcDbLine
 62
40
  6
CONTINUOUS
 10
6.1334357622
 20
5.2676064326
 11
6.1465232622
 21
5.2588814347
  0
LINE
  5
446
100
AcDbEntity
  8
03__ASM_ALL_CURVES
100
AcDbLine
 62
40
  6
CONTINUOUS
 10
7.8026204497
 20
4.1561934326
 11
7.7928048247
 21
4.1627371828
  0
LINE
  5
447
100
AcDbEntity
  8
03__ASM_ALL_CURVES
100
AcDbLine
 62
40
  6
CONTINUOUS
 10
7.5768610747
 20
4.3551234326
 11
7.5866766997
 21
4.3485796842
  0
LINE
  5
448
100
AcDbEntity
  8
0
100
AcDbLine
 62
7
  6
CONTINUOUS
 10
6.842797012
 20
4.6886584326
 11
6.839297012
 21
4.6921584326
  0
LINE
  5
449
100
AcDbEntity
  8
03__ASM_ALL_CURVES
100
AcDbLine
 62
40
  6
CONTINUOUS
 10
6.1465232622
 20
5.2588814347
 11
6.1530670122
 21
5.2501564305
  0
LINE
  5
44A
100
AcDbEntity
  8
03__ASM_ALL_CURVES
100
AcDbLine
 62
40
  6
CONTINUOUS
 10
6.6176732622
 20
5.1890814326
 11
6.6111295122
 21
5.2152564326
  0
LINE
  5
44B
100
AcDbEntity
  8
03__ASM_ALL_CURVES
100
AcDbLine
 62
40
  6
CONTINUOUS
 10
6.8859670122
 20
5.1978064336
 11
6.8859670122
 21
5.1803564331
  0
LINE
  5
44C
100
AcDbEntity
  8
0
100
AcDbLine
 62
7
  6
CONTINUOUS
 10
6.892797012
 20
3.8196590955
 11
6.892797012
 21
4.6916577697
  0
LINE
  5
44D
100
AcDbEntity
  8
03__ASM_ALL_CURVES
100
AcDbLine
 62
40
  6
CONTINUOUS
 10
6.9383170122
 20
5.2676064326
 11
6.9383170122
 21
5.1629064326
  0
LINE
  5
44E
100
AcDbEntity
  8
0
100
AcDbLine
 62
7
  6
CONTINUOUS
 10
6.962797012
 20
3.8196590955
 11
6.962797012
 21
4.6916577697
  0
LINE
  5
44F
100
AcDbEntity
  8
03__ASM_ALL_CURVES
100
AcDbLine
 62
40
  6
CONTINUOUS
 10
6.9906670122
 20
5.2676064326
 11
6.9906670122
 21
5.1629064326
  0
LINE
  5
450
100
AcDbEntity
  8
0
100
AcDbLine
 62
7
  6
CONTINUOUS
 10
7.012797012
 20
3.8196590955
 11
7.012797012
 21
4.6916577697
  0
LINE
  5
451
100
AcDbEntity
  8
0
100
AcDbLine
 62
7
  6
CONTINUOUS
 10
7.040797012
 20
3.8191635472
 11
7.040797012
 21
4.692153318
  0
LINE
  5
452
100
AcDbEntity
  8
03__ASM_ALL_CURVES
100
AcDbLine
 62
40
  6
CONTINUOUS
 10
6.5434282618
 20
3.4794834342
 11
6.5385204493
 21
3.472939681
  0
LINE
  5
453
100
AcDbEntity
  8
03__ASM_ALL_CURVES
100
AcDbLine
 62
40
  6
CONTINUOUS
 10
6.6612157618
 20
3.492570931
 11
6.6661235743
 21
3.4991146842
  0
LINE
  5
454
100
AcDbEntity
  8
03__ASM_ALL_CURVES
100
AcDbLine
 62
40
  6
CONTINUOUS
 10
6.6759391993
 20
3.4598521818
 11
6.6661235743
 21
3.4467646826
  0
LINE
  5
455
100
AcDbEntity
  8
03__ASM_ALL_CURVES
100
AcDbLine
 62
40
  6
CONTINUOUS
 10
6.7004782618
 20
3.4794834342
 11
6.6955704493
 21
3.472939681
  0
LINE
  5
456
100
AcDbEntity
  8
0
100
AcDbLine
 62
7
  6
CONTINUOUS
 10
6.842797012
 20
3.8226584326
 11
6.839297012
 21
3.8191584326
  0
LINE
  5
457
100
AcDbEntity
  8
0
100
AcDbLine
 62
7
  6
CONTINUOUS
 10
7.099797012
 20
3.8351584326
 11
7.083797012
 21
3.8191584326
  0
LINE
  5
458
100
AcDbEntity
  8
03__ASM_ALL_CURVES
100
AcDbLine
 62
40
  6
CONTINUOUS
 10
6.4599954493
 20
3.4336771828
 11
6.4501798243
 21
3.4271334326
  0
LINE
  5
459
100
AcDbEntity
  8
03__ASM_ALL_CURVES
100
AcDbLine
 62
40
  6
CONTINUOUS
 10
6.5385204493
 20
3.472939681
 11
6.5287048243
 21
3.4663959326
  0
LINE
  5
45A
100
AcDbEntity
  8
03__ASM_ALL_CURVES
100
AcDbLine
 62
40
  6
CONTINUOUS
 10
7.6602938872
 20
4.1627371828
 11
7.6504782622
 21
4.1561934326
  0
LINE
  5
45B
100
AcDbEntity
  8
03__ASM_ALL_CURVES
100
AcDbLine
 62
40
  6
CONTINUOUS
 10
6.6661235743
 20
3.4991146842
 11
6.6759391993
 21
3.5056584326
  0
LINE
  5
45C
100
AcDbEntity
  8
03__ASM_ALL_CURVES
100
AcDbLine
 62
40
  6
CONTINUOUS
 10
7.7928048247
 20
4.2281746842
 11
7.8026204497
 21
4.2347184326
  0
LINE
  5
45D
100
AcDbEntity
  8
03__ASM_ALL_CURVES
100
AcDbLine
 62
40
  6
CONTINUOUS
 10
6.6955704493
 20
3.472939681
 11
6.6759391993
 21
3.4598521818
  0
LINE
  5
45E
100
AcDbEntity
  8
03__ASM_ALL_CURVES
100
AcDbLine
 62
40
  6
CONTINUOUS
 10
7.7437266997
 20
4.1627371828
 11
7.7339110747
 21
4.1561934326
  0
LINE
  5
45F
100
AcDbEntity
  8
03__ASM_ALL_CURVES
100
AcDbLine
 62
40
  6
CONTINUOUS
 10
7.8222516997
 20
4.1627371828
 11
7.8124360747
 21
4.1561934326
  0
LINE
  5
460
100
AcDbEntity
  8
03__ASM_ALL_CURVES
100
AcDbLine
 62
40
  6
CONTINUOUS
 10
3.037437012
 20
5.1384764326
 11
2.911797012
 21
5.1210264326
  0
LINE
  5
461
100
AcDbEntity
  8
03__ASM_ALL_CURVES
100
AcDbLine
 62
40
  6
CONTINUOUS
 10
3.037437012
 20
5.1349864326
 11
2.911797012
 21
5.1210264326
  0
LINE
  5
462
100
AcDbEntity
  8
03__ASM_ALL_CURVES
100
AcDbLine
 62
40
  6
CONTINUOUS
 10
3.037437012
 20
5.1314964326
 11
2.911797012
 21
5.1210264326
  0
LINE
  5
463
100
AcDbEntity
  8
03__ASM_ALL_CURVES
100
AcDbLine
 62
40
  6
CONTINUOUS
 10
7.8124360747
 20
4.2347184326
 11
7.8222516997
 21
4.2281746842
  0
LINE
  5
464
100
AcDbEntity
  8
03__ASM_ALL_CURVES
100
AcDbLine
 62
40
  6
CONTINUOUS
 10
7.6553860747
 20
4.3551234326
 11
7.6652016997
 21
4.3485796842
  0
LINE
  5
465
100
AcDbEntity
  8
03__ASM_ALL_CURVES
100
AcDbLine
 62
40
  6
CONTINUOUS
 10
7.9645782622
 20
4.2347184326
 11
7.9743938872
 21
4.2281746842
  0
LINE
  5
466
100
AcDbEntity
  8
03__ASM_ALL_CURVES
100
AcDbLine
 62
40
  6
CONTINUOUS
 10
6.6438482622
 20
5.1629064326
 11
6.6307607622
 21
5.1716314329
  0
LINE
  5
467
100
AcDbEntity
  8
03__ASM_ALL_CURVES
100
AcDbLine
 62
40
  6
CONTINUOUS
 10
8.1265360747
 20
4.2347184326
 11
8.1363516997
 21
4.2281746842
  0
LINE
  5
468
100
AcDbEntity
  8
0
100
AcDbLine
 62
7
  6
CONTINUOUS
 10
7.099797012
 20
4.6761584326
 11
7.083797012
 21
4.6921584326
  0
LINE
  5
469
100
AcDbEntity
  8
03__ASM_ALL_CURVES
100
AcDbLine
 62
40
  6
CONTINUOUS
 10
6.6307607622
 20
5.1716314329
 11
6.6176732622
 21
5.1890814326
  0
LINE
  5
46A
100
AcDbEntity
  8
03__ASM_ALL_CURVES
100
AcDbLine
 62
40
  6
CONTINUOUS
 10
6.5195170122
 20
5.2676064326
 11
6.5718670122
 21
5.1629064326
  0
LINE
  5
46B
100
AcDbEntity
  8
0
100
AcDbLine
 62
7
  6
CONTINUOUS
 10
7.083797012
 20
3.8191584326
 11
7.083797012
 21
4.6921584326
  0
LINE
  5
46C
100
AcDbEntity
  8
0
100
AcDbLine
 62
7
  6
CONTINUOUS
 10
7.099797012
 20
3.8351584326
 11
7.099797012
 21
4.6761584326
  0
LINE
  5
46D
100
AcDbEntity
  8
03__ASM_ALL_CURVES
100
AcDbLine
 62
40
  6
CONTINUOUS
 10
7.1477170122
 20
5.1803564331
 11
7.1477170122
 21
5.2676064326
  0
LINE
  5
46E
100
AcDbEntity
  8
03__ASM_ALL_CURVES
100
AcDbLine
 62
40
  6
CONTINUOUS
 10
7.2000670122
 20
5.2676064326
 11
7.2000670122
 21
5.1803564331
  0
LINE
  5
46F
100
AcDbEntity
  8
03__ASM_ALL_CURVES
100
AcDbLine
 62
40
  6
CONTINUOUS
 10
7.2524170122
 20
5.2676064326
 11
7.2524170122
 21
5.1629064326
  0
LINE
  5
470
100
AcDbEntity
  8
03__ASM_ALL_CURVES
100
AcDbLine
 62
40
  6
CONTINUOUS
 10
7.4160107622
 20
5.2152564326
 11
7.4094670122
 21
5.1890814326
  0
LINE
  5
471
100
AcDbEntity
  8
03__ASM_ALL_CURVES
100
AcDbLine
 62
40
  6
CONTINUOUS
 10
7.5130595122
 20
4.3289484342
 11
7.5081516997
 21
4.322404681
  0
LINE
  5
472
100
AcDbEntity
  8
03__ASM_ALL_CURVES
100
AcDbLine
 62
40
  6
CONTINUOUS
 10
7.5474141997
 20
4.3354921826
 11
7.5572298247
 21
4.3485796842
  0
LINE
  5
473
100
AcDbEntity
  8
03__ASM_ALL_CURVES
100
AcDbLine
 62
40
  6
CONTINUOUS
 10
7.5130595122
 20
4.2085434342
 11
7.5081516997
 21
4.201999681
  0
LINE
  5
474
100
AcDbEntity
  8
03__ASM_ALL_CURVES
100
AcDbLine
 62
40
  6
CONTINUOUS
 10
7.5964923247
 20
4.2962296826
 11
7.5866766997
 21
4.2831421828
  0
LINE
  5
475
100
AcDbEntity
  8
03__ASM_ALL_CURVES
100
AcDbLine
 62
40
  6
CONTINUOUS
 10
7.9743938872
 20
4.1627371828
 11
7.9645782622
 21
4.1561934326
  0
LINE
  5
476
100
AcDbEntity
  8
03__ASM_ALL_CURVES
100
AcDbLine
 62
40
  6
CONTINUOUS
 10
8.1363516997
 20
4.201999681
 11
8.1265360747
 21
4.1954559326
  0
LINE
  5
477
100
AcDbEntity
  8
03__ASM_ALL_CURVES
100
AcDbLine
 62
40
  6
CONTINUOUS
 10
8.2148766997
 20
4.201999681
 11
8.2050610747
 21
4.1954559326
  0
LINE
  5
478
100
AcDbEntity
  8
03__ASM_ALL_CURVES
100
AcDbLine
 62
40
  6
CONTINUOUS
 10
2.911797012
 20
5.1210264326
 11
3.037437012
 21
5.1419664326
  0
LINE
  5
479
100
AcDbEntity
  8
03__ASM_ALL_CURVES
100
AcDbLine
 62
40
  6
CONTINUOUS
 10
8.2050610747
 20
4.2347184326
 11
8.2148766997
 21
4.2281746842
  0
LINE
  5
47A
100
AcDbEntity
  8
03__ASM_ALL_CURVES
100
AcDbLine
 62
40
  6
CONTINUOUS
 10
6.6569357622
 20
5.2676064326
 11
6.6700232622
 21
5.2588814347
  0
LINE
  5
47B
100
AcDbEntity
  8
03__ASM_ALL_CURVES
100
AcDbLine
 62
40
  6
CONTINUOUS
 10
8.3522954497
 20
4.1561934326
 11
8.3424798247
 21
4.1627371828
  0
LINE
  5
47C
100
AcDbEntity
  8
03__ASM_ALL_CURVES
100
AcDbLine
 62
40
  6
CONTINUOUS
 10
6.8532482622
 20
5.1629064326
 11
6.8401607622
 21
5.1716314329
  0
LINE
  5
47D
100
AcDbEntity
  8
03__ASM_ALL_CURVES
100
AcDbLine
 62
40
  6
CONTINUOUS
 10
8.3424798247
 20
4.2085434342
 11
8.3719266997
 21
4.1889121818
  0
LINE
  5
47E
100
AcDbEntity
  8
03__ASM_ALL_CURVES
100
AcDbLine
 62
40
  6
CONTINUOUS
 10
8.4308204497
 20
4.1561934326
 11
8.4210048247
 21
4.1627371828
  0
LINE
  5
47F
100
AcDbEntity
  8
03__ASM_ALL_CURVES
100
AcDbLine
 62
40
  6
CONTINUOUS
 10
6.8401607622
 20
5.2327064347
 11
6.8794232622
 21
5.2065314316
  0
LINE
  5
480
100
AcDbEntity
  8
03__ASM_ALL_CURVES
100
AcDbLine
 62
40
  6
CONTINUOUS
 10
8.3719266997
 20
4.2281746842
 11
8.3621110747
 21
4.2347184326
  0
LINE
  5
481
100
AcDbEntity
  8
03__ASM_ALL_CURVES
100
AcDbLine
 62
40
  6
CONTINUOUS
 10
8.4210048247
 20
4.2085434342
 11
8.4504516997
 21
4.1889121818
  0
LINE
  5
482
100
AcDbEntity
  8
03__ASM_ALL_CURVES
100
AcDbLine
 62
40
  6
CONTINUOUS
 10
8.5093454497
 20
4.1561934326
 11
8.4995298247
 21
4.1627371828
  0
LINE
  5
483
100
AcDbEntity
  8
03__ASM_ALL_CURVES
100
AcDbLine
 62
40
  6
CONTINUOUS
 10
6.8794232622
 20
5.2588814347
 11
6.8663357622
 21
5.2676064326
  0
LINE
  5
484
100
AcDbEntity
  8
03__ASM_ALL_CURVES
100
AcDbLine
 62
40
  6
CONTINUOUS
 10
8.4504516997
 20
4.2281746842
 11
8.4406360747
 21
4.2347184326
  0
LINE
  5
485
100
AcDbEntity
  8
03__ASM_ALL_CURVES
100
AcDbLine
 62
40
  6
CONTINUOUS
 10
7.0626482622
 20
5.1629064326
 11
7.0495607622
 21
5.1716314329
  0
LINE
  5
486
100
AcDbEntity
  8
03__ASM_ALL_CURVES
100
AcDbLine
 62
40
  6
CONTINUOUS
 10
6.6700232622
 20
5.2588814347
 11
6.6765670122
 21
5.2501564305
  0
LINE
  5
487
100
AcDbEntity
  8
03__ASM_ALL_CURVES
100
AcDbLine
 62
40
  6
CONTINUOUS
 10
7.5081516997
 20
4.2281746842
 11
7.5130595122
 21
4.221630931
  0
LINE
  5
488
100
AcDbEntity
  8
03__ASM_ALL_CURVES
100
AcDbLine
 62
40
  6
CONTINUOUS
 10
6.8401607622
 20
5.1716314329
 11
6.8270732622
 21
5.1890814326
  0
LINE
  5
489
100
AcDbEntity
  8
03__ASM_ALL_CURVES
100
AcDbLine
 62
40
  6
CONTINUOUS
 10
6.8336170122
 20
5.2414314326
 11
6.8401607622
 21
5.2327064347
  0
LINE
  5
48A
100
AcDbEntity
  8
03__ASM_ALL_CURVES
100
AcDbLine
 62
40
  6
CONTINUOUS
 10
7.5572298247
 20
4.2831421828
 11
7.5474141997
 21
4.2962296826
  0
LINE
  5
48B
100
AcDbEntity
  8
03__ASM_ALL_CURVES
100
AcDbLine
 62
40
  6
CONTINUOUS
 10
7.5081516997
 20
4.3485796842
 11
7.5130595122
 21
4.342035931
  0
LINE
  5
48C
100
AcDbEntity
  8
03__ASM_ALL_CURVES
100
AcDbLine
 62
40
  6
CONTINUOUS
 10
6.8794232622
 20
5.2065314316
 11
6.8859670122
 21
5.1978064336
  0
LINE
  5
48D
100
AcDbEntity
  8
03__ASM_ALL_CURVES
100
AcDbLine
 62
40
  6
CONTINUOUS
 10
6.8859670122
 20
5.2501564305
 11
6.8794232622
 21
5.2588814347
  0
LINE
  5
48E
100
AcDbEntity
  8
03__ASM_ALL_CURVES
100
AcDbLine
 62
40
  6
CONTINUOUS
 10
7.0364732622
 20
5.1890814326
 11
7.0299295122
 21
5.2152564326
  0
LINE
  5
48F
100
AcDbEntity
  8
03__ASM_ALL_CURVES
100
AcDbLine
 62
40
  6
CONTINUOUS
 10
7.3571170122
 20
5.1629064326
 11
7.3571170122
 21
5.2676064326
  0
LINE
  5
490
100
AcDbEntity
  8
03__ASM_ALL_CURVES
100
AcDbLine
 62
40
  6
CONTINUOUS
 10
7.6701095122
 20
4.3289484342
 11
7.6652016997
 21
4.322404681
  0
LINE
  5
491
100
AcDbEntity
  8
03__ASM_ALL_CURVES
100
AcDbLine
 62
40
  6
CONTINUOUS
 10
7.6701095122
 20
4.1758246826
 11
7.6602938872
 21
4.1627371828
  0
LINE
  5
492
100
AcDbEntity
  8
03__ASM_ALL_CURVES
100
AcDbLine
 62
40
  6
CONTINUOUS
 10
7.7486345122
 20
4.169280933
 11
7.7437266997
 21
4.1627371828
  0
LINE
  5
493
100
AcDbEntity
  8
03__ASM_ALL_CURVES
100
AcDbLine
 62
40
  6
CONTINUOUS
 10
7.7829891997
 20
4.2150871826
 11
7.7928048247
 21
4.2281746842
  0
LINE
  5
494
100
AcDbEntity
  8
03__ASM_ALL_CURVES
100
AcDbLine
 62
40
  6
CONTINUOUS
 10
8.3522954497
 20
4.2347184326
 11
8.3424798247
 21
4.2281746842
  0
LINE
  5
495
100
AcDbEntity
  8
03__ASM_ALL_CURVES
100
AcDbLine
 62
40
  6
CONTINUOUS
 10
8.4308204497
 20
4.2347184326
 11
8.4210048247
 21
4.2281746842
  0
LINE
  5
496
100
AcDbEntity
  8
03__ASM_ALL_CURVES
100
AcDbLine
 62
40
  6
CONTINUOUS
 10
8.3719266997
 20
4.1627371828
 11
8.3621110747
 21
4.1561934326
  0
LINE
  5
497
100
AcDbEntity
  8
03__ASM_ALL_CURVES
100
AcDbLine
 62
40
  6
CONTINUOUS
 10
8.4504516997
 20
4.1627371828
 11
8.4406360747
 21
4.1561934326
  0
LINE
  5
498
100
AcDbEntity
  8
03__ASM_ALL_CURVES
100
AcDbLine
 62
40
  6
CONTINUOUS
 10
8.5289766997
 20
4.1627371828
 11
8.5191610747
 21
4.1561934326
  0
LINE
  5
499
100
AcDbEntity
  8
03__ASM_ALL_CURVES
100
AcDbLine
 62
40
  6
CONTINUOUS
 10
8.6075016997
 20
4.201999681
 11
8.5976860747
 21
4.1954559326
  0
LINE
  5
49A
100
AcDbEntity
  8
03__ASM_ALL_CURVES
100
AcDbLine
 62
40
  6
CONTINUOUS
 10
7.1673482622
 20
5.1629064326
 11
7.1542607622
 21
5.1716314329
  0
LINE
  5
49B
100
AcDbEntity
  8
03__ASM_ALL_CURVES
100
AcDbLine
 62
40
  6
CONTINUOUS
 10
8.5976860747
 20
4.2347184326
 11
8.6075016997
 21
4.2281746842
  0
LINE
  5
49C
100
AcDbEntity
  8
03__ASM_ALL_CURVES
100
AcDbLine
 62
40
  6
CONTINUOUS
 10
7.0757357622
 20
5.2676064326
 11
7.0888232622
 21
5.2588814347
  0
LINE
  5
49D
100
AcDbEntity
  8
03__ASM_ALL_CURVES
100
AcDbLine
 62
40
  6
CONTINUOUS
 10
7.6602938872
 20
4.2281746842
 11
7.6701095122
 21
4.2150871826
  0
LINE
  5
49E
100
AcDbEntity
  8
03__ASM_ALL_CURVES
100
AcDbLine
 62
40
  6
CONTINUOUS
 10
7.7142798247
 20
4.1627371828
 11
7.7093720122
 21
4.169280933
  0
LINE
  5
49F
100
AcDbEntity
  8
03__ASM_ALL_CURVES
100
AcDbLine
 62
40
  6
CONTINUOUS
 10
7.5866766997
 20
4.3485796842
 11
7.5964923247
 21
4.3354921826
  0
LINE
  5
4A0
100
AcDbEntity
  8
03__ASM_ALL_CURVES
100
AcDbLine
 62
40
  6
CONTINUOUS
 10
7.7928048247
 20
4.1627371828
 11
7.7829891997
 21
4.1758246826
  0
LINE
  5
4A1
100
AcDbEntity
  8
03__ASM_ALL_CURVES
100
AcDbLine
 62
40
  6
CONTINUOUS
 10
7.6652016997
 20
4.3485796842
 11
7.6701095122
 21
4.342035931
  0
LINE
  5
4A2
100
AcDbEntity
  8
03__ASM_ALL_CURVES
100
AcDbLine
 62
40
  6
CONTINUOUS
 10
7.0495607622
 20
5.1716314329
 11
7.0364732622
 21
5.1890814326
  0
LINE
  5
4A3
100
AcDbEntity
  8
03__ASM_ALL_CURVES
100
AcDbLine
 62
40
  6
CONTINUOUS
 10
7.8222516997
 20
4.2281746842
 11
7.8271595122
 21
4.221630931
  0
LINE
  5
4A4
100
AcDbEntity
  8
03__ASM_ALL_CURVES
100
AcDbLine
 62
40
  6
CONTINUOUS
 10
7.0888232622
 20
5.2588814347
 11
7.1019107622
 21
5.2414314326
  0
LINE
  5
4A5
100
AcDbEntity
  8
03__ASM_ALL_CURVES
100
AcDbLine
 62
40
  6
CONTINUOUS
 10
7.1542607622
 20
5.1716314329
 11
7.1477170122
 21
5.1803564331
  0
LINE
  5
4A6
100
AcDbEntity
  8
03__ASM_ALL_CURVES
100
AcDbLine
 62
40
  6
CONTINUOUS
 10
7.4983360747
 20
4.1954559326
 11
7.5130595122
 21
4.1561934326
  0
LINE
  5
4A7
100
AcDbEntity
  8
03__ASM_ALL_CURVES
100
AcDbLine
 62
40
  6
CONTINUOUS
 10
7.1019107622
 20
5.2414314326
 11
7.1084545122
 21
5.2152564326
  0
LINE
  5
4A8
100
AcDbEntity
  8
03__ASM_ALL_CURVES
100
AcDbLine
 62
40
  6
CONTINUOUS
 10
7.4618170122
 20
5.1629064326
 11
7.4618170122
 21
5.2676064326
  0
LINE
  5
4A9
100
AcDbEntity
  8
03__ASM_ALL_CURVES
100
AcDbLine
 62
40
  6
CONTINUOUS
 10
7.4737970122
 20
4.1561934326
 11
7.4737970122
 21
4.2347184326
  0
LINE
  5
4AA
100
AcDbEntity
  8
03__ASM_ALL_CURVES
100
AcDbLine
 62
40
  6
CONTINUOUS
 10
7.4737970122
 20
4.2765984326
 11
7.4737970122
 21
4.3551234326
  0
LINE
  5
4AB
100
AcDbEntity
  8
03__ASM_ALL_CURVES
100
AcDbLine
 62
40
  6
CONTINUOUS
 10
7.5130595122
 20
4.342035931
 11
7.5130595122
 21
4.3289484342
  0
LINE
  5
4AC
100
AcDbEntity
  8
03__ASM_ALL_CURVES
100
AcDbLine
 62
40
  6
CONTINUOUS
 10
7.5130595122
 20
4.221630931
 11
7.5130595122
 21
4.2085434342
  0
LINE
  5
4AD
100
AcDbEntity
  8
03__ASM_ALL_CURVES
100
AcDbLine
 62
40
  6
CONTINUOUS
 10
7.5523220122
 20
4.1561934326
 11
7.5523220122
 21
4.2347184326
  0
LINE
  5
4AE
100
AcDbEntity
  8
03__ASM_ALL_CURVES
100
AcDbLine
 62
40
  6
CONTINUOUS
 10
7.5665170122
 20
5.1629064326
 11
7.5665170122
 21
5.2676064326
  0
LINE
  5
4AF
100
AcDbEntity
  8
03__ASM_ALL_CURVES
100
AcDbLine
 62
40
  6
CONTINUOUS
 10
7.6188670122
 20
5.2501564305
 11
7.6188670122
 21
5.2327064347
  0
LINE
  5
4B0
100
AcDbEntity
  8
03__ASM_ALL_CURVES
100
AcDbLine
 62
40
  6
CONTINUOUS
 10
7.6308470122
 20
4.1561934326
 11
7.6308470122
 21
4.2347184326
  0
LINE
  5
4B1
100
AcDbEntity
  8
03__ASM_ALL_CURVES
100
AcDbLine
 62
40
  6
CONTINUOUS
 10
7.6308470122
 20
4.2765984326
 11
7.6308470122
 21
4.3551234326
  0
LINE
  5
4B2
100
AcDbEntity
  8
03__ASM_ALL_CURVES
100
AcDbLine
 62
40
  6
CONTINUOUS
 10
7.5425063872
 20
4.3158609326
 11
7.5474141997
 21
4.3354921826
  0
LINE
  5
4B3
100
AcDbEntity
  8
03__ASM_ALL_CURVES
100
AcDbLine
 62
40
  6
CONTINUOUS
 10
7.6014001372
 20
4.3158609326
 11
7.5964923247
 21
4.2962296826
  0
LINE
  5
4B4
100
AcDbEntity
  8
03__ASM_ALL_CURVES
100
AcDbLine
 62
40
  6
CONTINUOUS
 10
7.6750173247
 20
4.1954559326
 11
7.6701095122
 21
4.1758246826
  0
LINE
  5
4B5
100
AcDbEntity
  8
03__ASM_ALL_CURVES
100
AcDbLine
 62
40
  6
CONTINUOUS
 10
7.8271595122
 20
4.169280933
 11
7.8222516997
 21
4.1627371828
  0
LINE
  5
4B6
100
AcDbEntity
  8
03__ASM_ALL_CURVES
100
AcDbLine
 62
40
  6
CONTINUOUS
 10
7.9842095122
 20
4.1758246826
 11
7.9743938872
 21
4.1627371828
  0
LINE
  5
4B7
100
AcDbEntity
  8
03__ASM_ALL_CURVES
100
AcDbLine
 62
40
  6
CONTINUOUS
 10
7.3832920122
 20
5.2676064326
 11
7.3963795122
 21
5.2588814347
  0
LINE
  5
4B8
100
AcDbEntity
  8
03__ASM_ALL_CURVES
100
AcDbLine
 62
40
  6
CONTINUOUS
 10
7.5992357622
 20
5.2676064326
 11
7.6123232622
 21
5.2588814347
  0
LINE
  5
4B9
100
AcDbEntity
  8
03__ASM_ALL_CURVES
100
AcDbLine
 62
40
  6
CONTINUOUS
 10
7.9743938872
 20
4.2281746842
 11
7.9842095122
 21
4.2150871826
  0
LINE
  5
4BA
100
AcDbEntity
  8
03__ASM_ALL_CURVES
100
AcDbLine
 62
40
  6
CONTINUOUS
 10
8.1363516997
 20
4.2281746842
 11
8.1412595122
 21
4.221630931
  0
LINE
  5
4BB
100
AcDbEntity
  8
03__ASM_ALL_CURVES
100
AcDbLine
 62
40
  6
CONTINUOUS
 10
7.6553860747
 20
4.3158609326
 11
7.6701095122
 21
4.2765984326
  0
LINE
  5
4BC
100
AcDbEntity
  8
03__ASM_ALL_CURVES
100
AcDbLine
 62
40
  6
CONTINUOUS
 10
7.5474141997
 20
4.2962296826
 11
7.5425063872
 21
4.3158609326
  0
LINE
  5
4BD
100
AcDbEntity
  8
03__ASM_ALL_CURVES
100
AcDbLine
 62
40
  6
CONTINUOUS
 10
7.5964923247
 20
4.3354921826
 11
7.6014001372
 21
4.3158609326
  0
LINE
  5
4BE
100
AcDbEntity
  8
03__ASM_ALL_CURVES
100
AcDbLine
 62
40
  6
CONTINUOUS
 10
7.4094670122
 20
5.2414314326
 11
7.4160107622
 21
5.2152564326
  0
LINE
  5
4BF
100
AcDbEntity
  8
03__ASM_ALL_CURVES
100
AcDbLine
 62
40
  6
CONTINUOUS
 10
7.6701095122
 20
4.2150871826
 11
7.6750173247
 21
4.1954559326
  0
LINE
  5
4C0
100
AcDbEntity
  8
03__ASM_ALL_CURVES
100
AcDbLine
 62
40
  6
CONTINUOUS
 10
7.6701095122
 20
4.342035931
 11
7.6701095122
 21
4.3289484342
  0
LINE
  5
4C1
100
AcDbEntity
  8
03__ASM_ALL_CURVES
100
AcDbLine
 62
40
  6
CONTINUOUS
 10
7.7093720122
 20
4.169280933
 11
7.7093720122
 21
4.2347184326
  0
LINE
  5
4C2
100
AcDbEntity
  8
03__ASM_ALL_CURVES
100
AcDbLine
 62
40
  6
CONTINUOUS
 10
7.7290032622
 20
4.3551234326
 11
7.7290032622
 21
4.2765984326
  0
LINE
  5
4C3
100
AcDbEntity
  8
03__ASM_ALL_CURVES
100
AcDbLine
 62
40
  6
CONTINUOUS
 10
7.7486345122
 20
4.2347184326
 11
7.7486345122
 21
4.169280933
  0
LINE
  5
4C4
100
AcDbEntity
  8
03__ASM_ALL_CURVES
100
AcDbLine
 62
40
  6
CONTINUOUS
 10
7.8075282622
 20
4.3551234326
 11
7.8075282622
 21
4.2765984326
  0
LINE
  5
4C5
100
AcDbEntity
  8
03__ASM_ALL_CURVES
100
AcDbLine
 62
40
  6
CONTINUOUS
 10
7.7780813872
 20
4.1954559326
 11
7.7829891997
 21
4.2150871826
  0
LINE
  5
4C6
100
AcDbEntity
  8
03__ASM_ALL_CURVES
100
AcDbLine
 62
40
  6
CONTINUOUS
 10
8.1412595122
 20
4.2085434342
 11
8.1363516997
 21
4.201999681
  0
LINE
  5
4C7
100
AcDbEntity
  8
03__ASM_ALL_CURVES
100
AcDbLine
 62
40
  6
CONTINUOUS
 10
8.2197845122
 20
4.2085434342
 11
8.2148766997
 21
4.201999681
  0
LINE
  5
4C8
100
AcDbEntity
  8
03__ASM_ALL_CURVES
100
AcDbLine
 62
40
  6
CONTINUOUS
 10
7.3963795122
 20
5.2588814347
 11
7.4094670122
 21
5.2414314326
  0
LINE
  5
4C9
100
AcDbEntity
  8
03__ASM_ALL_CURVES
100
AcDbLine
 62
40
  6
CONTINUOUS
 10
8.2148766997
 20
4.2281746842
 11
8.2197845122
 21
4.221630931
  0
LINE
  5
4CA
100
AcDbEntity
  8
03__ASM_ALL_CURVES
100
AcDbLine
 62
40
  6
CONTINUOUS
 10
8.3424798247
 20
4.1627371828
 11
8.3326641997
 21
4.1758246826
  0
LINE
  5
4CB
100
AcDbEntity
  8
03__ASM_ALL_CURVES
100
AcDbLine
 62
40
  6
CONTINUOUS
 10
8.3375720122
 20
4.2150871826
 11
8.3424798247
 21
4.2085434342
  0
LINE
  5
4CC
100
AcDbEntity
  8
03__ASM_ALL_CURVES
100
AcDbLine
 62
40
  6
CONTINUOUS
 10
8.3719266997
 20
4.1889121818
 11
8.3768345122
 21
4.1823684334
  0
LINE
  5
4CD
100
AcDbEntity
  8
03__ASM_ALL_CURVES
100
AcDbLine
 62
40
  6
CONTINUOUS
 10
8.4210048247
 20
4.1627371828
 11
8.4111891997
 21
4.1758246826
  0
LINE
  5
4CE
100
AcDbEntity
  8
03__ASM_ALL_CURVES
100
AcDbLine
 62
40
  6
CONTINUOUS
 10
8.3768345122
 20
4.221630931
 11
8.3719266997
 21
4.2281746842
  0
LINE
  5
4CF
100
AcDbEntity
  8
03__ASM_ALL_CURVES
100
AcDbLine
 62
40
  6
CONTINUOUS
 10
7.6123232622
 20
5.2588814347
 11
7.6188670122
 21
5.2501564305
  0
LINE
  5
4D0
100
AcDbEntity
  8
03__ASM_ALL_CURVES
100
AcDbLine
 62
40
  6
CONTINUOUS
 10
8.4160970122
 20
4.2150871826
 11
8.4210048247
 21
4.2085434342
  0
LINE
  5
4D1
100
AcDbEntity
  8
03__ASM_ALL_CURVES
100
AcDbLine
 62
40
  6
CONTINUOUS
 10
8.4504516997
 20
4.1889121818
 11
8.4553595122
 21
4.1823684334
  0
LINE
  5
4D2
100
AcDbEntity
  8
03__ASM_ALL_CURVES
100
AcDbLine
 62
40
  6
CONTINUOUS
 10
7.5992357622
 20
5.2152564326
 11
7.6188670122
 21
5.1629064326
  0
LINE
  5
4D3
100
AcDbEntity
  8
03__ASM_ALL_CURVES
100
AcDbLine
 62
40
  6
CONTINUOUS
 10
7.7829891997
 20
4.1758246826
 11
7.7780813872
 21
4.1954559326
  0
LINE
  5
4D4
100
AcDbEntity
  8
03__ASM_ALL_CURVES
100
AcDbLine
 62
40
  6
CONTINUOUS
 10
7.8664220122
 20
4.1561934326
 11
7.8664220122
 21
4.2347184326
  0
LINE
  5
4D5
100
AcDbEntity
  8
03__ASM_ALL_CURVES
100
AcDbLine
 62
40
  6
CONTINUOUS
 10
7.9449470122
 20
4.1561934326
 11
7.9449470122
 21
4.2347184326
  0
LINE
  5
4D6
100
AcDbEntity
  8
03__ASM_ALL_CURVES
100
AcDbLine
 62
40
  6
CONTINUOUS
 10
7.9891173247
 20
4.1954559326
 11
7.9842095122
 21
4.1758246826
  0
LINE
  5
4D7
100
AcDbEntity
  8
03__ASM_ALL_CURVES
100
AcDbLine
 62
40
  6
CONTINUOUS
 10
8.3424798247
 20
4.2281746842
 11
8.3375720122
 21
4.221630931
  0
LINE
  5
4D8
100
AcDbEntity
  8
03__ASM_ALL_CURVES
100
AcDbLine
 62
40
  6
CONTINUOUS
 10
8.3768345122
 20
4.169280933
 11
8.3719266997
 21
4.1627371828
  0
LINE
  5
4D9
100
AcDbEntity
  8
03__ASM_ALL_CURVES
100
AcDbLine
 62
40
  6
CONTINUOUS
 10
8.4210048247
 20
4.2281746842
 11
8.4160970122
 21
4.221630931
  0
LINE
  5
4DA
100
AcDbEntity
  8
03__ASM_ALL_CURVES
100
AcDbLine
 62
40
  6
CONTINUOUS
 10
8.4553595122
 20
4.169280933
 11
8.4504516997
 21
4.1627371828
  0
LINE
  5
4DB
100
AcDbEntity
  8
03__ASM_ALL_CURVES
100
AcDbLine
 62
40
  6
CONTINUOUS
 10
8.5338845122
 20
4.169280933
 11
8.5289766997
 21
4.1627371828
  0
LINE
  5
4DC
100
AcDbEntity
  8
03__ASM_ALL_CURVES
100
AcDbLine
 62
40
  6
CONTINUOUS
 10
8.4995298247
 20
4.1627371828
 11
8.4946220122
 21
4.169280933
  0
LINE
  5
4DD
100
AcDbEntity
  8
03__ASM_ALL_CURVES
100
AcDbLine
 62
40
  6
CONTINUOUS
 10
8.4553595122
 20
4.221630931
 11
8.4504516997
 21
4.2281746842
  0
LINE
  5
4DE
100
AcDbEntity
  8
03__ASM_ALL_CURVES
100
AcDbLine
 62
40
  6
CONTINUOUS
 10
8.6075016997
 20
4.2281746842
 11
8.6124095122
 21
4.221630931
  0
LINE
  5
4DF
100
AcDbEntity
  8
03__ASM_ALL_CURVES
100
AcDbLine
 62
40
  6
CONTINUOUS
 10
8.2050610747
 20
4.1954559326
 11
8.2197845122
 21
4.1561934326
  0
LINE
  5
4E0
100
AcDbEntity
  8
03__ASM_ALL_CURVES
100
AcDbLine
 62
40
  6
CONTINUOUS
 10
7.9842095122
 20
4.2150871826
 11
7.9891173247
 21
4.1954559326
  0
LINE
  5
4E1
100
AcDbEntity
  8
03__ASM_ALL_CURVES
100
AcDbLine
 62
40
  6
CONTINUOUS
 10
8.1019970122
 20
4.1561934326
 11
8.1019970122
 21
4.2347184326
  0
LINE
  5
4E2
100
AcDbEntity
  8
03__ASM_ALL_CURVES
100
AcDbLine
 62
40
  6
CONTINUOUS
 10
8.1412595122
 20
4.221630931
 11
8.1412595122
 21
4.2085434342
  0
LINE
  5
4E3
100
AcDbEntity
  8
03__ASM_ALL_CURVES
100
AcDbLine
 62
40
  6
CONTINUOUS
 10
8.1805220122
 20
4.1561934326
 11
8.1805220122
 21
4.2347184326
  0
LINE
  5
4E4
100
AcDbEntity
  8
03__ASM_ALL_CURVES
100
AcDbLine
 62
40
  6
CONTINUOUS
 10
8.2197845122
 20
4.221630931
 11
8.2197845122
 21
4.2085434342
  0
LINE
  5
4E5
100
AcDbEntity
  8
03__ASM_ALL_CURVES
100
AcDbLine
 62
40
  6
CONTINUOUS
 10
8.2590470122
 20
4.1561934326
 11
8.2590470122
 21
4.2347184326
  0
LINE
  5
4E6
100
AcDbEntity
  8
03__ASM_ALL_CURVES
100
AcDbLine
 62
40
  6
CONTINUOUS
 10
8.6124095122
 20
4.2085434342
 11
8.6075016997
 21
4.201999681
  0
LINE
  5
4E7
100
AcDbEntity
  8
03__ASM_ALL_CURVES
100
AcDbLine
 62
40
  6
CONTINUOUS
 10
8.3375720122
 20
4.221630931
 11
8.3375720122
 21
4.2150871826
  0
LINE
  5
4E8
100
AcDbEntity
  8
03__ASM_ALL_CURVES
100
AcDbLine
 62
40
  6
CONTINUOUS
 10
8.3768345122
 20
4.1823684334
 11
8.3768345122
 21
4.169280933
  0
LINE
  5
4E9
100
AcDbEntity
  8
03__ASM_ALL_CURVES
100
AcDbLine
 62
40
  6
CONTINUOUS
 10
8.4160970122
 20
4.221630931
 11
8.4160970122
 21
4.2150871826
  0
LINE
  5
4EA
100
AcDbEntity
  8
03__ASM_ALL_CURVES
100
AcDbLine
 62
40
  6
CONTINUOUS
 10
8.4553595122
 20
4.1823684334
 11
8.4553595122
 21
4.169280933
  0
LINE
  5
4EB
100
AcDbEntity
  8
03__ASM_ALL_CURVES
100
AcDbLine
 62
40
  6
CONTINUOUS
 10
8.5976860747
 20
4.1954559326
 11
8.6124095122
 21
4.1561934326
  0
LINE
  5
4EC
100
AcDbEntity
  8
03__ASM_ALL_CURVES
100
AcDbLine
 62
40
  6
CONTINUOUS
 10
8.4946220122
 20
4.169280933
 11
8.4946220122
 21
4.2347184326
  0
LINE
  5
4ED
100
AcDbEntity
  8
03__ASM_ALL_CURVES
100
AcDbLine
 62
40
  6
CONTINUOUS
 10
8.5338845122
 20
4.2347184326
 11
8.5338845122
 21
4.169280933
  0
LINE
  5
4EE
100
AcDbEntity
  8
03__ASM_ALL_CURVES
100
AcDbLine
 62
40
  6
CONTINUOUS
 10
8.5731470122
 20
4.1561934326
 11
8.5731470122
 21
4.2347184326
  0
LINE
  5
4EF
100
AcDbEntity
  8
03__ASM_ALL_CURVES
100
AcDbLine
 62
40
  6
CONTINUOUS
 10
8.6124095122
 20
4.221630931
 11
8.6124095122
 21
4.2085434342
  0
LINE
  5
4F0
100
AcDbEntity
  8
03__ASM_ALL_CURVES
100
AcDbLine
 62
40
  6
CONTINUOUS
 10
8.6516720122
 20
4.1561934326
 11
8.6516720122
 21
4.2347184326
  0
ARC
  5
4F1
100
AcDbEntity
  8
0
100
AcDbCircle
 62
7
  6
CONTINUOUS
 10
3.473797012
 20
4.4326584326
 40
0.094
100
AcDbArc
 50
90.0
 51
131.267427381
  0
ARC
  5
4F2
100
AcDbEntity
  8
0
100
AcDbCircle
 62
7
  6
CONTINUOUS
 10
3.473797012
 20
4.0786584326
 40
0.094
100
AcDbArc
 50
228.732572619
 51
270.0
  0
CIRCLE
  5
4F3
100
AcDbEntity
  8
0
100
AcDbCircle
 62
7
  6
CONTINUOUS
 10
6.691797012
 20
4.2556584326
 40
0.078
  0
ARC
  5
4F4
100
AcDbEntity
  8
0
100
AcDbCircle
 62
7
  6
CONTINUOUS
 10
3.160797012
 20
4.0941584326
 40
0.0175
100
AcDbArc
 50
180.0
 51
360.0
  0
ARC
  5
4F5
100
AcDbEntity
  8
THREAD
100
AcDbCircle
 62
7
  6
CONTINUOUS
 10
5.9042914585
 20
3.7846584326
 40
0.013
100
AcDbArc
 50
29.9999999933
 51
90.0
  0
ARC
  5
4F6
100
AcDbEntity
  8
THREAD
100
AcDbCircle
 62
7
  6
CONTINUOUS
 10
5.9042914585
 20
4.7266584326
 40
0.013
100
AcDbArc
 50
270.0
 51
330.0000000082
  0
ARC
  5
4F7
100
AcDbEntity
  8
0
100
AcDbCircle
 62
7
  6
CONTINUOUS
 10
5.728797012
 20
3.7252716812
 40
0.005
100
AcDbArc
 50
120.0000000209
 51
179.9999999996
  0
ARC
  5
4F8
100
AcDbEntity
  8
0
100
AcDbCircle
 62
7
  6
CONTINUOUS
 10
5.728797012
 20
4.7860451839
 40
0.005
100
AcDbArc
 50
180.0000000003
 51
239.9999999837
  0
ARC
  5
4F9
100
AcDbEntity
  8
0
100
AcDbCircle
 62
7
  6
CONTINUOUS
 10
5.720797012
 20
3.7206584326
 40
0.003
100
AcDbArc
 50
270.0
 51
360.0
  0
ARC
  5
4FA
100
AcDbEntity
  8
0
100
AcDbCircle
 62
7
  6
CONTINUOUS
 10
5.720797012
 20
4.7906584326
 40
0.003
100
AcDbArc
 50
0.0
 51
90.0
  0
SPLINE
  5
4FB
100
AcDbEntity
  8
0
100
AcDbSpline
 62
7
  6
CONTINUOUS
 70
0
 71
3
 72
65
 73
61
 74
59
 42
0.0000001
 43
0.0000001
 44
0.0000000001
 12
0.0
 22
-0.2641587177
 32
-0.0259009887
 13
0.0
 23
-0.0268312025
 33
-0.2688140424
 40
0.0
 40
0.0
 40
0.0
 40
0.0
 40
0.0625
 40
0.09375
 40
0.109375
 40
0.1171875
 40
0.125
 40
0.1328125
 40
0.140625
 40
0.15625
 40
0.1875
 40
0.21875
 40
0.234375
 40
0.2421875
 40
0.25
 40
0.2578125
 40
0.265625
 40
0.28125
 40
0.3125
 40
0.34375
 40
0.359375
 40
0.3671875
 40
0.375
 40
0.3828125
 40
0.390625
 40
0.40625
 40
0.4375
 40
0.46875
 40
0.484375
 40
0.4921875
 40
0.5
 40
0.5078125
 40
0.515625
 40
0.53125
 40
0.5625
 40
0.59375
 40
0.609375
 40
0.6171875
 40
0.625
 40
0.6328125
 40
0.640625
 40
0.65625
 40
0.6875
 40
0.71875
 40
0.734375
 40
0.7421875
 40
0.75
 40
0.7578125
 40
0.765625
 40
0.78125
 40
0.8125
 40
0.84375
 40
0.859375
 40
0.8671875
 40
0.875
 40
0.8828125
 40
0.890625
 40
0.90625
 40
0.9375
 40
1.0
 40
1.0
 40
1.0
 40
1.0
 10
2.928797012
 20
4.2556584326
 30
0.17
 10
2.928797012
 20
4.250155126
 30
0.1694603961
 10
2.928797012
 20
4.2418983692
 30
0.1686600646
 10
2.928797012
 20
4.2322717752
 30
0.1676945841
 10
2.928797012
 20
4.2274506171
 30
0.1672515444
 10
2.928797012
 20
4.2247082474
 30
0.1669348579
 10
2.928797012
 20
4.2226159829
 30
0.1668765628
 10
2.928797012
 20
4.2206593783
 30
0.1661331494
 10
2.928797012
 20
4.2180032266
 30
0.1653809722
 10
2.928797012
 20
4.2133772799
 30
0.1639526496
 10
2.928797012
 20
4.2067550272
 30
0.161975893
 10
2.928797012
 20
4.2001452921
 30
0.1599576766
 10
2.928797012
 20
4.1955018208
 30
0.1585873977
 10
2.928797012
 20
4.1928732077
 30
0.1577440091
 10
2.928797012
 20
4.1908321097
 30
0.1572804489
 10
2.928797012
 20
4.189057165
 30
0.1561711494
 10
2.928797012
 20
4.1865977013
 30
0.1549173863
 10
2.928797012
 20
4.1823372452
 30
0.1526177082
 10
2.928797012
 20
4.1762253849
 30
0.1493926477
 10
2.928797012
 20
4.1701324445
 30
0.1461279404
 10
2.928797012
 20
4.1658455006
 30
0.1438837678
 10
2.928797012
 20
4.1634276607
 30
0.1425427817
 10
2.928797012
 20
4.1615250069
 30
0.141701098
 10
2.928797012
 20
4.1599635272
 30
0.1402324919
 10
2.928797012
 20
4.1577624957
 30
0.1384930736
 10
2.928797012
 20
4.1539666972
 30
0.1353467271
 10
2.928797012
 20
4.14851054
 30
0.1309091437
 10
2.928797012
 20
4.1430820554
 30
0.126437751
 10
2.928797012
 20
4.1392475152
 30
0.1233387377
 10
2.928797012
 20
4.1371073635
 30
0.1215249387
 10
2.928797012
 20
4.1353590934
 30
0.120284546
 10
2.928797012
 20
4.1341579416
 30
0.1185857943
 10
2.928797012
 20
4.1323655078
 30
0.1164807112
 10
2.928797012
 20
4.1293182642
 30
0.1127219208
 10
2.928797012
 20
4.1249136513
 30
0.1073944803
 10
2.928797012
 20
4.1205441634
 30
0.1020406568
 10
2.928797012
 20
4.1174477448
 30
0.0983188027
 10
2.928797012
 20
4.1157325859
 30
0.0961556769
 10
2.928797012
 20
4.1142943407
 30
0.0946350109
 10
2.928797012
 20
4.1134364881
 30
0.0927258074
 10
2.928797012
 20
4.1120901738
 30
0.0903157557
 10
2.928797012
 20
4.1098291127
 30
0.0860347404
 10
2.928797012
 20
4.1065442506
 30
0.0799543229
 10
2.928797012
 20
4.1032975567
 30
0.0738534398
 10
2.928797012
 20
4.1009830601
 30
0.0696010762
 10
2.928797012
 20
4.0997207158
 30
0.0671460003
 10
2.928797012
 20
4.0986052281
 30
0.0653749395
 10
2.928797012
 20
4.0981345458
 30
0.0633354708
 10
2.928797012
 20
4.0972819868
 30
0.060709823
 10
2.928797012
 20
4.0958955074
 30
0.0560711076
 10
2.928797012
 20
4.0938542318
 30
0.0494689076
 10
2.928797012
 20
4.0918543686
 30
0.0428520514
 10
2.928797012
 20
4.0904099119
 30
0.0382338547
 10
2.928797012
 20
4.0896484599
 30
0.0355759632
 10
2.928797012
 20
4.0888982448
 30
0.0336354238
 10
2.928797012
 20
4.0888325584
 30
0.0314928289
 10
2.928797012
 20
4.0885062226
 30
0.0287065098
 10
2.928797012
 20
4.0880462008
 30
0.0237976676
 10
2.928797012
 20
4.0870468245
 30
0.0140034002
 10
2.928797012
 20
4.086217416
 30
0.0056002851
 10
2.928797012
 20
4.0856584326
 30
-0.0000000074
 11
2.928797012
 21
4.2556584326
 31
0.17
 11
2.928797012
 21
4.2391485127
 31
0.1683811882
 11
2.928797012
 21
4.2308935528
 31
0.1675717823
 11
2.928797012
 21
4.2267660729
 31
0.1671670794
 11
2.928797012
 21
4.2247023329
 31
0.1669647279
 11
2.928797012
 21
4.2226385929
 31
0.1667623764
 11
2.928797012
 21
4.2206534601
 31
0.1661630295
 11
2.928797012
 21
4.2186683274
 31
0.1655636826
 11
2.928797012
 21
4.2146980618
 31
0.1643649887
 11
2.928797012
 21
4.2067575308
 31
0.1619676011
 11
2.928797012
 21
4.1988169997
 31
0.1595702134
 11
2.928797012
 21
4.1948467342
 31
0.1583715196
 11
2.928797012
 21
4.1928616014
 31
0.1577721726
 11
2.928797012
 21
4.1908764686
 31
0.1571728257
 11
2.928797012
 21
4.1890455562
 31
0.1561993123
 11
2.928797012
 21
4.1872146437
 31
0.1552257989
 11
2.928797012
 21
4.1835528188
 31
0.153278772
 11
2.928797012
 21
4.1762291689
 31
0.1493847183
 11
2.928797012
 21
4.1689055191
 31
0.1454906646
 11
2.928797012
 21
4.1652436941
 31
0.1435436378
 11
2.928797012
 21
4.1634127817
 31
0.1425701243
 11
2.928797012
 21
4.1615818692
 31
0.1415966109
 11
2.928797012
 21
4.1599486449
 31
0.1402598323
 11
2.928797012
 21
4.1583154205
 31
0.1389230537
 11
2.928797012
 21
4.1550489719
 31
0.1362494964
 11
2.928797012
 21
4.1485160745
 31
0.1309023819
 11
2.928797012
 21
4.1419831772
 31
0.1255552673
 11
2.928797012
 21
4.1387167285
 31
0.1228817101
 11
2.928797012
 21
4.1370835041
 31
0.1215449314
 11
2.928797012
 21
4.1354502798
 31
0.1202081528
 11
2.928797012
 21
4.1341340794
 31
0.1186057842
 11
2.928797012
 21
4.1328178789
 31
0.1170034155
 11
2.928797012
 21
4.1301854781
 31
0.1137986783
 11
2.928797012
 21
4.1249206763
 31
0.1073892037
 11
2.928797012
 21
4.1196558746
 31
0.1009797292
 11
2.928797012
 21
4.1170234737
 31
0.0977749919
 11
2.928797012
 21
4.1157072733
 31
0.0961726233
 11
2.928797012
 21
4.1143910728
 31
0.0945702546
 11
2.928797012
 21
4.1134111742
 31
0.0927427515
 11
2.928797012
 21
4.1124312757
 31
0.0909152484
 11
2.928797012
 21
4.1104714785
 31
0.0872602422
 11
2.928797012
 21
4.1065518843
 31
0.0799502297
 11
2.928797012
 21
4.10263229
 31
0.0726402173
 11
2.928797012
 21
4.1006724928
 31
0.0689852111
 11
2.928797012
 21
4.0996925943
 31
0.067157708
 11
2.928797012
 21
4.0987126957
 31
0.0653302049
 11
2.928797012
 21
4.098106423
 31
0.0633471763
 11
2.928797012
 21
4.0975001503
 31
0.0613641477
 11
2.928797012
 21
4.096287605
 31
0.0573980906
 11
2.928797012
 21
4.0938625143
 31
0.0494659764
 11
2.928797012
 21
4.0914374236
 31
0.0415338621
 11
2.928797012
 21
4.0902248783
 31
0.037567805
 11
2.928797012
 21
4.0896186056
 31
0.0355847764
 11
2.928797012
 21
4.0890123329
 31
0.0336017479
 11
2.928797012
 21
4.0888027141
 31
0.0315016382
 11
2.928797012
 21
4.0885930954
 31
0.0294015285
 11
2.928797012
 21
4.0881738578
 31
0.025201309
 11
2.928797012
 21
4.0873353828
 31
0.0168008702
 11
2.928797012
 21
4.0856584326
 31
-0.0000000074
  0
SPLINE
  5
4FC
100
AcDbEntity
  8
0
100
AcDbSpline
 62
7
  6
CONTINUOUS
 70
0
 71
3
 72
65
 73
61
 74
59
 42
0.0000001
 43
0.0000001
 44
0.0000000001
 12
0.0
 22
-0.0259009887
 32
0.2641587177
 13
0.0
 23
-0.2688140424
 33
0.0268312025
 40
0.0
 40
0.0
 40
0.0
 40
0.0
 40
0.0625
 40
0.09375
 40
0.109375
 40
0.1171875
 40
0.125
 40
0.1328125
 40
0.140625
 40
0.15625
 40
0.1875
 40
0.21875
 40
0.234375
 40
0.2421875
 40
0.25
 40
0.2578125
 40
0.265625
 40
0.28125
 40
0.3125
 40
0.34375
 40
0.359375
 40
0.3671875
 40
0.375
 40
0.3828125
 40
0.390625
 40
0.40625
 40
0.4375
 40
0.46875
 40
0.484375
 40
0.4921875
 40
0.5
 40
0.5078125
 40
0.515625
 40
0.53125
 40
0.5625
 40
0.59375
 40
0.609375
 40
0.6171875
 40
0.625
 40
0.6328125
 40
0.640625
 40
0.65625
 40
0.6875
 40
0.71875
 40
0.734375
 40
0.7421875
 40
0.75
 40
0.7578125
 40
0.765625
 40
0.78125
 40
0.8125
 40
0.84375
 40
0.859375
 40
0.8671875
 40
0.875
 40
0.8828125
 40
0.890625
 40
0.90625
 40
0.9375
 40
1.0
 40
1.0
 40
1.0
 40
1.0
 10
2.928797012
 20
4.4256584326
 30
0.0
 10
2.928797012
 20
4.4251188287
 30
0.0055033066
 10
2.928797012
 20
4.4243184972
 30
0.0137600634
 10
2.928797012
 20
4.4233530167
 30
0.0233866574
 10
2.928797012
 20
4.422909977
 30
0.0282078155
 10
2.928797012
 20
4.4225932905
 30
0.0309501852
 10
2.928797012
 20
4.4225349954
 30
0.0330424497
 10
2.928797012
 20
4.421791582
 30
0.0349990543
 10
2.928797012
 20
4.4210394048
 30
0.037655206
 10
2.928797012
 20
4.4196110822
 30
0.0422811527
 10
2.928797012
 20
4.4176343256
 30
0.0489034054
 10
2.928797012
 20
4.4156161092
 30
0.0555131405
 10
2.928797012
 20
4.4142458303
 30
0.0601566118
 10
2.928797012
 20
4.4134024417
 30
0.0627852248
 10
2.928797012
 20
4.4129388815
 30
0.0648263229
 10
2.928797012
 20
4.411829582
 30
0.0666012676
 10
2.928797012
 20
4.4105758189
 30
0.0690607313
 10
2.928797012
 20
4.4082761408
 30
0.0733211874
 10
2.928797012
 20
4.4050510803
 30
0.0794330476
 10
2.928797012
 20
4.401786373
 30
0.0855259881
 10
2.928797012
 20
4.3995422004
 30
0.089812932
 10
2.928797012
 20
4.3982012143
 30
0.0922307719
 10
2.928797012
 20
4.3973595306
 30
0.0941334257
 10
2.928797012
 20
4.3958909245
 30
0.0956949054
 10
2.928797012
 20
4.3941515062
 30
0.0978959369
 10
2.928797012
 20
4.3910051597
 30
0.1016917354
 10
2.928797012
 20
4.3865675763
 30
0.1071478926
 10
2.928797012
 20
4.3820961836
 30
0.1125763772
 10
2.928797012
 20
4.3789971703
 30
0.1164109174
 10
2.928797012
 20
4.3771833713
 30
0.1185510691
 10
2.928797012
 20
4.3759429786
 30
0.1202993392
 10
2.928797012
 20
4.3742442269
 30
0.121500491
 10
2.928797012
 20
4.3721391438
 30
0.1232929248
 10
2.928797012
 20
4.3683803534
 30
0.1263401684
 10
2.928797012
 20
4.3630529129
 30
0.1307447813
 10
2.928797012
 20
4.3576990894
 30
0.1351142692
 10
2.928797012
 20
4.3539772353
 30
0.1382106878
 10
2.928797012
 20
4.3518141095
 30
0.1399258467
 10
2.928797012
 20
4.3502934435
 30
0.1413640919
 10
2.928797012
 20
4.34838424
 30
0.1422219445
 10
2.928797012
 20
4.3459741883
 30
0.1435682588
 10
2.928797012
 20
4.341693173
 30
0.1458293199
 10
2.928797012
 20
4.3356127555
 30
0.149114182
 10
2.928797012
 20
4.3295118724
 30
0.1523608759
 10
2.928797012
 20
4.3252595088
 30
0.1546753725
 10
2.928797012
 20
4.3228044329
 30
0.1559377168
 10
2.928797012
 20
4.3210333721
 30
0.1570532045
 10
2.928797012
 20
4.3189939034
 30
0.1575238867
 10
2.928797012
 20
4.3163682556
 30
0.1583764458
 10
2.928797012
 20
4.3117295402
 30
0.1597629252
 10
2.928797012
 20
4.3051273402
 30
0.1618042008
 10
2.928797012
 20
4.298510484
 30
0.163804064
 10
2.928797012
 20
4.2938922873
 30
0.1652485207
 10
2.928797012
 20
4.2912343958
 30
0.1660099727
 10
2.928797012
 20
4.2892938564
 30
0.1667601878
 10
2.928797012
 20
4.2871512615
 30
0.1668258742
 10
2.928797012
 20
4.2843649424
 30
0.16715221
 10
2.928797012
 20
4.2794561002
 30
0.1676122318
 10
2.928797012
 20
4.2696618328
 30
0.1686116081
 10
2.928797012
 20
4.2612587177
 30
0.1694410166
 10
2.928797012
 20
4.2556584252
 30
0.17
 11
2.928797012
 21
4.4256584326
 31
0.0
 11
2.928797012
 21
4.4240396208
 31
0.0165099199
 11
2.928797012
 21
4.4232302149
 31
0.0247648798
 11
2.928797012
 21
4.422825512
 31
0.0288923597
 11
2.928797012
 21
4.4226231605
 31
0.0309560997
 11
2.928797012
 21
4.422420809
 31
0.0330198397
 11
2.928797012
 21
4.4218214621
 31
0.0350049725
 11
2.928797012
 21
4.4212221152
 31
0.0369901052
 11
2.928797012
 21
4.4200234213
 31
0.0409603708
 11
2.928797012
 21
4.4176260337
 31
0.0489009018
 11
2.928797012
 21
4.415228646
 31
0.0568414329
 11
2.928797012
 21
4.4140299521
 31
0.0608116984
 11
2.928797012
 21
4.4134306052
 31
0.0627968312
 11
2.928797012
 21
4.4128312583
 31
0.064781964
 11
2.928797012
 21
4.4118577449
 31
0.0666128764
 11
2.928797012
 21
4.4108842315
 31
0.0684437889
 11
2.928797012
 21
4.4089372046
 31
0.0721056138
 11
2.928797012
 21
4.4050431509
 31
0.0794292637
 11
2.928797012
 21
4.4011490972
 31
0.0867529135
 11
2.928797012
 21
4.3992020704
 31
0.0904147384
 11
2.928797012
 21
4.3982285569
 31
0.0922456509
 11
2.928797012
 21
4.3972550435
 31
0.0940765634
 11
2.928797012
 21
4.3959182649
 31
0.0957097877
 11
2.928797012
 21
4.3945814863
 31
0.0973430121
 11
2.928797012
 21
4.391907929
 31
0.1006094607
 11
2.928797012
 21
4.3865608145
 31
0.1071423581
 11
2.928797012
 21
4.3812136999
 31
0.1136752554
 11
2.928797012
 21
4.3785401427
 31
0.1169417041
 11
2.928797012
 21
4.377203364
 31
0.1185749285
 11
2.928797012
 21
4.3758665854
 31
0.1202081528
 11
2.928797012
 21
4.3742642168
 31
0.1215243532
 11
2.928797012
 21
4.3726618481
 31
0.1228405537
 11
2.928797012
 21
4.3694571109
 31
0.1254729545
 11
2.928797012
 21
4.3630476363
 31
0.1307377563
 11
2.928797012
 21
4.3566381618
 31
0.136002558
 11
2.928797012
 21
4.3534334245
 31
0.1386349589
 11
2.928797012
 21
4.3518310559
 31
0.1399511593
 11
2.928797012
 21
4.3502286872
 31
0.1412673598
 11
2.928797012
 21
4.3484011841
 31
0.1422472583
 11
2.928797012
 21
4.346573681
 31
0.1432271569
 11
2.928797012
 21
4.3429186748
 31
0.1451869541
 11
2.928797012
 21
4.3356086623
 31
0.1491065483
 11
2.928797012
 21
4.3282986499
 31
0.1530261426
 11
2.928797012
 21
4.3246436437
 31
0.1549859398
 11
2.928797012
 21
4.3228161406
 31
0.1559658383
 11
2.928797012
 21
4.3209886374
 31
0.1569457369
 11
2.928797012
 21
4.3190056089
 31
0.1575520096
 11
2.928797012
 21
4.3170225803
 31
0.1581582823
 11
2.928797012
 21
4.3130565232
 31
0.1593708276
 11
2.928797012
 21
4.305124409
 31
0.1617959183
 11
2.928797012
 21
4.2971922947
 31
0.164221009
 11
2.928797012
 21
4.2932262376
 31
0.1654335543
 11
2.928797012
 21
4.291243209
 31
0.166039827
 11
2.928797012
 21
4.2892601805
 31
0.1666460997
 11
2.928797012
 21
4.2871600708
 31
0.1668557185
 11
2.928797012
 21
4.285059961
 31
0.1670653372
 11
2.928797012
 21
4.2808597416
 31
0.1674845748
 11
2.928797012
 21
4.2724593028
 31
0.1683230498
 11
2.928797012
 21
4.2556584252
 31
0.17
  0
SPLINE
  5
4FD
100
AcDbEntity
  8
0
100
AcDbSpline
 62
7
  6
CONTINUOUS
 70
0
 71
3
 72
20
 73
16
 74
14
 42
0.0000001
 43
0.0000001
 44
0.0000000001
 12
0.0
 22
0.0416605862
 32
0.0
 13
0.0
 23
-0.0416605862
 33
0.0
 40
0.0
 40
0.0
 40
0.0
 40
0.0
 40
0.0489307848
 40
0.1062135912
 40
0.175871992
 40
0.2580136346
 40
0.3503828832
 40
0.4493672053
 40
0.5506327947
 40
0.6496171168
 40
0.7419863654
 40
0.824128008
 40
0.8937864088
 40
0.9510692152
 40
1.0
 40
1.0
 40
1.0
 40
1.0
 10
3.178297012
 20
4.3317820014
 30
0.0
 10
3.178297012
 20
4.3324614965
 30
0.0
 10
3.177875478
 20
4.3339475075
 30
0.0
 10
3.1762402102
 20
4.3358259348
 30
0.0
 10
3.1737882898
 20
4.3374249351
 30
0.0
 10
3.1706290574
 20
4.3386996862
 30
0.0
 10
3.1669259637
 20
4.339591674
 30
0.0
 10
3.1628790548
 20
4.3400509117
 30
0.0
 10
3.1587149692
 20
4.3400509117
 30
0.0
 10
3.1546680603
 20
4.339591674
 30
0.0
 10
3.1509649666
 20
4.3386996862
 30
0.0
 10
3.1478057342
 20
4.3374249351
 30
0.0
 10
3.1453538137
 20
4.3358259348
 30
0.0
 10
3.1437185459
 20
4.3339475075
 30
0.0
 10
3.143297012
 20
4.3324614965
 30
0.0
 10
3.143297012
 20
4.3317820014
 30
0.0
 11
3.178297012
 21
4.3317820014
 31
0.0
 11
3.1777884938
 21
4.3337560407
 31
0.0
 11
3.1762924924
 21
4.335615356
 31
0.0
 11
3.1738959501
 21
4.3372518906
 31
0.0
 11
3.170738145
 21
4.3385705352
 31
0.0
 11
3.1670025975
 21
4.3394946549
 31
0.0
 11
3.1629064039
 21
4.3399705432
 31
0.0
 11
3.1586876201
 21
4.3399705432
 31
0.0
 11
3.1545914265
 21
4.3394946549
 31
0.0
 11
3.1508558789
 21
4.3385705352
 31
0.0
 11
3.1476980739
 21
4.3372518906
 31
0.0
 11
3.1453015315
 21
4.335615356
 31
0.0
 11
3.1438055302
 21
4.3337560407
 31
0.0
 11
3.143297012
 21
4.3317820014
 31
0.0
  0
SPLINE
  5
4FE
100
AcDbEntity
  8
0
100
AcDbSpline
 62
7
  6
CONTINUOUS
 70
0
 71
3
 72
15
 73
11
 74
9
 42
0.0000001
 43
0.0000001
 44
0.0000000001
 12
0.0
 22
0.1099409465
 32
0.0
 13
0.0
 23
-0.1099409465
 33
0.0
 40
0.0
 40
0.0
 40
0.0
 40
0.0
 40
0.125
 40
0.25
 40
0.375
 40
0.5
 40
0.625
 40
0.75
 40
0.875
 40
1.0
 40
1.0
 40
1.0
 40
1.0
 10
6.962797012
 20
4.6726584326
 30
0.0
 10
6.962797012
 20
4.6772393054
 30
0.0
 10
6.9609746275
 20
4.6864010509
 30
0.0
 10
6.9531900595
 20
4.6980514802
 30
0.0
 10
6.9415396303
 20
4.7058360481
 30
0.0
 10
6.927797012
 20
4.7085696248
 30
0.0
 10
6.9140543937
 20
4.7058360481
 30
0.0
 10
6.9024039644
 20
4.6980514802
 30
0.0
 10
6.8946193965
 20
4.6864010509
 30
0.0
 10
6.892797012
 20
4.6772393054
 30
0.0
 10
6.892797012
 20
4.6726584326
 30
0.0
 11
6.962797012
 21
4.6726584326
 31
0.0
 11
6.9601327956
 21
4.6860523527
 31
0.0
 11
6.9525457493
 21
4.6974071699
 31
0.0
 11
6.9411909321
 21
4.7049942162
 31
0.0
 11
6.927797012
 21
4.7076584326
 31
0.0
 11
6.9144030918
 21
4.7049942162
 31
0.0
 11
6.9030482746
 21
4.6974071699
 31
0.0
 11
6.8954612283
 21
4.6860523527
 31
0.0
 11
6.892797012
 21
4.6726584326
 31
0.0
  0
SPLINE
  5
4FF
100
AcDbEntity
  8
0
100
AcDbSpline
 62
7
  6
CONTINUOUS
 70
0
 71
3
 72
15
 73
11
 74
9
 42
0.0000001
 43
0.0000001
 44
0.0000000001
 12
0.0
 22
-0.1099409465
 32
0.0
 13
0.0
 23
0.1099409465
 33
0.0
 40
0.0
 40
0.0
 40
0.0
 40
0.0
 40
0.125
 40
0.25
 40
0.375
 40
0.5
 40
0.625
 40
0.75
 40
0.875
 40
1.0
 40
1.0
 40
1.0
 40
1.0
 10
6.962797012
 20
3.8386584326
 30
0.0
 10
6.962797012
 20
3.8340775598
 30
0.0
 10
6.9609746275
 20
3.8249158143
 30
0.0
 10
6.9531900595
 20
3.813265385
 30
0.0
 10
6.9415396303
 20
3.8054808171
 30
0.0
 10
6.927797012
 20
3.8027472403
 30
0.0
 10
6.9140543937
 20
3.8054808171
 30
0.0
 10
6.9024039644
 20
3.813265385
 30
0.0
 10
6.8946193965
 20
3.8249158143
 30
0.0
 10
6.892797012
 20
3.8340775598
 30
0.0
 10
6.892797012
 20
3.8386584326
 30
0.0
 11
6.962797012
 21
3.8386584326
 31
0.0
 11
6.9601327956
 21
3.8252645125
 31
0.0
 11
6.9525457493
 21
3.8139096953
 31
0.0
 11
6.9411909321
 21
3.806322649
 31
0.0
 11
6.927797012
 21
3.8036584326
 31
0.0
 11
6.9144030918
 21
3.806322649
 31
0.0
 11
6.9030482746
 21
3.8139096953
 31
0.0
 11
6.8954612283
 21
3.8252645125
 31
0.0
 11
6.892797012
 21
3.8386584326
 31
0.0
  0
SPLINE
  5
500
100
AcDbEntity
  8
0
100
AcDbSpline
 62
7
  6
CONTINUOUS
 70
0
 71
3
 72
14
 73
10
 74
8
 42
0.0000001
 43
0.0000001
 44
0.0000000001
 12
0.0
 22
0.0916172274
 32
0.0
 13
-0.045846371
 23
-0.079336773
 33
0.0
 40
0.0
 40
0.0
 40
0.0
 40
0.0
 40
0.1500003733
 40
0.3000007465
 40
0.4500011198
 40
0.6000014931
 40
0.7500018663
 40
0.9000022396
 40
1.0
 40
1.0
 40
1.0
 40
1.0
 10
5.840797012
 20
4.7486584326
 30
0.0
 10
5.840797012
 20
4.7532393054
 30
0.0
 10
5.8389746275
 20
4.7624010509
 30
0.0
 10
5.8311900595
 20
4.7740514802
 30
0.0
 10
5.8195396303
 20
4.7818360481
 30
0.0
 10
5.805797012
 20
4.7845696248
 30
0.0
 10
5.7920543937
 20
4.7818360481
 30
0.0
 10
5.781698521
 20
4.7749164752
 30
0.0
 10
5.7770158397
 20
4.7688020433
 30
0.0
 10
5.7754876615
 20
4.7661575434
 30
0.0
 11
5.840797012
 21
4.7486584326
 31
0.0
 11
5.8381327956
 21
4.7620523527
 31
0.0
 11
5.8305457493
 21
4.7734071699
 31
0.0
 11
5.8191909321
 21
4.7809942162
 31
0.0
 11
5.805797012
 21
4.7836584326
 31
0.0
 11
5.7924030918
 21
4.7809942162
 31
0.0
 11
5.7810482746
 21
4.7734071699
 31
0.0
 11
5.7754876615
 21
4.7661575434
 31
0.0
  0
SPLINE
  5
501
100
AcDbEntity
  8
0
100
AcDbSpline
 62
7
  6
CONTINUOUS
 70
0
 71
3
 72
9
 73
5
 74
3
 42
0.0000001
 43
0.0000001
 44
0.0000000001
 12
-0.0091694111
 22
-0.0158675915
 32
0.0
 13
0.0
 23
-0.0183237191
 33
0.0
 40
0.0
 40
0.0
 40
0.0
 40
0.0
 40
0.2500093315
 40
1.0
 40
1.0
 40
1.0
 40
1.0
 10
5.7754876615
 20
4.7661575434
 30
0.0
 10
5.7747235154
 20
4.7648351948
 30
0.0
 10
5.7720119501
 20
4.7593472117
 30
0.0
 10
5.770797012
 20
4.7532393054
 30
0.0
 10
5.770797012
 20
4.7486584326
 30
0.0
 11
5.7754876615
 21
4.7661575434
 31
0.0
 11
5.7734612283
 21
4.7620523527
 31
0.0
 11
5.770797012
 21
4.7486584326
 31
0.0
  0
SPLINE
  5
502
100
AcDbEntity
  8
0
100
AcDbSpline
 62
7
  6
CONTINUOUS
 70
0
 71
3
 72
14
 73
10
 74
8
 42
0.0000001
 43
0.0000001
 44
0.0000000001
 12
0.0
 22
-0.0916172274
 32
0.0
 13
-0.045846371
 23
0.079336773
 33
0.0
 40
0.0
 40
0.0
 40
0.0
 40
0.0
 40
0.1500003733
 40
0.3000007465
 40
0.4500011198
 40
0.6000014931
 40
0.7500018663
 40
0.9000022396
 40
1.0
 40
1.0
 40
1.0
 40
1.0
 10
5.840797012
 20
3.7626584326
 30
0.0
 10
5.840797012
 20
3.7580775598
 30
0.0
 10
5.8389746275
 20
3.7489158143
 30
0.0
 10
5.8311900595
 20
3.737265385
 30
0.0
 10
5.8195396303
 20
3.7294808171
 30
0.0
 10
5.805797012
 20
3.7267472403
 30
0.0
 10
5.7920543937
 20
3.7294808171
 30
0.0
 10
5.781698521
 20
3.73640039
 30
0.0
 10
5.7770158397
 20
3.7425148219
 30
0.0
 10
5.7754876615
 20
3.7451593218
 30
0.0
 11
5.840797012
 21
3.7626584326
 31
0.0
 11
5.8381327956
 21
3.7492645125
 31
0.0
 11
5.8305457493
 21
3.7379096953
 31
0.0
 11
5.8191909321
 21
3.730322649
 31
0.0
 11
5.805797012
 21
3.7276584326
 31
0.0
 11
5.7924030918
 21
3.730322649
 31
0.0
 11
5.7810482746
 21
3.7379096953
 31
0.0
 11
5.7754876615
 21
3.7451593218
 31
0.0
  0
SPLINE
  5
503
100
AcDbEntity
  8
0
100
AcDbSpline
 62
7
  6
CONTINUOUS
 70
0
 71
3
 72
9
 73
5
 74
3
 42
0.0000001
 43
0.0000001
 44
0.0000000001
 12
-0.0091694111
 22
0.0158675915
 32
0.0
 13
0.0
 23
0.0183237191
 33
0.0
 40
0.0
 40
0.0
 40
0.0
 40
0.0
 40
0.2500093315
 40
1.0
 40
1.0
 40
1.0
 40
1.0
 10
5.7754876615
 20
3.7451593218
 30
0.0
 10
5.7747235154
 20
3.7464816704
 30
0.0
 10
5.7720119501
 20
3.7519696535
 30
0.0
 10
5.770797012
 20
3.7580775598
 30
0.0
 10
5.770797012
 20
3.7626584326
 30
0.0
 11
5.7754876615
 21
3.7451593218
 31
0.0
 11
5.7734612283
 21
3.7492645125
 31
0.0
 11
5.770797012
 21
3.7626584326
 31
0.0
  0
SPLINE
  5
504
100
AcDbEntity
  8
0
100
AcDbSpline
 62
7
  6
CONTINUOUS
 70
0
 71
3
 72
15
 73
11
 74
9
 42
0.0000001
 43
0.0000001
 44
0.0000000001
 12
0.0
 22
0.1099409465
 32
0.0
 13
-0.0
 23
-0.1099409465
 33
0.0
 40
0.0
 40
0.0
 40
0.0
 40
0.0
 40
0.125
 40
0.25
 40
0.375
 40
0.5
 40
0.625
 40
0.75
 40
0.875
 40
1.0
 40
1.0
 40
1.0
 40
1.0
 10
5.218797012
 20
4.7731584326
 30
0.0
 10
5.218797012
 20
4.7777393054
 30
0.0
 10
5.2169746275
 20
4.7869010509
 30
0.0
 10
5.2091900595
 20
4.7985514802
 30
0.0
 10
5.1975396303
 20
4.8063360481
 30
0.0
 10
5.183797012
 20
4.8090696248
 30
0.0
 10
5.1700543937
 20
4.8063360481
 30
0.0
 10
5.1584039644
 20
4.7985514802
 30
0.0
 10
5.1506193965
 20
4.7869010509
 30
0.0
 10
5.148797012
 20
4.7777393054
 30
0.0
 10
5.148797012
 20
4.7731584326
 30
0.0
 11
5.218797012
 21
4.7731584326
 31
0.0
 11
5.2161327956
 21
4.7865523527
 31
0.0
 11
5.2085457493
 21
4.7979071699
 31
0.0
 11
5.1971909321
 21
4.8054942162
 31
0.0
 11
5.183797012
 21
4.8081584326
 31
0.0
 11
5.1704030918
 21
4.8054942162
 31
0.0
 11
5.1590482746
 21
4.7979071699
 31
0.0
 11
5.1514612283
 21
4.7865523527
 31
0.0
 11
5.148797012
 21
4.7731584326
 31
0.0
  0
SPLINE
  5
505
100
AcDbEntity
  8
0
100
AcDbSpline
 62
7
  6
CONTINUOUS
 70
0
 71
3
 72
15
 73
11
 74
9
 42
0.0000001
 43
0.0000001
 44
0.0000000001
 12
0.0
 22
-0.1099409465
 32
0.0
 13
-0.0
 23
0.1099409465
 33
0.0
 40
0.0
 40
0.0
 40
0.0
 40
0.0
 40
0.125
 40
0.25
 40
0.375
 40
0.5
 40
0.625
 40
0.75
 40
0.875
 40
1.0
 40
1.0
 40
1.0
 40
1.0
 10
5.218797012
 20
3.7381584326
 30
0.0
 10
5.218797012
 20
3.7335775598
 30
0.0
 10
5.2169746275
 20
3.7244158143
 30
0.0
 10
5.2091900595
 20
3.712765385
 30
0.0
 10
5.1975396303
 20
3.7049808171
 30
0.0
 10
5.183797012
 20
3.7022472403
 30
0.0
 10
5.1700543937
 20
3.7049808171
 30
0.0
 10
5.1584039644
 20
3.712765385
 30
0.0
 10
5.1506193965
 20
3.7244158143
 30
0.0
 10
5.148797012
 20
3.7335775598
 30
0.0
 10
5.148797012
 20
3.7381584326
 30
0.0
 11
5.218797012
 21
3.7381584326
 31
0.0
 11
5.2161327956
 21
3.7247645125
 31
0.0
 11
5.2085457493
 21
3.7134096953
 31
0.0
 11
5.1971909321
 21
3.705822649
 31
0.0
 11
5.183797012
 21
3.7031584326
 31
0.0
 11
5.1704030918
 21
3.705822649
 31
0.0
 11
5.1590482746
 21
3.7134096953
 31
0.0
 11
5.1514612283
 21
3.7247645125
 31
0.0
 11
5.148797012
 21
3.7381584326
 31
0.0
  0
SPLINE
  5
506
100
AcDbEntity
  8
0
100
AcDbSpline
 62
7
  6
CONTINUOUS
 70
0
 71
3
 72
16
 73
12
 74
10
 42
0.0000001
 43
0.0000001
 44
0.0000000001
 12
0.0906480335
 22
0.2719441006
 32
0.0
 13
-0.0906480335
 23
0.2719441006
 33
0.0
 40
0.0
 40
0.0
 40
0.0
 40
0.0
 40
0.1184548733
 40
0.230565332
 40
0.3393089466
 40
0.4465959239
 40
0.5535015371
 40
0.6607803311
 40
0.769505023
 40
0.8815660643
 40
1.0
 40
1.0
 40
1.0
 40
1.0
 10
3.6619256016
 20
3.9746584326
 30
0.0
 10
3.6655048354
 20
3.9853961339
 30
0.0
 10
3.671935922
 20
4.0064821808
 30
0.0
 10
3.6794553517
 20
4.0380432356
 30
0.0
 10
3.6845435792
 20
4.0690120537
 30
0.0
 10
3.6871304414
 20
4.0997951233
 30
0.0
 10
3.6871292531
 20
4.1305489243
 30
0.0
 10
3.6845404124
 20
4.1613292157
 30
0.0
 10
3.6794516777
 20
4.1922905175
 30
0.0
 10
3.6719334209
 20
4.2238430491
 30
0.0
 10
3.6655042027
 20
4.2449226292
 30
0.0
 10
3.6619256016
 20
4.2556584326
 30
0.0
 11
3.6619256016
 21
3.9746584326
 31
0.0
 11
3.6717640712
 21
4.0071574605
 31
0.0
 11
3.6791512417
 21
4.0384338509
 31
0.0
 11
3.6841558591
 21
4.0692013034
 31
0.0
 11
3.6867028244
 21
4.0998499246
 31
0.0
 11
3.6867016542
 21
4.1304948731
 31
0.0
 11
3.6841527142
 21
4.1611409762
 31
0.0
 11
3.6791472751
 21
4.1919027994
 31
0.0
 11
3.6717625036
 21
4.223165201
 31
0.0
 11
3.6619256016
 21
4.2556584326
 31
0.0
  0
SPLINE
  5
507
100
AcDbEntity
  8
0
100
AcDbSpline
 62
7
  6
CONTINUOUS
 70
0
 71
3
 72
17
 73
13
 74
11
 42
0.0000001
 43
0.0000001
 44
0.0000000001
 12
-0.1487434696
 22
0.2576312467
 32
0.0
 13
0.1487434696
 23
0.2576312467
 33
0.0
 40
0.0
 40
0.0
 40
0.0
 40
0.0
 40
0.1169386465
 40
0.2216811606
 40
0.3184580982
 40
0.4103908543
 40
0.5000417254
 40
0.5896883004
 40
0.6816074548
 40
0.7783545182
 40
0.8830694657
 40
1.0
 40
1.0
 40
1.0
 40
1.0
 10
3.5602678633
 20
3.9746584326
 30
0.0
 10
3.5544699099
 20
3.9847007824
 30
0.0
 10
3.5441300823
 20
4.0041306298
 30
0.0
 10
3.5317564589
 20
4.0332327074
 30
0.0
 10
3.5231030122
 20
4.0610742701
 30
0.0
 10
3.5179459076
 20
4.0882575897
 30
0.0
 10
3.5162290273
 20
4.1151704746
 30
0.0
 10
3.5179489129
 20
4.1420817994
 30
0.0
 10
3.5231076645
 20
4.16925994
 30
0.0
 10
3.5317605164
 20
4.197094246
 30
0.0
 10
3.5441321037
 20
4.2261900857
 30
0.0
 10
3.5544703121
 20
4.2456167795
 30
0.0
 10
3.5602678633
 20
4.2556584326
 30
0.0
 11
3.5602678633
 21
3.9746584326
 31
0.0
 11
3.5440416318
 21
4.0054300896
 31
0.0
 11
3.5319568753
 21
4.0341507262
 31
0.0
 11
3.5235042021
 21
4.0616717948
 31
0.0
 11
3.5184713167
 21
4.08855351
 31
0.0
 11
3.5167970123
 21
4.1151708661
 31
0.0
 11
3.5184742546
 21
4.1417867566
 31
0.0
 11
3.5235089013
 21
4.1686640253
 31
0.0
 11
3.5319605163
 21
4.1961761219
 31
0.0
 11
3.5440426675
 21
4.2248889576
 31
0.0
 11
3.5602678633
 21
4.2556584326
 31
0.0
  0
SPLINE
  5
508
100
AcDbEntity
  8
0
100
AcDbSpline
 62
7
  6
CONTINUOUS
 70
0
 71
3
 72
16
 73
12
 74
10
 42
0.0000001
 43
0.0000001
 44
0.0000000001
 12
0.0906480335
 22
0.2719441006
 32
0.0
 13
-0.0906480335
 23
0.2719441006
 33
0.0
 40
0.0
 40
0.0
 40
0.0
 40
0.0
 40
0.1184548733
 40
0.230565332
 40
0.3393089466
 40
0.4465959239
 40
0.5535015371
 40
0.6607803311
 40
0.769505023
 40
0.8815660643
 40
1.0
 40
1.0
 40
1.0
 40
1.0
 10
3.6619256016
 20
4.2556584326
 30
0.0
 10
3.6655048354
 20
4.2663961339
 30
0.0
 10
3.671935922
 20
4.2874821808
 30
0.0
 10
3.6794553517
 20
4.3190432356
 30
0.0
 10
3.6845435792
 20
4.3500120537
 30
0.0
 10
3.6871304414
 20
4.3807951233
 30
0.0
 10
3.6871292531
 20
4.4115489243
 30
0.0
 10
3.6845404124
 20
4.4423292157
 30
0.0
 10
3.6794516777
 20
4.4732905175
 30
0.0
 10
3.6719334209
 20
4.5048430491
 30
0.0
 10
3.6655042027
 20
4.5259226292
 30
0.0
 10
3.6619256016
 20
4.5366584326
 30
0.0
 11
3.6619256016
 21
4.2556584326
 31
0.0
 11
3.6717640712
 21
4.2881574605
 31
0.0
 11
3.6791512417
 21
4.3194338509
 31
0.0
 11
3.6841558591
 21
4.3502013034
 31
0.0
 11
3.6867028244
 21
4.3808499246
 31
0.0
 11
3.6867016542
 21
4.4114948731
 31
0.0
 11
3.6841527142
 21
4.4421409762
 31
0.0
 11
3.6791472751
 21
4.4729027994
 31
0.0
 11
3.6717625036
 21
4.504165201
 31
0.0
 11
3.6619256016
 21
4.5366584326
 31
0.0
  0
SPLINE
  5
509
100
AcDbEntity
  8
0
100
AcDbSpline
 62
7
  6
CONTINUOUS
 70
0
 71
3
 72
17
 73
13
 74
11
 42
0.0000001
 43
0.0000001
 44
0.0000000001
 12
-0.1487434696
 22
0.2576312467
 32
0.0
 13
0.1487434696
 23
0.2576312467
 33
0.0
 40
0.0
 40
0.0
 40
0.0
 40
0.0
 40
0.1169386465
 40
0.2216811606
 40
0.3184580982
 40
0.4103908543
 40
0.5000417254
 40
0.5896883004
 40
0.6816074548
 40
0.7783545182
 40
0.8830694657
 40
1.0
 40
1.0
 40
1.0
 40
1.0
 10
3.5602678633
 20
4.2556584326
 30
0.0
 10
3.5544699099
 20
4.2657007824
 30
0.0
 10
3.5441300823
 20
4.2851306298
 30
0.0
 10
3.5317564589
 20
4.3142327074
 30
0.0
 10
3.5231030122
 20
4.3420742701
 30
0.0
 10
3.5179459076
 20
4.3692575897
 30
0.0
 10
3.5162290273
 20
4.3961704746
 30
0.0
 10
3.5179489129
 20
4.4230817994
 30
0.0
 10
3.5231076645
 20
4.45025994
 30
0.0
 10
3.5317605164
 20
4.478094246
 30
0.0
 10
3.5441321037
 20
4.5071900857
 30
0.0
 10
3.5544703121
 20
4.5266167795
 30
0.0
 10
3.5602678633
 20
4.5366584326
 30
0.0
 11
3.5602678633
 21
4.2556584326
 31
0.0
 11
3.5440416318
 21
4.2864300896
 31
0.0
 11
3.5319568753
 21
4.3151507262
 31
0.0
 11
3.5235042021
 21
4.3426717948
 31
0.0
 11
3.5184713167
 21
4.36955351
 31
0.0
 11
3.5167970123
 21
4.3961708661
 31
0.0
 11
3.5184742546
 21
4.4227867566
 31
0.0
 11
3.5235089013
 21
4.4496640253
 31
0.0
 11
3.5319605163
 21
4.4771761219
 31
0.0
 11
3.5440426675
 21
4.5058889576
 31
0.0
 11
3.5602678633
 21
4.5366584326
 31
0.0
  0
SPLINE
  5
50A
100
AcDbEntity
  8
0
100
AcDbSpline
 62
7
  6
CONTINUOUS
 70
0
 71
3
 72
11
 73
7
 74
5
 42
0.0000001
 43
0.0000001
 44
0.0000000001
 12
0.0491823658
 22
0.0
 32
0.0
 13
0.0353052842
 23
-0.0343525409
 33
0.0
 40
0.0
 40
0.0
 40
0.0
 40
0.0
 40
0.2634270116
 40
0.5337106497
 40
0.8019489407
 40
1.0
 40
1.0
 40
1.0
 40
1.0
 10
6.653797012
 20
4.1967761711
 30
0.0
 10
6.6581156665
 20
4.1967761711
 30
0.0
 10
6.6668920104
 20
4.1958573002
 30
0.0
 10
6.6794844836
 20
4.1917669166
 30
0.0
 10
6.6900348126
 20
4.1857202177
 30
0.0
 10
6.6959247587
 20
4.1807949366
 30
0.0
 10
6.6982555083
 20
4.1785270842
 30
0.0
 11
6.653797012
 21
4.1967761711
 31
0.0
 11
6.6666828266
 21
4.1954297773
 31
0.0
 11
6.6793295587
 21
4.1913347761
 31
0.0
 11
6.6907790528
 21
4.1847808754
 31
0.0
 11
6.6982555083
 21
4.1785270842
 31
0.0
  0
SPLINE
  5
50B
100
AcDbEntity
  8
0
100
AcDbSpline
 62
7
  6
CONTINUOUS
 70
0
 71
3
 72
8
 73
4
 74
2
 42
0.0000001
 43
0.0000001
 44
0.0000000001
 12
-0.0116265568
 22
0.0
 32
0.0
 13
-0.0114525917
 23
-0.0021606215
 33
0.0
 40
0.0
 40
0.0
 40
0.0
 40
0.0
 40
1.0
 40
1.0
 40
1.0
 40
1.0
 10
6.653797012
 20
4.1967761711
 30
0.0
 10
6.6499214931
 20
4.1967761711
 30
0.0
 10
6.6460353737
 20
4.1964109267
 30
0.0
 10
6.6422178431
 20
4.1956907195
 30
0.0
 11
6.653797012
 21
4.1967761711
 31
0.0
 11
6.6422178431
 21
4.1956907195
 31
0.0
  0
SPLINE
  5
50C
100
AcDbEntity
  8
0
100
AcDbSpline
 62
7
  6
CONTINUOUS
 70
0
 71
3
 72
8
 73
4
 74
2
 42
0.0000001
 43
0.0000001
 44
0.0000000001
 12
0.0114461905
 22
-0.0021581607
 32
0.0
 13
0.01161992
 23
0.0
 33
0.0
 40
0.0
 40
0.0
 40
0.0
 40
0.0
 40
1.0
 40
1.0
 40
1.0
 40
1.0
 10
6.6422244309
 20
4.3156248983
 30
0.0
 10
6.6460398277
 20
4.3149055114
 30
0.0
 10
6.6499237053
 20
4.3145406941
 30
0.0
 10
6.653797012
 20
4.3145406941
 30
0.0
 11
6.6422244309
 21
4.3156248983
 31
0.0
 11
6.653797012
 21
4.3145406941
 31
0.0
  0
SPLINE
  5
50D
100
AcDbEntity
  8
0
100
AcDbSpline
 62
7
  6
CONTINUOUS
 70
0
 71
3
 72
11
 73
7
 74
5
 42
0.0000001
 43
0.0000001
 44
0.0000000001
 12
-0.0353061611
 22
-0.0343582754
 32
0.0
 13
-0.0491868759
 23
0.0
 33
0.0
 40
0.0
 40
0.0
 40
0.0
 40
0.0
 40
0.1976977824
 40
0.4656819492
 40
0.7361970579
 40
1.0
 40
1.0
 40
1.0
 40
1.0
 10
6.6982588065
 20
4.3327929904
 30
0.0
 10
6.6959321566
 20
4.3305288054
 30
0.0
 10
6.6900503602
 20
4.3256083717
 30
0.0
 10
6.6795071021
 20
4.3195599571
 30
0.0
 10
6.666909446
 20
4.3154621171
 30
0.0
 10
6.6581222262
 20
4.3145406941
 30
0.0
 10
6.653797012
 20
4.3145406941
 30
0.0
 11
6.6982588065
 21
4.3327929904
 31
0.0
 11
6.6907962093
 21
4.326548285
 31
0.0
 11
6.6793592231
 21
4.3199952612
 31
0.0
 11
6.6667021855
 21
4.3158911745
 31
0.0
 11
6.653797012
 21
4.3145406941
 31
0.0
  0
SPLINE
  5
50E
100
AcDbEntity
  8
0
100
AcDbSpline
 62
7
  6
CONTINUOUS
 70
0
 71
3
 72
14
 73
10
 74
8
 42
0.0000001
 43
0.0000001
 44
0.0000000001
 12
-0.1085512822
 22
0.0
 32
0.0
 13
0.000065013
 23
-0.1089659778
 33
0.0
 40
0.0
 40
0.0
 40
0.0
 40
0.0
 40
0.1593745727
 40
0.317530417
 40
0.4721659756
 40
0.6199410716
 40
0.7576302636
 40
0.8837923678
 40
1.0
 40
1.0
 40
1.0
 40
1.0
 10
6.691797012
 20
4.052170151
 30
0.0
 10
6.6860302406
 20
4.052170151
 30
0.0
 10
6.6745105841
 20
4.0510714592
 30
0.0
 10
6.658024105
 20
4.0462222781
 30
0.0
 10
6.6431369678
 20
4.0384962732
 30
0.0
 10
6.6306430586
 20
4.0284440601
 30
0.0
 10
6.6211921232
 20
4.0167714808
 30
0.0
 10
6.6152461266
 20
4.004204259
 30
0.0
 10
6.6137944938
 20
3.9954213911
 30
0.0
 10
6.6137970121
 20
3.9912004984
 30
0.0
 11
6.691797012
 21
4.052170151
 31
0.0
 11
6.6745753369
 21
4.050522492
 31
0.0
 11
6.6581085584
 21
4.0456659392
 31
0.0
 11
6.6432263395
 21
4.037901559
 31
0.0
 11
6.6307720265
 21
4.0277916915
 31
0.0
 11
6.6214530644
 21
4.0161062315
 31
0.0
 11
6.6157244911
 21
4.0036668559
 31
0.0
 11
6.6137970121
 21
3.9912004984
 31
0.0
  0
SPLINE
  5
50F
100
AcDbEntity
  8
0
100
AcDbSpline
 62
7
  6
CONTINUOUS
 70
0
 71
3
 72
14
 73
10
 74
8
 42
0.0000001
 43
0.0000001
 44
0.0000000001
 12
0.1085512822
 22
0.0
 32
0.0
 13
-0.0000650135
 23
0.1089659777
 33
0.0
 40
0.0
 40
0.0
 40
0.0
 40
0.0
 40
0.1593743022
 40
0.3175304632
 40
0.4721664883
 40
0.6199415784
 40
0.7576306237
 40
0.8837925255
 40
1.0
 40
1.0
 40
1.0
 40
1.0
 10
6.691797012
 20
4.4591467142
 30
0.0
 10
6.6975637736
 20
4.4591467142
 30
0.0
 10
6.7090834316
 20
4.4602454042
 30
0.0
 10
6.7255699298
 20
4.4650945884
 30
0.0
 10
6.7404570901
 20
4.4728206119
 30
0.0
 10
6.7529510011
 20
4.482872841
 30
0.0
 10
6.7624019199
 20
4.4945454169
 30
0.0
 10
6.7683479015
 20
4.507112625
 30
0.0
 10
6.7697995302
 20
4.5158954798
 30
0.0
 10
6.7697970118
 20
4.5201163668
 30
0.0
 11
6.691797012
 21
4.4591467142
 31
0.0
 11
6.7090186581
 21
4.4607943676
 31
0.0
 11
6.7254854702
 21
4.4656509279
 31
0.0
 11
6.7403677313
 21
4.4734153369
 31
0.0
 11
6.7528220366
 21
4.4835252129
 31
0.0
 11
6.7621409803
 21
4.4952106672
 31
0.0
 11
6.767869538
 21
4.5076500258
 31
0.0
 11
6.7697970118
 21
4.5201163668
 31
0.0
  0
SPLINE
  5
510
100
AcDbEntity
  8
0
100
AcDbSpline
 62
7
  6
CONTINUOUS
 70
0
 71
3
 72
14
 73
10
 74
8
 42
0.0000001
 43
0.0000001
 44
0.0000000001
 12
0.0000650084
 22
0.1089659761
 32
0.0
 13
-0.1085512814
 23
0.0
 33
0.0
 40
0.0
 40
0.0
 40
0.0
 40
0.0
 40
0.1162090629
 40
0.2423729353
 40
0.3800625037
 40
0.527837677
 40
0.6824730623
 40
0.8406272501
 40
1.0
 40
1.0
 40
1.0
 40
1.0
 10
6.7697970118
 20
3.9912004983
 30
0.0
 10
6.76979953
 20
3.995421443
 30
0.0
 10
6.7683478599
 20
4.0042044273
 30
0.0
 10
6.762401744
 20
4.0167717404
 30
0.0
 10
6.7529506937
 20
4.0284443296
 30
0.0
 10
6.7404567266
 20
4.038496486
 30
0.0
 10
6.7255696117
 20
4.0462223941
 30
0.0
 10
6.7090832469
 20
4.0510714839
 30
0.0
 10
6.6975637174
 20
4.052170151
 30
0.0
 10
6.691797012
 20
4.052170151
 30
0.0
 11
6.7697970118
 21
3.9912004983
 31
0.0
 11
6.767869487
 21
4.0036670058
 31
0.0
 11
6.7621407748
 21
4.0161065287
 31
0.0
 11
6.7528217219
 21
4.0277919684
 31
0.0
 11
6.740367351
 21
4.0379017777
 31
0.0
 11
6.7254851134
 21
4.0456660813
 31
0.0
 11
6.7090184918
 21
4.0505225298
 31
0.0
 11
6.691797012
 21
4.052170151
 31
0.0
  0
SPLINE
  5
511
100
AcDbEntity
  8
0
100
AcDbSpline
 62
7
  6
CONTINUOUS
 70
0
 71
3
 72
10
 73
6
 74
4
 42
0.0000001
 43
0.0000001
 44
0.0000000001
 12
0.0436652286
 22
-0.016635206
 32
0.0
 13
0.0466762009
 23
0.0
 33
0.0
 40
0.0
 40
0.0
 40
0.0
 40
0.0
 40
0.2663152171
 40
0.6307430667
 40
1.0
 40
1.0
 40
1.0
 40
1.0
 10
6.6459335874
 20
4.0391502118
 30
0.0
 10
6.6498098257
 20
4.0376734756
 30
0.0
 10
6.6592405245
 20
4.0348457161
 30
0.0
 10
6.6746267992
 20
4.0322880921
 30
0.0
 10
6.6860518417
 20
4.0316960433
 30
0.0
 10
6.691797012
 20
4.0316960433
 30
0.0
 11
6.6459335874
 21
4.0391502118
 31
0.0
 11
6.6578224336
 21
4.0355020998
 31
0.0
 11
6.674586142
 21
4.0326173401
 31
0.0
 11
6.691797012
 21
4.0316960433
 31
0.0
  0
SPLINE
  5
512
100
AcDbEntity
  8
0
100
AcDbSpline
 62
7
  6
CONTINUOUS
 70
0
 71
3
 72
10
 73
6
 74
4
 42
0.0000001
 43
0.0000001
 44
0.0000000001
 12
-0.0466750864
 22
0.0
 32
0.0
 13
-0.0436643749
 23
-0.0166341365
 33
0.0
 40
0.0
 40
0.0
 40
0.0
 40
0.0
 40
0.3699596542
 40
0.7346899071
 40
1.0
 40
1.0
 40
1.0
 40
1.0
 10
6.691797012
 20
4.4796208219
 30
0.0
 10
6.6860410457
 20
4.4796208219
 30
0.0
 10
6.6746005895
 20
4.4790268964
 30
0.0
 10
6.6592152399
 20
4.4764650187
 30
0.0
 10
6.6497961393
 20
4.4736381104
 30
0.0
 10
6.6459346061
 20
4.4721670423
 30
0.0
 11
6.691797012
 21
4.4796208219
 31
0.0
 11
6.6745538963
 21
4.4786960028
 31
0.0
 11
6.6577775475
 21
4.4758038694
 31
0.0
 11
6.6459346061
 21
4.4721670423
 31
0.0
  0
SPLINE
  5
513
100
AcDbEntity
  8
0
100
AcDbSpline
 62
7
  6
CONTINUOUS
 70
0
 71
3
 72
9
 73
5
 74
3
 42
0.0000001
 43
0.0000001
 44
0.0000000001
 12
0.0322466679
 22
0.0
 32
0.0
 13
0.0314864512
 23
0.0070718732
 33
0.0
 40
0.0
 40
0.0
 40
0.0
 40
0.0
 40
0.5354871277
 40
1.0
 40
1.0
 40
1.0
 40
1.0
 10
6.691797012
 20
4.0316960433
 30
0.0
 10
6.6975529038
 20
4.0316960433
 30
0.0
 10
6.7083110884
 20
4.0322545417
 30
0.0
 10
6.7189481308
 20
4.0339522255
 30
0.0
 10
6.7238234181
 20
4.0350472176
 30
0.0
 11
6.691797012
 21
4.0316960433
 31
0.0
 11
6.7090399054
 21
4.0326208381
 31
0.0
 11
6.7238234181
 21
4.0350472176
 31
0.0
  0
SPLINE
  5
514
100
AcDbEntity
  8
0
100
AcDbSpline
 62
7
  6
CONTINUOUS
 70
0
 71
3
 72
9
 73
5
 74
3
 42
0.0000001
 43
0.0000001
 44
0.0000000001
 12
0.014088399
 22
0.0031642617
 32
0.0
 13
0.0134978504
 23
0.0051420883
 33
0.0
 40
0.0
 40
0.0
 40
0.0
 40
0.0
 40
0.1416579029
 40
1.0
 40
1.0
 40
1.0
 40
1.0
 10
6.7238234181
 20
4.0350472176
 30
0.0
 10
6.7244886624
 20
4.0351966318
 30
0.0
 10
6.7291761526
 20
4.0362916578
 30
0.0
 10
6.7337976151
 20
4.0376786465
 30
0.0
 10
6.7376595395
 20
4.0391498701
 30
0.0
 11
6.7238234181
 21
4.0350472176
 31
0.0
 11
6.7258153775
 21
4.0355127288
 31
0.0
 11
6.7376595395
 21
4.0391498701
 31
0.0
  0
SPLINE
  5
515
100
AcDbEntity
  8
0
100
AcDbSpline
 62
7
  6
CONTINUOUS
 70
0
 71
3
 72
9
 73
5
 74
3
 42
0.0000001
 43
0.0000001
 44
0.0000000001
 12
-0.0134990503
 22
0.0051427318
 32
0.0
 13
-0.0140897866
 23
0.0031644412
 33
0.0
 40
0.0
 40
0.0
 40
0.0
 40
0.0
 40
0.8613712143
 40
1.0
 40
1.0
 40
1.0
 40
1.0
 10
6.7376603224
 20
4.4721666977
 30
0.0
 10
6.7337844246
 20
4.473643298
 30
0.0
 10
6.7291621259
 20
4.4750293009
 30
0.0
 10
6.7244739799
 20
4.4761235246
 30
0.0
 10
6.7238228966
 20
4.4762697522
 30
0.0
 11
6.7376603224
 21
4.4721666977
 31
0.0
 11
6.7257725385
 21
4.4758145354
 31
0.0
 11
6.7238228966
 21
4.4762697522
 31
0.0
  0
SPLINE
  5
516
100
AcDbEntity
  8
0
100
AcDbSpline
 62
7
  6
CONTINUOUS
 70
0
 71
3
 72
9
 73
5
 74
3
 42
0.0000001
 43
0.0000001
 44
0.0000000001
 12
-0.0314861949
 22
0.0070715204
 32
0.0
 13
-0.032246195
 23
0.0
 33
0.0
 40
0.0
 40
0.0
 40
0.0
 40
0.0
 40
0.4654986185
 40
1.0
 40
1.0
 40
1.0
 40
1.0
 10
6.7238228966
 20
4.4762697522
 30
0.0
 10
6.7189373032
 20
4.4773670132
 30
0.0
 10
6.7083002175
 20
4.4790633356
 30
0.0
 10
6.6975422239
 20
4.4796208219
 30
0.0
 10
6.691797012
 20
4.4796208219
 30
0.0
 11
6.7238228966
 21
4.4762697522
 31
0.0
 11
6.7090080064
 21
4.4786995115
 31
0.0
 11
6.691797012
 21
4.4796208219
 31
0.0
  0
SPLINE
  5
517
100
AcDbEntity
  8
0
100
AcDbSpline
 62
7
  6
CONTINUOUS
 70
0
 71
3
 72
14
 73
10
 74
8
 42
0.0000001
 43
0.0000001
 44
0.0000000001
 12
-0.0000650089
 22
-0.1089659761
 32
0.0
 13
0.1085512815
 23
0.0
 33
0.0
 40
0.0
 40
0.0
 40
0.0
 40
0.0
 40
0.116208919
 40
0.2423726077
 40
0.3800620492
 40
0.5278371932
 40
0.6824730638
 40
0.8406275357
 40
1.0
 40
1.0
 40
1.0
 40
1.0
 10
6.6137970121
 20
4.5201163668
 30
0.0
 10
6.6137944939
 20
4.5158954274
 30
0.0
 10
6.6152461602
 20
4.507112455
 30
0.0
 10
6.6211922626
 20
4.4945451542
 30
0.0
 10
6.6306432976
 20
4.4828725686
 30
0.0
 10
6.6431372674
 20
4.4728203965
 30
0.0
 10
6.6580244047
 20
4.4650944712
 30
0.0
 10
6.6745107876
 20
4.4602453792
 30
0.0
 10
6.6860303169
 20
4.4591467142
 30
0.0
 10
6.691797012
 20
4.4591467142
 30
0.0
 11
6.6137970121
 21
4.5201163668
 31
0.0
 11
6.6157245324
 21
4.5076498744
 31
0.0
 11
6.6214532302
 21
4.4952103669
 31
0.0
 11
6.6307722671
 21
4.483524932
 31
0.0
 11
6.6432266288
 21
4.4734151165
 31
0.0
 11
6.6581089107
 21
4.4656507839
 31
0.0
 11
6.6745755628
 21
4.4607943295
 31
0.0
 11
6.691797012
 21
4.4591467142
 31
0.0
  0
SPLINE
  5
518
100
AcDbEntity
  8
0
100
AcDbSpline
 62
7
  6
CONTINUOUS
 70
0
 71
3
 72
21
 73
17
 74
15
 42
0.0000001
 43
0.0000001
 44
0.0000000001
 12
-0.1538241899
 22
-0.0320810268
 32
0.0
 13
-0.1538241877
 23
0.0320810268
 33
0.0
 40
0.0
 40
0.0
 40
0.0
 40
0.0
 40
0.0125501725
 40
0.0504939194
 40
0.110891093
 40
0.1887907398
 40
0.2837959474
 40
0.3903185291
 40
0.5000517662
 40
0.6096987979
 40
0.7161289301
 40
0.8112070339
 40
0.8891426844
 40
0.9494535549
 40
0.9874246635
 40
1.0
 40
1.0
 40
1.0
 40
1.0
 10
6.769797012
 20
4.6296584326
 30
0.0
 10
6.7691535053
 20
4.6295242251
 30
0.0
 10
6.7665631595
 20
4.6289903845
 30
0.0
 10
6.7608632861
 20
4.6278725004
 30
0.0
 10
6.7517717728
 20
4.6262680665
 30
0.0
 10
6.7396821836
 20
4.6244746375
 30
0.0
 10
6.725134274
 20
4.6228383248
 30
0.0
 10
6.7088651289
 20
4.6217013209
 30
0.0
 10
6.6917933871
 20
4.6212987519
 30
0.0
 10
6.6747265098
 20
4.6217016491
 30
0.0
 10
6.658462889
 20
4.6228380632
 30
0.0
 10
6.64391409
 20
4.6244742427
 30
0.0
 10
6.6318233394
 20
4.6262679239
 30
0.0
 10
6.6227330061
 20
4.6278721132
 30
0.0
 10
6.6170348518
 20
4.6289895724
 30
0.0
 10
6.614441809
 20
4.629523956
 30
0.0
 10
6.613797012
 20
4.6296584326
 30
0.0
 11
6.769797012
 21
4.6296584326
 31
0.0
 11
6.7678655403
 21
4.6292603879
 31
0.0
 11
6.7620146957
 21
4.6281131588
 31
0.0
 11
6.7526684889
 21
4.6264647657
 31
0.0
 11
6.7405600281
 21
4.6246703995
 31
0.0
 11
6.7257247154
 21
4.6230044399
 31
0.0
 11
6.7090269412
 21
4.6218399046
 31
0.0
 11
6.6917888751
 21
4.6214343204
 31
0.0
 11
6.6745643615
 21
4.6218400327
 31
0.0
 11
6.657881065
 21
4.6230033542
 31
0.0
 11
6.6430343426
 21
4.6246703537
 31
0.0
 11
6.6309202968
 21
4.6264656257
 31
0.0
 11
6.6215874391
 21
4.6281116298
 31
0.0
 11
6.6157323583
 21
4.629259599
 31
0.0
 11
6.613797012
 21
4.6296584326
 31
0.0
  0
SPLINE
  5
519
100
AcDbEntity
  8
0
100
AcDbSpline
 62
7
  6
CONTINUOUS
 70
0
 71
3
 72
21
 73
17
 74
15
 42
0.0000001
 43
0.0000001
 44
0.0000000001
 12
0.1538241899
 22
0.0320810268
 32
0.0
 13
0.1538241877
 23
-0.0320810268
 33
0.0
 40
0.0
 40
0.0
 40
0.0
 40
0.0
 40
0.0125501725
 40
0.0504939194
 40
0.110891093
 40
0.1887907398
 40
0.2837959474
 40
0.3903185291
 40
0.5000517662
 40
0.6096987979
 40
0.7161289301
 40
0.8112070339
 40
0.8891426844
 40
0.9494535549
 40
0.9874246635
 40
1.0
 40
1.0
 40
1.0
 40
1.0
 10
6.613797012
 20
3.8816584326
 30
0.0
 10
6.6144405187
 20
3.8817926401
 30
0.0
 10
6.6170308644
 20
3.8823264807
 30
0.0
 10
6.6227307379
 20
3.8834443648
 30
0.0
 10
6.6318222511
 20
3.8850487987
 30
0.0
 10
6.6439118404
 20
3.8868422277
 30
0.0
 10
6.6584597499
 20
3.8884785404
 30
0.0
 10
6.674728895
 20
3.8896155443
 30
0.0
 10
6.6918006368
 20
3.8900181133
 30
0.0
 10
6.7088675142
 20
3.8896152161
 30
0.0
 10
6.7251311349
 20
3.888478802
 30
0.0
 10
6.739679934
 20
3.8868426225
 30
0.0
 10
6.7517706845
 20
3.8850489413
 30
0.0
 10
6.7608610178
 20
3.883444752
 30
0.0
 10
6.7665591721
 20
3.8823272928
 30
0.0
 10
6.769152215
 20
3.8817929092
 30
0.0
 10
6.769797012
 20
3.8816584326
 30
0.0
 11
6.613797012
 21
3.8816584326
 31
0.0
 11
6.6157284837
 21
3.8820564773
 31
0.0
 11
6.6215793283
 21
3.8832037063
 31
0.0
 11
6.6309255351
 21
3.8848520994
 31
0.0
 11
6.6430339959
 21
3.8866464657
 31
0.0
 11
6.6578693086
 21
3.8883124253
 31
0.0
 11
6.6745670827
 21
3.8894769606
 31
0.0
 11
6.6918051489
 21
3.8898825448
 31
0.0
 11
6.7090296625
 21
3.8894768325
 31
0.0
 11
6.7257129589
 21
3.888313511
 31
0.0
 11
6.7405596814
 21
3.8866465115
 31
0.0
 11
6.7526737272
 21
3.8848512395
 31
0.0
 11
6.7620065849
 21
3.8832052354
 31
0.0
 11
6.7678616657
 21
3.8820572662
 31
0.0
 11
6.769797012
 21
3.8816584326
 31
0.0
  0
SPLINE
  5
51A
100
AcDbEntity
  8
0
100
AcDbSpline
 62
7
  6
CONTINUOUS
 70
0
 71
3
 72
14
 73
10
 74
8
 42
0.0000001
 43
0.0000001
 44
0.0000000001
 12
-0.0000610577
 22
0.1023358806
 32
0.0
 13
-0.1019464175
 23
-0.0
 33
0.0
 40
0.0
 40
0.0
 40
0.0
 40
0.0
 40
0.1182891105
 40
0.2386376427
 40
0.3681676989
 40
0.5107726454
 40
0.6661061052
 40
0.8307260225
 40
1.0
 40
1.0
 40
1.0
 40
1.0
 10
6.7697970118
 20
4.5201163668
 30
0.0
 10
6.7697946043
 20
4.5241514402
 30
0.0
 10
6.768501889
 20
4.5323099421
 30
0.0
 10
6.7624677934
 20
4.5435215115
 30
0.0
 10
6.7528046
 20
4.5529563489
 30
0.0
 10
6.7401722544
 20
4.5603498359
 30
0.0
 10
6.7252853906
 20
4.5656207797
 30
0.0
 10
6.708909103
 20
4.5687637158
 30
0.0
 10
6.6975493038
 20
4.5694553721
 30
0.0
 10
6.691797012
 20
4.5694553721
 30
0.0
 11
6.7697970118
 21
4.5201163668
 31
0.0
 11
6.7678696838
 21
4.5320205083
 31
0.0
 11
6.7621411729
 21
4.5428701635
 31
0.0
 11
6.752822506
 21
4.5522263261
 31
0.0
 11
6.7403687352
 21
4.5597269181
 31
0.0
 11
6.7254869799
 21
4.5651400897
 31
0.0
 11
6.709020382
 21
4.568380532
 31
0.0
 11
6.691797012
 21
4.5694553721
 31
0.0
  0
SPLINE
  5
51B
100
AcDbEntity
  8
0
100
AcDbSpline
 62
7
  6
CONTINUOUS
 70
0
 71
3
 72
14
 73
10
 74
8
 42
0.0000001
 43
0.0000001
 44
0.0000000001
 12
0.0000610572
 22
-0.1023358807
 32
0.0
 13
0.1019464175
 23
-0.0
 33
0.0
 40
0.0
 40
0.0
 40
0.0
 40
0.0
 40
0.1182891693
 40
0.2386376954
 40
0.3681677414
 40
0.5107726707
 40
0.6661061101
 40
0.8307260151
 40
1.0
 40
1.0
 40
1.0
 40
1.0
 10
6.6137970121
 20
3.9912004984
 30
0.0
 10
6.6137994196
 20
3.9871654229
 30
0.0
 10
6.615092136
 20
3.9790069192
 30
0.0
 10
6.6211262339
 20
3.9677953495
 30
0.0
 10
6.6307894273
 20
3.9583605139
 30
0.0
 10
6.6434217719
 20
3.9509670284
 30
0.0
 10
6.6583086341
 20
3.9456960853
 30
0.0
 10
6.6746849208
 20
3.9425531494
 30
0.0
 10
6.6860447199
 20
3.9418614931
 30
0.0
 10
6.691797012
 20
3.9418614931
 30
0.0
 11
6.6137970121
 21
3.9912004984
 31
0.0
 11
6.6157243421
 21
3.9792963512
 31
0.0
 11
6.6214528543
 21
3.9684466973
 31
0.0
 11
6.6307715214
 21
3.9590905364
 31
0.0
 11
6.6432252911
 21
3.951589946
 31
0.0
 11
6.6581070446
 21
3.9461767753
 31
0.0
 11
6.6745736413
 21
3.9429363333
 31
0.0
 11
6.691797012
 21
3.9418614931
 31
0.0
  0
SPLINE
  5
51C
100
AcDbEntity
  8
0
100
AcDbSpline
 62
7
  6
CONTINUOUS
 70
0
 71
3
 72
14
 73
10
 74
8
 42
0.0000001
 43
0.0000001
 44
0.0000000001
 12
0.1019464182
 22
0.0
 32
0.0
 13
0.0000610529
 23
0.1023358806
 33
0.0
 40
0.0
 40
0.0
 40
0.0
 40
0.0
 40
0.1692755986
 40
0.3338957997
 40
0.4892280299
 40
0.6318332088
 40
0.7613636787
 40
0.8817114845
 40
1.0
 40
1.0
 40
1.0
 40
1.0
 10
6.691797012
 20
3.9418614931
 30
0.0
 10
6.697549359
 20
3.9418614931
 30
0.0
 10
6.7089092234
 20
3.9425531598
 30
0.0
 10
6.7252855296
 20
3.9456961242
 30
0.0
 10
6.7401723617
 20
3.9509670818
 30
0.0
 10
6.7528046823
 20
3.9583605735
 30
0.0
 10
6.7624678537
 20
3.9677954331
 30
0.0
 10
6.768501903
 20
3.9790069893
 30
0.0
 10
6.7697946046
 20
3.9871654452
 30
0.0
 10
6.7697970118
 20
3.9912004983
 30
0.0
 11
6.691797012
 21
3.9418614931
 31
0.0
 11
6.7090205464
 21
3.9429363541
 31
0.0
 11
6.7254871679
 21
3.9461768269
 31
0.0
 11
6.7403687979
 21
3.9515899765
 31
0.0
 11
6.7528225799
 21
3.9590905961
 31
0.0
 11
6.7621412543
 21
3.9684468109
 31
0.0
 11
6.7678697034
 21
3.9792964151
 31
0.0
 11
6.7697970118
 21
3.9912004983
 31
0.0
  0
SPLINE
  5
51D
100
AcDbEntity
  8
0
100
AcDbSpline
 62
7
  6
CONTINUOUS
 70
0
 71
3
 72
14
 73
10
 74
8
 42
0.0000001
 43
0.0000001
 44
0.0000000001
 12
-0.1019464182
 22
0.0
 32
0.0
 13
-0.0000610534
 23
-0.1023358805
 33
0.0
 40
0.0
 40
0.0
 40
0.0
 40
0.0
 40
0.1692755955
 40
0.3338958102
 40
0.489228059
 40
0.6318332551
 40
0.7613637346
 40
0.8817115438
 40
1.0
 40
1.0
 40
1.0
 40
1.0
 10
6.691797012
 20
4.5694553721
 30
0.0
 10
6.6860446651
 20
4.5694553721
 30
0.0
 10
6.6746848004
 20
4.5687637054
 30
0.0
 10
6.6583084931
 20
4.5656207408
 30
0.0
 10
6.6434216596
 20
4.5603497823
 30
0.0
 10
6.6307893379
 20
4.552956289
 30
0.0
 10
6.6211261668
 20
4.5435214277
 30
0.0
 10
6.6150921199
 20
4.5323098719
 30
0.0
 10
6.6137994194
 20
4.524151418
 30
0.0
 10
6.6137970121
 20
4.5201163668
 30
0.0
 11
6.691797012
 21
4.5694553721
 31
0.0
 11
6.6745734779
 21
4.5683805112
 31
0.0
 11
6.6581068551
 21
4.565140038
 31
0.0
 11
6.6432252233
 21
4.5597268874
 31
0.0
 11
6.6307714403
 21
4.5522262662
 31
0.0
 11
6.6214527662
 21
4.5428700497
 31
0.0
 11
6.6157243186
 21
4.5320204442
 31
0.0
 11
6.6137970121
 21
4.5201163668
 31
0.0
  0
SPLINE
  5
51E
100
AcDbEntity
  8
0
100
AcDbSpline
 62
7
  6
CONTINUOUS
 70
0
 71
3
 72
8
 73
4
 74
2
 42
0.0000001
 43
0.0000001
 44
0.0000000001
 12
0.0014912147
 22
0.0001009339
 32
0.0
 13
0.0014915355
 23
0.0000961192
 33
0.0
 40
0.0
 40
0.0
 40
0.0
 40
0.0
 40
1.0
 40
1.0
 40
1.0
 40
1.0
 10
5.314797012
 20
3.7976584326
 30
0.0
 10
5.3152940836
 20
3.7976920772
 30
0.0
 10
5.3157912099
 20
3.79772492
 30
0.0
 10
5.3162883884
 20
3.7977569597
 30
0.0
 11
5.314797012
 21
3.7976584326
 31
0.0
 11
5.3162883884
 21
3.7977569597
 31
0.0
  0
SPLINE
  5
51F
100
AcDbEntity
  8
0
100
AcDbSpline
 62
7
  6
CONTINUOUS
 70
0
 71
3
 72
16
 73
12
 74
10
 42
0.0000001
 43
0.0000001
 44
0.0000000001
 12
0.0589406609
 22
0.0037983193
 32
0.0
 13
0.0589406163
 23
-0.0037990168
 33
0.0
 40
0.0
 40
0.0
 40
0.0
 40
0.0
 40
0.0741295111
 40
0.1900960151
 40
0.3366937466
 40
0.499177799
 40
0.6617590715
 40
0.8085400726
 40
0.9249728327
 40
0.9997343438
 40
1.0
 40
1.0
 40
1.0
 40
1.0
 10
5.3162883884
 20
3.7977569597
 30
0.0
 10
5.3177448025
 20
3.7978508156
 30
0.0
 10
5.3214807457
 20
3.7980738267
 30
0.0
 10
5.328102229
 20
3.7983882318
 30
0.0
 10
5.3364670115
 20
3.7986439119
 30
0.0
 10
5.3457530982
 20
3.7987423834
 30
0.0
 10
5.3550428129
 20
3.7986456784
 30
0.0
 10
5.3634223372
 20
3.7983910213
 30
0.0
 10
5.3700690671
 20
3.798076305
 30
0.0
 10
5.3738318303
 20
3.7978519288
 30
0.0
 10
5.3753058811
 20
3.7977569439
 30
0.0
 10
5.3753111004
 20
3.7977566075
 30
0.0
 11
5.3162883884
 21
3.7977569597
 31
0.0
 11
5.3206589097
 21
3.7980178267
 31
0.0
 11
5.3275005165
 21
3.7983426098
 31
0.0
 11
5.3361549564
 21
3.7986070468
 31
0.0
 11
5.3457511875
 21
3.7987087613
 31
0.0
 11
5.35535318
 21
3.7986088507
 31
0.0
 11
5.3640184856
 21
3.7983456052
 31
0.0
 11
5.3708876432
 21
3.7980204318
 31
0.0
 11
5.3752954424
 21
3.7977576165
 31
0.0
 11
5.3753111004
 21
3.7977566075
 31
0.0
  0
SPLINE
  5
520
100
AcDbEntity
  8
0
100
AcDbSpline
 62
7
  6
CONTINUOUS
 70
0
 71
3
 72
8
 73
4
 74
2
 42
0.0000001
 43
0.0000001
 44
0.0000000001
 12
0.0014860696
 22
-0.0000957846
 32
0.0
 13
0.0014857511
 23
-0.0001005641
 33
0.0
 40
0.0
 40
0.0
 40
0.0
 40
0.0
 40
1.0
 40
1.0
 40
1.0
 40
1.0
 10
5.3753111004
 20
3.7977566075
 30
0.0
 10
5.3758064569
 20
3.7977246793
 30
0.0
 10
5.3763017616
 20
3.797691954
 30
0.0
 10
5.376797012
 20
3.7976584326
 30
0.0
 11
5.3753111004
 21
3.7977566075
 31
0.0
 11
5.376797012
 21
3.7976584326
 31
0.0
  0
SPLINE
  5
521
100
AcDbEntity
  8
0
100
AcDbSpline
 62
7
  6
CONTINUOUS
 70
0
 71
3
 72
14
 73
10
 74
8
 42
0.0000001
 43
0.0000001
 44
0.0000000001
 12
-0.1524912644
 22
0.5724510643
 32
0.0
 13
0.1524912644
 23
0.5724510643
 33
0.0
 40
0.0
 40
0.0
 40
0.0
 40
0.0
 40
0.1483734886
 40
0.2906183378
 40
0.4304255817
 40
0.5696820058
 40
0.7094806994
 40
0.8516660081
 40
1.0
 40
1.0
 40
1.0
 40
1.0
 10
4.2694076832
 20
3.9631378137
 30
0.0
 10
4.2618657963
 20
3.9914500008
 30
0.0
 10
4.248662677
 20
4.0473453437
 30
0.0
 10
4.2348593878
 20
4.1312892
 30
0.0
 10
4.2278281096
 20
4.2142825065
 30
0.0
 10
4.2278308506
 20
4.2970964695
 30
0.0
 10
4.2348660294
 20
4.3800759144
 30
0.0
 10
4.24866877
 20
4.4639982269
 30
0.0
 10
4.2618678039
 20
4.519874401
 30
0.0
 10
4.2694076832
 20
4.5481790515
 30
0.0
 11
4.2694076832
 21
3.9631378137
 31
0.0
 11
4.2493964486
 21
4.0487280613
 31
0.0
 11
4.2358845178
 21
4.1319054961
 31
0.0
 11
4.2289883095
 21
4.2144415997
 31
0.0
 11
4.2289910004
 21
4.2969389913
 31
0.0
 11
4.2358917474
 21
4.3794696325
 31
0.0
 11
4.2494010255
 21
4.4626117632
 31
0.0
 11
4.2694076832
 21
4.5481790515
 31
0.0
  0
SPLINE
  5
522
100
AcDbEntity
  8
0
100
AcDbSpline
 62
7
  6
CONTINUOUS
 70
0
 71
3
 72
14
 73
10
 74
8
 42
0.0000001
 43
0.0000001
 44
0.0000000001
 12
0.1524912644
 22
0.5724510643
 32
0.0
 13
-0.1524912644
 23
0.5724510643
 33
0.0
 40
0.0
 40
0.0
 40
0.0
 40
0.0
 40
0.1483734886
 40
0.2906183378
 40
0.4304255817
 40
0.5696820058
 40
0.7094806994
 40
0.8516660081
 40
1.0
 40
1.0
 40
1.0
 40
1.0
 10
4.8563713861
 20
3.9631378137
 30
0.0
 10
4.8639132731
 20
3.9914500008
 30
0.0
 10
4.8771163924
 20
4.0473453437
 30
0.0
 10
4.8909196816
 20
4.1312892
 30
0.0
 10
4.8979509598
 20
4.2142825065
 30
0.0
 10
4.8979482188
 20
4.2970964695
 30
0.0
 10
4.89091304
 20
4.3800759144
 30
0.0
 10
4.8771102994
 20
4.4639982269
 30
0.0
 10
4.8639112655
 20
4.519874401
 30
0.0
 10
4.8563713861
 20
4.5481790515
 30
0.0
 11
4.8563713861
 21
3.9631378137
 31
0.0
 11
4.8763826208
 21
4.0487280613
 31
0.0
 11
4.8898945516
 21
4.1319054961
 31
0.0
 11
4.8967907599
 21
4.2144415997
 31
0.0
 11
4.896788069
 21
4.2969389913
 31
0.0
 11
4.889887322
 21
4.3794696325
 31
0.0
 11
4.8763780439
 21
4.4626117632
 31
0.0
 11
4.8563713861
 21
4.5481790515
 31
0.0
  0
SPLINE
  5
523
100
AcDbEntity
  8
0
100
AcDbSpline
 62
7
  6
CONTINUOUS
 70
0
 71
3
 72
14
 73
10
 74
8
 42
0.0000001
 43
0.0000001
 44
0.0000000001
 12
-0.1442757118
 22
0.2708049707
 32
0.0
 13
0.1442757118
 23
0.2708049707
 33
0.0
 40
0.0
 40
0.0
 40
0.0
 40
0.0
 40
0.1539652166
 40
0.2964780264
 40
0.4328366592
 40
0.567267274
 40
0.7036195666
 40
0.846074992
 40
1.0
 40
1.0
 40
1.0
 40
1.0
 10
4.2694076832
 20
4.5965231231
 30
0.0
 10
4.2620032028
 20
4.6104213051
 30
0.0
 10
4.2489640737
 20
4.637875645
 30
0.0
 10
4.234995122
 20
4.6800254281
 30
0.0
 10
4.2278310373
 20
4.7218746314
 30
0.0
 10
4.22783384
 20
4.7637235949
 30
0.0
 10
4.2350018134
 20
4.8055654324
 30
0.0
 10
4.2489699929
 20
4.8477040692
 30
0.0
 10
4.2620051365
 20
4.8751491896
 30
0.0
 10
4.2694076832
 20
4.8890437421
 30
0.0
 11
4.2694076832
 21
4.5965231231
 31
0.0
 11
4.2493964486
 21
4.6393182469
 31
0.0
 11
4.2358845178
 21
4.6809069644
 31
0.0
 11
4.2289883095
 21
4.7221750161
 31
0.0
 11
4.2289910004
 21
4.7634237119
 31
0.0
 11
4.2358917474
 21
4.8046890326
 31
0.0
 11
4.2494010255
 21
4.8462600979
 31
0.0
 11
4.2694076832
 21
4.8890437421
 31
0.0
  0
SPLINE
  5
524
100
AcDbEntity
  8
0
100
AcDbSpline
 62
7
  6
CONTINUOUS
 70
0
 71
3
 72
14
 73
10
 74
8
 42
0.0000001
 43
0.0000001
 44
0.0000000001
 12
0.1442757118
 22
0.2708049707
 32
0.0
 13
-0.1442757118
 23
0.2708049707
 33
0.0
 40
0.0
 40
0.0
 40
0.0
 40
0.0
 40
0.1539652166
 40
0.2964780264
 40
0.4328366592
 40
0.567267274
 40
0.7036195666
 40
0.846074992
 40
1.0
 40
1.0
 40
1.0
 40
1.0
 10
4.8563713861
 20
4.5965231231
 30
0.0
 10
4.8637758665
 20
4.6104213051
 30
0.0
 10
4.8768149957
 20
4.637875645
 30
0.0
 10
4.8907839474
 20
4.6800254281
 30
0.0
 10
4.897948032
 20
4.7218746314
 30
0.0
 10
4.8979452294
 20
4.7637235949
 30
0.0
 10
4.890777256
 20
4.8055654324
 30
0.0
 10
4.8768090765
 20
4.8477040692
 30
0.0
 10
4.8637739328
 20
4.8751491896
 30
0.0
 10
4.8563713861
 20
4.8890437421
 30
0.0
 11
4.8563713861
 21
4.5965231231
 31
0.0
 11
4.8763826208
 21
4.6393182469
 31
0.0
 11
4.8898945516
 21
4.6809069644
 31
0.0
 11
4.8967907599
 21
4.7221750161
 31
0.0
 11
4.896788069
 21
4.7634237119
 31
0.0
 11
4.889887322
 21
4.8046890326
 31
0.0
 11
4.8763780439
 21
4.8462600979
 31
0.0
 11
4.8563713861
 21
4.8890437421
 31
0.0
  0
SPLINE
  5
525
100
AcDbEntity
  8
0
100
AcDbSpline
 62
7
  6
CONTINUOUS
 70
0
 71
3
 72
14
 73
10
 74
8
 42
0.0000001
 43
0.0000001
 44
0.0000000001
 12
-0.1442757118
 22
0.2708049707
 32
0.0
 13
0.1442757118
 23
0.2708049707
 33
0.0
 40
0.0
 40
0.0
 40
0.0
 40
0.0
 40
0.1539652166
 40
0.2964780264
 40
0.4328366592
 40
0.567267274
 40
0.7036195666
 40
0.846074992
 40
1.0
 40
1.0
 40
1.0
 40
1.0
 10
4.2694076832
 20
3.6222731231
 30
0.0
 10
4.2620032028
 20
3.6361713051
 30
0.0
 10
4.2489640737
 20
3.663625645
 30
0.0
 10
4.234995122
 20
3.7057754281
 30
0.0
 10
4.2278310373
 20
3.7476246314
 30
0.0
 10
4.22783384
 20
3.7894735949
 30
0.0
 10
4.2350018134
 20
3.8313154324
 30
0.0
 10
4.2489699929
 20
3.8734540692
 30
0.0
 10
4.2620051365
 20
3.9008991896
 30
0.0
 10
4.2694076832
 20
3.9147937421
 30
0.0
 11
4.2694076832
 21
3.6222731231
 31
0.0
 11
4.2493964486
 21
3.6650682469
 31
0.0
 11
4.2358845178
 21
3.7066569644
 31
0.0
 11
4.2289883095
 21
3.7479250161
 31
0.0
 11
4.2289910004
 21
3.7891737119
 31
0.0
 11
4.2358917474
 21
3.8304390326
 31
0.0
 11
4.2494010255
 21
3.8720100979
 31
0.0
 11
4.2694076832
 21
3.9147937421
 31
0.0
  0
SPLINE
  5
526
100
AcDbEntity
  8
0
100
AcDbSpline
 62
7
  6
CONTINUOUS
 70
0
 71
3
 72
14
 73
10
 74
8
 42
0.0000001
 43
0.0000001
 44
0.0000000001
 12
0.1442757118
 22
0.2708049707
 32
0.0
 13
-0.1442757118
 23
0.2708049707
 33
0.0
 40
0.0
 40
0.0
 40
0.0
 40
0.0
 40
0.1539652166
 40
0.2964780264
 40
0.4328366592
 40
0.567267274
 40
0.7036195666
 40
0.846074992
 40
1.0
 40
1.0
 40
1.0
 40
1.0
 10
4.8563713861
 20
3.6222731231
 30
0.0
 10
4.8637758665
 20
3.6361713051
 30
0.0
 10
4.8768149957
 20
3.663625645
 30
0.0
 10
4.8907839474
 20
3.7057754281
 30
0.0
 10
4.897948032
 20
3.7476246314
 30
0.0
 10
4.8979452294
 20
3.7894735949
 30
0.0
 10
4.890777256
 20
3.8313154324
 30
0.0
 10
4.8768090765
 20
3.8734540692
 30
0.0
 10
4.8637739328
 20
3.9008991896
 30
0.0
 10
4.8563713861
 20
3.9147937421
 30
0.0
 11
4.8563713861
 21
3.6222731231
 31
0.0
 11
4.8763826208
 21
3.6650682469
 31
0.0
 11
4.8898945516
 21
3.7066569644
 31
0.0
 11
4.8967907599
 21
3.7479250161
 31
0.0
 11
4.896788069
 21
3.7891737119
 31
0.0
 11
4.889887322
 21
3.8304390326
 31
0.0
 11
4.8763780439
 21
3.8720100979
 31
0.0
 11
4.8563713861
 21
3.9147937421
 31
0.0
  0
ENDSEC
  0
SECTION
  2
OBJECTS
  0
DICTIONARY
  5
C
100
AcDbDictionary
280
0
281
1
  3
ACAD_GROUP
350
D
  3
ACAD_MLINESTYLE
350
17
  3
ACAD_LAYOUT
350
1A
  3
ACAD_PLOTSETTINGS
350
19
  3
ACAD_PLOTSTYLENAME
350
E
  0
DICTIONARY
  5
D
102
{ACAD_REACTORS
330
C
102
}
100
AcDbDictionary
280
0
281
1
  0
ACDBDICTIONARYWDFLT
  5
E
102
{ACAD_REACTORS
330
C
102
}
100
AcDbDictionary
281
1
  3
Normal
350
F
100
AcDbDictionaryWithDefault
340
F
  0
DICTIONARY
  5
17
102
{ACAD_REACTORS
330
C
102
}
100
AcDbDictionary
280
0
281
1
  3
Standard
350
18
  0
DICTIONARY
  5
19
102
{ACAD_REACTORS
330
C
102
}
100
AcDbDictionary
281
1
  0
DICTIONARY
  5
1A
102
{ACAD_REACTORS
330
C
102
}
100
AcDbDictionary
281
1
  3
Layout1
350
1E
  3
Model
350
22
  0
ACDBPLACEHOLDER
  5
F
102
{ACAD_REACTORS
330
E
102
}
  0
MLINESTYLE
  5
18
102
{ACAD_REACTORS
330
17
102
}
100
AcDbMlineStyle
  2
STANDARD
 70
0
  3

 62
256
 51
90.0
 52
90.0
 71
2
 49
0.5
 62
256
  6
BYLAYER
 49
-0.5
 62
256
  6
BYLAYER
  0
LAYOUT
  5
1E
102
{ACAD_REACTORS
330
1A
102
}
100
AcDbPlotSettings
  1

  2

  4

  6

 40
0.0
 41
0.0
 42
0.0
 43
0.0
 44
0.0
 45
0.0
 46
0.0
 47
0.0
 48
0.0
 49
0.0
140
0.0
141
0.0
142
1.0
143
1.0
 70
0
 72
0
 73
0
 74
0
  7

 75
0
147
1.0
148
0.0
149
0.0
100
AcDbLayout
  1
Layout1
 70
0
 71
0
 10
0.0
 20
0.0
 11
0.0
 21
0.0
 12
0.0
 22
0.0
 32
0.0
 14
0.0
 24
0.0
 34
0.0
 15
0.0
 25
0.0
 35
0.0
146
0.0
 13
0.0
 23
0.0
 33
0.0
 16
0.0
 26
0.0
 36
0.0
 17
0.0
 27
0.0
 37
0.0
 76
0
330
1B
331
0
345
0
346
0
  0
LAYOUT
  5
22
102
{ACAD_REACTORS
330
1A
102
}
100
AcDbPlotSettings
  1

  2

  4

  6

 40
0.0
 41
0.0
 42
0.0
 43
0.0
 44
0.0
 45
0.0
 46
0.0
 47
0.0
 48
0.0
 49
0.0
140
0.0
141
0.0
142
1.0
143
1.0
 70
0
 72
0
 73
0
 74
0
  7

 75
0
147
1.0
148
0.0
149
0.0
100
AcDbLayout
  1
Model
 70
0
 71
0
 10
0.0
 20
0.0
 11
0.0
 21
0.0
 12
0.0
 22
0.0
 32
0.0
 14
0.0
 24
0.0
 34
0.0
 15
0.0
 25
0.0
 35
0.0
146
0.0
 13
0.0
 23
0.0
 33
0.0
 16
0.0
 26
0.0
 36
0.0
 17
0.0
 27
0.0
 37
0.0
 76
0
330
1F
331
0
345
0
346
0
  0
ENDSEC
  0
EOF
