999
DXF file: PBDB-LQN.dxf
999
Pro/ENGINEER 2006240 by Parametric Technology Corporation
  0
SECTION
  2
HEADER
  9
$ACADVER
  1
AC1015
  9
$DWGCODEPAGE
  3
ANSI_1252
  9
$EXTMAX
 10
11.6929133858
 20
8.2677165354
 30
0.0
  9
$EXTMIN
 10
0.0
 20
0.0
 30
0.0
  9
$LIMMIN
 10
0.0
 20
0.0
  9
$LIMMAX
 10
11.6929133858
 20
8.2677165354
  9
$VIEWCTR
 10
5.8464566929
 20
4.1338582677
  9
$VIEWSIZE
 40
8.2677165354
  9
$CLAYER
  8
0
  9
$LTSCALE
 40
0.6431102362
  9
$CELTYPE
  6
BYLAYER
  9
$DIMSCALE
 40
1.0
  9
$DIMASZ
 40
0.1875
  9
$DIMEXO
 40
0.0730807087
  9
$DIMDLI
 40
0.4443307087
  9
$DIMEXE
 40
0.2104724409
  9
$DIMCEN
 40
0.1052362205
  9
$DIMLFAC
 40
1.0
  9
$DIMBLK
  1
_CLOSED
  9
$DIMTXT
 40
0.15625
  9
$DIMTOL
 70
0
  9
$DIMLIM
 70
0
  9
$DIMTFAC
 40
1.0
  9
$PDMODE
 70
3
  9
$PDSIZE
 40
0.3125
  9
$HANDSEED
  5
54D
  9
$MEASUREMENT
 70
0
  9
$INSUNITS
 70
1
  0
ENDSEC
  0
SECTION
  2
CLASSES
  0
CLASS
  1
ACDBDICTIONARYWDFLT
  2
AcDbDictionaryWithDefault
  3
AutoCAD 2000
 90
0
280
0
281
0
  0
CLASS
  1
ACDBPLACEHOLDER
  2
AcDbPlaceHolder
  3
AutoCAD 2000
 90
0
280
0
281
0
  0
CLASS
  1
LAYOUT
  2
AcDbLayout
  3
AutoCAD 2000
 90
0
280
0
281
0
  0
ENDSEC
  0
SECTION
  2
TABLES
  0
TABLE
  2
VPORT
  5
8
100
AcDbSymbolTable
 70
2
  0
VPORT
  5
1F4
100
AcDbSymbolTableRecord
100
AcDbViewportTableRecord
  2
*ACTIVE
 70
0
 10
0.0
 20
0.0
 11
1.0
 21
1.0
 12
5.8464566929
 22
4.1338582677
 13
0.0
 23
0.0
 14
1.0
 24
1.0
 15
0.0
 25
0.0
 16
0.0
 26
0.0
 36
1.0
 17
0.0
 27
0.0
 37
0.0
 40
8.2677165354
 41
1.4142857143
 42
50.0
 43
0.0
 44
0.0
 50
0.0
 51
0.0
 71
0
 72
100
 73
1
 74
1
 75
0
 76
0
 77
0
 78
0
  0
ENDTAB
  0
TABLE
  2
LTYPE
  5
5
100
AcDbSymbolTable
 70
6
  0
LTYPE
  5
14
100
AcDbSymbolTableRecord
100
AcDbLinetypeTableRecord
  2
BYBLOCK
 70
0
  3

 72
65
 73
0
 40
0.0
  0
LTYPE
  5
15
100
AcDbSymbolTableRecord
100
AcDbLinetypeTableRecord
  2
BYLAYER
 70
0
  3

 72
65
 73
0
 40
0.0
  0
LTYPE
  5
16
100
AcDbSymbolTableRecord
100
AcDbLinetypeTableRecord
  2
CONTINUOUS
 70
64
  3
Solid line
 72
65
 73
0
 40
0.0
  0
LTYPE
  5
1F5
100
AcDbSymbolTableRecord
100
AcDbLinetypeTableRecord
  2
CENTER
 70
64
  3
____ _ ____ _ ____ _ ____ _ ____ _ ____ _ ____
 72
65
 73
4
 40
0.6
 49
0.375
 74
0
 49
-0.075
 74
0
 49
0.075
 74
0
 49
-0.075
 74
0
  0
LTYPE
  5
1F6
100
AcDbSymbolTableRecord
100
AcDbLinetypeTableRecord
  2
HIDDEN
 70
64
  3
- - - - - - - - - - - - - - - - - - - -
 72
65
 73
2
 40
0.2
 49
0.1
 74
0
 49
-0.1
 74
0
  0
LTYPE
  5
1F7
100
AcDbSymbolTableRecord
100
AcDbLinetypeTableRecord
  2
PHANTOM
 70
64
  3
_____ _ _ _____ _ _ _____ _ _ _____
 72
65
 73
6
 40
0.8
 49
0.45
 74
0
 49
-0.05
 74
0
 49
0.1
 74
0
 49
-0.05
 74
0
 49
0.1
 74
0
 49
-0.05
 74
0
  0
LTYPE
  5
1F8
100
AcDbSymbolTableRecord
100
AcDbLinetypeTableRecord
  2
DOT
 70
64
  3
. . . . . . . . . . . . . . . . . . . .
 72
65
 73
2
 40
0.2
 49
0.1
 74
0
 49
-0.1
 74
0
  0
LTYPE
  5
1F9
100
AcDbSymbolTableRecord
100
AcDbLinetypeTableRecord
  2
DASHED
 70
64
  3
- - - - - - - - - - - - - - - - - - - -
 72
65
 73
2
 40
0.2
 49
0.1
 74
0
 49
-0.1
 74
0
  0
ENDTAB
  0
TABLE
  2
LAYER
  5
2
100
AcDbSymbolTable
 70
36
  0
LAYER
  5
10
100
AcDbSymbolTableRecord
100
AcDbLayerTableRecord
  2
0
 70
0
 62
7
  6
CONTINUOUS
370
-3
390
F
  0
LAYER
  5
1FA
100
AcDbSymbolTableRecord
100
AcDbLayerTableRecord
  2
DEFAULT_1
 70
0
 62
7
  6
CENTER
370
-3
390
F
  0
LAYER
  5
1FB
100
AcDbSymbolTableRecord
100
AcDbLayerTableRecord
  2
DEFAULT_2
 70
0
 62
8
  6
HIDDEN
370
-3
390
F
  0
LAYER
  5
1FC
100
AcDbSymbolTableRecord
100
AcDbLayerTableRecord
  2
DEFAULT_3
 70
0
 62
7
  6
PHANTOM
370
-3
390
F
  0
LAYER
  5
1FD
100
AcDbSymbolTableRecord
100
AcDbLayerTableRecord
  2
_BLACK_HOLE
 70
0
 62
7
  6
CONTINUOUS
370
-3
390
F
  0
LAYER
  5
1FE
100
AcDbSymbolTableRecord
100
AcDbLayerTableRecord
  2
01_ALL_DTM_PLN
 70
0
 62
7
  6
CONTINUOUS
370
-3
390
F
  0
LAYER
  5
1FF
100
AcDbSymbolTableRecord
100
AcDbLayerTableRecord
  2
01__ASM_ALL_DTM_PLN
 70
0
 62
7
  6
CONTINUOUS
370
-3
390
F
  0
LAYER
  5
200
100
AcDbSymbolTableRecord
100
AcDbLayerTableRecord
  2
01__ASM_DEF_DTM_PLN
 70
0
 62
7
  6
CONTINUOUS
370
-3
390
F
  0
LAYER
  5
201
100
AcDbSymbolTableRecord
100
AcDbLayerTableRecord
  2
01___PRT_ALL_DTM_PLN
 70
0
 62
7
  6
CONTINUOUS
370
-3
390
F
  0
LAYER
  5
202
100
AcDbSymbolTableRecord
100
AcDbLayerTableRecord
  2
01___PRT_DEF_DTM_PLN
 70
0
 62
7
  6
CONTINUOUS
370
-3
390
F
  0
LAYER
  5
203
100
AcDbSymbolTableRecord
100
AcDbLayerTableRecord
  2
02_ALL_AXES
 70
0
 62
7
  6
CONTINUOUS
370
-3
390
F
  0
LAYER
  5
204
100
AcDbSymbolTableRecord
100
AcDbLayerTableRecord
  2
02__ASM_ALL_AXES
 70
0
 62
7
  6
CONTINUOUS
370
-3
390
F
  0
LAYER
  5
205
100
AcDbSymbolTableRecord
100
AcDbLayerTableRecord
  2
02___PRT_ALL_AXES
 70
0
 62
7
  6
CONTINUOUS
370
-3
390
F
  0
LAYER
  5
206
100
AcDbSymbolTableRecord
100
AcDbLayerTableRecord
  2
03_ALL_CURVES
 70
0
 62
7
  6
CONTINUOUS
370
-3
390
F
  0
LAYER
  5
207
100
AcDbSymbolTableRecord
100
AcDbLayerTableRecord
  2
03__ASM_ALL_CURVES
 70
0
 62
7
  6
CONTINUOUS
370
-3
390
F
  0
LAYER
  5
208
100
AcDbSymbolTableRecord
100
AcDbLayerTableRecord
  2
03___PRT_ALL_CURVES
 70
0
 62
7
  6
CONTINUOUS
370
-3
390
F
  0
LAYER
  5
209
100
AcDbSymbolTableRecord
100
AcDbLayerTableRecord
  2
04_ALL_DTM_PNT
 70
0
 62
7
  6
CONTINUOUS
370
-3
390
F
  0
LAYER
  5
20A
100
AcDbSymbolTableRecord
100
AcDbLayerTableRecord
  2
04__ASM_ALL_DTM_PNT
 70
0
 62
7
  6
CONTINUOUS
370
-3
390
F
  0
LAYER
  5
20B
100
AcDbSymbolTableRecord
100
AcDbLayerTableRecord
  2
04___PRT_ALL_DTM_PNT
 70
0
 62
7
  6
CONTINUOUS
370
-3
390
F
  0
LAYER
  5
20C
100
AcDbSymbolTableRecord
100
AcDbLayerTableRecord
  2
05_ALL_DTM_CSYS
 70
0
 62
7
  6
CONTINUOUS
370
-3
390
F
  0
LAYER
  5
20D
100
AcDbSymbolTableRecord
100
AcDbLayerTableRecord
  2
05__ASM_ALL_DTM_CSYS
 70
0
 62
7
  6
CONTINUOUS
370
-3
390
F
  0
LAYER
  5
20E
100
AcDbSymbolTableRecord
100
AcDbLayerTableRecord
  2
05__ASM_DEF_DTM_CSYS
 70
0
 62
7
  6
CONTINUOUS
370
-3
390
F
  0
LAYER
  5
20F
100
AcDbSymbolTableRecord
100
AcDbLayerTableRecord
  2
05___PRT_ALL_DTM_CSYS
 70
0
 62
7
  6
CONTINUOUS
370
-3
390
F
  0
LAYER
  5
210
100
AcDbSymbolTableRecord
100
AcDbLayerTableRecord
  2
05___PRT_DEF_DTM_CSYS
 70
0
 62
7
  6
CONTINUOUS
370
-3
390
F
  0
LAYER
  5
211
100
AcDbSymbolTableRecord
100
AcDbLayerTableRecord
  2
06_ALL_SURFS
 70
0
 62
7
  6
CONTINUOUS
370
-3
390
F
  0
LAYER
  5
212
100
AcDbSymbolTableRecord
100
AcDbLayerTableRecord
  2
06__ASM_ALL_SURFS
 70
0
 62
7
  6
CONTINUOUS
370
-3
390
F
  0
LAYER
  5
213
100
AcDbSymbolTableRecord
100
AcDbLayerTableRecord
  2
06___PRT_ALL_SURFS
 70
0
 62
7
  6
CONTINUOUS
370
-3
390
F
  0
LAYER
  5
214
100
AcDbSymbolTableRecord
100
AcDbLayerTableRecord
  2
07__ASM_ALL_SKELETONS
 70
0
 62
7
  6
CONTINUOUS
370
-3
390
F
  0
LAYER
  5
215
100
AcDbSymbolTableRecord
100
AcDbLayerTableRecord
  2
126-001_HEX_FEATURES
 70
0
 62
7
  6
CONTINUOUS
370
-3
390
F
  0
LAYER
  5
216
100
AcDbSymbolTableRecord
100
AcDbLayerTableRecord
  2
126-001_REF_GEOMETRY
 70
0
 62
7
  6
CONTINUOUS
370
-3
390
F
  0
LAYER
  5
217
100
AcDbSymbolTableRecord
100
AcDbLayerTableRecord
  2
126-004_HEX_FEATURES
 70
0
 62
7
  6
CONTINUOUS
370
-3
390
F
  0
LAYER
  5
218
100
AcDbSymbolTableRecord
100
AcDbLayerTableRecord
  2
126-004_REF_GEOMETRY
 70
0
 62
7
  6
CONTINUOUS
370
-3
390
F
  0
LAYER
  5
219
100
AcDbSymbolTableRecord
100
AcDbLayerTableRecord
  2
126-400_HEX_FEATURES
 70
0
 62
7
  6
CONTINUOUS
370
-3
390
F
  0
LAYER
  5
21A
100
AcDbSymbolTableRecord
100
AcDbLayerTableRecord
  2
126-400_REF_GEOMETRY
 70
0
 62
7
  6
CONTINUOUS
370
-3
390
F
  0
LAYER
  5
21B
100
AcDbSymbolTableRecord
100
AcDbLayerTableRecord
  2
126-401_HEX_FEATURES
 70
0
 62
7
  6
CONTINUOUS
370
-3
390
F
  0
LAYER
  5
21C
100
AcDbSymbolTableRecord
100
AcDbLayerTableRecord
  2
126-401_REF_GEOMETRY
 70
0
 62
7
  6
CONTINUOUS
370
-3
390
F
  0
LAYER
  5
21D
100
AcDbSymbolTableRecord
100
AcDbLayerTableRecord
  2
126-402_HEX_FEATURES
 70
0
 62
7
  6
CONTINUOUS
370
-3
390
F
  0
LAYER
  5
21E
100
AcDbSymbolTableRecord
100
AcDbLayerTableRecord
  2
126-402_REF_GEOMETRY
 70
0
 62
7
  6
CONTINUOUS
370
-3
390
F
  0
LAYER
  5
21F
100
AcDbSymbolTableRecord
100
AcDbLayerTableRecord
  2
126-403_HEX_FEATURES
 70
0
 62
7
  6
CONTINUOUS
370
-3
390
F
  0
LAYER
  5
220
100
AcDbSymbolTableRecord
100
AcDbLayerTableRecord
  2
126-403_REF_GEOMETRY
 70
0
 62
7
  6
CONTINUOUS
370
-3
390
F
  0
LAYER
  5
221
100
AcDbSymbolTableRecord
100
AcDbLayerTableRecord
  2
126-404_HEX_FEATURES
 70
0
 62
7
  6
CONTINUOUS
370
-3
390
F
  0
LAYER
  5
222
100
AcDbSymbolTableRecord
100
AcDbLayerTableRecord
  2
126-404_REF_GEOMETRY
 70
0
 62
7
  6
CONTINUOUS
370
-3
390
F
  0
LAYER
  5
223
100
AcDbSymbolTableRecord
100
AcDbLayerTableRecord
  2
126-405_HEX_FEATURES
 70
0
 62
7
  6
CONTINUOUS
370
-3
390
F
  0
LAYER
  5
224
100
AcDbSymbolTableRecord
100
AcDbLayerTableRecord
  2
126-405_REF_GEOMETRY
 70
0
 62
7
  6
CONTINUOUS
370
-3
390
F
  0
LAYER
  5
225
100
AcDbSymbolTableRecord
100
AcDbLayerTableRecord
  2
126-406_HEX_FEATURES
 70
0
 62
7
  6
CONTINUOUS
370
-3
390
F
  0
LAYER
  5
226
100
AcDbSymbolTableRecord
100
AcDbLayerTableRecord
  2
126-406_REF_GEOMETRY
 70
0
 62
7
  6
CONTINUOUS
370
-3
390
F
  0
LAYER
  5
227
100
AcDbSymbolTableRecord
100
AcDbLayerTableRecord
  2
A00_SLOT
 70
0
 62
7
  6
CONTINUOUS
370
-3
390
F
  0
LAYER
  5
228
100
AcDbSymbolTableRecord
100
AcDbLayerTableRecord
  2
COPY_GEO_FET
 70
0
 62
7
  6
CONTINUOUS
370
-3
390
F
  0
LAYER
  5
229
100
AcDbSymbolTableRecord
100
AcDbLayerTableRecord
  2
COSMETIC
 70
0
 62
7
  6
CONTINUOUS
370
-3
390
F
  0
LAYER
  5
22A
100
AcDbSymbolTableRecord
100
AcDbLayerTableRecord
  2
COSM_REF
 70
0
 62
7
  6
CONTINUOUS
370
-3
390
F
  0
LAYER
  5
22B
100
AcDbSymbolTableRecord
100
AcDbLayerTableRecord
  2
CURVES
 70
0
 62
7
  6
CONTINUOUS
370
-3
390
F
  0
LAYER
  5
22C
100
AcDbSymbolTableRecord
100
AcDbLayerTableRecord
  2
CUT_REF_SURF
 70
0
 62
7
  6
CONTINUOUS
370
-3
390
F
  0
LAYER
  5
22D
100
AcDbSymbolTableRecord
100
AcDbLayerTableRecord
  2
DATUM
 70
0
 62
7
  6
CONTINUOUS
370
-3
390
F
  0
LAYER
  5
22E
100
AcDbSymbolTableRecord
100
AcDbLayerTableRecord
  2
DATUMCURVES
 70
0
 62
7
  6
CONTINUOUS
370
-3
390
F
  0
LAYER
  5
22F
100
AcDbSymbolTableRecord
100
AcDbLayerTableRecord
  2
DATUM_ADDED_280-022
 70
0
 62
7
  6
CONTINUOUS
370
-3
390
F
  0
LAYER
  5
230
100
AcDbSymbolTableRecord
100
AcDbLayerTableRecord
  2
DIMENSIONS
 70
0
 62
7
  6
CONTINUOUS
370
-3
390
F
  0
LAYER
  5
231
100
AcDbSymbolTableRecord
100
AcDbLayerTableRecord
  2
DRAWINGNOTES
 70
0
 62
7
  6
CONTINUOUS
370
-3
390
F
  0
LAYER
  5
232
100
AcDbSymbolTableRecord
100
AcDbLayerTableRecord
  2
DTM
 70
0
 62
7
  6
CONTINUOUS
370
-3
390
F
  0
LAYER
  5
233
100
AcDbSymbolTableRecord
100
AcDbLayerTableRecord
  2
DTM325
 70
0
 62
7
  6
CONTINUOUS
370
-3
390
F
  0
LAYER
  5
234
100
AcDbSymbolTableRecord
100
AcDbLayerTableRecord
  2
DTM_280-022
 70
0
 62
7
  6
CONTINUOUS
370
-3
390
F
  0
LAYER
  5
235
100
AcDbSymbolTableRecord
100
AcDbLayerTableRecord
  2
DTM_500001
 70
0
 62
7
  6
CONTINUOUS
370
-3
390
F
  0
LAYER
  5
236
100
AcDbSymbolTableRecord
100
AcDbLayerTableRecord
  2
DTM_500002
 70
0
 62
7
  6
CONTINUOUS
370
-3
390
F
  0
LAYER
  5
237
100
AcDbSymbolTableRecord
100
AcDbLayerTableRecord
  2
DTM_515002
 70
0
 62
7
  6
CONTINUOUS
370
-3
390
F
  0
LAYER
  5
238
100
AcDbSymbolTableRecord
100
AcDbLayerTableRecord
  2
DTM_700-003
 70
0
 62
7
  6
CONTINUOUS
370
-3
390
F
  0
LAYER
  5
239
100
AcDbSymbolTableRecord
100
AcDbLayerTableRecord
  2
DTM_800001
 70
0
 62
7
  6
CONTINUOUS
370
-3
390
F
  0
LAYER
  5
23A
100
AcDbSymbolTableRecord
100
AcDbLayerTableRecord
  2
DTM_BALLHOLDER
 70
0
 62
7
  6
CONTINUOUS
370
-3
390
F
  0
LAYER
  5
23B
100
AcDbSymbolTableRecord
100
AcDbLayerTableRecord
  2
DTM_ORIFICE_SEAT
 70
0
 62
7
  6
CONTINUOUS
370
-3
390
F
  0
LAYER
  5
23C
100
AcDbSymbolTableRecord
100
AcDbLayerTableRecord
  2
DTM_SPRING_LH
 70
0
 62
7
  6
CONTINUOUS
370
-3
390
F
  0
LAYER
  5
23D
100
AcDbSymbolTableRecord
100
AcDbLayerTableRecord
  2
DTM_SP_LH_CONSTR
 70
0
 62
7
  6
CONTINUOUS
370
-3
390
F
  0
LAYER
  5
23E
100
AcDbSymbolTableRecord
100
AcDbLayerTableRecord
  2
FACE1
 70
0
 62
7
  6
CONTINUOUS
370
-3
390
F
  0
LAYER
  5
23F
100
AcDbSymbolTableRecord
100
AcDbLayerTableRecord
  2
FACE2
 70
0
 62
7
  6
CONTINUOUS
370
-3
390
F
  0
LAYER
  5
240
100
AcDbSymbolTableRecord
100
AcDbLayerTableRecord
  2
FACE3
 70
0
 62
7
  6
CONTINUOUS
370
-3
390
F
  0
LAYER
  5
241
100
AcDbSymbolTableRecord
100
AcDbLayerTableRecord
  2
FACE4
 70
0
 62
7
  6
CONTINUOUS
370
-3
390
F
  0
LAYER
  5
242
100
AcDbSymbolTableRecord
100
AcDbLayerTableRecord
  2
GEOMETRICTOLERANCES
 70
0
 62
7
  6
CONTINUOUS
370
-3
390
F
  0
LAYER
  5
243
100
AcDbSymbolTableRecord
100
AcDbLayerTableRecord
  2
HOLE_FEATURES
 70
0
 62
7
  6
CONTINUOUS
370
-3
390
F
  0
LAYER
  5
244
100
AcDbSymbolTableRecord
100
AcDbLayerTableRecord
  2
LAY0001
 70
0
 62
7
  6
CONTINUOUS
370
-3
390
F
  0
LAYER
  5
245
100
AcDbSymbolTableRecord
100
AcDbLayerTableRecord
  2
NPTF_PORT_PER_S-164
 70
0
 62
7
  6
CONTINUOUS
370
-3
390
F
  0
LAYER
  5
246
100
AcDbSymbolTableRecord
100
AcDbLayerTableRecord
  2
PARAMETERDIMENSIONS
 70
0
 62
7
  6
CONTINUOUS
370
-3
390
F
  0
LAYER
  5
247
100
AcDbSymbolTableRecord
100
AcDbLayerTableRecord
  2
PLANE
 70
0
 62
7
  6
CONTINUOUS
370
-3
390
F
  0
LAYER
  5
248
100
AcDbSymbolTableRecord
100
AcDbLayerTableRecord
  2
PROTRUSIONS
 70
0
 62
7
  6
CONTINUOUS
370
-3
390
F
  0
LAYER
  5
249
100
AcDbSymbolTableRecord
100
AcDbLayerTableRecord
  2
SPEC_SAE-4_PORT
 70
0
 62
7
  6
CONTINUOUS
370
-3
390
F
  0
LAYER
  5
24A
100
AcDbSymbolTableRecord
100
AcDbLayerTableRecord
  2
STD_SAE-4_PORT
 70
0
 62
7
  6
CONTINUOUS
370
-3
390
F
  0
LAYER
  5
24B
100
AcDbSymbolTableRecord
100
AcDbLayerTableRecord
  2
TEXT
 70
0
 62
7
  6
CONTINUOUS
370
-3
390
F
  0
LAYER
  5
24C
100
AcDbSymbolTableRecord
100
AcDbLayerTableRecord
  2
THREAD
 70
0
 62
7
  6
CONTINUOUS
370
-3
390
F
  0
LAYER
  5
24D
100
AcDbSymbolTableRecord
100
AcDbLayerTableRecord
  2
WIRE_GRV-SLOT_DRW_REF
 70
0
 62
7
  6
CONTINUOUS
370
-3
390
F
  0
LAYER
  5
24E
100
AcDbSymbolTableRecord
100
AcDbLayerTableRecord
  2
XSEC_DATUMS
 70
0
 62
7
  6
CONTINUOUS
370
-3
390
F
  0
ENDTAB
  0
TABLE
  2
STYLE
  5
3
100
AcDbSymbolTable
 70
1
  0
STYLE
  5
11
100
AcDbSymbolTableRecord
100
AcDbTextStyleTableRecord
  2
STANDARD
 70
0
 40
0.0
 41
0.8
 50
0.0
 71
0
 42
0.2
  3
txt
  4

  0
ENDTAB
  0
TABLE
  2
VIEW
  5
6
100
AcDbSymbolTable
 70
0
  0
ENDTAB
  0
TABLE
  2
UCS
  5
7
100
AcDbSymbolTable
 70
0
  0
ENDTAB
  0
TABLE
  2
APPID
  5
9
100
AcDbSymbolTable
 70
1
  0
APPID
  5
24F
100
AcDbSymbolTableRecord
100
AcDbRegAppTableRecord
  2
ACAD
 70
0
  0
ENDTAB
  0
TABLE
  2
BLOCK_RECORD
  5
1
100
AcDbSymbolTable
 70
0
  0
BLOCK_RECORD
  5
1F
100
AcDbSymbolTableRecord
100
AcDbBlockTableRecord
  2
*MODEL_SPACE
  0
BLOCK_RECORD
  5
1B
100
AcDbSymbolTableRecord
100
AcDbBlockTableRecord
  2
*PAPER_SPACE
  0
ENDTAB
  0
TABLE
  2
DIMSTYLE
  5
A
100
AcDbSymbolTable
 70
1
100
AcDbDimStyleTable
 71
0
  0
DIMSTYLE
105
250
100
AcDbSymbolTableRecord
100
AcDbDimStyleTableRecord
  2
STANDARD
 70
0
  3

  4

 40
1.0
 41
0.1875
 42
0.0625
 43
0.38
 44
0.18
 45
0.0
 46
0.0
 47
0.01
 48
0.01
140
0.15625
141
0.09
142
0.0
143
25.4
144
1.0
145
0.0
146
1.0
147
0.09
 71
0.0
 72
0.0
 73
1
 74
1
 75
0
 76
0
 77
0
 78
4
170
0
171
2
172
0
173
0
174
0
175
0
176
0
177
0
178
0
270
2
271
2
272
2
273
2
274
2
275
0
280
0
281
0
282
0
283
1
284
4
285
0
286
0
287
3
288
0
340
11
  0
ENDTAB
  0
ENDSEC
  0
SECTION
  2
BLOCKS
  0
BLOCK
  5
20
100
AcDbEntity
  8
0
100
AcDbBlockBegin
  2
*MODEL_SPACE
 70
0
 10
0.0
 20
0.0
 30
0.0
  3
*MODEL_SPACE
  1

  0
ENDBLK
  5
21
100
AcDbEntity
  8
0
100
AcDbBlockEnd
  0
BLOCK
  5
1C
100
AcDbEntity
  8
0
100
AcDbBlockBegin
  2
*PAPER_SPACE
 70
0
 10
0.0
 20
0.0
 30
0.0
  3
*PAPER_SPACE
  1

  0
ENDBLK
  5
1D
100
AcDbEntity
  8
0
100
AcDbBlockEnd
  0
ENDSEC
  0
SECTION
  2
ENTITIES
  0
LINE
  5
251
100
AcDbEntity
  8
0
100
AcDbLine
 62
7
  6
CONTINUOUS
 10
3.1715704499
 20
4.270598808
 11
3.1715704499
 21
3.9646125572
  0
LINE
  5
252
100
AcDbEntity
  8
03__ASM_ALL_CURVES
100
AcDbLine
 62
40
  6
CONTINUOUS
 10
3.1715704499
 20
4.270598808
 11
3.1715704499
 21
5.1378716826
  0
LINE
  5
253
100
AcDbEntity
  8
0
100
AcDbLine
 62
7
  6
CONTINUOUS
 10
3.2025704499
 20
4.3016056826
 11
3.2025704499
 21
3.9336056826
  0
LINE
  5
254
100
AcDbEntity
  8
03__ASM_ALL_CURVES
100
AcDbLine
 62
40
  6
CONTINUOUS
 10
3.2877604499
 20
5.1185066826
 11
3.2877604499
 21
5.0797766826
  0
LINE
  5
255
100
AcDbEntity
  8
0
100
AcDbLine
 62
7
  6
CONTINUOUS
 10
3.4015704499
 20
4.3016006673
 11
3.4015704499
 21
3.9336106979
  0
LINE
  5
256
100
AcDbEntity
  8
0
100
AcDbLine
 62
7
  6
CONTINUOUS
 10
3.4030704499
 20
3.9564626896
 11
3.4030704499
 21
4.1937292514
  0
LINE
  5
257
100
AcDbEntity
  8
0
100
AcDbLine
 62
7
  6
CONTINUOUS
 10
3.4380704499
 20
3.9564626896
 11
3.4380704499
 21
4.1937292514
  0
LINE
  5
258
100
AcDbEntity
  8
0
100
AcDbLine
 62
7
  6
CONTINUOUS
 10
3.4395704499
 20
4.3016006673
 11
3.4395704499
 21
3.9336106979
  0
LINE
  5
259
100
AcDbEntity
  8
0
100
AcDbLine
 62
7
  6
CONTINUOUS
 10
3.6715704499
 20
3.8699544975
 11
3.6715704499
 21
4.3652568677
  0
LINE
  5
25A
100
AcDbEntity
  8
0
100
AcDbLine
 62
7
  6
CONTINUOUS
 10
3.7335704499
 20
3.8466056826
 11
3.7335704499
 21
4.3886056826
  0
LINE
  5
25B
100
AcDbEntity
  8
0
100
AcDbLine
 62
7
  6
CONTINUOUS
 10
3.7395704499
 20
3.8466056826
 11
3.7395704499
 21
4.3886056826
  0
LINE
  5
25C
100
AcDbEntity
  8
0
100
AcDbLine
 62
7
  6
CONTINUOUS
 10
3.7450704499
 20
3.8521056826
 11
3.7450704499
 21
4.3831056826
  0
LINE
  5
25D
100
AcDbEntity
  8
0
100
AcDbLine
 62
7
  6
CONTINUOUS
 10
3.7610704499
 20
3.8521056826
 11
3.7610704499
 21
4.3831056826
  0
LINE
  5
25E
100
AcDbEntity
  8
03__ASM_ALL_CURVES
100
AcDbLine
 62
40
  6
CONTINUOUS
 10
3.9187907624
 20
5.1620779326
 11
3.9127391999
 21
5.1378716826
  0
LINE
  5
25F
100
AcDbEntity
  8
03__ASM_ALL_CURVES
100
AcDbLine
 62
40
  6
CONTINUOUS
 10
3.9127391999
 20
5.2185591807
 11
3.9187907624
 21
5.2266279345
  0
LINE
  5
260
100
AcDbEntity
  8
03__ASM_ALL_CURVES
100
AcDbLine
 62
40
  6
CONTINUOUS
 10
3.9308938874
 20
5.1782154316
 11
3.9187907624
 21
5.1620779326
  0
LINE
  5
261
100
AcDbEntity
  8
0
100
AcDbLine
 62
7
  6
CONTINUOUS
 10
3.1715704499
 20
3.9646056826
 11
3.2025704499
 21
3.9336056826
  0
LINE
  5
262
100
AcDbEntity
  8
0
100
AcDbLine
 62
7
  6
CONTINUOUS
 10
3.9525704499
 20
3.8466056826
 11
3.9525704499
 21
4.3886056826
  0
LINE
  5
263
100
AcDbEntity
  8
03__ASM_ALL_CURVES
100
AcDbLine
 62
40
  6
CONTINUOUS
 10
3.9611516999
 20
5.2185591807
 11
3.9611516999
 21
5.2024216845
  0
LINE
  5
264
100
AcDbEntity
  8
03__ASM_ALL_CURVES
100
AcDbLine
 62
40
  6
CONTINUOUS
 10
4.1487501374
 20
5.2346966826
 11
4.1063891999
 21
5.1620779326
  0
LINE
  5
265
100
AcDbEntity
  8
03__ASM_ALL_CURVES
100
AcDbLine
 62
40
  6
CONTINUOUS
 10
3.9611516999
 20
5.2024216845
 11
3.9551001374
 21
5.1943529307
  0
LINE
  5
266
100
AcDbEntity
  8
0
100
AcDbLine
 62
7
  6
CONTINUOUS
 10
3.1715704499
 20
4.2706056826
 11
3.2025704499
 21
4.3016056826
  0
LINE
  5
267
100
AcDbEntity
  8
0
100
AcDbLine
 62
7
  6
CONTINUOUS
 10
3.9835704499
 20
3.7941056826
 11
3.9835704499
 21
4.4411056826
  0
LINE
  5
268
100
AcDbEntity
  8
03__ASM_ALL_CURVES
100
AcDbLine
 62
40
  6
CONTINUOUS
 10
4.0277188874
 20
5.1378716826
 11
4.0277188874
 21
5.1459404328
  0
LINE
  5
269
100
AcDbEntity
  8
0
100
AcDbLine
 62
7
  6
CONTINUOUS
 10
4.0335704499
 20
3.7441056826
 11
4.0335704499
 21
4.4911056826
  0
LINE
  5
26A
100
AcDbEntity
  8
0
100
AcDbLine
 62
7
  6
CONTINUOUS
 10
4.0845704499
 20
3.7441056826
 11
4.0845704499
 21
4.4911056826
  0
LINE
  5
26B
100
AcDbEntity
  8
0
100
AcDbLine
 62
7
  6
CONTINUOUS
 10
4.0895704499
 20
3.7491056826
 11
4.0895704499
 21
4.4861056826
  0
LINE
  5
26C
100
AcDbEntity
  8
0
100
AcDbLine
 62
7
  6
CONTINUOUS
 10
4.0975704499
 20
3.7676056826
 11
4.0975704499
 21
4.4676056826
  0
LINE
  5
26D
100
AcDbEntity
  8
0
100
AcDbLine
 62
7
  6
CONTINUOUS
 10
4.1195704499
 20
3.7676056826
 11
4.1195704499
 21
4.4676056826
  0
LINE
  5
26E
100
AcDbEntity
  8
0
100
AcDbLine
 62
7
  6
CONTINUOUS
 10
4.1275704499
 20
3.7491056826
 11
4.1275704499
 21
4.4861056826
  0
LINE
  5
26F
100
AcDbEntity
  8
0
100
AcDbLine
 62
7
  6
CONTINUOUS
 10
4.1325704499
 20
3.7441056826
 11
4.1325704499
 21
4.4911056826
  0
LINE
  5
270
100
AcDbEntity
  8
03__ASM_ALL_CURVES
100
AcDbLine
 62
40
  6
CONTINUOUS
 10
4.1487501374
 20
5.1378716826
 11
4.1487501374
 21
5.2346966826
  0
LINE
  5
271
100
AcDbEntity
  8
03__ASM_ALL_CURVES
100
AcDbLine
 62
40
  6
CONTINUOUS
 10
4.3181938874
 20
5.2185591807
 11
4.3121423249
 21
5.1943529307
  0
LINE
  5
272
100
AcDbEntity
  8
03__ASM_ALL_CURVES
100
AcDbLine
 62
40
  6
CONTINUOUS
 10
4.2032141999
 20
5.2024216845
 11
4.2092657624
 21
5.2185591807
  0
LINE
  5
273
100
AcDbEntity
  8
03__ASM_ALL_CURVES
100
AcDbLine
 62
40
  6
CONTINUOUS
 10
4.2516266999
 20
5.2024216845
 11
4.2455751374
 21
5.1862841826
  0
LINE
  5
274
100
AcDbEntity
  8
03__ASM_ALL_CURVES
100
AcDbLine
 62
40
  6
CONTINUOUS
 10
4.2516266999
 20
5.1701466836
 11
4.2455751374
 21
5.1540091831
  0
LINE
  5
275
100
AcDbEntity
  8
03__ASM_ALL_CURVES
100
AcDbLine
 62
40
  6
CONTINUOUS
 10
4.2092657624
 20
5.2185591807
 11
4.2153173249
 21
5.2266279345
  0
LINE
  5
276
100
AcDbEntity
  8
03__ASM_ALL_CURVES
100
AcDbLine
 62
40
  6
CONTINUOUS
 10
4.2455751374
 20
5.1540091831
 11
4.2395235749
 21
5.1459404328
  0
LINE
  5
277
100
AcDbEntity
  8
03__ASM_ALL_CURVES
100
AcDbLine
 62
40
  6
CONTINUOUS
 10
4.3302970124
 20
5.2346966826
 11
4.3181938874
 21
5.2185591807
  0
LINE
  5
278
100
AcDbEntity
  8
03__ASM_ALL_CURVES
100
AcDbLine
 62
40
  6
CONTINUOUS
 10
4.4029157624
 20
5.2185591807
 11
4.4089673249
 21
5.2266279345
  0
LINE
  5
279
100
AcDbEntity
  8
03__ASM_ALL_CURVES
100
AcDbLine
 62
40
  6
CONTINUOUS
 10
3.9187907624
 20
5.2266279345
 11
3.9308938874
 21
5.2346966826
  0
LINE
  5
27A
100
AcDbEntity
  8
03__ASM_ALL_CURVES
100
AcDbLine
 62
40
  6
CONTINUOUS
 10
3.9551001374
 20
5.1943529307
 11
3.9308938874
 21
5.1782154316
  0
LINE
  5
27B
100
AcDbEntity
  8
03__ASM_ALL_CURVES
100
AcDbLine
 62
40
  6
CONTINUOUS
 10
4.2153173249
 20
5.2266279345
 11
4.2274204499
 21
5.2346966826
  0
LINE
  5
27C
100
AcDbEntity
  8
0
100
AcDbLine
 62
7
  6
CONTINUOUS
 10
3.7765712355
 20
3.836604897
 11
3.7610704499
 21
3.8521056826
  0
LINE
  5
27D
100
AcDbEntity
  8
03__ASM_ALL_CURVES
100
AcDbLine
 62
40
  6
CONTINUOUS
 10
4.2516266999
 20
5.2024216845
 11
4.2516266999
 21
5.1701466836
  0
LINE
  5
27E
100
AcDbEntity
  8
03__ASM_ALL_CURVES
100
AcDbLine
 62
40
  6
CONTINUOUS
 10
4.3121423249
 20
5.1943529307
 11
4.3121423249
 21
5.1782154316
  0
LINE
  5
27F
100
AcDbEntity
  8
03__ASM_ALL_CURVES
100
AcDbLine
 62
40
  6
CONTINUOUS
 10
4.3968641999
 20
5.2024216845
 11
4.4029157624
 21
5.2185591807
  0
LINE
  5
280
100
AcDbEntity
  8
03__ASM_ALL_CURVES
100
AcDbLine
 62
40
  6
CONTINUOUS
 10
4.3968641999
 20
5.1701466836
 11
4.4029157624
 21
5.1862841826
  0
LINE
  5
281
100
AcDbEntity
  8
03__ASM_ALL_CURVES
100
AcDbLine
 62
40
  6
CONTINUOUS
 10
4.4452766999
 20
5.1701466836
 11
4.4392251374
 21
5.1540091831
  0
LINE
  5
282
100
AcDbEntity
  8
03__ASM_ALL_CURVES
100
AcDbLine
 62
40
  6
CONTINUOUS
 10
4.4392251374
 20
5.1540091831
 11
4.4331735749
 21
5.1459404328
  0
LINE
  5
283
100
AcDbEntity
  8
03__ASM_ALL_CURVES
100
AcDbLine
 62
40
  6
CONTINUOUS
 10
4.5421016999
 20
5.2104904326
 11
4.5360501374
 21
5.2024216845
  0
LINE
  5
284
100
AcDbEntity
  8
03__ASM_ALL_CURVES
100
AcDbLine
 62
40
  6
CONTINUOUS
 10
4.5481532624
 20
5.1620779326
 11
4.5360501374
 21
5.1459404328
  0
LINE
  5
285
100
AcDbEntity
  8
0
100
AcDbLine
 62
7
  6
CONTINUOUS
 10
3.7765712355
 20
4.3986064682
 11
3.7610704499
 21
4.3831056826
  0
LINE
  5
286
100
AcDbEntity
  8
03__ASM_ALL_CURVES
100
AcDbLine
 62
40
  6
CONTINUOUS
 10
4.2395235749
 20
5.1459404328
 11
4.2274204499
 21
5.1378716826
  0
LINE
  5
287
100
AcDbEntity
  8
03__ASM_ALL_CURVES
100
AcDbLine
 62
40
  6
CONTINUOUS
 10
4.4089673249
 20
5.2266279345
 11
4.4210704499
 21
5.2346966826
  0
LINE
  5
288
100
AcDbEntity
  8
03__ASM_ALL_CURVES
100
AcDbLine
 62
40
  6
CONTINUOUS
 10
4.4997407624
 20
5.2266279345
 11
4.5118438874
 21
5.2346966826
  0
LINE
  5
289
100
AcDbEntity
  8
03__ASM_ALL_CURVES
100
AcDbLine
 62
40
  6
CONTINUOUS
 10
4.4331735749
 20
5.1459404328
 11
4.4210704499
 21
5.1378716826
  0
LINE
  5
28A
100
AcDbEntity
  8
0
100
AcDbLine
 62
7
  6
CONTINUOUS
 10
4.0335704499
 20
3.7441056826
 11
3.9835704499
 21
3.7941056826
  0
LINE
  5
28B
100
AcDbEntity
  8
0
100
AcDbLine
 62
7
  6
CONTINUOUS
 10
3.9525704499
 20
4.3886056826
 11
3.9464756778
 21
4.3991621376
  0
LINE
  5
28C
100
AcDbEntity
  8
03__ASM_ALL_CURVES
100
AcDbLine
 62
40
  6
CONTINUOUS
 10
4.3968641999
 20
5.1701466836
 11
4.3968641999
 21
5.2024216845
  0
LINE
  5
28D
100
AcDbEntity
  8
0
100
AcDbLine
 62
7
  6
CONTINUOUS
 10
4.4835704499
 20
3.6876056826
 11
4.4835704499
 21
4.5476056826
  0
LINE
  5
28E
100
AcDbEntity
  8
0
100
AcDbLine
 62
7
  6
CONTINUOUS
 10
4.5176341158
 20
3.6286056826
 11
4.5176341158
 21
3.6295032101
  0
LINE
  5
28F
100
AcDbEntity
  8
0
100
AcDbLine
 62
7
  6
CONTINUOUS
 10
4.5176341158
 20
3.8479081551
 11
4.5176341158
 21
3.8992007376
  0
LINE
  5
290
100
AcDbEntity
  8
0
100
AcDbLine
 62
7
  6
CONTINUOUS
 10
4.5176341158
 20
4.3360106276
 11
4.5176341158
 21
4.3873032101
  0
LINE
  5
291
100
AcDbEntity
  8
0
100
AcDbLine
 62
7
  6
CONTINUOUS
 10
4.5176341158
 20
4.6057081551
 11
4.5176341158
 21
4.6066056826
  0
LINE
  5
292
100
AcDbEntity
  8
03__ASM_ALL_CURVES
100
AcDbLine
 62
40
  6
CONTINUOUS
 10
4.6933907624
 20
5.1620779326
 11
4.6873391999
 21
5.1378716826
  0
LINE
  5
293
100
AcDbEntity
  8
0
100
AcDbLine
 62
7
  6
CONTINUOUS
 10
3.9525704499
 20
3.8466056826
 11
3.9464756778
 21
3.8360492276
  0
LINE
  5
294
100
AcDbEntity
  8
03__ASM_ALL_CURVES
100
AcDbLine
 62
40
  6
CONTINUOUS
 10
4.8265251374
 20
5.2346966826
 11
4.7841641999
 21
5.1620779326
  0
LINE
  5
295
100
AcDbEntity
  8
03__ASM_ALL_CURVES
100
AcDbLine
 62
40
  6
CONTINUOUS
 10
4.6873391999
 20
5.2185591807
 11
4.6933907624
 21
5.2266279345
  0
LINE
  5
296
100
AcDbEntity
  8
03__ASM_ALL_CURVES
100
AcDbLine
 62
40
  6
CONTINUOUS
 10
4.7054938874
 20
5.1782154316
 11
4.6933907624
 21
5.1620779326
  0
LINE
  5
297
100
AcDbEntity
  8
03__ASM_ALL_CURVES
100
AcDbLine
 62
40
  6
CONTINUOUS
 10
4.7357516999
 20
5.2024216845
 11
4.7297001374
 21
5.1943529307
  0
LINE
  5
298
100
AcDbEntity
  8
0
100
AcDbLine
 62
7
  6
CONTINUOUS
 10
4.0335704499
 20
4.4911056826
 11
3.9835704499
 21
4.4411056826
  0
LINE
  5
299
100
AcDbEntity
  8
03__ASM_ALL_CURVES
100
AcDbLine
 62
40
  6
CONTINUOUS
 10
4.5360501374
 20
5.2024216845
 11
4.5239470124
 21
5.1943529307
  0
LINE
  5
29A
100
AcDbEntity
  8
03__ASM_ALL_CURVES
100
AcDbLine
 62
40
  6
CONTINUOUS
 10
4.5360501374
 20
5.1459404328
 11
4.5239470124
 21
5.1378716826
  0
LINE
  5
29B
100
AcDbEntity
  8
03__ASM_ALL_CURVES
100
AcDbLine
 62
40
  6
CONTINUOUS
 10
4.6933907624
 20
5.2266279345
 11
4.7054938874
 21
5.2346966826
  0
LINE
  5
29C
100
AcDbEntity
  8
03__ASM_ALL_CURVES
100
AcDbLine
 62
40
  6
CONTINUOUS
 10
4.7297001374
 20
5.1943529307
 11
4.7054938874
 21
5.1782154316
  0
LINE
  5
29D
100
AcDbEntity
  8
03__ASM_ALL_CURVES
100
AcDbLine
 62
40
  6
CONTINUOUS
 10
4.2455751374
 20
5.1862841826
 11
4.2274204499
 21
5.1782154316
  0
LINE
  5
29E
100
AcDbEntity
  8
03__ASM_ALL_CURVES
100
AcDbLine
 62
40
  6
CONTINUOUS
 10
4.4029157624
 20
5.1862841826
 11
4.4210704499
 21
5.1943529307
  0
LINE
  5
29F
100
AcDbEntity
  8
0
100
AcDbLine
 62
7
  6
CONTINUOUS
 10
3.7450704499
 20
4.3831056826
 11
3.7395704499
 21
4.3886056826
  0
LINE
  5
2A0
100
AcDbEntity
  8
0
100
AcDbLine
 62
7
  6
CONTINUOUS
 10
4.5176341158
 20
3.6286056826
 11
4.4835704499
 21
3.6876056826
  0
LINE
  5
2A1
100
AcDbEntity
  8
03__ASM_ALL_CURVES
100
AcDbLine
 62
40
  6
CONTINUOUS
 10
4.5421016999
 20
5.2185591807
 11
4.5421016999
 21
5.2104904326
  0
LINE
  5
2A2
100
AcDbEntity
  8
03__ASM_ALL_CURVES
100
AcDbLine
 62
40
  6
CONTINUOUS
 10
4.5481532624
 20
5.1701466836
 11
4.5481532624
 21
5.1620779326
  0
LINE
  5
2A3
100
AcDbEntity
  8
03__ASM_ALL_CURVES
100
AcDbLine
 62
40
  6
CONTINUOUS
 10
4.6086688874
 20
5.1378716826
 11
4.6086688874
 21
5.1459404328
  0
LINE
  5
2A4
100
AcDbEntity
  8
0
100
AcDbLine
 62
7
  6
CONTINUOUS
 10
4.517245475
 20
4.605932537
 11
4.4835704499
 21
4.5476056826
  0
LINE
  5
2A5
100
AcDbEntity
  8
03__ASM_ALL_CURVES
100
AcDbLine
 62
40
  6
CONTINUOUS
 10
4.9112470124
 20
5.1540091831
 11
4.8991438874
 21
5.1378716826
  0
LINE
  5
2A6
100
AcDbEntity
  8
0
100
AcDbLine
 62
7
  6
CONTINUOUS
 10
3.7450704499
 20
3.8521056826
 11
3.7395704499
 21
3.8466056826
  0
LINE
  5
2A7
100
AcDbEntity
  8
03__ASM_ALL_CURVES
100
AcDbLine
 62
40
  6
CONTINUOUS
 10
4.2092657624
 20
5.1862841826
 11
4.2032141999
 21
5.2024216845
  0
LINE
  5
2A8
100
AcDbEntity
  8
03__ASM_ALL_CURVES
100
AcDbLine
 62
40
  6
CONTINUOUS
 10
4.2455751374
 20
5.2185591807
 11
4.2516266999
 21
5.2024216845
  0
LINE
  5
2A9
100
AcDbEntity
  8
03__ASM_ALL_CURVES
100
AcDbLine
 62
40
  6
CONTINUOUS
 10
4.3121423249
 20
5.1782154316
 11
4.3181938874
 21
5.1540091831
  0
LINE
  5
2AA
100
AcDbEntity
  8
03__ASM_ALL_CURVES
100
AcDbLine
 62
40
  6
CONTINUOUS
 10
4.7357516999
 20
5.2185591807
 11
4.7357516999
 21
5.2024216845
  0
LINE
  5
2AB
100
AcDbEntity
  8
03__ASM_ALL_CURVES
100
AcDbLine
 62
40
  6
CONTINUOUS
 10
4.8265251374
 20
5.1378716826
 11
4.8265251374
 21
5.2346966826
  0
LINE
  5
2AC
100
AcDbEntity
  8
0
100
AcDbLine
 62
7
  6
CONTINUOUS
 10
4.8910704499
 20
3.6286056826
 11
4.8910704499
 21
3.6295032101
  0
LINE
  5
2AD
100
AcDbEntity
  8
0
100
AcDbLine
 62
7
  6
CONTINUOUS
 10
4.8910704499
 20
3.8479081551
 11
4.8910704499
 21
3.8992007376
  0
LINE
  5
2AE
100
AcDbEntity
  8
0
100
AcDbLine
 62
7
  6
CONTINUOUS
 10
4.8910704499
 20
4.3360106276
 11
4.8910704499
 21
4.3873032101
  0
LINE
  5
2AF
100
AcDbEntity
  8
0
100
AcDbLine
 62
7
  6
CONTINUOUS
 10
4.8910704499
 20
4.6057081551
 11
4.8910704499
 21
4.6066056826
  0
LINE
  5
2B0
100
AcDbEntity
  8
03__ASM_ALL_CURVES
100
AcDbLine
 62
40
  6
CONTINUOUS
 10
4.9172985749
 20
5.1782154316
 11
4.9112470124
 21
5.1540091831
  0
LINE
  5
2B1
100
AcDbEntity
  8
03__ASM_ALL_CURVES
100
AcDbLine
 62
40
  6
CONTINUOUS
 10
6.6999972126
 20
3.3396381826
 11
6.6636878376
 21
3.3396381826
  0
LINE
  5
2B2
100
AcDbEntity
  8
03__ASM_ALL_CURVES
100
AcDbLine
 62
40
  6
CONTINUOUS
 10
5.2553329543
 20
3.3396381826
 11
5.2371782668
 21
3.3396381826
  0
LINE
  5
2B3
100
AcDbEntity
  8
03__ASM_ALL_CURVES
100
AcDbLine
 62
40
  6
CONTINUOUS
 10
6.5910690876
 20
3.3396381826
 11
6.6273784626
 21
3.3396381826
  0
LINE
  5
2B4
100
AcDbEntity
  8
03__ASM_ALL_CURVES
100
AcDbLine
 62
40
  6
CONTINUOUS
 10
5.3869544387
 20
3.3638444333
 11
5.4141864699
 21
3.3638444333
  0
LINE
  5
2B5
100
AcDbEntity
  8
03__ASM_ALL_CURVES
100
AcDbLine
 62
40
  6
CONTINUOUS
 10
5.3324903762
 20
3.3759475576
 11
5.3097970168
 21
3.3759475576
  0
LINE
  5
2B6
100
AcDbEntity
  8
03__ASM_ALL_CURVES
100
AcDbLine
 62
40
  6
CONTINUOUS
 10
6.6636878376
 20
3.3759475576
 11
6.686381197
 21
3.3759475576
  0
LINE
  5
2B7
100
AcDbEntity
  8
03__ASM_ALL_CURVES
100
AcDbLine
 62
40
  6
CONTINUOUS
 10
5.2553329543
 20
3.4122569326
 11
5.264410298
 21
3.4062053715
  0
LINE
  5
2B8
100
AcDbEntity
  8
03__ASM_ALL_CURVES
100
AcDbLine
 62
40
  6
CONTINUOUS
 10
5.3324903762
 20
3.4122569326
 11
5.3415677199
 21
3.4062053715
  0
LINE
  5
2B9
100
AcDbEntity
  8
03__ASM_ALL_CURVES
100
AcDbLine
 62
40
  6
CONTINUOUS
 10
5.3211436973
 20
3.4509869326
 11
5.3120663536
 21
3.4570384953
  0
LINE
  5
2BA
100
AcDbEntity
  8
03__ASM_ALL_CURVES
100
AcDbLine
 62
40
  6
CONTINUOUS
 10
5.2576022911
 20
3.5236056826
 11
5.2666796348
 21
3.5175541215
  0
LINE
  5
2BB
100
AcDbEntity
  8
0
100
AcDbLine
 62
7
  6
CONTINUOUS
 10
5.0235704499
 20
3.6891056826
 11
5.0150484119
 21
3.6984531351
  0
LINE
  5
2BC
100
AcDbEntity
  8
03__ASM_ALL_CURVES
100
AcDbLine
 62
40
  6
CONTINUOUS
 10
5.264410298
 20
3.4062053715
 11
5.2734876418
 21
3.3941022451
  0
LINE
  5
2BD
100
AcDbEntity
  8
03__ASM_ALL_CURVES
100
AcDbLine
 62
40
  6
CONTINUOUS
 10
3.9551001374
 20
5.2266279345
 11
3.9611516999
 21
5.2185591807
  0
LINE
  5
2BE
100
AcDbEntity
  8
03__ASM_ALL_CURVES
100
AcDbLine
 62
40
  6
CONTINUOUS
 10
4.4029157624
 20
5.1540091831
 11
4.3968641999
 21
5.1701466836
  0
LINE
  5
2BF
100
AcDbEntity
  8
03__ASM_ALL_CURVES
100
AcDbLine
 62
40
  6
CONTINUOUS
 10
4.4392251374
 20
5.1862841826
 11
4.4452766999
 21
5.1701466836
  0
LINE
  5
2C0
100
AcDbEntity
  8
03__ASM_ALL_CURVES
100
AcDbLine
 62
40
  6
CONTINUOUS
 10
4.9172985749
 20
5.1943529307
 11
4.9172985749
 21
5.1782154316
  0
LINE
  5
2C1
100
AcDbEntity
  8
0
100
AcDbLine
 62
7
  6
CONTINUOUS
 10
4.9515704499
 20
3.6891056826
 11
4.9515704499
 21
4.5461056826
  0
LINE
  5
2C2
100
AcDbEntity
  8
0
100
AcDbLine
 62
7
  6
CONTINUOUS
 10
5.0035704499
 20
3.6891056826
 11
5.0035704499
 21
4.5461056826
  0
LINE
  5
2C3
100
AcDbEntity
  8
0
100
AcDbLine
 62
7
  6
CONTINUOUS
 10
5.0120924879
 20
3.6984531351
 11
5.0120924879
 21
4.5367582301
  0
LINE
  5
2C4
100
AcDbEntity
  8
0
100
AcDbLine
 62
7
  6
CONTINUOUS
 10
5.0150484119
 20
3.6984531351
 11
5.0150484119
 21
4.5367582301
  0
LINE
  5
2C5
100
AcDbEntity
  8
0
100
AcDbLine
 62
7
  6
CONTINUOUS
 10
5.0235704499
 20
3.6891056826
 11
5.0235704499
 21
4.5461056826
  0
LINE
  5
2C6
100
AcDbEntity
  8
0
100
AcDbLine
 62
7
  6
CONTINUOUS
 10
5.0765704499
 20
3.6891056826
 11
5.0765704499
 21
4.5461056826
  0
LINE
  5
2C7
100
AcDbEntity
  8
0
100
AcDbLine
 62
7
  6
CONTINUOUS
 10
5.0235704499
 20
4.5461056826
 11
5.0150484119
 21
4.5367582301
  0
LINE
  5
2C8
100
AcDbEntity
  8
03__ASM_ALL_CURVES
100
AcDbLine
 62
40
  6
CONTINUOUS
 10
5.2371782668
 20
3.4122569326
 11
5.2553329543
 21
3.4122569326
  0
LINE
  5
2C9
100
AcDbEntity
  8
03__ASM_ALL_CURVES
100
AcDbLine
 62
40
  6
CONTINUOUS
 10
5.3097970168
 20
3.4122569326
 11
5.3324903762
 21
3.4122569326
  0
LINE
  5
2CA
100
AcDbEntity
  8
03__ASM_ALL_CURVES
100
AcDbLine
 62
40
  6
CONTINUOUS
 10
6.6636878376
 20
3.4122569326
 11
6.6999972126
 21
3.4122569326
  0
LINE
  5
2CB
100
AcDbEntity
  8
03__ASM_ALL_CURVES
100
AcDbLine
 62
40
  6
CONTINUOUS
 10
6.7317679157
 20
3.4122569326
 11
6.7771546345
 21
3.4122569326
  0
LINE
  5
2CC
100
AcDbEntity
  8
03__ASM_ALL_CURVES
100
AcDbLine
 62
40
  6
CONTINUOUS
 10
6.5524903724
 20
3.4509869326
 11
6.5434130287
 21
3.4509869326
  0
LINE
  5
2CD
100
AcDbEntity
  8
03__ASM_ALL_CURVES
100
AcDbLine
 62
40
  6
CONTINUOUS
 10
5.5480772911
 20
3.4509869326
 11
5.5389999473
 21
3.4509869326
  0
LINE
  5
2CE
100
AcDbEntity
  8
03__ASM_ALL_CURVES
100
AcDbLine
 62
40
  6
CONTINUOUS
 10
5.3302210411
 20
3.4509869326
 11
5.3211436973
 21
3.4509869326
  0
LINE
  5
2CF
100
AcDbEntity
  8
03__ASM_ALL_CURVES
100
AcDbLine
 62
40
  6
CONTINUOUS
 10
6.7476532631
 20
3.4509869326
 11
6.7839626381
 21
3.4509869326
  0
LINE
  5
2D0
100
AcDbEntity
  8
03__ASM_ALL_CURVES
100
AcDbLine
 62
40
  6
CONTINUOUS
 10
6.6251091224
 20
3.4872963076
 11
6.6024157631
 21
3.4872963076
  0
LINE
  5
2D1
100
AcDbEntity
  8
03__ASM_ALL_CURVES
100
AcDbLine
 62
40
  6
CONTINUOUS
 10
6.4798716224
 20
3.4872963076
 11
6.4571782631
 21
3.4872963076
  0
LINE
  5
2D2
100
AcDbEntity
  8
03__ASM_ALL_CURVES
100
AcDbLine
 62
40
  6
CONTINUOUS
 10
5.4028397911
 20
3.4872963076
 11
5.3801464317
 21
3.4872963076
  0
LINE
  5
2D3
100
AcDbEntity
  8
03__ASM_ALL_CURVES
100
AcDbLine
 62
40
  6
CONTINUOUS
 10
5.2576022911
 20
3.4872963076
 11
5.2349089317
 21
3.4872963076
  0
LINE
  5
2D4
100
AcDbEntity
  8
03__ASM_ALL_CURVES
100
AcDbLine
 62
40
  6
CONTINUOUS
 10
5.5389999473
 20
3.4933478687
 11
5.5480772911
 21
3.4933478687
  0
LINE
  5
2D5
100
AcDbEntity
  8
03__ASM_ALL_CURVES
100
AcDbLine
 62
40
  6
CONTINUOUS
 10
5.2349089317
 20
3.5236056826
 11
5.2576022911
 21
3.5236056826
  0
LINE
  5
2D6
100
AcDbEntity
  8
03__ASM_ALL_CURVES
100
AcDbLine
 62
40
  6
CONTINUOUS
 10
5.3211436973
 20
3.5236056826
 11
5.3302210411
 21
3.5236056826
  0
LINE
  5
2D7
100
AcDbEntity
  8
03__ASM_ALL_CURVES
100
AcDbLine
 62
40
  6
CONTINUOUS
 10
5.3801464317
 20
3.5236056826
 11
5.4028397911
 21
3.5236056826
  0
LINE
  5
2D8
100
AcDbEntity
  8
03__ASM_ALL_CURVES
100
AcDbLine
 62
40
  6
CONTINUOUS
 10
5.4482265098
 20
3.5236056826
 11
5.4936132286
 21
3.5236056826
  0
LINE
  5
2D9
100
AcDbEntity
  8
03__ASM_ALL_CURVES
100
AcDbLine
 62
40
  6
CONTINUOUS
 10
5.5389999473
 20
3.5236056826
 11
5.5480772911
 21
3.5236056826
  0
LINE
  5
2DA
100
AcDbEntity
  8
03__ASM_ALL_CURVES
100
AcDbLine
 62
40
  6
CONTINUOUS
 10
6.4571782631
 20
3.5236056826
 11
6.4798716224
 21
3.5236056826
  0
LINE
  5
2DB
100
AcDbEntity
  8
03__ASM_ALL_CURVES
100
AcDbLine
 62
40
  6
CONTINUOUS
 10
6.5434130287
 20
3.5236056826
 11
6.5524903724
 21
3.5236056826
  0
LINE
  5
2DC
100
AcDbEntity
  8
03__ASM_ALL_CURVES
100
AcDbLine
 62
40
  6
CONTINUOUS
 10
6.6024157631
 20
3.5236056826
 11
6.6251091224
 21
3.5236056826
  0
LINE
  5
2DD
100
AcDbEntity
  8
03__ASM_ALL_CURVES
100
AcDbLine
 62
40
  6
CONTINUOUS
 10
6.6704958412
 20
3.5236056826
 11
6.7158825599
 21
3.5236056826
  0
LINE
  5
2DE
100
AcDbEntity
  8
03__ASM_ALL_CURVES
100
AcDbLine
 62
40
  6
CONTINUOUS
 10
6.7612692787
 20
3.5236056826
 11
6.7703466224
 21
3.5236056826
  0
LINE
  5
2DF
100
AcDbEntity
  8
03__ASM_ALL_CURVES
100
AcDbLine
 62
40
  6
CONTINUOUS
 10
5.3302210411
 20
3.5236056826
 11
5.3392983848
 21
3.5175541215
  0
LINE
  5
2E0
100
AcDbEntity
  8
03__ASM_ALL_CURVES
100
AcDbLine
 62
40
  6
CONTINUOUS
 10
5.4028397911
 20
3.5236056826
 11
5.4119171348
 21
3.5175541215
  0
LINE
  5
2E1
100
AcDbEntity
  8
03__ASM_ALL_CURVES
100
AcDbLine
 62
40
  6
CONTINUOUS
 10
5.5389999473
 20
3.4509869326
 11
5.5299226036
 21
3.4570384953
  0
LINE
  5
2E2
100
AcDbEntity
  8
03__ASM_ALL_CURVES
100
AcDbLine
 62
40
  6
CONTINUOUS
 10
5.5480772911
 20
3.4933478687
 11
5.5571546348
 21
3.4872963076
  0
LINE
  5
2E3
100
AcDbEntity
  8
03__ASM_ALL_CURVES
100
AcDbLine
 62
40
  6
CONTINUOUS
 10
5.5480772911
 20
3.5236056826
 11
5.5571546348
 21
3.5175541215
  0
LINE
  5
2E4
100
AcDbEntity
  8
03__ASM_ALL_CURVES
100
AcDbLine
 62
40
  6
CONTINUOUS
 10
4.0277188874
 20
5.1459404328
 11
4.0337704499
 21
5.1378716826
  0
LINE
  5
2E5
100
AcDbEntity
  8
03__ASM_ALL_CURVES
100
AcDbLine
 62
40
  6
CONTINUOUS
 10
5.3415677199
 20
3.4062053715
 11
5.3461063918
 21
3.4001538062
  0
LINE
  5
2E6
100
AcDbEntity
  8
03__ASM_ALL_CURVES
100
AcDbLine
 62
40
  6
CONTINUOUS
 10
5.2666796348
 20
3.5175541215
 11
5.2712183067
 21
3.5115025562
  0
LINE
  5
2E7
100
AcDbEntity
  8
03__ASM_ALL_CURVES
100
AcDbLine
 62
40
  6
CONTINUOUS
 10
5.3120663536
 20
3.4570384953
 11
5.3029890098
 21
3.4691416201
  0
LINE
  5
2E8
100
AcDbEntity
  8
03__ASM_ALL_CURVES
100
AcDbLine
 62
40
  6
CONTINUOUS
 10
5.3392983848
 20
3.5175541215
 11
5.3483757286
 21
3.5054509951
  0
LINE
  5
2E9
100
AcDbEntity
  8
03__ASM_ALL_CURVES
100
AcDbLine
 62
40
  6
CONTINUOUS
 10
5.4119171348
 20
3.5175541215
 11
5.4164558067
 21
3.5115025562
  0
LINE
  5
2EA
100
AcDbEntity
  8
03__ASM_ALL_CURVES
100
AcDbLine
 62
40
  6
CONTINUOUS
 10
4.2153173249
 20
5.1459404328
 11
4.2092657624
 21
5.1540091831
  0
LINE
  5
2EB
100
AcDbEntity
  8
03__ASM_ALL_CURVES
100
AcDbLine
 62
40
  6
CONTINUOUS
 10
5.3324903762
 20
3.3759475576
 11
5.3461063918
 21
3.3396381826
  0
LINE
  5
2EC
100
AcDbEntity
  8
03__ASM_ALL_CURVES
100
AcDbLine
 62
40
  6
CONTINUOUS
 10
5.2734876418
 20
3.3941022451
 11
5.2780263137
 21
3.3759475576
  0
LINE
  5
2ED
100
AcDbEntity
  8
0
100
AcDbLine
 62
7
  6
CONTINUOUS
 10
5.1265704499
 20
3.6896063333
 11
5.1265704499
 21
4.5456050319
  0
LINE
  5
2EE
100
AcDbEntity
  8
0
100
AcDbLine
 62
7
  6
CONTINUOUS
 10
5.1965704499
 20
4.5266056826
 11
5.1965704499
 21
3.7086056826
  0
LINE
  5
2EF
100
AcDbEntity
  8
0
100
AcDbLine
 62
7
  6
CONTINUOUS
 10
5.2045704499
 20
3.7436056826
 11
5.2045704499
 21
4.4916056826
  0
LINE
  5
2F0
100
AcDbEntity
  8
0
100
AcDbLine
 62
7
  6
CONTINUOUS
 10
5.2175704499
 20
3.6891056826
 11
5.2175704499
 21
4.5461056826
  0
LINE
  5
2F1
100
AcDbEntity
  8
03__ASM_ALL_CURVES
100
AcDbLine
 62
40
  6
CONTINUOUS
 10
5.2349089317
 20
3.4509869326
 11
5.2349089317
 21
3.5236056826
  0
LINE
  5
2F2
100
AcDbEntity
  8
03__ASM_ALL_CURVES
100
AcDbLine
 62
40
  6
CONTINUOUS
 10
5.2371782668
 20
3.3396381826
 11
5.2371782668
 21
3.4122569326
  0
LINE
  5
2F3
100
AcDbEntity
  8
0
100
AcDbLine
 62
7
  6
CONTINUOUS
 10
5.2670704499
 20
3.6891056826
 11
5.2670704499
 21
4.5461056826
  0
LINE
  5
2F4
100
AcDbEntity
  8
03__ASM_ALL_CURVES
100
AcDbLine
 62
40
  6
CONTINUOUS
 10
5.9283670115
 20
5.2266279345
 11
5.9404701365
 21
5.2346966826
  0
LINE
  5
2F5
100
AcDbEntity
  8
03__ASM_ALL_CURVES
100
AcDbLine
 62
40
  6
CONTINUOUS
 10
6.0251920115
 20
5.2266279345
 11
6.0372951365
 21
5.2346966826
  0
LINE
  5
2F6
100
AcDbEntity
  8
03__ASM_ALL_CURVES
100
AcDbLine
 62
40
  6
CONTINUOUS
 10
5.9646763865
 20
5.1459404328
 11
5.9525732615
 21
5.1378716826
  0
LINE
  5
2F7
100
AcDbEntity
  8
03__ASM_ALL_CURVES
100
AcDbLine
 62
40
  6
CONTINUOUS
 10
6.0615013865
 20
5.1459404328
 11
6.0493982615
 21
5.1378716826
  0
LINE
  5
2F8
100
AcDbEntity
  8
0
100
AcDbLine
 62
7
  6
CONTINUOUS
 10
4.8910704499
 20
3.6286056826
 11
4.5176341158
 21
3.6286056826
  0
LINE
  5
2F9
100
AcDbEntity
  8
0
100
AcDbLine
 62
7
  6
CONTINUOUS
 10
4.8910704499
 20
3.6295032101
 11
4.5176341158
 21
3.6295032101
  0
LINE
  5
2FA
100
AcDbEntity
  8
0
100
AcDbLine
 62
7
  6
CONTINUOUS
 10
5.2670704499
 20
3.6891056826
 11
5.2175704499
 21
3.6891056826
  0
LINE
  5
2FB
100
AcDbEntity
  8
0
100
AcDbLine
 62
7
  6
CONTINUOUS
 10
5.0765704499
 20
3.6891056826
 11
5.0235704499
 21
3.6891056826
  0
LINE
  5
2FC
100
AcDbEntity
  8
0
100
AcDbLine
 62
7
  6
CONTINUOUS
 10
5.0035704499
 20
3.6891056826
 11
4.9515704499
 21
3.6891056826
  0
LINE
  5
2FD
100
AcDbEntity
  8
0
100
AcDbLine
 62
7
  6
CONTINUOUS
 10
5.0765704499
 20
3.6896056826
 11
5.1265704499
 21
3.6896056826
  0
LINE
  5
2FE
100
AcDbEntity
  8
0
100
AcDbLine
 62
7
  6
CONTINUOUS
 10
5.6675704499
 20
3.6901056826
 11
5.6155704499
 21
3.6901056826
  0
LINE
  5
2FF
100
AcDbEntity
  8
THREAD
100
AcDbLine
 62
7
  6
CONTINUOUS
 10
5.7175704499
 20
3.7126056826
 11
5.6952928818
 21
3.7126056826
  0
LINE
  5
300
100
AcDbEntity
  8
0
100
AcDbLine
 62
7
  6
CONTINUOUS
 10
5.7875704499
 20
3.7131056826
 11
5.8375704499
 21
3.7131056826
  0
LINE
  5
301
100
AcDbEntity
  8
THREAD
100
AcDbLine
 62
7
  6
CONTINUOUS
 10
6.1260704499
 20
3.7301056826
 11
5.8789324099
 21
3.7301056826
  0
LINE
  5
302
100
AcDbEntity
  8
0
100
AcDbLine
 62
7
  6
CONTINUOUS
 10
5.2045704499
 20
3.7436056826
 11
5.1965704499
 21
3.7436056826
  0
LINE
  5
303
100
AcDbEntity
  8
0
100
AcDbLine
 62
7
  6
CONTINUOUS
 10
4.4835704499
 20
3.7441056826
 11
4.1325704499
 21
3.7441056826
  0
LINE
  5
304
100
AcDbEntity
  8
0
100
AcDbLine
 62
7
  6
CONTINUOUS
 10
4.0845704499
 20
3.7441056826
 11
4.0335704499
 21
3.7441056826
  0
LINE
  5
305
100
AcDbEntity
  8
03__ASM_ALL_CURVES
100
AcDbLine
 62
40
  6
CONTINUOUS
 10
5.5299226036
 20
3.4570384953
 11
5.5253839317
 21
3.463090058
  0
LINE
  5
306
100
AcDbEntity
  8
03__ASM_ALL_CURVES
100
AcDbLine
 62
40
  6
CONTINUOUS
 10
4.2395235749
 20
5.2266279345
 11
4.2455751374
 21
5.2185591807
  0
LINE
  5
307
100
AcDbEntity
  8
03__ASM_ALL_CURVES
100
AcDbLine
 62
40
  6
CONTINUOUS
 10
5.5571546348
 20
3.4872963076
 11
5.5662319786
 21
3.4751931833
  0
LINE
  5
308
100
AcDbEntity
  8
03__ASM_ALL_CURVES
100
AcDbLine
 62
40
  6
CONTINUOUS
 10
4.3181938874
 20
5.1540091831
 11
4.3302970124
 21
5.1378716826
  0
LINE
  5
309
100
AcDbEntity
  8
03__ASM_ALL_CURVES
100
AcDbLine
 62
40
  6
CONTINUOUS
 10
5.5571546348
 20
3.5175541215
 11
5.5616933067
 21
3.5115025562
  0
LINE
  5
30A
100
AcDbEntity
  8
03__ASM_ALL_CURVES
100
AcDbLine
 62
40
  6
CONTINUOUS
 10
4.4089673249
 20
5.1459404328
 11
4.4029157624
 21
5.1540091831
  0
LINE
  5
30B
100
AcDbEntity
  8
03__ASM_ALL_CURVES
100
AcDbLine
 62
40
  6
CONTINUOUS
 10
5.5276532668
 20
3.4122569326
 11
5.5639626418
 21
3.3396381826
  0
LINE
  5
30C
100
AcDbEntity
  8
03__ASM_ALL_CURVES
100
AcDbLine
 62
40
  6
CONTINUOUS
 10
5.4028397911
 20
3.4872963076
 11
5.4164558067
 21
3.4509869326
  0
LINE
  5
30D
100
AcDbEntity
  8
03__ASM_ALL_CURVES
100
AcDbLine
 62
40
  6
CONTINUOUS
 10
5.4005704543
 20
3.4122569326
 11
5.4232638137
 21
3.3396381826
  0
LINE
  5
30E
100
AcDbEntity
  8
03__ASM_ALL_CURVES
100
AcDbLine
 62
40
  6
CONTINUOUS
 10
5.3029890098
 20
3.4691416201
 11
5.2984503379
 21
3.4872963076
  0
LINE
  5
30F
100
AcDbEntity
  8
03__ASM_ALL_CURVES
100
AcDbLine
 62
40
  6
CONTINUOUS
 10
4.9112470124
 20
5.2185591807
 11
4.9172985749
 21
5.1943529307
  0
LINE
  5
310
100
AcDbEntity
  8
03__ASM_ALL_CURVES
100
AcDbLine
 62
40
  6
CONTINUOUS
 10
5.3483757286
 20
3.5054509951
 11
5.3529144004
 21
3.4872963076
  0
LINE
  5
311
100
AcDbEntity
  8
03__ASM_ALL_CURVES
100
AcDbLine
 62
40
  6
CONTINUOUS
 10
5.2712183067
 20
3.5115025562
 11
5.2712183067
 21
3.499399434
  0
LINE
  5
312
100
AcDbEntity
  8
0
100
AcDbLine
 62
7
  6
CONTINUOUS
 10
5.2899801059
 20
3.7746056826
 11
5.2899801059
 21
4.4606056826
  0
LINE
  5
313
100
AcDbEntity
  8
03__ASM_ALL_CURVES
100
AcDbLine
 62
40
  6
CONTINUOUS
 10
5.3097970168
 20
3.3396381826
 11
5.3097970168
 21
3.4122569326
  0
LINE
  5
314
100
AcDbEntity
  8
03__ASM_ALL_CURVES
100
AcDbLine
 62
40
  6
CONTINUOUS
 10
5.3461063918
 20
3.4001538062
 11
5.3461063918
 21
3.388050684
  0
LINE
  5
315
100
AcDbEntity
  8
03__ASM_ALL_CURVES
100
AcDbLine
 62
40
  6
CONTINUOUS
 10
5.3801464317
 20
3.4509869326
 11
5.3801464317
 21
3.5236056826
  0
LINE
  5
316
100
AcDbEntity
  8
03__ASM_ALL_CURVES
100
AcDbLine
 62
40
  6
CONTINUOUS
 10
5.4164558067
 20
3.5115025562
 11
5.4164558067
 21
3.499399434
  0
LINE
  5
317
100
AcDbEntity
  8
0
100
AcDbLine
 62
7
  6
CONTINUOUS
 10
5.2899801059
 20
3.7746056826
 11
5.2670704499
 21
3.6891056826
  0
LINE
  5
318
100
AcDbEntity
  8
03__ASM_ALL_CURVES
100
AcDbLine
 62
40
  6
CONTINUOUS
 10
5.9162638865
 20
5.2104904326
 11
5.9283670115
 21
5.2266279345
  0
LINE
  5
319
100
AcDbEntity
  8
03__ASM_ALL_CURVES
100
AcDbLine
 62
40
  6
CONTINUOUS
 10
5.9767795115
 20
5.1620779326
 11
5.9646763865
 21
5.1459404328
  0
LINE
  5
31A
100
AcDbEntity
  8
03__ASM_ALL_CURVES
100
AcDbLine
 62
40
  6
CONTINUOUS
 10
6.0130888865
 20
5.2104904326
 11
6.0251920115
 21
5.2266279345
  0
LINE
  5
31B
100
AcDbEntity
  8
03__ASM_ALL_CURVES
100
AcDbLine
 62
40
  6
CONTINUOUS
 10
6.5093170115
 20
5.2266279345
 11
6.5214201365
 21
5.2346966826
  0
LINE
  5
31C
100
AcDbEntity
  8
THREAD
100
AcDbLine
 62
7
  6
CONTINUOUS
 10
5.8500648964
 20
3.7671056826
 11
5.8375704499
 21
3.7671056826
  0
LINE
  5
31D
100
AcDbEntity
  8
0
100
AcDbLine
 62
7
  6
CONTINUOUS
 10
4.1195704499
 20
3.7676056826
 11
4.0975704499
 21
3.7676056826
  0
LINE
  5
31E
100
AcDbEntity
  8
THREAD
100
AcDbLine
 62
7
  6
CONTINUOUS
 10
6.3485704499
 20
3.7746056826
 11
6.1705704499
 21
3.7746056826
  0
LINE
  5
31F
100
AcDbEntity
  8
0
100
AcDbLine
 62
7
  6
CONTINUOUS
 10
5.5929287431
 20
3.7746056826
 11
5.2899801059
 21
3.7746056826
  0
LINE
  5
320
100
AcDbEntity
  8
0
100
AcDbLine
 62
7
  6
CONTINUOUS
 10
7.0295704499
 20
3.7751056826
 11
6.9825704499
 21
3.7751056826
  0
LINE
  5
321
100
AcDbEntity
  8
0
100
AcDbLine
 62
7
  6
CONTINUOUS
 10
6.8315704499
 20
3.7751056826
 11
6.7685704499
 21
3.7751056826
  0
LINE
  5
322
100
AcDbEntity
  8
0
100
AcDbLine
 62
7
  6
CONTINUOUS
 10
6.9065704499
 20
3.7756056826
 11
6.9565704499
 21
3.7756056826
  0
LINE
  5
323
100
AcDbEntity
  8
0
100
AcDbLine
 62
7
  6
CONTINUOUS
 10
6.9565704499
 20
3.8296056826
 11
6.9775704499
 21
3.8296056826
  0
LINE
  5
324
100
AcDbEntity
  8
0
100
AcDbLine
 62
7
  6
CONTINUOUS
 10
3.77657045
 20
3.8366056826
 11
3.9467941716
 21
3.8366056826
  0
LINE
  5
325
100
AcDbEntity
  8
0
100
AcDbLine
 62
7
  6
CONTINUOUS
 10
6.3585704499
 20
3.8376056826
 11
6.6390704499
 21
3.8376056826
  0
LINE
  5
326
100
AcDbEntity
  8
0
100
AcDbLine
 62
7
  6
CONTINUOUS
 10
6.7480704499
 20
3.8376056826
 11
6.7635704499
 21
3.8376056826
  0
LINE
  5
327
100
AcDbEntity
  8
0
100
AcDbLine
 62
7
  6
CONTINUOUS
 10
3.9835704499
 20
3.8466056826
 11
3.9525704499
 21
3.8466056826
  0
LINE
  5
328
100
AcDbEntity
  8
0
100
AcDbLine
 62
7
  6
CONTINUOUS
 10
3.7395704499
 20
3.8466056826
 11
3.7335704499
 21
3.8466056826
  0
LINE
  5
329
100
AcDbEntity
  8
0
100
AcDbLine
 62
7
  6
CONTINUOUS
 10
4.8910704499
 20
3.8479081551
 11
4.5176341158
 21
3.8479081551
  0
LINE
  5
32A
100
AcDbEntity
  8
0
100
AcDbLine
 62
7
  6
CONTINUOUS
 10
3.7610704499
 20
3.8521056826
 11
3.7450704499
 21
3.8521056826
  0
LINE
  5
32B
100
AcDbEntity
  8
0
100
AcDbLine
 62
7
  6
CONTINUOUS
 10
4.8910704499
 20
3.8992007376
 11
4.5176341158
 21
3.8992007376
  0
LINE
  5
32C
100
AcDbEntity
  8
0
100
AcDbLine
 62
7
  6
CONTINUOUS
 10
3.2025704499
 20
3.9336056826
 11
3.4015704499
 21
3.9336056826
  0
LINE
  5
32D
100
AcDbEntity
  8
0
100
AcDbLine
 62
7
  6
CONTINUOUS
 10
3.4395704499
 20
3.9336056826
 11
3.6715704499
 21
3.9336056826
  0
LINE
  5
32E
100
AcDbEntity
  8
0
100
AcDbLine
 62
7
  6
CONTINUOUS
 10
4.9515704499
 20
4.5461056826
 11
4.8915192137
 21
4.6061569188
  0
LINE
  5
32F
100
AcDbEntity
  8
0
100
AcDbLine
 62
7
  6
CONTINUOUS
 10
5.0120924879
 20
4.5367582301
 11
5.0035704499
 21
4.5461056826
  0
LINE
  5
330
100
AcDbEntity
  8
03__ASM_ALL_CURVES
100
AcDbLine
 62
40
  6
CONTINUOUS
 10
4.4331735749
 20
5.2266279345
 11
4.4392251374
 21
5.2185591807
  0
LINE
  5
331
100
AcDbEntity
  8
03__ASM_ALL_CURVES
100
AcDbLine
 62
40
  6
CONTINUOUS
 10
4.4997407624
 20
5.1459404328
 11
4.4936891999
 21
5.1540091831
  0
LINE
  5
332
100
AcDbEntity
  8
03__ASM_ALL_CURVES
100
AcDbLine
 62
40
  6
CONTINUOUS
 10
4.5360501374
 20
5.1862841826
 11
4.5481532624
 21
5.1701466836
  0
LINE
  5
333
100
AcDbEntity
  8
03__ASM_ALL_CURVES
100
AcDbLine
 62
40
  6
CONTINUOUS
 10
4.5360501374
 20
5.2266279345
 11
4.5421016999
 21
5.2185591807
  0
LINE
  5
334
100
AcDbEntity
  8
03__ASM_ALL_CURVES
100
AcDbLine
 62
40
  6
CONTINUOUS
 10
4.6086688874
 20
5.1459404328
 11
4.6147204499
 21
5.1378716826
  0
LINE
  5
335
100
AcDbEntity
  8
0
100
AcDbLine
 62
7
  6
CONTINUOUS
 10
5.2899801059
 20
4.4606056826
 11
5.2670704499
 21
4.5461056826
  0
LINE
  5
336
100
AcDbEntity
  8
03__ASM_ALL_CURVES
100
AcDbLine
 62
40
  6
CONTINUOUS
 10
5.4709198692
 20
3.5236056826
 11
5.4709198692
 21
3.4509869326
  0
LINE
  5
337
100
AcDbEntity
  8
03__ASM_ALL_CURVES
100
AcDbLine
 62
40
  6
CONTINUOUS
 10
5.4731892043
 20
3.4122569326
 11
5.4731892043
 21
3.3396381826
  0
LINE
  5
338
100
AcDbEntity
  8
03__ASM_ALL_CURVES
100
AcDbLine
 62
40
  6
CONTINUOUS
 10
5.5276532668
 20
3.3396381826
 11
5.5276532668
 21
3.4122569326
  0
LINE
  5
339
100
AcDbEntity
  8
03__ASM_ALL_CURVES
100
AcDbLine
 62
40
  6
CONTINUOUS
 10
5.5543804499
 20
5.1185066826
 11
5.5543804499
 21
5.0797766826
  0
LINE
  5
33A
100
AcDbEntity
  8
03__ASM_ALL_CURVES
100
AcDbLine
 62
40
  6
CONTINUOUS
 10
5.5616933067
 20
3.5115025562
 11
5.5616933067
 21
3.5054509951
  0
LINE
  5
33B
100
AcDbEntity
  8
03__ASM_ALL_CURVES
100
AcDbLine
 62
40
  6
CONTINUOUS
 10
5.5639626418
 20
3.3396381826
 11
5.5639626418
 21
3.4122569326
  0
LINE
  5
33C
100
AcDbEntity
  8
03__ASM_ALL_CURVES
100
AcDbLine
 62
40
  6
CONTINUOUS
 10
5.5662319786
 20
3.4751931833
 11
5.5662319786
 21
3.4691416201
  0
LINE
  5
33D
100
AcDbEntity
  8
0
100
AcDbLine
 62
7
  6
CONTINUOUS
 10
5.5929287431
 20
3.7746056826
 11
5.5929287431
 21
4.4606056826
  0
LINE
  5
33E
100
AcDbEntity
  8
0
100
AcDbLine
 62
7
  6
CONTINUOUS
 10
5.6155704499
 20
3.6901056826
 11
5.6155704499
 21
4.5451056826
  0
LINE
  5
33F
100
AcDbEntity
  8
03__ASM_ALL_CURVES
100
AcDbLine
 62
40
  6
CONTINUOUS
 10
5.2984503379
 20
3.4872963076
 11
5.3029890098
 21
3.5054509951
  0
LINE
  5
340
100
AcDbEntity
  8
03__ASM_ALL_CURVES
100
AcDbLine
 62
40
  6
CONTINUOUS
 10
5.2780263137
 20
3.3759475576
 11
5.2734876418
 21
3.3577928701
  0
LINE
  5
341
100
AcDbEntity
  8
03__ASM_ALL_CURVES
100
AcDbLine
 62
40
  6
CONTINUOUS
 10
5.3529144004
 20
3.4872963076
 11
5.3483757286
 21
3.4691416201
  0
LINE
  5
342
100
AcDbEntity
  8
0
100
AcDbLine
 62
7
  6
CONTINUOUS
 10
5.6155704499
 20
4.5451056826
 11
5.5929287431
 21
4.4606056826
  0
LINE
  5
343
100
AcDbEntity
  8
03__ASM_ALL_CURVES
100
AcDbLine
 62
40
  6
CONTINUOUS
 10
6.067552949
 20
5.1540091831
 11
6.0615013865
 21
5.1459404328
  0
LINE
  5
344
100
AcDbEntity
  8
0
100
AcDbLine
 62
7
  6
CONTINUOUS
 10
5.0120924879
 20
3.6984531351
 11
5.0035704499
 21
3.6891056826
  0
LINE
  5
345
100
AcDbEntity
  8
0
100
AcDbLine
 62
7
  6
CONTINUOUS
 10
4.9515704499
 20
3.6891056826
 11
4.8915192137
 21
3.6290544463
  0
LINE
  5
346
100
AcDbEntity
  8
03__ASM_ALL_CURVES
100
AcDbLine
 62
40
  6
CONTINUOUS
 10
6.5456263865
 20
5.1459404328
 11
6.5335232615
 21
5.1378716826
  0
LINE
  5
347
100
AcDbEntity
  8
03__ASM_ALL_CURVES
100
AcDbLine
 62
40
  6
CONTINUOUS
 10
6.7150701365
 20
5.2346966826
 11
6.7029670115
 21
5.2266279345
  0
LINE
  5
348
100
AcDbEntity
  8
03__ASM_ALL_CURVES
100
AcDbLine
 62
40
  6
CONTINUOUS
 10
6.7392763865
 20
5.1459404328
 11
6.7271732615
 21
5.1378716826
  0
LINE
  5
349
100
AcDbEntity
  8
03__ASM_ALL_CURVES
100
AcDbLine
 62
40
  6
CONTINUOUS
 10
6.8966170115
 20
5.2266279345
 11
6.9087201365
 21
5.2346966826
  0
LINE
  5
34A
100
AcDbEntity
  8
0
100
AcDbLine
 62
7
  6
CONTINUOUS
 10
3.4015704499
 20
3.9666056826
 11
3.4030704499
 21
3.9666056826
  0
LINE
  5
34B
100
AcDbEntity
  8
0
100
AcDbLine
 62
7
  6
CONTINUOUS
 10
3.4380704499
 20
3.9666056826
 11
3.4395704499
 21
3.9666056826
  0
LINE
  5
34C
100
AcDbEntity
  8
03__ASM_ALL_CURVES
100
AcDbLine
 62
40
  6
CONTINUOUS
 10
8.4311610742
 20
4.0256219326
 11
8.3948516992
 21
4.0256219326
  0
LINE
  5
34D
100
AcDbEntity
  8
03__ASM_ALL_CURVES
100
AcDbLine
 62
40
  6
CONTINUOUS
 10
8.2723075586
 20
4.0256219326
 11
8.2632302149
 21
4.0256219326
  0
LINE
  5
34E
100
AcDbEntity
  8
03__ASM_ALL_CURVES
100
AcDbLine
 62
40
  6
CONTINUOUS
 10
8.1996888086
 20
4.0256219326
 11
8.1906114649
 21
4.0256219326
  0
LINE
  5
34F
100
AcDbEntity
  8
03__ASM_ALL_CURVES
100
AcDbLine
 62
40
  6
CONTINUOUS
 10
8.1270700586
 20
4.0256219326
 11
8.1179927149
 21
4.0256219326
  0
LINE
  5
350
100
AcDbEntity
  8
03__ASM_ALL_CURVES
100
AcDbLine
 62
40
  6
CONTINUOUS
 10
8.0680673242
 20
4.0256219326
 11
8.0317579492
 21
4.0256219326
  0
LINE
  5
351
100
AcDbEntity
  8
03__ASM_ALL_CURVES
100
AcDbLine
 62
40
  6
CONTINUOUS
 10
7.7594376367
 20
4.0256219326
 11
7.7412829492
 21
4.0256219326
  0
LINE
  5
352
100
AcDbEntity
  8
03__ASM_ALL_CURVES
100
AcDbLine
 62
40
  6
CONTINUOUS
 10
7.7049735742
 20
4.0256219326
 11
7.6686641992
 21
4.0256219326
  0
LINE
  5
353
100
AcDbEntity
  8
03__ASM_ALL_CURVES
100
AcDbLine
 62
40
  6
CONTINUOUS
 10
7.6187388086
 20
4.0256219326
 11
7.6096614649
 21
4.0256219326
  0
LINE
  5
354
100
AcDbEntity
  8
03__ASM_ALL_CURVES
100
AcDbLine
 62
40
  6
CONTINUOUS
 10
7.5461200586
 20
4.0256219326
 11
7.5370427149
 21
4.0256219326
  0
LINE
  5
355
100
AcDbEntity
  8
03__ASM_ALL_CURVES
100
AcDbLine
 62
40
  6
CONTINUOUS
 10
7.4689626367
 20
4.0256219326
 11
7.4508079492
 21
4.0256219326
  0
LINE
  5
356
100
AcDbEntity
  8
03__ASM_ALL_CURVES
100
AcDbLine
 62
40
  6
CONTINUOUS
 10
7.4144985742
 20
4.0256219326
 11
7.3781891992
 21
4.0256219326
  0
LINE
  5
357
100
AcDbEntity
  8
03__ASM_ALL_CURVES
100
AcDbLine
 62
40
  6
CONTINUOUS
 10
8.3449263086
 20
4.0619313076
 11
8.3222329492
 21
4.0619313076
  0
LINE
  5
358
100
AcDbEntity
  8
03__ASM_ALL_CURVES
100
AcDbLine
 62
40
  6
CONTINUOUS
 10
7.9818325586
 20
4.0619313076
 11
7.9591391992
 21
4.0619313076
  0
LINE
  5
359
100
AcDbEntity
  8
03__ASM_ALL_CURVES
100
AcDbLine
 62
40
  6
CONTINUOUS
 10
7.9092138086
 20
4.0619313076
 11
7.8865204492
 21
4.0619313076
  0
LINE
  5
35A
100
AcDbEntity
  8
03__ASM_ALL_CURVES
100
AcDbLine
 62
40
  6
CONTINUOUS
 10
7.3282638086
 20
4.0619313076
 11
7.3055704492
 21
4.0619313076
  0
LINE
  5
35B
100
AcDbEntity
  8
03__ASM_ALL_CURVES
100
AcDbLine
 62
40
  6
CONTINUOUS
 10
7.3781891992
 20
4.0619313076
 11
7.4008825586
 21
4.0619313076
  0
LINE
  5
35C
100
AcDbEntity
  8
03__ASM_ALL_CURVES
100
AcDbLine
 62
40
  6
CONTINUOUS
 10
7.6686641992
 20
4.0619313076
 11
7.6913575586
 21
4.0619313076
  0
LINE
  5
35D
100
AcDbEntity
  8
03__ASM_ALL_CURVES
100
AcDbLine
 62
40
  6
CONTINUOUS
 10
8.0317579492
 20
4.0619313076
 11
8.0544513086
 21
4.0619313076
  0
LINE
  5
35E
100
AcDbEntity
  8
03__ASM_ALL_CURVES
100
AcDbLine
 62
40
  6
CONTINUOUS
 10
8.3948516992
 20
4.0619313076
 11
8.4175450586
 21
4.0619313076
  0
LINE
  5
35F
100
AcDbEntity
  8
03__ASM_ALL_CURVES
100
AcDbLine
 62
40
  6
CONTINUOUS
 10
8.1996888086
 20
4.0982406826
 11
8.1906114649
 21
4.0982406826
  0
LINE
  5
360
100
AcDbEntity
  8
03__ASM_ALL_CURVES
100
AcDbLine
 62
40
  6
CONTINUOUS
 10
8.1270700586
 20
4.0982406826
 11
8.1179927149
 21
4.0982406826
  0
LINE
  5
361
100
AcDbEntity
  8
03__ASM_ALL_CURVES
100
AcDbLine
 62
40
  6
CONTINUOUS
 10
7.3055704492
 20
4.0982406826
 11
7.3282638086
 21
4.0982406826
  0
LINE
  5
362
100
AcDbEntity
  8
03__ASM_ALL_CURVES
100
AcDbLine
 62
40
  6
CONTINUOUS
 10
7.3781891992
 20
4.0982406826
 11
7.4144985742
 21
4.0982406826
  0
LINE
  5
363
100
AcDbEntity
  8
03__ASM_ALL_CURVES
100
AcDbLine
 62
40
  6
CONTINUOUS
 10
7.4508079492
 20
4.0982406826
 11
7.4689626367
 21
4.0982406826
  0
LINE
  5
364
100
AcDbEntity
  8
03__ASM_ALL_CURVES
100
AcDbLine
 62
40
  6
CONTINUOUS
 10
7.6096614649
 20
4.0982406826
 11
7.6187388086
 21
4.0982406826
  0
LINE
  5
365
100
AcDbEntity
  8
03__ASM_ALL_CURVES
100
AcDbLine
 62
40
  6
CONTINUOUS
 10
7.6686641992
 20
4.0982406826
 11
7.7049735742
 21
4.0982406826
  0
LINE
  5
366
100
AcDbEntity
  8
03__ASM_ALL_CURVES
100
AcDbLine
 62
40
  6
CONTINUOUS
 10
7.7412829492
 20
4.0982406826
 11
7.7594376367
 21
4.0982406826
  0
LINE
  5
367
100
AcDbEntity
  8
03__ASM_ALL_CURVES
100
AcDbLine
 62
40
  6
CONTINUOUS
 10
7.8865204492
 20
4.0982406826
 11
7.9092138086
 21
4.0982406826
  0
LINE
  5
368
100
AcDbEntity
  8
03__ASM_ALL_CURVES
100
AcDbLine
 62
40
  6
CONTINUOUS
 10
7.9591391992
 20
4.0982406826
 11
7.9818325586
 21
4.0982406826
  0
LINE
  5
369
100
AcDbEntity
  8
03__ASM_ALL_CURVES
100
AcDbLine
 62
40
  6
CONTINUOUS
 10
8.0317579492
 20
4.0982406826
 11
8.0680673242
 21
4.0982406826
  0
LINE
  5
36A
100
AcDbEntity
  8
03__ASM_ALL_CURVES
100
AcDbLine
 62
40
  6
CONTINUOUS
 10
8.3222329492
 20
4.0982406826
 11
8.3449263086
 21
4.0982406826
  0
LINE
  5
36B
100
AcDbEntity
  8
03__ASM_ALL_CURVES
100
AcDbLine
 62
40
  6
CONTINUOUS
 10
8.3948516992
 20
4.0982406826
 11
8.4311610742
 21
4.0982406826
  0
LINE
  5
36C
100
AcDbEntity
  8
0
100
AcDbLine
 62
7
  6
CONTINUOUS
 10
3.9216990395
 20
4.1176056826
 11
3.8200413012
 21
4.1176056826
  0
LINE
  5
36D
100
AcDbEntity
  8
03__ASM_ALL_CURVES
100
AcDbLine
 62
40
  6
CONTINUOUS
 10
6.5434130287
 20
3.4509869326
 11
6.5343356849
 21
3.4570384953
  0
LINE
  5
36E
100
AcDbEntity
  8
03__ASM_ALL_CURVES
100
AcDbLine
 62
40
  6
CONTINUOUS
 10
6.4798716224
 20
3.5236056826
 11
6.4889489662
 21
3.5175541215
  0
LINE
  5
36F
100
AcDbEntity
  8
03__ASM_ALL_CURVES
100
AcDbLine
 62
40
  6
CONTINUOUS
 10
3.9429970124
 20
5.2346966826
 11
3.9551001374
 21
5.2266279345
  0
LINE
  5
370
100
AcDbEntity
  8
03__ASM_ALL_CURVES
100
AcDbLine
 62
40
  6
CONTINUOUS
 10
6.5524903724
 20
3.5236056826
 11
6.5615677162
 21
3.5175541215
  0
LINE
  5
371
100
AcDbEntity
  8
03__ASM_ALL_CURVES
100
AcDbLine
 62
40
  6
CONTINUOUS
 10
6.6251091224
 20
3.5236056826
 11
6.6341864662
 21
3.5175541215
  0
LINE
  5
372
100
AcDbEntity
  8
03__ASM_ALL_CURVES
100
AcDbLine
 62
40
  6
CONTINUOUS
 10
4.2274204499
 20
5.1378716826
 11
4.2153173249
 21
5.1459404328
  0
LINE
  5
373
100
AcDbEntity
  8
03__ASM_ALL_CURVES
100
AcDbLine
 62
40
  6
CONTINUOUS
 10
4.7297001374
 20
5.2266279345
 11
4.7357516999
 21
5.2185591807
  0
LINE
  5
374
100
AcDbEntity
  8
THREAD
100
AcDbLine
 62
7
  6
CONTINUOUS
 10
5.8789324099
 20
3.7301056826
 11
5.8613232267
 21
3.7606056826
  0
LINE
  5
375
100
AcDbEntity
  8
0
100
AcDbLine
 62
7
  6
CONTINUOUS
 10
5.6155704499
 20
3.6901056826
 11
5.5929287431
 21
3.7746056826
  0
LINE
  5
376
100
AcDbEntity
  8
0
100
AcDbLine
 62
7
  6
CONTINUOUS
 10
5.6675704499
 20
4.5451056826
 11
5.6675704499
 21
3.6901056826
  0
LINE
  5
377
100
AcDbEntity
  8
0
100
AcDbLine
 62
7
  6
CONTINUOUS
 10
5.6705704499
 20
4.5421056826
 11
5.6705704499
 21
3.6931056826
  0
LINE
  5
378
100
AcDbEntity
  8
03__ASM_ALL_CURVES
100
AcDbLine
 62
40
  6
CONTINUOUS
 10
5.6705704499
 20
4.5654706826
 11
5.6705704499
 21
5.1378716826
  0
LINE
  5
379
100
AcDbEntity
  8
0
100
AcDbLine
 62
7
  6
CONTINUOUS
 10
5.6730704499
 20
3.7005490583
 11
5.6730704499
 21
4.5346623069
  0
LINE
  5
37A
100
AcDbEntity
  8
0
100
AcDbLine
 62
7
  6
CONTINUOUS
 10
5.6927928818
 20
3.7119358096
 11
5.6927928818
 21
4.5232755556
  0
LINE
  5
37B
100
AcDbEntity
  8
0
100
AcDbLine
 62
7
  6
CONTINUOUS
 10
5.6952928818
 20
3.7126056826
 11
5.6952928818
 21
4.5226056826
  0
LINE
  5
37C
100
AcDbEntity
  8
0
100
AcDbLine
 62
7
  6
CONTINUOUS
 10
5.7175704499
 20
4.5266056826
 11
5.7175704499
 21
3.7086056826
  0
LINE
  5
37D
100
AcDbEntity
  8
THREAD
100
AcDbLine
 62
7
  6
CONTINUOUS
 10
5.7175704499
 20
3.7126056826
 11
5.7175704499
 21
4.5226056826
  0
LINE
  5
37E
100
AcDbEntity
  8
03__ASM_ALL_CURVES
100
AcDbLine
 62
40
  6
CONTINUOUS
 10
5.7867604499
 20
5.1185066826
 11
5.7867604499
 21
5.0797766826
  0
LINE
  5
37F
100
AcDbEntity
  8
0
100
AcDbLine
 62
7
  6
CONTINUOUS
 10
5.7875704499
 20
4.5266056826
 11
5.7875704499
 21
3.7086056826
  0
LINE
  5
380
100
AcDbEntity
  8
03__ASM_ALL_CURVES
100
AcDbLine
 62
40
  6
CONTINUOUS
 10
5.825490449
 20
5.2346966826
 11
5.825490449
 21
5.1378716826
  0
LINE
  5
381
100
AcDbEntity
  8
03__ASM_ALL_CURVES
100
AcDbLine
 62
40
  6
CONTINUOUS
 10
5.910212324
 20
5.1862841826
 11
5.9162638865
 21
5.2104904326
  0
LINE
  5
382
100
AcDbEntity
  8
03__ASM_ALL_CURVES
100
AcDbLine
 62
40
  6
CONTINUOUS
 10
5.982831074
 20
5.1862841826
 11
5.9767795115
 21
5.1620779326
  0
LINE
  5
383
100
AcDbEntity
  8
03__ASM_ALL_CURVES
100
AcDbLine
 62
40
  6
CONTINUOUS
 10
6.007037324
 20
5.1862841826
 11
6.0130888865
 21
5.2104904326
  0
LINE
  5
384
100
AcDbEntity
  8
03__ASM_ALL_CURVES
100
AcDbLine
 62
40
  6
CONTINUOUS
 10
5.3778770949
 20
3.3396381826
 11
5.4005704543
 21
3.4122569326
  0
LINE
  5
385
100
AcDbEntity
  8
THREAD
100
AcDbLine
 62
7
  6
CONTINUOUS
 10
5.8789324099
 20
4.5051056826
 11
5.8613232267
 21
4.4746056826
  0
LINE
  5
386
100
AcDbEntity
  8
03__ASM_ALL_CURVES
100
AcDbLine
 62
40
  6
CONTINUOUS
 10
6.4972138865
 20
5.2104904326
 11
6.5093170115
 21
5.2266279345
  0
LINE
  5
387
100
AcDbEntity
  8
03__ASM_ALL_CURVES
100
AcDbLine
 62
40
  6
CONTINUOUS
 10
6.9329263865
 20
5.1459404328
 11
6.9208232615
 21
5.1378716826
  0
LINE
  5
388
100
AcDbEntity
  8
03__ASM_ALL_CURVES
100
AcDbLine
 62
40
  6
CONTINUOUS
 10
7.0297513865
 20
5.1459404328
 11
7.0176482615
 21
5.1378716826
  0
LINE
  5
389
100
AcDbEntity
  8
03__ASM_ALL_CURVES
100
AcDbLine
 62
40
  6
CONTINUOUS
 10
7.4008825586
 20
4.1369706826
 11
7.3918052149
 21
4.1369706826
  0
LINE
  5
38A
100
AcDbEntity
  8
03__ASM_ALL_CURVES
100
AcDbLine
 62
40
  6
CONTINUOUS
 10
7.4735013086
 20
4.1732800576
 11
7.4508079492
 21
4.1732800576
  0
LINE
  5
38B
100
AcDbEntity
  8
03__ASM_ALL_CURVES
100
AcDbLine
 62
40
  6
CONTINUOUS
 10
7.3282638086
 20
4.1732800576
 11
7.3055704492
 21
4.1732800576
  0
LINE
  5
38C
100
AcDbEntity
  8
03__ASM_ALL_CURVES
100
AcDbLine
 62
40
  6
CONTINUOUS
 10
7.3055704492
 20
4.2095894326
 11
7.3282638086
 21
4.2095894326
  0
LINE
  5
38D
100
AcDbEntity
  8
03__ASM_ALL_CURVES
100
AcDbLine
 62
40
  6
CONTINUOUS
 10
7.3918052149
 20
4.2095894326
 11
7.4008825586
 21
4.2095894326
  0
LINE
  5
38E
100
AcDbEntity
  8
03__ASM_ALL_CURVES
100
AcDbLine
 62
40
  6
CONTINUOUS
 10
7.4508079492
 20
4.2095894326
 11
7.4735013086
 21
4.2095894326
  0
LINE
  5
38F
100
AcDbEntity
  8
03__ASM_ALL_CURVES
100
AcDbLine
 62
40
  6
CONTINUOUS
 10
7.5188880274
 20
4.2095894326
 11
7.5642747461
 21
4.2095894326
  0
LINE
  5
390
100
AcDbEntity
  8
0
100
AcDbLine
 62
7
  6
CONTINUOUS
 10
3.4015704499
 20
4.2686056826
 11
3.4395704499
 21
4.2686056826
  0
LINE
  5
391
100
AcDbEntity
  8
0
100
AcDbLine
 62
7
  6
CONTINUOUS
 10
3.2025704499
 20
4.3016056826
 11
3.4015704499
 21
4.3016056826
  0
LINE
  5
392
100
AcDbEntity
  8
0
100
AcDbLine
 62
7
  6
CONTINUOUS
 10
3.4395704499
 20
4.3016056826
 11
3.6715704499
 21
4.3016056826
  0
LINE
  5
393
100
AcDbEntity
  8
03__ASM_ALL_CURVES
100
AcDbLine
 62
40
  6
CONTINUOUS
 10
6.7703466224
 20
3.5236056826
 11
6.7794239662
 21
3.5175541215
  0
LINE
  5
394
100
AcDbEntity
  8
03__ASM_ALL_CURVES
100
AcDbLine
 62
40
  6
CONTINUOUS
 10
4.2274204499
 20
5.2346966826
 11
4.2395235749
 21
5.2266279345
  0
LINE
  5
395
100
AcDbEntity
  8
03__ASM_ALL_CURVES
100
AcDbLine
 62
40
  6
CONTINUOUS
 10
4.4210704499
 20
5.1378716826
 11
4.4089673249
 21
5.1459404328
  0
LINE
  5
396
100
AcDbEntity
  8
03__ASM_ALL_CURVES
100
AcDbLine
 62
40
  6
CONTINUOUS
 10
4.5118438874
 20
5.1378716826
 11
4.4997407624
 21
5.1459404328
  0
LINE
  5
397
100
AcDbEntity
  8
03__ASM_ALL_CURVES
100
AcDbLine
 62
40
  6
CONTINUOUS
 10
4.4210704499
 20
5.2346966826
 11
4.4331735749
 21
5.2266279345
  0
LINE
  5
398
100
AcDbEntity
  8
03__ASM_ALL_CURVES
100
AcDbLine
 62
40
  6
CONTINUOUS
 10
4.8991438874
 20
5.2346966826
 11
4.9112470124
 21
5.2185591807
  0
LINE
  5
399
100
AcDbEntity
  8
0
100
AcDbLine
 62
7
  6
CONTINUOUS
 10
5.8375704499
 20
3.7131062976
 11
5.8375704499
 21
4.5221050676
  0
LINE
  5
39A
100
AcDbEntity
  8
0
100
AcDbLine
 62
7
  6
CONTINUOUS
 10
5.8500648964
 20
3.7671056826
 11
5.8500648964
 21
4.4681056826
  0
LINE
  5
39B
100
AcDbEntity
  8
0
100
AcDbLine
 62
7
  6
CONTINUOUS
 10
5.8613232267
 20
3.7606056826
 11
5.8613232267
 21
4.4746056826
  0
LINE
  5
39C
100
AcDbEntity
  8
THREAD
100
AcDbLine
 62
7
  6
CONTINUOUS
 10
5.8789324099
 20
3.7301056826
 11
5.8789324099
 21
4.5051056826
  0
LINE
  5
39D
100
AcDbEntity
  8
03__ASM_ALL_CURVES
100
AcDbLine
 62
40
  6
CONTINUOUS
 10
6.1099138865
 20
5.1378716826
 11
6.140171699
 21
5.2346966826
  0
LINE
  5
39E
100
AcDbEntity
  8
03__ASM_ALL_CURVES
100
AcDbLine
 62
40
  6
CONTINUOUS
 10
5.2712183067
 20
3.499399434
 11
5.2666796348
 21
3.4933478687
  0
LINE
  5
39F
100
AcDbEntity
  8
03__ASM_ALL_CURVES
100
AcDbLine
 62
40
  6
CONTINUOUS
 10
5.3029890098
 20
3.5054509951
 11
5.3120663536
 21
3.5175541215
  0
LINE
  5
3A0
100
AcDbEntity
  8
03__ASM_ALL_CURVES
100
AcDbLine
 62
40
  6
CONTINUOUS
 10
6.551677949
 20
5.1540091831
 11
6.5456263865
 21
5.1459404328
  0
LINE
  5
3A1
100
AcDbEntity
  8
03__ASM_ALL_CURVES
100
AcDbLine
 62
40
  6
CONTINUOUS
 10
5.3483757286
 20
3.4691416201
 11
5.3392983848
 21
3.4570384953
  0
LINE
  5
3A2
100
AcDbEntity
  8
03__ASM_ALL_CURVES
100
AcDbLine
 62
40
  6
CONTINUOUS
 10
5.2734876418
 20
3.3577928701
 11
5.264410298
 21
3.3456897453
  0
LINE
  5
3A3
100
AcDbEntity
  8
03__ASM_ALL_CURVES
100
AcDbLine
 62
40
  6
CONTINUOUS
 10
6.7029670115
 20
5.2266279345
 11
6.696915449
 21
5.2185591807
  0
LINE
  5
3A4
100
AcDbEntity
  8
03__ASM_ALL_CURVES
100
AcDbLine
 62
40
  6
CONTINUOUS
 10
5.4164558067
 20
3.499399434
 11
5.4119171348
 21
3.4933478687
  0
LINE
  5
3A5
100
AcDbEntity
  8
03__ASM_ALL_CURVES
100
AcDbLine
 62
40
  6
CONTINUOUS
 10
5.3461063918
 20
3.388050684
 11
5.3415677199
 21
3.3819991187
  0
LINE
  5
3A6
100
AcDbEntity
  8
03__ASM_ALL_CURVES
100
AcDbLine
 62
40
  6
CONTINUOUS
 10
7.217349824
 20
5.1459404328
 11
7.205246699
 21
5.1378716826
  0
LINE
  5
3A7
100
AcDbEntity
  8
03__ASM_ALL_CURVES
100
AcDbLine
 62
40
  6
CONTINUOUS
 10
7.4170513865
 20
5.1943529307
 11
7.4049482615
 21
5.1862841826
  0
LINE
  5
3A8
100
AcDbEntity
  8
0
100
AcDbLine
 62
7
  6
CONTINUOUS
 10
4.8910704499
 20
4.3360106276
 11
4.5176341158
 21
4.3360106276
  0
LINE
  5
3A9
100
AcDbEntity
  8
0
100
AcDbLine
 62
7
  6
CONTINUOUS
 10
3.7610704499
 20
4.3831056826
 11
3.7450704499
 21
4.3831056826
  0
LINE
  5
3AA
100
AcDbEntity
  8
0
100
AcDbLine
 62
7
  6
CONTINUOUS
 10
4.8910704499
 20
4.3873032101
 11
4.5176341158
 21
4.3873032101
  0
LINE
  5
3AB
100
AcDbEntity
  8
0
100
AcDbLine
 62
7
  6
CONTINUOUS
 10
3.9835704499
 20
4.3886056826
 11
3.9525704499
 21
4.3886056826
  0
LINE
  5
3AC
100
AcDbEntity
  8
0
100
AcDbLine
 62
7
  6
CONTINUOUS
 10
3.7395704499
 20
4.3886056826
 11
3.7335704499
 21
4.3886056826
  0
LINE
  5
3AD
100
AcDbEntity
  8
0
100
AcDbLine
 62
7
  6
CONTINUOUS
 10
6.3585704499
 20
4.3976056826
 11
6.6390704499
 21
4.3976056826
  0
LINE
  5
3AE
100
AcDbEntity
  8
0
100
AcDbLine
 62
7
  6
CONTINUOUS
 10
6.7480704499
 20
4.3976056826
 11
6.7635704499
 21
4.3976056826
  0
LINE
  5
3AF
100
AcDbEntity
  8
0
100
AcDbLine
 62
7
  6
CONTINUOUS
 10
3.77657045
 20
4.3986056826
 11
3.9467941716
 21
4.3986056826
  0
LINE
  5
3B0
100
AcDbEntity
  8
0
100
AcDbLine
 62
7
  6
CONTINUOUS
 10
6.9565704499
 20
4.4056056826
 11
6.9775704499
 21
4.4056056826
  0
LINE
  5
3B1
100
AcDbEntity
  8
0
100
AcDbLine
 62
7
  6
CONTINUOUS
 10
6.9065704499
 20
4.4596056826
 11
6.9565704499
 21
4.4596056826
  0
LINE
  5
3B2
100
AcDbEntity
  8
0
100
AcDbLine
 62
7
  6
CONTINUOUS
 10
7.0295704499
 20
4.4601056826
 11
6.9825704499
 21
4.4601056826
  0
LINE
  5
3B3
100
AcDbEntity
  8
0
100
AcDbLine
 62
7
  6
CONTINUOUS
 10
6.8315704499
 20
4.4601056826
 11
6.7685704499
 21
4.4601056826
  0
LINE
  5
3B4
100
AcDbEntity
  8
THREAD
100
AcDbLine
 62
7
  6
CONTINUOUS
 10
6.3485704499
 20
4.4606056826
 11
6.1705704499
 21
4.4606056826
  0
LINE
  5
3B5
100
AcDbEntity
  8
0
100
AcDbLine
 62
7
  6
CONTINUOUS
 10
5.5929287431
 20
4.4606056826
 11
5.2899801059
 21
4.4606056826
  0
LINE
  5
3B6
100
AcDbEntity
  8
0
100
AcDbLine
 62
7
  6
CONTINUOUS
 10
4.1195704499
 20
4.4676056826
 11
4.0975704499
 21
4.4676056826
  0
LINE
  5
3B7
100
AcDbEntity
  8
THREAD
100
AcDbLine
 62
7
  6
CONTINUOUS
 10
5.8500648964
 20
4.4681056826
 11
5.8375704499
 21
4.4681056826
  0
LINE
  5
3B8
100
AcDbEntity
  8
0
100
AcDbLine
 62
7
  6
CONTINUOUS
 10
4.4835704499
 20
4.4911056826
 11
4.1325704499
 21
4.4911056826
  0
LINE
  5
3B9
100
AcDbEntity
  8
0
100
AcDbLine
 62
7
  6
CONTINUOUS
 10
4.0845704499
 20
4.4911056826
 11
4.0335704499
 21
4.4911056826
  0
LINE
  5
3BA
100
AcDbEntity
  8
0
100
AcDbLine
 62
7
  6
CONTINUOUS
 10
5.2045704499
 20
4.4916056826
 11
5.1965704499
 21
4.4916056826
  0
LINE
  5
3BB
100
AcDbEntity
  8
03__ASM_ALL_CURVES
100
AcDbLine
 62
40
  6
CONTINUOUS
 10
4.2274204499
 20
5.1782154316
 11
4.2092657624
 21
5.1862841826
  0
LINE
  5
3BC
100
AcDbEntity
  8
THREAD
100
AcDbLine
 62
7
  6
CONTINUOUS
 10
5.6927928818
 20
4.5232755556
 11
5.6730704499
 21
4.5346623069
  0
LINE
  5
3BD
100
AcDbEntity
  8
03__ASM_ALL_CURVES
100
AcDbLine
 62
40
  6
CONTINUOUS
 10
4.5239470124
 20
5.1943529307
 11
4.5360501374
 21
5.1862841826
  0
LINE
  5
3BE
100
AcDbEntity
  8
03__ASM_ALL_CURVES
100
AcDbLine
 62
40
  6
CONTINUOUS
 10
4.5239470124
 20
5.2346966826
 11
4.5360501374
 21
5.2266279345
  0
LINE
  5
3BF
100
AcDbEntity
  8
03__ASM_ALL_CURVES
100
AcDbLine
 62
40
  6
CONTINUOUS
 10
4.7175970124
 20
5.2346966826
 11
4.7297001374
 21
5.2266279345
  0
LINE
  5
3C0
100
AcDbEntity
  8
03__ASM_ALL_CURVES
100
AcDbLine
 62
40
  6
CONTINUOUS
 10
6.5343356849
 20
3.4570384953
 11
6.5252583412
 21
3.4691416201
  0
LINE
  5
3C1
100
AcDbEntity
  8
03__ASM_ALL_CURVES
100
AcDbLine
 62
40
  6
CONTINUOUS
 10
6.4889489662
 20
3.5175541215
 11
6.4934876381
 21
3.5115025562
  0
LINE
  5
3C2
100
AcDbEntity
  8
03__ASM_ALL_CURVES
100
AcDbLine
 62
40
  6
CONTINUOUS
 10
6.5615677162
 20
3.5175541215
 11
6.5706450599
 21
3.5054509951
  0
LINE
  5
3C3
100
AcDbEntity
  8
03__ASM_ALL_CURVES
100
AcDbLine
 62
40
  6
CONTINUOUS
 10
6.6341864662
 20
3.5175541215
 11
6.6387251381
 21
3.5115025562
  0
LINE
  5
3C4
100
AcDbEntity
  8
THREAD
100
AcDbLine
 62
7
  6
CONTINUOUS
 10
6.1260704499
 20
3.7301056826
 11
6.1260704499
 21
4.5051056826
  0
LINE
  5
3C5
100
AcDbEntity
  8
THREAD
100
AcDbLine
 62
7
  6
CONTINUOUS
 10
6.1705704499
 20
3.7746056826
 11
6.1705704499
 21
4.4606056826
  0
LINE
  5
3C6
100
AcDbEntity
  8
03__ASM_ALL_CURVES
100
AcDbLine
 62
40
  6
CONTINUOUS
 10
6.745327949
 20
5.1540091831
 11
6.7392763865
 21
5.1459404328
  0
LINE
  5
3C7
100
AcDbEntity
  8
03__ASM_ALL_CURVES
100
AcDbLine
 62
40
  6
CONTINUOUS
 10
5.5616933067
 20
3.5054509951
 11
5.5571546348
 21
3.499399434
  0
LINE
  5
3C8
100
AcDbEntity
  8
03__ASM_ALL_CURVES
100
AcDbLine
 62
40
  6
CONTINUOUS
 10
5.5662319786
 20
3.4691416201
 11
5.5571546348
 21
3.4570384953
  0
LINE
  5
3C9
100
AcDbEntity
  8
03__ASM_ALL_CURVES
100
AcDbLine
 62
40
  6
CONTINUOUS
 10
6.8845138865
 20
5.2104904326
 11
6.8966170115
 21
5.2266279345
  0
LINE
  5
3CA
100
AcDbEntity
  8
03__ASM_ALL_CURVES
100
AcDbLine
 62
40
  6
CONTINUOUS
 10
6.9450295115
 20
5.1620779326
 11
6.9329263865
 21
5.1459404328
  0
LINE
  5
3CB
100
AcDbEntity
  8
03__ASM_ALL_CURVES
100
AcDbLine
 62
40
  6
CONTINUOUS
 10
5.2666796348
 20
3.4933478687
 11
5.2576022911
 21
3.4872963076
  0
LINE
  5
3CC
100
AcDbEntity
  8
03__ASM_ALL_CURVES
100
AcDbLine
 62
40
  6
CONTINUOUS
 10
5.3120663536
 20
3.5175541215
 11
5.3211436973
 21
3.5236056826
  0
LINE
  5
3CD
100
AcDbEntity
  8
THREAD
100
AcDbLine
 62
7
  6
CONTINUOUS
 10
6.1260704499
 20
4.5051056826
 11
5.8789324099
 21
4.5051056826
  0
LINE
  5
3CE
100
AcDbEntity
  8
0
100
AcDbLine
 62
7
  6
CONTINUOUS
 10
5.7875704499
 20
4.5221056826
 11
5.8375704499
 21
4.5221056826
  0
LINE
  5
3CF
100
AcDbEntity
  8
THREAD
100
AcDbLine
 62
7
  6
CONTINUOUS
 10
5.7175704499
 20
4.5226056826
 11
5.6952928818
 21
4.5226056826
  0
LINE
  5
3D0
100
AcDbEntity
  8
0
100
AcDbLine
 62
7
  6
CONTINUOUS
 10
5.6675704499
 20
4.5451056826
 11
5.6155704499
 21
4.5451056826
  0
LINE
  5
3D1
100
AcDbEntity
  8
0
100
AcDbLine
 62
7
  6
CONTINUOUS
 10
5.0765704499
 20
4.5456056826
 11
5.1265704499
 21
4.5456056826
  0
LINE
  5
3D2
100
AcDbEntity
  8
0
100
AcDbLine
 62
7
  6
CONTINUOUS
 10
5.2670704499
 20
4.5461056826
 11
5.2175704499
 21
4.5461056826
  0
LINE
  5
3D3
100
AcDbEntity
  8
0
100
AcDbLine
 62
7
  6
CONTINUOUS
 10
5.0765704499
 20
4.5461056826
 11
5.0235704499
 21
4.5461056826
  0
LINE
  5
3D4
100
AcDbEntity
  8
0
100
AcDbLine
 62
7
  6
CONTINUOUS
 10
5.0035704499
 20
4.5461056826
 11
4.9515704499
 21
4.5461056826
  0
LINE
  5
3D5
100
AcDbEntity
  8
0
100
AcDbLine
 62
7
  6
CONTINUOUS
 10
4.8910704499
 20
4.6057081551
 11
4.5176341158
 21
4.6057081551
  0
LINE
  5
3D6
100
AcDbEntity
  8
0
100
AcDbLine
 62
7
  6
CONTINUOUS
 10
4.8910704499
 20
4.6066056826
 11
4.5176341158
 21
4.6066056826
  0
LINE
  5
3D7
100
AcDbEntity
  8
03__ASM_ALL_CURVES
100
AcDbLine
 62
40
  6
CONTINUOUS
 10
3.2877604499
 20
5.0797766826
 11
3.1715704499
 21
5.0991416826
  0
LINE
  5
3D8
100
AcDbEntity
  8
03__ASM_ALL_CURVES
100
AcDbLine
 62
40
  6
CONTINUOUS
 10
4.4210704499
 20
5.1943529307
 11
4.4392251374
 21
5.1862841826
  0
LINE
  5
3D9
100
AcDbEntity
  8
0
100
AcDbLine
 62
7
  6
CONTINUOUS
 10
6.7685704499
 20
3.7751056826
 11
6.7635704499
 21
3.7801056826
  0
LINE
  5
3DA
100
AcDbEntity
  8
THREAD
100
AcDbLine
 62
7
  6
CONTINUOUS
 10
6.1705704499
 20
4.4606056826
 11
6.1260704499
 21
4.5051056826
  0
LINE
  5
3DB
100
AcDbEntity
  8
03__ASM_ALL_CURVES
100
AcDbLine
 62
40
  6
CONTINUOUS
 10
6.7794239662
 20
3.5175541215
 11
6.7839626381
 21
3.5115025562
  0
LINE
  5
3DC
100
AcDbEntity
  8
03__ASM_ALL_CURVES
100
AcDbLine
 62
40
  6
CONTINUOUS
 10
6.5184503376
 20
3.4122569326
 11
6.5547597126
 21
3.3396381826
  0
LINE
  5
3DD
100
AcDbEntity
  8
03__ASM_ALL_CURVES
100
AcDbLine
 62
40
  6
CONTINUOUS
 10
5.9162638865
 20
5.1620779326
 11
5.910212324
 21
5.1862841826
  0
LINE
  5
3DE
100
AcDbEntity
  8
03__ASM_ALL_CURVES
100
AcDbLine
 62
40
  6
CONTINUOUS
 10
5.9767795115
 20
5.2104904326
 11
5.982831074
 21
5.1862841826
  0
LINE
  5
3DF
100
AcDbEntity
  8
03__ASM_ALL_CURVES
100
AcDbLine
 62
40
  6
CONTINUOUS
 10
6.236996699
 20
5.2346966826
 11
6.236996699
 21
5.1378716826
  0
LINE
  5
3E0
100
AcDbEntity
  8
03__ASM_ALL_CURVES
100
AcDbLine
 62
40
  6
CONTINUOUS
 10
6.333821699
 20
5.2346966826
 11
6.333821699
 21
5.1378716826
  0
LINE
  5
3E1
100
AcDbEntity
  8
0
100
AcDbLine
 62
7
  6
CONTINUOUS
 10
6.3485704499
 20
3.7746056826
 11
6.3485704499
 21
4.4606056826
  0
LINE
  5
3E2
100
AcDbEntity
  8
0
100
AcDbLine
 62
7
  6
CONTINUOUS
 10
6.3585704499
 20
3.7846056826
 11
6.3585704499
 21
4.4506056826
  0
LINE
  5
3E3
100
AcDbEntity
  8
03__ASM_ALL_CURVES
100
AcDbLine
 62
40
  6
CONTINUOUS
 10
6.491162324
 20
5.1862841826
 11
6.4972138865
 21
5.2104904326
  0
LINE
  5
3E4
100
AcDbEntity
  8
03__ASM_ALL_CURVES
100
AcDbLine
 62
40
  6
CONTINUOUS
 10
7.035802949
 20
5.1540091831
 11
7.0297513865
 21
5.1459404328
  0
LINE
  5
3E5
100
AcDbEntity
  8
0
100
AcDbLine
 62
7
  6
CONTINUOUS
 10
6.7685704499
 20
4.4601056826
 11
6.7635704499
 21
4.4551056826
  0
LINE
  5
3E6
100
AcDbEntity
  8
03__ASM_ALL_CURVES
100
AcDbLine
 62
40
  6
CONTINUOUS
 10
5.3392983848
 20
3.4570384953
 11
5.3302210411
 21
3.4509869326
  0
LINE
  5
3E7
100
AcDbEntity
  8
03__ASM_ALL_CURVES
100
AcDbLine
 62
40
  6
CONTINUOUS
 10
5.4119171348
 20
3.4933478687
 11
5.4028397911
 21
3.4872963076
  0
LINE
  5
3E8
100
AcDbEntity
  8
03__ASM_ALL_CURVES
100
AcDbLine
 62
40
  6
CONTINUOUS
 10
5.264410298
 20
3.3456897453
 11
5.2553329543
 21
3.3396381826
  0
LINE
  5
3E9
100
AcDbEntity
  8
03__ASM_ALL_CURVES
100
AcDbLine
 62
40
  6
CONTINUOUS
 10
5.5299226036
 20
3.5175541215
 11
5.5389999473
 21
3.5236056826
  0
LINE
  5
3EA
100
AcDbEntity
  8
03__ASM_ALL_CURVES
100
AcDbLine
 62
40
  6
CONTINUOUS
 10
5.3415677199
 20
3.3819991187
 11
5.3324903762
 21
3.3759475576
  0
LINE
  5
3EB
100
AcDbEntity
  8
03__ASM_ALL_CURVES
100
AcDbLine
 62
40
  6
CONTINUOUS
 10
5.5571546348
 20
3.499399434
 11
5.5480772911
 21
3.4933478687
  0
LINE
  5
3EC
100
AcDbEntity
  8
03__ASM_ALL_CURVES
100
AcDbLine
 62
40
  6
CONTINUOUS
 10
5.5571546348
 20
3.4570384953
 11
5.5480772911
 21
3.4509869326
  0
LINE
  5
3ED
100
AcDbEntity
  8
THREAD
100
AcDbLine
 62
7
  6
CONTINUOUS
 10
5.6927928818
 20
3.7119358096
 11
5.6730704499
 21
3.7005490583
  0
LINE
  5
3EE
100
AcDbEntity
  8
03__ASM_ALL_CURVES
100
AcDbLine
 62
40
  6
CONTINUOUS
 10
3.2877604499
 20
5.0862316826
 11
3.1715704499
 21
5.0991416826
  0
LINE
  5
3EF
100
AcDbEntity
  8
03__ASM_ALL_CURVES
100
AcDbLine
 62
40
  6
CONTINUOUS
 10
3.2877604499
 20
5.0830041826
 11
3.1715704499
 21
5.0991416826
  0
LINE
  5
3F0
100
AcDbEntity
  8
0
100
AcDbLine
 62
7
  6
CONTINUOUS
 10
6.9825704499
 20
3.7751056826
 11
6.9775704499
 21
3.7801056826
  0
LINE
  5
3F1
100
AcDbEntity
  8
0
100
AcDbLine
 62
7
  6
CONTINUOUS
 10
6.3585704499
 20
4.4506056826
 11
6.3485704499
 21
4.4606056826
  0
LINE
  5
3F2
100
AcDbEntity
  8
03__ASM_ALL_CURVES
100
AcDbLine
 62
40
  6
CONTINUOUS
 10
6.6251091224
 20
3.4872963076
 11
6.6387251381
 21
3.4509869326
  0
LINE
  5
3F3
100
AcDbEntity
  8
03__ASM_ALL_CURVES
100
AcDbLine
 62
40
  6
CONTINUOUS
 10
6.0130888865
 20
5.1620779326
 11
6.007037324
 21
5.1862841826
  0
LINE
  5
3F4
100
AcDbEntity
  8
03__ASM_ALL_CURVES
100
AcDbLine
 62
40
  6
CONTINUOUS
 10
6.5252583412
 20
3.4691416201
 11
6.5207196693
 21
3.4872963076
  0
LINE
  5
3F5
100
AcDbEntity
  8
03__ASM_ALL_CURVES
100
AcDbLine
 62
40
  6
CONTINUOUS
 10
6.5706450599
 20
3.5054509951
 11
6.5751837318
 21
3.4872963076
  0
LINE
  5
3F6
100
AcDbEntity
  8
03__ASM_ALL_CURVES
100
AcDbLine
 62
40
  6
CONTINUOUS
 10
6.406440449
 20
5.1378716826
 11
6.406440449
 21
5.2346966826
  0
LINE
  5
3F7
100
AcDbEntity
  8
03__ASM_ALL_CURVES
100
AcDbLine
 62
40
  6
CONTINUOUS
 10
6.454852949
 20
5.1378716826
 11
6.454852949
 21
5.2346966826
  0
LINE
  5
3F8
100
AcDbEntity
  8
03__ASM_ALL_CURVES
100
AcDbLine
 62
40
  6
CONTINUOUS
 10
6.4571782631
 20
3.4509869326
 11
6.4571782631
 21
3.5236056826
  0
LINE
  5
3F9
100
AcDbEntity
  8
03__ASM_ALL_CURVES
100
AcDbLine
 62
40
  6
CONTINUOUS
 10
6.4639862751
 20
3.4122569326
 11
6.4639862751
 21
3.3396381826
  0
LINE
  5
3FA
100
AcDbEntity
  8
03__ASM_ALL_CURVES
100
AcDbLine
 62
40
  6
CONTINUOUS
 10
6.4934876381
 20
3.5115025562
 11
6.4934876381
 21
3.499399434
  0
LINE
  5
3FB
100
AcDbEntity
  8
03__ASM_ALL_CURVES
100
AcDbLine
 62
40
  6
CONTINUOUS
 10
6.5184503376
 20
3.3396381826
 11
6.5184503376
 21
3.4122569326
  0
LINE
  5
3FC
100
AcDbEntity
  8
03__ASM_ALL_CURVES
100
AcDbLine
 62
40
  6
CONTINUOUS
 10
6.551677949
 20
5.1862841826
 11
6.551677949
 21
5.1540091831
  0
LINE
  5
3FD
100
AcDbEntity
  8
03__ASM_ALL_CURVES
100
AcDbLine
 62
40
  6
CONTINUOUS
 10
6.5547597126
 20
3.3396381826
 11
6.5547597126
 21
3.4122569326
  0
LINE
  5
3FE
100
AcDbEntity
  8
03__ASM_ALL_CURVES
100
AcDbLine
 62
40
  6
CONTINUOUS
 10
7.229452949
 20
5.1620779326
 11
7.217349824
 21
5.1459404328
  0
LINE
  5
3FF
100
AcDbEntity
  8
03__ASM_ALL_CURVES
100
AcDbLine
 62
40
  6
CONTINUOUS
 10
7.423102949
 20
5.2024216845
 11
7.4170513865
 21
5.1943529307
  0
LINE
  5
400
100
AcDbEntity
  8
THREAD
100
AcDbLine
 62
7
  6
CONTINUOUS
 10
6.1705704499
 20
3.7746056826
 11
6.1260704499
 21
3.7301056826
  0
LINE
  5
401
100
AcDbEntity
  8
0
100
AcDbLine
 62
7
  6
CONTINUOUS
 10
6.9825704499
 20
4.4601056826
 11
6.9775704499
 21
4.4551056826
  0
LINE
  5
402
100
AcDbEntity
  8
0
100
AcDbLine
 62
7
  6
CONTINUOUS
 10
6.3585704499
 20
3.7846056826
 11
6.3485704499
 21
3.7746056826
  0
LINE
  5
403
100
AcDbEntity
  8
03__ASM_ALL_CURVES
100
AcDbLine
 62
40
  6
CONTINUOUS
 10
3.2877604499
 20
5.0959141826
 11
3.1715704499
 21
5.0991416826
  0
LINE
  5
404
100
AcDbEntity
  8
03__ASM_ALL_CURVES
100
AcDbLine
 62
40
  6
CONTINUOUS
 10
3.2877604499
 20
5.0926866826
 11
3.1715704499
 21
5.0991416826
  0
LINE
  5
405
100
AcDbEntity
  8
03__ASM_ALL_CURVES
100
AcDbLine
 62
40
  6
CONTINUOUS
 10
3.2877604499
 20
5.0894591826
 11
3.1715704499
 21
5.0991416826
  0
LINE
  5
406
100
AcDbEntity
  8
03__ASM_ALL_CURVES
100
AcDbLine
 62
40
  6
CONTINUOUS
 10
7.3282638086
 20
4.0982406826
 11
7.3373411524
 21
4.0921891215
  0
LINE
  5
407
100
AcDbEntity
  8
03__ASM_ALL_CURVES
100
AcDbLine
 62
40
  6
CONTINUOUS
 10
7.5370427149
 20
4.0256219326
 11
7.5279653711
 21
4.0316734953
  0
LINE
  5
408
100
AcDbEntity
  8
03__ASM_ALL_CURVES
100
AcDbLine
 62
40
  6
CONTINUOUS
 10
7.3918052149
 20
4.1369706826
 11
7.3827278711
 21
4.1430222453
  0
LINE
  5
409
100
AcDbEntity
  8
03__ASM_ALL_CURVES
100
AcDbLine
 62
40
  6
CONTINUOUS
 10
7.4689626367
 20
4.0982406826
 11
7.4780399805
 21
4.0921891215
  0
LINE
  5
40A
100
AcDbEntity
  8
03__ASM_ALL_CURVES
100
AcDbLine
 62
40
  6
CONTINUOUS
 10
5.9283670115
 20
5.1459404328
 11
5.9162638865
 21
5.1620779326
  0
LINE
  5
40B
100
AcDbEntity
  8
03__ASM_ALL_CURVES
100
AcDbLine
 62
40
  6
CONTINUOUS
 10
6.0251920115
 20
5.1459404328
 11
6.0130888865
 21
5.1620779326
  0
LINE
  5
40C
100
AcDbEntity
  8
03__ASM_ALL_CURVES
100
AcDbLine
 62
40
  6
CONTINUOUS
 10
5.9646763865
 20
5.2266279345
 11
5.9767795115
 21
5.2104904326
  0
LINE
  5
40D
100
AcDbEntity
  8
03__ASM_ALL_CURVES
100
AcDbLine
 62
40
  6
CONTINUOUS
 10
6.140171699
 20
5.2346966826
 11
6.1704295115
 21
5.1378716826
  0
LINE
  5
40E
100
AcDbEntity
  8
03__ASM_ALL_CURVES
100
AcDbLine
 62
40
  6
CONTINUOUS
 10
6.5910690876
 20
3.4122569326
 11
6.5910690876
 21
3.3396381826
  0
LINE
  5
40F
100
AcDbEntity
  8
03__ASM_ALL_CURVES
100
AcDbLine
 62
40
  6
CONTINUOUS
 10
6.6024157631
 20
3.4509869326
 11
6.6024157631
 21
3.5236056826
  0
LINE
  5
410
100
AcDbEntity
  8
03__ASM_ALL_CURVES
100
AcDbLine
 62
40
  6
CONTINUOUS
 10
6.6387251381
 20
3.5115025562
 11
6.6387251381
 21
3.499399434
  0
LINE
  5
411
100
AcDbEntity
  8
03__ASM_ALL_CURVES
100
AcDbLine
 62
40
  6
CONTINUOUS
 10
6.6636878376
 20
3.3396381826
 11
6.6636878376
 21
3.4122569326
  0
LINE
  5
412
100
AcDbEntity
  8
03__ASM_ALL_CURVES
100
AcDbLine
 62
40
  6
CONTINUOUS
 10
6.6931892006
 20
3.5236056826
 11
6.6931892006
 21
3.4509869326
  0
LINE
  5
413
100
AcDbEntity
  8
03__ASM_ALL_CURVES
100
AcDbLine
 62
40
  6
CONTINUOUS
 10
6.696915449
 20
5.2185591807
 11
6.696915449
 21
5.2104904326
  0
LINE
  5
414
100
AcDbEntity
  8
0
100
AcDbLine
 62
7
  6
CONTINUOUS
 10
6.7175704499
 20
3.9550150828
 11
6.7175704499
 21
3.9572102955
  0
LINE
  5
415
100
AcDbEntity
  8
0
100
AcDbLine
 62
7
  6
CONTINUOUS
 10
6.7175704499
 20
4.068953488
 11
6.7175704499
 21
4.1662333
  0
LINE
  5
416
100
AcDbEntity
  8
0
100
AcDbLine
 62
7
  6
CONTINUOUS
 10
6.7175704499
 20
4.2780009712
 11
6.7175704499
 21
4.2801964093
  0
LINE
  5
417
100
AcDbEntity
  8
03__ASM_ALL_CURVES
100
AcDbLine
 62
40
  6
CONTINUOUS
 10
6.745327949
 20
5.1701466836
 11
6.745327949
 21
5.1540091831
  0
LINE
  5
418
100
AcDbEntity
  8
03__ASM_ALL_CURVES
100
AcDbLine
 62
40
  6
CONTINUOUS
 10
6.7544612751
 20
3.4122569326
 11
6.7544612751
 21
3.3396381826
  0
LINE
  5
419
100
AcDbEntity
  8
03__ASM_ALL_CURVES
100
AcDbLine
 62
40
  6
CONTINUOUS
 10
6.878462324
 20
5.1862841826
 11
6.8845138865
 21
5.2104904326
  0
LINE
  5
41A
100
AcDbEntity
  8
03__ASM_ALL_CURVES
100
AcDbLine
 62
40
  6
CONTINUOUS
 10
6.5207196693
 20
3.4872963076
 11
6.5252583412
 21
3.5054509951
  0
LINE
  5
41B
100
AcDbEntity
  8
03__ASM_ALL_CURVES
100
AcDbLine
 62
40
  6
CONTINUOUS
 10
6.951081074
 20
5.1862841826
 11
6.9450295115
 21
5.1620779326
  0
LINE
  5
41C
100
AcDbEntity
  8
03__ASM_ALL_CURVES
100
AcDbLine
 62
40
  6
CONTINUOUS
 10
6.5751837318
 20
3.4872963076
 11
6.5706450599
 21
3.4691416201
  0
LINE
  5
41D
100
AcDbEntity
  8
03__ASM_ALL_CURVES
100
AcDbLine
 62
40
  6
CONTINUOUS
 10
7.3373411524
 20
4.1793316187
 11
7.3282638086
 21
4.1732800576
  0
LINE
  5
41E
100
AcDbEntity
  8
03__ASM_ALL_CURVES
100
AcDbLine
 62
40
  6
CONTINUOUS
 10
7.3827278711
 20
4.2035378715
 11
7.3918052149
 21
4.2095894326
  0
LINE
  5
41F
100
AcDbEntity
  8
03__ASM_ALL_CURVES
100
AcDbLine
 62
40
  6
CONTINUOUS
 10
5.5543804499
 20
5.0797766826
 11
5.7867604499
 21
5.1185066826
  0
LINE
  5
420
100
AcDbEntity
  8
03__ASM_ALL_CURVES
100
AcDbLine
 62
40
  6
CONTINUOUS
 10
5.5543804499
 20
5.0830041826
 11
5.7867604499
 21
5.1152791826
  0
LINE
  5
421
100
AcDbEntity
  8
03__ASM_ALL_CURVES
100
AcDbLine
 62
40
  6
CONTINUOUS
 10
5.5543804499
 20
5.0862316826
 11
5.7867604499
 21
5.1120516826
  0
LINE
  5
422
100
AcDbEntity
  8
03__ASM_ALL_CURVES
100
AcDbLine
 62
40
  6
CONTINUOUS
 10
5.5543804499
 20
5.0894591826
 11
5.7867604499
 21
5.1088241826
  0
LINE
  5
423
100
AcDbEntity
  8
03__ASM_ALL_CURVES
100
AcDbLine
 62
40
  6
CONTINUOUS
 10
5.5543804499
 20
5.0926866826
 11
5.7867604499
 21
5.1055966826
  0
LINE
  5
424
100
AcDbEntity
  8
03__ASM_ALL_CURVES
100
AcDbLine
 62
40
  6
CONTINUOUS
 10
3.2877604499
 20
5.1055966826
 11
3.1715704499
 21
5.0991416826
  0
LINE
  5
425
100
AcDbEntity
  8
03__ASM_ALL_CURVES
100
AcDbLine
 62
40
  6
CONTINUOUS
 10
5.5543804499
 20
5.0959141826
 11
5.7867604499
 21
5.1023691826
  0
LINE
  5
426
100
AcDbEntity
  8
03__ASM_ALL_CURVES
100
AcDbLine
 62
40
  6
CONTINUOUS
 10
3.2877604499
 20
5.1023691826
 11
3.1715704499
 21
5.0991416826
  0
LINE
  5
427
100
AcDbEntity
  8
03__ASM_ALL_CURVES
100
AcDbLine
 62
40
  6
CONTINUOUS
 10
3.1715704499
 20
5.0991416826
 11
7.5296104499
 21
5.0991416826
  0
LINE
  5
428
100
AcDbEntity
  8
03__ASM_ALL_CURVES
100
AcDbLine
 62
40
  6
CONTINUOUS
 10
7.326277949
 20
5.1378716826
 11
7.277865449
 21
5.1378716826
  0
LINE
  5
429
100
AcDbEntity
  8
03__ASM_ALL_CURVES
100
AcDbLine
 62
40
  6
CONTINUOUS
 10
7.205246699
 20
5.1378716826
 11
7.181040449
 21
5.1378716826
  0
LINE
  5
42A
100
AcDbEntity
  8
03__ASM_ALL_CURVES
100
AcDbLine
 62
40
  6
CONTINUOUS
 10
7.0176482615
 20
5.1378716826
 11
7.0055451365
 21
5.1378716826
  0
LINE
  5
42B
100
AcDbEntity
  8
03__ASM_ALL_CURVES
100
AcDbLine
 62
40
  6
CONTINUOUS
 10
6.9208232615
 20
5.1378716826
 11
6.9087201365
 21
5.1378716826
  0
LINE
  5
42C
100
AcDbEntity
  8
03__ASM_ALL_CURVES
100
AcDbLine
 62
40
  6
CONTINUOUS
 10
6.7271732615
 20
5.1378716826
 11
6.7150701365
 21
5.1378716826
  0
LINE
  5
42D
100
AcDbEntity
  8
03__ASM_ALL_CURVES
100
AcDbLine
 62
40
  6
CONTINUOUS
 10
6.5335232615
 20
5.1378716826
 11
6.5214201365
 21
5.1378716826
  0
LINE
  5
42E
100
AcDbEntity
  8
03__ASM_ALL_CURVES
100
AcDbLine
 62
40
  6
CONTINUOUS
 10
6.0493982615
 20
5.1378716826
 11
6.0372951365
 21
5.1378716826
  0
LINE
  5
42F
100
AcDbEntity
  8
03__ASM_ALL_CURVES
100
AcDbLine
 62
40
  6
CONTINUOUS
 10
5.9525732615
 20
5.1378716826
 11
5.9404701365
 21
5.1378716826
  0
LINE
  5
430
100
AcDbEntity
  8
03__ASM_ALL_CURVES
100
AcDbLine
 62
40
  6
CONTINUOUS
 10
4.6147204499
 20
5.1378716826
 11
4.6086688874
 21
5.1378716826
  0
LINE
  5
431
100
AcDbEntity
  8
03__ASM_ALL_CURVES
100
AcDbLine
 62
40
  6
CONTINUOUS
 10
4.5239470124
 20
5.1378716826
 11
4.5118438874
 21
5.1378716826
  0
LINE
  5
432
100
AcDbEntity
  8
03__ASM_ALL_CURVES
100
AcDbLine
 62
40
  6
CONTINUOUS
 10
4.0337704499
 20
5.1378716826
 11
4.0277188874
 21
5.1378716826
  0
LINE
  5
433
100
AcDbEntity
  8
03__ASM_ALL_CURVES
100
AcDbLine
 62
40
  6
CONTINUOUS
 10
3.9127391999
 20
5.1378716826
 11
3.9611516999
 21
5.1378716826
  0
LINE
  5
434
100
AcDbEntity
  8
03__ASM_ALL_CURVES
100
AcDbLine
 62
40
  6
CONTINUOUS
 10
4.6873391999
 20
5.1378716826
 11
4.7357516999
 21
5.1378716826
  0
LINE
  5
435
100
AcDbEntity
  8
03__ASM_ALL_CURVES
100
AcDbLine
 62
40
  6
CONTINUOUS
 10
5.825490449
 20
5.1378716826
 11
5.873902949
 21
5.1378716826
  0
LINE
  5
436
100
AcDbEntity
  8
03__ASM_ALL_CURVES
100
AcDbLine
 62
40
  6
CONTINUOUS
 10
7.084215449
 20
5.1378716826
 11
7.132627949
 21
5.1378716826
  0
LINE
  5
437
100
AcDbEntity
  8
03__ASM_ALL_CURVES
100
AcDbLine
 62
40
  6
CONTINUOUS
 10
4.1063891999
 20
5.1620779326
 11
4.1608532624
 21
5.1620779326
  0
LINE
  5
438
100
AcDbEntity
  8
03__ASM_ALL_CURVES
100
AcDbLine
 62
40
  6
CONTINUOUS
 10
4.7841641999
 20
5.1620779326
 11
4.8386282624
 21
5.1620779326
  0
LINE
  5
439
100
AcDbEntity
  8
03__ASM_ALL_CURVES
100
AcDbLine
 62
40
  6
CONTINUOUS
 10
6.1220170115
 20
5.1701466836
 11
6.1583263865
 21
5.1701466836
  0
LINE
  5
43A
100
AcDbEntity
  8
03__ASM_ALL_CURVES
100
AcDbLine
 62
40
  6
CONTINUOUS
 10
7.4049482615
 20
5.1862841826
 11
7.374690449
 21
5.1862841826
  0
LINE
  5
43B
100
AcDbEntity
  8
03__ASM_ALL_CURVES
100
AcDbLine
 62
40
  6
CONTINUOUS
 10
6.527471699
 20
5.1862841826
 11
6.551677949
 21
5.1862841826
  0
LINE
  5
43C
100
AcDbEntity
  8
03__ASM_ALL_CURVES
100
AcDbLine
 62
40
  6
CONTINUOUS
 10
6.793740449
 20
5.1862841826
 11
6.842152949
 21
5.1862841826
  0
LINE
  5
43D
100
AcDbEntity
  8
03__ASM_ALL_CURVES
100
AcDbLine
 62
40
  6
CONTINUOUS
 10
7.277865449
 20
5.1862841826
 11
7.3081232615
 21
5.1862841826
  0
LINE
  5
43E
100
AcDbEntity
  8
03__ASM_ALL_CURVES
100
AcDbLine
 62
40
  6
CONTINUOUS
 10
4.5118438874
 20
5.1943529307
 11
4.5239470124
 21
5.1943529307
  0
LINE
  5
43F
100
AcDbEntity
  8
03__ASM_ALL_CURVES
100
AcDbLine
 62
40
  6
CONTINUOUS
 10
6.7271732615
 20
5.2346966826
 11
6.7150701365
 21
5.2346966826
  0
LINE
  5
440
100
AcDbEntity
  8
03__ASM_ALL_CURVES
100
AcDbLine
 62
40
  6
CONTINUOUS
 10
3.9308938874
 20
5.2346966826
 11
3.9429970124
 21
5.2346966826
  0
LINE
  5
441
100
AcDbEntity
  8
03__ASM_ALL_CURVES
100
AcDbLine
 62
40
  6
CONTINUOUS
 10
4.5118438874
 20
5.2346966826
 11
4.5239470124
 21
5.2346966826
  0
LINE
  5
442
100
AcDbEntity
  8
03__ASM_ALL_CURVES
100
AcDbLine
 62
40
  6
CONTINUOUS
 10
4.7054938874
 20
5.2346966826
 11
4.7175970124
 21
5.2346966826
  0
LINE
  5
443
100
AcDbEntity
  8
03__ASM_ALL_CURVES
100
AcDbLine
 62
40
  6
CONTINUOUS
 10
5.9404701365
 20
5.2346966826
 11
5.9525732615
 21
5.2346966826
  0
LINE
  5
444
100
AcDbEntity
  8
03__ASM_ALL_CURVES
100
AcDbLine
 62
40
  6
CONTINUOUS
 10
6.0372951365
 20
5.2346966826
 11
6.0493982615
 21
5.2346966826
  0
LINE
  5
445
100
AcDbEntity
  8
03__ASM_ALL_CURVES
100
AcDbLine
 62
40
  6
CONTINUOUS
 10
6.2067388865
 20
5.2346966826
 11
6.2672545115
 21
5.2346966826
  0
LINE
  5
446
100
AcDbEntity
  8
03__ASM_ALL_CURVES
100
AcDbLine
 62
40
  6
CONTINUOUS
 10
6.5214201365
 20
5.2346966826
 11
6.5335232615
 21
5.2346966826
  0
LINE
  5
447
100
AcDbEntity
  8
03__ASM_ALL_CURVES
100
AcDbLine
 62
40
  6
CONTINUOUS
 10
6.9087201365
 20
5.2346966826
 11
6.9208232615
 21
5.2346966826
  0
LINE
  5
448
100
AcDbEntity
  8
03__ASM_ALL_CURVES
100
AcDbLine
 62
40
  6
CONTINUOUS
 10
7.181040449
 20
5.2346966826
 11
7.205246699
 21
5.2346966826
  0
LINE
  5
449
100
AcDbEntity
  8
03__ASM_ALL_CURVES
100
AcDbLine
 62
40
  6
CONTINUOUS
 10
7.277865449
 20
5.2346966826
 11
7.326277949
 21
5.2346966826
  0
LINE
  5
44A
100
AcDbEntity
  8
03__ASM_ALL_CURVES
100
AcDbLine
 62
40
  6
CONTINUOUS
 10
7.374690449
 20
5.2346966826
 11
7.4049482615
 21
5.2346966826
  0
LINE
  5
44B
100
AcDbEntity
  8
03__ASM_ALL_CURVES
100
AcDbLine
 62
40
  6
CONTINUOUS
 10
5.5543804499
 20
5.1023691826
 11
5.7867604499
 21
5.0959141826
  0
LINE
  5
44C
100
AcDbEntity
  8
03__ASM_ALL_CURVES
100
AcDbLine
 62
40
  6
CONTINUOUS
 10
5.5543804499
 20
5.1055966826
 11
5.7867604499
 21
5.0926866826
  0
LINE
  5
44D
100
AcDbEntity
  8
03__ASM_ALL_CURVES
100
AcDbLine
 62
40
  6
CONTINUOUS
 10
5.5543804499
 20
5.1088241826
 11
5.7867604499
 21
5.0894591826
  0
LINE
  5
44E
100
AcDbEntity
  8
03__ASM_ALL_CURVES
100
AcDbLine
 62
40
  6
CONTINUOUS
 10
5.5543804499
 20
5.1120516826
 11
5.7867604499
 21
5.0862316826
  0
LINE
  5
44F
100
AcDbEntity
  8
03__ASM_ALL_CURVES
100
AcDbLine
 62
40
  6
CONTINUOUS
 10
5.5543804499
 20
5.1152791826
 11
5.7867604499
 21
5.0830041826
  0
LINE
  5
450
100
AcDbEntity
  8
03__ASM_ALL_CURVES
100
AcDbLine
 62
40
  6
CONTINUOUS
 10
5.7867604499
 20
5.0797766826
 11
5.5543804499
 21
5.1185066826
  0
LINE
  5
451
100
AcDbEntity
  8
03__ASM_ALL_CURVES
100
AcDbLine
 62
40
  6
CONTINUOUS
 10
7.3282638086
 20
4.2095894326
 11
7.3373411524
 21
4.2035378715
  0
LINE
  5
452
100
AcDbEntity
  8
03__ASM_ALL_CURVES
100
AcDbLine
 62
40
  6
CONTINUOUS
 10
5.9404701365
 20
5.1378716826
 11
5.9283670115
 21
5.1459404328
  0
LINE
  5
453
100
AcDbEntity
  8
03__ASM_ALL_CURVES
100
AcDbLine
 62
40
  6
CONTINUOUS
 10
7.6096614649
 20
4.0256219326
 11
7.6005841211
 21
4.0316734953
  0
LINE
  5
454
100
AcDbEntity
  8
03__ASM_ALL_CURVES
100
AcDbLine
 62
40
  6
CONTINUOUS
 10
7.4008825586
 20
4.2095894326
 11
7.4099599024
 21
4.2035378715
  0
LINE
  5
455
100
AcDbEntity
  8
03__ASM_ALL_CURVES
100
AcDbLine
 62
40
  6
CONTINUOUS
 10
6.0372951365
 20
5.1378716826
 11
6.0251920115
 21
5.1459404328
  0
LINE
  5
456
100
AcDbEntity
  8
03__ASM_ALL_CURVES
100
AcDbLine
 62
40
  6
CONTINUOUS
 10
7.6187388086
 20
4.0982406826
 11
7.6278161524
 21
4.0921891215
  0
LINE
  5
457
100
AcDbEntity
  8
03__ASM_ALL_CURVES
100
AcDbLine
 62
40
  6
CONTINUOUS
 10
7.4735013086
 20
4.2095894326
 11
7.4825786524
 21
4.2035378715
  0
LINE
  5
458
100
AcDbEntity
  8
03__ASM_ALL_CURVES
100
AcDbLine
 62
40
  6
CONTINUOUS
 10
5.9525732615
 20
5.2346966826
 11
5.9646763865
 21
5.2266279345
  0
LINE
  5
459
100
AcDbEntity
  8
03__ASM_ALL_CURVES
100
AcDbLine
 62
40
  6
CONTINUOUS
 10
6.0493982615
 20
5.2346966826
 11
6.0615013865
 21
5.2266279345
  0
LINE
  5
45A
100
AcDbEntity
  8
03__ASM_ALL_CURVES
100
AcDbLine
 62
40
  6
CONTINUOUS
 10
7.7594376367
 20
4.0982406826
 11
7.7685149805
 21
4.0921891215
  0
LINE
  5
45B
100
AcDbEntity
  8
0
100
AcDbLine
 62
7
  6
CONTINUOUS
 10
6.8365704499
 20
4.4551056826
 11
6.8315704499
 21
4.4601056826
  0
LINE
  5
45C
100
AcDbEntity
  8
03__ASM_ALL_CURVES
100
AcDbLine
 62
40
  6
CONTINUOUS
 10
6.0615013865
 20
5.2266279345
 11
6.067552949
 21
5.2185591807
  0
LINE
  5
45D
100
AcDbEntity
  8
03__ASM_ALL_CURVES
100
AcDbLine
 62
40
  6
CONTINUOUS
 10
6.4972138865
 20
5.1620779326
 11
6.491162324
 21
5.1862841826
  0
LINE
  5
45E
100
AcDbEntity
  8
0
100
AcDbLine
 62
7
  6
CONTINUOUS
 10
6.7635704499
 20
3.7801056826
 11
6.7635704499
 21
4.4551056826
  0
LINE
  5
45F
100
AcDbEntity
  8
0
100
AcDbLine
 62
7
  6
CONTINUOUS
 10
6.7685704499
 20
3.7751056826
 11
6.7685704499
 21
4.4601056826
  0
LINE
  5
460
100
AcDbEntity
  8
03__ASM_ALL_CURVES
100
AcDbLine
 62
40
  6
CONTINUOUS
 10
6.7839626381
 20
3.5115025562
 11
6.7839626381
 21
3.499399434
  0
LINE
  5
461
100
AcDbEntity
  8
03__ASM_ALL_CURVES
100
AcDbLine
 62
40
  6
CONTINUOUS
 10
6.793740449
 20
5.2346966826
 11
6.793740449
 21
5.1378716826
  0
LINE
  5
462
100
AcDbEntity
  8
0
100
AcDbLine
 62
7
  6
CONTINUOUS
 10
6.8315704499
 20
3.7751056826
 11
6.8315704499
 21
4.4601056826
  0
LINE
  5
463
100
AcDbEntity
  8
0
100
AcDbLine
 62
7
  6
CONTINUOUS
 10
6.8365704499
 20
3.7801056826
 11
6.8365704499
 21
4.4551056826
  0
LINE
  5
464
100
AcDbEntity
  8
03__ASM_ALL_CURVES
100
AcDbLine
 62
40
  6
CONTINUOUS
 10
6.842152949
 20
5.2346966826
 11
6.842152949
 21
5.1378716826
  0
LINE
  5
465
100
AcDbEntity
  8
0
100
AcDbLine
 62
7
  6
CONTINUOUS
 10
6.9065704499
 20
3.7756062026
 11
6.9065704499
 21
4.4596051626
  0
LINE
  5
466
100
AcDbEntity
  8
03__ASM_ALL_CURVES
100
AcDbLine
 62
40
  6
CONTINUOUS
 10
6.7521919349
 20
3.4691416201
 11
6.7476532631
 21
3.4509869326
  0
LINE
  5
467
100
AcDbEntity
  8
03__ASM_ALL_CURVES
100
AcDbLine
 62
40
  6
CONTINUOUS
 10
6.4934876381
 20
3.499399434
 11
6.4889489662
 21
3.4933478687
  0
LINE
  5
468
100
AcDbEntity
  8
03__ASM_ALL_CURVES
100
AcDbLine
 62
40
  6
CONTINUOUS
 10
6.5252583412
 20
3.5054509951
 11
6.5343356849
 21
3.5175541215
  0
LINE
  5
469
100
AcDbEntity
  8
03__ASM_ALL_CURVES
100
AcDbLine
 62
40
  6
CONTINUOUS
 10
6.5706450599
 20
3.4691416201
 11
6.5615677162
 21
3.4570384953
  0
LINE
  5
46A
100
AcDbEntity
  8
03__ASM_ALL_CURVES
100
AcDbLine
 62
40
  6
CONTINUOUS
 10
6.6387251381
 20
3.499399434
 11
6.6341864662
 21
3.4933478687
  0
LINE
  5
46B
100
AcDbEntity
  8
0
100
AcDbLine
 62
7
  6
CONTINUOUS
 10
6.8365704499
 20
3.7801056826
 11
6.8315704499
 21
3.7751056826
  0
LINE
  5
46C
100
AcDbEntity
  8
03__ASM_ALL_CURVES
100
AcDbLine
 62
40
  6
CONTINUOUS
 10
7.4099599024
 20
4.1430222453
 11
7.4008825586
 21
4.1369706826
  0
LINE
  5
46D
100
AcDbEntity
  8
03__ASM_ALL_CURVES
100
AcDbLine
 62
40
  6
CONTINUOUS
 10
7.4825786524
 20
4.1793316187
 11
7.4735013086
 21
4.1732800576
  0
LINE
  5
46E
100
AcDbEntity
  8
03__ASM_ALL_CURVES
100
AcDbLine
 62
40
  6
CONTINUOUS
 10
7.3373411524
 20
4.0679828687
 11
7.3282638086
 21
4.0619313076
  0
LINE
  5
46F
100
AcDbEntity
  8
03__ASM_ALL_CURVES
100
AcDbLine
 62
40
  6
CONTINUOUS
 10
6.4889489662
 20
3.4933478687
 11
6.4798716224
 21
3.4872963076
  0
LINE
  5
470
100
AcDbEntity
  8
03__ASM_ALL_CURVES
100
AcDbLine
 62
40
  6
CONTINUOUS
 10
6.5343356849
 20
3.5175541215
 11
6.5434130287
 21
3.5236056826
  0
LINE
  5
471
100
AcDbEntity
  8
03__ASM_ALL_CURVES
100
AcDbLine
 62
40
  6
CONTINUOUS
 10
6.5615677162
 20
3.4570384953
 11
6.5524903724
 21
3.4509869326
  0
LINE
  5
472
100
AcDbEntity
  8
03__ASM_ALL_CURVES
100
AcDbLine
 62
40
  6
CONTINUOUS
 10
6.6341864662
 20
3.4933478687
 11
6.6251091224
 21
3.4872963076
  0
LINE
  5
473
100
AcDbEntity
  8
03__ASM_ALL_CURVES
100
AcDbLine
 62
40
  6
CONTINUOUS
 10
7.4780399805
 20
4.0316734953
 11
7.4689626367
 21
4.0256219326
  0
LINE
  5
474
100
AcDbEntity
  8
03__ASM_ALL_CURVES
100
AcDbLine
 62
40
  6
CONTINUOUS
 10
3.2877604499
 20
5.1120516826
 11
3.1715704499
 21
5.0991416826
  0
LINE
  5
475
100
AcDbEntity
  8
03__ASM_ALL_CURVES
100
AcDbLine
 62
40
  6
CONTINUOUS
 10
3.2877604499
 20
5.1088241826
 11
3.1715704499
 21
5.0991416826
  0
LINE
  5
476
100
AcDbEntity
  8
03__ASM_ALL_CURVES
100
AcDbLine
 62
40
  6
CONTINUOUS
 10
7.9092138086
 20
4.0982406826
 11
7.9182911524
 21
4.0921891215
  0
LINE
  5
477
100
AcDbEntity
  8
03__ASM_ALL_CURVES
100
AcDbLine
 62
40
  6
CONTINUOUS
 10
7.9818325586
 20
4.0982406826
 11
7.9909099024
 21
4.0921891215
  0
LINE
  5
478
100
AcDbEntity
  8
03__ASM_ALL_CURVES
100
AcDbLine
 62
40
  6
CONTINUOUS
 10
8.1179927149
 20
4.0256219326
 11
8.1089153711
 21
4.0316734953
  0
LINE
  5
479
100
AcDbEntity
  8
03__ASM_ALL_CURVES
100
AcDbLine
 62
40
  6
CONTINUOUS
 10
8.1089153711
 20
4.074034434
 11
8.1361474024
 21
4.0558797444
  0
LINE
  5
47A
100
AcDbEntity
  8
03__ASM_ALL_CURVES
100
AcDbLine
 62
40
  6
CONTINUOUS
 10
6.5214201365
 20
5.1378716826
 11
6.5093170115
 21
5.1459404328
  0
LINE
  5
47B
100
AcDbEntity
  8
03__ASM_ALL_CURVES
100
AcDbLine
 62
40
  6
CONTINUOUS
 10
8.1906114649
 20
4.0256219326
 11
8.1815341211
 21
4.0316734953
  0
LINE
  5
47C
100
AcDbEntity
  8
03__ASM_ALL_CURVES
100
AcDbLine
 62
40
  6
CONTINUOUS
 10
8.1361474024
 20
4.0921891215
 11
8.1270700586
 21
4.0982406826
  0
LINE
  5
47D
100
AcDbEntity
  8
03__ASM_ALL_CURVES
100
AcDbLine
 62
40
  6
CONTINUOUS
 10
8.1815341211
 20
4.074034434
 11
8.2087661524
 21
4.0558797444
  0
LINE
  5
47E
100
AcDbEntity
  8
0
100
AcDbLine
 62
7
  6
CONTINUOUS
 10
7.0445704499
 20
4.4451056826
 11
7.0295704499
 21
4.4601056826
  0
LINE
  5
47F
100
AcDbEntity
  8
03__ASM_ALL_CURVES
100
AcDbLine
 62
40
  6
CONTINUOUS
 10
6.5093170115
 20
5.1459404328
 11
6.4972138865
 21
5.1620779326
  0
LINE
  5
480
100
AcDbEntity
  8
03__ASM_ALL_CURVES
100
AcDbLine
 62
40
  6
CONTINUOUS
 10
7.3373411524
 20
4.0921891215
 11
7.3418798242
 21
4.0861375562
  0
LINE
  5
481
100
AcDbEntity
  8
03__ASM_ALL_CURVES
100
AcDbLine
 62
40
  6
CONTINUOUS
 10
6.406440449
 20
5.2346966826
 11
6.454852949
 21
5.1378716826
  0
LINE
  5
482
100
AcDbEntity
  8
0
100
AcDbLine
 62
7
  6
CONTINUOUS
 10
6.9565704499
 20
3.7756062026
 11
6.9565704499
 21
4.4596051626
  0
LINE
  5
483
100
AcDbEntity
  8
0
100
AcDbLine
 62
7
  6
CONTINUOUS
 10
6.9775704499
 20
3.7801056826
 11
6.9775704499
 21
4.4551056826
  0
LINE
  5
484
100
AcDbEntity
  8
0
100
AcDbLine
 62
7
  6
CONTINUOUS
 10
6.9825704499
 20
3.7751056826
 11
6.9825704499
 21
4.4601056826
  0
LINE
  5
485
100
AcDbEntity
  8
03__ASM_ALL_CURVES
100
AcDbLine
 62
40
  6
CONTINUOUS
 10
6.987390449
 20
5.1540091831
 11
6.987390449
 21
5.2346966826
  0
LINE
  5
486
100
AcDbEntity
  8
0
100
AcDbLine
 62
7
  6
CONTINUOUS
 10
7.0295704499
 20
3.7751056826
 11
7.0295704499
 21
4.4601056826
  0
LINE
  5
487
100
AcDbEntity
  8
03__ASM_ALL_CURVES
100
AcDbLine
 62
40
  6
CONTINUOUS
 10
7.035802949
 20
5.2346966826
 11
7.035802949
 21
5.1540091831
  0
LINE
  5
488
100
AcDbEntity
  8
0
100
AcDbLine
 62
7
  6
CONTINUOUS
 10
7.0445704499
 20
3.7901114068
 11
7.0445704499
 21
4.4450999584
  0
LINE
  5
489
100
AcDbEntity
  8
03__ASM_ALL_CURVES
100
AcDbLine
 62
40
  6
CONTINUOUS
 10
7.084215449
 20
5.2346966826
 11
7.084215449
 21
5.1378716826
  0
LINE
  5
48A
100
AcDbEntity
  8
03__ASM_ALL_CURVES
100
AcDbLine
 62
40
  6
CONTINUOUS
 10
7.2355045115
 20
5.1862841826
 11
7.229452949
 21
5.1620779326
  0
LINE
  5
48B
100
AcDbEntity
  8
03__ASM_ALL_CURVES
100
AcDbLine
 62
40
  6
CONTINUOUS
 10
6.7476532631
 20
3.5115025562
 11
6.7521919349
 21
3.5175541215
  0
LINE
  5
48C
100
AcDbEntity
  8
03__ASM_ALL_CURVES
100
AcDbLine
 62
40
  6
CONTINUOUS
 10
6.7612692787
 20
3.4812447444
 11
6.7521919349
 21
3.4691416201
  0
LINE
  5
48D
100
AcDbEntity
  8
03__ASM_ALL_CURVES
100
AcDbLine
 62
40
  6
CONTINUOUS
 10
6.7839626381
 20
3.499399434
 11
6.7794239662
 21
3.4933478687
  0
LINE
  5
48E
100
AcDbEntity
  8
03__ASM_ALL_CURVES
100
AcDbLine
 62
40
  6
CONTINUOUS
 10
7.3418798242
 20
4.185383184
 11
7.3373411524
 21
4.1793316187
  0
LINE
  5
48F
100
AcDbEntity
  8
03__ASM_ALL_CURVES
100
AcDbLine
 62
40
  6
CONTINUOUS
 10
7.3736505274
 20
4.1914347451
 11
7.3827278711
 21
4.2035378715
  0
LINE
  5
490
100
AcDbEntity
  8
0
100
AcDbLine
 62
7
  6
CONTINUOUS
 10
7.0445704499
 20
3.7901056826
 11
7.0295704499
 21
3.7751056826
  0
LINE
  5
491
100
AcDbEntity
  8
03__ASM_ALL_CURVES
100
AcDbLine
 62
40
  6
CONTINUOUS
 10
7.6005841211
 20
4.0921891215
 11
7.6096614649
 21
4.0982406826
  0
LINE
  5
492
100
AcDbEntity
  8
03__ASM_ALL_CURVES
100
AcDbLine
 62
40
  6
CONTINUOUS
 10
6.7521919349
 20
3.5175541215
 11
6.7612692787
 21
3.5236056826
  0
LINE
  5
493
100
AcDbEntity
  8
03__ASM_ALL_CURVES
100
AcDbLine
 62
40
  6
CONTINUOUS
 10
7.5551974024
 20
4.0316734953
 11
7.5461200586
 21
4.0256219326
  0
LINE
  5
494
100
AcDbEntity
  8
03__ASM_ALL_CURVES
100
AcDbLine
 62
40
  6
CONTINUOUS
 10
6.7794239662
 20
3.4933478687
 11
6.7612692787
 21
3.4812447444
  0
LINE
  5
495
100
AcDbEntity
  8
03__ASM_ALL_CURVES
100
AcDbLine
 62
40
  6
CONTINUOUS
 10
7.6278161524
 20
4.0316734953
 11
7.6187388086
 21
4.0256219326
  0
LINE
  5
496
100
AcDbEntity
  8
03__ASM_ALL_CURVES
100
AcDbLine
 62
40
  6
CONTINUOUS
 10
7.7685149805
 20
4.0316734953
 11
7.7594376367
 21
4.0256219326
  0
LINE
  5
497
100
AcDbEntity
  8
03__ASM_ALL_CURVES
100
AcDbLine
 62
40
  6
CONTINUOUS
 10
3.1715704499
 20
5.0991416826
 11
3.2877604499
 21
5.1185066826
  0
LINE
  5
498
100
AcDbEntity
  8
03__ASM_ALL_CURVES
100
AcDbLine
 62
40
  6
CONTINUOUS
 10
3.2877604499
 20
5.1152791826
 11
3.1715704499
 21
5.0991416826
  0
LINE
  5
499
100
AcDbEntity
  8
03__ASM_ALL_CURVES
100
AcDbLine
 62
40
  6
CONTINUOUS
 10
8.2632302149
 20
4.0256219326
 11
8.2541528711
 21
4.0316734953
  0
LINE
  5
49A
100
AcDbEntity
  8
03__ASM_ALL_CURVES
100
AcDbLine
 62
40
  6
CONTINUOUS
 10
8.2087661524
 20
4.0921891215
 11
8.1996888086
 21
4.0982406826
  0
LINE
  5
49B
100
AcDbEntity
  8
03__ASM_ALL_CURVES
100
AcDbLine
 62
40
  6
CONTINUOUS
 10
6.5335232615
 20
5.2346966826
 11
6.5456263865
 21
5.2266279345
  0
LINE
  5
49C
100
AcDbEntity
  8
03__ASM_ALL_CURVES
100
AcDbLine
 62
40
  6
CONTINUOUS
 10
6.7150701365
 20
5.1378716826
 11
6.7029670115
 21
5.1459404328
  0
LINE
  5
49D
100
AcDbEntity
  8
03__ASM_ALL_CURVES
100
AcDbLine
 62
40
  6
CONTINUOUS
 10
8.3449263086
 20
4.0982406826
 11
8.3540036524
 21
4.0921891215
  0
LINE
  5
49E
100
AcDbEntity
  8
03__ASM_ALL_CURVES
100
AcDbLine
 62
40
  6
CONTINUOUS
 10
6.7029670115
 20
5.2024216845
 11
6.7392763865
 21
5.1782154316
  0
LINE
  5
49F
100
AcDbEntity
  8
03__ASM_ALL_CURVES
100
AcDbLine
 62
40
  6
CONTINUOUS
 10
6.7392763865
 20
5.2266279345
 11
6.7271732615
 21
5.2346966826
  0
LINE
  5
4A0
100
AcDbEntity
  8
03__ASM_ALL_CURVES
100
AcDbLine
 62
40
  6
CONTINUOUS
 10
6.9087201365
 20
5.1378716826
 11
6.8966170115
 21
5.1459404328
  0
LINE
  5
4A1
100
AcDbEntity
  8
03__ASM_ALL_CURVES
100
AcDbLine
 62
40
  6
CONTINUOUS
 10
6.5456263865
 20
5.2266279345
 11
6.551677949
 21
5.2185591807
  0
LINE
  5
4A2
100
AcDbEntity
  8
03__ASM_ALL_CURVES
100
AcDbLine
 62
40
  6
CONTINUOUS
 10
7.3827278711
 20
4.1430222453
 11
7.3736505274
 21
4.1551253701
  0
LINE
  5
4A3
100
AcDbEntity
  8
03__ASM_ALL_CURVES
100
AcDbLine
 62
40
  6
CONTINUOUS
 10
7.3373411524
 20
4.2035378715
 11
7.3418798242
 21
4.1974863062
  0
LINE
  5
4A4
100
AcDbEntity
  8
03__ASM_ALL_CURVES
100
AcDbLine
 62
40
  6
CONTINUOUS
 10
7.4780399805
 20
4.0921891215
 11
7.4871173242
 21
4.0800859951
  0
LINE
  5
4A5
100
AcDbEntity
  8
03__ASM_ALL_CURVES
100
AcDbLine
 62
40
  6
CONTINUOUS
 10
7.5279653711
 20
4.0316734953
 11
7.5234266992
 21
4.037725058
  0
LINE
  5
4A6
100
AcDbEntity
  8
03__ASM_ALL_CURVES
100
AcDbLine
 62
40
  6
CONTINUOUS
 10
6.7029670115
 20
5.1459404328
 11
6.6908638865
 21
5.1620779326
  0
LINE
  5
4A7
100
AcDbEntity
  8
03__ASM_ALL_CURVES
100
AcDbLine
 62
40
  6
CONTINUOUS
 10
7.4099599024
 20
4.2035378715
 11
7.4190372461
 21
4.1914347451
  0
LINE
  5
4A8
100
AcDbEntity
  8
03__ASM_ALL_CURVES
100
AcDbLine
 62
40
  6
CONTINUOUS
 10
6.696915449
 20
5.2104904326
 11
6.7029670115
 21
5.2024216845
  0
LINE
  5
4A9
100
AcDbEntity
  8
03__ASM_ALL_CURVES
100
AcDbLine
 62
40
  6
CONTINUOUS
 10
6.7392763865
 20
5.1782154316
 11
6.745327949
 21
5.1701466836
  0
LINE
  5
4AA
100
AcDbEntity
  8
03__ASM_ALL_CURVES
100
AcDbLine
 62
40
  6
CONTINUOUS
 10
7.6005841211
 20
4.0316734953
 11
7.5915067774
 21
4.0437766201
  0
LINE
  5
4AB
100
AcDbEntity
  8
03__ASM_ALL_CURVES
100
AcDbLine
 62
40
  6
CONTINUOUS
 10
7.4825786524
 20
4.2035378715
 11
7.4871173242
 21
4.1974863062
  0
LINE
  5
4AC
100
AcDbEntity
  8
03__ASM_ALL_CURVES
100
AcDbLine
 62
40
  6
CONTINUOUS
 10
6.745327949
 20
5.2185591807
 11
6.7392763865
 21
5.2266279345
  0
LINE
  5
4AD
100
AcDbEntity
  8
03__ASM_ALL_CURVES
100
AcDbLine
 62
40
  6
CONTINUOUS
 10
6.8845138865
 20
5.1620779326
 11
6.878462324
 21
5.1862841826
  0
LINE
  5
4AE
100
AcDbEntity
  8
03__ASM_ALL_CURVES
100
AcDbLine
 62
40
  6
CONTINUOUS
 10
7.181040449
 20
5.1378716826
 11
7.181040449
 21
5.2346966826
  0
LINE
  5
4AF
100
AcDbEntity
  8
03__ASM_ALL_CURVES
100
AcDbLine
 62
40
  6
CONTINUOUS
 10
7.277865449
 20
5.1378716826
 11
7.277865449
 21
5.2346966826
  0
LINE
  5
4B0
100
AcDbEntity
  8
03__ASM_ALL_CURVES
100
AcDbLine
 62
40
  6
CONTINUOUS
 10
7.3055704492
 20
4.0256219326
 11
7.3055704492
 21
4.0982406826
  0
LINE
  5
4B1
100
AcDbEntity
  8
03__ASM_ALL_CURVES
100
AcDbLine
 62
40
  6
CONTINUOUS
 10
7.3055704492
 20
4.1369706826
 11
7.3055704492
 21
4.2095894326
  0
LINE
  5
4B2
100
AcDbEntity
  8
03__ASM_ALL_CURVES
100
AcDbLine
 62
40
  6
CONTINUOUS
 10
7.3418798242
 20
4.074034434
 11
7.3373411524
 21
4.0679828687
  0
LINE
  5
4B3
100
AcDbEntity
  8
03__ASM_ALL_CURVES
100
AcDbLine
 62
40
  6
CONTINUOUS
 10
7.4190372461
 20
4.1551253701
 11
7.4099599024
 21
4.1430222453
  0
LINE
  5
4B4
100
AcDbEntity
  8
03__ASM_ALL_CURVES
100
AcDbLine
 62
40
  6
CONTINUOUS
 10
7.4871173242
 20
4.185383184
 11
7.4825786524
 21
4.1793316187
  0
LINE
  5
4B5
100
AcDbEntity
  8
03__ASM_ALL_CURVES
100
AcDbLine
 62
40
  6
CONTINUOUS
 10
7.4871173242
 20
4.0437766201
 11
7.4780399805
 21
4.0316734953
  0
LINE
  5
4B6
100
AcDbEntity
  8
03__ASM_ALL_CURVES
100
AcDbLine
 62
40
  6
CONTINUOUS
 10
7.9182911524
 20
4.0679828687
 11
7.9092138086
 21
4.0619313076
  0
LINE
  5
4B7
100
AcDbEntity
  8
03__ASM_ALL_CURVES
100
AcDbLine
 62
40
  6
CONTINUOUS
 10
7.9909099024
 20
4.0679828687
 11
7.9818325586
 21
4.0619313076
  0
LINE
  5
4B8
100
AcDbEntity
  8
03__ASM_ALL_CURVES
100
AcDbLine
 62
40
  6
CONTINUOUS
 10
8.1179927149
 20
4.0982406826
 11
8.1089153711
 21
4.0921891215
  0
LINE
  5
4B9
100
AcDbEntity
  8
03__ASM_ALL_CURVES
100
AcDbLine
 62
40
  6
CONTINUOUS
 10
8.1906114649
 20
4.0982406826
 11
8.1815341211
 21
4.0921891215
  0
LINE
  5
4BA
100
AcDbEntity
  8
03__ASM_ALL_CURVES
100
AcDbLine
 62
40
  6
CONTINUOUS
 10
8.1361474024
 20
4.0316734953
 11
8.1270700586
 21
4.0256219326
  0
LINE
  5
4BB
100
AcDbEntity
  8
03__ASM_ALL_CURVES
100
AcDbLine
 62
40
  6
CONTINUOUS
 10
7.0055451365
 20
5.1378716826
 11
6.9934420115
 21
5.1459404328
  0
LINE
  5
4BC
100
AcDbEntity
  8
03__ASM_ALL_CURVES
100
AcDbLine
 62
40
  6
CONTINUOUS
 10
6.9208232615
 20
5.2346966826
 11
6.9329263865
 21
5.2266279345
  0
LINE
  5
4BD
100
AcDbEntity
  8
03__ASM_ALL_CURVES
100
AcDbLine
 62
40
  6
CONTINUOUS
 10
7.6278161524
 20
4.0921891215
 11
7.6323548242
 21
4.0861375562
  0
LINE
  5
4BE
100
AcDbEntity
  8
03__ASM_ALL_CURVES
100
AcDbLine
 62
40
  6
CONTINUOUS
 10
6.8966170115
 20
5.1459404328
 11
6.8845138865
 21
5.1620779326
  0
LINE
  5
4BF
100
AcDbEntity
  8
03__ASM_ALL_CURVES
100
AcDbLine
 62
40
  6
CONTINUOUS
 10
7.7685149805
 20
4.0921891215
 11
7.7775923242
 21
4.0800859951
  0
LINE
  5
4C0
100
AcDbEntity
  8
03__ASM_ALL_CURVES
100
AcDbLine
 62
40
  6
CONTINUOUS
 10
6.9329263865
 20
5.2266279345
 11
6.9450295115
 21
5.2104904326
  0
LINE
  5
4C1
100
AcDbEntity
  8
03__ASM_ALL_CURVES
100
AcDbLine
 62
40
  6
CONTINUOUS
 10
6.9934420115
 20
5.1459404328
 11
6.987390449
 21
5.1540091831
  0
LINE
  5
4C2
100
AcDbEntity
  8
03__ASM_ALL_CURVES
100
AcDbLine
 62
40
  6
CONTINUOUS
 10
7.3282638086
 20
4.0619313076
 11
7.3418798242
 21
4.0256219326
  0
LINE
  5
4C3
100
AcDbEntity
  8
03__ASM_ALL_CURVES
100
AcDbLine
 62
40
  6
CONTINUOUS
 10
6.9450295115
 20
5.2104904326
 11
6.951081074
 21
5.1862841826
  0
LINE
  5
4C4
100
AcDbEntity
  8
03__ASM_ALL_CURVES
100
AcDbLine
 62
40
  6
CONTINUOUS
 10
7.3736505274
 20
4.1551253701
 11
7.3691118555
 21
4.1732800576
  0
LINE
  5
4C5
100
AcDbEntity
  8
03__ASM_ALL_CURVES
100
AcDbLine
 62
40
  6
CONTINUOUS
 10
7.3418798242
 20
4.1974863062
 11
7.3418798242
 21
4.185383184
  0
LINE
  5
4C6
100
AcDbEntity
  8
03__ASM_ALL_CURVES
100
AcDbLine
 62
40
  6
CONTINUOUS
 10
7.3418798242
 20
4.0861375562
 11
7.3418798242
 21
4.074034434
  0
LINE
  5
4C7
100
AcDbEntity
  8
03__ASM_ALL_CURVES
100
AcDbLine
 62
40
  6
CONTINUOUS
 10
7.374690449
 20
5.1378716826
 11
7.374690449
 21
5.2346966826
  0
LINE
  5
4C8
100
AcDbEntity
  8
03__ASM_ALL_CURVES
100
AcDbLine
 62
40
  6
CONTINUOUS
 10
7.3781891992
 20
4.0256219326
 11
7.3781891992
 21
4.0982406826
  0
LINE
  5
4C9
100
AcDbEntity
  8
03__ASM_ALL_CURVES
100
AcDbLine
 62
40
  6
CONTINUOUS
 10
7.423102949
 20
5.2185591807
 11
7.423102949
 21
5.2024216845
  0
LINE
  5
4CA
100
AcDbEntity
  8
03__ASM_ALL_CURVES
100
AcDbLine
 62
40
  6
CONTINUOUS
 10
7.4508079492
 20
4.0256219326
 11
7.4508079492
 21
4.0982406826
  0
LINE
  5
4CB
100
AcDbEntity
  8
03__ASM_ALL_CURVES
100
AcDbLine
 62
40
  6
CONTINUOUS
 10
7.4508079492
 20
4.1369706826
 11
7.4508079492
 21
4.2095894326
  0
LINE
  5
4CC
100
AcDbEntity
  8
03__ASM_ALL_CURVES
100
AcDbLine
 62
40
  6
CONTINUOUS
 10
7.4871173242
 20
4.1974863062
 11
7.4871173242
 21
4.185383184
  0
LINE
  5
4CD
100
AcDbEntity
  8
03__ASM_ALL_CURVES
100
AcDbLine
 62
40
  6
CONTINUOUS
 10
7.3691118555
 20
4.1732800576
 11
7.3736505274
 21
4.1914347451
  0
LINE
  5
4CE
100
AcDbEntity
  8
03__ASM_ALL_CURVES
100
AcDbLine
 62
40
  6
CONTINUOUS
 10
7.423575918
 20
4.1732800576
 11
7.4190372461
 21
4.1551253701
  0
LINE
  5
4CF
100
AcDbEntity
  8
03__ASM_ALL_CURVES
100
AcDbLine
 62
40
  6
CONTINUOUS
 10
7.4916559961
 20
4.0619313076
 11
7.4871173242
 21
4.0437766201
  0
LINE
  5
4D0
100
AcDbEntity
  8
03__ASM_ALL_CURVES
100
AcDbLine
 62
40
  6
CONTINUOUS
 10
7.5597360742
 20
4.037725058
 11
7.5551974024
 21
4.0316734953
  0
LINE
  5
4D1
100
AcDbEntity
  8
03__ASM_ALL_CURVES
100
AcDbLine
 62
40
  6
CONTINUOUS
 10
7.5915067774
 20
4.0800859951
 11
7.6005841211
 21
4.0921891215
  0
LINE
  5
4D2
100
AcDbEntity
  8
03__ASM_ALL_CURVES
100
AcDbLine
 62
40
  6
CONTINUOUS
 10
7.6323548242
 20
4.037725058
 11
7.6278161524
 21
4.0316734953
  0
LINE
  5
4D3
100
AcDbEntity
  8
03__ASM_ALL_CURVES
100
AcDbLine
 62
40
  6
CONTINUOUS
 10
8.2087661524
 20
4.0316734953
 11
8.1996888086
 21
4.0256219326
  0
LINE
  5
4D4
100
AcDbEntity
  8
03__ASM_ALL_CURVES
100
AcDbLine
 62
40
  6
CONTINUOUS
 10
8.2813849024
 20
4.0316734953
 11
8.2723075586
 21
4.0256219326
  0
LINE
  5
4D5
100
AcDbEntity
  8
03__ASM_ALL_CURVES
100
AcDbLine
 62
40
  6
CONTINUOUS
 10
8.3540036524
 20
4.0679828687
 11
8.3449263086
 21
4.0619313076
  0
LINE
  5
4D6
100
AcDbEntity
  8
03__ASM_ALL_CURVES
100
AcDbLine
 62
40
  6
CONTINUOUS
 10
7.205246699
 20
5.2346966826
 11
7.217349824
 21
5.2266279345
  0
LINE
  5
4D7
100
AcDbEntity
  8
03__ASM_ALL_CURVES
100
AcDbLine
 62
40
  6
CONTINUOUS
 10
7.4049482615
 20
5.2346966826
 11
7.4170513865
 21
5.2266279345
  0
LINE
  5
4D8
100
AcDbEntity
  8
03__ASM_ALL_CURVES
100
AcDbLine
 62
40
  6
CONTINUOUS
 10
7.9182911524
 20
4.0921891215
 11
7.9228298242
 21
4.0861375562
  0
LINE
  5
4D9
100
AcDbEntity
  8
03__ASM_ALL_CURVES
100
AcDbLine
 62
40
  6
CONTINUOUS
 10
7.9909099024
 20
4.0921891215
 11
7.9954485742
 21
4.0861375562
  0
LINE
  5
4DA
100
AcDbEntity
  8
03__ASM_ALL_CURVES
100
AcDbLine
 62
40
  6
CONTINUOUS
 10
8.1089153711
 20
4.0316734953
 11
8.0998380274
 21
4.0437766201
  0
LINE
  5
4DB
100
AcDbEntity
  8
03__ASM_ALL_CURVES
100
AcDbLine
 62
40
  6
CONTINUOUS
 10
7.217349824
 20
5.2266279345
 11
7.229452949
 21
5.2104904326
  0
LINE
  5
4DC
100
AcDbEntity
  8
03__ASM_ALL_CURVES
100
AcDbLine
 62
40
  6
CONTINUOUS
 10
7.4735013086
 20
4.1732800576
 11
7.4871173242
 21
4.1369706826
  0
LINE
  5
4DD
100
AcDbEntity
  8
03__ASM_ALL_CURVES
100
AcDbLine
 62
40
  6
CONTINUOUS
 10
7.4190372461
 20
4.1914347451
 11
7.423575918
 21
4.1732800576
  0
LINE
  5
4DE
100
AcDbEntity
  8
03__ASM_ALL_CURVES
100
AcDbLine
 62
40
  6
CONTINUOUS
 10
7.4871173242
 20
4.0800859951
 11
7.4916559961
 21
4.0619313076
  0
LINE
  5
4DF
100
AcDbEntity
  8
03__ASM_ALL_CURVES
100
AcDbLine
 62
40
  6
CONTINUOUS
 10
7.229452949
 20
5.2104904326
 11
7.2355045115
 21
5.1862841826
  0
LINE
  5
4E0
100
AcDbEntity
  8
03__ASM_ALL_CURVES
100
AcDbLine
 62
40
  6
CONTINUOUS
 10
7.5915067774
 20
4.0437766201
 11
7.5869681055
 21
4.0619313076
  0
LINE
  5
4E1
100
AcDbEntity
  8
03__ASM_ALL_CURVES
100
AcDbLine
 62
40
  6
CONTINUOUS
 10
7.5234266992
 20
4.037725058
 11
7.5234266992
 21
4.0982406826
  0
LINE
  5
4E2
100
AcDbEntity
  8
03__ASM_ALL_CURVES
100
AcDbLine
 62
40
  6
CONTINUOUS
 10
7.5415813867
 20
4.2095894326
 11
7.5415813867
 21
4.1369706826
  0
LINE
  5
4E3
100
AcDbEntity
  8
03__ASM_ALL_CURVES
100
AcDbLine
 62
40
  6
CONTINUOUS
 10
7.5597360742
 20
4.0982406826
 11
7.5597360742
 21
4.037725058
  0
LINE
  5
4E4
100
AcDbEntity
  8
03__ASM_ALL_CURVES
100
AcDbLine
 62
40
  6
CONTINUOUS
 10
7.6142001367
 20
4.2095894326
 11
7.6142001367
 21
4.1369706826
  0
LINE
  5
4E5
100
AcDbEntity
  8
03__ASM_ALL_CURVES
100
AcDbLine
 62
40
  6
CONTINUOUS
 10
7.6686641992
 20
4.0256219326
 11
7.6686641992
 21
4.0982406826
  0
LINE
  5
4E6
100
AcDbEntity
  8
03__ASM_ALL_CURVES
100
AcDbLine
 62
40
  6
CONTINUOUS
 10
7.5869681055
 20
4.0619313076
 11
7.5915067774
 21
4.0800859951
  0
LINE
  5
4E7
100
AcDbEntity
  8
03__ASM_ALL_CURVES
100
AcDbLine
 62
40
  6
CONTINUOUS
 10
7.7775923242
 20
4.0437766201
 11
7.7685149805
 21
4.0316734953
  0
LINE
  5
4E8
100
AcDbEntity
  8
03__ASM_ALL_CURVES
100
AcDbLine
 62
40
  6
CONTINUOUS
 10
7.9228298242
 20
4.074034434
 11
7.9182911524
 21
4.0679828687
  0
LINE
  5
4E9
100
AcDbEntity
  8
03__ASM_ALL_CURVES
100
AcDbLine
 62
40
  6
CONTINUOUS
 10
7.9954485742
 20
4.074034434
 11
7.9909099024
 21
4.0679828687
  0
LINE
  5
4EA
100
AcDbEntity
  8
03__ASM_ALL_CURVES
100
AcDbLine
 62
40
  6
CONTINUOUS
 10
8.1043766992
 20
4.0800859951
 11
8.1089153711
 21
4.074034434
  0
LINE
  5
4EB
100
AcDbEntity
  8
03__ASM_ALL_CURVES
100
AcDbLine
 62
40
  6
CONTINUOUS
 10
8.1361474024
 20
4.0558797444
 11
8.1406860742
 21
4.0498281833
  0
LINE
  5
4EC
100
AcDbEntity
  8
03__ASM_ALL_CURVES
100
AcDbLine
 62
40
  6
CONTINUOUS
 10
8.1815341211
 20
4.0316734953
 11
8.1724567774
 21
4.0437766201
  0
LINE
  5
4ED
100
AcDbEntity
  8
03__ASM_ALL_CURVES
100
AcDbLine
 62
40
  6
CONTINUOUS
 10
8.1406860742
 20
4.0861375562
 11
8.1361474024
 21
4.0921891215
  0
LINE
  5
4EE
100
AcDbEntity
  8
03__ASM_ALL_CURVES
100
AcDbLine
 62
40
  6
CONTINUOUS
 10
8.1769954492
 20
4.0800859951
 11
8.1815341211
 21
4.074034434
  0
LINE
  5
4EF
100
AcDbEntity
  8
03__ASM_ALL_CURVES
100
AcDbLine
 62
40
  6
CONTINUOUS
 10
8.2087661524
 20
4.0558797444
 11
8.2133048242
 21
4.0498281833
  0
LINE
  5
4F0
100
AcDbEntity
  8
03__ASM_ALL_CURVES
100
AcDbLine
 62
40
  6
CONTINUOUS
 10
8.2541528711
 20
4.0316734953
 11
8.2496141992
 21
4.037725058
  0
LINE
  5
4F1
100
AcDbEntity
  8
03__ASM_ALL_CURVES
100
AcDbLine
 62
40
  6
CONTINUOUS
 10
8.2133048242
 20
4.0861375562
 11
8.2087661524
 21
4.0921891215
  0
LINE
  5
4F2
100
AcDbEntity
  8
03__ASM_ALL_CURVES
100
AcDbLine
 62
40
  6
CONTINUOUS
 10
7.4170513865
 20
5.2266279345
 11
7.423102949
 21
5.2185591807
  0
LINE
  5
4F3
100
AcDbEntity
  8
03__ASM_ALL_CURVES
100
AcDbLine
 62
40
  6
CONTINUOUS
 10
7.4049482615
 20
5.1862841826
 11
7.423102949
 21
5.1378716826
  0
LINE
  5
4F4
100
AcDbEntity
  8
03__ASM_ALL_CURVES
100
AcDbLine
 62
40
  6
CONTINUOUS
 10
7.7775923242
 20
4.0800859951
 11
7.7821309961
 21
4.0619313076
  0
LINE
  5
4F5
100
AcDbEntity
  8
03__ASM_ALL_CURVES
100
AcDbLine
 62
40
  6
CONTINUOUS
 10
7.7412829492
 20
4.0256219326
 11
7.7412829492
 21
4.0982406826
  0
LINE
  5
4F6
100
AcDbEntity
  8
03__ASM_ALL_CURVES
100
AcDbLine
 62
40
  6
CONTINUOUS
 10
7.7821309961
 20
4.0619313076
 11
7.7775923242
 21
4.0437766201
  0
LINE
  5
4F7
100
AcDbEntity
  8
03__ASM_ALL_CURVES
100
AcDbLine
 62
40
  6
CONTINUOUS
 10
8.1089153711
 20
4.0921891215
 11
8.1043766992
 21
4.0861375562
  0
LINE
  5
4F8
100
AcDbEntity
  8
03__ASM_ALL_CURVES
100
AcDbLine
 62
40
  6
CONTINUOUS
 10
8.1406860742
 20
4.037725058
 11
8.1361474024
 21
4.0316734953
  0
LINE
  5
4F9
100
AcDbEntity
  8
03__ASM_ALL_CURVES
100
AcDbLine
 62
40
  6
CONTINUOUS
 10
8.1815341211
 20
4.0921891215
 11
8.1769954492
 21
4.0861375562
  0
LINE
  5
4FA
100
AcDbEntity
  8
03__ASM_ALL_CURVES
100
AcDbLine
 62
40
  6
CONTINUOUS
 10
8.3540036524
 20
4.0921891215
 11
8.3585423242
 21
4.0861375562
  0
LINE
  5
4FB
100
AcDbEntity
  8
03__ASM_ALL_CURVES
100
AcDbLine
 62
40
  6
CONTINUOUS
 10
7.9818325586
 20
4.0619313076
 11
7.9954485742
 21
4.0256219326
  0
LINE
  5
4FC
100
AcDbEntity
  8
03__ASM_ALL_CURVES
100
AcDbLine
 62
40
  6
CONTINUOUS
 10
7.8865204492
 20
4.0256219326
 11
7.8865204492
 21
4.0982406826
  0
LINE
  5
4FD
100
AcDbEntity
  8
03__ASM_ALL_CURVES
100
AcDbLine
 62
40
  6
CONTINUOUS
 10
7.9228298242
 20
4.0861375562
 11
7.9228298242
 21
4.074034434
  0
LINE
  5
4FE
100
AcDbEntity
  8
03__ASM_ALL_CURVES
100
AcDbLine
 62
40
  6
CONTINUOUS
 10
7.9591391992
 20
4.0256219326
 11
7.9591391992
 21
4.0982406826
  0
LINE
  5
4FF
100
AcDbEntity
  8
03__ASM_ALL_CURVES
100
AcDbLine
 62
40
  6
CONTINUOUS
 10
7.9954485742
 20
4.0861375562
 11
7.9954485742
 21
4.074034434
  0
LINE
  5
500
100
AcDbEntity
  8
03__ASM_ALL_CURVES
100
AcDbLine
 62
40
  6
CONTINUOUS
 10
8.0317579492
 20
4.0256219326
 11
8.0317579492
 21
4.0982406826
  0
LINE
  5
501
100
AcDbEntity
  8
03__ASM_ALL_CURVES
100
AcDbLine
 62
40
  6
CONTINUOUS
 10
8.2133048242
 20
4.037725058
 11
8.2087661524
 21
4.0316734953
  0
LINE
  5
502
100
AcDbEntity
  8
03__ASM_ALL_CURVES
100
AcDbLine
 62
40
  6
CONTINUOUS
 10
8.2859235742
 20
4.037725058
 11
8.2813849024
 21
4.0316734953
  0
LINE
  5
503
100
AcDbEntity
  8
03__ASM_ALL_CURVES
100
AcDbLine
 62
40
  6
CONTINUOUS
 10
8.3585423242
 20
4.074034434
 11
8.3540036524
 21
4.0679828687
  0
LINE
  5
504
100
AcDbEntity
  8
03__ASM_ALL_CURVES
100
AcDbLine
 62
40
  6
CONTINUOUS
 10
8.1043766992
 20
4.0861375562
 11
8.1043766992
 21
4.0800859951
  0
LINE
  5
505
100
AcDbEntity
  8
03__ASM_ALL_CURVES
100
AcDbLine
 62
40
  6
CONTINUOUS
 10
8.1406860742
 20
4.0498281833
 11
8.1406860742
 21
4.037725058
  0
LINE
  5
506
100
AcDbEntity
  8
03__ASM_ALL_CURVES
100
AcDbLine
 62
40
  6
CONTINUOUS
 10
8.1769954492
 20
4.0861375562
 11
8.1769954492
 21
4.0800859951
  0
LINE
  5
507
100
AcDbEntity
  8
03__ASM_ALL_CURVES
100
AcDbLine
 62
40
  6
CONTINUOUS
 10
8.2133048242
 20
4.0498281833
 11
8.2133048242
 21
4.037725058
  0
LINE
  5
508
100
AcDbEntity
  8
03__ASM_ALL_CURVES
100
AcDbLine
 62
40
  6
CONTINUOUS
 10
8.3449263086
 20
4.0619313076
 11
8.3585423242
 21
4.0256219326
  0
LINE
  5
509
100
AcDbEntity
  8
03__ASM_ALL_CURVES
100
AcDbLine
 62
40
  6
CONTINUOUS
 10
8.2496141992
 20
4.037725058
 11
8.2496141992
 21
4.0982406826
  0
LINE
  5
50A
100
AcDbEntity
  8
03__ASM_ALL_CURVES
100
AcDbLine
 62
40
  6
CONTINUOUS
 10
8.2859235742
 20
4.0982406826
 11
8.2859235742
 21
4.037725058
  0
LINE
  5
50B
100
AcDbEntity
  8
03__ASM_ALL_CURVES
100
AcDbLine
 62
40
  6
CONTINUOUS
 10
8.3222329492
 20
4.0256219326
 11
8.3222329492
 21
4.0982406826
  0
LINE
  5
50C
100
AcDbEntity
  8
03__ASM_ALL_CURVES
100
AcDbLine
 62
40
  6
CONTINUOUS
 10
8.3585423242
 20
4.0861375562
 11
8.3585423242
 21
4.074034434
  0
LINE
  5
50D
100
AcDbEntity
  8
03__ASM_ALL_CURVES
100
AcDbLine
 62
40
  6
CONTINUOUS
 10
8.3948516992
 20
4.0256219326
 11
8.3948516992
 21
4.0982406826
  0
ARC
  5
50E
100
AcDbEntity
  8
0
100
AcDbCircle
 62
7
  6
CONTINUOUS
 10
3.7335704499
 20
3.9406056826
 40
0.094
100
AcDbArc
 50
228.732572619
 51
270.0
  0
ARC
  5
50F
100
AcDbEntity
  8
0
100
AcDbCircle
 62
7
  6
CONTINUOUS
 10
3.4205704499
 20
3.9561056826
 40
0.0175
100
AcDbArc
 50
180.0
 51
360.0
  0
ARC
  5
510
100
AcDbEntity
  8
0
100
AcDbCircle
 62
7
  6
CONTINUOUS
 10
4.1195704499
 20
3.7596056826
 40
0.008
100
AcDbArc
 50
0.0
 51
90.0
  0
ARC
  5
511
100
AcDbEntity
  8
0
100
AcDbCircle
 62
7
  6
CONTINUOUS
 10
4.0975704499
 20
3.7596056826
 40
0.008
100
AcDbArc
 50
90.0
 51
180.0
  0
ARC
  5
512
100
AcDbEntity
  8
0
100
AcDbCircle
 62
7
  6
CONTINUOUS
 10
4.1325704499
 20
3.7491056826
 40
0.005
100
AcDbArc
 50
180.0
 51
270.0
  0
ARC
  5
513
100
AcDbEntity
  8
0
100
AcDbCircle
 62
7
  6
CONTINUOUS
 10
4.0845704499
 20
3.7491056826
 40
0.005
100
AcDbArc
 50
270.0
 51
360.0
  0
ARC
  5
514
100
AcDbEntity
  8
0
100
AcDbCircle
 62
7
  6
CONTINUOUS
 10
5.0135704499
 20
3.6971056826
 40
0.002
100
AcDbArc
 50
42.3553148142
 51
137.6446851858
  0
ARC
  5
515
100
AcDbEntity
  8
0
100
AcDbCircle
 62
7
  6
CONTINUOUS
 10
3.7335704499
 20
4.2946056826
 40
0.094
100
AcDbArc
 50
90.0
 51
131.267427381
  0
ARC
  5
516
100
AcDbEntity
  8
0
100
AcDbCircle
 62
7
  6
CONTINUOUS
 10
4.1195704499
 20
4.4756056826
 40
0.008
100
AcDbArc
 50
270.0
 51
360.0
  0
ARC
  5
517
100
AcDbEntity
  8
0
100
AcDbCircle
 62
7
  6
CONTINUOUS
 10
4.0975704499
 20
4.4756056826
 40
0.008
100
AcDbArc
 50
180.0
 51
270.0
  0
ARC
  5
518
100
AcDbEntity
  8
0
100
AcDbCircle
 62
7
  6
CONTINUOUS
 10
4.1325704499
 20
4.4861056826
 40
0.005
100
AcDbArc
 50
90.0
 51
180.0
  0
ARC
  5
519
100
AcDbEntity
  8
0
100
AcDbCircle
 62
7
  6
CONTINUOUS
 10
4.0845704499
 20
4.4861056826
 40
0.005
100
AcDbArc
 50
0.0
 51
90.0
  0
ARC
  5
51A
100
AcDbEntity
  8
0
100
AcDbCircle
 62
7
  6
CONTINUOUS
 10
5.0135704499
 20
4.5381056826
 40
0.002
100
AcDbArc
 50
222.3553148142
 51
317.6446851858
  0
ARC
  5
51B
100
AcDbEntity
  8
0
100
AcDbCircle
 62
7
  6
CONTINUOUS
 10
5.2045704499
 20
3.7306056826
 40
0.013
100
AcDbArc
 50
0.0000000041
 51
90.0
  0
ARC
  5
51C
100
AcDbEntity
  8
0
100
AcDbCircle
 62
7
  6
CONTINUOUS
 10
5.8500648964
 20
3.7541056826
 40
0.013
100
AcDbArc
 50
29.9999999851
 51
90.0
  0
ARC
  5
51D
100
AcDbEntity
  8
0
100
AcDbCircle
 62
7
  6
CONTINUOUS
 10
5.6952928818
 20
3.7076056826
 40
0.005
100
AcDbArc
 50
90.0
 51
120.0000000002
  0
ARC
  5
51E
100
AcDbEntity
  8
0
100
AcDbCircle
 62
7
  6
CONTINUOUS
 10
5.6755704499
 20
3.6962189312
 40
0.005
100
AcDbArc
 50
120.0000000147
 51
179.9999999996
  0
ARC
  5
51F
100
AcDbEntity
  8
0
100
AcDbCircle
 62
7
  6
CONTINUOUS
 10
5.6675704499
 20
3.6931056826
 40
0.003
100
AcDbArc
 50
270.0
 51
360.0
  0
CIRCLE
  5
520
100
AcDbEntity
  8
0
100
AcDbCircle
 62
7
  6
CONTINUOUS
 10
6.6935704499
 20
4.1176056826
 40
0.0545
  0
ARC
  5
521
100
AcDbEntity
  8
0
100
AcDbCircle
 62
7
  6
CONTINUOUS
 10
5.2045704499
 20
4.5046056826
 40
0.013
100
AcDbArc
 50
270.0
 51
359.9999999985
  0
ARC
  5
522
100
AcDbEntity
  8
0
100
AcDbCircle
 62
7
  6
CONTINUOUS
 10
5.8500648964
 20
4.4811056826
 40
0.013
100
AcDbArc
 50
270.0
 51
330.0000000002
  0
ARC
  5
523
100
AcDbEntity
  8
0
100
AcDbCircle
 62
7
  6
CONTINUOUS
 10
5.6952928818
 20
4.5276056826
 40
0.005
100
AcDbArc
 50
239.9999999998
 51
270.0
  0
ARC
  5
524
100
AcDbEntity
  8
0
100
AcDbCircle
 62
7
  6
CONTINUOUS
 10
5.6755704499
 20
4.5389924339
 40
0.005
100
AcDbArc
 50
180.0000000005
 51
239.9999999827
  0
ARC
  5
525
100
AcDbEntity
  8
0
100
AcDbCircle
 62
7
  6
CONTINUOUS
 10
5.6675704499
 20
4.5421056826
 40
0.003
100
AcDbArc
 50
0.0
 51
90.0
  0
SPLINE
  5
526
100
AcDbEntity
  8
0
100
AcDbSpline
 62
7
  6
CONTINUOUS
 70
0
 71
3
 72
20
 73
16
 74
14
 42
0.0000001
 43
0.0000001
 44
0.0000000001
 12
0.0
 22
0.0416605862
 32
0.0
 13
0.0
 23
-0.0416605862
 33
0.0
 40
0.0
 40
0.0
 40
0.0
 40
0.0
 40
0.0489307848
 40
0.1062135912
 40
0.175871992
 40
0.2580136346
 40
0.3503828832
 40
0.4493672053
 40
0.5506327947
 40
0.6496171168
 40
0.7419863654
 40
0.824128008
 40
0.8937864088
 40
0.9510692152
 40
1.0
 40
1.0
 40
1.0
 40
1.0
 10
3.4380704499
 20
4.1937292514
 30
0.0
 10
3.4380704499
 20
4.1944087465
 30
0.0
 10
3.437648916
 20
4.1958947575
 30
0.0
 10
3.4360136482
 20
4.1977731848
 30
0.0
 10
3.4335617277
 20
4.1993721851
 30
0.0
 10
3.4304024953
 20
4.2006469362
 30
0.0
 10
3.4266994016
 20
4.201538924
 30
0.0
 10
3.4226524927
 20
4.2019981617
 30
0.0
 10
3.4184884071
 20
4.2019981617
 30
0.0
 10
3.4144414982
 20
4.201538924
 30
0.0
 10
3.4107384045
 20
4.2006469362
 30
0.0
 10
3.4075791721
 20
4.1993721851
 30
0.0
 10
3.4051272516
 20
4.1977731848
 30
0.0
 10
3.4034919838
 20
4.1958947575
 30
0.0
 10
3.4030704499
 20
4.1944087465
 30
0.0
 10
3.4030704499
 20
4.1937292514
 30
0.0
 11
3.4380704499
 21
4.1937292514
 31
0.0
 11
3.4375619317
 21
4.1957032907
 31
0.0
 11
3.4360659304
 21
4.197562606
 31
0.0
 11
3.433669388
 21
4.1991991406
 31
0.0
 11
3.430511583
 21
4.2005177852
 31
0.0
 11
3.4267760354
 21
4.2014419049
 31
0.0
 11
3.4226798418
 21
4.2019177932
 31
0.0
 11
3.418461058
 21
4.2019177932
 31
0.0
 11
3.4143648644
 21
4.2014419049
 31
0.0
 11
3.4106293168
 21
4.2005177852
 31
0.0
 11
3.4074715118
 21
4.1991991406
 31
0.0
 11
3.4050749695
 21
4.197562606
 31
0.0
 11
3.4035789681
 21
4.1957032907
 31
0.0
 11
3.4030704499
 21
4.1937292514
 31
0.0
  0
SPLINE
  5
527
100
AcDbEntity
  8
0
100
AcDbSpline
 62
7
  6
CONTINUOUS
 70
0
 71
3
 72
15
 73
11
 74
9
 42
0.0000001
 43
0.0000001
 44
0.0000000001
 12
0.0
 22
0.0972555874
 32
0.0
 13
-0.03445938
 23
-0.0909477198
 33
0.0
 40
0.0
 40
0.0
 40
0.0
 40
0.0
 40
0.141304152
 40
0.282608304
 40
0.4239124561
 40
0.5652166081
 40
0.7065207601
 40
0.8478249121
 40
0.9891290641
 40
1.0
 40
1.0
 40
1.0
 40
1.0
 10
6.9065704499
 20
4.4406056826
 30
0.0
 10
6.9065704499
 20
4.4451865554
 30
0.0
 10
6.9047480654
 20
4.4543483009
 30
0.0
 10
6.8969634975
 20
4.4659987302
 30
0.0
 10
6.8853130682
 20
4.4737832981
 30
0.0
 10
6.8715704499
 20
4.4765168748
 30
0.0
 10
6.8578278316
 20
4.4737832981
 30
0.0
 10
6.8461774023
 20
4.4659987302
 30
0.0
 10
6.8407880606
 20
4.4579330103
 30
0.0
 10
6.8389699184
 20
4.4533463521
 30
0.0
 10
6.8388450498
 20
4.4530167898
 30
0.0
 11
6.9065704499
 21
4.4406056826
 31
0.0
 11
6.9039062335
 21
4.4539996027
 31
0.0
 11
6.8963191872
 21
4.4653544199
 31
0.0
 11
6.88496437
 21
4.4729414662
 31
0.0
 11
6.8715704499
 21
4.4756056826
 31
0.0
 11
6.8581765298
 21
4.4729414662
 31
0.0
 11
6.8468217126
 21
4.4653544199
 31
0.0
 11
6.8392346663
 21
4.4539996027
 31
0.0
 11
6.8388450498
 21
4.4530167898
 31
0.0
  0
SPLINE
  5
528
100
AcDbEntity
  8
0
100
AcDbSpline
 62
7
  6
CONTINUOUS
 70
0
 71
3
 72
8
 73
4
 74
2
 42
0.0000001
 43
0.0000001
 44
0.0000000001
 12
-0.0044946478
 22
-0.0118626036
 32
0.0
 13
0.0
 23
-0.0126853591
 33
0.0
 40
0.0
 40
0.0
 40
0.0
 40
0.0
 40
1.0
 40
1.0
 40
1.0
 40
1.0
 10
6.8388450498
 20
4.4530167898
 30
0.0
 10
6.8373468339
 20
4.4490625886
 30
0.0
 10
6.8365704499
 20
4.4448341356
 30
0.0
 10
6.8365704499
 20
4.4406056826
 30
0.0
 11
6.8388450498
 21
4.4530167898
 31
0.0
 11
6.8365704499
 21
4.4406056826
 31
0.0
  0
SPLINE
  5
529
100
AcDbEntity
  8
0
100
AcDbSpline
 62
7
  6
CONTINUOUS
 70
0
 71
3
 72
15
 73
11
 74
9
 42
0.0000001
 43
0.0000001
 44
0.0000000001
 12
0.0
 22
-0.0972555874
 32
0.0
 13
-0.03445938
 23
0.0909477198
 33
0.0
 40
0.0
 40
0.0
 40
0.0
 40
0.0
 40
0.141304152
 40
0.282608304
 40
0.4239124561
 40
0.5652166081
 40
0.7065207601
 40
0.8478249121
 40
0.9891290641
 40
1.0
 40
1.0
 40
1.0
 40
1.0
 10
6.9065704499
 20
3.7946056826
 30
0.0
 10
6.9065704499
 20
3.7900248098
 30
0.0
 10
6.9047480654
 20
3.7808630643
 30
0.0
 10
6.8969634975
 20
3.769212635
 30
0.0
 10
6.8853130682
 20
3.7614280671
 30
0.0
 10
6.8715704499
 20
3.7586944903
 30
0.0
 10
6.8578278316
 20
3.7614280671
 30
0.0
 10
6.8461774023
 20
3.769212635
 30
0.0
 10
6.8407880606
 20
3.7772783549
 30
0.0
 10
6.8389699184
 20
3.7818650131
 30
0.0
 10
6.8388450498
 20
3.7821945754
 30
0.0
 11
6.9065704499
 21
3.7946056826
 31
0.0
 11
6.9039062335
 21
3.7812117625
 31
0.0
 11
6.8963191872
 21
3.7698569453
 31
0.0
 11
6.88496437
 21
3.762269899
 31
0.0
 11
6.8715704499
 21
3.7596056826
 31
0.0
 11
6.8581765298
 21
3.762269899
 31
0.0
 11
6.8468217126
 21
3.7698569453
 31
0.0
 11
6.8392346663
 21
3.7812117625
 31
0.0
 11
6.8388450498
 21
3.7821945754
 31
0.0
  0
SPLINE
  5
52A
100
AcDbEntity
  8
0
100
AcDbSpline
 62
7
  6
CONTINUOUS
 70
0
 71
3
 72
8
 73
4
 74
2
 42
0.0000001
 43
0.0000001
 44
0.0000000001
 12
-0.0044946478
 22
0.0118626036
 32
0.0
 13
0.0
 23
0.0126853591
 33
0.0
 40
0.0
 40
0.0
 40
0.0
 40
0.0
 40
1.0
 40
1.0
 40
1.0
 40
1.0
 10
6.8388450498
 20
3.7821945754
 30
0.0
 10
6.8373468339
 20
3.7861487766
 30
0.0
 10
6.8365704499
 20
3.7903772296
 30
0.0
 10
6.8365704499
 20
3.7946056826
 30
0.0
 11
6.8388450498
 21
3.7821945754
 31
0.0
 11
6.8365704499
 21
3.7946056826
 31
0.0
  0
SPLINE
  5
52B
100
AcDbEntity
  8
0
100
AcDbSpline
 62
7
  6
CONTINUOUS
 70
0
 71
3
 72
15
 73
11
 74
9
 42
0.0000001
 43
0.0000001
 44
0.0000000001
 12
0.0
 22
0.1099409465
 32
0.0
 13
0.0
 23
-0.1099409465
 33
0.0
 40
0.0
 40
0.0
 40
0.0
 40
0.0
 40
0.125
 40
0.25
 40
0.375
 40
0.5
 40
0.625
 40
0.75
 40
0.875
 40
1.0
 40
1.0
 40
1.0
 40
1.0
 10
5.1965704499
 20
4.5266056826
 30
0.0
 10
5.1965704499
 20
4.5311865554
 30
0.0
 10
5.1947480654
 20
4.5403483009
 30
0.0
 10
5.1869634975
 20
4.5519987302
 30
0.0
 10
5.1753130682
 20
4.5597832981
 30
0.0
 10
5.1615704499
 20
4.5625168748
 30
0.0
 10
5.1478278316
 20
4.5597832981
 30
0.0
 10
5.1361774023
 20
4.5519987302
 30
0.0
 10
5.1283928344
 20
4.5403483009
 30
0.0
 10
5.1265704499
 20
4.5311865554
 30
0.0
 10
5.1265704499
 20
4.5266056826
 30
0.0
 11
5.1965704499
 21
4.5266056826
 31
0.0
 11
5.1939062335
 21
4.5399996027
 31
0.0
 11
5.1863191872
 21
4.5513544199
 31
0.0
 11
5.17496437
 21
4.5589414662
 31
0.0
 11
5.1615704499
 21
4.5616056826
 31
0.0
 11
5.1481765298
 21
4.5589414662
 31
0.0
 11
5.1368217126
 21
4.5513544199
 31
0.0
 11
5.1292346663
 21
4.5399996027
 31
0.0
 11
5.1265704499
 21
4.5266056826
 31
0.0
  0
SPLINE
  5
52C
100
AcDbEntity
  8
0
100
AcDbSpline
 62
7
  6
CONTINUOUS
 70
0
 71
3
 72
15
 73
11
 74
9
 42
0.0000001
 43
0.0000001
 44
0.0000000001
 12
0.0
 22
-0.1099409465
 32
0.0
 13
0.0
 23
0.1099409465
 33
0.0
 40
0.0
 40
0.0
 40
0.0
 40
0.0
 40
0.125
 40
0.25
 40
0.375
 40
0.5
 40
0.625
 40
0.75
 40
0.875
 40
1.0
 40
1.0
 40
1.0
 40
1.0
 10
5.1965704499
 20
3.7086056826
 30
0.0
 10
5.1965704499
 20
3.7040248098
 30
0.0
 10
5.1947480654
 20
3.6948630643
 30
0.0
 10
5.1869634975
 20
3.683212635
 30
0.0
 10
5.1753130682
 20
3.6754280671
 30
0.0
 10
5.1615704499
 20
3.6726944903
 30
0.0
 10
5.1478278316
 20
3.6754280671
 30
0.0
 10
5.1361774023
 20
3.683212635
 30
0.0
 10
5.1283928344
 20
3.6948630643
 30
0.0
 10
5.1265704499
 20
3.7040248098
 30
0.0
 10
5.1265704499
 20
3.7086056826
 30
0.0
 11
5.1965704499
 21
3.7086056826
 31
0.0
 11
5.1939062335
 21
3.6952117625
 31
0.0
 11
5.1863191872
 21
3.6838569453
 31
0.0
 11
5.17496437
 21
3.676269899
 31
0.0
 11
5.1615704499
 21
3.6736056826
 31
0.0
 11
5.1481765298
 21
3.676269899
 31
0.0
 11
5.1368217126
 21
3.6838569453
 31
0.0
 11
5.1292346663
 21
3.6952117625
 31
0.0
 11
5.1265704499
 21
3.7086056826
 31
0.0
  0
SPLINE
  5
52D
100
AcDbEntity
  8
0
100
AcDbSpline
 62
7
  6
CONTINUOUS
 70
0
 71
3
 72
15
 73
11
 74
9
 42
0.0000001
 43
0.0000001
 44
0.0000000001
 12
0.0
 22
0.1099409465
 32
0.0
 13
0.0
 23
-0.1099409465
 33
0.0
 40
0.0
 40
0.0
 40
0.0
 40
0.0
 40
0.125
 40
0.25
 40
0.375
 40
0.5
 40
0.625
 40
0.75
 40
0.875
 40
1.0
 40
1.0
 40
1.0
 40
1.0
 10
5.7875704499
 20
4.5266056826
 30
0.0
 10
5.7875704499
 20
4.5311865554
 30
0.0
 10
5.7857480654
 20
4.5403483009
 30
0.0
 10
5.7779634975
 20
4.5519987302
 30
0.0
 10
5.7663130682
 20
4.5597832981
 30
0.0
 10
5.7525704499
 20
4.5625168748
 30
0.0
 10
5.7388278316
 20
4.5597832981
 30
0.0
 10
5.7271774023
 20
4.5519987302
 30
0.0
 10
5.7193928344
 20
4.5403483009
 30
0.0
 10
5.7175704499
 20
4.5311865554
 30
0.0
 10
5.7175704499
 20
4.5266056826
 30
0.0
 11
5.7875704499
 21
4.5266056826
 31
0.0
 11
5.7849062335
 21
4.5399996027
 31
0.0
 11
5.7773191872
 21
4.5513544199
 31
0.0
 11
5.76596437
 21
4.5589414662
 31
0.0
 11
5.7525704499
 21
4.5616056826
 31
0.0
 11
5.7391765298
 21
4.5589414662
 31
0.0
 11
5.7278217126
 21
4.5513544199
 31
0.0
 11
5.7202346663
 21
4.5399996027
 31
0.0
 11
5.7175704499
 21
4.5266056826
 31
0.0
  0
SPLINE
  5
52E
100
AcDbEntity
  8
0
100
AcDbSpline
 62
7
  6
CONTINUOUS
 70
0
 71
3
 72
15
 73
11
 74
9
 42
0.0000001
 43
0.0000001
 44
0.0000000001
 12
0.0
 22
-0.1099409465
 32
0.0
 13
0.0
 23
0.1099409465
 33
0.0
 40
0.0
 40
0.0
 40
0.0
 40
0.0
 40
0.125
 40
0.25
 40
0.375
 40
0.5
 40
0.625
 40
0.75
 40
0.875
 40
1.0
 40
1.0
 40
1.0
 40
1.0
 10
5.7875704499
 20
3.7086056826
 30
0.0
 10
5.7875704499
 20
3.7040248098
 30
0.0
 10
5.7857480654
 20
3.6948630643
 30
0.0
 10
5.7779634975
 20
3.683212635
 30
0.0
 10
5.7663130682
 20
3.6754280671
 30
0.0
 10
5.7525704499
 20
3.6726944903
 30
0.0
 10
5.7388278316
 20
3.6754280671
 30
0.0
 10
5.7271774023
 20
3.683212635
 30
0.0
 10
5.7193928344
 20
3.6948630643
 30
0.0
 10
5.7175704499
 20
3.7040248098
 30
0.0
 10
5.7175704499
 20
3.7086056826
 30
0.0
 11
5.7875704499
 21
3.7086056826
 31
0.0
 11
5.7849062335
 21
3.6952117625
 31
0.0
 11
5.7773191872
 21
3.6838569453
 31
0.0
 11
5.76596437
 21
3.676269899
 31
0.0
 11
5.7525704499
 21
3.6736056826
 31
0.0
 11
5.7391765298
 21
3.676269899
 31
0.0
 11
5.7278217126
 21
3.6838569453
 31
0.0
 11
5.7202346663
 21
3.6952117625
 31
0.0
 11
5.7175704499
 21
3.7086056826
 31
0.0
  0
SPLINE
  5
52F
100
AcDbEntity
  8
0
100
AcDbSpline
 62
7
  6
CONTINUOUS
 70
0
 71
3
 72
16
 73
12
 74
10
 42
0.0000001
 43
0.0000001
 44
0.0000000001
 12
0.0906480335
 22
0.2719441006
 32
0.0
 13
-0.0906480335
 23
0.2719441006
 33
0.0
 40
0.0
 40
0.0
 40
0.0
 40
0.0
 40
0.1184548733
 40
0.230565332
 40
0.3393089466
 40
0.4465959239
 40
0.5535015371
 40
0.6607803311
 40
0.769505023
 40
0.8815660643
 40
1.0
 40
1.0
 40
1.0
 40
1.0
 10
3.9216990395
 20
3.8366056826
 30
0.0
 10
3.9252782733
 20
3.8473433839
 30
0.0
 10
3.9317093599
 20
3.8684294308
 30
0.0
 10
3.9392287896
 20
3.8999904856
 30
0.0
 10
3.9443170171
 20
3.9309593037
 30
0.0
 10
3.9469038793
 20
3.9617423733
 30
0.0
 10
3.946902691
 20
3.9924961743
 30
0.0
 10
3.9443138504
 20
4.0232764657
 30
0.0
 10
3.9392251156
 20
4.0542377675
 30
0.0
 10
3.9317068588
 20
4.0857902991
 30
0.0
 10
3.9252776406
 20
4.1068698792
 30
0.0
 10
3.9216990395
 20
4.1176056826
 30
0.0
 11
3.9216990395
 21
3.8366056826
 31
0.0
 11
3.9315375091
 21
3.8691047105
 31
0.0
 11
3.9389246796
 21
3.9003811009
 31
0.0
 11
3.943929297
 21
3.9311485534
 31
0.0
 11
3.9464762623
 21
3.9617971746
 31
0.0
 11
3.9464750921
 21
3.9924421231
 31
0.0
 11
3.9439261521
 21
4.0230882262
 31
0.0
 11
3.938920713
 21
4.0538500494
 31
0.0
 11
3.9315359416
 21
4.085112451
 31
0.0
 11
3.9216990395
 21
4.1176056826
 31
0.0
  0
SPLINE
  5
530
100
AcDbEntity
  8
0
100
AcDbSpline
 62
7
  6
CONTINUOUS
 70
0
 71
3
 72
17
 73
13
 74
11
 42
0.0000001
 43
0.0000001
 44
0.0000000001
 12
-0.1487434696
 22
0.2576312467
 32
0.0
 13
0.1487434696
 23
0.2576312467
 33
0.0
 40
0.0
 40
0.0
 40
0.0
 40
0.0
 40
0.1169386465
 40
0.2216811606
 40
0.3184580982
 40
0.4103908543
 40
0.5000417254
 40
0.5896883004
 40
0.6816074548
 40
0.7783545182
 40
0.8830694657
 40
1.0
 40
1.0
 40
1.0
 40
1.0
 10
3.8200413012
 20
3.8366056826
 30
0.0
 10
3.8142433479
 20
3.8466480324
 30
0.0
 10
3.8039035202
 20
3.8660778798
 30
0.0
 10
3.7915298968
 20
3.8951799574
 30
0.0
 10
3.7828764501
 20
3.9230215201
 30
0.0
 10
3.7777193455
 20
3.9502048397
 30
0.0
 10
3.7760024652
 20
3.9771177246
 30
0.0
 10
3.7777223508
 20
4.0040290494
 30
0.0
 10
3.7828811024
 20
4.03120719
 30
0.0
 10
3.7915339543
 20
4.059041496
 30
0.0
 10
3.8039055416
 20
4.0881373357
 30
0.0
 10
3.8142437501
 20
4.1075640295
 30
0.0
 10
3.8200413012
 20
4.1176056826
 30
0.0
 11
3.8200413012
 21
3.8366056826
 31
0.0
 11
3.8038150698
 21
3.8673773396
 31
0.0
 11
3.7917303132
 21
3.8960979762
 31
0.0
 11
3.78327764
 21
3.9236190448
 31
0.0
 11
3.7782447546
 21
3.95050076
 31
0.0
 11
3.7765704503
 21
3.9771181161
 31
0.0
 11
3.7782476926
 21
4.0037340066
 31
0.0
 11
3.7832823392
 21
4.0306112753
 31
0.0
 11
3.7917339543
 21
4.0581233719
 31
0.0
 11
3.8038161055
 21
4.0868362076
 31
0.0
 11
3.8200413012
 21
4.1176056826
 31
0.0
  0
SPLINE
  5
531
100
AcDbEntity
  8
0
100
AcDbSpline
 62
7
  6
CONTINUOUS
 70
0
 71
3
 72
16
 73
12
 74
10
 42
0.0000001
 43
0.0000001
 44
0.0000000001
 12
0.0906480335
 22
0.2719441006
 32
0.0
 13
-0.0906480335
 23
0.2719441006
 33
0.0
 40
0.0
 40
0.0
 40
0.0
 40
0.0
 40
0.1184548733
 40
0.230565332
 40
0.3393089466
 40
0.4465959239
 40
0.5535015371
 40
0.6607803311
 40
0.769505023
 40
0.8815660643
 40
1.0
 40
1.0
 40
1.0
 40
1.0
 10
3.9216990395
 20
4.1176056826
 30
0.0
 10
3.9252782733
 20
4.1283433839
 30
0.0
 10
3.9317093599
 20
4.1494294308
 30
0.0
 10
3.9392287896
 20
4.1809904856
 30
0.0
 10
3.9443170171
 20
4.2119593037
 30
0.0
 10
3.9469038793
 20
4.2427423733
 30
0.0
 10
3.946902691
 20
4.2734961743
 30
0.0
 10
3.9443138504
 20
4.3042764657
 30
0.0
 10
3.9392251156
 20
4.3352377675
 30
0.0
 10
3.9317068588
 20
4.3667902991
 30
0.0
 10
3.9252776406
 20
4.3878698792
 30
0.0
 10
3.9216990395
 20
4.3986056826
 30
0.0
 11
3.9216990395
 21
4.1176056826
 31
0.0
 11
3.9315375091
 21
4.1501047105
 31
0.0
 11
3.9389246796
 21
4.1813811009
 31
0.0
 11
3.943929297
 21
4.2121485534
 31
0.0
 11
3.9464762623
 21
4.2427971746
 31
0.0
 11
3.9464750921
 21
4.2734421231
 31
0.0
 11
3.9439261521
 21
4.3040882262
 31
0.0
 11
3.938920713
 21
4.3348500494
 31
0.0
 11
3.9315359416
 21
4.366112451
 31
0.0
 11
3.9216990395
 21
4.3986056826
 31
0.0
  0
SPLINE
  5
532
100
AcDbEntity
  8
0
100
AcDbSpline
 62
7
  6
CONTINUOUS
 70
0
 71
3
 72
17
 73
13
 74
11
 42
0.0000001
 43
0.0000001
 44
0.0000000001
 12
-0.1487434696
 22
0.2576312467
 32
0.0
 13
0.1487434696
 23
0.2576312467
 33
0.0
 40
0.0
 40
0.0
 40
0.0
 40
0.0
 40
0.1169386465
 40
0.2216811606
 40
0.3184580982
 40
0.4103908543
 40
0.5000417254
 40
0.5896883004
 40
0.6816074548
 40
0.7783545182
 40
0.8830694657
 40
1.0
 40
1.0
 40
1.0
 40
1.0
 10
3.8200413012
 20
4.1176056826
 30
0.0
 10
3.8142433479
 20
4.1276480324
 30
0.0
 10
3.8039035202
 20
4.1470778798
 30
0.0
 10
3.7915298968
 20
4.1761799574
 30
0.0
 10
3.7828764501
 20
4.2040215201
 30
0.0
 10
3.7777193455
 20
4.2312048397
 30
0.0
 10
3.7760024652
 20
4.2581177246
 30
0.0
 10
3.7777223508
 20
4.2850290494
 30
0.0
 10
3.7828811024
 20
4.31220719
 30
0.0
 10
3.7915339543
 20
4.340041496
 30
0.0
 10
3.8039055416
 20
4.3691373357
 30
0.0
 10
3.8142437501
 20
4.3885640295
 30
0.0
 10
3.8200413012
 20
4.3986056826
 30
0.0
 11
3.8200413012
 21
4.1176056826
 31
0.0
 11
3.8038150698
 21
4.1483773396
 31
0.0
 11
3.7917303132
 21
4.1770979762
 31
0.0
 11
3.78327764
 21
4.2046190448
 31
0.0
 11
3.7782447546
 21
4.23150076
 31
0.0
 11
3.7765704503
 21
4.2581181161
 31
0.0
 11
3.7782476926
 21
4.2847340066
 31
0.0
 11
3.7832823392
 21
4.3116112753
 31
0.0
 11
3.7917339543
 21
4.3391233719
 31
0.0
 11
3.8038161055
 21
4.3678362076
 31
0.0
 11
3.8200413012
 21
4.3986056826
 31
0.0
  0
SPLINE
  5
533
100
AcDbEntity
  8
0
100
AcDbSpline
 62
7
  6
CONTINUOUS
 70
0
 71
3
 72
12
 73
8
 74
6
 42
0.0000001
 43
0.0000001
 44
0.0000000001
 12
0.0475155246
 22
0.0
 32
0.0
 13
0.0310842393
 23
0.0360455303
 33
0.0
 40
0.0
 40
0.0
 40
0.0
 40
0.0
 40
0.2351791277
 40
0.4738343692
 40
0.7165554787
 40
0.9596708223
 40
1.0
 40
1.0
 40
1.0
 40
1.0
 10
6.6585704499
 20
4.1519759042
 30
0.0
 10
6.6622953365
 20
4.1519759042
 30
0.0
 10
6.6698238285
 20
4.1527788471
 30
0.0
 10
6.6806807455
 20
4.1563469102
 30
0.0
 10
6.6906871264
 20
4.1621269302
 30
0.0
 10
6.6969658365
 20
4.1676908147
 30
0.0
 10
6.6999600426
 20
4.1710470428
 30
0.0
 10
6.7003779099
 20
4.171531605
 30
0.0
 11
6.6585704499
 21
4.1519759042
 31
0.0
 11
6.6696825813
 21
4.1531563929
 31
0.0
 11
6.6804605989
 21
4.1566814543
 31
0.0
 11
6.6904538743
 21
4.1624386253
 31
0.0
 11
6.6991001394
 21
4.1700992453
 31
0.0
 11
6.7003779099
 21
4.171531605
 31
0.0
  0
SPLINE
  5
534
100
AcDbEntity
  8
0
100
AcDbSpline
 62
7
  6
CONTINUOUS
 70
0
 71
3
 72
8
 73
4
 74
2
 42
0.0000001
 43
0.0000001
 44
0.0000000001
 12
-0.0064251374
 22
0.0
 32
0.0
 13
-0.0063926845
 23
0.0007818994
 33
0.0
 40
0.0
 40
0.0
 40
0.0
 40
0.0
 40
1.0
 40
1.0
 40
1.0
 40
1.0
 10
6.6585704499
 20
4.1519759042
 30
0.0
 10
6.6564287374
 20
4.1519759042
 30
0.0
 10
6.6542831424
 20
4.1521076549
 30
0.0
 10
6.6521522475
 20
4.1523682881
 30
0.0
 11
6.6585704499
 21
4.1519759042
 31
0.0
 11
6.6521522475
 21
4.1523682881
 31
0.0
  0
SPLINE
  5
535
100
AcDbEntity
  8
0
100
AcDbSpline
 62
7
  6
CONTINUOUS
 70
0
 71
3
 72
8
 73
4
 74
2
 42
0.0000001
 43
0.0000001
 44
0.0000000001
 12
0.0063857657
 22
0.0007801937
 32
0.0
 13
0.0064180861
 23
0.0
 33
0.0
 40
0.0
 40
0.0
 40
0.0
 40
0.0
 40
1.0
 40
1.0
 40
1.0
 40
1.0
 10
6.6521592632
 20
4.0828439347
 30
0.0
 10
6.6542878517
 20
4.0831039993
 30
0.0
 10
6.6564310879
 20
4.083235461
 30
0.0
 10
6.6585704499
 20
4.083235461
 30
0.0
 11
6.6521592632
 21
4.0828439347
 31
0.0
 11
6.6585704499
 21
4.083235461
 31
0.0
  0
SPLINE
  5
536
100
AcDbEntity
  8
0
100
AcDbSpline
 62
7
  6
CONTINUOUS
 70
0
 71
3
 72
12
 73
8
 74
6
 42
0.0000001
 43
0.0000001
 44
0.0000000001
 12
-0.031082683
 22
0.035954689
 32
0.0
 13
-0.0474458575
 23
0.0
 33
0.0
 40
0.0
 40
0.0
 40
0.0
 40
0.0
 40
0.0389236592
 40
0.2823961804
 40
0.5254735501
 40
0.7644776933
 40
1.0
 40
1.0
 40
1.0
 40
1.0
 10
6.7003323015
 20
4.0637325827
 30
0.0
 10
6.6999290176
 20
4.0641990787
 30
0.0
 10
6.6969482571
 20
4.0675361391
 30
0.0
 10
6.6906869823
 20
4.0730845391
 30
0.0
 10
6.6806806034
 20
4.0788645159
 30
0.0
 10
6.6698237358
 20
4.0824325318
 30
0.0
 10
6.6622953025
 20
4.083235461
 30
0.0
 10
6.6585704499
 20
4.083235461
 30
0.0
 11
6.7003323015
 21
4.0637325827
 31
0.0
 11
6.6991000225
 21
4.0651122466
 31
0.0
 11
6.6904537267
 21
4.0727728462
 31
0.0
 11
6.6804604389
 21
4.0785299823
 31
0.0
 11
6.6696824812
 21
4.0820549937
 31
0.0
 11
6.6585704499
 21
4.083235461
 31
0.0
  0
SPLINE
  5
537
100
AcDbEntity
  8
0
100
AcDbSpline
 62
7
  6
CONTINUOUS
 70
0
 71
3
 72
14
 73
10
 74
8
 42
0.0000001
 43
0.0000001
 44
0.0000000001
 12
-0.0756798031
 22
0.0
 32
0.0
 13
0.0000430686
 23
-0.0759682058
 33
0.0
 40
0.0
 40
0.0
 40
0.0
 40
0.0
 40
0.1597772872
 40
0.3181135913
 40
0.4725872007
 40
0.6200554513
 40
0.7574448074
 40
0.8834901399
 40
1.0
 40
1.0
 40
1.0
 40
1.0
 10
6.6935704499
 20
3.9619398225
 30
0.0
 10
6.689539812
 20
3.9619398225
 30
0.0
 10
6.6814942235
 20
3.9611819436
 30
0.0
 10
6.6699802365
 20
3.9578357653
 30
0.0
 10
6.6595839485
 20
3.9525002491
 30
0.0
 10
6.6508551152
 20
3.9455457497
 30
0.0
 10
6.6442458017
 20
3.937446696
 30
0.0
 10
6.6400826642
 20
3.9286949123
 30
0.0
 10
6.6390687822
 20
3.9225662024
 30
0.0
 10
6.6390704549
 20
3.9196158541
 30
0.0
 11
6.6935704499
 21
3.9619398225
 31
0.0
 11
6.6815322375
 21
3.9608014827
 31
0.0
 11
6.6700285268
 21
3.9574468468
 31
0.0
 11
6.6596405593
 21
3.9520841351
 31
0.0
 11
6.6509437148
 21
3.9450899437
 31
0.0
 11
6.6444307438
 21
3.9369849278
 31
0.0
 11
6.6404220914
 21
3.9283290126
 31
0.0
 11
6.6390704549
 21
3.9196158541
 31
0.0
  0
SPLINE
  5
538
100
AcDbEntity
  8
0
100
AcDbSpline
 62
7
  6
CONTINUOUS
 70
0
 71
3
 72
14
 73
10
 74
8
 42
0.0000001
 43
0.0000001
 44
0.0000000001
 12
0.0756798035
 22
0.0
 32
0.0
 13
-0.0000430735
 23
0.0759682059
 33
0.0
 40
0.0
 40
0.0
 40
0.0
 40
0.0
 40
0.1597786831
 40
0.3181170899
 40
0.4725918032
 40
0.6200583893
 40
0.7574472053
 40
0.8834914924
 40
1.0
 40
1.0
 40
1.0
 40
1.0
 10
6.6935704499
 20
4.2732715427
 30
0.0
 10
6.697601123
 20
4.2732715427
 30
0.0
 10
6.7056468004
 20
4.2740294366
 30
0.0
 10
6.7171608917
 20
4.2773756817
 30
0.0
 10
6.7275571888
 20
4.2827112695
 30
0.0
 10
6.736285962
 20
4.289665797
 30
0.0
 10
6.7428951877
 20
4.2977648159
 30
0.0
 10
6.7470582576
 20
4.3065165482
 30
0.0
 10
6.7480721177
 20
4.3126451963
 30
0.0
 10
6.7480704449
 20
4.3155955104
 30
0.0
 11
6.6935704499
 21
4.2732715427
 31
0.0
 11
6.7056087666
 21
4.2744099024
 31
0.0
 11
6.7171126202
 21
4.277764617
 31
0.0
 11
6.7275006343
 21
4.2831274208
 31
0.0
 11
6.7361973436
 21
4.2901215794
 31
0.0
 11
6.742710253
 21
4.2982265924
 31
0.0
 11
6.7467188388
 21
4.3068824513
 31
0.0
 11
6.7480704449
 21
4.3155955104
 31
0.0
  0
SPLINE
  5
539
100
AcDbEntity
  8
0
100
AcDbSpline
 62
7
  6
CONTINUOUS
 70
0
 71
3
 72
14
 73
10
 74
8
 42
0.0000001
 43
0.0000001
 44
0.0000000001
 12
0.0000430457
 22
0.0759682023
 32
0.0
 13
-0.0756798018
 23
-0.0
 33
0.0
 40
0.0
 40
0.0
 40
0.0
 40
0.0
 40
0.1165146604
 40
0.2425632927
 40
0.3799544018
 40
0.5274235082
 40
0.6818960828
 40
0.8402271767
 40
1.0
 40
1.0
 40
1.0
 40
1.0
 10
6.7480704451
 20
3.919615851
 30
0.0
 10
6.748072117
 20
3.9225663208
 30
0.0
 10
6.7470581591
 20
3.9286952409
 30
0.0
 10
6.7428947925
 20
3.9374471942
 30
0.0
 10
6.7362852642
 20
3.9455462667
 30
0.0
 10
6.7275563003
 20
3.9525006651
 30
0.0
 10
6.7171600671
 20
3.9578359845
 30
0.0
 10
6.7056463178
 20
3.961181988
 30
0.0
 10
6.6976009751
 20
3.9619398225
 30
0.0
 10
6.6935704499
 20
3.9619398225
 30
0.0
 11
6.7480704451
 21
3.919615851
 31
0.0
 11
6.7467187006
 21
3.928329363
 31
0.0
 11
6.7427098285
 21
3.9369854515
 31
0.0
 11
6.7361966533
 21
3.9450904733
 31
0.0
 11
6.727499657
 21
3.9520845789
 31
0.0
 11
6.7171116895
 21
3.9574471196
 31
0.0
 11
6.7056083288
 21
3.9608015464
 31
0.0
 11
6.6935704499
 21
3.9619398225
 31
0.0
  0
SPLINE
  5
53A
100
AcDbEntity
  8
0
100
AcDbSpline
 62
7
  6
CONTINUOUS
 70
0
 71
3
 72
10
 73
6
 74
4
 42
0.0000001
 43
0.0000001
 44
0.0000000001
 12
0.0260226982
 22
-0.0076788515
 32
0.0
 13
0.0271133591
 23
0.0
 33
0.0
 40
0.0
 40
0.0
 40
0.0
 40
0.0
 40
0.2207319065
 40
0.6046603663
 40
1.0
 40
1.0
 40
1.0
 40
1.0
 10
6.6667704474
 20
3.9556371684
 30
0.0
 10
6.6686851273
 20
3.9550721793
 30
0.0
 10
6.6739953401
 20
3.9537452821
 30
0.0
 10
6.6829494533
 20
3.9523999607
 30
0.0
 10
6.6899974548
 20
3.9520623789
 30
0.0
 10
6.6935704499
 20
3.9520623789
 30
0.0
 11
6.6667704474
 21
3.9556371684
 31
0.0
 11
6.6725759821
 21
3.9541718303
 31
0.0
 11
6.6828643518
 21
3.9525878424
 31
0.0
 11
6.6935704499
 21
3.9520623789
 31
0.0
  0
SPLINE
  5
53B
100
AcDbEntity
  8
0
100
AcDbSpline
 62
7
  6
CONTINUOUS
 70
0
 71
3
 72
8
 73
4
 74
2
 42
0.0000001
 43
0.0000001
 44
0.0000000001
 12
-0.0027506084
 22
0.000811667
 32
0.0
 13
-0.0027800983
 23
0.0007047798
 33
0.0
 40
0.0
 40
0.0
 40
0.0
 40
0.0
 40
1.0
 40
1.0
 40
1.0
 40
1.0
 10
6.7203706456
 20
4.2795741385
 30
0.0
 10
6.7194537762
 20
4.2798446941
 30
0.0
 10
6.718531445
 20
4.2800967666
 30
0.0
 10
6.7176047456
 20
4.2803316932
 30
0.0
 11
6.7203706456
 21
4.2795741385
 31
0.0
 11
6.7176047456
 21
4.2803316932
 31
0.0
  0
SPLINE
  5
53C
100
AcDbEntity
  8
0
100
AcDbSpline
 62
7
  6
CONTINUOUS
 70
0
 71
3
 72
10
 73
6
 74
4
 42
0.0000001
 43
0.0000001
 44
0.0000000001
 12
-0.0235217587
 22
0.0059629764
 32
0.0
 13
-0.0242476726
 23
0.0
 33
0.0
 40
0.0
 40
0.0
 40
0.0
 40
0.0
 40
0.1288397251
 40
0.558040689
 40
1.0
 40
1.0
 40
1.0
 40
1.0
 10
6.7176047456
 20
4.2803316932
 30
0.0
 10
6.7165945666
 20
4.2805877826
 30
0.0
 10
6.7121967178
 20
4.2816087312
 30
0.0
 10
6.7041889536
 20
4.282811561
 30
0.0
 10
6.6971426115
 20
4.2831489863
 30
0.0
 10
6.6935704499
 20
4.2831489863
 30
0.0
 11
6.7176047456
 21
4.2803316932
 31
0.0
 11
6.7145600526
 21
4.2810405714
 31
0.0
 11
6.7042740564
 21
4.2826237709
 31
0.0
 11
6.6935704499
 21
4.2831489863
 31
0.0
  0
SPLINE
  5
53D
100
AcDbEntity
  8
0
100
AcDbSpline
 62
7
  6
CONTINUOUS
 70
0
 71
3
 72
14
 73
10
 74
8
 42
0.0000001
 43
0.0000001
 44
0.0000000001
 12
-0.0000430526
 22
-0.0759682034
 32
0.0
 13
0.0756798023
 23
0.0
 33
0.0
 40
0.0
 40
0.0
 40
0.0
 40
0.0
 40
0.1165130696
 40
0.2425606285
 40
0.3799513001
 40
0.5274190171
 40
0.6818925249
 40
0.8402257913
 40
1.0
 40
1.0
 40
1.0
 40
1.0
 10
6.6390704547
 20
4.3155955133
 30
0.0
 10
6.6390687827
 20
4.3126450838
 30
0.0
 10
6.6400827154
 20
4.3065162326
 30
0.0
 10
6.6442460081
 20
4.2977643319
 30
0.0
 10
6.6508554516
 20
4.2896652851
 30
0.0
 10
6.6595843596
 20
4.2827108548
 30
0.0
 10
6.6699806058
 20
4.2773754622
 30
0.0
 10
6.6814944567
 20
4.2740293923
 30
0.0
 10
6.6895398897
 20
4.2732715427
 30
0.0
 10
6.6935704499
 20
4.2732715427
 30
0.0
 11
6.6390704547
 21
4.3155955133
 31
0.0
 11
6.6404221635
 21
4.3068821183
 31
0.0
 11
6.6444309636
 21
4.298226086
 31
0.0
 11
6.6509440791
 21
4.2901210586
 31
0.0
 11
6.6596409562
 21
4.2831269724
 31
0.0
 11
6.6700289589
 21
4.2777643459
 31
0.0
 11
6.6815324675
 21
4.2744098385
 31
0.0
 11
6.6935704499
 21
4.2732715427
 31
0.0
  0
SPLINE
  5
53E
100
AcDbEntity
  8
0
100
AcDbSpline
 62
7
  6
CONTINUOUS
 70
0
 71
3
 72
10
 73
6
 74
4
 42
0.0000001
 43
0.0000001
 44
0.0000000001
 12
-0.0271139359
 22
0.0
 32
0.0
 13
-0.0260231401
 23
-0.0076792417
 33
0.0
 40
0.0
 40
0.0
 40
0.0
 40
0.0
 40
0.3949980497
 40
0.7786199246
 40
1.0
 40
1.0
 40
1.0
 40
1.0
 10
6.6935704499
 20
4.2831489863
 30
0.0
 10
6.690000466
 20
4.2831489863
 30
0.0
 10
6.6829581864
 20
4.2828119565
 30
0.0
 10
6.6740037391
 20
4.2814677866
 30
0.0
 10
6.6686902545
 20
4.280140714
 30
0.0
 10
6.6667699196
 20
4.279574037
 30
0.0
 11
6.6935704499
 21
4.2831489863
 31
0.0
 11
6.6828733523
 21
4.2826244188
 31
0.0
 11
6.6725927573
 21
4.2810431075
 31
0.0
 11
6.6667699196
 21
4.279574037
 31
0.0
  0
SPLINE
  5
53F
100
AcDbEntity
  8
0
100
AcDbSpline
 62
7
  6
CONTINUOUS
 70
0
 71
3
 72
10
 73
6
 74
4
 42
0.0000001
 43
0.0000001
 44
0.0000000001
 12
0.0242477118
 22
0.0
 32
0.0
 13
0.0235217712
 23
0.0059630033
 33
0.0
 40
0.0
 40
0.0
 40
0.0
 40
0.0
 40
0.44179413
 40
0.8708657231
 40
1.0
 40
1.0
 40
1.0
 40
1.0
 10
6.6935704499
 20
3.9520623789
 30
0.0
 10
6.6971412822
 20
3.9520623789
 30
0.0
 10
6.7041852489
 20
3.9523995678
 30
0.0
 10
6.7121930816
 20
3.953601951
 30
0.0
 10
6.7165922871
 20
3.954623003
 30
0.0
 10
6.7176047761
 20
3.954879679
 30
0.0
 11
6.6935704499
 21
3.9520623789
 31
0.0
 11
6.7042700831
 21
3.9525871987
 31
0.0
 11
6.7145530898
 21
3.9541693109
 31
0.0
 11
6.7176047761
 21
3.954879679
 31
0.0
  0
SPLINE
  5
540
100
AcDbEntity
  8
0
100
AcDbSpline
 62
7
  6
CONTINUOUS
 70
0
 71
3
 72
8
 73
4
 74
2
 42
0.0000001
 43
0.0000001
 44
0.0000000001
 12
0.0027802071
 22
0.0007048102
 32
0.0
 13
0.0027507156
 23
0.0008117065
 33
0.0
 40
0.0
 40
0.0
 40
0.0
 40
0.0
 40
1.0
 40
1.0
 40
1.0
 40
1.0
 10
6.7176047761
 20
3.954879679
 30
0.0
 10
6.7185315118
 20
3.9551146158
 30
0.0
 10
6.7194538787
 20
3.9553667001
 30
0.0
 10
6.7203707839
 20
3.9556372689
 30
0.0
 11
6.7176047761
 21
3.954879679
 31
0.0
 11
6.7203707839
 21
3.9556372689
 31
0.0
  0
SPLINE
  5
541
100
AcDbEntity
  8
0
100
AcDbSpline
 62
7
  6
CONTINUOUS
 70
0
 71
3
 72
22
 73
18
 74
16
 42
0.0000001
 43
0.0000001
 44
0.0000000001
 12
-0.1076692396
 22
-0.0209570676
 32
0.0
 13
-0.1076692396
 23
0.0209570675
 33
0.0
 40
0.0
 40
0.0
 40
0.0
 40
0.0
 40
0.0110466848
 40
0.0436777342
 40
0.0963361408
 40
0.1662757182
 40
0.2508874884
 40
0.3458858561
 40
0.4480922402
 40
0.5520721278
 40
0.6542947893
 40
0.749325918
 40
0.8339073555
 40
0.903811829
 40
0.9563923393
 40
0.9889785466
 40
1.0
 40
1.0
 40
1.0
 40
1.0
 10
6.7480704499
 20
4.3976056826
 30
0.0
 10
6.7476739872
 20
4.3975285139
 30
0.0
 10
6.7461058012
 20
4.3972264811
 30
0.0
 10
6.7426418163
 20
4.3965873747
 30
0.0
 10
6.7370447098
 20
4.3956440637
 30
0.0
 10
6.7295462725
 20
4.394554792
 30
0.0
 10
6.7204805232
 20
4.3935080832
 30
0.0
 10
6.7102070366
 20
4.392683452
 30
0.0
 10
6.6992009903
 20
4.3922305549
 30
0.0
 10
6.687921283
 20
4.3922309256
 30
0.0
 10
6.676913475
 20
4.3926846521
 30
0.0
 10
6.6666393685
 20
4.3935101326
 30
0.0
 10
6.6575748875
 20
4.3945573938
 30
0.0
 10
6.6500817054
 20
4.3956463765
 30
0.0
 10
6.644490329
 20
4.3965889509
 30
0.0
 10
6.6410316758
 20
4.3972271349
 30
0.0
 10
6.6394660071
 20
4.3975286901
 30
0.0
 10
6.6390704499
 20
4.3976056826
 30
0.0
 11
6.7480704499
 21
4.3976056826
 31
0.0
 11
6.7468806066
 21
4.3973765224
 31
0.0
 11
6.7433606994
 21
4.3967271955
 31
0.0
 11
6.737664865
 21
4.3957676272
 31
0.0
 11
6.7300727697
 21
4.3946655486
 31
0.0
 11
6.720852826
 21
4.3936022008
 31
0.0
 11
6.7104657743
 21
4.3927696373
 31
0.0
 11
6.6992642106
 21
4.3923094665
 31
0.0
 11
6.6878586632
 21
4.3923098408
 31
0.0
 11
6.6766553471
 21
4.3927708525
 31
0.0
 11
6.6662647775
 21
4.3936045046
 31
0.0
 11
6.65704822
 21
4.3946681724
 31
0.0
 11
6.6494600038
 21
4.3957701689
 31
0.0
 11
6.6437726335
 21
4.3967285454
 31
0.0
 11
6.6402575745
 21
4.3973770405
 31
0.0
 11
6.6390704499
 21
4.3976056826
 31
0.0
  0
SPLINE
  5
542
100
AcDbEntity
  8
0
100
AcDbSpline
 62
7
  6
CONTINUOUS
 70
0
 71
3
 72
22
 73
18
 74
16
 42
0.0000001
 43
0.0000001
 44
0.0000000001
 12
0.1076692396
 22
0.0209570676
 32
0.0
 13
0.1076692396
 23
-0.0209570675
 33
0.0
 40
0.0
 40
0.0
 40
0.0
 40
0.0
 40
0.0110466848
 40
0.0436777342
 40
0.0963361408
 40
0.1662757182
 40
0.2508874884
 40
0.3458858561
 40
0.4480922402
 40
0.5520721278
 40
0.6542947893
 40
0.749325918
 40
0.8339073555
 40
0.903811829
 40
0.9563923393
 40
0.9889785466
 40
1.0
 40
1.0
 40
1.0
 40
1.0
 10
6.6390704499
 20
3.8376056826
 30
0.0
 10
6.6394669126
 20
3.8376828513
 30
0.0
 10
6.6410350986
 20
3.8379848841
 30
0.0
 10
6.6444990835
 20
3.8386239905
 30
0.0
 10
6.65009619
 20
3.8395673015
 30
0.0
 10
6.6575946273
 20
3.8406565731
 30
0.0
 10
6.6666603766
 20
3.841703282
 30
0.0
 10
6.6769338632
 20
3.8425279132
 30
0.0
 10
6.6879399095
 20
3.8429808103
 30
0.0
 10
6.6992196169
 20
3.8429804396
 30
0.0
 10
6.7102274248
 20
3.8425267131
 30
0.0
 10
6.7205015313
 20
3.8417012325
 30
0.0
 10
6.7295660123
 20
3.8406539714
 30
0.0
 10
6.7370591944
 20
3.8395649887
 30
0.0
 10
6.7426505708
 20
3.8386224143
 30
0.0
 10
6.746109224
 20
3.8379842303
 30
0.0
 10
6.7476748927
 20
3.837682675
 30
0.0
 10
6.7480704499
 20
3.8376056826
 30
0.0
 11
6.6390704499
 21
3.8376056826
 31
0.0
 11
6.6402602932
 21
3.8378348428
 31
0.0
 11
6.6437802005
 21
3.8384841697
 31
0.0
 11
6.6494760348
 21
3.839443738
 31
0.0
 11
6.6570681301
 21
3.8405458166
 31
0.0
 11
6.6662880738
 21
3.8416091644
 31
0.0
 11
6.6766751255
 21
3.8424417279
 31
0.0
 11
6.6878766893
 21
3.8429018987
 31
0.0
 11
6.6992822366
 21
3.8429015244
 31
0.0
 11
6.7104855527
 21
3.8424405127
 31
0.0
 11
6.7208761223
 21
3.8416068606
 31
0.0
 11
6.7300926798
 21
3.8405431928
 31
0.0
 11
6.737680896
 21
3.8394411963
 31
0.0
 11
6.7433682663
 21
3.8384828198
 31
0.0
 11
6.7468833253
 21
3.8378343247
 31
0.0
 11
6.7480704499
 21
3.8376056826
 31
0.0
  0
SPLINE
  5
543
100
AcDbEntity
  8
0
100
AcDbSpline
 62
7
  6
CONTINUOUS
 70
0
 71
3
 72
14
 73
10
 74
8
 42
0.0000001
 43
0.0000001
 44
0.0000000001
 12
-0.0713766727
 22
0.0
 32
0.0
 13
-0.0000406046
 23
-0.0716486754
 33
0.0
 40
0.0
 40
0.0
 40
0.0
 40
0.0
 40
0.169101671
 40
0.3335273421
 40
0.4887502821
 40
0.631426423
 40
0.7611932116
 40
0.8817892995
 40
1.0
 40
1.0
 40
1.0
 40
1.0
 10
6.6935704499
 20
4.3503461819
 30
0.0
 10
6.689547145
 20
4.3503461819
 30
0.0
 10
6.6816020799
 20
4.3498525873
 30
0.0
 10
6.6701543464
 20
4.3476138025
 30
0.0
 10
6.6597551914
 20
4.3438713116
 30
0.0
 10
6.6509363331
 20
4.3386424466
 30
0.0
 10
6.6441923265
 20
4.3319981547
 30
0.0
 10
6.6399790706
 20
4.3241339619
 30
0.0
 10
6.6390720547
 20
4.3184187267
 30
0.0
 10
6.6390704547
 20
4.3155955133
 30
0.0
 11
6.6935704499
 21
4.3503461819
 31
0.0
 11
6.6815248891
 21
4.3495798241
 31
0.0
 11
6.6700173938
 21
4.3472744089
 31
0.0
 11
6.6596244041
 21
4.3434355827
 31
0.0
 11
6.650928827
 21
4.3381350481
 31
0.0
 11
6.6444201932
 21
4.3315450339
 31
0.0
 11
6.640416663
 21
4.3239249903
 31
0.0
 11
6.6390704547
 21
4.3155955133
 31
0.0
  0
SPLINE
  5
544
100
AcDbEntity
  8
0
100
AcDbSpline
 62
7
  6
CONTINUOUS
 70
0
 71
3
 72
14
 73
10
 74
8
 42
0.0000001
 43
0.0000001
 44
0.0000000001
 12
0.0000406197
 22
-0.071648678
 32
0.0
 13
0.0713766738
 23
-0.0
 33
0.0
 40
0.0
 40
0.0
 40
0.0
 40
0.0
 40
0.1182080425
 40
0.2388037891
 40
0.3685706033
 40
0.5112470139
 40
0.6664707902
 40
0.8308971346
 40
1.0
 40
1.0
 40
1.0
 40
1.0
 10
6.6390704549
 20
3.9196158541
 30
0.0
 10
6.6390720554
 20
3.9167927041
 30
0.0
 10
6.6399790364
 20
3.9110775399
 30
0.0
 10
6.6441921985
 20
3.9032133784
 30
0.0
 10
6.650936164
 20
3.8965690434
 30
0.0
 10
6.6597550249
 20
3.8913401268
 30
0.0
 10
6.6701542121
 20
3.8875975959
 30
0.0
 10
6.6816020066
 20
3.8853587841
 30
0.0
 10
6.6895471166
 20
3.8848651833
 30
0.0
 10
6.6935704499
 20
3.8848651833
 30
0.0
 11
6.6390704549
 21
3.9196158541
 31
0.0
 11
6.640416602
 21
3.911286557
 31
0.0
 11
6.6444200645
 21
3.9036665053
 31
0.0
 11
6.6509286582
 21
3.8970764487
 31
0.0
 11
6.6596242287
 21
3.891775866
 31
0.0
 11
6.6700172647
 21
3.8879369923
 31
0.0
 11
6.6815248042
 21
3.885631552
 31
0.0
 11
6.6935704499
 21
3.8848651833
 31
0.0
  0
SPLINE
  5
545
100
AcDbEntity
  8
0
100
AcDbSpline
 62
7
  6
CONTINUOUS
 70
0
 71
3
 72
14
 73
10
 74
8
 42
0.0000001
 43
0.0000001
 44
0.0000000001
 12
0.0713766724
 22
0.0
 32
0.0
 13
0.0000405982
 23
0.0716486745
 33
0.0
 40
0.0
 40
0.0
 40
0.0
 40
0.0
 40
0.1691014004
 40
0.3335268529
 40
0.4887496306
 40
0.6314256409
 40
0.761192309
 40
0.8817884798
 40
1.0
 40
1.0
 40
1.0
 40
1.0
 10
6.6935704499
 20
3.8848651833
 30
0.0
 10
6.6975937483
 20
3.8848651833
 30
0.0
 10
6.7055388017
 20
3.8853587764
 30
0.0
 10
6.7169865205
 20
3.8875975546
 30
0.0
 10
6.7273856661
 20
3.891340035
 30
0.0
 10
6.7362045209
 20
3.8965688854
 30
0.0
 10
6.7429485357
 20
3.903213162
 30
0.0
 10
6.7471618187
 20
3.9110773618
 30
0.0
 10
6.7480688454
 20
3.9167926181
 30
0.0
 10
6.7480704451
 20
3.919615851
 30
0.0
 11
6.6935704499
 21
3.8848651833
 31
0.0
 11
6.7056159915
 21
3.8856315386
 31
0.0
 11
6.7171234722
 21
3.8879369469
 31
0.0
 11
6.7275164535
 21
3.8917757624
 31
0.0
 11
6.7362120284
 21
3.8970762825
 31
0.0
 11
6.7427206679
 21
3.903666279
 31
0.0
 11
6.746724218
 21
3.9112863187
 31
0.0
 11
6.7480704451
 21
3.919615851
 31
0.0
  0
SPLINE
  5
546
100
AcDbEntity
  8
0
100
AcDbSpline
 62
7
  6
CONTINUOUS
 70
0
 71
3
 72
14
 73
10
 74
8
 42
0.0000001
 43
0.0000001
 44
0.0000000001
 12
-0.0000406244
 22
0.071648678
 32
0.0
 13
-0.0713766741
 23
-0.0
 33
0.0
 40
0.0
 40
0.0
 40
0.0
 40
0.0
 40
0.1182071039
 40
0.2388029845
 40
0.3685698851
 40
0.5112464347
 40
0.6664703703
 40
0.8308969075
 40
1.0
 40
1.0
 40
1.0
 40
1.0
 10
6.7480704449
 20
4.3155955104
 30
0.0
 10
6.7480688442
 20
4.318418638
 30
0.0
 10
6.7471618746
 20
4.3241337831
 30
0.0
 10
6.7429487387
 20
4.3319979397
 30
0.0
 10
6.7362047771
 20
4.3386422919
 30
0.0
 10
6.7273859128
 20
4.3438712218
 30
0.0
 10
6.7169867163
 20
4.3476137622
 30
0.0
 10
6.7055389087
 20
4.3498525798
 30
0.0
 10
6.6975937887
 20
4.3503461819
 30
0.0
 10
6.6935704499
 20
4.3503461819
 30
0.0
 11
6.7480704449
 21
4.3155955104
 31
0.0
 11
6.7467243193
 21
4.3239247438
 31
0.0
 11
6.7427208699
 21
4.3315448132
 31
0.0
 11
6.7362122824
 21
4.3381348847
 31
0.0
 11
6.7275167087
 21
4.3434354813
 31
0.0
 11
6.7171236642
 21
4.3472743648
 31
0.0
 11
6.7056161118
 21
4.3495798111
 31
0.0
 11
6.6935704499
 21
4.3503461819
 31
0.0
  0
SPLINE
  5
547
100
AcDbEntity
  8
0
100
AcDbSpline
 62
7
  6
CONTINUOUS
 70
0
 71
3
 72
14
 73
10
 74
8
 42
0.0000001
 43
0.0000001
 44
0.0000000001
 12
-0.1046826132
 22
0.2029792199
 32
0.0
 13
0.1046826132
 23
0.2029792199
 33
0.0
 40
0.0
 40
0.0
 40
0.0
 40
0.0
 40
0.1530438599
 40
0.2956043717
 40
0.4324922324
 40
0.5675957362
 40
0.7044780411
 40
0.8469906498
 40
1.0
 40
1.0
 40
1.0
 40
1.0
 10
4.5176341158
 20
3.6295032101
 30
0.0
 10
4.5122937721
 20
3.6398581179
 30
0.0
 10
4.5028887787
 20
3.6603578462
 30
0.0
 10
4.4928471606
 20
3.6918133705
 30
0.0
 10
4.4877034504
 20
3.7230810393
 30
0.0
 10
4.4877051435
 20
3.7543500635
 30
0.0
 10
4.492851224
 20
3.7856131685
 30
0.0
 10
4.5028924064
 20
3.8170616835
 30
0.0
 10
4.5122949762
 20
3.8375555822
 30
0.0
 10
4.5176341158
 20
3.8479081551
 30
0.0
 11
4.5176341158
 21
3.6295032101
 31
0.0
 11
4.5032365171
 21
3.661352851
 31
0.0
 11
4.4935016448
 21
3.6924219022
 31
0.0
 11
4.4885364111
 21
3.723288016
 31
0.0
 11
4.4885380418
 21
3.7541434241
 31
0.0
 11
4.4935060307
 21
3.7850078094
 31
0.0
 11
4.5032393532
 21
3.8160658815
 31
0.0
 11
4.5176341158
 21
3.8479081551
 31
0.0
  0
SPLINE
  5
548
100
AcDbEntity
  8
0
100
AcDbSpline
 62
7
  6
CONTINUOUS
 70
0
 71
3
 72
15
 73
11
 74
9
 42
0.0000001
 43
0.0000001
 44
0.0000000001
 12
0.1643031241
 22
0.1839340856
 32
0.0
 13
-0.1643031241
 23
0.1839340856
 33
0.0
 40
0.0
 40
0.0
 40
0.0
 40
0.0
 40
0.1498215377
 40
0.2783315905
 40
0.3927788038
 40
0.5000592815
 40
0.6073304266
 40
0.7217569014
 40
0.8502022558
 40
1.0
 40
1.0
 40
1.0
 40
1.0
 10
4.8910704499
 20
3.6295032101
 30
0.0
 10
4.8992758321
 20
3.6386889726
 30
0.0
 10
4.9137076116
 20
3.6565319312
 30
0.0
 10
4.9303053404
 20
3.6843903453
 30
0.0
 10
4.9402904473
 20
3.7116174193
 30
0.0
 10
4.9436514704
 20
3.738719775
 30
0.0
 10
4.9402836968
 20
3.7658194388
 30
0.0
 10
4.9302965795
 20
3.7930372154
 30
0.0
 10
4.9137018499
 20
3.8208866758
 30
0.0
 10
4.899274529
 20
3.8387238514
 30
0.0
 10
4.8910704499
 20
3.8479081551
 30
0.0
 11
4.8910704499
 21
3.6295032101
 31
0.0
 11
4.9140389237
 21
3.6584481231
 31
0.0
 11
4.9299651085
 21
3.6858508381
 31
0.0
 11
4.939414106
 21
3.7124486195
 31
0.0
 11
4.9425544149
 21
3.7387203834
 31
0.0
 11
4.9394078267
 21
3.7649890779
 31
0.0
 11
4.9299557945
 21
3.7915803527
 31
0.0
 11
4.914035587
 21
3.8189680857
 31
0.0
 11
4.8910704499
 21
3.8479081551
 31
0.0
  0
SPLINE
  5
549
100
AcDbEntity
  8
0
100
AcDbSpline
 62
7
  6
CONTINUOUS
 70
0
 71
3
 72
14
 73
10
 74
8
 42
0.0000001
 43
0.0000001
 44
0.0000000001
 12
-0.1103507163
 22
0.4279393037
 32
0.0
 13
0.1103507163
 23
0.4279393037
 33
0.0
 40
0.0
 40
0.0
 40
0.0
 40
0.0
 40
0.1477720816
 40
0.2900907235
 40
0.430227046
 40
0.569863817
 40
0.7099928421
 40
0.8522618536
 40
1.0
 40
1.0
 40
1.0
 40
1.0
 10
4.5176341158
 20
3.8992007376
 30
0.0
 10
4.5121985308
 20
3.9202798982
 30
0.0
 10
4.5026831786
 20
3.9619739371
 30
0.0
 10
4.4927560953
 20
4.0246225761
 30
0.0
 10
4.4877015524
 20
4.086662011
 30
0.0
 10
4.4877032111
 20
4.148588472
 30
0.0
 10
4.492760129
 20
4.2106192784
 30
0.0
 10
4.5026869045
 20
4.2732543538
 30
0.0
 10
4.512199779
 20
4.3149363078
 30
0.0
 10
4.5176341158
 20
4.3360106276
 30
0.0
 11
4.5176341158
 21
3.8992007376
 31
0.0
 11
4.5032365171
 21
3.9629000194
 31
0.0
 11
4.4935016448
 21
4.0250381218
 31
0.0
 11
4.4885364111
 21
4.0867703495
 31
0.0
 11
4.4885380418
 21
4.1484811657
 31
0.0
 11
4.4935060307
 21
4.2102099363
 31
0.0
 11
4.5032393532
 21
4.2723260803
 31
0.0
 11
4.5176341158
 21
4.3360106276
 31
0.0
  0
SPLINE
  5
54A
100
AcDbEntity
  8
0
100
AcDbSpline
 62
7
  6
CONTINUOUS
 70
0
 71
3
 72
15
 73
11
 74
9
 42
0.0000001
 43
0.0000001
 44
0.0000000001
 12
0.1843202379
 22
0.4126856942
 32
0.0
 13
-0.1843202379
 23
0.4126856942
 33
0.0
 40
0.0
 40
0.0
 40
0.0
 40
0.0
 40
0.1377942686
 40
0.2640673782
 40
0.3836049145
 40
0.5000649493
 40
0.6165122554
 40
0.736022619
 40
0.8622283762
 40
1.0
 40
1.0
 40
1.0
 40
1.0
 10
4.8910704499
 20
3.8992007376
 30
0.0
 10
4.8995365407
 20
3.9181559787
 30
0.0
 10
4.9143680835
 20
3.9551369176
 30
0.0
 10
4.9307051987
 20
4.0106731987
 30
0.0
 10
4.9403983682
 20
4.064503938
 30
0.0
 10
4.9436200247
 20
4.1176332409
 30
0.0
 10
4.9403918346
 20
4.1707579915
 30
0.0
 10
4.930696313
 20
4.2245717741
 30
0.0
 10
4.9143618635
 20
4.2800902693
 30
0.0
 10
4.8995351494
 20
4.3170585015
 30
0.0
 10
4.8910704499
 20
4.3360106276
 30
0.0
 11
4.8910704499
 21
3.8992007376
 31
0.0
 11
4.9140389237
 21
3.9570905636
 31
0.0
 11
4.9299651085
 21
4.0118959937
 31
0.0
 11
4.939414106
 21
4.0650915563
 31
0.0
 11
4.9425544149
 21
4.1176350843
 31
0.0
 11
4.9394078267
 21
4.1701724732
 31
0.0
 11
4.9299557945
 21
4.2233550229
 31
0.0
 11
4.914035587
 21
4.2781304889
 31
0.0
 11
4.8910704499
 21
4.3360106276
 31
0.0
  0
SPLINE
  5
54B
100
AcDbEntity
  8
0
100
AcDbSpline
 62
7
  6
CONTINUOUS
 70
0
 71
3
 72
14
 73
10
 74
8
 42
0.0000001
 43
0.0000001
 44
0.0000000001
 12
-0.1046826132
 22
0.2029792199
 32
0.0
 13
0.1046826132
 23
0.2029792199
 33
0.0
 40
0.0
 40
0.0
 40
0.0
 40
0.0
 40
0.1530438599
 40
0.2956043717
 40
0.4324922324
 40
0.5675957362
 40
0.7044780411
 40
0.8469906498
 40
1.0
 40
1.0
 40
1.0
 40
1.0
 10
4.5176341158
 20
4.3873032101
 30
0.0
 10
4.5122937721
 20
4.3976581179
 30
0.0
 10
4.5028887787
 20
4.4181578462
 30
0.0
 10
4.4928471606
 20
4.4496133705
 30
0.0
 10
4.4877034504
 20
4.4808810393
 30
0.0
 10
4.4877051435
 20
4.5121500635
 30
0.0
 10
4.492851224
 20
4.5434131685
 30
0.0
 10
4.5028924064
 20
4.5748616835
 30
0.0
 10
4.5122949762
 20
4.5953555822
 30
0.0
 10
4.5176341158
 20
4.6057081551
 30
0.0
 11
4.5176341158
 21
4.3873032101
 31
0.0
 11
4.5032365171
 21
4.419152851
 31
0.0
 11
4.4935016448
 21
4.4502219022
 31
0.0
 11
4.4885364111
 21
4.481088016
 31
0.0
 11
4.4885380418
 21
4.5119434241
 31
0.0
 11
4.4935060307
 21
4.5428078094
 31
0.0
 11
4.5032393532
 21
4.5738658815
 31
0.0
 11
4.5176341158
 21
4.6057081551
 31
0.0
  0
SPLINE
  5
54C
100
AcDbEntity
  8
0
100
AcDbSpline
 62
7
  6
CONTINUOUS
 70
0
 71
3
 72
15
 73
11
 74
9
 42
0.0000001
 43
0.0000001
 44
0.0000000001
 12
0.1643031241
 22
0.1839340856
 32
0.0
 13
-0.1643031241
 23
0.1839340856
 33
0.0
 40
0.0
 40
0.0
 40
0.0
 40
0.0
 40
0.1498215377
 40
0.2783315905
 40
0.3927788038
 40
0.5000592815
 40
0.6073304266
 40
0.7217569014
 40
0.8502022558
 40
1.0
 40
1.0
 40
1.0
 40
1.0
 10
4.8910704499
 20
4.3873032101
 30
0.0
 10
4.8992758321
 20
4.3964889726
 30
0.0
 10
4.9137076116
 20
4.4143319312
 30
0.0
 10
4.9303053404
 20
4.4421903453
 30
0.0
 10
4.9402904473
 20
4.4694174193
 30
0.0
 10
4.9436514704
 20
4.496519775
 30
0.0
 10
4.9402836968
 20
4.5236194388
 30
0.0
 10
4.9302965795
 20
4.5508372154
 30
0.0
 10
4.9137018499
 20
4.5786866758
 30
0.0
 10
4.899274529
 20
4.5965238514
 30
0.0
 10
4.8910704499
 20
4.6057081551
 30
0.0
 11
4.8910704499
 21
4.3873032101
 31
0.0
 11
4.9140389237
 21
4.4162481231
 31
0.0
 11
4.9299651085
 21
4.4436508381
 31
0.0
 11
4.939414106
 21
4.4702486195
 31
0.0
 11
4.9425544149
 21
4.4965203834
 31
0.0
 11
4.9394078267
 21
4.5227890779
 31
0.0
 11
4.9299557945
 21
4.5493803527
 31
0.0
 11
4.914035587
 21
4.5767680857
 31
0.0
 11
4.8910704499
 21
4.6057081551
 31
0.0
  0
ENDSEC
  0
SECTION
  2
OBJECTS
  0
DICTIONARY
  5
C
100
AcDbDictionary
280
0
281
1
  3
ACAD_GROUP
350
D
  3
ACAD_MLINESTYLE
350
17
  3
ACAD_LAYOUT
350
1A
  3
ACAD_PLOTSETTINGS
350
19
  3
ACAD_PLOTSTYLENAME
350
E
  0
DICTIONARY
  5
D
102
{ACAD_REACTORS
330
C
102
}
100
AcDbDictionary
280
0
281
1
  0
ACDBDICTIONARYWDFLT
  5
E
102
{ACAD_REACTORS
330
C
102
}
100
AcDbDictionary
281
1
  3
Normal
350
F
100
AcDbDictionaryWithDefault
340
F
  0
DICTIONARY
  5
17
102
{ACAD_REACTORS
330
C
102
}
100
AcDbDictionary
280
0
281
1
  3
Standard
350
18
  0
DICTIONARY
  5
19
102
{ACAD_REACTORS
330
C
102
}
100
AcDbDictionary
281
1
  0
DICTIONARY
  5
1A
102
{ACAD_REACTORS
330
C
102
}
100
AcDbDictionary
281
1
  3
Layout1
350
1E
  3
Model
350
22
  0
ACDBPLACEHOLDER
  5
F
102
{ACAD_REACTORS
330
E
102
}
  0
MLINESTYLE
  5
18
102
{ACAD_REACTORS
330
17
102
}
100
AcDbMlineStyle
  2
STANDARD
 70
0
  3

 62
256
 51
90.0
 52
90.0
 71
2
 49
0.5
 62
256
  6
BYLAYER
 49
-0.5
 62
256
  6
BYLAYER
  0
LAYOUT
  5
1E
102
{ACAD_REACTORS
330
1A
102
}
100
AcDbPlotSettings
  1

  2

  4

  6

 40
0.0
 41
0.0
 42
0.0
 43
0.0
 44
0.0
 45
0.0
 46
0.0
 47
0.0
 48
0.0
 49
0.0
140
0.0
141
0.0
142
1.0
143
1.0
 70
0
 72
0
 73
0
 74
0
  7

 75
0
147
1.0
148
0.0
149
0.0
100
AcDbLayout
  1
Layout1
 70
0
 71
0
 10
0.0
 20
0.0
 11
0.0
 21
0.0
 12
0.0
 22
0.0
 32
0.0
 14
0.0
 24
0.0
 34
0.0
 15
0.0
 25
0.0
 35
0.0
146
0.0
 13
0.0
 23
0.0
 33
0.0
 16
0.0
 26
0.0
 36
0.0
 17
0.0
 27
0.0
 37
0.0
 76
0
330
1B
331
0
345
0
346
0
  0
LAYOUT
  5
22
102
{ACAD_REACTORS
330
1A
102
}
100
AcDbPlotSettings
  1

  2

  4

  6

 40
0.0
 41
0.0
 42
0.0
 43
0.0
 44
0.0
 45
0.0
 46
0.0
 47
0.0
 48
0.0
 49
0.0
140
0.0
141
0.0
142
1.0
143
1.0
 70
0
 72
0
 73
0
 74
0
  7

 75
0
147
1.0
148
0.0
149
0.0
100
AcDbLayout
  1
Model
 70
0
 71
0
 10
0.0
 20
0.0
 11
0.0
 21
0.0
 12
0.0
 22
0.0
 32
0.0
 14
0.0
 24
0.0
 34
0.0
 15
0.0
 25
0.0
 35
0.0
146
0.0
 13
0.0
 23
0.0
 33
0.0
 16
0.0
 26
0.0
 36
0.0
 17
0.0
 27
0.0
 37
0.0
 76
0
330
1F
331
0
345
0
346
0
  0
ENDSEC
  0
EOF
