999
DXF file: NQEB-XAN.dxf
999
Pro/ENGINEER 2006240 by Parametric Technology Corporation
  0
SECTION
  2
HEADER
  9
$ACADVER
  1
AC1015
  9
$DWGCODEPAGE
  3
ANSI_1252
  9
$EXTMAX
 10
11.6929133858
 20
8.2677165354
 30
0.0
  9
$EXTMIN
 10
0.0
 20
0.0
 30
0.0
  9
$LIMMIN
 10
0.0
 20
0.0
  9
$LIMMAX
 10
11.6929133858
 20
8.2677165354
  9
$VIEWCTR
 10
5.8464566929
 20
4.1338582677
  9
$VIEWSIZE
 40
8.2677165354
  9
$CLAYER
  8
0
  9
$LTSCALE
 40
0.6431102362
  9
$CELTYPE
  6
BYLAYER
  9
$DIMSCALE
 40
1.0
  9
$DIMASZ
 40
0.1875
  9
$DIMEXO
 40
0.0730807087
  9
$DIMDLI
 40
0.4443307087
  9
$DIMEXE
 40
0.2104724409
  9
$DIMCEN
 40
0.1052362205
  9
$DIMLFAC
 40
1.0
  9
$DIMBLK
  1
_CLOSED
  9
$DIMTXT
 40
0.15625
  9
$DIMTOL
 70
0
  9
$DIMLIM
 70
0
  9
$DIMTFAC
 40
1.0
  9
$PDMODE
 70
3
  9
$PDSIZE
 40
0.3125
  9
$HANDSEED
  5
3E1
  9
$MEASUREMENT
 70
0
  9
$INSUNITS
 70
1
  0
ENDSEC
  0
SECTION
  2
CLASSES
  0
CLASS
  1
ACDBDICTIONARYWDFLT
  2
AcDbDictionaryWithDefault
  3
AutoCAD 2000
 90
0
280
0
281
0
  0
CLASS
  1
ACDBPLACEHOLDER
  2
AcDbPlaceHolder
  3
AutoCAD 2000
 90
0
280
0
281
0
  0
CLASS
  1
LAYOUT
  2
AcDbLayout
  3
AutoCAD 2000
 90
0
280
0
281
0
  0
ENDSEC
  0
SECTION
  2
TABLES
  0
TABLE
  2
VPORT
  5
8
100
AcDbSymbolTable
 70
2
  0
VPORT
  5
1F4
100
AcDbSymbolTableRecord
100
AcDbViewportTableRecord
  2
*ACTIVE
 70
0
 10
0.0
 20
0.0
 11
1.0
 21
1.0
 12
5.8464566929
 22
4.1338582677
 13
0.0
 23
0.0
 14
1.0
 24
1.0
 15
0.0
 25
0.0
 16
0.0
 26
0.0
 36
1.0
 17
0.0
 27
0.0
 37
0.0
 40
8.2677165354
 41
1.4142857143
 42
50.0
 43
0.0
 44
0.0
 50
0.0
 51
0.0
 71
0
 72
100
 73
1
 74
1
 75
0
 76
0
 77
0
 78
0
  0
ENDTAB
  0
TABLE
  2
LTYPE
  5
5
100
AcDbSymbolTable
 70
6
  0
LTYPE
  5
14
100
AcDbSymbolTableRecord
100
AcDbLinetypeTableRecord
  2
BYBLOCK
 70
0
  3

 72
65
 73
0
 40
0.0
  0
LTYPE
  5
15
100
AcDbSymbolTableRecord
100
AcDbLinetypeTableRecord
  2
BYLAYER
 70
0
  3

 72
65
 73
0
 40
0.0
  0
LTYPE
  5
16
100
AcDbSymbolTableRecord
100
AcDbLinetypeTableRecord
  2
CONTINUOUS
 70
64
  3
Solid line
 72
65
 73
0
 40
0.0
  0
LTYPE
  5
1F5
100
AcDbSymbolTableRecord
100
AcDbLinetypeTableRecord
  2
CENTER
 70
64
  3
____ _ ____ _ ____ _ ____ _ ____ _ ____ _ ____
 72
65
 73
4
 40
0.6
 49
0.375
 74
0
 49
-0.075
 74
0
 49
0.075
 74
0
 49
-0.075
 74
0
  0
LTYPE
  5
1F6
100
AcDbSymbolTableRecord
100
AcDbLinetypeTableRecord
  2
HIDDEN
 70
64
  3
- - - - - - - - - - - - - - - - - - - -
 72
65
 73
2
 40
0.2
 49
0.1
 74
0
 49
-0.1
 74
0
  0
LTYPE
  5
1F7
100
AcDbSymbolTableRecord
100
AcDbLinetypeTableRecord
  2
PHANTOM
 70
64
  3
_____ _ _ _____ _ _ _____ _ _ _____
 72
65
 73
6
 40
0.8
 49
0.45
 74
0
 49
-0.05
 74
0
 49
0.1
 74
0
 49
-0.05
 74
0
 49
0.1
 74
0
 49
-0.05
 74
0
  0
LTYPE
  5
1F8
100
AcDbSymbolTableRecord
100
AcDbLinetypeTableRecord
  2
DOT
 70
64
  3
. . . . . . . . . . . . . . . . . . . .
 72
65
 73
2
 40
0.2
 49
0.1
 74
0
 49
-0.1
 74
0
  0
LTYPE
  5
1F9
100
AcDbSymbolTableRecord
100
AcDbLinetypeTableRecord
  2
DASHED
 70
64
  3
- - - - - - - - - - - - - - - - - - - -
 72
65
 73
2
 40
0.2
 49
0.1
 74
0
 49
-0.1
 74
0
  0
ENDTAB
  0
TABLE
  2
LAYER
  5
2
100
AcDbSymbolTable
 70
36
  0
LAYER
  5
10
100
AcDbSymbolTableRecord
100
AcDbLayerTableRecord
  2
0
 70
0
 62
7
  6
CONTINUOUS
370
-3
390
F
  0
LAYER
  5
1FA
100
AcDbSymbolTableRecord
100
AcDbLayerTableRecord
  2
DEFAULT_1
 70
0
 62
7
  6
CENTER
370
-3
390
F
  0
LAYER
  5
1FB
100
AcDbSymbolTableRecord
100
AcDbLayerTableRecord
  2
DEFAULT_2
 70
0
 62
8
  6
HIDDEN
370
-3
390
F
  0
LAYER
  5
1FC
100
AcDbSymbolTableRecord
100
AcDbLayerTableRecord
  2
DEFAULT_3
 70
0
 62
7
  6
PHANTOM
370
-3
390
F
  0
LAYER
  5
1FD
100
AcDbSymbolTableRecord
100
AcDbLayerTableRecord
  2
_BLACK_HOLE
 70
0
 62
7
  6
CONTINUOUS
370
-3
390
F
  0
LAYER
  5
1FE
100
AcDbSymbolTableRecord
100
AcDbLayerTableRecord
  2
01_ALL_DTM_PLN
 70
0
 62
7
  6
CONTINUOUS
370
-3
390
F
  0
LAYER
  5
1FF
100
AcDbSymbolTableRecord
100
AcDbLayerTableRecord
  2
01__ASM_ALL_DTM_PLN
 70
0
 62
7
  6
CONTINUOUS
370
-3
390
F
  0
LAYER
  5
200
100
AcDbSymbolTableRecord
100
AcDbLayerTableRecord
  2
01__ASM_DEF_DTM_PLN
 70
0
 62
7
  6
CONTINUOUS
370
-3
390
F
  0
LAYER
  5
201
100
AcDbSymbolTableRecord
100
AcDbLayerTableRecord
  2
01___PRT_ALL_DTM_PLN
 70
0
 62
7
  6
CONTINUOUS
370
-3
390
F
  0
LAYER
  5
202
100
AcDbSymbolTableRecord
100
AcDbLayerTableRecord
  2
01___PRT_DEF_DTM_PLN
 70
0
 62
7
  6
CONTINUOUS
370
-3
390
F
  0
LAYER
  5
203
100
AcDbSymbolTableRecord
100
AcDbLayerTableRecord
  2
02_ALL_AXES
 70
0
 62
7
  6
CONTINUOUS
370
-3
390
F
  0
LAYER
  5
204
100
AcDbSymbolTableRecord
100
AcDbLayerTableRecord
  2
02__ASM_ALL_AXES
 70
0
 62
7
  6
CONTINUOUS
370
-3
390
F
  0
LAYER
  5
205
100
AcDbSymbolTableRecord
100
AcDbLayerTableRecord
  2
02___PRT_ALL_AXES
 70
0
 62
7
  6
CONTINUOUS
370
-3
390
F
  0
LAYER
  5
206
100
AcDbSymbolTableRecord
100
AcDbLayerTableRecord
  2
03_ALL_CURVES
 70
0
 62
7
  6
CONTINUOUS
370
-3
390
F
  0
LAYER
  5
207
100
AcDbSymbolTableRecord
100
AcDbLayerTableRecord
  2
03__ASM_ALL_CURVES
 70
0
 62
7
  6
CONTINUOUS
370
-3
390
F
  0
LAYER
  5
208
100
AcDbSymbolTableRecord
100
AcDbLayerTableRecord
  2
03___PRT_ALL_CURVES
 70
0
 62
7
  6
CONTINUOUS
370
-3
390
F
  0
LAYER
  5
209
100
AcDbSymbolTableRecord
100
AcDbLayerTableRecord
  2
04_ALL_DTM_PNT
 70
0
 62
7
  6
CONTINUOUS
370
-3
390
F
  0
LAYER
  5
20A
100
AcDbSymbolTableRecord
100
AcDbLayerTableRecord
  2
04__ASM_ALL_DTM_PNT
 70
0
 62
7
  6
CONTINUOUS
370
-3
390
F
  0
LAYER
  5
20B
100
AcDbSymbolTableRecord
100
AcDbLayerTableRecord
  2
04___PRT_ALL_DTM_PNT
 70
0
 62
7
  6
CONTINUOUS
370
-3
390
F
  0
LAYER
  5
20C
100
AcDbSymbolTableRecord
100
AcDbLayerTableRecord
  2
05_ALL_DTM_CSYS
 70
0
 62
7
  6
CONTINUOUS
370
-3
390
F
  0
LAYER
  5
20D
100
AcDbSymbolTableRecord
100
AcDbLayerTableRecord
  2
05__ASM_ALL_DTM_CSYS
 70
0
 62
7
  6
CONTINUOUS
370
-3
390
F
  0
LAYER
  5
20E
100
AcDbSymbolTableRecord
100
AcDbLayerTableRecord
  2
05__ASM_DEF_DTM_CSYS
 70
0
 62
7
  6
CONTINUOUS
370
-3
390
F
  0
LAYER
  5
20F
100
AcDbSymbolTableRecord
100
AcDbLayerTableRecord
  2
05___PRT_ALL_DTM_CSYS
 70
0
 62
7
  6
CONTINUOUS
370
-3
390
F
  0
LAYER
  5
210
100
AcDbSymbolTableRecord
100
AcDbLayerTableRecord
  2
05___PRT_DEF_DTM_CSYS
 70
0
 62
7
  6
CONTINUOUS
370
-3
390
F
  0
LAYER
  5
211
100
AcDbSymbolTableRecord
100
AcDbLayerTableRecord
  2
06_ALL_SURFS
 70
0
 62
7
  6
CONTINUOUS
370
-3
390
F
  0
LAYER
  5
212
100
AcDbSymbolTableRecord
100
AcDbLayerTableRecord
  2
06__ASM_ALL_SURFS
 70
0
 62
7
  6
CONTINUOUS
370
-3
390
F
  0
LAYER
  5
213
100
AcDbSymbolTableRecord
100
AcDbLayerTableRecord
  2
06___PRT_ALL_SURFS
 70
0
 62
7
  6
CONTINUOUS
370
-3
390
F
  0
LAYER
  5
214
100
AcDbSymbolTableRecord
100
AcDbLayerTableRecord
  2
07__ASM_ALL_SKELETONS
 70
0
 62
7
  6
CONTINUOUS
370
-3
390
F
  0
LAYER
  5
215
100
AcDbSymbolTableRecord
100
AcDbLayerTableRecord
  2
127-002_FEATURES
 70
0
 62
7
  6
CONTINUOUS
370
-3
390
F
  0
LAYER
  5
216
100
AcDbSymbolTableRecord
100
AcDbLayerTableRecord
  2
127-002_REF_GEOMETRY
 70
0
 62
7
  6
CONTINUOUS
370
-3
390
F
  0
LAYER
  5
217
100
AcDbSymbolTableRecord
100
AcDbLayerTableRecord
  2
127-110_FEATURES
 70
0
 62
7
  6
CONTINUOUS
370
-3
390
F
  0
LAYER
  5
218
100
AcDbSymbolTableRecord
100
AcDbLayerTableRecord
  2
127-110_REF_GEOMETRY
 70
0
 62
7
  6
CONTINUOUS
370
-3
390
F
  0
LAYER
  5
219
100
AcDbSymbolTableRecord
100
AcDbLayerTableRecord
  2
127-112_FEATURES
 70
0
 62
7
  6
CONTINUOUS
370
-3
390
F
  0
LAYER
  5
21A
100
AcDbSymbolTableRecord
100
AcDbLayerTableRecord
  2
127-112_REF_GEOMETRY
 70
0
 62
7
  6
CONTINUOUS
370
-3
390
F
  0
LAYER
  5
21B
100
AcDbSymbolTableRecord
100
AcDbLayerTableRecord
  2
127-113_FEATURES
 70
0
 62
7
  6
CONTINUOUS
370
-3
390
F
  0
LAYER
  5
21C
100
AcDbSymbolTableRecord
100
AcDbLayerTableRecord
  2
127-113_REF_GEOMETRY
 70
0
 62
7
  6
CONTINUOUS
370
-3
390
F
  0
LAYER
  5
21D
100
AcDbSymbolTableRecord
100
AcDbLayerTableRecord
  2
127-114_FEATURES
 70
0
 62
7
  6
CONTINUOUS
370
-3
390
F
  0
LAYER
  5
21E
100
AcDbSymbolTableRecord
100
AcDbLayerTableRecord
  2
127-114_REF_GEOMETRY
 70
0
 62
7
  6
CONTINUOUS
370
-3
390
F
  0
LAYER
  5
21F
100
AcDbSymbolTableRecord
100
AcDbLayerTableRecord
  2
250-18_NPTF_PORT
 70
0
 62
7
  6
CONTINUOUS
370
-3
390
F
  0
LAYER
  5
220
100
AcDbSymbolTableRecord
100
AcDbLayerTableRecord
  2
COPY_GEO_FET
 70
0
 62
7
  6
CONTINUOUS
370
-3
390
F
  0
LAYER
  5
221
100
AcDbSymbolTableRecord
100
AcDbLayerTableRecord
  2
COSMETIC
 70
0
 62
7
  6
CONTINUOUS
370
-3
390
F
  0
LAYER
  5
222
100
AcDbSymbolTableRecord
100
AcDbLayerTableRecord
  2
CURVES
 70
0
 62
7
  6
CONTINUOUS
370
-3
390
F
  0
LAYER
  5
223
100
AcDbSymbolTableRecord
100
AcDbLayerTableRecord
  2
CUT_REF_SURF
 70
0
 62
7
  6
CONTINUOUS
370
-3
390
F
  0
LAYER
  5
224
100
AcDbSymbolTableRecord
100
AcDbLayerTableRecord
  2
DATUM
 70
0
 62
7
  6
CONTINUOUS
370
-3
390
F
  0
LAYER
  5
225
100
AcDbSymbolTableRecord
100
AcDbLayerTableRecord
  2
DATUMCURVES
 70
0
 62
7
  6
CONTINUOUS
370
-3
390
F
  0
LAYER
  5
226
100
AcDbSymbolTableRecord
100
AcDbLayerTableRecord
  2
DIMENSIONS
 70
0
 62
7
  6
CONTINUOUS
370
-3
390
F
  0
LAYER
  5
227
100
AcDbSymbolTableRecord
100
AcDbLayerTableRecord
  2
DTM
 70
0
 62
7
  6
CONTINUOUS
370
-3
390
F
  0
LAYER
  5
228
100
AcDbSymbolTableRecord
100
AcDbLayerTableRecord
  2
DTM230
 70
0
 62
7
  6
CONTINUOUS
370
-3
390
F
  0
LAYER
  5
229
100
AcDbSymbolTableRecord
100
AcDbLayerTableRecord
  2
DTM_500001
 70
0
 62
7
  6
CONTINUOUS
370
-3
390
F
  0
LAYER
  5
22A
100
AcDbSymbolTableRecord
100
AcDbLayerTableRecord
  2
DTM_500002
 70
0
 62
7
  6
CONTINUOUS
370
-3
390
F
  0
LAYER
  5
22B
100
AcDbSymbolTableRecord
100
AcDbLayerTableRecord
  2
DTM_515002
 70
0
 62
7
  6
CONTINUOUS
370
-3
390
F
  0
LAYER
  5
22C
100
AcDbSymbolTableRecord
100
AcDbLayerTableRecord
  2
DTM_530002
 70
0
 62
7
  6
CONTINUOUS
370
-3
390
F
  0
LAYER
  5
22D
100
AcDbSymbolTableRecord
100
AcDbLayerTableRecord
  2
DTM_SPRING_LH
 70
0
 62
7
  6
CONTINUOUS
370
-3
390
F
  0
LAYER
  5
22E
100
AcDbSymbolTableRecord
100
AcDbLayerTableRecord
  2
DTM_SP_LH_CONSTR
 70
0
 62
7
  6
CONTINUOUS
370
-3
390
F
  0
LAYER
  5
22F
100
AcDbSymbolTableRecord
100
AcDbLayerTableRecord
  2
GEOMETRICTOLERANCES
 70
0
 62
7
  6
CONTINUOUS
370
-3
390
F
  0
LAYER
  5
230
100
AcDbSymbolTableRecord
100
AcDbLayerTableRecord
  2
PARAMETERDIMENSIONS
 70
0
 62
7
  6
CONTINUOUS
370
-3
390
F
  0
LAYER
  5
231
100
AcDbSymbolTableRecord
100
AcDbLayerTableRecord
  2
PLANE
 70
0
 62
7
  6
CONTINUOUS
370
-3
390
F
  0
LAYER
  5
232
100
AcDbSymbolTableRecord
100
AcDbLayerTableRecord
  2
SAE-6_PORT
 70
0
 62
7
  6
CONTINUOUS
370
-3
390
F
  0
LAYER
  5
233
100
AcDbSymbolTableRecord
100
AcDbLayerTableRecord
  2
T-8A_CAVITY
 70
0
 62
7
  6
CONTINUOUS
370
-3
390
F
  0
LAYER
  5
234
100
AcDbSymbolTableRecord
100
AcDbLayerTableRecord
  2
T-8A_CAVITY_REF_GEOMETRY
 70
0
 62
7
  6
CONTINUOUS
370
-3
390
F
  0
LAYER
  5
235
100
AcDbSymbolTableRecord
100
AcDbLayerTableRecord
  2
TEXT
 70
0
 62
7
  6
CONTINUOUS
370
-3
390
F
  0
LAYER
  5
236
100
AcDbSymbolTableRecord
100
AcDbLayerTableRecord
  2
THREAD
 70
0
 62
7
  6
CONTINUOUS
370
-3
390
F
  0
LAYER
  5
237
100
AcDbSymbolTableRecord
100
AcDbLayerTableRecord
  2
XSEC_DATUMS
 70
0
 62
7
  6
CONTINUOUS
370
-3
390
F
  0
ENDTAB
  0
TABLE
  2
STYLE
  5
3
100
AcDbSymbolTable
 70
1
  0
STYLE
  5
11
100
AcDbSymbolTableRecord
100
AcDbTextStyleTableRecord
  2
STANDARD
 70
0
 40
0.0
 41
0.8
 50
0.0
 71
0
 42
0.2
  3
txt
  4

  0
ENDTAB
  0
TABLE
  2
VIEW
  5
6
100
AcDbSymbolTable
 70
0
  0
ENDTAB
  0
TABLE
  2
UCS
  5
7
100
AcDbSymbolTable
 70
0
  0
ENDTAB
  0
TABLE
  2
APPID
  5
9
100
AcDbSymbolTable
 70
1
  0
APPID
  5
238
100
AcDbSymbolTableRecord
100
AcDbRegAppTableRecord
  2
ACAD
 70
0
  0
ENDTAB
  0
TABLE
  2
BLOCK_RECORD
  5
1
100
AcDbSymbolTable
 70
0
  0
BLOCK_RECORD
  5
1F
100
AcDbSymbolTableRecord
100
AcDbBlockTableRecord
  2
*MODEL_SPACE
  0
BLOCK_RECORD
  5
1B
100
AcDbSymbolTableRecord
100
AcDbBlockTableRecord
  2
*PAPER_SPACE
  0
ENDTAB
  0
TABLE
  2
DIMSTYLE
  5
A
100
AcDbSymbolTable
 70
1
100
AcDbDimStyleTable
 71
0
  0
DIMSTYLE
105
239
100
AcDbSymbolTableRecord
100
AcDbDimStyleTableRecord
  2
STANDARD
 70
0
  3

  4

 40
1.0
 41
0.1875
 42
0.0625
 43
0.38
 44
0.18
 45
0.0
 46
0.0
 47
0.01
 48
0.01
140
0.15625
141
0.09
142
0.0
143
25.4
144
1.0
145
0.0
146
1.0
147
0.09
 71
0.0
 72
0.0
 73
1
 74
1
 75
0
 76
0
 77
0
 78
4
170
0
171
2
172
0
173
0
174
0
175
0
176
0
177
0
178
0
270
2
271
2
272
2
273
2
274
2
275
0
280
0
281
0
282
0
283
1
284
4
285
0
286
0
287
3
288
0
340
11
  0
ENDTAB
  0
ENDSEC
  0
SECTION
  2
BLOCKS
  0
BLOCK
  5
20
100
AcDbEntity
  8
0
100
AcDbBlockBegin
  2
*MODEL_SPACE
 70
0
 10
0.0
 20
0.0
 30
0.0
  3
*MODEL_SPACE
  1

  0
ENDBLK
  5
21
100
AcDbEntity
  8
0
100
AcDbBlockEnd
  0
BLOCK
  5
1C
100
AcDbEntity
  8
0
100
AcDbBlockBegin
  2
*PAPER_SPACE
 70
0
 10
0.0
 20
0.0
 30
0.0
  3
*PAPER_SPACE
  1

  0
ENDBLK
  5
1D
100
AcDbEntity
  8
0
100
AcDbBlockEnd
  0
ENDSEC
  0
SECTION
  2
ENTITIES
  0
LINE
  5
23A
100
AcDbEntity
  8
03__ASM_ALL_CURVES
100
AcDbLine
 62
40
  6
CONTINUOUS
 10
4.2953524806
 20
5.1043797255
 11
4.2993571681
 21
5.1150588897
  0
LINE
  5
23B
100
AcDbEntity
  8
03__ASM_ALL_CURVES
100
AcDbLine
 62
40
  6
CONTINUOUS
 10
4.3273899806
 20
5.0830213916
 11
4.3233852931
 21
5.0723422246
  0
LINE
  5
23C
100
AcDbEntity
  8
03__ASM_ALL_CURVES
100
AcDbLine
 62
40
  6
CONTINUOUS
 10
4.2993571681
 20
5.1150588897
 11
4.3033618556
 21
5.1203984755
  0
LINE
  5
23D
100
AcDbEntity
  8
03__ASM_ALL_CURVES
100
AcDbLine
 62
40
  6
CONTINUOUS
 10
4.3233852931
 20
5.0723422246
 11
4.3193806056
 21
5.0670026411
  0
LINE
  5
23E
100
AcDbEntity
  8
0
100
AcDbLine
 62
7
  6
CONTINUOUS
 10
4.3335907331
 20
3.5821140755
 11
4.2882462306
 21
3.6606530576
  0
LINE
  5
23F
100
AcDbEntity
  8
0
100
AcDbLine
 62
7
  6
CONTINUOUS
 10
4.2882462306
 20
3.6606530576
 11
4.2882462306
 21
4.7706530576
  0
LINE
  5
240
100
AcDbEntity
  8
03__ASM_ALL_CURVES
100
AcDbLine
 62
40
  6
CONTINUOUS
 10
4.2882462306
 20
4.7706530576
 11
4.2882462306
 21
5.0616630576
  0
LINE
  5
241
100
AcDbEntity
  8
03__ASM_ALL_CURVES
100
AcDbLine
 62
40
  6
CONTINUOUS
 10
4.2953524806
 20
5.0830213916
 11
4.2953524806
 21
5.1043797255
  0
LINE
  5
242
100
AcDbEntity
  8
03__ASM_ALL_CURVES
100
AcDbLine
 62
40
  6
CONTINUOUS
 10
4.4235024806
 20
5.1043797255
 11
4.4275071681
 21
5.1150588897
  0
LINE
  5
243
100
AcDbEntity
  8
03__ASM_ALL_CURVES
100
AcDbLine
 62
40
  6
CONTINUOUS
 10
4.4235024806
 20
5.0830213916
 11
4.4275071681
 21
5.0937005576
  0
LINE
  5
244
100
AcDbEntity
  8
03__ASM_ALL_CURVES
100
AcDbLine
 62
40
  6
CONTINUOUS
 10
4.4555399806
 20
5.0830213916
 11
4.4515352931
 21
5.0723422246
  0
LINE
  5
245
100
AcDbEntity
  8
0
100
AcDbLine
 62
7
  6
CONTINUOUS
 10
4.3335907331
 20
4.8491920397
 11
4.2882462306
 21
4.7706530576
  0
LINE
  5
246
100
AcDbEntity
  8
03__ASM_ALL_CURVES
100
AcDbLine
 62
40
  6
CONTINUOUS
 10
4.4275071681
 20
5.1150588897
 11
4.4315118556
 21
5.1203984755
  0
LINE
  5
247
100
AcDbEntity
  8
03__ASM_ALL_CURVES
100
AcDbLine
 62
40
  6
CONTINUOUS
 10
4.4515352931
 20
5.0723422246
 11
4.4475306056
 21
5.0670026411
  0
LINE
  5
248
100
AcDbEntity
  8
03__ASM_ALL_CURVES
100
AcDbLine
 62
40
  6
CONTINUOUS
 10
4.4875774806
 20
5.1150588897
 11
4.4915821681
 21
5.1203984755
  0
LINE
  5
249
100
AcDbEntity
  8
03__ASM_ALL_CURVES
100
AcDbLine
 62
40
  6
CONTINUOUS
 10
4.4835727931
 20
5.0830213916
 11
4.4915821681
 21
5.0937005576
  0
LINE
  5
24A
100
AcDbEntity
  8
03__ASM_ALL_CURVES
100
AcDbLine
 62
40
  6
CONTINUOUS
 10
4.5196149806
 20
5.1097193076
 11
4.5156102931
 21
5.1043797255
  0
LINE
  5
24B
100
AcDbEntity
  8
03__ASM_ALL_CURVES
100
AcDbLine
 62
40
  6
CONTINUOUS
 10
4.5236196681
 20
5.0776818076
 11
4.5156102931
 21
5.0670026411
  0
LINE
  5
24C
100
AcDbEntity
  8
03__ASM_ALL_CURVES
100
AcDbLine
 62
40
  6
CONTINUOUS
 10
4.5716759181
 20
5.1257380576
 11
4.5636665431
 21
5.1150588897
  0
LINE
  5
24D
100
AcDbEntity
  8
03__ASM_ALL_CURVES
100
AcDbLine
 62
40
  6
CONTINUOUS
 10
4.3033618556
 20
5.1203984755
 11
4.3113712306
 21
5.1257380576
  0
LINE
  5
24E
100
AcDbEntity
  8
03__ASM_ALL_CURVES
100
AcDbLine
 62
40
  6
CONTINUOUS
 10
4.3273899806
 20
5.1043797255
 11
4.3273899806
 21
5.0830213916
  0
LINE
  5
24F
100
AcDbEntity
  8
0
100
AcDbLine
 62
7
  6
CONTINUOUS
 10
4.3338569019
 20
3.5816530576
 11
4.3338569019
 21
3.5822677481
  0
LINE
  5
250
100
AcDbEntity
  8
0
100
AcDbLine
 62
7
  6
CONTINUOUS
 10
4.3338569019
 20
3.8747883671
 11
4.3338569019
 21
3.9231324387
  0
LINE
  5
251
100
AcDbEntity
  8
0
100
AcDbLine
 62
7
  6
CONTINUOUS
 10
4.3338569019
 20
4.5081736765
 11
4.3338569019
 21
4.5565177481
  0
LINE
  5
252
100
AcDbEntity
  8
0
100
AcDbLine
 62
7
  6
CONTINUOUS
 10
4.3338569019
 20
4.8490383671
 11
4.3338569019
 21
4.8496530576
  0
LINE
  5
253
100
AcDbEntity
  8
03__ASM_ALL_CURVES
100
AcDbLine
 62
40
  6
CONTINUOUS
 10
4.3651362306
 20
5.0488480576
 11
4.3651362306
 21
5.0232180576
  0
LINE
  5
254
100
AcDbEntity
  8
03__ASM_ALL_CURVES
100
AcDbLine
 62
40
  6
CONTINUOUS
 10
4.3714415431
 20
5.0616630576
 11
4.3714415431
 21
5.0670026411
  0
LINE
  5
255
100
AcDbEntity
  8
03__ASM_ALL_CURVES
100
AcDbLine
 62
40
  6
CONTINUOUS
 10
4.4235024806
 20
5.0830213916
 11
4.4235024806
 21
5.1043797255
  0
LINE
  5
256
100
AcDbEntity
  8
03__ASM_ALL_CURVES
100
AcDbLine
 62
40
  6
CONTINUOUS
 10
4.5636665431
 20
5.1150588897
 11
4.5596618556
 21
5.0990401397
  0
LINE
  5
257
100
AcDbEntity
  8
03__ASM_ALL_CURVES
100
AcDbLine
 62
40
  6
CONTINUOUS
 10
4.3193806056
 20
5.0670026411
 11
4.3113712306
 21
5.0616630576
  0
LINE
  5
258
100
AcDbEntity
  8
03__ASM_ALL_CURVES
100
AcDbLine
 62
40
  6
CONTINUOUS
 10
4.4315118556
 20
5.1203984755
 11
4.4395212306
 21
5.1257380576
  0
LINE
  5
259
100
AcDbEntity
  8
03__ASM_ALL_CURVES
100
AcDbLine
 62
40
  6
CONTINUOUS
 10
4.4915821681
 20
5.1203984755
 11
4.4995915431
 21
5.1257380576
  0
LINE
  5
25A
100
AcDbEntity
  8
03__ASM_ALL_CURVES
100
AcDbLine
 62
40
  6
CONTINUOUS
 10
4.4475306056
 20
5.0670026411
 11
4.4395212306
 21
5.0616630576
  0
LINE
  5
25B
100
AcDbEntity
  8
03__ASM_ALL_CURVES
100
AcDbLine
 62
40
  6
CONTINUOUS
 10
4.4915821681
 20
5.0937005576
 11
4.4995915431
 21
5.0990401397
  0
LINE
  5
25C
100
AcDbEntity
  8
03__ASM_ALL_CURVES
100
AcDbLine
 62
40
  6
CONTINUOUS
 10
4.5156102931
 20
5.1043797255
 11
4.5076009181
 21
5.0990401397
  0
LINE
  5
25D
100
AcDbEntity
  8
03__ASM_ALL_CURVES
100
AcDbLine
 62
40
  6
CONTINUOUS
 10
4.4835727931
 20
5.0776818076
 11
4.4835727931
 21
5.0830213916
  0
LINE
  5
25E
100
AcDbEntity
  8
03__ASM_ALL_CURVES
100
AcDbLine
 62
40
  6
CONTINUOUS
 10
4.4875774806
 20
5.1097193076
 11
4.4875774806
 21
5.1150588897
  0
LINE
  5
25F
100
AcDbEntity
  8
03__ASM_ALL_CURVES
100
AcDbLine
 62
40
  6
CONTINUOUS
 10
4.5196149806
 20
5.1150588897
 11
4.5196149806
 21
5.1097193076
  0
LINE
  5
260
100
AcDbEntity
  8
03__ASM_ALL_CURVES
100
AcDbLine
 62
40
  6
CONTINUOUS
 10
4.5236196681
 20
5.0830213916
 11
4.5236196681
 21
5.0776818076
  0
LINE
  5
261
100
AcDbEntity
  8
03__ASM_ALL_CURVES
100
AcDbLine
 62
40
  6
CONTINUOUS
 10
4.6998259181
 20
5.0883609736
 11
4.7038306056
 21
5.1043797255
  0
LINE
  5
262
100
AcDbEntity
  8
03__ASM_ALL_CURVES
100
AcDbLine
 62
40
  6
CONTINUOUS
 10
4.7038306056
 20
5.1043797255
 11
4.7118399806
 21
5.1257380576
  0
LINE
  5
263
100
AcDbEntity
  8
03__ASM_ALL_CURVES
100
AcDbLine
 62
40
  6
CONTINUOUS
 10
4.8079524806
 20
5.1150588897
 11
4.8119571681
 21
5.1203984755
  0
LINE
  5
264
100
AcDbEntity
  8
03__ASM_ALL_CURVES
100
AcDbLine
 62
40
  6
CONTINUOUS
 10
4.8199665431
 20
5.0883609736
 11
4.8119571681
 21
5.0776818076
  0
LINE
  5
265
100
AcDbEntity
  8
03__ASM_ALL_CURVES
100
AcDbLine
 62
40
  6
CONTINUOUS
 10
4.8399899806
 20
5.1043797255
 11
4.8359852931
 21
5.0990401397
  0
LINE
  5
266
100
AcDbEntity
  8
03__ASM_ALL_CURVES
100
AcDbLine
 62
40
  6
CONTINUOUS
 10
4.5156102931
 20
5.0670026411
 11
4.5076009181
 21
5.0616630576
  0
LINE
  5
267
100
AcDbEntity
  8
03__ASM_ALL_CURVES
100
AcDbLine
 62
40
  6
CONTINUOUS
 10
4.4275071681
 20
5.0937005576
 11
4.4395212306
 21
5.0990401397
  0
LINE
  5
268
100
AcDbEntity
  8
03__ASM_ALL_CURVES
100
AcDbLine
 62
40
  6
CONTINUOUS
 10
4.5596618556
 20
5.0990401397
 11
4.5596618556
 21
5.0883609736
  0
LINE
  5
269
100
AcDbEntity
  8
03__ASM_ALL_CURVES
100
AcDbLine
 62
40
  6
CONTINUOUS
 10
4.6317462306
 20
5.1257380576
 11
4.6317462306
 21
5.0616630576
  0
LINE
  5
26A
100
AcDbEntity
  8
03__ASM_ALL_CURVES
100
AcDbLine
 62
40
  6
CONTINUOUS
 10
4.6958212306
 20
5.0616630576
 11
4.6998259181
 21
5.0883609736
  0
LINE
  5
26B
100
AcDbEntity
  8
03__ASM_ALL_CURVES
100
AcDbLine
 62
40
  6
CONTINUOUS
 10
4.8119571681
 20
5.0776818076
 11
4.8079524806
 21
5.0616630576
  0
LINE
  5
26C
100
AcDbEntity
  8
03__ASM_ALL_CURVES
100
AcDbLine
 62
40
  6
CONTINUOUS
 10
4.9561259181
 20
5.0723422246
 11
4.9481165431
 21
5.0616630576
  0
LINE
  5
26D
100
AcDbEntity
  8
03__ASM_ALL_CURVES
100
AcDbLine
 62
40
  6
CONTINUOUS
 10
4.8119571681
 20
5.1203984755
 11
4.8199665431
 21
5.1257380576
  0
LINE
  5
26E
100
AcDbEntity
  8
03__ASM_ALL_CURVES
100
AcDbLine
 62
40
  6
CONTINUOUS
 10
4.8359852931
 20
5.0990401397
 11
4.8199665431
 21
5.0883609736
  0
LINE
  5
26F
100
AcDbEntity
  8
0
100
AcDbLine
 62
7
  6
CONTINUOUS
 10
4.7318206048
 20
3.5816530576
 11
4.7318206048
 21
3.5822677481
  0
LINE
  5
270
100
AcDbEntity
  8
0
100
AcDbLine
 62
7
  6
CONTINUOUS
 10
4.7318206048
 20
3.8747883671
 11
4.7318206048
 21
3.9231324387
  0
LINE
  5
271
100
AcDbEntity
  8
0
100
AcDbLine
 62
7
  6
CONTINUOUS
 10
4.7318206048
 20
4.5081736765
 11
4.7318206048
 21
4.5565177481
  0
LINE
  5
272
100
AcDbEntity
  8
0
100
AcDbLine
 62
7
  6
CONTINUOUS
 10
4.7318206048
 20
4.8490383671
 11
4.7318206048
 21
4.8496530576
  0
LINE
  5
273
100
AcDbEntity
  8
03__ASM_ALL_CURVES
100
AcDbLine
 62
40
  6
CONTINUOUS
 10
4.7558915431
 20
5.0616630576
 11
4.7558915431
 21
5.0670026411
  0
LINE
  5
274
100
AcDbEntity
  8
03__ASM_ALL_CURVES
100
AcDbLine
 62
40
  6
CONTINUOUS
 10
4.8920509181
 20
5.0883609736
 11
4.8960556056
 21
5.1043797255
  0
LINE
  5
275
100
AcDbEntity
  8
03__ASM_ALL_CURVES
100
AcDbLine
 62
40
  6
CONTINUOUS
 10
4.8960556056
 20
5.1043797255
 11
4.9040649806
 21
5.1257380576
  0
LINE
  5
276
100
AcDbEntity
  8
03__ASM_ALL_CURVES
100
AcDbLine
 62
40
  6
CONTINUOUS
 10
5.137836543
 20
5.1097193076
 11
5.145845918
 21
5.1203984755
  0
LINE
  5
277
100
AcDbEntity
  8
03__ASM_ALL_CURVES
100
AcDbLine
 62
40
  6
CONTINUOUS
 10
5.145845918
 20
5.1203984755
 11
5.153855293
 21
5.1257380576
  0
LINE
  5
278
100
AcDbEntity
  8
03__ASM_ALL_CURVES
100
AcDbLine
 62
40
  6
CONTINUOUS
 10
4.2993571681
 20
5.0723422246
 11
4.2953524806
 21
5.0830213916
  0
LINE
  5
279
100
AcDbEntity
  8
03__ASM_ALL_CURVES
100
AcDbLine
 62
40
  6
CONTINUOUS
 10
4.3233852931
 20
5.1150588897
 11
4.3273899806
 21
5.1043797255
  0
LINE
  5
27A
100
AcDbEntity
  8
0
100
AcDbLine
 62
7
  6
CONTINUOUS
 10
4.7872462306
 20
3.6776530576
 11
4.7872462306
 21
4.7536530576
  0
LINE
  5
27B
100
AcDbEntity
  8
03__ASM_ALL_CURVES
100
AcDbLine
 62
40
  6
CONTINUOUS
 10
4.8399899806
 20
5.1150588897
 11
4.8399899806
 21
5.1043797255
  0
LINE
  5
27C
100
AcDbEntity
  8
03__ASM_ALL_CURVES
100
AcDbLine
 62
40
  6
CONTINUOUS
 10
4.8880462306
 20
5.0616630576
 11
4.8920509181
 21
5.0883609736
  0
LINE
  5
27D
100
AcDbEntity
  8
03__ASM_ALL_CURVES
100
AcDbLine
 62
40
  6
CONTINUOUS
 10
4.9601306056
 20
5.0883609736
 11
4.9561259181
 21
5.0723422246
  0
LINE
  5
27E
100
AcDbEntity
  8
03__ASM_ALL_CURVES
100
AcDbLine
 62
40
  6
CONTINUOUS
 10
5.177883418
 20
5.0776818076
 11
5.169874043
 21
5.0670026411
  0
LINE
  5
27F
100
AcDbEntity
  8
03__ASM_ALL_CURVES
100
AcDbLine
 62
40
  6
CONTINUOUS
 10
5.201911543
 20
5.1097193076
 11
5.209920918
 21
5.1203984755
  0
LINE
  5
280
100
AcDbEntity
  8
03__ASM_ALL_CURVES
100
AcDbLine
 62
40
  6
CONTINUOUS
 10
5.2379537305
 20
5.0723422246
 11
5.233949043
 21
5.0670026411
  0
LINE
  5
281
100
AcDbEntity
  8
03__ASM_ALL_CURVES
100
AcDbLine
 62
40
  6
CONTINUOUS
 10
5.209920918
 20
5.1203984755
 11
5.217930293
 21
5.1257380576
  0
LINE
  5
282
100
AcDbEntity
  8
03__ASM_ALL_CURVES
100
AcDbLine
 62
40
  6
CONTINUOUS
 10
5.169874043
 20
5.0670026411
 11
5.161864668
 21
5.0616630576
  0
LINE
  5
283
100
AcDbEntity
  8
03__ASM_ALL_CURVES
100
AcDbLine
 62
40
  6
CONTINUOUS
 10
5.233949043
 20
5.0670026411
 11
5.225939668
 21
5.0616630576
  0
LINE
  5
284
100
AcDbEntity
  8
03__ASM_ALL_CURVES
100
AcDbLine
 62
40
  6
CONTINUOUS
 10
4.4275071681
 20
5.0723422246
 11
4.4235024806
 21
5.0830213916
  0
LINE
  5
285
100
AcDbEntity
  8
03__ASM_ALL_CURVES
100
AcDbLine
 62
40
  6
CONTINUOUS
 10
4.4515352931
 20
5.0937005576
 11
4.4555399806
 21
5.0830213916
  0
LINE
  5
286
100
AcDbEntity
  8
03__ASM_ALL_CURVES
100
AcDbLine
 62
40
  6
CONTINUOUS
 10
4.5596618556
 20
5.0883609736
 11
4.5636665431
 21
5.0723422246
  0
LINE
  5
287
100
AcDbEntity
  8
03__ASM_ALL_CURVES
100
AcDbLine
 62
40
  6
CONTINUOUS
 10
4.8983562306
 20
5.0488480576
 11
4.8983562306
 21
5.0232180576
  0
LINE
  5
288
100
AcDbEntity
  8
03__ASM_ALL_CURVES
100
AcDbLine
 62
40
  6
CONTINUOUS
 10
4.9601306056
 20
5.0990401397
 11
4.9601306056
 21
5.0883609736
  0
LINE
  5
289
100
AcDbEntity
  8
0
100
AcDbLine
 62
7
  6
CONTINUOUS
 10
4.9722462306
 20
4.7536530576
 11
4.9722462306
 21
3.6776530576
  0
LINE
  5
28A
100
AcDbEntity
  8
0
100
AcDbLine
 62
7
  6
CONTINUOUS
 10
4.9752462306
 20
4.7506530576
 11
4.9752462306
 21
3.6806530576
  0
LINE
  5
28B
100
AcDbEntity
  8
03__ASM_ALL_CURVES
100
AcDbLine
 62
40
  6
CONTINUOUS
 10
4.9752462306
 20
4.7664680576
 11
4.9752462306
 21
5.0616630576
  0
LINE
  5
28C
100
AcDbEntity
  8
0
100
AcDbLine
 62
7
  6
CONTINUOUS
 10
4.9777462306
 20
3.6895964333
 11
4.9777462306
 21
4.7417096819
  0
LINE
  5
28D
100
AcDbEntity
  8
0
100
AcDbLine
 62
7
  6
CONTINUOUS
 10
4.9966026371
 20
3.7004831846
 11
4.9966026371
 21
4.7308229306
  0
LINE
  5
28E
100
AcDbEntity
  8
0
100
AcDbLine
 62
7
  6
CONTINUOUS
 10
4.9991026371
 20
3.7011530576
 11
4.9991026371
 21
4.7301530576
  0
LINE
  5
28F
100
AcDbEntity
  8
03__ASM_ALL_CURVES
100
AcDbLine
 62
40
  6
CONTINUOUS
 10
5.1338318555
 20
5.0937005576
 11
5.137836543
 21
5.1097193076
  0
LINE
  5
290
100
AcDbEntity
  8
03__ASM_ALL_CURVES
100
AcDbLine
 62
40
  6
CONTINUOUS
 10
5.1818881055
 20
5.0937005576
 11
5.177883418
 21
5.0776818076
  0
LINE
  5
291
100
AcDbEntity
  8
03__ASM_ALL_CURVES
100
AcDbLine
 62
40
  6
CONTINUOUS
 10
5.530295918
 20
5.1203984755
 11
5.538305293
 21
5.1257380576
  0
LINE
  5
292
100
AcDbEntity
  8
03__ASM_ALL_CURVES
100
AcDbLine
 62
40
  6
CONTINUOUS
 10
6.1851934784
 20
3.4485968076
 11
6.1791864472
 21
3.4485968076
  0
LINE
  5
293
100
AcDbEntity
  8
03__ASM_ALL_CURVES
100
AcDbLine
 62
40
  6
CONTINUOUS
 10
6.3143446503
 20
3.4485968076
 11
6.3383727753
 21
3.4485968076
  0
LINE
  5
294
100
AcDbEntity
  8
03__ASM_ALL_CURVES
100
AcDbLine
 62
40
  6
CONTINUOUS
 10
6.2332497284
 20
3.4726249326
 11
6.2182321503
 21
3.4726249326
  0
LINE
  5
295
100
AcDbEntity
  8
03__ASM_ALL_CURVES
100
AcDbLine
 62
40
  6
CONTINUOUS
 10
6.1371372284
 20
3.4726249326
 11
6.1221196503
 21
3.4726249326
  0
LINE
  5
296
100
AcDbEntity
  8
THREAD
100
AcDbLine
 62
7
  6
CONTINUOUS
 10
5.1851855409
 20
3.7196530576
 11
5.1668546698
 21
3.7514030576
  0
LINE
  5
297
100
AcDbEntity
  8
THREAD
100
AcDbLine
 62
7
  6
CONTINUOUS
 10
5.0222462306
 20
3.7011530576
 11
5.0222462306
 21
4.7301530576
  0
LINE
  5
298
100
AcDbEntity
  8
03__ASM_ALL_CURVES
100
AcDbLine
 62
40
  6
CONTINUOUS
 10
5.0521362306
 20
5.0488480576
 11
5.0521362306
 21
5.0232180576
  0
LINE
  5
299
100
AcDbEntity
  8
03__ASM_ALL_CURVES
100
AcDbLine
 62
40
  6
CONTINUOUS
 10
5.0777662305
 20
5.1257380576
 11
5.0777662305
 21
5.0616630576
  0
LINE
  5
29A
100
AcDbEntity
  8
0
100
AcDbLine
 62
7
  6
CONTINUOUS
 10
5.0922462306
 20
3.7036530576
 11
5.0922462306
 21
4.7276530576
  0
LINE
  5
29B
100
AcDbEntity
  8
03__ASM_ALL_CURVES
100
AcDbLine
 62
40
  6
CONTINUOUS
 10
5.1979068555
 20
5.0937005576
 11
5.201911543
 21
5.1097193076
  0
LINE
  5
29C
100
AcDbEntity
  8
03__ASM_ALL_CURVES
100
AcDbLine
 62
40
  6
CONTINUOUS
 10
5.265986543
 20
5.0616630576
 11
5.2860099805
 21
5.1257380576
  0
LINE
  5
29D
100
AcDbEntity
  8
THREAD
100
AcDbLine
 62
7
  6
CONTINUOUS
 10
5.1851855409
 20
4.7116530576
 11
5.1668546698
 21
4.6799030576
  0
LINE
  5
29E
100
AcDbEntity
  8
03__ASM_ALL_CURVES
100
AcDbLine
 62
40
  6
CONTINUOUS
 10
5.522286543
 20
5.1097193076
 11
5.530295918
 21
5.1203984755
  0
LINE
  5
29F
100
AcDbEntity
  8
03__ASM_ALL_CURVES
100
AcDbLine
 62
40
  6
CONTINUOUS
 10
5.554324043
 20
5.0670026411
 11
5.546314668
 21
5.0616630576
  0
LINE
  5
2A0
100
AcDbEntity
  8
03__ASM_ALL_CURVES
100
AcDbLine
 62
40
  6
CONTINUOUS
 10
5.666455293
 20
5.1257380576
 11
5.658445918
 21
5.1203984755
  0
LINE
  5
2A1
100
AcDbEntity
  8
03__ASM_ALL_CURVES
100
AcDbLine
 62
40
  6
CONTINUOUS
 10
5.682474043
 20
5.0670026411
 11
5.674464668
 21
5.0616630576
  0
LINE
  5
2A2
100
AcDbEntity
  8
03__ASM_ALL_CURVES
100
AcDbLine
 62
40
  6
CONTINUOUS
 10
5.786595918
 20
5.1203984755
 11
5.794605293
 21
5.1257380576
  0
LINE
  5
2A3
100
AcDbEntity
  8
03__ASM_ALL_CURVES
100
AcDbLine
 62
40
  6
CONTINUOUS
 10
6.1221196503
 20
3.4966530576
 11
6.1371372284
 21
3.4966530576
  0
LINE
  5
2A4
100
AcDbEntity
  8
03__ASM_ALL_CURVES
100
AcDbLine
 62
40
  6
CONTINUOUS
 10
6.1791864472
 20
3.4966530576
 11
6.1851934784
 21
3.4966530576
  0
LINE
  5
2A5
100
AcDbEntity
  8
03__ASM_ALL_CURVES
100
AcDbLine
 62
40
  6
CONTINUOUS
 10
6.2182321503
 20
3.4966530576
 11
6.2332497284
 21
3.4966530576
  0
LINE
  5
2A6
100
AcDbEntity
  8
03__ASM_ALL_CURVES
100
AcDbLine
 62
40
  6
CONTINUOUS
 10
6.2632848847
 20
3.4966530576
 11
6.2933200409
 21
3.4966530576
  0
LINE
  5
2A7
100
AcDbEntity
  8
03__ASM_ALL_CURVES
100
AcDbLine
 62
40
  6
CONTINUOUS
 10
6.3233551972
 20
3.4966530576
 11
6.3293622284
 21
3.4966530576
  0
LINE
  5
2A8
100
AcDbEntity
  8
0
100
AcDbLine
 62
7
  6
CONTINUOUS
 10
4.7318206048
 20
3.5816530576
 11
4.3338569019
 21
3.5816530576
  0
LINE
  5
2A9
100
AcDbEntity
  8
0
100
AcDbLine
 62
7
  6
CONTINUOUS
 10
4.7318206048
 20
3.5822677481
 11
4.3338569019
 21
3.5822677481
  0
LINE
  5
2AA
100
AcDbEntity
  8
03__ASM_ALL_CURVES
100
AcDbLine
 62
40
  6
CONTINUOUS
 10
4.3033618556
 20
5.0670026411
 11
4.2993571681
 21
5.0723422246
  0
LINE
  5
2AB
100
AcDbEntity
  8
03__ASM_ALL_CURVES
100
AcDbLine
 62
40
  6
CONTINUOUS
 10
4.3193806056
 20
5.1203984755
 11
4.3233852931
 21
5.1150588897
  0
LINE
  5
2AC
100
AcDbEntity
  8
0
100
AcDbLine
 62
7
  6
CONTINUOUS
 10
5.1422462306
 20
3.7036530576
 11
5.1422462306
 21
4.7276530576
  0
LINE
  5
2AD
100
AcDbEntity
  8
THREAD
100
AcDbLine
 62
7
  6
CONTINUOUS
 10
5.1560293523
 20
3.7576530576
 11
5.1560293523
 21
4.6736530576
  0
LINE
  5
2AE
100
AcDbEntity
  8
THREAD
100
AcDbLine
 62
7
  6
CONTINUOUS
 10
5.1668546698
 20
3.7514030576
 11
5.1668546698
 21
4.6799030576
  0
LINE
  5
2AF
100
AcDbEntity
  8
THREAD
100
AcDbLine
 62
7
  6
CONTINUOUS
 10
5.1851855409
 20
3.7196530576
 11
5.1851855409
 21
4.7116530576
  0
LINE
  5
2B0
100
AcDbEntity
  8
0
100
AcDbLine
 62
7
  6
CONTINUOUS
 10
4.7872462306
 20
3.6776530576
 11
4.7320867736
 21
3.5821140755
  0
LINE
  5
2B1
100
AcDbEntity
  8
03__ASM_ALL_CURVES
100
AcDbLine
 62
40
  6
CONTINUOUS
 10
5.5583287305
 20
5.0723422246
 11
5.554324043
 21
5.0670026411
  0
LINE
  5
2B2
100
AcDbEntity
  8
03__ASM_ALL_CURVES
100
AcDbLine
 62
40
  6
CONTINUOUS
 10
5.658445918
 20
5.1203984755
 11
5.6544412305
 21
5.1150588897
  0
LINE
  5
2B3
100
AcDbEntity
  8
03__ASM_ALL_CURVES
100
AcDbLine
 62
40
  6
CONTINUOUS
 10
5.6864787305
 20
5.0723422246
 11
5.682474043
 21
5.0670026411
  0
LINE
  5
2B4
100
AcDbEntity
  8
03__ASM_ALL_CURVES
100
AcDbLine
 62
40
  6
CONTINUOUS
 10
5.810624043
 20
5.0670026411
 11
5.802614668
 21
5.0616630576
  0
LINE
  5
2B5
100
AcDbEntity
  8
03__ASM_ALL_CURVES
100
AcDbLine
 62
40
  6
CONTINUOUS
 10
5.874699043
 20
5.0670026411
 11
5.866689668
 21
5.0616630576
  0
LINE
  5
2B6
100
AcDbEntity
  8
0
100
AcDbLine
 62
7
  6
CONTINUOUS
 10
4.9722462306
 20
3.6776530576
 11
4.7872462306
 21
3.6776530576
  0
LINE
  5
2B7
100
AcDbEntity
  8
THREAD
100
AcDbLine
 62
7
  6
CONTINUOUS
 10
5.0222462306
 20
3.7011530576
 11
4.9991026371
 21
3.7011530576
  0
LINE
  5
2B8
100
AcDbEntity
  8
0
100
AcDbLine
 62
7
  6
CONTINUOUS
 10
5.0922462306
 20
3.7036530576
 11
5.1422462306
 21
3.7036530576
  0
LINE
  5
2B9
100
AcDbEntity
  8
THREAD
100
AcDbLine
 62
7
  6
CONTINUOUS
 10
5.4942462306
 20
3.7196530576
 11
5.1851855409
 21
3.7196530576
  0
LINE
  5
2BA
100
AcDbEntity
  8
03__ASM_ALL_CURVES
100
AcDbLine
 62
40
  6
CONTINUOUS
 10
4.3714415431
 20
5.0670026411
 11
4.3754462306
 21
5.0616630576
  0
LINE
  5
2BB
100
AcDbEntity
  8
03__ASM_ALL_CURVES
100
AcDbLine
 62
40
  6
CONTINUOUS
 10
4.4315118556
 20
5.0670026411
 11
4.4275071681
 21
5.0723422246
  0
LINE
  5
2BC
100
AcDbEntity
  8
03__ASM_ALL_CURVES
100
AcDbLine
 62
40
  6
CONTINUOUS
 10
4.4475306056
 20
5.1203984755
 11
4.4515352931
 21
5.1150588897
  0
LINE
  5
2BD
100
AcDbEntity
  8
03__ASM_ALL_CURVES
100
AcDbLine
 62
40
  6
CONTINUOUS
 10
4.4915821681
 20
5.0670026411
 11
4.4835727931
 21
5.0776818076
  0
LINE
  5
2BE
100
AcDbEntity
  8
0
100
AcDbLine
 62
7
  6
CONTINUOUS
 10
4.7872462306
 20
4.7536530576
 11
4.7320867736
 21
4.8491920397
  0
LINE
  5
2BF
100
AcDbEntity
  8
03__ASM_ALL_CURVES
100
AcDbLine
 62
40
  6
CONTINUOUS
 10
4.9561259181
 20
5.1150588897
 11
4.9601306056
 21
5.0990401397
  0
LINE
  5
2C0
100
AcDbEntity
  8
03__ASM_ALL_CURVES
100
AcDbLine
 62
40
  6
CONTINUOUS
 10
5.3500849805
 20
5.1257380576
 11
5.3500849805
 21
5.0616630576
  0
LINE
  5
2C1
100
AcDbEntity
  8
03__ASM_ALL_CURVES
100
AcDbLine
 62
40
  6
CONTINUOUS
 10
5.5182818555
 20
5.0937005576
 11
5.522286543
 21
5.1097193076
  0
LINE
  5
2C2
100
AcDbEntity
  8
03__ASM_ALL_CURVES
100
AcDbLine
 62
40
  6
CONTINUOUS
 10
5.778586543
 20
5.1097193076
 11
5.786595918
 21
5.1203984755
  0
LINE
  5
2C3
100
AcDbEntity
  8
03__ASM_ALL_CURVES
100
AcDbLine
 62
40
  6
CONTINUOUS
 10
5.818633418
 20
5.0776818076
 11
5.810624043
 21
5.0670026411
  0
LINE
  5
2C4
100
AcDbEntity
  8
03__ASM_ALL_CURVES
100
AcDbLine
 62
40
  6
CONTINUOUS
 10
5.9988443555
 20
5.0670026411
 11
5.9908349805
 21
5.0616630576
  0
LINE
  5
2C5
100
AcDbEntity
  8
03__ASM_ALL_CURVES
100
AcDbLine
 62
40
  6
CONTINUOUS
 10
6.130999043
 20
5.0990401397
 11
6.122989668
 21
5.0937005576
  0
LINE
  5
2C6
100
AcDbEntity
  8
THREAD
100
AcDbLine
 62
7
  6
CONTINUOUS
 10
5.1560293523
 20
3.7576530576
 11
5.1422462306
 21
3.7576530576
  0
LINE
  5
2C7
100
AcDbEntity
  8
THREAD
100
AcDbLine
 62
7
  6
CONTINUOUS
 10
5.8342462306
 20
3.7636530576
 11
5.5382462306
 21
3.7636530576
  0
LINE
  5
2C8
100
AcDbEntity
  8
0
100
AcDbLine
 62
7
  6
CONTINUOUS
 10
6.5372462306
 20
3.7791530576
 11
6.5942462306
 21
3.7791530576
  0
LINE
  5
2C9
100
AcDbEntity
  8
0
100
AcDbLine
 62
7
  6
CONTINUOUS
 10
6.7922462306
 20
3.7791530576
 11
6.8352462306
 21
3.7791530576
  0
LINE
  5
2CA
100
AcDbEntity
  8
0
100
AcDbLine
 62
7
  6
CONTINUOUS
 10
6.5942462306
 20
3.7796530576
 11
6.6442462306
 21
3.7796530576
  0
LINE
  5
2CB
100
AcDbEntity
  8
0
100
AcDbLine
 62
7
  6
CONTINUOUS
 10
6.7142462306
 20
3.7796530576
 11
6.7642462306
 21
3.7796530576
  0
LINE
  5
2CC
100
AcDbEntity
  8
0
100
AcDbLine
 62
7
  6
CONTINUOUS
 10
6.7922462306
 20
3.8336530576
 11
6.7642462306
 21
3.8336530576
  0
LINE
  5
2CD
100
AcDbEntity
  8
03__ASM_ALL_CURVES
100
AcDbLine
 62
40
  6
CONTINUOUS
 10
6.1791864472
 20
3.4485968076
 11
6.1731794159
 21
3.4526014952
  0
LINE
  5
2CE
100
AcDbEntity
  8
03__ASM_ALL_CURVES
100
AcDbLine
 62
40
  6
CONTINUOUS
 10
6.1371372284
 20
3.4966530576
 11
6.1431442597
 21
3.4926483711
  0
LINE
  5
2CF
100
AcDbEntity
  8
03__ASM_ALL_CURVES
100
AcDbLine
 62
40
  6
CONTINUOUS
 10
4.4915821681
 20
5.1043797255
 11
4.4875774806
 21
5.1097193076
  0
LINE
  5
2D0
100
AcDbEntity
  8
03__ASM_ALL_CURVES
100
AcDbLine
 62
40
  6
CONTINUOUS
 10
4.5156102931
 20
5.0937005576
 11
4.5236196681
 21
5.0830213916
  0
LINE
  5
2D1
100
AcDbEntity
  8
03__ASM_ALL_CURVES
100
AcDbLine
 62
40
  6
CONTINUOUS
 10
4.5156102931
 20
5.1203984755
 11
4.5196149806
 21
5.1150588897
  0
LINE
  5
2D2
100
AcDbEntity
  8
03__ASM_ALL_CURVES
100
AcDbLine
 62
40
  6
CONTINUOUS
 10
4.5636665431
 20
5.0723422246
 11
4.5716759181
 21
5.0616630576
  0
LINE
  5
2D3
100
AcDbEntity
  8
03__ASM_ALL_CURVES
100
AcDbLine
 62
40
  6
CONTINUOUS
 10
5.137836543
 20
5.0776818076
 11
5.1338318555
 21
5.0937005576
  0
LINE
  5
2D4
100
AcDbEntity
  8
03__ASM_ALL_CURVES
100
AcDbLine
 62
40
  6
CONTINUOUS
 10
5.4141599805
 20
5.1257380576
 11
5.4141599805
 21
5.0616630576
  0
LINE
  5
2D5
100
AcDbEntity
  8
03__ASM_ALL_CURVES
100
AcDbLine
 62
40
  6
CONTINUOUS
 10
5.4622162305
 20
5.0616630576
 11
5.4622162305
 21
5.1257380576
  0
LINE
  5
2D6
100
AcDbEntity
  8
03__ASM_ALL_CURVES
100
AcDbLine
 62
40
  6
CONTINUOUS
 10
5.8787037305
 20
5.0723422246
 11
5.874699043
 21
5.0670026411
  0
LINE
  5
2D7
100
AcDbEntity
  8
0
100
AcDbLine
 62
7
  6
CONTINUOUS
 10
6.5372462306
 20
3.8416530576
 11
6.5212462306
 21
3.8416530576
  0
LINE
  5
2D8
100
AcDbEntity
  8
0
100
AcDbLine
 62
7
  6
CONTINUOUS
 10
6.3652462306
 20
3.8416530576
 11
5.8502462306
 21
3.8416530576
  0
LINE
  5
2D9
100
AcDbEntity
  8
0
100
AcDbLine
 62
7
  6
CONTINUOUS
 10
4.7318206048
 20
3.8747883671
 11
4.3338569019
 21
3.8747883671
  0
LINE
  5
2DA
100
AcDbEntity
  8
0
100
AcDbLine
 62
7
  6
CONTINUOUS
 10
4.7318206048
 20
3.9231324387
 11
4.3338569019
 21
3.9231324387
  0
LINE
  5
2DB
100
AcDbEntity
  8
03__ASM_ALL_CURVES
100
AcDbLine
 62
40
  6
CONTINUOUS
 10
6.1851934784
 20
3.4966530576
 11
6.1912005097
 21
3.4926483711
  0
LINE
  5
2DC
100
AcDbEntity
  8
03__ASM_ALL_CURVES
100
AcDbLine
 62
40
  6
CONTINUOUS
 10
6.2332497284
 20
3.4966530576
 11
6.2392567597
 21
3.4926483711
  0
LINE
  5
2DD
100
AcDbEntity
  8
03__ASM_ALL_CURVES
100
AcDbLine
 62
40
  6
CONTINUOUS
 10
6.3293622284
 20
3.4966530576
 11
6.3353692597
 21
3.4926483711
  0
LINE
  5
2DE
100
AcDbEntity
  8
03__ASM_ALL_CURVES
100
AcDbLine
 62
40
  6
CONTINUOUS
 10
4.7558915431
 20
5.0670026411
 11
4.7598962306
 21
5.0616630576
  0
LINE
  5
2DF
100
AcDbEntity
  8
03__ASM_ALL_CURVES
100
AcDbLine
 62
40
  6
CONTINUOUS
 10
5.177883418
 20
5.1097193076
 11
5.1818881055
 21
5.0937005576
  0
LINE
  5
2E0
100
AcDbEntity
  8
03__ASM_ALL_CURVES
100
AcDbLine
 62
40
  6
CONTINUOUS
 10
5.201911543
 20
5.0776818076
 11
5.1979068555
 21
5.0937005576
  0
LINE
  5
2E1
100
AcDbEntity
  8
THREAD
100
AcDbLine
 62
7
  6
CONTINUOUS
 10
5.4942462306
 20
3.7196530576
 11
5.4942462306
 21
4.7116530576
  0
LINE
  5
2E2
100
AcDbEntity
  8
03__ASM_ALL_CURVES
100
AcDbLine
 62
40
  6
CONTINUOUS
 10
5.4942537305
 20
5.0616630576
 11
5.4942537305
 21
5.1257380576
  0
LINE
  5
2E3
100
AcDbEntity
  8
THREAD
100
AcDbLine
 62
7
  6
CONTINUOUS
 10
5.5382462306
 20
3.7636530576
 11
5.5382462306
 21
4.6676530576
  0
LINE
  5
2E4
100
AcDbEntity
  8
03__ASM_ALL_CURVES
100
AcDbLine
 62
40
  6
CONTINUOUS
 10
5.5583287305
 20
5.0937005576
 11
5.5583287305
 21
5.0723422246
  0
LINE
  5
2E5
100
AcDbEntity
  8
03__ASM_ALL_CURVES
100
AcDbLine
 62
40
  6
CONTINUOUS
 10
5.7745818555
 20
5.0937005576
 11
5.778586543
 21
5.1097193076
  0
LINE
  5
2E6
100
AcDbEntity
  8
03__ASM_ALL_CURVES
100
AcDbLine
 62
40
  6
CONTINUOUS
 10
6.0068537305
 20
5.0776818076
 11
5.9988443555
 21
5.0670026411
  0
LINE
  5
2E7
100
AcDbEntity
  8
03__ASM_ALL_CURVES
100
AcDbLine
 62
40
  6
CONTINUOUS
 10
6.1350037305
 20
5.1043797255
 11
6.130999043
 21
5.0990401397
  0
LINE
  5
2E8
100
AcDbEntity
  8
03__ASM_ALL_CURVES
100
AcDbLine
 62
40
  6
CONTINUOUS
 10
4.8359852931
 20
5.1203984755
 11
4.8399899806
 21
5.1150588897
  0
LINE
  5
2E9
100
AcDbEntity
  8
03__ASM_ALL_CURVES
100
AcDbLine
 62
40
  6
CONTINUOUS
 10
5.2860099805
 20
5.1257380576
 11
5.306033418
 21
5.0616630576
  0
LINE
  5
2EA
100
AcDbEntity
  8
03__ASM_ALL_CURVES
100
AcDbLine
 62
40
  6
CONTINUOUS
 10
5.6544412305
 20
5.1150588897
 11
5.6544412305
 21
5.1097193076
  0
LINE
  5
2EB
100
AcDbEntity
  8
03__ASM_ALL_CURVES
100
AcDbLine
 62
40
  6
CONTINUOUS
 10
5.6864787305
 20
5.0830213916
 11
5.6864787305
 21
5.0723422246
  0
LINE
  5
2EC
100
AcDbEntity
  8
03__ASM_ALL_CURVES
100
AcDbLine
 62
40
  6
CONTINUOUS
 10
5.8226381055
 20
5.0937005576
 11
5.818633418
 21
5.0776818076
  0
LINE
  5
2ED
100
AcDbEntity
  8
03__ASM_ALL_CURVES
100
AcDbLine
 62
40
  6
CONTINUOUS
 10
4.3113712306
 20
5.0616630576
 11
4.3033618556
 21
5.0670026411
  0
LINE
  5
2EE
100
AcDbEntity
  8
03__ASM_ALL_CURVES
100
AcDbLine
 62
40
  6
CONTINUOUS
 10
4.3113712306
 20
5.1257380576
 11
4.3193806056
 21
5.1203984755
  0
LINE
  5
2EF
100
AcDbEntity
  8
03__ASM_ALL_CURVES
100
AcDbLine
 62
40
  6
CONTINUOUS
 10
4.4395212306
 20
5.0616630576
 11
4.4315118556
 21
5.0670026411
  0
LINE
  5
2F0
100
AcDbEntity
  8
03__ASM_ALL_CURVES
100
AcDbLine
 62
40
  6
CONTINUOUS
 10
6.1731794159
 20
3.4526014952
 11
6.1671723847
 21
3.4606108701
  0
LINE
  5
2F1
100
AcDbEntity
  8
03__ASM_ALL_CURVES
100
AcDbLine
 62
40
  6
CONTINUOUS
 10
6.1431442597
 20
3.4926483711
 11
6.1461477753
 21
3.4886436816
  0
LINE
  5
2F2
100
AcDbEntity
  8
03__ASM_ALL_CURVES
100
AcDbLine
 62
40
  6
CONTINUOUS
 10
4.9481165431
 20
5.1257380576
 11
4.9561259181
 21
5.1150588897
  0
LINE
  5
2F3
100
AcDbEntity
  8
03__ASM_ALL_CURVES
100
AcDbLine
 62
40
  6
CONTINUOUS
 10
6.1912005097
 20
3.4926483711
 11
6.1972075409
 21
3.4846389951
  0
LINE
  5
2F4
100
AcDbEntity
  8
03__ASM_ALL_CURVES
100
AcDbLine
 62
40
  6
CONTINUOUS
 10
6.2392567597
 20
3.4926483711
 11
6.2422602753
 21
3.4886436816
  0
LINE
  5
2F5
100
AcDbEntity
  8
03__ASM_ALL_CURVES
100
AcDbLine
 62
40
  6
CONTINUOUS
 10
5.7185162305
 20
5.1257380576
 11
5.7185162305
 21
5.0616630576
  0
LINE
  5
2F6
100
AcDbEntity
  8
03__ASM_ALL_CURVES
100
AcDbLine
 62
40
  6
CONTINUOUS
 10
5.7505537305
 20
5.1257380576
 11
5.7505537305
 21
5.0616630576
  0
LINE
  5
2F7
100
AcDbEntity
  8
03__ASM_ALL_CURVES
100
AcDbLine
 62
40
  6
CONTINUOUS
 10
6.010858418
 20
5.0937005576
 11
6.0068537305
 21
5.0776818076
  0
LINE
  5
2F8
100
AcDbEntity
  8
03__ASM_ALL_CURVES
100
AcDbLine
 62
40
  6
CONTINUOUS
 10
7.1733200591
 20
4.2284680576
 11
7.1673130279
 21
4.2284680576
  0
LINE
  5
2F9
100
AcDbEntity
  8
03__ASM_ALL_CURVES
100
AcDbLine
 62
40
  6
CONTINUOUS
 10
7.2213763091
 20
4.2524961826
 11
7.206358731
 21
4.2524961826
  0
LINE
  5
2FA
100
AcDbEntity
  8
03__ASM_ALL_CURVES
100
AcDbLine
 62
40
  6
CONTINUOUS
 10
7.1252638091
 20
4.2524961826
 11
7.110246231
 21
4.2524961826
  0
LINE
  5
2FB
100
AcDbEntity
  8
03__ASM_ALL_CURVES
100
AcDbLine
 62
40
  6
CONTINUOUS
 10
7.110246231
 20
4.2765243076
 11
7.1252638091
 21
4.2765243076
  0
LINE
  5
2FC
100
AcDbEntity
  8
03__ASM_ALL_CURVES
100
AcDbLine
 62
40
  6
CONTINUOUS
 10
7.1673130279
 20
4.2765243076
 11
7.1733200591
 21
4.2765243076
  0
LINE
  5
2FD
100
AcDbEntity
  8
03__ASM_ALL_CURVES
100
AcDbLine
 62
40
  6
CONTINUOUS
 10
7.206358731
 20
4.2765243076
 11
7.2213763091
 21
4.2765243076
  0
LINE
  5
2FE
100
AcDbEntity
  8
03__ASM_ALL_CURVES
100
AcDbLine
 62
40
  6
CONTINUOUS
 10
7.2514114654
 20
4.2765243076
 11
7.2814466216
 21
4.2765243076
  0
LINE
  5
2FF
100
AcDbEntity
  8
THREAD
100
AcDbLine
 62
7
  6
CONTINUOUS
 10
4.9966026371
 20
4.7308229306
 11
4.9777462306
 21
4.7417096819
  0
LINE
  5
300
100
AcDbEntity
  8
03__ASM_ALL_CURVES
100
AcDbLine
 62
40
  6
CONTINUOUS
 10
4.4995915431
 20
5.0616630576
 11
4.4915821681
 21
5.0670026411
  0
LINE
  5
301
100
AcDbEntity
  8
03__ASM_ALL_CURVES
100
AcDbLine
 62
40
  6
CONTINUOUS
 10
4.4395212306
 20
5.1257380576
 11
4.4475306056
 21
5.1203984755
  0
LINE
  5
302
100
AcDbEntity
  8
03__ASM_ALL_CURVES
100
AcDbLine
 62
40
  6
CONTINUOUS
 10
4.4995915431
 20
5.0990401397
 11
4.4915821681
 21
5.1043797255
  0
LINE
  5
303
100
AcDbEntity
  8
03__ASM_ALL_CURVES
100
AcDbLine
 62
40
  6
CONTINUOUS
 10
4.5076009181
 20
5.0990401397
 11
4.5156102931
 21
5.0937005576
  0
LINE
  5
304
100
AcDbEntity
  8
03__ASM_ALL_CURVES
100
AcDbLine
 62
40
  6
CONTINUOUS
 10
4.5076009181
 20
5.1257380576
 11
4.5156102931
 21
5.1203984755
  0
LINE
  5
305
100
AcDbEntity
  8
03__ASM_ALL_CURVES
100
AcDbLine
 62
40
  6
CONTINUOUS
 10
5.145845918
 20
5.0670026411
 11
5.137836543
 21
5.0776818076
  0
LINE
  5
306
100
AcDbEntity
  8
03__ASM_ALL_CURVES
100
AcDbLine
 62
40
  6
CONTINUOUS
 10
6.3353692597
 20
3.4926483711
 11
6.3383727753
 21
3.4886436816
  0
LINE
  5
307
100
AcDbEntity
  8
03__ASM_ALL_CURVES
100
AcDbLine
 62
40
  6
CONTINUOUS
 10
5.209920918
 20
5.0670026411
 11
5.201911543
 21
5.0776818076
  0
LINE
  5
308
100
AcDbEntity
  8
03__ASM_ALL_CURVES
100
AcDbLine
 62
40
  6
CONTINUOUS
 10
5.169874043
 20
5.1203984755
 11
5.177883418
 21
5.1097193076
  0
LINE
  5
309
100
AcDbEntity
  8
03__ASM_ALL_CURVES
100
AcDbLine
 62
40
  6
CONTINUOUS
 10
5.522286543
 20
5.0776818076
 11
5.5182818555
 21
5.0937005576
  0
LINE
  5
30A
100
AcDbEntity
  8
0
100
AcDbLine
 62
7
  6
CONTINUOUS
 10
5.8342462306
 20
3.7636530576
 11
5.8342462306
 21
4.6676530576
  0
LINE
  5
30B
100
AcDbEntity
  8
03__ASM_ALL_CURVES
100
AcDbLine
 62
40
  6
CONTINUOUS
 10
5.8466662305
 20
5.0723422246
 11
5.8466662305
 21
5.1257380576
  0
LINE
  5
30C
100
AcDbEntity
  8
0
100
AcDbLine
 62
7
  6
CONTINUOUS
 10
5.8502462306
 20
3.7796530576
 11
5.8502462306
 21
4.6516530576
  0
LINE
  5
30D
100
AcDbEntity
  8
03__ASM_ALL_CURVES
100
AcDbLine
 62
40
  6
CONTINUOUS
 10
5.8787037305
 20
5.1257380576
 11
5.8787037305
 21
5.0723422246
  0
LINE
  5
30E
100
AcDbEntity
  8
03__ASM_ALL_CURVES
100
AcDbLine
 62
40
  6
CONTINUOUS
 10
5.9107412305
 20
5.1257380576
 11
5.9107412305
 21
5.0616630576
  0
LINE
  5
30F
100
AcDbEntity
  8
THREAD
100
AcDbLine
 62
7
  6
CONTINUOUS
 10
4.9966026371
 20
3.7004831846
 11
4.9777462306
 21
3.6895964333
  0
LINE
  5
310
100
AcDbEntity
  8
THREAD
100
AcDbLine
 62
7
  6
CONTINUOUS
 10
5.5382462306
 20
4.6676530576
 11
5.4942462306
 21
4.7116530576
  0
LINE
  5
311
100
AcDbEntity
  8
03__ASM_ALL_CURVES
100
AcDbLine
 62
40
  6
CONTINUOUS
 10
5.233949043
 20
5.1203984755
 11
5.2379537305
 21
5.1150588897
  0
LINE
  5
312
100
AcDbEntity
  8
03__ASM_ALL_CURVES
100
AcDbLine
 62
40
  6
CONTINUOUS
 10
5.4622162305
 20
5.1257380576
 11
5.4942537305
 21
5.0616630576
  0
LINE
  5
313
100
AcDbEntity
  8
03__ASM_ALL_CURVES
100
AcDbLine
 62
40
  6
CONTINUOUS
 10
6.2332497284
 20
3.4726249326
 11
6.2422602753
 21
3.4485968076
  0
LINE
  5
314
100
AcDbEntity
  8
03__ASM_ALL_CURVES
100
AcDbLine
 62
40
  6
CONTINUOUS
 10
5.9748162305
 20
5.0616630576
 11
5.9748162305
 21
5.1257380576
  0
LINE
  5
315
100
AcDbEntity
  8
03__ASM_ALL_CURVES
100
AcDbLine
 62
40
  6
CONTINUOUS
 10
6.0388912305
 20
5.0616630576
 11
6.0388912305
 21
5.1257380576
  0
LINE
  5
316
100
AcDbEntity
  8
THREAD
100
AcDbLine
 62
7
  6
CONTINUOUS
 10
5.5382462306
 20
3.7636530576
 11
5.4942462306
 21
3.7196530576
  0
LINE
  5
317
100
AcDbEntity
  8
0
100
AcDbLine
 62
7
  6
CONTINUOUS
 10
4.7318206048
 20
4.5081736765
 11
4.3338569019
 21
4.5081736765
  0
LINE
  5
318
100
AcDbEntity
  8
03__ASM_ALL_CURVES
100
AcDbLine
 62
40
  6
CONTINUOUS
 10
4.4395212306
 20
5.0990401397
 11
4.4515352931
 21
5.0937005576
  0
LINE
  5
319
100
AcDbEntity
  8
03__ASM_ALL_CURVES
100
AcDbLine
 62
40
  6
CONTINUOUS
 10
4.8279759181
 20
5.1257380576
 11
4.8359852931
 21
5.1203984755
  0
LINE
  5
31A
100
AcDbEntity
  8
03__ASM_ALL_CURVES
100
AcDbLine
 62
40
  6
CONTINUOUS
 10
6.1671723847
 20
3.4606108701
 11
6.164168869
 21
3.4726249326
  0
LINE
  5
31B
100
AcDbEntity
  8
03__ASM_ALL_CURVES
100
AcDbLine
 62
40
  6
CONTINUOUS
 10
5.778586543
 20
5.0776818076
 11
5.7745818555
 21
5.0937005576
  0
LINE
  5
31C
100
AcDbEntity
  8
03__ASM_ALL_CURVES
100
AcDbLine
 62
40
  6
CONTINUOUS
 10
6.1972075409
 20
3.4846389951
 11
6.2002110565
 21
3.4726249326
  0
LINE
  5
31D
100
AcDbEntity
  8
03__ASM_ALL_CURVES
100
AcDbLine
 62
40
  6
CONTINUOUS
 10
5.818633418
 20
5.1097193076
 11
5.8226381055
 21
5.0937005576
  0
LINE
  5
31E
100
AcDbEntity
  8
03__ASM_ALL_CURVES
100
AcDbLine
 62
40
  6
CONTINUOUS
 10
6.1029662305
 20
5.0616630576
 11
6.1029662305
 21
5.1257380576
  0
LINE
  5
31F
100
AcDbEntity
  8
03__ASM_ALL_CURVES
100
AcDbLine
 62
40
  6
CONTINUOUS
 10
6.1221196503
 20
3.4485968076
 11
6.1221196503
 21
3.4966530576
  0
LINE
  5
320
100
AcDbEntity
  8
03__ASM_ALL_CURVES
100
AcDbLine
 62
40
  6
CONTINUOUS
 10
6.1350037305
 20
5.1150588897
 11
6.1350037305
 21
5.1043797255
  0
LINE
  5
321
100
AcDbEntity
  8
03__ASM_ALL_CURVES
100
AcDbLine
 62
40
  6
CONTINUOUS
 10
6.1461477753
 20
3.4886436816
 11
6.1461477753
 21
3.4806343086
  0
LINE
  5
322
100
AcDbEntity
  8
0
100
AcDbLine
 62
7
  6
CONTINUOUS
 10
4.7318206048
 20
4.5565177481
 11
4.3338569019
 21
4.5565177481
  0
LINE
  5
323
100
AcDbEntity
  8
0
100
AcDbLine
 62
7
  6
CONTINUOUS
 10
6.5372462306
 20
4.5896530576
 11
6.5212462306
 21
4.5896530576
  0
LINE
  5
324
100
AcDbEntity
  8
0
100
AcDbLine
 62
7
  6
CONTINUOUS
 10
6.3652462306
 20
4.5896530576
 11
5.8502462306
 21
4.5896530576
  0
LINE
  5
325
100
AcDbEntity
  8
0
100
AcDbLine
 62
7
  6
CONTINUOUS
 10
6.7922462306
 20
4.5976530576
 11
6.7642462306
 21
4.5976530576
  0
LINE
  5
326
100
AcDbEntity
  8
03__ASM_ALL_CURVES
100
AcDbLine
 62
40
  6
CONTINUOUS
 10
5.153855293
 20
5.0616630576
 11
5.145845918
 21
5.0670026411
  0
LINE
  5
327
100
AcDbEntity
  8
03__ASM_ALL_CURVES
100
AcDbLine
 62
40
  6
CONTINUOUS
 10
5.217930293
 20
5.0616630576
 11
5.209920918
 21
5.0670026411
  0
LINE
  5
328
100
AcDbEntity
  8
03__ASM_ALL_CURVES
100
AcDbLine
 62
40
  6
CONTINUOUS
 10
5.161864668
 20
5.1257380576
 11
5.169874043
 21
5.1203984755
  0
LINE
  5
329
100
AcDbEntity
  8
0
100
AcDbLine
 62
7
  6
CONTINUOUS
 10
5.8502462306
 20
4.6516530576
 11
5.8342462306
 21
4.6676530576
  0
LINE
  5
32A
100
AcDbEntity
  8
03__ASM_ALL_CURVES
100
AcDbLine
 62
40
  6
CONTINUOUS
 10
5.530295918
 20
5.0670026411
 11
5.522286543
 21
5.0776818076
  0
LINE
  5
32B
100
AcDbEntity
  8
03__ASM_ALL_CURVES
100
AcDbLine
 62
40
  6
CONTINUOUS
 10
5.554324043
 20
5.1203984755
 11
5.5583287305
 21
5.1150588897
  0
LINE
  5
32C
100
AcDbEntity
  8
03__ASM_ALL_CURVES
100
AcDbLine
 62
40
  6
CONTINUOUS
 10
5.658445918
 20
5.0670026411
 11
5.650436543
 21
5.0776818076
  0
LINE
  5
32D
100
AcDbEntity
  8
03__ASM_ALL_CURVES
100
AcDbLine
 62
40
  6
CONTINUOUS
 10
6.2182321503
 20
3.4485968076
 11
6.2182321503
 21
3.4966530576
  0
LINE
  5
32E
100
AcDbEntity
  8
03__ASM_ALL_CURVES
100
AcDbLine
 62
40
  6
CONTINUOUS
 10
6.2422602753
 20
3.4886436816
 11
6.2422602753
 21
3.4806343086
  0
LINE
  5
32F
100
AcDbEntity
  8
0
100
AcDbLine
 62
7
  6
CONTINUOUS
 10
5.8502462306
 20
3.7796530576
 11
5.8342462306
 21
3.7636530576
  0
LINE
  5
330
100
AcDbEntity
  8
0
100
AcDbLine
 62
7
  6
CONTINUOUS
 10
6.5942462306
 20
4.6516530576
 11
6.6442462306
 21
4.6516530576
  0
LINE
  5
331
100
AcDbEntity
  8
0
100
AcDbLine
 62
7
  6
CONTINUOUS
 10
6.7142462306
 20
4.6516530576
 11
6.7642462306
 21
4.6516530576
  0
LINE
  5
332
100
AcDbEntity
  8
0
100
AcDbLine
 62
7
  6
CONTINUOUS
 10
6.5372462306
 20
4.6521530576
 11
6.5942462306
 21
4.6521530576
  0
LINE
  5
333
100
AcDbEntity
  8
0
100
AcDbLine
 62
7
  6
CONTINUOUS
 10
6.7922462306
 20
4.6521530576
 11
6.8352462306
 21
4.6521530576
  0
LINE
  5
334
100
AcDbEntity
  8
THREAD
100
AcDbLine
 62
7
  6
CONTINUOUS
 10
5.8342462306
 20
4.6676530576
 11
5.5382462306
 21
4.6676530576
  0
LINE
  5
335
100
AcDbEntity
  8
THREAD
100
AcDbLine
 62
7
  6
CONTINUOUS
 10
5.1560293523
 20
4.6736530576
 11
5.1422462306
 21
4.6736530576
  0
LINE
  5
336
100
AcDbEntity
  8
THREAD
100
AcDbLine
 62
7
  6
CONTINUOUS
 10
5.4942462306
 20
4.7116530576
 11
5.1851855409
 21
4.7116530576
  0
LINE
  5
337
100
AcDbEntity
  8
0
100
AcDbLine
 62
7
  6
CONTINUOUS
 10
5.0922462306
 20
4.7276530576
 11
5.1422462306
 21
4.7276530576
  0
LINE
  5
338
100
AcDbEntity
  8
THREAD
100
AcDbLine
 62
7
  6
CONTINUOUS
 10
5.0222462306
 20
4.7301530576
 11
4.9991026371
 21
4.7301530576
  0
LINE
  5
339
100
AcDbEntity
  8
0
100
AcDbLine
 62
7
  6
CONTINUOUS
 10
4.9722462306
 20
4.7536530576
 11
4.7872462306
 21
4.7536530576
  0
LINE
  5
33A
100
AcDbEntity
  8
03__ASM_ALL_CURVES
100
AcDbLine
 62
40
  6
CONTINUOUS
 10
5.225939668
 20
5.1257380576
 11
5.233949043
 21
5.1203984755
  0
LINE
  5
33B
100
AcDbEntity
  8
03__ASM_ALL_CURVES
100
AcDbLine
 62
40
  6
CONTINUOUS
 10
5.6544412305
 20
5.1097193076
 11
5.658445918
 21
5.1043797255
  0
LINE
  5
33C
100
AcDbEntity
  8
03__ASM_ALL_CURVES
100
AcDbLine
 62
40
  6
CONTINUOUS
 10
5.682474043
 20
5.0883609736
 11
5.6864787305
 21
5.0830213916
  0
LINE
  5
33D
100
AcDbEntity
  8
03__ASM_ALL_CURVES
100
AcDbLine
 62
40
  6
CONTINUOUS
 10
5.6864787305
 20
5.1150588897
 11
5.682474043
 21
5.1203984755
  0
LINE
  5
33E
100
AcDbEntity
  8
03__ASM_ALL_CURVES
100
AcDbLine
 62
40
  6
CONTINUOUS
 10
5.786595918
 20
5.0670026411
 11
5.778586543
 21
5.0776818076
  0
LINE
  5
33F
100
AcDbEntity
  8
03__ASM_ALL_CURVES
100
AcDbLine
 62
40
  6
CONTINUOUS
 10
6.0068537305
 20
5.1097193076
 11
6.010858418
 21
5.0937005576
  0
LINE
  5
340
100
AcDbEntity
  8
03__ASM_ALL_CURVES
100
AcDbLine
 62
40
  6
CONTINUOUS
 10
6.2783024628
 20
3.4966530576
 11
6.2783024628
 21
3.4485968076
  0
LINE
  5
341
100
AcDbEntity
  8
03__ASM_ALL_CURVES
100
AcDbLine
 62
40
  6
CONTINUOUS
 10
6.3383727753
 20
3.4886436816
 11
6.3383727753
 21
3.4806343086
  0
LINE
  5
342
100
AcDbEntity
  8
03__ASM_ALL_CURVES
100
AcDbLine
 62
40
  6
CONTINUOUS
 10
6.164168869
 20
3.4726249326
 11
6.1671723847
 21
3.4846389951
  0
LINE
  5
343
100
AcDbEntity
  8
03__ASM_ALL_CURVES
100
AcDbLine
 62
40
  6
CONTINUOUS
 10
6.2002110565
 20
3.4726249326
 11
6.1972075409
 21
3.4606108701
  0
LINE
  5
344
100
AcDbEntity
  8
0
100
AcDbLine
 62
7
  6
CONTINUOUS
 10
4.7318206048
 20
4.8490383671
 11
4.3338569019
 21
4.8490383671
  0
LINE
  5
345
100
AcDbEntity
  8
0
100
AcDbLine
 62
7
  6
CONTINUOUS
 10
4.7318206048
 20
4.8496530576
 11
4.3338569019
 21
4.8496530576
  0
LINE
  5
346
100
AcDbEntity
  8
03__ASM_ALL_CURVES
100
AcDbLine
 62
40
  6
CONTINUOUS
 10
4.3651362306
 20
5.0274897243
 11
4.2882462306
 21
5.0360330576
  0
LINE
  5
347
100
AcDbEntity
  8
03__ASM_ALL_CURVES
100
AcDbLine
 62
40
  6
CONTINUOUS
 10
4.3651362306
 20
5.0253538909
 11
4.2882462306
 21
5.0360330576
  0
LINE
  5
348
100
AcDbEntity
  8
03__ASM_ALL_CURVES
100
AcDbLine
 62
40
  6
CONTINUOUS
 10
4.3651362306
 20
5.0232180576
 11
4.2882462306
 21
5.0360330576
  0
LINE
  5
349
100
AcDbEntity
  8
03__ASM_ALL_CURVES
100
AcDbLine
 62
40
  6
CONTINUOUS
 10
5.538305293
 20
5.0616630576
 11
5.530295918
 21
5.0670026411
  0
LINE
  5
34A
100
AcDbEntity
  8
03__ASM_ALL_CURVES
100
AcDbLine
 62
40
  6
CONTINUOUS
 10
5.546314668
 20
5.1257380576
 11
5.554324043
 21
5.1203984755
  0
LINE
  5
34B
100
AcDbEntity
  8
03__ASM_ALL_CURVES
100
AcDbLine
 62
40
  6
CONTINUOUS
 10
5.666455293
 20
5.0616630576
 11
5.658445918
 21
5.0670026411
  0
LINE
  5
34C
100
AcDbEntity
  8
03__ASM_ALL_CURVES
100
AcDbLine
 62
40
  6
CONTINUOUS
 10
5.850670918
 20
5.0670026411
 11
5.8466662305
 21
5.0723422246
  0
LINE
  5
34D
100
AcDbEntity
  8
03__ASM_ALL_CURVES
100
AcDbLine
 62
40
  6
CONTINUOUS
 10
5.810624043
 20
5.1203984755
 11
5.818633418
 21
5.1097193076
  0
LINE
  5
34E
100
AcDbEntity
  8
03__ASM_ALL_CURVES
100
AcDbLine
 62
40
  6
CONTINUOUS
 10
6.122989668
 20
5.0937005576
 11
6.1350037305
 21
5.0616630576
  0
LINE
  5
34F
100
AcDbEntity
  8
0
100
AcDbLine
 62
7
  6
CONTINUOUS
 10
6.4473275933
 20
4.1380782779
 11
6.4473275933
 21
4.2932662484
  0
LINE
  5
350
100
AcDbEntity
  8
03__ASM_ALL_CURVES
100
AcDbLine
 62
40
  6
CONTINUOUS
 10
6.3173481659
 20
3.4606108701
 11
6.3143446503
 21
3.4485968076
  0
LINE
  5
351
100
AcDbEntity
  8
03__ASM_ALL_CURVES
100
AcDbLine
 62
40
  6
CONTINUOUS
 10
4.3651362306
 20
5.0338972243
 11
4.2882462306
 21
5.0360330576
  0
LINE
  5
352
100
AcDbEntity
  8
03__ASM_ALL_CURVES
100
AcDbLine
 62
40
  6
CONTINUOUS
 10
4.3651362306
 20
5.0317613909
 11
4.2882462306
 21
5.0360330576
  0
LINE
  5
353
100
AcDbEntity
  8
03__ASM_ALL_CURVES
100
AcDbLine
 62
40
  6
CONTINUOUS
 10
4.8983562306
 20
5.0403047243
 11
5.0521362306
 21
5.0317613909
  0
LINE
  5
354
100
AcDbEntity
  8
03__ASM_ALL_CURVES
100
AcDbLine
 62
40
  6
CONTINUOUS
 10
4.3651362306
 20
5.0296255576
 11
4.2882462306
 21
5.0360330576
  0
LINE
  5
355
100
AcDbEntity
  8
03__ASM_ALL_CURVES
100
AcDbLine
 62
40
  6
CONTINUOUS
 10
4.8983562306
 20
5.0424405576
 11
5.0521362306
 21
5.0296255576
  0
LINE
  5
356
100
AcDbEntity
  8
03__ASM_ALL_CURVES
100
AcDbLine
 62
40
  6
CONTINUOUS
 10
4.8983562306
 20
5.0445763909
 11
5.0521362306
 21
5.0274897243
  0
LINE
  5
357
100
AcDbEntity
  8
03__ASM_ALL_CURVES
100
AcDbLine
 62
40
  6
CONTINUOUS
 10
4.8983562306
 20
5.0467122243
 11
5.0521362306
 21
5.0253538909
  0
LINE
  5
358
100
AcDbEntity
  8
03__ASM_ALL_CURVES
100
AcDbLine
 62
40
  6
CONTINUOUS
 10
5.0521362306
 20
5.0232180576
 11
4.8983562306
 21
5.0488480576
  0
LINE
  5
359
100
AcDbEntity
  8
03__ASM_ALL_CURVES
100
AcDbLine
 62
40
  6
CONTINUOUS
 10
5.658445918
 20
5.1043797255
 11
5.682474043
 21
5.0883609736
  0
LINE
  5
35A
100
AcDbEntity
  8
03__ASM_ALL_CURVES
100
AcDbLine
 62
40
  6
CONTINUOUS
 10
5.682474043
 20
5.1203984755
 11
5.674464668
 21
5.1257380576
  0
LINE
  5
35B
100
AcDbEntity
  8
03__ASM_ALL_CURVES
100
AcDbLine
 62
40
  6
CONTINUOUS
 10
5.794605293
 20
5.0616630576
 11
5.786595918
 21
5.0670026411
  0
LINE
  5
35C
100
AcDbEntity
  8
03__ASM_ALL_CURVES
100
AcDbLine
 62
40
  6
CONTINUOUS
 10
5.858680293
 20
5.0616630576
 11
5.850670918
 21
5.0670026411
  0
LINE
  5
35D
100
AcDbEntity
  8
03__ASM_ALL_CURVES
100
AcDbLine
 62
40
  6
CONTINUOUS
 10
5.802614668
 20
5.1257380576
 11
5.810624043
 21
5.1203984755
  0
LINE
  5
35E
100
AcDbEntity
  8
03__ASM_ALL_CURVES
100
AcDbLine
 62
40
  6
CONTINUOUS
 10
5.9988443555
 20
5.1203984755
 11
6.0068537305
 21
5.1097193076
  0
LINE
  5
35F
100
AcDbEntity
  8
0
100
AcDbLine
 62
7
  6
CONTINUOUS
 10
6.5372462306
 20
4.652147943
 11
6.5372462306
 21
3.7791581722
  0
LINE
  5
360
100
AcDbEntity
  8
0
100
AcDbLine
 62
7
  6
CONTINUOUS
 10
6.5942462306
 20
4.652147943
 11
6.5942462306
 21
3.7791581722
  0
LINE
  5
361
100
AcDbEntity
  8
03__ASM_ALL_CURVES
100
AcDbLine
 62
40
  6
CONTINUOUS
 10
6.1461477753
 20
3.4806343086
 11
6.1431442597
 21
3.4766296191
  0
LINE
  5
362
100
AcDbEntity
  8
03__ASM_ALL_CURVES
100
AcDbLine
 62
40
  6
CONTINUOUS
 10
6.1671723847
 20
3.4846389951
 11
6.1731794159
 21
3.4926483711
  0
LINE
  5
363
100
AcDbEntity
  8
03__ASM_ALL_CURVES
100
AcDbLine
 62
40
  6
CONTINUOUS
 10
6.1972075409
 20
3.4606108701
 11
6.1912005097
 21
3.4526014952
  0
LINE
  5
364
100
AcDbEntity
  8
03__ASM_ALL_CURVES
100
AcDbLine
 62
40
  6
CONTINUOUS
 10
7.1312708404
 20
4.2565008691
 11
7.1252638091
 21
4.2524961826
  0
LINE
  5
365
100
AcDbEntity
  8
03__ASM_ALL_CURVES
100
AcDbLine
 62
40
  6
CONTINUOUS
 10
7.1613059966
 20
4.2725196211
 11
7.1673130279
 21
4.2765243076
  0
LINE
  5
366
100
AcDbEntity
  8
03__ASM_ALL_CURVES
100
AcDbLine
 62
40
  6
CONTINUOUS
 10
7.1793270904
 20
4.2324727452
 11
7.1733200591
 21
4.2284680576
  0
LINE
  5
367
100
AcDbEntity
  8
03__ASM_ALL_CURVES
100
AcDbLine
 62
40
  6
CONTINUOUS
 10
7.2273833404
 20
4.2565008691
 11
7.2213763091
 21
4.2524961826
  0
LINE
  5
368
100
AcDbEntity
  8
03__ASM_ALL_CURVES
100
AcDbLine
 62
40
  6
CONTINUOUS
 10
4.8983562306
 20
5.0296255576
 11
5.0521362306
 21
5.0424405576
  0
LINE
  5
369
100
AcDbEntity
  8
03__ASM_ALL_CURVES
100
AcDbLine
 62
40
  6
CONTINUOUS
 10
4.8983562306
 20
5.0317613909
 11
5.0521362306
 21
5.0403047243
  0
LINE
  5
36A
100
AcDbEntity
  8
03__ASM_ALL_CURVES
100
AcDbLine
 62
40
  6
CONTINUOUS
 10
4.8983562306
 20
5.0338972243
 11
5.0521362306
 21
5.0381688909
  0
LINE
  5
36B
100
AcDbEntity
  8
03__ASM_ALL_CURVES
100
AcDbLine
 62
40
  6
CONTINUOUS
 10
4.3651362306
 20
5.0381688909
 11
4.2882462306
 21
5.0360330576
  0
LINE
  5
36C
100
AcDbEntity
  8
03__ASM_ALL_CURVES
100
AcDbLine
 62
40
  6
CONTINUOUS
 10
4.2882462306
 20
5.0360330576
 11
6.2054862306
 21
5.0360330576
  0
LINE
  5
36D
100
AcDbEntity
  8
03__ASM_ALL_CURVES
100
AcDbLine
 62
40
  6
CONTINUOUS
 10
6.0709287305
 20
5.0616630576
 11
6.0388912305
 21
5.0616630576
  0
LINE
  5
36E
100
AcDbEntity
  8
03__ASM_ALL_CURVES
100
AcDbLine
 62
40
  6
CONTINUOUS
 10
5.9908349805
 20
5.0616630576
 11
5.9748162305
 21
5.0616630576
  0
LINE
  5
36F
100
AcDbEntity
  8
03__ASM_ALL_CURVES
100
AcDbLine
 62
40
  6
CONTINUOUS
 10
5.866689668
 20
5.0616630576
 11
5.858680293
 21
5.0616630576
  0
LINE
  5
370
100
AcDbEntity
  8
03__ASM_ALL_CURVES
100
AcDbLine
 62
40
  6
CONTINUOUS
 10
5.802614668
 20
5.0616630576
 11
5.794605293
 21
5.0616630576
  0
LINE
  5
371
100
AcDbEntity
  8
03__ASM_ALL_CURVES
100
AcDbLine
 62
40
  6
CONTINUOUS
 10
5.674464668
 20
5.0616630576
 11
5.666455293
 21
5.0616630576
  0
LINE
  5
372
100
AcDbEntity
  8
03__ASM_ALL_CURVES
100
AcDbLine
 62
40
  6
CONTINUOUS
 10
5.546314668
 20
5.0616630576
 11
5.538305293
 21
5.0616630576
  0
LINE
  5
373
100
AcDbEntity
  8
03__ASM_ALL_CURVES
100
AcDbLine
 62
40
  6
CONTINUOUS
 10
5.225939668
 20
5.0616630576
 11
5.217930293
 21
5.0616630576
  0
LINE
  5
374
100
AcDbEntity
  8
03__ASM_ALL_CURVES
100
AcDbLine
 62
40
  6
CONTINUOUS
 10
5.161864668
 20
5.0616630576
 11
5.153855293
 21
5.0616630576
  0
LINE
  5
375
100
AcDbEntity
  8
03__ASM_ALL_CURVES
100
AcDbLine
 62
40
  6
CONTINUOUS
 10
4.7598962306
 20
5.0616630576
 11
4.7558915431
 21
5.0616630576
  0
LINE
  5
376
100
AcDbEntity
  8
03__ASM_ALL_CURVES
100
AcDbLine
 62
40
  6
CONTINUOUS
 10
4.5076009181
 20
5.0616630576
 11
4.4995915431
 21
5.0616630576
  0
LINE
  5
377
100
AcDbEntity
  8
03__ASM_ALL_CURVES
100
AcDbLine
 62
40
  6
CONTINUOUS
 10
4.3754462306
 20
5.0616630576
 11
4.3714415431
 21
5.0616630576
  0
LINE
  5
378
100
AcDbEntity
  8
03__ASM_ALL_CURVES
100
AcDbLine
 62
40
  6
CONTINUOUS
 10
4.8079524806
 20
5.0616630576
 11
4.8399899806
 21
5.0616630576
  0
LINE
  5
379
100
AcDbEntity
  8
03__ASM_ALL_CURVES
100
AcDbLine
 62
40
  6
CONTINUOUS
 10
5.0777662305
 20
5.0616630576
 11
5.1098037305
 21
5.0616630576
  0
LINE
  5
37A
100
AcDbEntity
  8
03__ASM_ALL_CURVES
100
AcDbLine
 62
40
  6
CONTINUOUS
 10
5.9107412305
 20
5.0616630576
 11
5.9427787305
 21
5.0616630576
  0
LINE
  5
37B
100
AcDbEntity
  8
03__ASM_ALL_CURVES
100
AcDbLine
 62
40
  6
CONTINUOUS
 10
5.273995918
 20
5.0830213916
 11
5.298024043
 21
5.0830213916
  0
LINE
  5
37C
100
AcDbEntity
  8
03__ASM_ALL_CURVES
100
AcDbLine
 62
40
  6
CONTINUOUS
 10
6.122989668
 20
5.0937005576
 11
6.1029662305
 21
5.0937005576
  0
LINE
  5
37D
100
AcDbEntity
  8
03__ASM_ALL_CURVES
100
AcDbLine
 62
40
  6
CONTINUOUS
 10
5.5423099805
 20
5.0937005576
 11
5.5583287305
 21
5.0937005576
  0
LINE
  5
37E
100
AcDbEntity
  8
03__ASM_ALL_CURVES
100
AcDbLine
 62
40
  6
CONTINUOUS
 10
5.7185162305
 20
5.0937005576
 11
5.7505537305
 21
5.0937005576
  0
LINE
  5
37F
100
AcDbEntity
  8
03__ASM_ALL_CURVES
100
AcDbLine
 62
40
  6
CONTINUOUS
 10
6.0388912305
 20
5.0937005576
 11
6.058914668
 21
5.0937005576
  0
LINE
  5
380
100
AcDbEntity
  8
03__ASM_ALL_CURVES
100
AcDbLine
 62
40
  6
CONTINUOUS
 10
4.4995915431
 20
5.0990401397
 11
4.5076009181
 21
5.0990401397
  0
LINE
  5
381
100
AcDbEntity
  8
03__ASM_ALL_CURVES
100
AcDbLine
 62
40
  6
CONTINUOUS
 10
4.8983562306
 20
5.0381688909
 11
5.0521362306
 21
5.0338972243
  0
LINE
  5
382
100
AcDbEntity
  8
03__ASM_ALL_CURVES
100
AcDbLine
 62
40
  6
CONTINUOUS
 10
7.1673130279
 20
4.2284680576
 11
7.1613059966
 21
4.2324727452
  0
LINE
  5
383
100
AcDbEntity
  8
03__ASM_ALL_CURVES
100
AcDbLine
 62
40
  6
CONTINUOUS
 10
7.1252638091
 20
4.2765243076
 11
7.1312708404
 21
4.2725196211
  0
LINE
  5
384
100
AcDbEntity
  8
03__ASM_ALL_CURVES
100
AcDbLine
 62
40
  6
CONTINUOUS
 10
7.1733200591
 20
4.2765243076
 11
7.1793270904
 21
4.2725196211
  0
LINE
  5
385
100
AcDbEntity
  8
03__ASM_ALL_CURVES
100
AcDbLine
 62
40
  6
CONTINUOUS
 10
7.2213763091
 20
4.2765243076
 11
7.2273833404
 21
4.2725196211
  0
LINE
  5
386
100
AcDbEntity
  8
03__ASM_ALL_CURVES
100
AcDbLine
 62
40
  6
CONTINUOUS
 10
5.9908349805
 20
5.1257380576
 11
5.9988443555
 21
5.1203984755
  0
LINE
  5
387
100
AcDbEntity
  8
03__ASM_ALL_CURVES
100
AcDbLine
 62
40
  6
CONTINUOUS
 10
6.130999043
 20
5.1203984755
 11
6.1350037305
 21
5.1150588897
  0
LINE
  5
388
100
AcDbEntity
  8
0
100
AcDbLine
 62
7
  6
CONTINUOUS
 10
6.6442462306
 20
3.7796537205
 11
6.6442462306
 21
4.6516523947
  0
LINE
  5
389
100
AcDbEntity
  8
0
100
AcDbLine
 62
7
  6
CONTINUOUS
 10
6.7142462306
 20
3.7796537205
 11
6.7142462306
 21
4.6516523947
  0
LINE
  5
38A
100
AcDbEntity
  8
03__ASM_ALL_CURVES
100
AcDbLine
 62
40
  6
CONTINUOUS
 10
6.2422602753
 20
3.4806343086
 11
6.2392567597
 21
3.4766296191
  0
LINE
  5
38B
100
AcDbEntity
  8
03__ASM_ALL_CURVES
100
AcDbLine
 62
40
  6
CONTINUOUS
 10
6.3143446503
 20
3.4886436816
 11
6.3173481659
 21
3.4926483711
  0
LINE
  5
38C
100
AcDbEntity
  8
03__ASM_ALL_CURVES
100
AcDbLine
 62
40
  6
CONTINUOUS
 10
6.3233551972
 20
3.4686202446
 11
6.3173481659
 21
3.4606108701
  0
LINE
  5
38D
100
AcDbEntity
  8
03__ASM_ALL_CURVES
100
AcDbLine
 62
40
  6
CONTINUOUS
 10
6.3383727753
 20
3.4806343086
 11
6.3353692597
 21
3.4766296191
  0
LINE
  5
38E
100
AcDbEntity
  8
03__ASM_ALL_CURVES
100
AcDbLine
 62
40
  6
CONTINUOUS
 10
6.1431442597
 20
3.4766296191
 11
6.1371372284
 21
3.4726249326
  0
LINE
  5
38F
100
AcDbEntity
  8
03__ASM_ALL_CURVES
100
AcDbLine
 62
40
  6
CONTINUOUS
 10
6.1731794159
 20
3.4926483711
 11
6.1791864472
 21
3.4966530576
  0
LINE
  5
390
100
AcDbEntity
  8
03__ASM_ALL_CURVES
100
AcDbLine
 62
40
  6
CONTINUOUS
 10
6.1912005097
 20
3.4526014952
 11
6.1851934784
 21
3.4485968076
  0
LINE
  5
391
100
AcDbEntity
  8
03__ASM_ALL_CURVES
100
AcDbLine
 62
40
  6
CONTINUOUS
 10
6.2392567597
 20
3.4766296191
 11
6.2332497284
 21
3.4726249326
  0
LINE
  5
392
100
AcDbEntity
  8
03__ASM_ALL_CURVES
100
AcDbLine
 62
40
  6
CONTINUOUS
 10
4.8983562306
 20
5.0232180576
 11
5.0521362306
 21
5.0488480576
  0
LINE
  5
393
100
AcDbEntity
  8
03__ASM_ALL_CURVES
100
AcDbLine
 62
40
  6
CONTINUOUS
 10
4.8983562306
 20
5.0253538909
 11
5.0521362306
 21
5.0467122243
  0
LINE
  5
394
100
AcDbEntity
  8
03__ASM_ALL_CURVES
100
AcDbLine
 62
40
  6
CONTINUOUS
 10
4.8983562306
 20
5.0274897243
 11
5.0521362306
 21
5.0445763909
  0
LINE
  5
395
100
AcDbEntity
  8
03__ASM_ALL_CURVES
100
AcDbLine
 62
40
  6
CONTINUOUS
 10
4.3651362306
 20
5.0445763909
 11
4.2882462306
 21
5.0360330576
  0
LINE
  5
396
100
AcDbEntity
  8
03__ASM_ALL_CURVES
100
AcDbLine
 62
40
  6
CONTINUOUS
 10
4.3651362306
 20
5.0424405576
 11
4.2882462306
 21
5.0360330576
  0
LINE
  5
397
100
AcDbEntity
  8
03__ASM_ALL_CURVES
100
AcDbLine
 62
40
  6
CONTINUOUS
 10
4.3651362306
 20
5.0403047243
 11
4.2882462306
 21
5.0360330576
  0
LINE
  5
398
100
AcDbEntity
  8
03__ASM_ALL_CURVES
100
AcDbLine
 62
40
  6
CONTINUOUS
 10
5.674464668
 20
5.1257380576
 11
5.666455293
 21
5.1257380576
  0
LINE
  5
399
100
AcDbEntity
  8
03__ASM_ALL_CURVES
100
AcDbLine
 62
40
  6
CONTINUOUS
 10
4.9040649806
 20
5.1257380576
 11
4.8720274806
 21
5.1257380576
  0
LINE
  5
39A
100
AcDbEntity
  8
03__ASM_ALL_CURVES
100
AcDbLine
 62
40
  6
CONTINUOUS
 10
4.7118399806
 20
5.1257380576
 11
4.6798024806
 21
5.1257380576
  0
LINE
  5
39B
100
AcDbEntity
  8
03__ASM_ALL_CURVES
100
AcDbLine
 62
40
  6
CONTINUOUS
 10
4.4995915431
 20
5.1257380576
 11
4.5076009181
 21
5.1257380576
  0
LINE
  5
39C
100
AcDbEntity
  8
03__ASM_ALL_CURVES
100
AcDbLine
 62
40
  6
CONTINUOUS
 10
4.8199665431
 20
5.1257380576
 11
4.8279759181
 21
5.1257380576
  0
LINE
  5
39D
100
AcDbEntity
  8
03__ASM_ALL_CURVES
100
AcDbLine
 62
40
  6
CONTINUOUS
 10
5.153855293
 20
5.1257380576
 11
5.161864668
 21
5.1257380576
  0
LINE
  5
39E
100
AcDbEntity
  8
03__ASM_ALL_CURVES
100
AcDbLine
 62
40
  6
CONTINUOUS
 10
5.217930293
 20
5.1257380576
 11
5.225939668
 21
5.1257380576
  0
LINE
  5
39F
100
AcDbEntity
  8
03__ASM_ALL_CURVES
100
AcDbLine
 62
40
  6
CONTINUOUS
 10
5.330061543
 20
5.1257380576
 11
5.370108418
 21
5.1257380576
  0
LINE
  5
3A0
100
AcDbEntity
  8
03__ASM_ALL_CURVES
100
AcDbLine
 62
40
  6
CONTINUOUS
 10
5.538305293
 20
5.1257380576
 11
5.546314668
 21
5.1257380576
  0
LINE
  5
3A1
100
AcDbEntity
  8
03__ASM_ALL_CURVES
100
AcDbLine
 62
40
  6
CONTINUOUS
 10
5.794605293
 20
5.1257380576
 11
5.802614668
 21
5.1257380576
  0
LINE
  5
3A2
100
AcDbEntity
  8
03__ASM_ALL_CURVES
100
AcDbLine
 62
40
  6
CONTINUOUS
 10
5.9748162305
 20
5.1257380576
 11
5.9908349805
 21
5.1257380576
  0
LINE
  5
3A3
100
AcDbEntity
  8
03__ASM_ALL_CURVES
100
AcDbLine
 62
40
  6
CONTINUOUS
 10
6.0388912305
 20
5.1257380576
 11
6.0709287305
 21
5.1257380576
  0
LINE
  5
3A4
100
AcDbEntity
  8
03__ASM_ALL_CURVES
100
AcDbLine
 62
40
  6
CONTINUOUS
 10
6.1029662305
 20
5.1257380576
 11
6.122989668
 21
5.1257380576
  0
LINE
  5
3A5
100
AcDbEntity
  8
03__ASM_ALL_CURVES
100
AcDbLine
 62
40
  6
CONTINUOUS
 10
6.122989668
 20
5.1257380576
 11
6.130999043
 21
5.1203984755
  0
LINE
  5
3A6
100
AcDbEntity
  8
0
100
AcDbLine
 62
7
  6
CONTINUOUS
 10
6.7642462306
 20
3.7796537205
 11
6.7642462306
 21
4.6516523947
  0
LINE
  5
3A7
100
AcDbEntity
  8
0
100
AcDbLine
 62
7
  6
CONTINUOUS
 10
6.7922462306
 20
4.652147943
 11
6.7922462306
 21
3.7791581722
  0
LINE
  5
3A8
100
AcDbEntity
  8
0
100
AcDbLine
 62
7
  6
CONTINUOUS
 10
6.8352462306
 20
3.7791530576
 11
6.8352462306
 21
4.6521530576
  0
LINE
  5
3A9
100
AcDbEntity
  8
0
100
AcDbLine
 62
7
  6
CONTINUOUS
 10
6.8512462306
 20
3.7951530576
 11
6.8512462306
 21
4.6361530576
  0
LINE
  5
3AA
100
AcDbEntity
  8
03__ASM_ALL_CURVES
100
AcDbLine
 62
40
  6
CONTINUOUS
 10
6.3173481659
 20
3.4926483711
 11
6.3233551972
 21
3.4966530576
  0
LINE
  5
3AB
100
AcDbEntity
  8
03__ASM_ALL_CURVES
100
AcDbLine
 62
40
  6
CONTINUOUS
 10
6.3353692597
 20
3.4766296191
 11
6.3233551972
 21
3.4686202446
  0
LINE
  5
3AC
100
AcDbEntity
  8
03__ASM_ALL_CURVES
100
AcDbLine
 62
40
  6
CONTINUOUS
 10
4.2882462306
 20
5.0360330576
 11
4.3651362306
 21
5.0488480576
  0
LINE
  5
3AD
100
AcDbEntity
  8
03__ASM_ALL_CURVES
100
AcDbLine
 62
40
  6
CONTINUOUS
 10
4.3651362306
 20
5.0467122243
 11
4.2882462306
 21
5.0360330576
  0
LINE
  5
3AE
100
AcDbEntity
  8
0
100
AcDbLine
 62
7
  6
CONTINUOUS
 10
6.8352462306
 20
4.6521530576
 11
6.8512462306
 21
4.6361530576
  0
LINE
  5
3AF
100
AcDbEntity
  8
03__ASM_ALL_CURVES
100
AcDbLine
 62
40
  6
CONTINUOUS
 10
7.134274356
 20
4.2605055586
 11
7.1312708404
 21
4.2565008691
  0
LINE
  5
3B0
100
AcDbEntity
  8
03__ASM_ALL_CURVES
100
AcDbLine
 62
40
  6
CONTINUOUS
 10
7.1552989654
 20
4.2645102451
 11
7.1613059966
 21
4.2725196211
  0
LINE
  5
3B1
100
AcDbEntity
  8
03__ASM_ALL_CURVES
100
AcDbLine
 62
40
  6
CONTINUOUS
 10
7.1853341216
 20
4.2404821201
 11
7.1793270904
 21
4.2324727452
  0
LINE
  5
3B2
100
AcDbEntity
  8
03__ASM_ALL_CURVES
100
AcDbLine
 62
40
  6
CONTINUOUS
 10
7.230386856
 20
4.2605055586
 11
7.2273833404
 21
4.2565008691
  0
LINE
  5
3B3
100
AcDbEntity
  8
0
100
AcDbLine
 62
7
  6
CONTINUOUS
 10
6.8352462306
 20
3.7791530576
 11
6.8512462306
 21
3.7951530576
  0
LINE
  5
3B4
100
AcDbEntity
  8
03__ASM_ALL_CURVES
100
AcDbLine
 62
40
  6
CONTINUOUS
 10
7.1613059966
 20
4.2324727452
 11
7.1552989654
 21
4.2404821201
  0
LINE
  5
3B5
100
AcDbEntity
  8
03__ASM_ALL_CURVES
100
AcDbLine
 62
40
  6
CONTINUOUS
 10
7.1312708404
 20
4.2725196211
 11
7.134274356
 21
4.2685149316
  0
LINE
  5
3B6
100
AcDbEntity
  8
03__ASM_ALL_CURVES
100
AcDbLine
 62
40
  6
CONTINUOUS
 10
7.1793270904
 20
4.2725196211
 11
7.1853341216
 21
4.2645102451
  0
LINE
  5
3B7
100
AcDbEntity
  8
03__ASM_ALL_CURVES
100
AcDbLine
 62
40
  6
CONTINUOUS
 10
7.2273833404
 20
4.2725196211
 11
7.230386856
 21
4.2685149316
  0
LINE
  5
3B8
100
AcDbEntity
  8
03__ASM_ALL_CURVES
100
AcDbLine
 62
40
  6
CONTINUOUS
 10
7.110246231
 20
4.2284680576
 11
7.110246231
 21
4.2765243076
  0
LINE
  5
3B9
100
AcDbEntity
  8
03__ASM_ALL_CURVES
100
AcDbLine
 62
40
  6
CONTINUOUS
 10
7.134274356
 20
4.2685149316
 11
7.134274356
 21
4.2605055586
  0
LINE
  5
3BA
100
AcDbEntity
  8
03__ASM_ALL_CURVES
100
AcDbLine
 62
40
  6
CONTINUOUS
 10
7.1522954497
 20
4.2524961826
 11
7.1552989654
 21
4.2645102451
  0
LINE
  5
3BB
100
AcDbEntity
  8
03__ASM_ALL_CURVES
100
AcDbLine
 62
40
  6
CONTINUOUS
 10
7.1883376372
 20
4.2524961826
 11
7.1853341216
 21
4.2404821201
  0
LINE
  5
3BC
100
AcDbEntity
  8
03__ASM_ALL_CURVES
100
AcDbLine
 62
40
  6
CONTINUOUS
 10
7.2213763091
 20
4.2524961826
 11
7.230386856
 21
4.2284680576
  0
LINE
  5
3BD
100
AcDbEntity
  8
03__ASM_ALL_CURVES
100
AcDbLine
 62
40
  6
CONTINUOUS
 10
7.1552989654
 20
4.2404821201
 11
7.1522954497
 21
4.2524961826
  0
LINE
  5
3BE
100
AcDbEntity
  8
03__ASM_ALL_CURVES
100
AcDbLine
 62
40
  6
CONTINUOUS
 10
7.1853341216
 20
4.2645102451
 11
7.1883376372
 21
4.2524961826
  0
LINE
  5
3BF
100
AcDbEntity
  8
03__ASM_ALL_CURVES
100
AcDbLine
 62
40
  6
CONTINUOUS
 10
7.206358731
 20
4.2284680576
 11
7.206358731
 21
4.2765243076
  0
LINE
  5
3C0
100
AcDbEntity
  8
03__ASM_ALL_CURVES
100
AcDbLine
 62
40
  6
CONTINUOUS
 10
7.230386856
 20
4.2685149316
 11
7.230386856
 21
4.2605055586
  0
LINE
  5
3C1
100
AcDbEntity
  8
03__ASM_ALL_CURVES
100
AcDbLine
 62
40
  6
CONTINUOUS
 10
7.2664290435
 20
4.2765243076
 11
7.2664290435
 21
4.2284680576
  0
LINE
  5
3C2
100
AcDbEntity
  8
03__ASM_ALL_CURVES
100
AcDbLine
 62
40
  6
CONTINUOUS
 10
7.3144852935
 20
4.2765243076
 11
7.3144852935
 21
4.2284680576
  0
CIRCLE
  5
3C3
100
AcDbEntity
  8
0
100
AcDbCircle
 62
7
  6
CONTINUOUS
 10
6.4432462306
 20
4.2156530576
 40
0.078
  0
ARC
  5
3C4
100
AcDbEntity
  8
0
100
AcDbCircle
 62
7
  6
CONTINUOUS
 10
6.3853275933
 20
4.2156530576
 40
0.031
100
AcDbArc
 50
240.9610450124
 51
118.9245849631
  0
ARC
  5
3C5
100
AcDbEntity
  8
THREAD
100
AcDbCircle
 62
7
  6
CONTINUOUS
 10
5.1560293523
 20
3.7451530576
 40
0.0125
100
AcDbArc
 50
29.9999999999
 51
90.0
  0
ARC
  5
3C6
100
AcDbEntity
  8
THREAD
100
AcDbCircle
 62
7
  6
CONTINUOUS
 10
5.1560293523
 20
4.6861530576
 40
0.0125
100
AcDbArc
 50
270.0
 51
330.000000004
  0
ARC
  5
3C7
100
AcDbEntity
  8
0
100
AcDbCircle
 62
7
  6
CONTINUOUS
 10
4.9802462306
 20
3.6852663062
 40
0.005
100
AcDbArc
 50
120.0000000096
 51
179.9999999998
  0
ARC
  5
3C8
100
AcDbEntity
  8
0
100
AcDbCircle
 62
7
  6
CONTINUOUS
 10
4.9802462306
 20
4.7460398089
 40
0.005
100
AcDbArc
 50
180.0000000002
 51
239.9999999876
  0
ARC
  5
3C9
100
AcDbEntity
  8
0
100
AcDbCircle
 62
7
  6
CONTINUOUS
 10
4.9991026371
 20
3.6961530576
 40
0.005
100
AcDbArc
 50
90.0
 51
120.0000000145
  0
ARC
  5
3CA
100
AcDbEntity
  8
0
100
AcDbCircle
 62
7
  6
CONTINUOUS
 10
4.9991026371
 20
4.7351530576
 40
0.005
100
AcDbArc
 50
239.9999999845
 51
270.0
  0
ARC
  5
3CB
100
AcDbEntity
  8
0
100
AcDbCircle
 62
7
  6
CONTINUOUS
 10
4.9722462306
 20
3.6806530576
 40
0.003
100
AcDbArc
 50
270.0
 51
360.0
  0
ARC
  5
3CC
100
AcDbEntity
  8
0
100
AcDbCircle
 62
7
  6
CONTINUOUS
 10
4.9722462306
 20
4.7506530576
 40
0.003
100
AcDbArc
 50
0.0
 51
90.0
  0
SPLINE
  5
3CD
100
AcDbEntity
  8
0
100
AcDbSpline
 62
7
  6
CONTINUOUS
 70
0
 71
3
 72
15
 73
11
 74
9
 42
0.0000001
 43
0.0000001
 44
0.0000000001
 12
0.0
 22
0.1099409465
 32
0.0
 13
0.0
 23
-0.1099409465
 33
0.0
 40
0.0
 40
0.0
 40
0.0
 40
0.0
 40
0.125
 40
0.25
 40
0.375
 40
0.5
 40
0.625
 40
0.75
 40
0.875
 40
1.0
 40
1.0
 40
1.0
 40
1.0
 10
6.7142462306
 20
4.6326530576
 30
0.0
 10
6.7142462306
 20
4.6372339304
 30
0.0
 10
6.7124238461
 20
4.6463956759
 30
0.0
 10
6.7046392782
 20
4.6580461052
 30
0.0
 10
6.6929888489
 20
4.6658306731
 30
0.0
 10
6.6792462306
 20
4.6685642498
 30
0.0
 10
6.6655036123
 20
4.6658306731
 30
0.0
 10
6.6538531831
 20
4.6580461052
 30
0.0
 10
6.6460686151
 20
4.6463956759
 30
0.0
 10
6.6442462306
 20
4.6372339304
 30
0.0
 10
6.6442462306
 20
4.6326530576
 30
0.0
 11
6.7142462306
 21
4.6326530576
 31
0.0
 11
6.7115820143
 21
4.6460469777
 31
0.0
 11
6.703994968
 21
4.6574017949
 31
0.0
 11
6.6926401508
 21
4.6649888412
 31
0.0
 11
6.6792462306
 21
4.6676530576
 31
0.0
 11
6.6658523105
 21
4.6649888412
 31
0.0
 11
6.6544974933
 21
4.6574017949
 31
0.0
 11
6.646910447
 21
4.6460469777
 31
0.0
 11
6.6442462306
 21
4.6326530576
 31
0.0
  0
SPLINE
  5
3CE
100
AcDbEntity
  8
0
100
AcDbSpline
 62
7
  6
CONTINUOUS
 70
0
 71
3
 72
15
 73
11
 74
9
 42
0.0000001
 43
0.0000001
 44
0.0000000001
 12
0.0
 22
-0.1099409465
 32
0.0
 13
0.0
 23
0.1099409465
 33
0.0
 40
0.0
 40
0.0
 40
0.0
 40
0.0
 40
0.125
 40
0.25
 40
0.375
 40
0.5
 40
0.625
 40
0.75
 40
0.875
 40
1.0
 40
1.0
 40
1.0
 40
1.0
 10
6.7142462306
 20
3.7986530576
 30
0.0
 10
6.7142462306
 20
3.7940721848
 30
0.0
 10
6.7124238461
 20
3.7849104393
 30
0.0
 10
6.7046392782
 20
3.77326001
 30
0.0
 10
6.6929888489
 20
3.7654754421
 30
0.0
 10
6.6792462306
 20
3.7627418653
 30
0.0
 10
6.6655036123
 20
3.7654754421
 30
0.0
 10
6.6538531831
 20
3.77326001
 30
0.0
 10
6.6460686151
 20
3.7849104393
 30
0.0
 10
6.6442462306
 20
3.7940721848
 30
0.0
 10
6.6442462306
 20
3.7986530576
 30
0.0
 11
6.7142462306
 21
3.7986530576
 31
0.0
 11
6.7115820143
 21
3.7852591375
 31
0.0
 11
6.703994968
 21
3.7739043203
 31
0.0
 11
6.6926401508
 21
3.766317274
 31
0.0
 11
6.6792462306
 21
3.7636530576
 31
0.0
 11
6.6658523105
 21
3.766317274
 31
0.0
 11
6.6544974933
 21
3.7739043203
 31
0.0
 11
6.646910447
 21
3.7852591375
 31
0.0
 11
6.6442462306
 21
3.7986530576
 31
0.0
  0
SPLINE
  5
3CF
100
AcDbEntity
  8
0
100
AcDbSpline
 62
7
  6
CONTINUOUS
 70
0
 71
3
 72
15
 73
11
 74
9
 42
0.0000001
 43
0.0000001
 44
0.0000000001
 12
0.0
 22
0.1099409465
 32
0.0
 13
0.0
 23
-0.1099409465
 33
0.0
 40
0.0
 40
0.0
 40
0.0
 40
0.0
 40
0.125
 40
0.25
 40
0.375
 40
0.5
 40
0.625
 40
0.75
 40
0.875
 40
1.0
 40
1.0
 40
1.0
 40
1.0
 10
5.0922462306
 20
4.7086530576
 30
0.0
 10
5.0922462306
 20
4.7132339304
 30
0.0
 10
5.0904238461
 20
4.7223956759
 30
0.0
 10
5.0826392782
 20
4.7340461052
 30
0.0
 10
5.0709888489
 20
4.7418306731
 30
0.0
 10
5.0572462306
 20
4.7445642498
 30
0.0
 10
5.0435036123
 20
4.7418306731
 30
0.0
 10
5.0318531831
 20
4.7340461052
 30
0.0
 10
5.0240686151
 20
4.7223956759
 30
0.0
 10
5.0222462306
 20
4.7132339304
 30
0.0
 10
5.0222462306
 20
4.7086530576
 30
0.0
 11
5.0922462306
 21
4.7086530576
 31
0.0
 11
5.0895820143
 21
4.7220469777
 31
0.0
 11
5.081994968
 21
4.7334017949
 31
0.0
 11
5.0706401508
 21
4.7409888412
 31
0.0
 11
5.0572462306
 21
4.7436530576
 31
0.0
 11
5.0438523105
 21
4.7409888412
 31
0.0
 11
5.0324974933
 21
4.7334017949
 31
0.0
 11
5.024910447
 21
4.7220469777
 31
0.0
 11
5.0222462306
 21
4.7086530576
 31
0.0
  0
SPLINE
  5
3D0
100
AcDbEntity
  8
0
100
AcDbSpline
 62
7
  6
CONTINUOUS
 70
0
 71
3
 72
15
 73
11
 74
9
 42
0.0000001
 43
0.0000001
 44
0.0000000001
 12
0.0
 22
-0.1099409465
 32
0.0
 13
0.0
 23
0.1099409465
 33
0.0
 40
0.0
 40
0.0
 40
0.0
 40
0.0
 40
0.125
 40
0.25
 40
0.375
 40
0.5
 40
0.625
 40
0.75
 40
0.875
 40
1.0
 40
1.0
 40
1.0
 40
1.0
 10
5.0922462306
 20
3.7226530576
 30
0.0
 10
5.0922462306
 20
3.7180721848
 30
0.0
 10
5.0904238461
 20
3.7089104393
 30
0.0
 10
5.0826392782
 20
3.69726001
 30
0.0
 10
5.0709888489
 20
3.6894754421
 30
0.0
 10
5.0572462306
 20
3.6867418653
 30
0.0
 10
5.0435036123
 20
3.6894754421
 30
0.0
 10
5.0318531831
 20
3.69726001
 30
0.0
 10
5.0240686151
 20
3.7089104393
 30
0.0
 10
5.0222462306
 20
3.7180721848
 30
0.0
 10
5.0222462306
 20
3.7226530576
 30
0.0
 11
5.0922462306
 21
3.7226530576
 31
0.0
 11
5.0895820143
 21
3.7092591375
 31
0.0
 11
5.081994968
 21
3.6979043203
 31
0.0
 11
5.0706401508
 21
3.690317274
 31
0.0
 11
5.0572462306
 21
3.6876530576
 31
0.0
 11
5.0438523105
 21
3.690317274
 31
0.0
 11
5.0324974933
 21
3.6979043203
 31
0.0
 11
5.024910447
 21
3.7092591375
 31
0.0
 11
5.0222462306
 21
3.7226530576
 31
0.0
  0
SPLINE
  5
3D1
100
AcDbEntity
  8
DATUMCURVES
100
AcDbSpline
 62
40
  6
CONTINUOUS
 70
0
 71
3
 72
9
 73
5
 74
3
 42
0.0000001
 43
0.0000001
 44
0.0000000001
 12
0.0
 22
-0.0664930989
 32
0.0377910546
 13
0.0
 23
-0.0795023565
 33
0.0037572601
 40
0.0
 40
0.0
 40
0.0
 40
0.0
 40
0.5
 40
1.0
 40
1.0
 40
1.0
 40
1.0
 10
6.4638275933
 20
4.2905461197
 30
0.1188750573
 10
6.4638275933
 20
4.2794639365
 30
0.1251735664
 10
6.4638275933
 20
4.2555732731
 30
0.1373030514
 10
6.4638275933
 20
4.2289034492
 30
0.13987379
 10
6.4638275933
 20
4.2156530565
 30
0.1405
 11
6.4638275933
 21
4.2905461197
 31
0.1188750573
 11
6.4638275933
 21
4.254878483
 31
0.1349133648
 11
6.4638275933
 21
4.2156530565
 31
0.1405
  0
SPLINE
  5
3D2
100
AcDbEntity
  8
DATUMCURVES
100
AcDbSpline
 62
40
  6
CONTINUOUS
 70
0
 71
3
 72
9
 73
5
 74
3
 42
0.0000001
 43
0.0000001
 44
0.0000000001
 12
0.0
 22
-0.0764032651
 32
-0.003469452
 13
0.0
 23
-0.0691209115
 33
-0.0391064729
 40
0.0
 40
0.0
 40
0.0
 40
0.0
 40
0.5
 40
1.0
 40
1.0
 40
1.0
 40
1.0
 10
6.4638275933
 20
4.2156530576
 30
0.1405
 10
6.4638275933
 20
4.2029191801
 30
0.139921758
 10
6.4638275933
 20
4.1762400466
 30
0.1374495038
 10
6.4638275933
 20
4.1523047631
 30
0.1254083075
 10
6.4638275933
 20
4.1407846112
 30
0.118890562
 11
6.4638275933
 21
4.2156530576
 31
0.1405
 11
6.4638275933
 21
4.1769260091
 31
0.1350572683
 11
6.4638275933
 21
4.1407846112
 31
0.118890562
  0
SPLINE
  5
3D3
100
AcDbEntity
  8
0
100
AcDbSpline
 62
7
  6
CONTINUOUS
 70
0
 71
3
 72
17
 73
13
 74
11
 42
0.0000001
 43
0.0000001
 44
0.0000000001
 12
-0.1036353229
 22
0.0811534185
 32
0.0
 13
-0.1036401851
 23
-0.0811473748
 33
0.0
 40
0.0
 40
0.0
 40
0.0
 40
0.0
 40
0.0652701193
 40
0.1636074383
 40
0.2701446367
 40
0.3832486122
 40
0.4999278458
 40
0.6165675109
 40
0.7295955
 40
0.8360732794
 40
0.9344148958
 40
1.0
 40
1.0
 40
1.0
 40
1.0
 10
6.5056208429
 20
4.4451545239
 30
0.0
 10
6.5033660796
 20
4.446920155
 30
0.0
 10
6.4973472659
 20
4.4508752229
 30
0.0
 10
6.4864857853
 20
4.4557027957
 30
0.0
 10
6.4730290378
 20
4.459444525
 30
0.0
 10
6.4584390559
 20
4.4616804625
 30
0.0
 10
6.4432590864
 20
4.462424682
 30
0.0
 10
6.4280823501
 20
4.4616830504
 30
0.0
 10
6.4134994957
 20
4.4594517077
 30
0.0
 10
6.4000469869
 20
4.4557166582
 30
0.0
 10
6.3891724194
 20
4.4508906957
 30
0.0
 10
6.3831399632
 20
4.4469305751
 30
0.0
 10
6.3808742124
 20
4.4451565554
 30
0.0
 11
6.5056208429
 21
4.4451545239
 31
0.0
 11
6.4984747445
 21
4.4499117067
 31
0.0
 11
6.4867157118
 21
4.455268191
 31
0.0
 11
6.4732520866
 21
4.4591027226
 31
0.0
 11
6.4585697709
 21
4.4614061724
 31
0.0
 11
6.4432573363
 21
4.4621744712
 31
0.0
 11
6.4279499686
 21
4.4614089441
 31
0.0
 11
6.413276952
 21
4.4591106456
 31
0.0
 11
6.3998193122
 21
4.4552836066
 31
0.0
 11
6.3880566299
 21
4.4499337772
 31
0.0
 11
6.3808742124
 21
4.4451565554
 31
0.0
  0
SPLINE
  5
3D4
100
AcDbEntity
  8
0
100
AcDbSpline
 62
7
  6
CONTINUOUS
 70
0
 71
3
 72
17
 73
13
 74
11
 42
0.0000001
 43
0.0000001
 44
0.0000000001
 12
0.1036352981
 22
-0.0811592048
 32
0.0
 13
0.1036402397
 23
0.0811530611
 33
0.0
 40
0.0
 40
0.0
 40
0.0
 40
0.0
 40
0.0652819944
 40
0.1636166701
 40
0.2701510048
 40
0.3832519401
 40
0.4999280374
 40
0.6165645671
 40
0.7295895181
 40
0.8360644354
 40
0.9344034083
 40
1.0
 40
1.0
 40
1.0
 40
1.0
 10
6.3808702059
 20
3.9861526974
 30
0.0
 10
6.3831253788
 20
3.9843866192
 30
0.0
 10
6.3891446473
 20
3.9804311359
 30
0.0
 10
6.4000066759
 20
3.9756033195
 30
0.0
 10
6.4134634235
 20
3.9718615902
 30
0.0
 10
6.4280534054
 20
3.9696256527
 30
0.0
 10
6.4432333749
 20
3.9688814332
 30
0.0
 10
6.4584101112
 20
3.9696230648
 30
0.0
 10
6.4729929655
 20
3.9718544075
 30
0.0
 10
6.4864454744
 20
3.9755894569
 30
0.0
 10
6.4973205748
 20
3.980415656
 30
0.0
 10
6.5033534734
 20
3.9843761804
 30
0.0
 10
6.5056196222
 20
3.9861506351
 30
0.0
 11
6.3808702059
 21
3.9861526974
 31
0.0
 11
6.3880177168
 21
3.9813944085
 31
0.0
 11
6.3997767495
 21
3.9760379242
 31
0.0
 11
6.4132403746
 21
3.9722033926
 31
0.0
 11
6.4279226903
 21
3.9698999428
 31
0.0
 11
6.443235125
 21
3.969131644
 31
0.0
 11
6.4585424927
 21
3.9698971711
 31
0.0
 11
6.4732155093
 21
3.9721954696
 31
0.0
 11
6.4866731491
 21
3.9760225086
 31
0.0
 11
6.4984358313
 21
3.981372338
 31
0.0
 11
6.5056196222
 21
3.9861506351
 31
0.0
  0
SPLINE
  5
3D5
100
AcDbEntity
  8
0
100
AcDbSpline
 62
7
  6
CONTINUOUS
 70
0
 71
3
 72
23
 73
19
 74
17
 42
0.0000001
 43
0.0000001
 44
0.0000000001
 12
-0.1538264332
 22
-0.0320814699
 32
0.0
 13
-0.1538264335
 23
0.0320814699
 33
0.0
 40
0.0
 40
0.0
 40
0.0
 40
0.0
 40
0.0097458787
 40
0.0385936185
 40
0.0851882652
 40
0.1475581154
 40
0.2232493246
 40
0.3094098644
 40
0.4028670476
 40
0.5000630011
 40
0.5972750296
 40
0.6907601345
 40
0.7769361003
 40
0.8526076274
 40
0.9149290148
 40
0.9614662436
 40
0.9902722145
 40
1.0
 40
1.0
 40
1.0
 40
1.0
 10
6.5212462306
 20
4.5896530576
 30
0.0
 10
6.5207465061
 20
4.5895488369
 30
0.0
 10
6.5187668389
 20
4.589139759
 30
0.0
 10
6.5143905288
 20
4.5882687462
 30
0.0
 10
6.5072908951
 20
4.5869623421
 30
0.0
 10
6.4977423611
 20
4.5854154202
 30
0.0
 10
6.4860995673
 20
4.5838593798
 30
0.0
 10
6.4727900621
 20
4.5825307642
 30
0.0
 10
6.4583146229
 20
4.5816372708
 30
0.0
 10
6.4432354861
 20
4.5813225144
 30
0.0
 10
6.4281549033
 20
4.5816381698
 30
0.0
 10
6.4136764139
 20
4.5825328165
 30
0.0
 10
6.4003657728
 20
4.5838625431
 30
0.0
 10
6.3887258289
 20
4.5854190497
 30
0.0
 10
6.3791838762
 20
4.5869654546
 30
0.0
 10
6.3720918946
 20
4.5882707019
 30
0.0
 10
6.3677216226
 20
4.5891405803
 30
0.0
 10
6.3657450275
 20
4.5895490304
 30
0.0
 10
6.3652462306
 20
4.5896530576
 30
0.0
 11
6.5212462306
 21
4.5896530576
 31
0.0
 11
6.519746483
 21
4.5893431546
 31
0.0
 11
6.5153006329
 21
4.5884584182
 31
0.0
 11
6.508099732
 21
4.5871338467
 31
0.0
 11
6.498425137
 21
4.585567523
 31
0.0
 11
6.4866359139
 21
4.5839934771
 31
0.0
 11
6.4731637438
 21
4.5826504113
 31
0.0
 11
6.4585060318
 21
4.5817471186
 31
0.0
 11
6.443236331
 21
4.5814289454
 31
0.0
 11
6.427964123
 21
4.5817480491
 31
0.0
 11
6.4133020917
 21
4.5826525827
 31
0.0
 11
6.3998276091
 21
4.5839968871
 31
0.0
 11
6.3880415641
 21
4.5855713664
 31
0.0
 11
6.3783745745
 21
4.5871370166
 31
0.0
 11
6.3711825927
 21
4.5884602033
 31
0.0
 11
6.3667431929
 21
4.5893437248
 31
0.0
 11
6.3652462306
 21
4.5896530576
 31
0.0
  0
SPLINE
  5
3D6
100
AcDbEntity
  8
0
100
AcDbSpline
 62
7
  6
CONTINUOUS
 70
0
 71
3
 72
22
 73
18
 74
16
 42
0.0000001
 43
0.0000001
 44
0.0000000001
 12
0.0
 22
-0.2171610831
 32
0.0
 13
0.0
 23
0.2171610831
 33
0.0
 40
0.0
 40
0.0
 40
0.0
 40
0.0
 40
0.0530522766
 40
0.1113015793
 40
0.1737223794
 40
0.2380506418
 40
0.3056962553
 40
0.3808538669
 40
0.4599132052
 40
0.5390956709
 40
0.618444844
 40
0.6940907371
 40
0.7621166622
 40
0.8264909983
 40
0.8886927399
 40
0.9468494017
 40
1.0
 40
1.0
 40
1.0
 40
1.0
 10
6.5212462306
 20
4.4801109938
 30
0.0
 10
6.5212462306
 20
4.4762706971
 30
0.0
 10
6.5200348903
 20
4.4681834362
 30
0.0
 10
6.5149715273
 20
4.4565432414
 30
0.0
 10
6.5069555668
 20
4.4456894986
 30
0.0
 10
6.4964844773
 20
4.4361697619
 30
0.0
 10
6.4836988141
 20
4.4281909599
 30
0.0
 10
6.4686843196
 20
4.4222350865
 30
0.0
 10
6.4519944543
 20
4.4190161114
 30
0.0
 10
6.434693376
 20
4.4189955641
 30
0.0
 10
6.4179406001
 20
4.4221912156
 30
0.0
 10
6.4028397841
 20
4.4281614375
 30
0.0
 10
6.3899962676
 20
4.4361749508
 30
0.0
 10
6.3795190346
 20
4.445710716
 30
0.0
 10
6.3715192056
 20
4.4565514327
 30
0.0
 10
6.3664599531
 20
4.4681757938
 30
0.0
 10
6.3652462306
 20
4.4762635799
 30
0.0
 10
6.3652462306
 20
4.4801109938
 30
0.0
 11
6.5212462306
 21
4.4801109938
 31
0.0
 11
6.5196296281
 21
4.468704088
 31
0.0
 11
6.5146942987
 21
4.457057118
 31
0.0
 11
6.5067143573
 21
4.4460995384
 31
0.0
 11
6.4964166433
 21
4.4366599052
 31
0.0
 11
6.4839719308
 21
4.4288544535
 31
0.0
 11
6.4688079731
 21
4.4228179403
 31
0.0
 11
6.4519514754
 21
4.4195591508
 31
0.0
 11
6.4347561376
 21
4.4195387036
 31
0.0
 11
6.417831195
 21
4.4227748612
 31
0.0
 11
6.4025618642
 21
4.4288333405
 31
0.0
 11
6.3900467681
 21
4.4366820087
 31
0.0
 11
6.3797469564
 21
4.4461341572
 31
0.0
 11
6.371798787
 21
4.4570560251
 31
0.0
 11
6.3668686584
 21
4.4686833489
 31
0.0
 11
6.3652462306
 21
4.4801109938
 31
0.0
  0
SPLINE
  5
3D7
100
AcDbEntity
  8
0
100
AcDbSpline
 62
7
  6
CONTINUOUS
 70
0
 71
3
 72
22
 73
18
 74
16
 42
0.0000001
 43
0.0000001
 44
0.0000000001
 12
0.0
 22
0.2171610496
 32
0.0
 13
-0.0
 23
-0.2171610496
 33
0.0
 40
0.0
 40
0.0
 40
0.0
 40
0.0
 40
0.05305657
 40
0.1113596401
 40
0.173828482
 40
0.2381341265
 40
0.3057907257
 40
0.3809444961
 40
0.4599519275
 40
0.539058815
 40
0.6183548269
 40
0.6939979932
 40
0.762031241
 40
0.8263867316
 40
0.8886307503
 40
0.9468399849
 40
1.0
 40
1.0
 40
1.0
 40
1.0
 10
6.3652462306
 20
3.9511951214
 30
0.0
 10
6.3652462306
 20
3.9550357282
 30
0.0
 10
6.3664583008
 20
3.9631271988
 30
0.0
 10
6.3715265112
 20
3.9747739873
 30
0.0
 10
6.379549069
 20
3.9856301608
 30
0.0
 10
6.3900246176
 20
3.9951487571
 30
0.0
 10
6.4028112037
 20
4.0031239992
 30
0.0
 10
6.41782401
 20
4.0090752322
 30
0.0
 10
6.4345048447
 20
4.0122897729
 30
0.0
 10
6.4517925641
 20
4.0123102655
 30
0.0
 10
6.4685362767
 20
4.0091189918
 30
0.0
 10
6.4836351363
 20
4.0031534822
 30
0.0
 10
6.4964796492
 20
3.9951435029
 30
0.0
 10
6.5069610568
 20
3.9856091525
 30
0.0
 10
6.5149673546
 20
3.9747662253
 30
0.0
 10
6.5200316135
 20
3.9631355025
 30
0.0
 10
6.5212462306
 20
3.9550432163
 30
0.0
 10
6.5212462306
 20
3.9511951214
 30
0.0
 11
6.3652462306
 21
3.9511951214
 31
0.0
 11
6.3668630869
 21
3.9626029311
 31
0.0
 11
6.3718044617
 21
3.9742600184
 31
0.0
 11
6.3797936113
 21
3.985223795
 31
0.0
 11
6.3900903285
 21
3.9946572428
 31
0.0
 11
6.4025388898
 21
4.002461043
 31
0.0
 11
6.4177034575
 21
4.0084937604
 31
0.0
 11
6.4345493949
 21
4.0117477733
 31
0.0
 11
6.4517283175
 21
4.0117681625
 31
0.0
 11
6.4686424146
 21
4.0085367698
 31
0.0
 11
6.4839125672
 21
4.0024819754
 31
0.0
 11
6.4964308511
 21
3.9946354022
 31
0.0
 11
6.5067302764
 21
3.9851888895
 31
0.0
 11
6.5146869481
 21
3.9742618575
 31
0.0
 11
6.5196232449
 21
3.9626247507
 31
0.0
 11
6.5212462306
 21
3.9511951214
 31
0.0
  0
SPLINE
  5
3D8
100
AcDbEntity
  8
0
100
AcDbSpline
 62
7
  6
CONTINUOUS
 70
0
 71
3
 72
23
 73
19
 74
17
 42
0.0000001
 43
0.0000001
 44
0.0000000001
 12
0.1538264332
 22
0.0320814699
 32
0.0
 13
0.1538264335
 23
-0.0320814699
 33
0.0
 40
0.0
 40
0.0
 40
0.0
 40
0.0
 40
0.0097458787
 40
0.0385936185
 40
0.0851882652
 40
0.1475581154
 40
0.2232493246
 40
0.3094098644
 40
0.4028670476
 40
0.5000630011
 40
0.5972750296
 40
0.6907601345
 40
0.7769361003
 40
0.8526076274
 40
0.9149290148
 40
0.9614662436
 40
0.9902722145
 40
1.0
 40
1.0
 40
1.0
 40
1.0
 10
6.3652462306
 20
3.8416530576
 30
0.0
 10
6.3657459552
 20
3.8417572783
 30
0.0
 10
6.3677256223
 20
3.8421663562
 30
0.0
 10
6.3721019325
 20
3.843037369
 30
0.0
 10
6.3792015662
 20
3.8443437731
 30
0.0
 10
6.3887501002
 20
3.845890695
 30
0.0
 10
6.400392894
 20
3.8474467354
 30
0.0
 10
6.4137023991
 20
3.848775351
 30
0.0
 10
6.4281778383
 20
3.8496688444
 30
0.0
 10
6.4432569752
 20
3.8499836008
 30
0.0
 10
6.458337558
 20
3.8496679454
 30
0.0
 10
6.4728160474
 20
3.8487732987
 30
0.0
 10
6.4861266885
 20
3.8474435721
 30
0.0
 10
6.4977666323
 20
3.8458870655
 30
0.0
 10
6.5073085851
 20
3.8443406606
 30
0.0
 10
6.5144005667
 20
3.8430354133
 30
0.0
 10
6.5187708387
 20
3.8421655349
 30
0.0
 10
6.5207474338
 20
3.8417570848
 30
0.0
 10
6.5212462306
 20
3.8416530576
 30
0.0
 11
6.3652462306
 21
3.8416530576
 31
0.0
 11
6.3667459783
 21
3.8419629606
 31
0.0
 11
6.3711918284
 21
3.842847697
 31
0.0
 11
6.3783927293
 21
3.8441722685
 31
0.0
 11
6.3880673243
 21
3.8457385922
 31
0.0
 11
6.3998565474
 21
3.8473126381
 31
0.0
 11
6.4133287174
 21
3.8486557039
 31
0.0
 11
6.4279864295
 21
3.8495589966
 31
0.0
 11
6.4432561303
 21
3.8498771698
 31
0.0
 11
6.4585283383
 21
3.8495580661
 31
0.0
 11
6.4731903696
 21
3.8486535324
 31
0.0
 11
6.4866648522
 21
3.8473092281
 31
0.0
 11
6.4984508971
 21
3.8457347488
 31
0.0
 11
6.5081178868
 21
3.8441690986
 31
0.0
 11
6.5153098685
 21
3.8428459119
 31
0.0
 11
6.5197492684
 21
3.8419623904
 31
0.0
 11
6.5212462306
 21
3.8416530576
 31
0.0
  0
SPLINE
  5
3D9
100
AcDbEntity
  8
0
100
AcDbSpline
 62
7
  6
CONTINUOUS
 70
0
 71
3
 72
23
 73
19
 74
17
 42
0.0000001
 43
0.0000001
 44
0.0000000001
 12
0.0
 22
0.2039958514
 32
0.0
 13
0.0
 23
-0.2039958514
 33
0.0
 40
0.0
 40
0.0
 40
0.0
 40
0.0
 40
0.0522099568
 40
0.1046564959
 40
0.1595886873
 40
0.2187994318
 40
0.2830713426
 40
0.3521797211
 40
0.425081781
 40
0.5000481719
 40
0.5750275064
 40
0.6479535829
 40
0.7170800254
 40
0.7813470046
 40
0.8405321687
 40
0.8954269558
 40
0.9478380692
 40
1.0
 40
1.0
 40
1.0
 40
1.0
 10
6.3652462306
 20
4.4801109938
 30
0.0
 10
6.3652462306
 20
4.4836611986
 30
0.0
 10
6.3662424926
 20
4.4908259316
 30
0.0
 10
6.3708604267
 20
4.5008061898
 30
0.0
 10
6.3783038902
 20
4.5095084056
 30
0.0
 10
6.3881654661
 20
4.5167229641
 30
0.0
 10
6.400042491
 20
4.5223834688
 30
0.0
 10
6.4135119678
 20
4.5264534631
 30
0.0
 10
6.4280956492
 20
4.5289067939
 30
0.0
 10
6.4432570291
 20
4.5297259798
 30
0.0
 10
6.4584199349
 20
4.528904424
 30
0.0
 10
6.4730068724
 20
4.526447603
 30
0.0
 10
6.4864776961
 20
4.5223730686
 30
0.0
 10
6.4983518252
 20
4.5167082858
 30
0.0
 10
6.5082062524
 20
4.509491747
 30
0.0
 10
6.5156410651
 20
4.5007911195
 30
0.0
 10
6.5202517374
 20
4.4908168532
 30
0.0
 10
6.5212462306
 20
4.4836579329
 30
0.0
 10
6.5212462306
 20
4.4801109938
 30
0.0
 11
6.3652462306
 21
4.4801109938
 31
0.0
 11
6.3667459783
 21
4.4906554875
 31
0.0
 11
6.3711918284
 21
4.5003868991
 31
0.0
 11
6.3783927293
 21
4.5089729401
 31
0.0
 11
6.3880673243
 21
4.5162046979
 31
0.0
 11
6.3998565474
 21
4.5219421075
 31
0.0
 11
6.4133287174
 21
4.526095327
 31
0.0
 11
6.4279864295
 21
4.5286091822
 31
0.0
 11
6.4432561303
 21
4.5294499967
 31
0.0
 11
6.4585283383
 21
4.5286066911
 31
0.0
 11
6.4731903696
 21
4.526089039
 31
0.0
 11
6.4866648522
 21
4.5219308143
 31
0.0
 11
6.4984508971
 21
4.5161891757
 31
0.0
 11
6.5081178868
 21
4.5089559615
 31
0.0
 11
6.5153098685
 21
4.5003724005
 31
0.0
 11
6.5197492684
 21
4.4906459879
 31
0.0
 11
6.5212462306
 21
4.4801109938
 31
0.0
  0
SPLINE
  5
3DA
100
AcDbEntity
  8
0
100
AcDbSpline
 62
7
  6
CONTINUOUS
 70
0
 71
3
 72
23
 73
19
 74
17
 42
0.0000001
 43
0.0000001
 44
0.0000000001
 12
0.0
 22
-0.2039958514
 32
0.0
 13
-0.0
 23
0.2039958514
 33
0.0
 40
0.0
 40
0.0
 40
0.0
 40
0.0
 40
0.0522099568
 40
0.1046564959
 40
0.1595886873
 40
0.2187994318
 40
0.2830713426
 40
0.3521797211
 40
0.425081781
 40
0.5000481719
 40
0.5750275064
 40
0.6479535829
 40
0.7170800254
 40
0.7813470046
 40
0.8405321687
 40
0.8954269558
 40
0.9478380692
 40
1.0
 40
1.0
 40
1.0
 40
1.0
 10
6.5212462306
 20
3.9511951214
 30
0.0
 10
6.5212462306
 20
3.9476449166
 30
0.0
 10
6.5202499687
 20
3.9404801836
 30
0.0
 10
6.5156320345
 20
3.9304999254
 30
0.0
 10
6.5081885711
 20
3.9217977096
 30
0.0
 10
6.4983269951
 20
3.914583151
 30
0.0
 10
6.4864499703
 20
3.9089226464
 30
0.0
 10
6.4729804935
 20
3.9048526521
 30
0.0
 10
6.4583968121
 20
3.9023993212
 30
0.0
 10
6.4432354322
 20
3.9015801354
 30
0.0
 10
6.4280725264
 20
3.9024016912
 30
0.0
 10
6.4134855889
 20
3.9048585122
 30
0.0
 10
6.4000147652
 20
3.9089330466
 30
0.0
 10
6.388140636
 20
3.9145978294
 30
0.0
 10
6.3782862089
 20
3.9218143682
 30
0.0
 10
6.3708513962
 20
3.9305149957
 30
0.0
 10
6.3662407239
 20
3.940489262
 30
0.0
 10
6.3652462306
 20
3.9476481823
 30
0.0
 10
6.3652462306
 20
3.9511951214
 30
0.0
 11
6.5212462306
 21
3.9511951214
 31
0.0
 11
6.519746483
 21
3.9406506277
 31
0.0
 11
6.5153006329
 21
3.9309192161
 31
0.0
 11
6.508099732
 21
3.9223331751
 31
0.0
 11
6.498425137
 21
3.9151014173
 31
0.0
 11
6.4866359139
 21
3.9093640077
 31
0.0
 11
6.4731637438
 21
3.9052107882
 31
0.0
 11
6.4585060318
 21
3.902696933
 31
0.0
 11
6.443236331
 21
3.9018561184
 31
0.0
 11
6.427964123
 21
3.9026994241
 31
0.0
 11
6.4133020917
 21
3.9052170762
 31
0.0
 11
6.3998276091
 21
3.9093753009
 31
0.0
 11
6.3880415641
 21
3.9151169395
 31
0.0
 11
6.3783745745
 21
3.9223501537
 31
0.0
 11
6.3711825927
 21
3.9309337147
 31
0.0
 11
6.3667431929
 21
3.9406601273
 31
0.0
 11
6.3652462306
 21
3.9511951214
 31
0.0
  0
SPLINE
  5
3DB
100
AcDbEntity
  8
0
100
AcDbSpline
 62
7
  6
CONTINUOUS
 70
0
 71
3
 72
15
 73
11
 74
9
 42
0.0000001
 43
0.0000001
 44
0.0000000001
 12
0.144303637
 22
0.2708573861
 32
0.0
 13
-0.144303637
 23
0.2708573861
 33
0.0
 40
0.0
 40
0.0
 40
0.0
 40
0.0
 40
0.1355060615
 40
0.2616268072
 40
0.3821382325
 40
0.5000411188
 40
0.6179405518
 40
0.7384429083
 40
0.8645194725
 40
1.0
 40
1.0
 40
1.0
 40
1.0
 10
4.7318206048
 20
3.5822677481
 30
0.0
 10
4.7383386106
 20
3.5945020207
 30
0.0
 10
4.7499718756
 20
3.6186570015
 30
0.0
 10
4.7631798579
 20
3.6555394303
 30
0.0
 10
4.7712763279
 20
3.6920585668
 30
0.0
 10
4.7740187231
 20
3.7285403993
 30
0.0
 10
4.7712726933
 20
3.765021004
 30
0.0
 10
4.7631744638
 20
3.8015337501
 30
0.0
 10
4.7499677226
 20
3.8384079558
 30
0.0
 10
4.7383373824
 20
3.8625563999
 30
0.0
 10
4.7318206048
 20
3.8747883671
 30
0.0
 11
4.7318206048
 21
3.5822677481
 31
0.0
 11
4.7496942551
 21
3.619817569
 31
0.0
 11
4.7625770356
 21
3.6563171341
 31
0.0
 11
4.770450155
 21
3.6924543166
 31
0.0
 11
4.7731106751
 21
3.7285407034
 31
0.0
 11
4.7704466327
 21
3.7646257676
 31
0.0
 11
4.7625711196
 21
3.8007595799
 31
0.0
 11
4.7496912394
 21
3.8372457896
 31
0.0
 11
4.7318206048
 21
3.8747883671
 31
0.0
  0
SPLINE
  5
3DC
100
AcDbEntity
  8
0
100
AcDbSpline
 62
7
  6
CONTINUOUS
 70
0
 71
3
 72
15
 73
11
 74
9
 42
0.0000001
 43
0.0000001
 44
0.0000000001
 12
-0.1524995809
 22
0.5724822844
 32
0.0
 13
0.1524995809
 23
0.5724822844
 33
0.0
 40
0.0
 40
0.0
 40
0.0
 40
0.0
 40
0.1303027146
 40
0.2554233163
 40
0.3781382012
 40
0.500042666
 40
0.6219428883
 40
0.7446469008
 40
0.8697222521
 40
1.0
 40
1.0
 40
1.0
 40
1.0
 10
4.3338569019
 20
3.9231324387
 30
0.0
 10
4.3272331988
 20
3.9479977706
 30
0.0
 10
4.315461407
 20
3.9970768952
 30
0.0
 10
4.3023611689
 20
4.0706425152
 30
0.0
 10
4.2943670894
 20
4.143280605
 30
0.0
 10
4.2916687797
 20
4.2156775353
 30
0.0
 10
4.2943706729
 20
4.2880721728
 30
0.0
 10
4.3023665634
 20
4.3606980438
 30
0.0
 10
4.3154656815
 20
4.4342475418
 30
0.0
 10
4.3272344679
 20
4.483313109
 30
0.0
 10
4.3338569019
 20
4.5081736765
 30
0.0
 11
4.3338569019
 21
3.9231324387
 31
0.0
 11
4.3159832516
 21
3.9982320804
 31
0.0
 11
4.3031004711
 21
4.0712312106
 31
0.0
 11
4.2952273517
 21
4.1435055755
 31
0.0
 11
4.2925668316
 21
4.2156783491
 31
0.0
 11
4.295230874
 21
4.2878484776
 31
0.0
 11
4.3031063871
 21
4.3601161023
 31
0.0
 11
4.3159862673
 21
4.4330885216
 31
0.0
 11
4.3338569019
 21
4.5081736765
 31
0.0
  0
SPLINE
  5
3DD
100
AcDbEntity
  8
0
100
AcDbSpline
 62
7
  6
CONTINUOUS
 70
0
 71
3
 72
15
 73
11
 74
9
 42
0.0000001
 43
0.0000001
 44
0.0000000001
 12
0.1524995809
 22
0.5724822844
 32
0.0
 13
-0.1524995809
 23
0.5724822844
 33
0.0
 40
0.0
 40
0.0
 40
0.0
 40
0.0
 40
0.1303027146
 40
0.2554233163
 40
0.3781382012
 40
0.500042666
 40
0.6219428883
 40
0.7446469008
 40
0.8697222521
 40
1.0
 40
1.0
 40
1.0
 40
1.0
 10
4.7318206048
 20
3.9231324387
 30
0.0
 10
4.7384443079
 20
3.9479977706
 30
0.0
 10
4.7502160997
 20
3.9970768952
 30
0.0
 10
4.7633163378
 20
4.0706425152
 30
0.0
 10
4.7713104173
 20
4.143280605
 30
0.0
 10
4.774008727
 20
4.2156775353
 30
0.0
 10
4.7713068338
 20
4.2880721728
 30
0.0
 10
4.7633109433
 20
4.3606980438
 30
0.0
 10
4.7502118252
 20
4.4342475418
 30
0.0
 10
4.7384430388
 20
4.483313109
 30
0.0
 10
4.7318206048
 20
4.5081736765
 30
0.0
 11
4.7318206048
 21
3.9231324387
 31
0.0
 11
4.7496942551
 21
3.9982320804
 31
0.0
 11
4.7625770356
 21
4.0712312106
 31
0.0
 11
4.770450155
 21
4.1435055755
 31
0.0
 11
4.7731106751
 21
4.2156783491
 31
0.0
 11
4.7704466327
 21
4.2878484776
 31
0.0
 11
4.7625711196
 21
4.3601161023
 31
0.0
 11
4.7496912394
 21
4.4330885216
 31
0.0
 11
4.7318206048
 21
4.5081736765
 31
0.0
  0
SPLINE
  5
3DE
100
AcDbEntity
  8
0
100
AcDbSpline
 62
7
  6
CONTINUOUS
 70
0
 71
3
 72
15
 73
11
 74
9
 42
0.0000001
 43
0.0000001
 44
0.0000000001
 12
-0.144303637
 22
0.2708573861
 32
0.0
 13
0.144303637
 23
0.2708573861
 33
0.0
 40
0.0
 40
0.0
 40
0.0
 40
0.0
 40
0.1355060615
 40
0.2616268072
 40
0.3821382325
 40
0.5000411188
 40
0.6179405518
 40
0.7384429083
 40
0.8645194725
 40
1.0
 40
1.0
 40
1.0
 40
1.0
 10
4.3338569019
 20
4.5565177481
 30
0.0
 10
4.3273388961
 20
4.5687520207
 30
0.0
 10
4.3157056311
 20
4.5929070015
 30
0.0
 10
4.3024976488
 20
4.6297894303
 30
0.0
 10
4.2944011788
 20
4.6663085668
 30
0.0
 10
4.2916587836
 20
4.7027903993
 30
0.0
 10
4.2944048134
 20
4.739271004
 30
0.0
 10
4.3025030429
 20
4.7757837501
 30
0.0
 10
4.3157097841
 20
4.8126579558
 30
0.0
 10
4.3273401243
 20
4.8368063999
 30
0.0
 10
4.3338569019
 20
4.8490383671
 30
0.0
 11
4.3338569019
 21
4.5565177481
 31
0.0
 11
4.3159832516
 21
4.594067569
 31
0.0
 11
4.3031004711
 21
4.6305671341
 31
0.0
 11
4.2952273517
 21
4.6667043166
 31
0.0
 11
4.2925668316
 21
4.7027907034
 31
0.0
 11
4.295230874
 21
4.7388757676
 31
0.0
 11
4.3031063871
 21
4.7750095799
 31
0.0
 11
4.3159862673
 21
4.8114957896
 31
0.0
 11
4.3338569019
 21
4.8490383671
 31
0.0
  0
SPLINE
  5
3DF
100
AcDbEntity
  8
0
100
AcDbSpline
 62
7
  6
CONTINUOUS
 70
0
 71
3
 72
15
 73
11
 74
9
 42
0.0000001
 43
0.0000001
 44
0.0000000001
 12
0.144303637
 22
0.2708573861
 32
0.0
 13
-0.144303637
 23
0.2708573861
 33
0.0
 40
0.0
 40
0.0
 40
0.0
 40
0.0
 40
0.1355060615
 40
0.2616268072
 40
0.3821382325
 40
0.5000411188
 40
0.6179405518
 40
0.7384429083
 40
0.8645194725
 40
1.0
 40
1.0
 40
1.0
 40
1.0
 10
4.7318206048
 20
4.5565177481
 30
0.0
 10
4.7383386106
 20
4.5687520207
 30
0.0
 10
4.7499718756
 20
4.5929070015
 30
0.0
 10
4.7631798579
 20
4.6297894303
 30
0.0
 10
4.7712763279
 20
4.6663085668
 30
0.0
 10
4.7740187231
 20
4.7027903993
 30
0.0
 10
4.7712726933
 20
4.739271004
 30
0.0
 10
4.7631744638
 20
4.7757837501
 30
0.0
 10
4.7499677226
 20
4.8126579558
 30
0.0
 10
4.7383373824
 20
4.8368063999
 30
0.0
 10
4.7318206048
 20
4.8490383671
 30
0.0
 11
4.7318206048
 21
4.5565177481
 31
0.0
 11
4.7496942551
 21
4.594067569
 31
0.0
 11
4.7625770356
 21
4.6305671341
 31
0.0
 11
4.770450155
 21
4.6667043166
 31
0.0
 11
4.7731106751
 21
4.7027907034
 31
0.0
 11
4.7704466327
 21
4.7388757676
 31
0.0
 11
4.7625711196
 21
4.7750095799
 31
0.0
 11
4.7496912394
 21
4.8114957896
 31
0.0
 11
4.7318206048
 21
4.8490383671
 31
0.0
  0
SPLINE
  5
3E0
100
AcDbEntity
  8
0
100
AcDbSpline
 62
7
  6
CONTINUOUS
 70
0
 71
3
 72
15
 73
11
 74
9
 42
0.0000001
 43
0.0000001
 44
0.0000000001
 12
-0.144303637
 22
0.2708573861
 32
0.0
 13
0.144303637
 23
0.2708573861
 33
0.0
 40
0.0
 40
0.0
 40
0.0
 40
0.0
 40
0.1355060615
 40
0.2616268072
 40
0.3821382325
 40
0.5000411188
 40
0.6179405518
 40
0.7384429083
 40
0.8645194725
 40
1.0
 40
1.0
 40
1.0
 40
1.0
 10
4.3338569019
 20
3.5822677481
 30
0.0
 10
4.3273388961
 20
3.5945020207
 30
0.0
 10
4.3157056311
 20
3.6186570015
 30
0.0
 10
4.3024976488
 20
3.6555394303
 30
0.0
 10
4.2944011788
 20
3.6920585668
 30
0.0
 10
4.2916587836
 20
3.7285403993
 30
0.0
 10
4.2944048134
 20
3.765021004
 30
0.0
 10
4.3025030429
 20
3.8015337501
 30
0.0
 10
4.3157097841
 20
3.8384079558
 30
0.0
 10
4.3273401243
 20
3.8625563999
 30
0.0
 10
4.3338569019
 20
3.8747883671
 30
0.0
 11
4.3338569019
 21
3.5822677481
 31
0.0
 11
4.3159832516
 21
3.619817569
 31
0.0
 11
4.3031004711
 21
3.6563171341
 31
0.0
 11
4.2952273517
 21
3.6924543166
 31
0.0
 11
4.2925668316
 21
3.7285407034
 31
0.0
 11
4.295230874
 21
3.7646257676
 31
0.0
 11
4.3031063871
 21
3.8007595799
 31
0.0
 11
4.3159862673
 21
3.8372457896
 31
0.0
 11
4.3338569019
 21
3.8747883671
 31
0.0
  0
ENDSEC
  0
SECTION
  2
OBJECTS
  0
DICTIONARY
  5
C
100
AcDbDictionary
280
0
281
1
  3
ACAD_GROUP
350
D
  3
ACAD_MLINESTYLE
350
17
  3
ACAD_LAYOUT
350
1A
  3
ACAD_PLOTSETTINGS
350
19
  3
ACAD_PLOTSTYLENAME
350
E
  0
DICTIONARY
  5
D
102
{ACAD_REACTORS
330
C
102
}
100
AcDbDictionary
280
0
281
1
  0
ACDBDICTIONARYWDFLT
  5
E
102
{ACAD_REACTORS
330
C
102
}
100
AcDbDictionary
281
1
  3
Normal
350
F
100
AcDbDictionaryWithDefault
340
F
  0
DICTIONARY
  5
17
102
{ACAD_REACTORS
330
C
102
}
100
AcDbDictionary
280
0
281
1
  3
Standard
350
18
  0
DICTIONARY
  5
19
102
{ACAD_REACTORS
330
C
102
}
100
AcDbDictionary
281
1
  0
DICTIONARY
  5
1A
102
{ACAD_REACTORS
330
C
102
}
100
AcDbDictionary
281
1
  3
Layout1
350
1E
  3
Model
350
22
  0
ACDBPLACEHOLDER
  5
F
102
{ACAD_REACTORS
330
E
102
}
  0
MLINESTYLE
  5
18
102
{ACAD_REACTORS
330
17
102
}
100
AcDbMlineStyle
  2
STANDARD
 70
0
  3

 62
256
 51
90.0
 52
90.0
 71
2
 49
0.5
 62
256
  6
BYLAYER
 49
-0.5
 62
256
  6
BYLAYER
  0
LAYOUT
  5
1E
102
{ACAD_REACTORS
330
1A
102
}
100
AcDbPlotSettings
  1

  2

  4

  6

 40
0.0
 41
0.0
 42
0.0
 43
0.0
 44
0.0
 45
0.0
 46
0.0
 47
0.0
 48
0.0
 49
0.0
140
0.0
141
0.0
142
1.0
143
1.0
 70
0
 72
0
 73
0
 74
0
  7

 75
0
147
1.0
148
0.0
149
0.0
100
AcDbLayout
  1
Layout1
 70
0
 71
0
 10
0.0
 20
0.0
 11
0.0
 21
0.0
 12
0.0
 22
0.0
 32
0.0
 14
0.0
 24
0.0
 34
0.0
 15
0.0
 25
0.0
 35
0.0
146
0.0
 13
0.0
 23
0.0
 33
0.0
 16
0.0
 26
0.0
 36
0.0
 17
0.0
 27
0.0
 37
0.0
 76
0
330
1B
331
0
345
0
346
0
  0
LAYOUT
  5
22
102
{ACAD_REACTORS
330
1A
102
}
100
AcDbPlotSettings
  1

  2

  4

  6

 40
0.0
 41
0.0
 42
0.0
 43
0.0
 44
0.0
 45
0.0
 46
0.0
 47
0.0
 48
0.0
 49
0.0
140
0.0
141
0.0
142
1.0
143
1.0
 70
0
 72
0
 73
0
 74
0
  7

 75
0
147
1.0
148
0.0
149
0.0
100
AcDbLayout
  1
Model
 70
0
 71
0
 10
0.0
 20
0.0
 11
0.0
 21
0.0
 12
0.0
 22
0.0
 32
0.0
 14
0.0
 24
0.0
 34
0.0
 15
0.0
 25
0.0
 35
0.0
146
0.0
 13
0.0
 23
0.0
 33
0.0
 16
0.0
 26
0.0
 36
0.0
 17
0.0
 27
0.0
 37
0.0
 76
0
330
1F
331
0
345
0
346
0
  0
ENDSEC
  0
EOF
