999
DXF file: NFFD-LIN.dxf
999
Pro/ENGINEER 2006240 by Parametric Technology Corporation
  0
SECTION
  2
HEADER
  9
$ACADVER
  1
AC1015
  9
$DWGCODEPAGE
  3
ANSI_1252
  9
$EXTMAX
 10
11.6929133858
 20
8.2677165354
 30
0.0
  9
$EXTMIN
 10
0.0
 20
0.0
 30
0.0
  9
$LIMMIN
 10
0.0
 20
0.0
  9
$LIMMAX
 10
11.6929133858
 20
8.2677165354
  9
$VIEWCTR
 10
5.8464566929
 20
4.1338582677
  9
$VIEWSIZE
 40
8.2677165354
  9
$CLAYER
  8
0
  9
$LTSCALE
 40
0.6431102362
  9
$CELTYPE
  6
BYLAYER
  9
$DIMSCALE
 40
1.0
  9
$DIMASZ
 40
0.1875
  9
$DIMEXO
 40
0.0730807087
  9
$DIMDLI
 40
0.4443307087
  9
$DIMEXE
 40
0.2104724409
  9
$DIMCEN
 40
0.1052362205
  9
$DIMLFAC
 40
1.0
  9
$DIMBLK
  1
_CLOSED
  9
$DIMTXT
 40
0.15625
  9
$DIMTOL
 70
0
  9
$DIMLIM
 70
0
  9
$DIMTFAC
 40
1.0
  9
$PDMODE
 70
3
  9
$PDSIZE
 40
0.3125
  9
$HANDSEED
  5
423
  9
$MEASUREMENT
 70
0
  9
$INSUNITS
 70
1
  0
ENDSEC
  0
SECTION
  2
CLASSES
  0
CLASS
  1
ACDBDICTIONARYWDFLT
  2
AcDbDictionaryWithDefault
  3
AutoCAD 2000
 90
0
280
0
281
0
  0
CLASS
  1
ACDBPLACEHOLDER
  2
AcDbPlaceHolder
  3
AutoCAD 2000
 90
0
280
0
281
0
  0
CLASS
  1
LAYOUT
  2
AcDbLayout
  3
AutoCAD 2000
 90
0
280
0
281
0
  0
ENDSEC
  0
SECTION
  2
TABLES
  0
TABLE
  2
VPORT
  5
8
100
AcDbSymbolTable
 70
2
  0
VPORT
  5
1F4
100
AcDbSymbolTableRecord
100
AcDbViewportTableRecord
  2
*ACTIVE
 70
0
 10
0.0
 20
0.0
 11
1.0
 21
1.0
 12
5.8464566929
 22
4.1338582677
 13
0.0
 23
0.0
 14
1.0
 24
1.0
 15
0.0
 25
0.0
 16
0.0
 26
0.0
 36
1.0
 17
0.0
 27
0.0
 37
0.0
 40
8.2677165354
 41
1.4142857143
 42
50.0
 43
0.0
 44
0.0
 50
0.0
 51
0.0
 71
0
 72
100
 73
1
 74
1
 75
0
 76
0
 77
0
 78
0
  0
ENDTAB
  0
TABLE
  2
LTYPE
  5
5
100
AcDbSymbolTable
 70
6
  0
LTYPE
  5
14
100
AcDbSymbolTableRecord
100
AcDbLinetypeTableRecord
  2
BYBLOCK
 70
0
  3

 72
65
 73
0
 40
0.0
  0
LTYPE
  5
15
100
AcDbSymbolTableRecord
100
AcDbLinetypeTableRecord
  2
BYLAYER
 70
0
  3

 72
65
 73
0
 40
0.0
  0
LTYPE
  5
16
100
AcDbSymbolTableRecord
100
AcDbLinetypeTableRecord
  2
CONTINUOUS
 70
64
  3
Solid line
 72
65
 73
0
 40
0.0
  0
LTYPE
  5
1F5
100
AcDbSymbolTableRecord
100
AcDbLinetypeTableRecord
  2
CENTER
 70
64
  3
____ _ ____ _ ____ _ ____ _ ____ _ ____ _ ____
 72
65
 73
4
 40
0.6
 49
0.375
 74
0
 49
-0.075
 74
0
 49
0.075
 74
0
 49
-0.075
 74
0
  0
LTYPE
  5
1F6
100
AcDbSymbolTableRecord
100
AcDbLinetypeTableRecord
  2
HIDDEN
 70
64
  3
- - - - - - - - - - - - - - - - - - - -
 72
65
 73
2
 40
0.2
 49
0.1
 74
0
 49
-0.1
 74
0
  0
LTYPE
  5
1F7
100
AcDbSymbolTableRecord
100
AcDbLinetypeTableRecord
  2
PHANTOM
 70
64
  3
_____ _ _ _____ _ _ _____ _ _ _____
 72
65
 73
6
 40
0.8
 49
0.45
 74
0
 49
-0.05
 74
0
 49
0.1
 74
0
 49
-0.05
 74
0
 49
0.1
 74
0
 49
-0.05
 74
0
  0
LTYPE
  5
1F8
100
AcDbSymbolTableRecord
100
AcDbLinetypeTableRecord
  2
DOT
 70
64
  3
. . . . . . . . . . . . . . . . . . . .
 72
65
 73
2
 40
0.2
 49
0.1
 74
0
 49
-0.1
 74
0
  0
LTYPE
  5
1F9
100
AcDbSymbolTableRecord
100
AcDbLinetypeTableRecord
  2
DASHED
 70
64
  3
- - - - - - - - - - - - - - - - - - - -
 72
65
 73
2
 40
0.2
 49
0.1
 74
0
 49
-0.1
 74
0
  0
ENDTAB
  0
TABLE
  2
LAYER
  5
2
100
AcDbSymbolTable
 70
36
  0
LAYER
  5
10
100
AcDbSymbolTableRecord
100
AcDbLayerTableRecord
  2
0
 70
0
 62
7
  6
CONTINUOUS
370
-3
390
F
  0
LAYER
  5
1FA
100
AcDbSymbolTableRecord
100
AcDbLayerTableRecord
  2
DEFAULT_1
 70
0
 62
7
  6
CENTER
370
-3
390
F
  0
LAYER
  5
1FB
100
AcDbSymbolTableRecord
100
AcDbLayerTableRecord
  2
DEFAULT_2
 70
0
 62
8
  6
HIDDEN
370
-3
390
F
  0
LAYER
  5
1FC
100
AcDbSymbolTableRecord
100
AcDbLayerTableRecord
  2
DEFAULT_3
 70
0
 62
7
  6
PHANTOM
370
-3
390
F
  0
LAYER
  5
1FD
100
AcDbSymbolTableRecord
100
AcDbLayerTableRecord
  2
01_ALL_DTM_PLN
 70
0
 62
7
  6
CONTINUOUS
370
-3
390
F
  0
LAYER
  5
1FE
100
AcDbSymbolTableRecord
100
AcDbLayerTableRecord
  2
01__ASM_ALL_DTM_PLN
 70
0
 62
7
  6
CONTINUOUS
370
-3
390
F
  0
LAYER
  5
1FF
100
AcDbSymbolTableRecord
100
AcDbLayerTableRecord
  2
01__ASM_DEF_DTM_PLN
 70
0
 62
7
  6
CONTINUOUS
370
-3
390
F
  0
LAYER
  5
200
100
AcDbSymbolTableRecord
100
AcDbLayerTableRecord
  2
01___PRT_ALL_DTM_PLN
 70
0
 62
7
  6
CONTINUOUS
370
-3
390
F
  0
LAYER
  5
201
100
AcDbSymbolTableRecord
100
AcDbLayerTableRecord
  2
01___PRT_DEF_DTM_PLN
 70
0
 62
7
  6
CONTINUOUS
370
-3
390
F
  0
LAYER
  5
202
100
AcDbSymbolTableRecord
100
AcDbLayerTableRecord
  2
02_ALL_AXES
 70
0
 62
7
  6
CONTINUOUS
370
-3
390
F
  0
LAYER
  5
203
100
AcDbSymbolTableRecord
100
AcDbLayerTableRecord
  2
02__ASM_ALL_AXES
 70
0
 62
7
  6
CONTINUOUS
370
-3
390
F
  0
LAYER
  5
204
100
AcDbSymbolTableRecord
100
AcDbLayerTableRecord
  2
02___PRT_ALL_AXES
 70
0
 62
7
  6
CONTINUOUS
370
-3
390
F
  0
LAYER
  5
205
100
AcDbSymbolTableRecord
100
AcDbLayerTableRecord
  2
03_ALL_CURVES
 70
0
 62
7
  6
CONTINUOUS
370
-3
390
F
  0
LAYER
  5
206
100
AcDbSymbolTableRecord
100
AcDbLayerTableRecord
  2
03__ASM_ALL_CURVES
 70
0
 62
7
  6
CONTINUOUS
370
-3
390
F
  0
LAYER
  5
207
100
AcDbSymbolTableRecord
100
AcDbLayerTableRecord
  2
03___PRT_ALL_CURVES
 70
0
 62
7
  6
CONTINUOUS
370
-3
390
F
  0
LAYER
  5
208
100
AcDbSymbolTableRecord
100
AcDbLayerTableRecord
  2
04_ALL_DTM_PNT
 70
0
 62
7
  6
CONTINUOUS
370
-3
390
F
  0
LAYER
  5
209
100
AcDbSymbolTableRecord
100
AcDbLayerTableRecord
  2
04__ASM_ALL_DTM_PNT
 70
0
 62
7
  6
CONTINUOUS
370
-3
390
F
  0
LAYER
  5
20A
100
AcDbSymbolTableRecord
100
AcDbLayerTableRecord
  2
04___PRT_ALL_DTM_PNT
 70
0
 62
7
  6
CONTINUOUS
370
-3
390
F
  0
LAYER
  5
20B
100
AcDbSymbolTableRecord
100
AcDbLayerTableRecord
  2
05_ALL_DTM_CSYS
 70
0
 62
7
  6
CONTINUOUS
370
-3
390
F
  0
LAYER
  5
20C
100
AcDbSymbolTableRecord
100
AcDbLayerTableRecord
  2
05__ASM_ALL_DTM_CSYS
 70
0
 62
7
  6
CONTINUOUS
370
-3
390
F
  0
LAYER
  5
20D
100
AcDbSymbolTableRecord
100
AcDbLayerTableRecord
  2
05__ASM_DEF_DTM_CSYS
 70
0
 62
7
  6
CONTINUOUS
370
-3
390
F
  0
LAYER
  5
20E
100
AcDbSymbolTableRecord
100
AcDbLayerTableRecord
  2
05___PRT_ALL_DTM_CSYS
 70
0
 62
7
  6
CONTINUOUS
370
-3
390
F
  0
LAYER
  5
20F
100
AcDbSymbolTableRecord
100
AcDbLayerTableRecord
  2
05___PRT_DEF_DTM_CSYS
 70
0
 62
7
  6
CONTINUOUS
370
-3
390
F
  0
LAYER
  5
210
100
AcDbSymbolTableRecord
100
AcDbLayerTableRecord
  2
06_ALL_SURFS
 70
0
 62
7
  6
CONTINUOUS
370
-3
390
F
  0
LAYER
  5
211
100
AcDbSymbolTableRecord
100
AcDbLayerTableRecord
  2
06__ASM_ALL_SURFS
 70
0
 62
7
  6
CONTINUOUS
370
-3
390
F
  0
LAYER
  5
212
100
AcDbSymbolTableRecord
100
AcDbLayerTableRecord
  2
06___PRT_ALL_SURFS
 70
0
 62
7
  6
CONTINUOUS
370
-3
390
F
  0
LAYER
  5
213
100
AcDbSymbolTableRecord
100
AcDbLayerTableRecord
  2
07__ASM_ALL_SKELETONS
 70
0
 62
7
  6
CONTINUOUS
370
-3
390
F
  0
LAYER
  5
214
100
AcDbSymbolTableRecord
100
AcDbLayerTableRecord
  2
COPY_GEO_FET
 70
0
 62
7
  6
CONTINUOUS
370
-3
390
F
  0
LAYER
  5
215
100
AcDbSymbolTableRecord
100
AcDbLayerTableRecord
  2
COSMETIC
 70
0
 62
7
  6
CONTINUOUS
370
-3
390
F
  0
LAYER
  5
216
100
AcDbSymbolTableRecord
100
AcDbLayerTableRecord
  2
CURVES
 70
0
 62
7
  6
CONTINUOUS
370
-3
390
F
  0
LAYER
  5
217
100
AcDbSymbolTableRecord
100
AcDbLayerTableRecord
  2
CUT_REF_SURF
 70
0
 62
7
  6
CONTINUOUS
370
-3
390
F
  0
LAYER
  5
218
100
AcDbSymbolTableRecord
100
AcDbLayerTableRecord
  2
DATUM
 70
0
 62
7
  6
CONTINUOUS
370
-3
390
F
  0
LAYER
  5
219
100
AcDbSymbolTableRecord
100
AcDbLayerTableRecord
  2
DATUMCURVES
 70
0
 62
7
  6
CONTINUOUS
370
-3
390
F
  0
LAYER
  5
21A
100
AcDbSymbolTableRecord
100
AcDbLayerTableRecord
  2
DIMENSIONS
 70
0
 62
7
  6
CONTINUOUS
370
-3
390
F
  0
LAYER
  5
21B
100
AcDbSymbolTableRecord
100
AcDbLayerTableRecord
  2
DMT
 70
0
 62
7
  6
CONTINUOUS
370
-3
390
F
  0
LAYER
  5
21C
100
AcDbSymbolTableRecord
100
AcDbLayerTableRecord
  2
DP_SERRATIONS
 70
0
 62
7
  6
CONTINUOUS
370
-3
390
F
  0
LAYER
  5
21D
100
AcDbSymbolTableRecord
100
AcDbLayerTableRecord
  2
DRAWINGNOTES
 70
0
 62
7
  6
CONTINUOUS
370
-3
390
F
  0
LAYER
  5
21E
100
AcDbSymbolTableRecord
100
AcDbLayerTableRecord
  2
DTM
 70
0
 62
7
  6
CONTINUOUS
370
-3
390
F
  0
LAYER
  5
21F
100
AcDbSymbolTableRecord
100
AcDbLayerTableRecord
  2
DTM230
 70
0
 62
7
  6
CONTINUOUS
370
-3
390
F
  0
LAYER
  5
220
100
AcDbSymbolTableRecord
100
AcDbLayerTableRecord
  2
DTM_500001
 70
0
 62
7
  6
CONTINUOUS
370
-3
390
F
  0
LAYER
  5
221
100
AcDbSymbolTableRecord
100
AcDbLayerTableRecord
  2
DTM_500002
 70
0
 62
7
  6
CONTINUOUS
370
-3
390
F
  0
LAYER
  5
222
100
AcDbSymbolTableRecord
100
AcDbLayerTableRecord
  2
DTM_515002
 70
0
 62
7
  6
CONTINUOUS
370
-3
390
F
  0
LAYER
  5
223
100
AcDbSymbolTableRecord
100
AcDbLayerTableRecord
  2
DTM_530002
 70
0
 62
7
  6
CONTINUOUS
370
-3
390
F
  0
LAYER
  5
224
100
AcDbSymbolTableRecord
100
AcDbLayerTableRecord
  2
DTM_WIRE
 70
0
 62
7
  6
CONTINUOUS
370
-3
390
F
  0
LAYER
  5
225
100
AcDbSymbolTableRecord
100
AcDbLayerTableRecord
  2
GEOMETRICTOLERANCES
 70
0
 62
7
  6
CONTINUOUS
370
-3
390
F
  0
LAYER
  5
226
100
AcDbSymbolTableRecord
100
AcDbLayerTableRecord
  2
LAY0001
 70
0
 62
7
  6
CONTINUOUS
370
-3
390
F
  0
LAYER
  5
227
100
AcDbSymbolTableRecord
100
AcDbLayerTableRecord
  2
PARAMETERDIMENSIONS
 70
0
 62
7
  6
CONTINUOUS
370
-3
390
F
  0
LAYER
  5
228
100
AcDbSymbolTableRecord
100
AcDbLayerTableRecord
  2
PLANE
 70
0
 62
7
  6
CONTINUOUS
370
-3
390
F
  0
LAYER
  5
229
100
AcDbSymbolTableRecord
100
AcDbLayerTableRecord
  2
TEXT
 70
0
 62
7
  6
CONTINUOUS
370
-3
390
F
  0
LAYER
  5
22A
100
AcDbSymbolTableRecord
100
AcDbLayerTableRecord
  2
THREAD
 70
0
 62
7
  6
CONTINUOUS
370
-3
390
F
  0
ENDTAB
  0
TABLE
  2
STYLE
  5
3
100
AcDbSymbolTable
 70
1
  0
STYLE
  5
11
100
AcDbSymbolTableRecord
100
AcDbTextStyleTableRecord
  2
STANDARD
 70
0
 40
0.0
 41
0.8
 50
0.0
 71
0
 42
0.2
  3
txt
  4

  0
ENDTAB
  0
TABLE
  2
VIEW
  5
6
100
AcDbSymbolTable
 70
0
  0
ENDTAB
  0
TABLE
  2
UCS
  5
7
100
AcDbSymbolTable
 70
0
  0
ENDTAB
  0
TABLE
  2
APPID
  5
9
100
AcDbSymbolTable
 70
1
  0
APPID
  5
22B
100
AcDbSymbolTableRecord
100
AcDbRegAppTableRecord
  2
ACAD
 70
0
  0
ENDTAB
  0
TABLE
  2
BLOCK_RECORD
  5
1
100
AcDbSymbolTable
 70
0
  0
BLOCK_RECORD
  5
1F
100
AcDbSymbolTableRecord
100
AcDbBlockTableRecord
  2
*MODEL_SPACE
  0
BLOCK_RECORD
  5
1B
100
AcDbSymbolTableRecord
100
AcDbBlockTableRecord
  2
*PAPER_SPACE
  0
ENDTAB
  0
TABLE
  2
DIMSTYLE
  5
A
100
AcDbSymbolTable
 70
1
100
AcDbDimStyleTable
 71
0
  0
DIMSTYLE
105
22C
100
AcDbSymbolTableRecord
100
AcDbDimStyleTableRecord
  2
STANDARD
 70
0
  3

  4

 40
1.0
 41
0.1875
 42
0.0625
 43
0.38
 44
0.18
 45
0.0
 46
0.0
 47
0.01
 48
0.01
140
0.15625
141
0.09
142
0.0
143
25.4
144
1.0
145
0.0
146
1.0
147
0.09
 71
0.0
 72
0.0
 73
1
 74
1
 75
0
 76
0
 77
0
 78
4
170
0
171
2
172
0
173
0
174
0
175
0
176
0
177
0
178
0
270
2
271
2
272
2
273
2
274
2
275
0
280
0
281
0
282
0
283
1
284
4
285
0
286
0
287
3
288
0
340
11
  0
ENDTAB
  0
ENDSEC
  0
SECTION
  2
BLOCKS
  0
BLOCK
  5
20
100
AcDbEntity
  8
0
100
AcDbBlockBegin
  2
*MODEL_SPACE
 70
0
 10
0.0
 20
0.0
 30
0.0
  3
*MODEL_SPACE
  1

  0
ENDBLK
  5
21
100
AcDbEntity
  8
0
100
AcDbBlockEnd
  0
BLOCK
  5
1C
100
AcDbEntity
  8
0
100
AcDbBlockBegin
  2
*PAPER_SPACE
 70
0
 10
0.0
 20
0.0
 30
0.0
  3
*PAPER_SPACE
  1

  0
ENDBLK
  5
1D
100
AcDbEntity
  8
0
100
AcDbBlockEnd
  0
ENDSEC
  0
SECTION
  2
ENTITIES
  0
LINE
  5
22D
100
AcDbEntity
  8
0
100
AcDbLine
 62
7
  6
CONTINUOUS
 10
2.3323524805
 20
4.1201140576
 11
2.3323524805
 21
4.4331140576
  0
LINE
  5
22E
100
AcDbEntity
  8
03__ASM_ALL_CURVES
100
AcDbLine
 62
40
  6
CONTINUOUS
 10
2.3323524805
 20
4.4331140576
 11
2.3323524805
 21
5.6340520576
  0
LINE
  5
22F
100
AcDbEntity
  8
0
100
AcDbLine
 62
7
  6
CONTINUOUS
 10
2.3633524805
 20
4.0891140576
 11
2.3633524805
 21
4.4641140576
  0
LINE
  5
230
100
AcDbEntity
  8
03__ASM_ALL_CURVES
100
AcDbLine
 62
40
  6
CONTINUOUS
 10
2.5179624805
 20
5.6031170576
 11
2.5179624805
 21
5.5412470576
  0
LINE
  5
231
100
AcDbEntity
  8
0
100
AcDbLine
 62
7
  6
CONTINUOUS
 10
2.7023524805
 20
4.0289628725
 11
2.7023524805
 21
4.5242652427
  0
LINE
  5
232
100
AcDbEntity
  8
0
100
AcDbLine
 62
7
  6
CONTINUOUS
 10
2.7643524805
 20
4.0056140576
 11
2.7643524805
 21
4.5476140576
  0
LINE
  5
233
100
AcDbEntity
  8
0
100
AcDbLine
 62
7
  6
CONTINUOUS
 10
2.7703524805
 20
4.0056140576
 11
2.7703524805
 21
4.5476140576
  0
LINE
  5
234
100
AcDbEntity
  8
0
100
AcDbLine
 62
7
  6
CONTINUOUS
 10
2.7758524805
 20
4.0111140576
 11
2.7758524805
 21
4.5421140576
  0
LINE
  5
235
100
AcDbEntity
  8
0
100
AcDbLine
 62
7
  6
CONTINUOUS
 10
2.7918524805
 20
4.0111140576
 11
2.7918524805
 21
4.5421140576
  0
LINE
  5
236
100
AcDbEntity
  8
03__ASM_ALL_CURVES
100
AcDbLine
 62
40
  6
CONTINUOUS
 10
3.1276462305
 20
5.7500583076
 11
3.117979043
 21
5.7371687273
  0
LINE
  5
237
100
AcDbEntity
  8
0
100
AcDbLine
 62
7
  6
CONTINUOUS
 10
2.9833524805
 20
4.0056140576
 11
2.9833524805
 21
4.5476140576
  0
LINE
  5
238
100
AcDbEntity
  8
0
100
AcDbLine
 62
7
  6
CONTINUOUS
 10
3.0143524805
 20
3.5576140576
 11
3.0143524805
 21
4.9956140576
  0
LINE
  5
239
100
AcDbEntity
  8
03__ASM_ALL_CURVES
100
AcDbLine
 62
40
  6
CONTINUOUS
 10
3.3596587305
 20
5.7371687273
 11
3.369325918
 21
5.7629478879
  0
LINE
  5
23A
100
AcDbEntity
  8
03__ASM_ALL_CURVES
100
AcDbLine
 62
40
  6
CONTINUOUS
 10
3.137313418
 20
5.6727208076
 11
3.117979043
 21
5.6469416413
  0
LINE
  5
23B
100
AcDbEntity
  8
03__ASM_ALL_CURVES
100
AcDbLine
 62
40
  6
CONTINUOUS
 10
3.369325918
 20
5.7629478879
 11
3.3789931055
 21
5.7758374773
  0
LINE
  5
23C
100
AcDbEntity
  8
03__ASM_ALL_CURVES
100
AcDbLine
 62
40
  6
CONTINUOUS
 10
3.059975918
 20
5.7758374773
 11
3.079310293
 21
5.7887270576
  0
LINE
  5
23D
100
AcDbEntity
  8
0
100
AcDbLine
 62
7
  6
CONTINUOUS
 10
3.0763524805
 20
3.4956140576
 11
3.0763524805
 21
5.0576140576
  0
LINE
  5
23E
100
AcDbEntity
  8
03__ASM_ALL_CURVES
100
AcDbLine
 62
40
  6
CONTINUOUS
 10
3.1276462305
 20
5.7629478879
 11
3.1276462305
 21
5.7500583076
  0
LINE
  5
23F
100
AcDbEntity
  8
03__ASM_ALL_CURVES
100
AcDbLine
 62
40
  6
CONTINUOUS
 10
3.137313418
 20
5.6856103925
 11
3.137313418
 21
5.6727208076
  0
LINE
  5
240
100
AcDbEntity
  8
03__ASM_ALL_CURVES
100
AcDbLine
 62
40
  6
CONTINUOUS
 10
3.233985293
 20
5.6340520576
 11
3.233985293
 21
5.6469416413
  0
LINE
  5
241
100
AcDbEntity
  8
03__ASM_ALL_CURVES
100
AcDbLine
 62
40
  6
CONTINUOUS
 10
3.4369962305
 20
5.6856103925
 11
3.427329043
 21
5.659831225
  0
LINE
  5
242
100
AcDbEntity
  8
03__ASM_ALL_CURVES
100
AcDbLine
 62
40
  6
CONTINUOUS
 10
3.5143337305
 20
5.7371687273
 11
3.524000918
 21
5.7629478879
  0
LINE
  5
243
100
AcDbEntity
  8
03__ASM_ALL_CURVES
100
AcDbLine
 62
40
  6
CONTINUOUS
 10
3.5143337305
 20
5.6856103925
 11
3.524000918
 21
5.7113895576
  0
LINE
  5
244
100
AcDbEntity
  8
03__ASM_ALL_CURVES
100
AcDbLine
 62
40
  6
CONTINUOUS
 10
3.5916712305
 20
5.6856103925
 11
3.582004043
 21
5.659831225
  0
LINE
  5
245
100
AcDbEntity
  8
03__ASM_ALL_CURVES
100
AcDbLine
 62
40
  6
CONTINUOUS
 10
3.427329043
 20
5.659831225
 11
3.4176618555
 21
5.6469416413
  0
LINE
  5
246
100
AcDbEntity
  8
03__ASM_ALL_CURVES
100
AcDbLine
 62
40
  6
CONTINUOUS
 10
3.524000918
 20
5.7629478879
 11
3.5336681055
 21
5.7758374773
  0
LINE
  5
247
100
AcDbEntity
  8
03__ASM_ALL_CURVES
100
AcDbLine
 62
40
  6
CONTINUOUS
 10
3.582004043
 20
5.659831225
 11
3.5723368555
 21
5.6469416413
  0
LINE
  5
248
100
AcDbEntity
  8
03__ASM_ALL_CURVES
100
AcDbLine
 62
40
  6
CONTINUOUS
 10
3.717344668
 20
5.7887270576
 11
3.698010293
 21
5.7629478879
  0
LINE
  5
249
100
AcDbEntity
  8
0
100
AcDbLine
 62
7
  6
CONTINUOUS
 10
2.3633524805
 20
4.4641140576
 11
2.3323524805
 21
4.4331140576
  0
LINE
  5
24A
100
AcDbEntity
  8
03__ASM_ALL_CURVES
100
AcDbLine
 62
40
  6
CONTINUOUS
 10
3.117979043
 20
5.7371687273
 11
3.098644668
 21
5.7242791379
  0
LINE
  5
24B
100
AcDbEntity
  8
03__ASM_ALL_CURVES
100
AcDbLine
 62
40
  6
CONTINUOUS
 10
3.117979043
 20
5.6469416413
 11
3.098644668
 21
5.6340520576
  0
LINE
  5
24C
100
AcDbEntity
  8
03__ASM_ALL_CURVES
100
AcDbLine
 62
40
  6
CONTINUOUS
 10
3.3789931055
 20
5.7758374773
 11
3.3983274805
 21
5.7887270576
  0
LINE
  5
24D
100
AcDbEntity
  8
03__ASM_ALL_CURVES
100
AcDbLine
 62
40
  6
CONTINUOUS
 10
3.5336681055
 20
5.7758374773
 11
3.5530024805
 21
5.7887270576
  0
LINE
  5
24E
100
AcDbEntity
  8
0
100
AcDbLine
 62
7
  6
CONTINUOUS
 10
2.3633524805
 20
4.0891140576
 11
2.3323524805
 21
4.1201140576
  0
LINE
  5
24F
100
AcDbEntity
  8
0
100
AcDbLine
 62
7
  6
CONTINUOUS
 10
3.0143524805
 20
3.5576140576
 11
3.0763524805
 21
3.4956140576
  0
LINE
  5
250
100
AcDbEntity
  8
03__ASM_ALL_CURVES
100
AcDbLine
 62
40
  6
CONTINUOUS
 10
3.3596587305
 20
5.6856103925
 11
3.3596587305
 21
5.7371687273
  0
LINE
  5
251
100
AcDbEntity
  8
03__ASM_ALL_CURVES
100
AcDbLine
 62
40
  6
CONTINUOUS
 10
3.4369962305
 20
5.7371687273
 11
3.4369962305
 21
5.6856103925
  0
LINE
  5
252
100
AcDbEntity
  8
03__ASM_ALL_CURVES
100
AcDbLine
 62
40
  6
CONTINUOUS
 10
3.5143337305
 20
5.6856103925
 11
3.5143337305
 21
5.7371687273
  0
LINE
  5
253
100
AcDbEntity
  8
03__ASM_ALL_CURVES
100
AcDbLine
 62
40
  6
CONTINUOUS
 10
3.698010293
 20
5.7629478879
 11
3.6883431055
 21
5.7242791379
  0
LINE
  5
254
100
AcDbEntity
  8
03__ASM_ALL_CURVES
100
AcDbLine
 62
40
  6
CONTINUOUS
 10
3.8816868555
 20
5.7371687273
 11
3.9010212305
 21
5.7887270576
  0
LINE
  5
255
100
AcDbEntity
  8
0
100
AcDbLine
 62
7
  6
CONTINUOUS
 10
2.9833524805
 20
4.0056140576
 11
2.9772577084
 21
3.9950576026
  0
LINE
  5
256
100
AcDbEntity
  8
0
100
AcDbLine
 62
7
  6
CONTINUOUS
 10
3.0143524805
 20
4.9956140576
 11
3.0763524805
 21
5.0576140576
  0
LINE
  5
257
100
AcDbEntity
  8
0
100
AcDbLine
 62
7
  6
CONTINUOUS
 10
2.8073532661
 20
4.5576148432
 11
2.7918524805
 21
4.5421140576
  0
LINE
  5
258
100
AcDbEntity
  8
03__ASM_ALL_CURVES
100
AcDbLine
 62
40
  6
CONTINUOUS
 10
3.4176618555
 20
5.6469416413
 11
3.3983274805
 21
5.6340520576
  0
LINE
  5
259
100
AcDbEntity
  8
03__ASM_ALL_CURVES
100
AcDbLine
 62
40
  6
CONTINUOUS
 10
3.5723368555
 20
5.6469416413
 11
3.5530024805
 21
5.6340520576
  0
LINE
  5
25A
100
AcDbEntity
  8
0
100
AcDbLine
 62
7
  6
CONTINUOUS
 10
2.8073532661
 20
3.995613272
 11
2.7918524805
 21
4.0111140576
  0
LINE
  5
25B
100
AcDbEntity
  8
0
100
AcDbLine
 62
7
  6
CONTINUOUS
 10
2.9833524805
 20
4.5476140576
 11
2.9772577084
 21
4.5581705126
  0
LINE
  5
25C
100
AcDbEntity
  8
03__ASM_ALL_CURVES
100
AcDbLine
 62
40
  6
CONTINUOUS
 10
3.6883431055
 20
5.7242791379
 11
3.6883431055
 21
5.6984999727
  0
LINE
  5
25D
100
AcDbEntity
  8
03__ASM_ALL_CURVES
100
AcDbLine
 62
40
  6
CONTINUOUS
 10
3.8623524805
 20
5.6340520576
 11
3.872019668
 21
5.6984999727
  0
LINE
  5
25E
100
AcDbEntity
  8
03__ASM_ALL_CURVES
100
AcDbLine
 62
40
  6
CONTINUOUS
 10
3.872019668
 20
5.6984999727
 11
3.8816868555
 21
5.7371687273
  0
LINE
  5
25F
100
AcDbEntity
  8
03__ASM_ALL_CURVES
100
AcDbLine
 62
40
  6
CONTINUOUS
 10
4.026694668
 20
5.6984999727
 11
4.0363618555
 21
5.7371687273
  0
LINE
  5
260
100
AcDbEntity
  8
03__ASM_ALL_CURVES
100
AcDbLine
 62
40
  6
CONTINUOUS
 10
4.0363618555
 20
5.7371687273
 11
4.0556962305
 21
5.7887270576
  0
LINE
  5
261
100
AcDbEntity
  8
0
100
AcDbLine
 62
7
  6
CONTINUOUS
 10
3.8923251118
 20
5.1996140576
 11
3.8253524805
 21
5.0836140576
  0
LINE
  5
262
100
AcDbEntity
  8
03__ASM_ALL_CURVES
100
AcDbLine
 62
40
  6
CONTINUOUS
 10
4.452050918
 20
5.7758374773
 11
4.471385293
 21
5.7887270576
  0
LINE
  5
263
100
AcDbEntity
  8
03__ASM_ALL_CURVES
100
AcDbLine
 62
40
  6
CONTINUOUS
 10
3.524000918
 20
5.7113895576
 11
3.5530024805
 21
5.7242791379
  0
LINE
  5
264
100
AcDbEntity
  8
0
100
AcDbLine
 62
7
  6
CONTINUOUS
 10
3.8923251118
 20
3.3536140576
 11
3.8253524805
 21
3.4696140576
  0
LINE
  5
265
100
AcDbEntity
  8
0
100
AcDbLine
 62
7
  6
CONTINUOUS
 10
3.8253524805
 20
3.4696140576
 11
3.8253524805
 21
5.0836140576
  0
LINE
  5
266
100
AcDbEntity
  8
0
100
AcDbLine
 62
7
  6
CONTINUOUS
 10
3.8923251118
 20
3.3536140576
 11
3.8923251118
 21
3.354009399
  0
LINE
  5
267
100
AcDbEntity
  8
0
100
AcDbLine
 62
7
  6
CONTINUOUS
 10
3.8923251118
 20
3.7919187161
 11
3.8923251118
 21
3.8387047405
  0
LINE
  5
268
100
AcDbEntity
  8
0
100
AcDbLine
 62
7
  6
CONTINUOUS
 10
3.8923251118
 20
4.7145233747
 11
3.8923251118
 21
4.761309399
  0
LINE
  5
269
100
AcDbEntity
  8
0
100
AcDbLine
 62
7
  6
CONTINUOUS
 10
3.8923251118
 20
5.1992187161
 11
3.8923251118
 21
5.1996140576
  0
LINE
  5
26A
100
AcDbEntity
  8
03__ASM_ALL_CURVES
100
AcDbLine
 62
40
  6
CONTINUOUS
 10
4.0170274805
 20
5.6340520576
 11
4.026694668
 21
5.6984999727
  0
LINE
  5
26B
100
AcDbEntity
  8
03__ASM_ALL_CURVES
100
AcDbLine
 62
40
  6
CONTINUOUS
 10
4.336044668
 20
5.6984999727
 11
4.3457118555
 21
5.7371687273
  0
LINE
  5
26C
100
AcDbEntity
  8
03__ASM_ALL_CURVES
100
AcDbLine
 62
40
  6
CONTINUOUS
 10
4.3457118555
 20
5.7371687273
 11
4.3650462305
 21
5.7887270576
  0
LINE
  5
26D
100
AcDbEntity
  8
03__ASM_ALL_CURVES
100
AcDbLine
 62
40
  6
CONTINUOUS
 10
4.4423837305
 20
5.7629478879
 11
4.452050918
 21
5.7758374773
  0
LINE
  5
26E
100
AcDbEntity
  8
03__ASM_ALL_CURVES
100
AcDbLine
 62
40
  6
CONTINUOUS
 10
4.471385293
 20
5.6984999727
 11
4.452050918
 21
5.6727208076
  0
LINE
  5
26F
100
AcDbEntity
  8
03__ASM_ALL_CURVES
100
AcDbLine
 62
40
  6
CONTINUOUS
 10
4.5197212305
 20
5.7371687273
 11
4.510054043
 21
5.7242791379
  0
LINE
  5
270
100
AcDbEntity
  8
03__ASM_ALL_CURVES
100
AcDbLine
 62
40
  6
CONTINUOUS
 10
4.645394668
 20
5.659831225
 11
4.626060293
 21
5.6340520576
  0
LINE
  5
271
100
AcDbEntity
  8
0
100
AcDbLine
 62
7
  6
CONTINUOUS
 10
2.7758524805
 20
4.0111140576
 11
2.7703524805
 21
4.0056140576
  0
LINE
  5
272
100
AcDbEntity
  8
03__ASM_ALL_CURVES
100
AcDbLine
 62
40
  6
CONTINUOUS
 10
4.510054043
 20
5.7242791379
 11
4.471385293
 21
5.6984999727
  0
LINE
  5
273
100
AcDbEntity
  8
0
100
AcDbLine
 62
7
  6
CONTINUOUS
 10
2.7758524805
 20
4.5421140576
 11
2.7703524805
 21
4.5476140576
  0
LINE
  5
274
100
AcDbEntity
  8
03__ASM_ALL_CURVES
100
AcDbLine
 62
40
  6
CONTINUOUS
 10
3.369325918
 20
5.659831225
 11
3.3596587305
 21
5.6856103925
  0
LINE
  5
275
100
AcDbEntity
  8
03__ASM_ALL_CURVES
100
AcDbLine
 62
40
  6
CONTINUOUS
 10
4.162035293
 20
5.6340520576
 11
4.162035293
 21
5.6469416413
  0
LINE
  5
276
100
AcDbEntity
  8
03__ASM_ALL_CURVES
100
AcDbLine
 62
40
  6
CONTINUOUS
 10
4.3263774805
 20
5.6340520576
 11
4.336044668
 21
5.6984999727
  0
LINE
  5
277
100
AcDbEntity
  8
03__ASM_ALL_CURVES
100
AcDbLine
 62
40
  6
CONTINUOUS
 10
4.452050918
 20
5.6727208076
 11
4.4423837305
 21
5.6340520576
  0
LINE
  5
278
100
AcDbEntity
  8
03__ASM_ALL_CURVES
100
AcDbLine
 62
40
  6
CONTINUOUS
 10
7.2215966399
 20
2.7856078076
 11
7.2070958587
 21
2.7856078076
  0
LINE
  5
279
100
AcDbEntity
  8
03__ASM_ALL_CURVES
100
AcDbLine
 62
40
  6
CONTINUOUS
 10
7.5333634368
 20
2.7856078076
 11
7.5913665618
 21
2.7856078076
  0
LINE
  5
27A
100
AcDbEntity
  8
03__ASM_ALL_CURVES
100
AcDbLine
 62
40
  6
CONTINUOUS
 10
3.427329043
 20
5.7629478879
 11
3.4369962305
 21
5.7371687273
  0
LINE
  5
27B
100
AcDbEntity
  8
03__ASM_ALL_CURVES
100
AcDbLine
 62
40
  6
CONTINUOUS
 10
3.524000918
 20
5.659831225
 11
3.5143337305
 21
5.6856103925
  0
LINE
  5
27C
100
AcDbEntity
  8
03__ASM_ALL_CURVES
100
AcDbLine
 62
40
  6
CONTINUOUS
 10
3.582004043
 20
5.7113895576
 11
3.5916712305
 21
5.6856103925
  0
LINE
  5
27D
100
AcDbEntity
  8
03__ASM_ALL_CURVES
100
AcDbLine
 62
40
  6
CONTINUOUS
 10
3.6883431055
 20
5.6984999727
 11
3.698010293
 21
5.659831225
  0
LINE
  5
27E
100
AcDbEntity
  8
03__ASM_ALL_CURVES
100
AcDbLine
 62
40
  6
CONTINUOUS
 10
4.5197212305
 20
5.7629478879
 11
4.5197212305
 21
5.7371687273
  0
LINE
  5
27F
100
AcDbEntity
  8
03__ASM_ALL_CURVES
100
AcDbLine
 62
40
  6
CONTINUOUS
 10
4.6550618555
 20
5.6984999727
 11
4.645394668
 21
5.659831225
  0
LINE
  5
280
100
AcDbEntity
  8
0
100
AcDbLine
 62
7
  6
CONTINUOUS
 10
4.9213524805
 20
5.3061140576
 11
4.8598646769
 21
5.1996140576
  0
LINE
  5
281
100
AcDbEntity
  8
03__ASM_ALL_CURVES
100
AcDbLine
 62
40
  6
CONTINUOUS
 10
5.8041746663
 20
5.7758374773
 11
5.8235090413
 21
5.7887270576
  0
LINE
  5
282
100
AcDbEntity
  8
03__ASM_ALL_CURVES
100
AcDbLine
 62
40
  6
CONTINUOUS
 10
7.3376028899
 20
2.8436109326
 11
7.3013509368
 21
2.8436109326
  0
LINE
  5
283
100
AcDbEntity
  8
03__ASM_ALL_CURVES
100
AcDbLine
 62
40
  6
CONTINUOUS
 10
7.1055903899
 20
2.8436109326
 11
7.0693384368
 21
2.8436109326
  0
LINE
  5
284
100
AcDbEntity
  8
03__ASM_ALL_CURVES
100
AcDbLine
 62
40
  6
CONTINUOUS
 10
7.0693384368
 20
2.9016140576
 11
7.1055903899
 21
2.9016140576
  0
LINE
  5
285
100
AcDbEntity
  8
03__ASM_ALL_CURVES
100
AcDbLine
 62
40
  6
CONTINUOUS
 10
7.2070958587
 20
2.9016140576
 11
7.2215966399
 21
2.9016140576
  0
LINE
  5
286
100
AcDbEntity
  8
03__ASM_ALL_CURVES
100
AcDbLine
 62
40
  6
CONTINUOUS
 10
7.3013509368
 20
2.9016140576
 11
7.3376028899
 21
2.9016140576
  0
LINE
  5
287
100
AcDbEntity
  8
03__ASM_ALL_CURVES
100
AcDbLine
 62
40
  6
CONTINUOUS
 10
7.4101067962
 20
2.9016140576
 11
7.4826107024
 21
2.9016140576
  0
LINE
  5
288
100
AcDbEntity
  8
03__ASM_ALL_CURVES
100
AcDbLine
 62
40
  6
CONTINUOUS
 10
7.5551146087
 20
2.9016140576
 11
7.5696153899
 21
2.9016140576
  0
LINE
  5
289
100
AcDbEntity
  8
03__ASM_ALL_CURVES
100
AcDbLine
 62
40
  6
CONTINUOUS
 10
3.059975918
 20
5.6469416413
 11
3.0503087305
 21
5.659831225
  0
LINE
  5
28A
100
AcDbEntity
  8
03__ASM_ALL_CURVES
100
AcDbLine
 62
40
  6
CONTINUOUS
 10
3.117979043
 20
5.7113895576
 11
3.137313418
 21
5.6856103925
  0
LINE
  5
28B
100
AcDbEntity
  8
03__ASM_ALL_CURVES
100
AcDbLine
 62
40
  6
CONTINUOUS
 10
3.117979043
 20
5.7758374773
 11
3.1276462305
 21
5.7629478879
  0
LINE
  5
28C
100
AcDbEntity
  8
03__ASM_ALL_CURVES
100
AcDbLine
 62
40
  6
CONTINUOUS
 10
3.233985293
 20
5.6469416413
 11
3.2436524805
 21
5.6340520576
  0
LINE
  5
28D
100
AcDbEntity
  8
0
100
AcDbLine
 62
7
  6
CONTINUOUS
 10
4.9213524805
 20
3.2471140576
 11
4.8598646769
 21
3.3536140576
  0
LINE
  5
28E
100
AcDbEntity
  8
03__ASM_ALL_CURVES
100
AcDbLine
 62
40
  6
CONTINUOUS
 10
4.6550618555
 20
5.7242791379
 11
4.6550618555
 21
5.6984999727
  0
LINE
  5
28F
100
AcDbEntity
  8
03__ASM_ALL_CURVES
100
AcDbLine
 62
40
  6
CONTINUOUS
 10
5.9588496663
 20
5.7758374773
 11
5.9781840413
 21
5.7887270576
  0
LINE
  5
290
100
AcDbEntity
  8
03__ASM_ALL_CURVES
100
AcDbLine
 62
40
  6
CONTINUOUS
 10
5.8621777913
 20
5.6469416413
 11
5.8428434163
 21
5.6340520576
  0
LINE
  5
291
100
AcDbEntity
  8
03__ASM_ALL_CURVES
100
AcDbLine
 62
40
  6
CONTINUOUS
 10
6.0168527913
 20
5.6469416413
 11
5.9975184163
 21
5.6340520576
  0
LINE
  5
292
100
AcDbEntity
  8
0
100
AcDbLine
 62
7
  6
CONTINUOUS
 10
5.3923524805
 20
3.2471140576
 11
4.9213524805
 21
3.2471140576
  0
LINE
  5
293
100
AcDbEntity
  8
03__ASM_ALL_CURVES
100
AcDbLine
 62
40
  6
CONTINUOUS
 10
3.3789931055
 20
5.6469416413
 11
3.369325918
 21
5.659831225
  0
LINE
  5
294
100
AcDbEntity
  8
03__ASM_ALL_CURVES
100
AcDbLine
 62
40
  6
CONTINUOUS
 10
3.4176618555
 20
5.7758374773
 11
3.427329043
 21
5.7629478879
  0
LINE
  5
295
100
AcDbEntity
  8
03__ASM_ALL_CURVES
100
AcDbLine
 62
40
  6
CONTINUOUS
 10
3.5336681055
 20
5.6469416413
 11
3.524000918
 21
5.659831225
  0
LINE
  5
296
100
AcDbEntity
  8
0
100
AcDbLine
 62
7
  6
CONTINUOUS
 10
4.8598646769
 20
3.3536140576
 11
4.8598646769
 21
5.1996140576
  0
LINE
  5
297
100
AcDbEntity
  8
0
100
AcDbLine
 62
7
  6
CONTINUOUS
 10
4.9213524805
 20
3.2471140576
 11
4.9213524805
 21
5.3061140576
  0
LINE
  5
298
100
AcDbEntity
  8
03__ASM_ALL_CURVES
100
AcDbLine
 62
40
  6
CONTINUOUS
 10
5.7848402913
 20
5.7500583076
 11
5.8041746663
 21
5.7758374773
  0
LINE
  5
299
100
AcDbEntity
  8
03__ASM_ALL_CURVES
100
AcDbLine
 62
40
  6
CONTINUOUS
 10
5.8815121663
 20
5.6727208076
 11
5.8621777913
 21
5.6469416413
  0
LINE
  5
29A
100
AcDbEntity
  8
03__ASM_ALL_CURVES
100
AcDbLine
 62
40
  6
CONTINUOUS
 10
5.9395152913
 20
5.7500583076
 11
5.9588496663
 21
5.7758374773
  0
LINE
  5
29B
100
AcDbEntity
  8
03__ASM_ALL_CURVES
100
AcDbLine
 62
40
  6
CONTINUOUS
 10
6.7322246663
 20
5.7758374773
 11
6.7515590413
 21
5.7887270576
  0
LINE
  5
29C
100
AcDbEntity
  8
0
100
AcDbLine
 62
7
  6
CONTINUOUS
 10
5.5423524805
 20
3.3226140576
 11
5.5923524805
 21
3.3226140576
  0
LINE
  5
29D
100
AcDbEntity
  8
THREAD
100
AcDbLine
 62
7
  6
CONTINUOUS
 10
5.4393524805
 20
3.3231140576
 11
5.3923524805
 21
3.3231140576
  0
LINE
  5
29E
100
AcDbEntity
  8
THREAD
100
AcDbLine
 62
7
  6
CONTINUOUS
 10
6.1688524805
 20
3.3351140576
 11
5.6423746945
 21
3.3351140576
  0
LINE
  5
29F
100
AcDbEntity
  8
0
100
AcDbLine
 62
7
  6
CONTINUOUS
 10
4.8598646769
 20
3.3536140576
 11
3.8923251118
 21
3.3536140576
  0
LINE
  5
2A0
100
AcDbEntity
  8
0
100
AcDbLine
 62
7
  6
CONTINUOUS
 10
4.8598646769
 20
3.354009399
 11
3.8923251118
 21
3.354009399
  0
LINE
  5
2A1
100
AcDbEntity
  8
0
100
AcDbLine
 62
7
  6
CONTINUOUS
 10
8.1763524805
 20
3.4651140576
 11
8.2263524805
 21
3.4651140576
  0
LINE
  5
2A2
100
AcDbEntity
  8
0
100
AcDbLine
 62
7
  6
CONTINUOUS
 10
8.3293524805
 20
3.4651140576
 11
8.3793524805
 21
3.4651140576
  0
LINE
  5
2A3
100
AcDbEntity
  8
THREAD
100
AcDbLine
 62
7
  6
CONTINUOUS
 10
8.4883524805
 20
3.4656140576
 11
8.4193524805
 21
3.4656140576
  0
LINE
  5
2A4
100
AcDbEntity
  8
THREAD
100
AcDbLine
 62
7
  6
CONTINUOUS
 10
8.1763524805
 20
3.4656140576
 11
8.0823524805
 21
3.4656140576
  0
LINE
  5
2A5
100
AcDbEntity
  8
0
100
AcDbLine
 62
7
  6
CONTINUOUS
 10
6.8633524805
 20
3.4956140576
 11
6.8493524805
 21
3.4956140576
  0
LINE
  5
2A6
100
AcDbEntity
  8
0
100
AcDbLine
 62
7
  6
CONTINUOUS
 10
6.5843524805
 20
3.4956140576
 11
6.3293524805
 21
3.4956140576
  0
LINE
  5
2A7
100
AcDbEntity
  8
0
100
AcDbLine
 62
7
  6
CONTINUOUS
 10
3.0763524805
 20
3.4956140576
 11
3.8253524805
 21
3.4956140576
  0
LINE
  5
2A8
100
AcDbEntity
  8
0
100
AcDbLine
 62
7
  6
CONTINUOUS
 10
8.0823524805
 20
3.5266140576
 11
6.8943524805
 21
3.5266140576
  0
LINE
  5
2A9
100
AcDbEntity
  8
0
100
AcDbLine
 62
7
  6
CONTINUOUS
 10
8.4193524805
 20
3.5531140576
 11
8.3793524805
 21
3.5531140576
  0
LINE
  5
2AA
100
AcDbEntity
  8
03__ASM_ALL_CURVES
100
AcDbLine
 62
40
  6
CONTINUOUS
 10
3.5723368555
 20
5.7758374773
 11
3.582004043
 21
5.7629478879
  0
LINE
  5
2AB
100
AcDbEntity
  8
03__ASM_ALL_CURVES
100
AcDbLine
 62
40
  6
CONTINUOUS
 10
3.698010293
 20
5.659831225
 11
3.717344668
 21
5.6340520576
  0
LINE
  5
2AC
100
AcDbEntity
  8
03__ASM_ALL_CURVES
100
AcDbLine
 62
40
  6
CONTINUOUS
 10
4.645394668
 20
5.7629478879
 11
4.6550618555
 21
5.7242791379
  0
LINE
  5
2AD
100
AcDbEntity
  8
03__ASM_ALL_CURVES
100
AcDbLine
 62
40
  6
CONTINUOUS
 10
5.2067424805
 20
5.6031170576
 11
5.2067424805
 21
5.5412470576
  0
LINE
  5
2AE
100
AcDbEntity
  8
THREAD
100
AcDbLine
 62
7
  6
CONTINUOUS
 10
5.6423746945
 20
5.2181140576
 11
5.6123524805
 21
5.1661140576
  0
LINE
  5
2AF
100
AcDbEntity
  8
03__ASM_ALL_CURVES
100
AcDbLine
 62
40
  6
CONTINUOUS
 10
6.0265199788
 20
5.659831225
 11
6.0168527913
 21
5.6469416413
  0
LINE
  5
2B0
100
AcDbEntity
  8
03__ASM_ALL_CURVES
100
AcDbLine
 62
40
  6
CONTINUOUS
 10
6.7902277913
 20
5.6469416413
 11
6.7708934163
 21
5.6340520576
  0
LINE
  5
2B1
100
AcDbEntity
  8
03__ASM_ALL_CURVES
100
AcDbLine
 62
40
  6
CONTINUOUS
 10
7.0609090413
 20
5.7887270576
 11
7.0415746663
 21
5.7758374773
  0
LINE
  5
2B2
100
AcDbEntity
  8
0
100
AcDbLine
 62
7
  6
CONTINUOUS
 10
4.8598646769
 20
3.7919187161
 11
3.8923251118
 21
3.7919187161
  0
LINE
  5
2B3
100
AcDbEntity
  8
03__ASM_ALL_CURVES
100
AcDbLine
 62
40
  6
CONTINUOUS
 10
4.162035293
 20
5.6469416413
 11
4.1717024805
 21
5.6340520576
  0
LINE
  5
2B4
100
AcDbEntity
  8
THREAD
100
AcDbLine
 62
7
  6
CONTINUOUS
 10
5.6423746945
 20
3.3351140576
 11
5.6123524805
 21
3.3871140576
  0
LINE
  5
2B5
100
AcDbEntity
  8
0
100
AcDbLine
 62
7
  6
CONTINUOUS
 10
5.3923524805
 20
3.2471140576
 11
5.3923524805
 21
5.3061140576
  0
LINE
  5
2B6
100
AcDbEntity
  8
03__ASM_ALL_CURVES
100
AcDbLine
 62
40
  6
CONTINUOUS
 10
5.3923524805
 20
5.3370490576
 11
5.3923524805
 21
5.6340520576
  0
LINE
  5
2B7
100
AcDbEntity
  8
THREAD
100
AcDbLine
 62
7
  6
CONTINUOUS
 10
5.4393524805
 20
3.3231140576
 11
5.4393524805
 21
5.2301140576
  0
LINE
  5
2B8
100
AcDbEntity
  8
0
100
AcDbLine
 62
7
  6
CONTINUOUS
 10
5.5423524805
 20
3.3226140576
 11
5.5423524805
 21
5.2306140576
  0
LINE
  5
2B9
100
AcDbEntity
  8
03__ASM_ALL_CURVES
100
AcDbLine
 62
40
  6
CONTINUOUS
 10
5.5779624805
 20
5.6031170576
 11
5.5779624805
 21
5.5412470576
  0
LINE
  5
2BA
100
AcDbEntity
  8
03__ASM_ALL_CURVES
100
AcDbLine
 62
40
  6
CONTINUOUS
 10
5.7751731038
 20
5.7113895576
 11
5.7848402913
 21
5.7500583076
  0
LINE
  5
2BB
100
AcDbEntity
  8
03__ASM_ALL_CURVES
100
AcDbLine
 62
40
  6
CONTINUOUS
 10
5.8911793538
 20
5.7113895576
 11
5.8815121663
 21
5.6727208076
  0
LINE
  5
2BC
100
AcDbEntity
  8
03__ASM_ALL_CURVES
100
AcDbLine
 62
40
  6
CONTINUOUS
 10
5.9298481038
 20
5.7113895576
 11
5.9395152913
 21
5.7500583076
  0
LINE
  5
2BD
100
AcDbEntity
  8
03__ASM_ALL_CURVES
100
AcDbLine
 62
40
  6
CONTINUOUS
 10
7.0995777913
 20
5.6469416413
 11
7.0802434163
 21
5.6340520576
  0
LINE
  5
2BE
100
AcDbEntity
  8
03__ASM_ALL_CURVES
100
AcDbLine
 62
40
  6
CONTINUOUS
 10
7.3509246663
 20
5.7758374773
 11
7.3702590413
 21
5.7887270576
  0
LINE
  5
2BF
100
AcDbEntity
  8
03__ASM_ALL_CURVES
100
AcDbLine
 62
40
  6
CONTINUOUS
 10
7.4089277913
 20
5.6469416413
 11
7.3895934163
 21
5.6340520576
  0
LINE
  5
2C0
100
AcDbEntity
  8
0
100
AcDbLine
 62
7
  6
CONTINUOUS
 10
4.8598646769
 20
3.8387047405
 11
3.8923251118
 21
3.8387047405
  0
LINE
  5
2C1
100
AcDbEntity
  8
0
100
AcDbLine
 62
7
  6
CONTINUOUS
 10
2.8073524806
 20
3.9956140576
 11
2.9775762022
 21
3.9956140576
  0
LINE
  5
2C2
100
AcDbEntity
  8
0
100
AcDbLine
 62
7
  6
CONTINUOUS
 10
3.0143524805
 20
4.0056140576
 11
2.9833524805
 21
4.0056140576
  0
LINE
  5
2C3
100
AcDbEntity
  8
0
100
AcDbLine
 62
7
  6
CONTINUOUS
 10
2.7703524805
 20
4.0056140576
 11
2.7643524805
 21
4.0056140576
  0
LINE
  5
2C4
100
AcDbEntity
  8
0
100
AcDbLine
 62
7
  6
CONTINUOUS
 10
2.7918524805
 20
4.0111140576
 11
2.7758524805
 21
4.0111140576
  0
LINE
  5
2C5
100
AcDbEntity
  8
03__ASM_ALL_CURVES
100
AcDbLine
 62
40
  6
CONTINUOUS
 10
7.2070958587
 20
2.7856078076
 11
7.1925950774
 21
2.7952749954
  0
LINE
  5
2C6
100
AcDbEntity
  8
03__ASM_ALL_CURVES
100
AcDbLine
 62
40
  6
CONTINUOUS
 10
7.1055903899
 20
2.9016140576
 11
7.1200911712
 21
2.8919468724
  0
LINE
  5
2C7
100
AcDbEntity
  8
03__ASM_ALL_CURVES
100
AcDbLine
 62
40
  6
CONTINUOUS
 10
3.079310293
 20
5.6340520576
 11
3.059975918
 21
5.6469416413
  0
LINE
  5
2C8
100
AcDbEntity
  8
03__ASM_ALL_CURVES
100
AcDbLine
 62
40
  6
CONTINUOUS
 10
7.2215966399
 20
2.9016140576
 11
7.2360974212
 21
2.8919468724
  0
LINE
  5
2C9
100
AcDbEntity
  8
03__ASM_ALL_CURVES
100
AcDbLine
 62
40
  6
CONTINUOUS
 10
3.098644668
 20
5.7242791379
 11
3.117979043
 21
5.7113895576
  0
LINE
  5
2CA
100
AcDbEntity
  8
03__ASM_ALL_CURVES
100
AcDbLine
 62
40
  6
CONTINUOUS
 10
7.3376028899
 20
2.9016140576
 11
7.3521036712
 21
2.8919468724
  0
LINE
  5
2CB
100
AcDbEntity
  8
03__ASM_ALL_CURVES
100
AcDbLine
 62
40
  6
CONTINUOUS
 10
3.098644668
 20
5.7887270576
 11
3.117979043
 21
5.7758374773
  0
LINE
  5
2CC
100
AcDbEntity
  8
0
100
AcDbLine
 62
7
  6
CONTINUOUS
 10
5.5923524805
 20
3.3226140576
 11
5.5923524805
 21
5.2306140576
  0
LINE
  5
2CD
100
AcDbEntity
  8
0
100
AcDbLine
 62
7
  6
CONTINUOUS
 10
5.6123524805
 20
3.3871140576
 11
5.6123524805
 21
5.1661140576
  0
LINE
  5
2CE
100
AcDbEntity
  8
03__ASM_ALL_CURVES
100
AcDbLine
 62
40
  6
CONTINUOUS
 10
5.6398324788
 20
5.7887270576
 11
5.6398324788
 21
5.6340520576
  0
LINE
  5
2CF
100
AcDbEntity
  8
THREAD
100
AcDbLine
 62
7
  6
CONTINUOUS
 10
5.6423746945
 20
3.3351140576
 11
5.6423746945
 21
5.2181140576
  0
LINE
  5
2D0
100
AcDbEntity
  8
03__ASM_ALL_CURVES
100
AcDbLine
 62
40
  6
CONTINUOUS
 10
6.0941902913
 20
5.6340520576
 11
6.1425262288
 21
5.7887270576
  0
LINE
  5
2D1
100
AcDbEntity
  8
03__ASM_ALL_CURVES
100
AcDbLine
 62
40
  6
CONTINUOUS
 10
6.7128902913
 20
5.7500583076
 11
6.7322246663
 21
5.7758374773
  0
LINE
  5
2D2
100
AcDbEntity
  8
03__ASM_ALL_CURVES
100
AcDbLine
 62
40
  6
CONTINUOUS
 10
6.7998949788
 20
5.659831225
 11
6.7902277913
 21
5.6469416413
  0
LINE
  5
2D3
100
AcDbEntity
  8
03__ASM_ALL_CURVES
100
AcDbLine
 62
40
  6
CONTINUOUS
 10
7.5636027913
 20
5.6469416413
 11
7.5442684163
 21
5.6340520576
  0
LINE
  5
2D4
100
AcDbEntity
  8
03__ASM_ALL_CURVES
100
AcDbLine
 62
40
  6
CONTINUOUS
 10
7.8632856038
 20
5.6469416413
 11
7.8439512288
 21
5.6340520576
  0
LINE
  5
2D5
100
AcDbEntity
  8
0
100
AcDbLine
 62
7
  6
CONTINUOUS
 10
2.7023524805
 20
4.0891140576
 11
2.3633524805
 21
4.0891140576
  0
LINE
  5
2D6
100
AcDbEntity
  8
0
100
AcDbLine
 62
7
  6
CONTINUOUS
 10
2.9524810701
 20
4.2766140576
 11
2.8508233318
 21
4.2766140576
  0
LINE
  5
2D7
100
AcDbEntity
  8
03__ASM_ALL_CURVES
100
AcDbLine
 62
40
  6
CONTINUOUS
 10
8.9296106842
 20
4.3075490576
 11
8.915109903
 21
4.3075490576
  0
LINE
  5
2D8
100
AcDbEntity
  8
03__ASM_ALL_CURVES
100
AcDbLine
 62
40
  6
CONTINUOUS
 10
3.3983274805
 20
5.6340520576
 11
3.3789931055
 21
5.6469416413
  0
LINE
  5
2D9
100
AcDbEntity
  8
03__ASM_ALL_CURVES
100
AcDbLine
 62
40
  6
CONTINUOUS
 10
7.5696153899
 20
2.9016140576
 11
7.5841161712
 21
2.8919468724
  0
LINE
  5
2DA
100
AcDbEntity
  8
03__ASM_ALL_CURVES
100
AcDbLine
 62
40
  6
CONTINUOUS
 10
3.5530024805
 20
5.6340520576
 11
3.5336681055
 21
5.6469416413
  0
LINE
  5
2DB
100
AcDbEntity
  8
03__ASM_ALL_CURVES
100
AcDbLine
 62
40
  6
CONTINUOUS
 10
3.3983274805
 20
5.7887270576
 11
3.4176618555
 21
5.7758374773
  0
LINE
  5
2DC
100
AcDbEntity
  8
03__ASM_ALL_CURVES
100
AcDbLine
 62
40
  6
CONTINUOUS
 10
3.5530024805
 20
5.7887270576
 11
3.5723368555
 21
5.7758374773
  0
LINE
  5
2DD
100
AcDbEntity
  8
03__ASM_ALL_CURVES
100
AcDbLine
 62
40
  6
CONTINUOUS
 10
4.510054043
 20
5.7758374773
 11
4.5197212305
 21
5.7629478879
  0
LINE
  5
2DE
100
AcDbEntity
  8
03__ASM_ALL_CURVES
100
AcDbLine
 62
40
  6
CONTINUOUS
 10
4.626060293
 20
5.7887270576
 11
4.645394668
 21
5.7629478879
  0
LINE
  5
2DF
100
AcDbEntity
  8
03__ASM_ALL_CURVES
100
AcDbLine
 62
40
  6
CONTINUOUS
 10
7.0415746663
 20
5.7758374773
 11
7.0319074788
 21
5.7629478879
  0
LINE
  5
2E0
100
AcDbEntity
  8
03__ASM_ALL_CURVES
100
AcDbLine
 62
40
  6
CONTINUOUS
 10
7.1092449788
 20
5.659831225
 11
7.0995777913
 21
5.6469416413
  0
LINE
  5
2E1
100
AcDbEntity
  8
03__ASM_ALL_CURVES
100
AcDbLine
 62
40
  6
CONTINUOUS
 10
8.1823027913
 20
5.7242791379
 11
8.1629684163
 21
5.7113895576
  0
LINE
  5
2E2
100
AcDbEntity
  8
03__ASM_ALL_CURVES
100
AcDbLine
 62
40
  6
CONTINUOUS
 10
9.0456169342
 20
4.3655521826
 11
9.0093649811
 21
4.3655521826
  0
LINE
  5
2E3
100
AcDbEntity
  8
03__ASM_ALL_CURVES
100
AcDbLine
 62
40
  6
CONTINUOUS
 10
8.8136044342
 20
4.3655521826
 11
8.7773524811
 21
4.3655521826
  0
LINE
  5
2E4
100
AcDbEntity
  8
03__ASM_ALL_CURVES
100
AcDbLine
 62
40
  6
CONTINUOUS
 10
8.7773524811
 20
4.4235553076
 11
8.8136044342
 21
4.4235553076
  0
LINE
  5
2E5
100
AcDbEntity
  8
03__ASM_ALL_CURVES
100
AcDbLine
 62
40
  6
CONTINUOUS
 10
8.915109903
 20
4.4235553076
 11
8.9296106842
 21
4.4235553076
  0
LINE
  5
2E6
100
AcDbEntity
  8
03__ASM_ALL_CURVES
100
AcDbLine
 62
40
  6
CONTINUOUS
 10
9.0093649811
 20
4.4235553076
 11
9.0456169342
 21
4.4235553076
  0
LINE
  5
2E7
100
AcDbEntity
  8
03__ASM_ALL_CURVES
100
AcDbLine
 62
40
  6
CONTINUOUS
 10
9.1181208405
 20
4.4235553076
 11
9.1906247467
 21
4.4235553076
  0
LINE
  5
2E8
100
AcDbEntity
  8
0
100
AcDbLine
 62
7
  6
CONTINUOUS
 10
2.7023524805
 20
4.4641140576
 11
2.3633524805
 21
4.4641140576
  0
LINE
  5
2E9
100
AcDbEntity
  8
0
100
AcDbLine
 62
7
  6
CONTINUOUS
 10
2.7918524805
 20
4.5421140576
 11
2.7758524805
 21
4.5421140576
  0
LINE
  5
2EA
100
AcDbEntity
  8
0
100
AcDbLine
 62
7
  6
CONTINUOUS
 10
3.0143524805
 20
4.5476140576
 11
2.9833524805
 21
4.5476140576
  0
LINE
  5
2EB
100
AcDbEntity
  8
0
100
AcDbLine
 62
7
  6
CONTINUOUS
 10
2.7703524805
 20
4.5476140576
 11
2.7643524805
 21
4.5476140576
  0
LINE
  5
2EC
100
AcDbEntity
  8
0
100
AcDbLine
 62
7
  6
CONTINUOUS
 10
2.8073524806
 20
4.5576140576
 11
2.9775762022
 21
4.5576140576
  0
LINE
  5
2ED
100
AcDbEntity
  8
03__ASM_ALL_CURVES
100
AcDbLine
 62
40
  6
CONTINUOUS
 10
7.1925950774
 20
2.7952749954
 11
7.1780942962
 21
2.8146093701
  0
LINE
  5
2EE
100
AcDbEntity
  8
03__ASM_ALL_CURVES
100
AcDbLine
 62
40
  6
CONTINUOUS
 10
7.1200911712
 20
2.8919468724
 11
7.1273415618
 21
2.8822796803
  0
LINE
  5
2EF
100
AcDbEntity
  8
THREAD
100
AcDbLine
 62
7
  6
CONTINUOUS
 10
6.1688524805
 20
3.3351140576
 11
6.1688524805
 21
5.2181140576
  0
LINE
  5
2F0
100
AcDbEntity
  8
03__ASM_ALL_CURVES
100
AcDbLine
 62
40
  6
CONTINUOUS
 10
6.2972012288
 20
5.7887270576
 11
6.2972012288
 21
5.6340520576
  0
LINE
  5
2F1
100
AcDbEntity
  8
0
100
AcDbLine
 62
7
  6
CONTINUOUS
 10
6.3293524805
 20
3.4956140576
 11
6.3293524805
 21
5.0576140576
  0
LINE
  5
2F2
100
AcDbEntity
  8
03__ASM_ALL_CURVES
100
AcDbLine
 62
40
  6
CONTINUOUS
 10
6.7032231038
 20
5.7113895576
 11
6.7128902913
 21
5.7500583076
  0
LINE
  5
2F3
100
AcDbEntity
  8
03__ASM_ALL_CURVES
100
AcDbLine
 62
40
  6
CONTINUOUS
 10
7.3315902913
 20
5.7500583076
 11
7.3509246663
 21
5.7758374773
  0
LINE
  5
2F4
100
AcDbEntity
  8
03__ASM_ALL_CURVES
100
AcDbLine
 62
40
  6
CONTINUOUS
 10
7.4282621663
 20
5.6727208076
 11
7.4089277913
 21
5.6469416413
  0
LINE
  5
2F5
100
AcDbEntity
  8
0
100
AcDbLine
 62
7
  6
CONTINUOUS
 10
4.8598646769
 20
4.7145233747
 11
3.8923251118
 21
4.7145233747
  0
LINE
  5
2F6
100
AcDbEntity
  8
0
100
AcDbLine
 62
7
  6
CONTINUOUS
 10
4.8598646769
 20
4.761309399
 11
3.8923251118
 21
4.761309399
  0
LINE
  5
2F7
100
AcDbEntity
  8
03__ASM_ALL_CURVES
100
AcDbLine
 62
40
  6
CONTINUOUS
 10
3.5530024805
 20
5.7242791379
 11
3.582004043
 21
5.7113895576
  0
LINE
  5
2F8
100
AcDbEntity
  8
03__ASM_ALL_CURVES
100
AcDbLine
 62
40
  6
CONTINUOUS
 10
4.490719668
 20
5.7887270576
 11
4.510054043
 21
5.7758374773
  0
LINE
  5
2F9
100
AcDbEntity
  8
03__ASM_ALL_CURVES
100
AcDbLine
 62
40
  6
CONTINUOUS
 10
7.2360974212
 20
2.8919468724
 11
7.2505982024
 21
2.8726124951
  0
LINE
  5
2FA
100
AcDbEntity
  8
03__ASM_ALL_CURVES
100
AcDbLine
 62
40
  6
CONTINUOUS
 10
7.3521036712
 20
2.8919468724
 11
7.3593540618
 21
2.8822796803
  0
LINE
  5
2FB
100
AcDbEntity
  8
03__ASM_ALL_CURVES
100
AcDbLine
 62
40
  6
CONTINUOUS
 10
5.7848402913
 20
5.6727208076
 11
5.7751731038
 21
5.7113895576
  0
LINE
  5
2FC
100
AcDbEntity
  8
03__ASM_ALL_CURVES
100
AcDbLine
 62
40
  6
CONTINUOUS
 10
5.8815121663
 20
5.7500583076
 11
5.8911793538
 21
5.7113895576
  0
LINE
  5
2FD
100
AcDbEntity
  8
03__ASM_ALL_CURVES
100
AcDbLine
 62
40
  6
CONTINUOUS
 10
5.9395152913
 20
5.6727208076
 11
5.9298481038
 21
5.7113895576
  0
LINE
  5
2FE
100
AcDbEntity
  8
0
100
AcDbLine
 62
7
  6
CONTINUOUS
 10
6.4283524805
 20
3.8068267021
 11
6.4283524805
 21
3.8679724801
  0
LINE
  5
2FF
100
AcDbEntity
  8
0
100
AcDbLine
 62
7
  6
CONTINUOUS
 10
6.4283524805
 20
4.6856846319
 11
6.4283524805
 21
4.74638966
  0
LINE
  5
300
100
AcDbEntity
  8
0
100
AcDbLine
 62
7
  6
CONTINUOUS
 10
6.4363524805
 20
4.7491890639
 11
6.4363524805
 21
4.6796440093
  0
LINE
  5
301
100
AcDbEntity
  8
0
100
AcDbLine
 62
7
  6
CONTINUOUS
 10
6.4363524805
 20
3.8040320919
 11
6.4363524805
 21
3.8737648981
  0
LINE
  5
302
100
AcDbEntity
  8
0
100
AcDbLine
 62
7
  6
CONTINUOUS
 10
6.4453524805
 20
4.7523383932
 11
6.4453524805
 21
4.6728483089
  0
LINE
  5
303
100
AcDbEntity
  8
0
100
AcDbLine
 62
7
  6
CONTINUOUS
 10
6.4453524805
 20
3.8008881555
 11
6.4453524805
 21
3.8802813683
  0
LINE
  5
304
100
AcDbEntity
  8
03__ASM_ALL_CURVES
100
AcDbLine
 62
40
  6
CONTINUOUS
 10
6.4518762288
 20
5.7887270576
 11
6.4518762288
 21
5.6340520576
  0
LINE
  5
305
100
AcDbEntity
  8
0
100
AcDbLine
 62
7
  6
CONTINUOUS
 10
6.4523524805
 20
3.7984428716
 11
6.4523524805
 21
3.885349734
  0
LINE
  5
306
100
AcDbEntity
  8
0
100
AcDbLine
 62
7
  6
CONTINUOUS
 10
6.4523524805
 20
4.6675627641
 11
6.4523524805
 21
4.7547878716
  0
LINE
  5
307
100
AcDbEntity
  8
0
100
AcDbLine
 62
7
  6
CONTINUOUS
 10
6.5223524805
 20
3.7851164686
 11
6.5223524805
 21
3.917678358
  0
LINE
  5
308
100
AcDbEntity
  8
0
100
AcDbLine
 62
7
  6
CONTINUOUS
 10
6.5223524805
 20
4.6356611967
 11
6.5223524805
 21
4.7681108913
  0
LINE
  5
309
100
AcDbEntity
  8
0
100
AcDbLine
 62
7
  6
CONTINUOUS
 10
6.5303524805
 20
4.7689480065
 11
6.5303524805
 21
4.63332002
  0
LINE
  5
30A
100
AcDbEntity
  8
0
100
AcDbLine
 62
7
  6
CONTINUOUS
 10
6.5303524805
 20
3.78428023
 11
6.5303524805
 21
3.9199417349
  0
LINE
  5
30B
100
AcDbEntity
  8
0
100
AcDbLine
 62
7
  6
CONTINUOUS
 10
6.5393524805
 20
4.7698897612
 11
6.5393524805
 21
4.6306861961
  0
LINE
  5
30C
100
AcDbEntity
  8
0
100
AcDbLine
 62
7
  6
CONTINUOUS
 10
6.5393524805
 20
3.7833394617
 11
6.5393524805
 21
3.922488034
  0
LINE
  5
30D
100
AcDbEntity
  8
0
100
AcDbLine
 62
7
  6
CONTINUOUS
 10
6.5463524805
 20
3.7826077529
 11
6.5463524805
 21
3.9244684888
  0
LINE
  5
30E
100
AcDbEntity
  8
0
100
AcDbLine
 62
7
  6
CONTINUOUS
 10
6.5463524805
 20
4.6286376664
 11
6.5463524805
 21
4.770622237
  0
LINE
  5
30F
100
AcDbEntity
  8
03__ASM_ALL_CURVES
100
AcDbLine
 62
40
  6
CONTINUOUS
 10
6.5678824788
 20
5.6340520576
 11
6.5678824788
 21
5.7887270576
  0
LINE
  5
310
100
AcDbEntity
  8
03__ASM_ALL_CURVES
100
AcDbLine
 62
40
  6
CONTINUOUS
 10
7.5732699788
 20
5.659831225
 11
7.5636027913
 21
5.6469416413
  0
LINE
  5
311
100
AcDbEntity
  8
0
100
AcDbLine
 62
7
  6
CONTINUOUS
 10
8.4193524805
 20
5.0001140576
 11
8.3793524805
 21
5.0001140576
  0
LINE
  5
312
100
AcDbEntity
  8
0
100
AcDbLine
 62
7
  6
CONTINUOUS
 10
8.0823524805
 20
5.0266140576
 11
6.8943524805
 21
5.0266140576
  0
LINE
  5
313
100
AcDbEntity
  8
0
100
AcDbLine
 62
7
  6
CONTINUOUS
 10
6.8633524805
 20
5.0576140576
 11
6.8493524805
 21
5.0576140576
  0
LINE
  5
314
100
AcDbEntity
  8
0
100
AcDbLine
 62
7
  6
CONTINUOUS
 10
6.5843524805
 20
5.0576140576
 11
6.3293524805
 21
5.0576140576
  0
LINE
  5
315
100
AcDbEntity
  8
0
100
AcDbLine
 62
7
  6
CONTINUOUS
 10
3.0763524805
 20
5.0576140576
 11
3.8253524805
 21
5.0576140576
  0
LINE
  5
316
100
AcDbEntity
  8
03__ASM_ALL_CURVES
100
AcDbLine
 62
40
  6
CONTINUOUS
 10
2.5179624805
 20
5.5412470576
 11
2.3323524805
 21
5.5721820576
  0
LINE
  5
317
100
AcDbEntity
  8
03__ASM_ALL_CURVES
100
AcDbLine
 62
40
  6
CONTINUOUS
 10
7.5841161712
 20
2.8919468724
 11
7.5913665618
 21
2.8822796803
  0
LINE
  5
318
100
AcDbEntity
  8
03__ASM_ALL_CURVES
100
AcDbLine
 62
40
  6
CONTINUOUS
 10
6.1425262288
 20
5.7887270576
 11
6.1908621663
 21
5.6340520576
  0
LINE
  5
319
100
AcDbEntity
  8
0
100
AcDbLine
 62
7
  6
CONTINUOUS
 10
6.6163524805
 20
3.7811995979
 11
6.6163524805
 21
3.9285665245
  0
LINE
  5
31A
100
AcDbEntity
  8
0
100
AcDbLine
 62
7
  6
CONTINUOUS
 10
6.6163524805
 20
4.1917183774
 11
6.6163524805
 21
4.3615139372
  0
LINE
  5
31B
100
AcDbEntity
  8
0
100
AcDbLine
 62
7
  6
CONTINUOUS
 10
6.6163524805
 20
4.6246092733
 11
6.6163524805
 21
4.7720301894
  0
LINE
  5
31C
100
AcDbEntity
  8
0
100
AcDbLine
 62
7
  6
CONTINUOUS
 10
6.6243524805
 20
4.7717742381
 11
6.6243524805
 21
4.625352477
  0
LINE
  5
31D
100
AcDbEntity
  8
0
100
AcDbLine
 62
7
  6
CONTINUOUS
 10
6.6243524805
 20
3.781456336
 11
6.6243524805
 21
3.9277987008
  0
LINE
  5
31E
100
AcDbEntity
  8
0
100
AcDbLine
 62
7
  6
CONTINUOUS
 10
6.6243524805
 20
4.1826891415
 11
6.6243524805
 21
4.3705417332
  0
LINE
  5
31F
100
AcDbEntity
  8
0
100
AcDbLine
 62
7
  6
CONTINUOUS
 10
6.6333524805
 20
4.771486293
 11
6.6333524805
 21
4.6261885811
  0
LINE
  5
320
100
AcDbEntity
  8
0
100
AcDbLine
 62
7
  6
CONTINUOUS
 10
6.6333524805
 20
3.7817451663
 11
6.6333524805
 21
3.9269348992
  0
LINE
  5
321
100
AcDbEntity
  8
0
100
AcDbLine
 62
7
  6
CONTINUOUS
 10
6.6333524805
 20
4.1744136256
 11
6.6333524805
 21
4.378813081
  0
LINE
  5
322
100
AcDbEntity
  8
0
100
AcDbLine
 62
7
  6
CONTINUOUS
 10
6.6403524805
 20
3.7819698122
 11
6.6403524805
 21
3.9262630535
  0
LINE
  5
323
100
AcDbEntity
  8
0
100
AcDbLine
 62
7
  6
CONTINUOUS
 10
6.6403524805
 20
4.1695906453
 11
6.6403524805
 21
4.3836362609
  0
LINE
  5
324
100
AcDbEntity
  8
0
100
AcDbLine
 62
7
  6
CONTINUOUS
 10
6.6403524805
 20
4.6268388843
 11
6.6403524805
 21
4.7712623357
  0
LINE
  5
325
100
AcDbEntity
  8
03__ASM_ALL_CURVES
100
AcDbLine
 62
40
  6
CONTINUOUS
 10
6.6452199788
 20
5.6340520576
 11
6.6452199788
 21
5.7887270576
  0
LINE
  5
326
100
AcDbEntity
  8
0
100
AcDbLine
 62
7
  6
CONTINUOUS
 10
6.7103524805
 20
3.79006759
 11
6.7103524805
 21
3.9049718931
  0
LINE
  5
327
100
AcDbEntity
  8
0
100
AcDbLine
 62
7
  6
CONTINUOUS
 10
6.7103524805
 20
4.1448973457
 11
6.7103524805
 21
4.408330186
  0
LINE
  5
328
100
AcDbEntity
  8
0
100
AcDbLine
 62
7
  6
CONTINUOUS
 10
6.7103524805
 20
4.6483222307
 11
6.7103524805
 21
4.763158698
  0
LINE
  5
329
100
AcDbEntity
  8
0
100
AcDbLine
 62
7
  6
CONTINUOUS
 10
6.7183524805
 20
4.7615372933
 11
6.7183524805
 21
4.6522213258
  0
LINE
  5
32A
100
AcDbEntity
  8
0
100
AcDbLine
 62
7
  6
CONTINUOUS
 10
6.7183524805
 20
3.7916948727
 11
6.7183524805
 21
3.900927237
  0
LINE
  5
32B
100
AcDbEntity
  8
0
100
AcDbLine
 62
7
  6
CONTINUOUS
 10
6.7183524805
 20
4.1441140576
 11
6.7183524805
 21
4.4091140576
  0
LINE
  5
32C
100
AcDbEntity
  8
0
100
AcDbLine
 62
7
  6
CONTINUOUS
 10
6.7273524805
 20
4.759713213
 11
6.7273524805
 21
4.6566078078
  0
LINE
  5
32D
100
AcDbEntity
  8
0
100
AcDbLine
 62
7
  6
CONTINUOUS
 10
6.7273524805
 20
3.7935255657
 11
6.7273524805
 21
3.896376999
  0
LINE
  5
32E
100
AcDbEntity
  8
0
100
AcDbLine
 62
7
  6
CONTINUOUS
 10
6.7273524805
 20
4.1454943094
 11
6.7273524805
 21
4.4077591706
  0
LINE
  5
32F
100
AcDbEntity
  8
0
100
AcDbLine
 62
7
  6
CONTINUOUS
 10
6.7343524805
 20
3.7949494381
 11
6.7343524805
 21
3.892837925
  0
LINE
  5
330
100
AcDbEntity
  8
0
100
AcDbLine
 62
7
  6
CONTINUOUS
 10
6.7343524805
 20
4.1464144773
 11
6.7343524805
 21
4.4068559127
  0
LINE
  5
331
100
AcDbEntity
  8
0
100
AcDbLine
 62
7
  6
CONTINUOUS
 10
6.7343524805
 20
4.660019516
 11
6.7343524805
 21
4.7582944838
  0
LINE
  5
332
100
AcDbEntity
  8
03__ASM_ALL_CURVES
100
AcDbLine
 62
40
  6
CONTINUOUS
 10
6.7998949788
 20
5.7113895576
 11
6.7998949788
 21
5.659831225
  0
LINE
  5
333
100
AcDbEntity
  8
03__ASM_ALL_CURVES
100
AcDbLine
 62
40
  6
CONTINUOUS
 10
7.8826199788
 20
5.6727208076
 11
7.8632856038
 21
5.6469416413
  0
LINE
  5
334
100
AcDbEntity
  8
THREAD
100
AcDbLine
 62
7
  6
CONTINUOUS
 10
6.3293524805
 20
3.4956140576
 11
6.1688524805
 21
3.3351140576
  0
LINE
  5
335
100
AcDbEntity
  8
THREAD
100
AcDbLine
 62
7
  6
CONTINUOUS
 10
8.4883524805
 20
5.0876140576
 11
8.4193524805
 21
5.0876140576
  0
LINE
  5
336
100
AcDbEntity
  8
THREAD
100
AcDbLine
 62
7
  6
CONTINUOUS
 10
8.1763524805
 20
5.0876140576
 11
8.0823524805
 21
5.0876140576
  0
LINE
  5
337
100
AcDbEntity
  8
0
100
AcDbLine
 62
7
  6
CONTINUOUS
 10
8.1763524805
 20
5.0881140576
 11
8.2263524805
 21
5.0881140576
  0
LINE
  5
338
100
AcDbEntity
  8
0
100
AcDbLine
 62
7
  6
CONTINUOUS
 10
8.3293524805
 20
5.0881140576
 11
8.3793524805
 21
5.0881140576
  0
LINE
  5
339
100
AcDbEntity
  8
0
100
AcDbLine
 62
7
  6
CONTINUOUS
 10
4.8598646769
 20
5.1992187161
 11
3.8923251118
 21
5.1992187161
  0
LINE
  5
33A
100
AcDbEntity
  8
0
100
AcDbLine
 62
7
  6
CONTINUOUS
 10
4.8598646769
 20
5.1996140576
 11
3.8923251118
 21
5.1996140576
  0
LINE
  5
33B
100
AcDbEntity
  8
THREAD
100
AcDbLine
 62
7
  6
CONTINUOUS
 10
6.1688524805
 20
5.2181140576
 11
5.6423746945
 21
5.2181140576
  0
LINE
  5
33C
100
AcDbEntity
  8
THREAD
100
AcDbLine
 62
7
  6
CONTINUOUS
 10
5.4393524805
 20
5.2301140576
 11
5.3923524805
 21
5.2301140576
  0
LINE
  5
33D
100
AcDbEntity
  8
0
100
AcDbLine
 62
7
  6
CONTINUOUS
 10
5.5423524805
 20
5.2306140576
 11
5.5923524805
 21
5.2306140576
  0
LINE
  5
33E
100
AcDbEntity
  8
0
100
AcDbLine
 62
7
  6
CONTINUOUS
 10
5.3923524805
 20
5.3061140576
 11
4.9213524805
 21
5.3061140576
  0
LINE
  5
33F
100
AcDbEntity
  8
03__ASM_ALL_CURVES
100
AcDbLine
 62
40
  6
CONTINUOUS
 10
2.5179624805
 20
5.5567145576
 11
2.3323524805
 21
5.5721820576
  0
LINE
  5
340
100
AcDbEntity
  8
03__ASM_ALL_CURVES
100
AcDbLine
 62
40
  6
CONTINUOUS
 10
2.5179624805
 20
5.5515587243
 11
2.3323524805
 21
5.5721820576
  0
LINE
  5
341
100
AcDbEntity
  8
03__ASM_ALL_CURVES
100
AcDbLine
 62
40
  6
CONTINUOUS
 10
2.5179624805
 20
5.5464028909
 11
2.3323524805
 21
5.5721820576
  0
LINE
  5
342
100
AcDbEntity
  8
THREAD
100
AcDbLine
 62
7
  6
CONTINUOUS
 10
6.3293524805
 20
5.0576140576
 11
6.1688524805
 21
5.2181140576
  0
LINE
  5
343
100
AcDbEntity
  8
03__ASM_ALL_CURVES
100
AcDbLine
 62
40
  6
CONTINUOUS
 10
5.8041746663
 20
5.6469416413
 11
5.7848402913
 21
5.6727208076
  0
LINE
  5
344
100
AcDbEntity
  8
03__ASM_ALL_CURVES
100
AcDbLine
 62
40
  6
CONTINUOUS
 10
5.9588496663
 20
5.6469416413
 11
5.9395152913
 21
5.6727208076
  0
LINE
  5
345
100
AcDbEntity
  8
03__ASM_ALL_CURVES
100
AcDbLine
 62
40
  6
CONTINUOUS
 10
5.8621777913
 20
5.7758374773
 11
5.8815121663
 21
5.7500583076
  0
LINE
  5
346
100
AcDbEntity
  8
03__ASM_ALL_CURVES
100
AcDbLine
 62
40
  6
CONTINUOUS
 10
7.3376028899
 20
2.8436109326
 11
7.3593540618
 21
2.7856078076
  0
LINE
  5
347
100
AcDbEntity
  8
03__ASM_ALL_CURVES
100
AcDbLine
 62
40
  6
CONTINUOUS
 10
7.1780942962
 20
2.8146093701
 11
7.1708439056
 21
2.8436109326
  0
LINE
  5
348
100
AcDbEntity
  8
0
100
AcDbLine
 62
7
  6
CONTINUOUS
 10
6.8473524805
 20
4.2558502355
 11
6.8473524805
 21
4.2960967646
  0
LINE
  5
349
100
AcDbEntity
  8
0
100
AcDbLine
 62
7
  6
CONTINUOUS
 10
6.8633524805
 20
3.4956140576
 11
6.8633524805
 21
5.0576140576
  0
LINE
  5
34A
100
AcDbEntity
  8
0
100
AcDbLine
 62
7
  6
CONTINUOUS
 10
6.8943524805
 20
3.5266140576
 11
6.8943524805
 21
5.0266140576
  0
LINE
  5
34B
100
AcDbEntity
  8
03__ASM_ALL_CURVES
100
AcDbLine
 62
40
  6
CONTINUOUS
 10
7.0319074788
 20
5.7629478879
 11
7.0319074788
 21
5.7500583076
  0
LINE
  5
34C
100
AcDbEntity
  8
03__ASM_ALL_CURVES
100
AcDbLine
 62
40
  6
CONTINUOUS
 10
7.0693384368
 20
2.7856078076
 11
7.0693384368
 21
2.9016140576
  0
LINE
  5
34D
100
AcDbEntity
  8
03__ASM_ALL_CURVES
100
AcDbLine
 62
40
  6
CONTINUOUS
 10
7.3219231038
 20
5.7113895576
 11
7.3315902913
 21
5.7500583076
  0
LINE
  5
34E
100
AcDbEntity
  8
03__ASM_ALL_CURVES
100
AcDbLine
 62
40
  6
CONTINUOUS
 10
7.4379293538
 20
5.7113895576
 11
7.4282621663
 21
5.6727208076
  0
LINE
  5
34F
100
AcDbEntity
  8
03__ASM_ALL_CURVES
100
AcDbLine
 62
40
  6
CONTINUOUS
 10
8.1919699788
 20
5.7371687273
 11
8.1823027913
 21
5.7242791379
  0
LINE
  5
350
100
AcDbEntity
  8
03__ASM_ALL_CURVES
100
AcDbLine
 62
40
  6
CONTINUOUS
 10
2.3323524805
 20
5.5721820576
 11
8.3621124805
 21
5.5721820576
  0
LINE
  5
351
100
AcDbEntity
  8
03__ASM_ALL_CURVES
100
AcDbLine
 62
40
  6
CONTINUOUS
 10
2.5179624805
 20
5.5670262243
 11
2.3323524805
 21
5.5721820576
  0
LINE
  5
352
100
AcDbEntity
  8
03__ASM_ALL_CURVES
100
AcDbLine
 62
40
  6
CONTINUOUS
 10
5.2067424805
 20
5.5773378909
 11
5.5779624805
 21
5.5670262243
  0
LINE
  5
353
100
AcDbEntity
  8
03__ASM_ALL_CURVES
100
AcDbLine
 62
40
  6
CONTINUOUS
 10
2.5179624805
 20
5.5618703909
 11
2.3323524805
 21
5.5721820576
  0
LINE
  5
354
100
AcDbEntity
  8
03__ASM_ALL_CURVES
100
AcDbLine
 62
40
  6
CONTINUOUS
 10
5.2067424805
 20
5.5824937243
 11
5.5779624805
 21
5.5618703909
  0
LINE
  5
355
100
AcDbEntity
  8
03__ASM_ALL_CURVES
100
AcDbLine
 62
40
  6
CONTINUOUS
 10
5.2067424805
 20
5.5876495576
 11
5.5779624805
 21
5.5567145576
  0
LINE
  5
356
100
AcDbEntity
  8
03__ASM_ALL_CURVES
100
AcDbLine
 62
40
  6
CONTINUOUS
 10
5.2067424805
 20
5.5928053909
 11
5.5779624805
 21
5.5515587243
  0
LINE
  5
357
100
AcDbEntity
  8
03__ASM_ALL_CURVES
100
AcDbLine
 62
40
  6
CONTINUOUS
 10
5.2067424805
 20
5.5979612243
 11
5.5779624805
 21
5.5464028909
  0
LINE
  5
358
100
AcDbEntity
  8
03__ASM_ALL_CURVES
100
AcDbLine
 62
40
  6
CONTINUOUS
 10
5.5779624805
 20
5.5412470576
 11
5.2067424805
 21
5.6031170576
  0
LINE
  5
359
100
AcDbEntity
  8
03__ASM_ALL_CURVES
100
AcDbLine
 62
40
  6
CONTINUOUS
 10
5.8235090413
 20
5.6340520576
 11
5.8041746663
 21
5.6469416413
  0
LINE
  5
35A
100
AcDbEntity
  8
03__ASM_ALL_CURVES
100
AcDbLine
 62
40
  6
CONTINUOUS
 10
5.9781840413
 20
5.6340520576
 11
5.9588496663
 21
5.6469416413
  0
LINE
  5
35B
100
AcDbEntity
  8
03__ASM_ALL_CURVES
100
AcDbLine
 62
40
  6
CONTINUOUS
 10
5.8428434163
 20
5.7887270576
 11
5.8621777913
 21
5.7758374773
  0
LINE
  5
35C
100
AcDbEntity
  8
03__ASM_ALL_CURVES
100
AcDbLine
 62
40
  6
CONTINUOUS
 10
6.0168527913
 20
5.7758374773
 11
6.0265199788
 21
5.7629478879
  0
LINE
  5
35D
100
AcDbEntity
  8
03__ASM_ALL_CURVES
100
AcDbLine
 62
40
  6
CONTINUOUS
 10
7.2505982024
 20
2.8726124951
 11
7.2578485931
 21
2.8436109326
  0
LINE
  5
35E
100
AcDbEntity
  8
03__ASM_ALL_CURVES
100
AcDbLine
 62
40
  6
CONTINUOUS
 10
6.7128902913
 20
5.6727208076
 11
6.7032231038
 21
5.7113895576
  0
LINE
  5
35F
100
AcDbEntity
  8
03__ASM_ALL_CURVES
100
AcDbLine
 62
40
  6
CONTINUOUS
 10
7.1092449788
 20
5.6856103925
 11
7.1092449788
 21
5.659831225
  0
LINE
  5
360
100
AcDbEntity
  8
03__ASM_ALL_CURVES
100
AcDbLine
 62
40
  6
CONTINUOUS
 10
7.1273415618
 20
2.8822796803
 11
7.1273415618
 21
2.8629453099
  0
LINE
  5
361
100
AcDbEntity
  8
03__ASM_ALL_CURVES
100
AcDbLine
 62
40
  6
CONTINUOUS
 10
7.1865824788
 20
5.7887270576
 11
7.1865824788
 21
5.6340520576
  0
LINE
  5
362
100
AcDbEntity
  8
03__ASM_ALL_CURVES
100
AcDbLine
 62
40
  6
CONTINUOUS
 10
7.2639199788
 20
5.7887270576
 11
7.2639199788
 21
5.6340520576
  0
LINE
  5
363
100
AcDbEntity
  8
03__ASM_ALL_CURVES
100
AcDbLine
 62
40
  6
CONTINUOUS
 10
7.3013509368
 20
2.7856078076
 11
7.3013509368
 21
2.9016140576
  0
LINE
  5
364
100
AcDbEntity
  8
0
100
AcDbLine
 62
7
  6
CONTINUOUS
 10
6.8943524805
 20
3.5266140576
 11
6.8633524805
 21
3.4956140576
  0
LINE
  5
365
100
AcDbEntity
  8
03__ASM_ALL_CURVES
100
AcDbLine
 62
40
  6
CONTINUOUS
 10
5.2067424805
 20
5.5412470576
 11
5.5779624805
 21
5.6031170576
  0
LINE
  5
366
100
AcDbEntity
  8
03__ASM_ALL_CURVES
100
AcDbLine
 62
40
  6
CONTINUOUS
 10
5.2067424805
 20
5.5464028909
 11
5.5779624805
 21
5.5979612243
  0
LINE
  5
367
100
AcDbEntity
  8
03__ASM_ALL_CURVES
100
AcDbLine
 62
40
  6
CONTINUOUS
 10
5.2067424805
 20
5.5515587243
 11
5.5779624805
 21
5.5928053909
  0
LINE
  5
368
100
AcDbEntity
  8
03__ASM_ALL_CURVES
100
AcDbLine
 62
40
  6
CONTINUOUS
 10
5.2067424805
 20
5.5567145576
 11
5.5779624805
 21
5.5876495576
  0
LINE
  5
369
100
AcDbEntity
  8
03__ASM_ALL_CURVES
100
AcDbLine
 62
40
  6
CONTINUOUS
 10
5.2067424805
 20
5.5618703909
 11
5.5779624805
 21
5.5824937243
  0
LINE
  5
36A
100
AcDbEntity
  8
03__ASM_ALL_CURVES
100
AcDbLine
 62
40
  6
CONTINUOUS
 10
2.5179624805
 20
5.5824937243
 11
2.3323524805
 21
5.5721820576
  0
LINE
  5
36B
100
AcDbEntity
  8
03__ASM_ALL_CURVES
100
AcDbLine
 62
40
  6
CONTINUOUS
 10
5.2067424805
 20
5.5670262243
 11
5.5779624805
 21
5.5773378909
  0
LINE
  5
36C
100
AcDbEntity
  8
03__ASM_ALL_CURVES
100
AcDbLine
 62
40
  6
CONTINUOUS
 10
2.5179624805
 20
5.5773378909
 11
2.3323524805
 21
5.5721820576
  0
LINE
  5
36D
100
AcDbEntity
  8
03__ASM_ALL_CURVES
100
AcDbLine
 62
40
  6
CONTINUOUS
 10
8.0372949788
 20
5.6340520576
 11
7.9599574788
 21
5.6340520576
  0
LINE
  5
36E
100
AcDbEntity
  8
03__ASM_ALL_CURVES
100
AcDbLine
 62
40
  6
CONTINUOUS
 10
7.8439512288
 20
5.6340520576
 11
7.8052824788
 21
5.6340520576
  0
LINE
  5
36F
100
AcDbEntity
  8
03__ASM_ALL_CURVES
100
AcDbLine
 62
40
  6
CONTINUOUS
 10
7.5442684163
 20
5.6340520576
 11
7.5249340413
 21
5.6340520576
  0
LINE
  5
370
100
AcDbEntity
  8
03__ASM_ALL_CURVES
100
AcDbLine
 62
40
  6
CONTINUOUS
 10
7.3895934163
 20
5.6340520576
 11
7.3702590413
 21
5.6340520576
  0
LINE
  5
371
100
AcDbEntity
  8
03__ASM_ALL_CURVES
100
AcDbLine
 62
40
  6
CONTINUOUS
 10
7.0802434163
 20
5.6340520576
 11
7.0609090413
 21
5.6340520576
  0
LINE
  5
372
100
AcDbEntity
  8
03__ASM_ALL_CURVES
100
AcDbLine
 62
40
  6
CONTINUOUS
 10
6.7708934163
 20
5.6340520576
 11
6.7515590413
 21
5.6340520576
  0
LINE
  5
373
100
AcDbEntity
  8
03__ASM_ALL_CURVES
100
AcDbLine
 62
40
  6
CONTINUOUS
 10
5.9975184163
 20
5.6340520576
 11
5.9781840413
 21
5.6340520576
  0
LINE
  5
374
100
AcDbEntity
  8
03__ASM_ALL_CURVES
100
AcDbLine
 62
40
  6
CONTINUOUS
 10
5.8428434163
 20
5.6340520576
 11
5.8235090413
 21
5.6340520576
  0
LINE
  5
375
100
AcDbEntity
  8
03__ASM_ALL_CURVES
100
AcDbLine
 62
40
  6
CONTINUOUS
 10
4.1717024805
 20
5.6340520576
 11
4.162035293
 21
5.6340520576
  0
LINE
  5
376
100
AcDbEntity
  8
03__ASM_ALL_CURVES
100
AcDbLine
 62
40
  6
CONTINUOUS
 10
3.2436524805
 20
5.6340520576
 11
3.233985293
 21
5.6340520576
  0
LINE
  5
377
100
AcDbEntity
  8
03__ASM_ALL_CURVES
100
AcDbLine
 62
40
  6
CONTINUOUS
 10
3.098644668
 20
5.6340520576
 11
3.079310293
 21
5.6340520576
  0
LINE
  5
378
100
AcDbEntity
  8
03__ASM_ALL_CURVES
100
AcDbLine
 62
40
  6
CONTINUOUS
 10
4.4423837305
 20
5.6340520576
 11
4.5197212305
 21
5.6340520576
  0
LINE
  5
379
100
AcDbEntity
  8
03__ASM_ALL_CURVES
100
AcDbLine
 62
40
  6
CONTINUOUS
 10
5.6398324788
 20
5.6340520576
 11
5.7171699788
 21
5.6340520576
  0
LINE
  5
37A
100
AcDbEntity
  8
03__ASM_ALL_CURVES
100
AcDbLine
 62
40
  6
CONTINUOUS
 10
7.6506074788
 20
5.6340520576
 11
7.7279449788
 21
5.6340520576
  0
LINE
  5
37B
100
AcDbEntity
  8
03__ASM_ALL_CURVES
100
AcDbLine
 62
40
  6
CONTINUOUS
 10
6.1135246663
 20
5.6856103925
 11
6.1715277913
 21
5.6856103925
  0
LINE
  5
37C
100
AcDbEntity
  8
03__ASM_ALL_CURVES
100
AcDbLine
 62
40
  6
CONTINUOUS
 10
8.1629684163
 20
5.7113895576
 11
8.1146324788
 21
5.7113895576
  0
LINE
  5
37D
100
AcDbEntity
  8
03__ASM_ALL_CURVES
100
AcDbLine
 62
40
  6
CONTINUOUS
 10
6.7612262288
 20
5.7113895576
 11
6.7998949788
 21
5.7113895576
  0
LINE
  5
37E
100
AcDbEntity
  8
03__ASM_ALL_CURVES
100
AcDbLine
 62
40
  6
CONTINUOUS
 10
7.1865824788
 20
5.7113895576
 11
7.2639199788
 21
5.7113895576
  0
LINE
  5
37F
100
AcDbEntity
  8
03__ASM_ALL_CURVES
100
AcDbLine
 62
40
  6
CONTINUOUS
 10
7.9599574788
 20
5.7113895576
 11
8.0082934163
 21
5.7113895576
  0
LINE
  5
380
100
AcDbEntity
  8
03__ASM_ALL_CURVES
100
AcDbLine
 62
40
  6
CONTINUOUS
 10
3.079310293
 20
5.7242791379
 11
3.098644668
 21
5.7242791379
  0
LINE
  5
381
100
AcDbEntity
  8
03__ASM_ALL_CURVES
100
AcDbLine
 62
40
  6
CONTINUOUS
 10
7.0802434163
 20
5.7887270576
 11
7.0609090413
 21
5.7887270576
  0
LINE
  5
382
100
AcDbEntity
  8
03__ASM_ALL_CURVES
100
AcDbLine
 62
40
  6
CONTINUOUS
 10
4.3650462305
 20
5.7887270576
 11
4.2877087305
 21
5.7887270576
  0
LINE
  5
383
100
AcDbEntity
  8
03__ASM_ALL_CURVES
100
AcDbLine
 62
40
  6
CONTINUOUS
 10
4.0556962305
 20
5.7887270576
 11
3.9783587305
 21
5.7887270576
  0
LINE
  5
384
100
AcDbEntity
  8
03__ASM_ALL_CURVES
100
AcDbLine
 62
40
  6
CONTINUOUS
 10
3.9010212305
 20
5.7887270576
 11
3.8236837305
 21
5.7887270576
  0
LINE
  5
385
100
AcDbEntity
  8
03__ASM_ALL_CURVES
100
AcDbLine
 62
40
  6
CONTINUOUS
 10
3.079310293
 20
5.7887270576
 11
3.098644668
 21
5.7887270576
  0
LINE
  5
386
100
AcDbEntity
  8
03__ASM_ALL_CURVES
100
AcDbLine
 62
40
  6
CONTINUOUS
 10
4.471385293
 20
5.7887270576
 11
4.490719668
 21
5.7887270576
  0
LINE
  5
387
100
AcDbEntity
  8
03__ASM_ALL_CURVES
100
AcDbLine
 62
40
  6
CONTINUOUS
 10
5.8235090413
 20
5.7887270576
 11
5.8428434163
 21
5.7887270576
  0
LINE
  5
388
100
AcDbEntity
  8
03__ASM_ALL_CURVES
100
AcDbLine
 62
40
  6
CONTINUOUS
 10
5.9781840413
 20
5.7887270576
 11
5.9975184163
 21
5.7887270576
  0
LINE
  5
389
100
AcDbEntity
  8
03__ASM_ALL_CURVES
100
AcDbLine
 62
40
  6
CONTINUOUS
 10
6.2488652913
 20
5.7887270576
 11
6.3455371663
 21
5.7887270576
  0
LINE
  5
38A
100
AcDbEntity
  8
03__ASM_ALL_CURVES
100
AcDbLine
 62
40
  6
CONTINUOUS
 10
6.7515590413
 20
5.7887270576
 11
6.7708934163
 21
5.7887270576
  0
LINE
  5
38B
100
AcDbEntity
  8
03__ASM_ALL_CURVES
100
AcDbLine
 62
40
  6
CONTINUOUS
 10
7.3702590413
 20
5.7887270576
 11
7.3895934163
 21
5.7887270576
  0
LINE
  5
38C
100
AcDbEntity
  8
03__ASM_ALL_CURVES
100
AcDbLine
 62
40
  6
CONTINUOUS
 10
7.8052824788
 20
5.7887270576
 11
7.8439512288
 21
5.7887270576
  0
LINE
  5
38D
100
AcDbEntity
  8
03__ASM_ALL_CURVES
100
AcDbLine
 62
40
  6
CONTINUOUS
 10
7.9599574788
 20
5.7887270576
 11
8.0372949788
 21
5.7887270576
  0
LINE
  5
38E
100
AcDbEntity
  8
03__ASM_ALL_CURVES
100
AcDbLine
 62
40
  6
CONTINUOUS
 10
8.1146324788
 20
5.7887270576
 11
8.1629684163
 21
5.7887270576
  0
LINE
  5
38F
100
AcDbEntity
  8
03__ASM_ALL_CURVES
100
AcDbLine
 62
40
  6
CONTINUOUS
 10
5.9975184163
 20
5.7887270576
 11
6.0168527913
 21
5.7758374773
  0
LINE
  5
390
100
AcDbEntity
  8
0
100
AcDbLine
 62
7
  6
CONTINUOUS
 10
6.8943524805
 20
5.0266140576
 11
6.8633524805
 21
5.0576140576
  0
LINE
  5
391
100
AcDbEntity
  8
03__ASM_ALL_CURVES
100
AcDbLine
 62
40
  6
CONTINUOUS
 10
6.5678824788
 20
5.7887270576
 11
6.6452199788
 21
5.6340520576
  0
LINE
  5
392
100
AcDbEntity
  8
03__ASM_ALL_CURVES
100
AcDbLine
 62
40
  6
CONTINUOUS
 10
7.3593540618
 20
2.8822796803
 11
7.3593540618
 21
2.8629453099
  0
LINE
  5
393
100
AcDbEntity
  8
03__ASM_ALL_CURVES
100
AcDbLine
 62
40
  6
CONTINUOUS
 10
7.4463587493
 20
2.9016140576
 11
7.4463587493
 21
2.7856078076
  0
LINE
  5
394
100
AcDbEntity
  8
03__ASM_ALL_CURVES
100
AcDbLine
 62
40
  6
CONTINUOUS
 10
7.4959324788
 20
5.659831225
 11
7.4959324788
 21
5.7887270576
  0
LINE
  5
395
100
AcDbEntity
  8
03__ASM_ALL_CURVES
100
AcDbLine
 62
40
  6
CONTINUOUS
 10
7.5732699788
 20
5.7887270576
 11
7.5732699788
 21
5.659831225
  0
LINE
  5
396
100
AcDbEntity
  8
03__ASM_ALL_CURVES
100
AcDbLine
 62
40
  6
CONTINUOUS
 10
7.5913665618
 20
2.8822796803
 11
7.5913665618
 21
2.8629453099
  0
LINE
  5
397
100
AcDbEntity
  8
03__ASM_ALL_CURVES
100
AcDbLine
 62
40
  6
CONTINUOUS
 10
7.1708439056
 20
2.8436109326
 11
7.1780942962
 21
2.8726124951
  0
LINE
  5
398
100
AcDbEntity
  8
03__ASM_ALL_CURVES
100
AcDbLine
 62
40
  6
CONTINUOUS
 10
7.8922871663
 20
5.7113895576
 11
7.8826199788
 21
5.6727208076
  0
LINE
  5
399
100
AcDbEntity
  8
03__ASM_ALL_CURVES
100
AcDbLine
 62
40
  6
CONTINUOUS
 10
7.2578485931
 20
2.8436109326
 11
7.2505982024
 21
2.8146093701
  0
LINE
  5
39A
100
AcDbEntity
  8
03__ASM_ALL_CURVES
100
AcDbLine
 62
40
  6
CONTINUOUS
 10
8.8281052155
 20
4.3752193678
 11
8.8136044342
 21
4.3655521826
  0
LINE
  5
39B
100
AcDbEntity
  8
03__ASM_ALL_CURVES
100
AcDbLine
 62
40
  6
CONTINUOUS
 10
8.9006091217
 20
4.4138881224
 11
8.915109903
 21
4.4235553076
  0
LINE
  5
39C
100
AcDbEntity
  8
03__ASM_ALL_CURVES
100
AcDbLine
 62
40
  6
CONTINUOUS
 10
8.9441114655
 20
4.3172162454
 11
8.9296106842
 21
4.3075490576
  0
LINE
  5
39D
100
AcDbEntity
  8
03__ASM_ALL_CURVES
100
AcDbLine
 62
40
  6
CONTINUOUS
 10
9.0601177155
 20
4.3752193678
 11
9.0456169342
 21
4.3655521826
  0
LINE
  5
39E
100
AcDbEntity
  8
03__ASM_ALL_CURVES
100
AcDbLine
 62
40
  6
CONTINUOUS
 10
2.5179624805
 20
5.5979612243
 11
2.3323524805
 21
5.5721820576
  0
LINE
  5
39F
100
AcDbEntity
  8
03__ASM_ALL_CURVES
100
AcDbLine
 62
40
  6
CONTINUOUS
 10
2.5179624805
 20
5.5928053909
 11
2.3323524805
 21
5.5721820576
  0
LINE
  5
3A0
100
AcDbEntity
  8
03__ASM_ALL_CURVES
100
AcDbLine
 62
40
  6
CONTINUOUS
 10
2.5179624805
 20
5.5876495576
 11
2.3323524805
 21
5.5721820576
  0
LINE
  5
3A1
100
AcDbEntity
  8
03__ASM_ALL_CURVES
100
AcDbLine
 62
40
  6
CONTINUOUS
 10
6.7515590413
 20
5.6340520576
 11
6.7322246663
 21
5.6469416413
  0
LINE
  5
3A2
100
AcDbEntity
  8
03__ASM_ALL_CURVES
100
AcDbLine
 62
40
  6
CONTINUOUS
 10
8.915109903
 20
4.3075490576
 11
8.9006091217
 21
4.3172162454
  0
LINE
  5
3A3
100
AcDbEntity
  8
03__ASM_ALL_CURVES
100
AcDbLine
 62
40
  6
CONTINUOUS
 10
8.8136044342
 20
4.4235553076
 11
8.8281052155
 21
4.4138881224
  0
LINE
  5
3A4
100
AcDbEntity
  8
03__ASM_ALL_CURVES
100
AcDbLine
 62
40
  6
CONTINUOUS
 10
6.7708934163
 20
5.7887270576
 11
6.7902277913
 21
5.7758374773
  0
LINE
  5
3A5
100
AcDbEntity
  8
03__ASM_ALL_CURVES
100
AcDbLine
 62
40
  6
CONTINUOUS
 10
6.7322246663
 20
5.6469416413
 11
6.7128902913
 21
5.6727208076
  0
LINE
  5
3A6
100
AcDbEntity
  8
03__ASM_ALL_CURVES
100
AcDbLine
 62
40
  6
CONTINUOUS
 10
6.7902277913
 20
5.7758374773
 11
6.7998949788
 21
5.7629478879
  0
LINE
  5
3A7
100
AcDbEntity
  8
03__ASM_ALL_CURVES
100
AcDbLine
 62
40
  6
CONTINUOUS
 10
7.6506074788
 20
5.7887270576
 11
7.6506074788
 21
5.6340520576
  0
LINE
  5
3A8
100
AcDbEntity
  8
03__ASM_ALL_CURVES
100
AcDbLine
 62
40
  6
CONTINUOUS
 10
7.8052824788
 20
5.6340520576
 11
7.8052824788
 21
5.7887270576
  0
LINE
  5
3A9
100
AcDbEntity
  8
03__ASM_ALL_CURVES
100
AcDbLine
 62
40
  6
CONTINUOUS
 10
7.5406138274
 20
2.8146093701
 11
7.5333634368
 21
2.7856078076
  0
LINE
  5
3AA
100
AcDbEntity
  8
03__ASM_ALL_CURVES
100
AcDbLine
 62
40
  6
CONTINUOUS
 10
7.1273415618
 20
2.8629453099
 11
7.1200911712
 21
2.8532781178
  0
LINE
  5
3AB
100
AcDbEntity
  8
03__ASM_ALL_CURVES
100
AcDbLine
 62
40
  6
CONTINUOUS
 10
7.1780942962
 20
2.8726124951
 11
7.1925950774
 21
2.8919468724
  0
LINE
  5
3AC
100
AcDbEntity
  8
03__ASM_ALL_CURVES
100
AcDbLine
 62
40
  6
CONTINUOUS
 10
7.2505982024
 20
2.8146093701
 11
7.2360974212
 21
2.7952749954
  0
LINE
  5
3AD
100
AcDbEntity
  8
03__ASM_ALL_CURVES
100
AcDbLine
 62
40
  6
CONTINUOUS
 10
7.1200911712
 20
2.8532781178
 11
7.1055903899
 21
2.8436109326
  0
LINE
  5
3AE
100
AcDbEntity
  8
03__ASM_ALL_CURVES
100
AcDbLine
 62
40
  6
CONTINUOUS
 10
7.1925950774
 20
2.8919468724
 11
7.2070958587
 21
2.9016140576
  0
LINE
  5
3AF
100
AcDbEntity
  8
03__ASM_ALL_CURVES
100
AcDbLine
 62
40
  6
CONTINUOUS
 10
7.2360974212
 20
2.7952749954
 11
7.2215966399
 21
2.7856078076
  0
LINE
  5
3B0
100
AcDbEntity
  8
03__ASM_ALL_CURVES
100
AcDbLine
 62
40
  6
CONTINUOUS
 10
2.3323524805
 20
5.5721820576
 11
2.5179624805
 21
5.6031170576
  0
LINE
  5
3B1
100
AcDbEntity
  8
03__ASM_ALL_CURVES
100
AcDbLine
 62
40
  6
CONTINUOUS
 10
7.0609090413
 20
5.6340520576
 11
7.0415746663
 21
5.6469416413
  0
LINE
  5
3B2
100
AcDbEntity
  8
03__ASM_ALL_CURVES
100
AcDbLine
 62
40
  6
CONTINUOUS
 10
8.9296106842
 20
4.4235553076
 11
8.9441114655
 21
4.4138881224
  0
LINE
  5
3B3
100
AcDbEntity
  8
03__ASM_ALL_CURVES
100
AcDbLine
 62
40
  6
CONTINUOUS
 10
7.0415746663
 20
5.7371687273
 11
7.0995777913
 21
5.6984999727
  0
LINE
  5
3B4
100
AcDbEntity
  8
03__ASM_ALL_CURVES
100
AcDbLine
 62
40
  6
CONTINUOUS
 10
9.0456169342
 20
4.4235553076
 11
9.0601177155
 21
4.4138881224
  0
LINE
  5
3B5
100
AcDbEntity
  8
03__ASM_ALL_CURVES
100
AcDbLine
 62
40
  6
CONTINUOUS
 10
7.0995777913
 20
5.7758374773
 11
7.0802434163
 21
5.7887270576
  0
LINE
  5
3B6
100
AcDbEntity
  8
03__ASM_ALL_CURVES
100
AcDbLine
 62
40
  6
CONTINUOUS
 10
7.3702590413
 20
5.6340520576
 11
7.3509246663
 21
5.6469416413
  0
LINE
  5
3B7
100
AcDbEntity
  8
03__ASM_ALL_CURVES
100
AcDbLine
 62
40
  6
CONTINUOUS
 10
7.0415746663
 20
5.6469416413
 11
7.0222402913
 21
5.6727208076
  0
LINE
  5
3B8
100
AcDbEntity
  8
03__ASM_ALL_CURVES
100
AcDbLine
 62
40
  6
CONTINUOUS
 10
7.0319074788
 20
5.7500583076
 11
7.0415746663
 21
5.7371687273
  0
LINE
  5
3B9
100
AcDbEntity
  8
03__ASM_ALL_CURVES
100
AcDbLine
 62
40
  6
CONTINUOUS
 10
7.0995777913
 20
5.6984999727
 11
7.1092449788
 21
5.6856103925
  0
LINE
  5
3BA
100
AcDbEntity
  8
03__ASM_ALL_CURVES
100
AcDbLine
 62
40
  6
CONTINUOUS
 10
7.1092449788
 20
5.7629478879
 11
7.0995777913
 21
5.7758374773
  0
LINE
  5
3BB
100
AcDbEntity
  8
03__ASM_ALL_CURVES
100
AcDbLine
 62
40
  6
CONTINUOUS
 10
7.3315902913
 20
5.6727208076
 11
7.3219231038
 21
5.7113895576
  0
LINE
  5
3BC
100
AcDbEntity
  8
03__ASM_ALL_CURVES
100
AcDbLine
 62
40
  6
CONTINUOUS
 10
7.4282621663
 20
5.7500583076
 11
7.4379293538
 21
5.7113895576
  0
LINE
  5
3BD
100
AcDbEntity
  8
03__ASM_ALL_CURVES
100
AcDbLine
 62
40
  6
CONTINUOUS
 10
7.9599574788
 20
5.6340520576
 11
7.9599574788
 21
5.7887270576
  0
LINE
  5
3BE
100
AcDbEntity
  8
0
100
AcDbLine
 62
7
  6
CONTINUOUS
 10
8.0823524805
 20
3.4656140576
 11
8.0823524805
 21
5.0876140576
  0
LINE
  5
3BF
100
AcDbEntity
  8
03__ASM_ALL_CURVES
100
AcDbLine
 62
40
  6
CONTINUOUS
 10
7.3593540618
 20
2.8629453099
 11
7.3521036712
 21
2.8532781178
  0
LINE
  5
3C0
100
AcDbEntity
  8
03__ASM_ALL_CURVES
100
AcDbLine
 62
40
  6
CONTINUOUS
 10
7.5333634368
 20
2.8822796803
 11
7.5406138274
 21
2.8919468724
  0
LINE
  5
3C1
100
AcDbEntity
  8
03__ASM_ALL_CURVES
100
AcDbLine
 62
40
  6
CONTINUOUS
 10
7.5551146087
 20
2.8339437439
 11
7.5406138274
 21
2.8146093701
  0
LINE
  5
3C2
100
AcDbEntity
  8
03__ASM_ALL_CURVES
100
AcDbLine
 62
40
  6
CONTINUOUS
 10
7.5913665618
 20
2.8629453099
 11
7.5841161712
 21
2.8532781178
  0
LINE
  5
3C3
100
AcDbEntity
  8
03__ASM_ALL_CURVES
100
AcDbLine
 62
40
  6
CONTINUOUS
 10
7.3521036712
 20
2.8532781178
 11
7.3376028899
 21
2.8436109326
  0
LINE
  5
3C4
100
AcDbEntity
  8
03__ASM_ALL_CURVES
100
AcDbLine
 62
40
  6
CONTINUOUS
 10
7.5406138274
 20
2.8919468724
 11
7.5551146087
 21
2.9016140576
  0
LINE
  5
3C5
100
AcDbEntity
  8
03__ASM_ALL_CURVES
100
AcDbLine
 62
40
  6
CONTINUOUS
 10
7.5841161712
 20
2.8532781178
 11
7.5551146087
 21
2.8339437439
  0
LINE
  5
3C6
100
AcDbEntity
  8
03__ASM_ALL_CURVES
100
AcDbLine
 62
40
  6
CONTINUOUS
 10
7.5249340413
 20
5.6340520576
 11
7.5055996663
 21
5.6469416413
  0
LINE
  5
3C7
100
AcDbEntity
  8
03__ASM_ALL_CURVES
100
AcDbLine
 62
40
  6
CONTINUOUS
 10
7.3895934163
 20
5.7887270576
 11
7.4089277913
 21
5.7758374773
  0
LINE
  5
3C8
100
AcDbEntity
  8
03__ASM_ALL_CURVES
100
AcDbLine
 62
40
  6
CONTINUOUS
 10
7.3509246663
 20
5.6469416413
 11
7.3315902913
 21
5.6727208076
  0
LINE
  5
3C9
100
AcDbEntity
  8
03__ASM_ALL_CURVES
100
AcDbLine
 62
40
  6
CONTINUOUS
 10
7.5055996663
 20
5.6469416413
 11
7.4959324788
 21
5.659831225
  0
LINE
  5
3CA
100
AcDbEntity
  8
03__ASM_ALL_CURVES
100
AcDbLine
 62
40
  6
CONTINUOUS
 10
7.4089277913
 20
5.7758374773
 11
7.4282621663
 21
5.7500583076
  0
LINE
  5
3CB
100
AcDbEntity
  8
03__ASM_ALL_CURVES
100
AcDbLine
 62
40
  6
CONTINUOUS
 10
8.1146324788
 20
5.6340520576
 11
8.1146324788
 21
5.7887270576
  0
LINE
  5
3CC
100
AcDbEntity
  8
0
100
AcDbLine
 62
7
  6
CONTINUOUS
 10
8.1763524805
 20
3.4651140576
 11
8.1763524805
 21
5.0881140576
  0
LINE
  5
3CD
100
AcDbEntity
  8
03__ASM_ALL_CURVES
100
AcDbLine
 62
40
  6
CONTINUOUS
 10
8.1919699788
 20
5.7629478879
 11
8.1919699788
 21
5.7371687273
  0
LINE
  5
3CE
100
AcDbEntity
  8
0
100
AcDbLine
 62
7
  6
CONTINUOUS
 10
8.2263524805
 20
3.4651140576
 11
8.2263524805
 21
5.0881140576
  0
LINE
  5
3CF
100
AcDbEntity
  8
0
100
AcDbLine
 62
7
  6
CONTINUOUS
 10
8.3293524805
 20
3.4651140576
 11
8.3293524805
 21
5.0881140576
  0
LINE
  5
3D0
100
AcDbEntity
  8
03__ASM_ALL_CURVES
100
AcDbLine
 62
40
  6
CONTINUOUS
 10
8.8353556061
 20
4.3848865599
 11
8.8281052155
 21
4.3752193678
  0
LINE
  5
3D1
100
AcDbEntity
  8
03__ASM_ALL_CURVES
100
AcDbLine
 62
40
  6
CONTINUOUS
 10
8.8861083405
 20
4.3945537451
 11
8.9006091217
 21
4.4138881224
  0
LINE
  5
3D2
100
AcDbEntity
  8
03__ASM_ALL_CURVES
100
AcDbLine
 62
40
  6
CONTINUOUS
 10
8.9586122467
 20
4.3365506201
 11
8.9441114655
 21
4.3172162454
  0
LINE
  5
3D3
100
AcDbEntity
  8
0
100
AcDbLine
 62
7
  6
CONTINUOUS
 10
8.5193524805
 20
3.4966140576
 11
8.4883524805
 21
3.4656140576
  0
LINE
  5
3D4
100
AcDbEntity
  8
03__ASM_ALL_CURVES
100
AcDbLine
 62
40
  6
CONTINUOUS
 10
7.8439512288
 20
5.7887270576
 11
7.8632856038
 21
5.7758374773
  0
LINE
  5
3D5
100
AcDbEntity
  8
0
100
AcDbLine
 62
7
  6
CONTINUOUS
 10
8.5193524805
 20
5.0566140576
 11
8.4883524805
 21
5.0876140576
  0
LINE
  5
3D6
100
AcDbEntity
  8
03__ASM_ALL_CURVES
100
AcDbLine
 62
40
  6
CONTINUOUS
 10
8.9006091217
 20
4.3172162454
 11
8.8861083405
 21
4.3365506201
  0
LINE
  5
3D7
100
AcDbEntity
  8
03__ASM_ALL_CURVES
100
AcDbLine
 62
40
  6
CONTINUOUS
 10
8.8281052155
 20
4.4138881224
 11
8.8353556061
 21
4.4042209303
  0
LINE
  5
3D8
100
AcDbEntity
  8
03__ASM_ALL_CURVES
100
AcDbLine
 62
40
  6
CONTINUOUS
 10
7.8632856038
 20
5.7758374773
 11
7.8826199788
 21
5.7500583076
  0
LINE
  5
3D9
100
AcDbEntity
  8
03__ASM_ALL_CURVES
100
AcDbLine
 62
40
  6
CONTINUOUS
 10
7.8826199788
 20
5.7500583076
 11
7.8922871663
 21
5.7113895576
  0
LINE
  5
3DA
100
AcDbEntity
  8
0
100
AcDbLine
 62
7
  6
CONTINUOUS
 10
8.3793524805
 20
3.4651140576
 11
8.3793524805
 21
5.0881140576
  0
LINE
  5
3DB
100
AcDbEntity
  8
0
100
AcDbLine
 62
7
  6
CONTINUOUS
 10
8.4193524805
 20
3.4656140576
 11
8.4193524805
 21
5.0876140576
  0
LINE
  5
3DC
100
AcDbEntity
  8
0
100
AcDbLine
 62
7
  6
CONTINUOUS
 10
8.4883524805
 20
3.4656140576
 11
8.4883524805
 21
5.0876140576
  0
LINE
  5
3DD
100
AcDbEntity
  8
0
100
AcDbLine
 62
7
  6
CONTINUOUS
 10
8.5193524805
 20
3.4966140576
 11
8.5193524805
 21
5.0566140576
  0
LINE
  5
3DE
100
AcDbEntity
  8
03__ASM_ALL_CURVES
100
AcDbLine
 62
40
  6
CONTINUOUS
 10
9.0673681061
 20
4.3848865599
 11
9.0601177155
 21
4.3752193678
  0
LINE
  5
3DF
100
AcDbEntity
  8
03__ASM_ALL_CURVES
100
AcDbLine
 62
40
  6
CONTINUOUS
 10
8.1629684163
 20
5.7887270576
 11
8.1823027913
 21
5.7758374773
  0
LINE
  5
3E0
100
AcDbEntity
  8
03__ASM_ALL_CURVES
100
AcDbLine
 62
40
  6
CONTINUOUS
 10
8.9441114655
 20
4.4138881224
 11
8.9586122467
 21
4.3945537451
  0
LINE
  5
3E1
100
AcDbEntity
  8
03__ASM_ALL_CURVES
100
AcDbLine
 62
40
  6
CONTINUOUS
 10
9.0601177155
 20
4.4138881224
 11
9.0673681061
 21
4.4042209303
  0
LINE
  5
3E2
100
AcDbEntity
  8
03__ASM_ALL_CURVES
100
AcDbLine
 62
40
  6
CONTINUOUS
 10
8.1823027913
 20
5.7758374773
 11
8.1919699788
 21
5.7629478879
  0
LINE
  5
3E3
100
AcDbEntity
  8
03__ASM_ALL_CURVES
100
AcDbLine
 62
40
  6
CONTINUOUS
 10
8.1629684163
 20
5.7113895576
 11
8.1919699788
 21
5.6340520576
  0
LINE
  5
3E4
100
AcDbEntity
  8
03__ASM_ALL_CURVES
100
AcDbLine
 62
40
  6
CONTINUOUS
 10
8.7773524811
 20
4.3075490576
 11
8.7773524811
 21
4.4235553076
  0
LINE
  5
3E5
100
AcDbEntity
  8
03__ASM_ALL_CURVES
100
AcDbLine
 62
40
  6
CONTINUOUS
 10
8.8353556061
 20
4.4042209303
 11
8.8353556061
 21
4.3848865599
  0
LINE
  5
3E6
100
AcDbEntity
  8
03__ASM_ALL_CURVES
100
AcDbLine
 62
40
  6
CONTINUOUS
 10
8.8788579499
 20
4.3655521826
 11
8.8861083405
 21
4.3945537451
  0
LINE
  5
3E7
100
AcDbEntity
  8
03__ASM_ALL_CURVES
100
AcDbLine
 62
40
  6
CONTINUOUS
 10
8.9658626374
 20
4.3655521826
 11
8.9586122467
 21
4.3365506201
  0
LINE
  5
3E8
100
AcDbEntity
  8
03__ASM_ALL_CURVES
100
AcDbLine
 62
40
  6
CONTINUOUS
 10
8.8861083405
 20
4.3365506201
 11
8.8788579499
 21
4.3655521826
  0
LINE
  5
3E9
100
AcDbEntity
  8
03__ASM_ALL_CURVES
100
AcDbLine
 62
40
  6
CONTINUOUS
 10
9.0093649811
 20
4.3075490576
 11
9.0093649811
 21
4.4235553076
  0
LINE
  5
3EA
100
AcDbEntity
  8
03__ASM_ALL_CURVES
100
AcDbLine
 62
40
  6
CONTINUOUS
 10
9.0673681061
 20
4.4042209303
 11
9.0673681061
 21
4.3848865599
  0
LINE
  5
3EB
100
AcDbEntity
  8
03__ASM_ALL_CURVES
100
AcDbLine
 62
40
  6
CONTINUOUS
 10
9.0456169342
 20
4.3655521826
 11
9.0673681061
 21
4.3075490576
  0
LINE
  5
3EC
100
AcDbEntity
  8
03__ASM_ALL_CURVES
100
AcDbLine
 62
40
  6
CONTINUOUS
 10
8.9586122467
 20
4.3945537451
 11
8.9658626374
 21
4.3655521826
  0
LINE
  5
3ED
100
AcDbEntity
  8
03__ASM_ALL_CURVES
100
AcDbLine
 62
40
  6
CONTINUOUS
 10
9.1543727936
 20
4.4235553076
 11
9.1543727936
 21
4.3075490576
  0
LINE
  5
3EE
100
AcDbEntity
  8
03__ASM_ALL_CURVES
100
AcDbLine
 62
40
  6
CONTINUOUS
 10
9.2703790436
 20
4.4235553076
 11
9.2703790436
 21
4.3075490576
  0
CIRCLE
  5
3EF
100
AcDbEntity
  8
0
100
AcDbCircle
 62
7
  6
CONTINUOUS
 10
6.7168524805
 20
4.2766140576
 40
0.1325
  0
ARC
  5
3F0
100
AcDbEntity
  8
0
100
AcDbCircle
 62
7
  6
CONTINUOUS
 10
2.7643524805
 20
4.4536140576
 40
0.094
100
AcDbArc
 50
90.0
 51
131.267427381
  0
ARC
  5
3F1
100
AcDbEntity
  8
0
100
AcDbCircle
 62
7
  6
CONTINUOUS
 10
2.7643524805
 20
4.0996140576
 40
0.094
100
AcDbArc
 50
228.732572619
 51
270.0
  0
ARC
  5
3F2
100
AcDbEntity
  8
0
100
AcDbCircle
 62
7
  6
CONTINUOUS
 10
5.5855802916
 20
3.3836140576
 40
0.027
100
AcDbArc
 50
7.4481900491
 51
75.3134399776
  0
ARC
  5
3F3
100
AcDbEntity
  8
0
100
AcDbCircle
 62
7
  6
CONTINUOUS
 10
5.5855802916
 20
5.1696140576
 40
0.027
100
AcDbArc
 50
284.6865600224
 51
352.5518099509
  0
SPLINE
  5
3F4
100
AcDbEntity
  8
0
100
AcDbSpline
 62
7
  6
CONTINUOUS
 70
0
 71
3
 72
23
 73
19
 74
17
 42
0.0000001
 43
0.0000001
 44
0.0000000001
 12
0.0
 22
-0.2668779986
 32
-0.0261676166
 13
0.0
 23
-0.0271074061
 33
-0.2715812457
 40
0.0
 40
0.0
 40
0.0
 40
0.0
 40
0.0625
 40
0.125
 40
0.1875
 40
0.25
 40
0.3125
 40
0.375
 40
0.4375
 40
0.5
 40
0.5625
 40
0.625
 40
0.6875
 40
0.75
 40
0.8125
 40
0.875
 40
0.9375
 40
1.0
 40
1.0
 40
1.0
 40
1.0
 10
2.3476024805
 20
4.2766140576
 30
0.17175
 10
2.3476024805
 20
4.2710540993
 30
0.1712048413
 10
2.3476024805
 20
4.2599950412
 30
0.169829189
 10
2.3476024805
 20
4.243041303
 30
0.1694777203
 10
2.3476024805
 20
4.2273655935
 30
0.1631342173
 10
2.3476024805
 20
4.2107549076
 30
0.1597948981
 10
2.3476024805
 20
4.196606099
 30
0.150430878
 10
2.3476024805
 20
4.1810235349
 30
0.1440166029
 10
2.3476024805
 20
4.1687141155
 30
0.1318280489
 10
2.3476024805
 20
4.1543325838
 30
0.1221706398
 10
2.3476024805
 20
4.1449663568
 30
0.1081629298
 10
2.3476024805
 20
4.1329848178
 30
0.0961457258
 10
2.3476024805
 20
4.1264492221
 30
0.0805167987
 10
2.3476024805
 20
4.1170538271
 30
0.0664265604
 10
2.3476024805
 20
4.1136516863
 30
0.0497932896
 10
2.3476024805
 20
4.107254986
 30
0.0342513907
 10
2.3476024805
 20
4.1068432697
 30
0.0168870368
 10
2.3476024805
 20
4.1054287952
 30
0.0056579351
 10
2.3476024805
 20
4.1048640576
 30
-0.0000000075
 11
2.3476024805
 21
4.2766140576
 31
0.17175
 11
2.3476024805
 21
4.2599341827
 31
0.170114524
 11
2.3476024805
 21
4.2432543078
 31
0.1684790479
 11
2.3476024805
 21
4.2272097641
 31
0.1636349146
 11
2.3476024805
 21
4.2111652205
 31
0.1587907813
 11
2.3476024805
 21
4.1963671397
 31
0.1509225022
 11
2.3476024805
 21
4.181569059
 31
0.1430542231
 11
2.3476024805
 21
4.1683687635
 31
0.1322499064
 11
2.3476024805
 21
4.1551684679
 31
0.1214455897
 11
2.3476024805
 21
4.1445304715
 31
0.1084946808
 11
2.3476024805
 21
4.133892475
 31
0.095543772
 11
2.3476024805
 21
4.1259725889
 31
0.0807732468
 11
2.3476024805
 21
4.1180527028
 31
0.0660027217
 11
2.3476024805
 21
4.1131525931
 31
0.0499751849
 11
2.3476024805
 21
4.1082524834
 31
0.0339476482
 11
2.3476024805
 21
4.1065582705
 31
0.0169738204
 11
2.3476024805
 21
4.1048640576
 31
-0.0000000075
  0
SPLINE
  5
3F5
100
AcDbEntity
  8
0
100
AcDbSpline
 62
7
  6
CONTINUOUS
 70
0
 71
3
 72
23
 73
19
 74
17
 42
0.0000001
 43
0.0000001
 44
0.0000000001
 12
0.0
 22
-0.0261676166
 32
0.2668779986
 13
0.0
 23
-0.2715812457
 33
0.0271074061
 40
0.0
 40
0.0
 40
0.0
 40
0.0
 40
0.0625
 40
0.125
 40
0.1875
 40
0.25
 40
0.3125
 40
0.375
 40
0.4375
 40
0.5
 40
0.5625
 40
0.625
 40
0.6875
 40
0.75
 40
0.8125
 40
0.875
 40
0.9375
 40
1.0
 40
1.0
 40
1.0
 40
1.0
 10
2.3476024805
 20
4.4483640576
 30
-0.0
 10
2.3476024805
 20
4.4478188989
 30
0.0055599583
 10
2.3476024805
 20
4.4464432466
 30
0.0166190164
 10
2.3476024805
 20
4.4460917779
 30
0.0335727546
 10
2.3476024805
 20
4.4397482749
 30
0.0492484641
 10
2.3476024805
 20
4.4364089557
 30
0.06585915
 10
2.3476024805
 20
4.4270449356
 30
0.0800079586
 10
2.3476024805
 20
4.4206306605
 30
0.0955905227
 10
2.3476024805
 20
4.4084421065
 30
0.1078999421
 10
2.3476024805
 20
4.3987846974
 30
0.1222814738
 10
2.3476024805
 20
4.3847769874
 30
0.1316477008
 10
2.3476024805
 20
4.3727597834
 30
0.1436292398
 10
2.3476024805
 20
4.3571308563
 30
0.1501648355
 10
2.3476024805
 20
4.343040618
 30
0.1595602305
 10
2.3476024805
 20
4.3264073472
 30
0.1629623713
 10
2.3476024805
 20
4.3108654483
 30
0.1693590716
 10
2.3476024805
 20
4.2935010944
 30
0.1697707879
 10
2.3476024805
 20
4.2822719927
 30
0.1711852624
 10
2.3476024805
 20
4.2766140501
 30
0.17175
 11
2.3476024805
 21
4.4483640576
 31
-0.0
 11
2.3476024805
 21
4.4467285816
 31
0.0166798749
 11
2.3476024805
 21
4.4450931055
 31
0.0333597498
 11
2.3476024805
 21
4.4402489722
 31
0.0494042935
 11
2.3476024805
 21
4.4354048389
 31
0.0654488371
 11
2.3476024805
 21
4.4275365598
 31
0.0802469179
 11
2.3476024805
 21
4.4196682807
 31
0.0950449986
 11
2.3476024805
 21
4.408863964
 31
0.1082452941
 11
2.3476024805
 21
4.3980596473
 31
0.1214455897
 11
2.3476024805
 21
4.3851087384
 31
0.1320835861
 11
2.3476024805
 21
4.3721578296
 31
0.1427215826
 11
2.3476024805
 21
4.3573873044
 31
0.1506414687
 11
2.3476024805
 21
4.3426167793
 31
0.1585613548
 11
2.3476024805
 21
4.3265892425
 31
0.1634614645
 11
2.3476024805
 21
4.3105617058
 31
0.1683615742
 11
2.3476024805
 21
4.2935878779
 31
0.1700557871
 11
2.3476024805
 21
4.2766140501
 31
0.17175
  0
SPLINE
  5
3F6
100
AcDbEntity
  8
0
100
AcDbSpline
 62
7
  6
CONTINUOUS
 70
0
 71
3
 72
16
 73
12
 74
10
 42
0.0000001
 43
0.0000001
 44
0.0000000001
 12
0.0906480335
 22
0.2719441006
 32
0.0
 13
-0.0906480335
 23
0.2719441006
 33
0.0
 40
0.0
 40
0.0
 40
0.0
 40
0.0
 40
0.1184548733
 40
0.230565332
 40
0.3393089466
 40
0.4465959239
 40
0.5535015371
 40
0.6607803311
 40
0.769505023
 40
0.8815660643
 40
1.0
 40
1.0
 40
1.0
 40
1.0
 10
2.9524810701
 20
3.9956140576
 30
0.0
 10
2.9560603039
 20
4.0063517589
 30
0.0
 10
2.9624913906
 20
4.0274378058
 30
0.0
 10
2.9700108202
 20
4.0589988606
 30
0.0
 10
2.9750990477
 20
4.0899676787
 30
0.0
 10
2.9776859099
 20
4.1207507483
 30
0.0
 10
2.9776847216
 20
4.1515045493
 30
0.0
 10
2.975095881
 20
4.1822848407
 30
0.0
 10
2.9700071462
 20
4.2132461425
 30
0.0
 10
2.9624888895
 20
4.2447986741
 30
0.0
 10
2.9560596713
 20
4.2658782542
 30
0.0
 10
2.9524810701
 20
4.2766140576
 30
0.0
 11
2.9524810701
 21
3.9956140576
 31
0.0
 11
2.9623195397
 21
4.0281130855
 31
0.0
 11
2.9697067102
 21
4.0593894759
 31
0.0
 11
2.9747113276
 21
4.0901569284
 31
0.0
 11
2.9772582929
 21
4.1208055496
 31
0.0
 11
2.9772571228
 21
4.1514504981
 31
0.0
 11
2.9747081827
 21
4.1820966012
 31
0.0
 11
2.9697027436
 21
4.2128584244
 31
0.0
 11
2.9623179722
 21
4.244120826
 31
0.0
 11
2.9524810701
 21
4.2766140576
 31
0.0
  0
SPLINE
  5
3F7
100
AcDbEntity
  8
0
100
AcDbSpline
 62
7
  6
CONTINUOUS
 70
0
 71
3
 72
17
 73
13
 74
11
 42
0.0000001
 43
0.0000001
 44
0.0000000001
 12
-0.1487434696
 22
0.2576312467
 32
0.0
 13
0.1487434696
 23
0.2576312467
 33
0.0
 40
0.0
 40
0.0
 40
0.0
 40
0.0
 40
0.1169386465
 40
0.2216811606
 40
0.3184580982
 40
0.4103908543
 40
0.5000417254
 40
0.5896883004
 40
0.6816074548
 40
0.7783545182
 40
0.8830694657
 40
1.0
 40
1.0
 40
1.0
 40
1.0
 10
2.8508233318
 20
3.9956140576
 30
0.0
 10
2.8450253785
 20
4.0056564074
 30
0.0
 10
2.8346855509
 20
4.0250862548
 30
0.0
 10
2.8223119274
 20
4.0541883324
 30
0.0
 10
2.8136584807
 20
4.0820298951
 30
0.0
 10
2.8085013761
 20
4.1092132147
 30
0.0
 10
2.8067844958
 20
4.1361260996
 30
0.0
 10
2.8085043814
 20
4.1630374244
 30
0.0
 10
2.813663133
 20
4.190215565
 30
0.0
 10
2.8223159849
 20
4.218049871
 30
0.0
 10
2.8346875723
 20
4.2471457107
 30
0.0
 10
2.8450257807
 20
4.2665724045
 30
0.0
 10
2.8508233318
 20
4.2766140576
 30
0.0
 11
2.8508233318
 21
3.9956140576
 31
0.0
 11
2.8345971004
 21
4.0263857146
 31
0.0
 11
2.8225123439
 21
4.0551063512
 31
0.0
 11
2.8140596706
 21
4.0826274198
 31
0.0
 11
2.8090267852
 21
4.109509135
 31
0.0
 11
2.8073524809
 21
4.1361264911
 31
0.0
 11
2.8090297232
 21
4.1627423816
 31
0.0
 11
2.8140643699
 21
4.1896196503
 31
0.0
 11
2.8225159849
 21
4.2171317469
 31
0.0
 11
2.8345981361
 21
4.2458445826
 31
0.0
 11
2.8508233318
 21
4.2766140576
 31
0.0
  0
SPLINE
  5
3F8
100
AcDbEntity
  8
0
100
AcDbSpline
 62
7
  6
CONTINUOUS
 70
0
 71
3
 72
16
 73
12
 74
10
 42
0.0000001
 43
0.0000001
 44
0.0000000001
 12
0.0906480335
 22
0.2719441006
 32
0.0
 13
-0.0906480335
 23
0.2719441006
 33
0.0
 40
0.0
 40
0.0
 40
0.0
 40
0.0
 40
0.1184548733
 40
0.230565332
 40
0.3393089466
 40
0.4465959239
 40
0.5535015371
 40
0.6607803311
 40
0.769505023
 40
0.8815660643
 40
1.0
 40
1.0
 40
1.0
 40
1.0
 10
2.9524810701
 20
4.2766140576
 30
0.0
 10
2.9560603039
 20
4.2873517589
 30
0.0
 10
2.9624913906
 20
4.3084378058
 30
0.0
 10
2.9700108202
 20
4.3399988606
 30
0.0
 10
2.9750990477
 20
4.3709676787
 30
0.0
 10
2.9776859099
 20
4.4017507483
 30
0.0
 10
2.9776847216
 20
4.4325045493
 30
0.0
 10
2.975095881
 20
4.4632848407
 30
0.0
 10
2.9700071462
 20
4.4942461425
 30
0.0
 10
2.9624888895
 20
4.5257986741
 30
0.0
 10
2.9560596713
 20
4.5468782542
 30
0.0
 10
2.9524810701
 20
4.5576140576
 30
0.0
 11
2.9524810701
 21
4.2766140576
 31
0.0
 11
2.9623195397
 21
4.3091130855
 31
0.0
 11
2.9697067102
 21
4.3403894759
 31
0.0
 11
2.9747113276
 21
4.3711569284
 31
0.0
 11
2.9772582929
 21
4.4018055496
 31
0.0
 11
2.9772571228
 21
4.4324504981
 31
0.0
 11
2.9747081827
 21
4.4630966012
 31
0.0
 11
2.9697027436
 21
4.4938584244
 31
0.0
 11
2.9623179722
 21
4.525120826
 31
0.0
 11
2.9524810701
 21
4.5576140576
 31
0.0
  0
SPLINE
  5
3F9
100
AcDbEntity
  8
0
100
AcDbSpline
 62
7
  6
CONTINUOUS
 70
0
 71
3
 72
17
 73
13
 74
11
 42
0.0000001
 43
0.0000001
 44
0.0000000001
 12
-0.1487434696
 22
0.2576312467
 32
0.0
 13
0.1487434696
 23
0.2576312467
 33
0.0
 40
0.0
 40
0.0
 40
0.0
 40
0.0
 40
0.1169386465
 40
0.2216811606
 40
0.3184580982
 40
0.4103908543
 40
0.5000417254
 40
0.5896883004
 40
0.6816074548
 40
0.7783545182
 40
0.8830694657
 40
1.0
 40
1.0
 40
1.0
 40
1.0
 10
2.8508233318
 20
4.2766140576
 30
0.0
 10
2.8450253785
 20
4.2866564074
 30
0.0
 10
2.8346855509
 20
4.3060862548
 30
0.0
 10
2.8223119274
 20
4.3351883324
 30
0.0
 10
2.8136584807
 20
4.3630298951
 30
0.0
 10
2.8085013761
 20
4.3902132147
 30
0.0
 10
2.8067844958
 20
4.4171260996
 30
0.0
 10
2.8085043814
 20
4.4440374244
 30
0.0
 10
2.813663133
 20
4.471215565
 30
0.0
 10
2.8223159849
 20
4.499049871
 30
0.0
 10
2.8346875723
 20
4.5281457107
 30
0.0
 10
2.8450257807
 20
4.5475724045
 30
0.0
 10
2.8508233318
 20
4.5576140576
 30
0.0
 11
2.8508233318
 21
4.2766140576
 31
0.0
 11
2.8345971004
 21
4.3073857146
 31
0.0
 11
2.8225123439
 21
4.3361063512
 31
0.0
 11
2.8140596706
 21
4.3636274198
 31
0.0
 11
2.8090267852
 21
4.390509135
 31
0.0
 11
2.8073524809
 21
4.4171264911
 31
0.0
 11
2.8090297232
 21
4.4437423816
 31
0.0
 11
2.8140643699
 21
4.4706196503
 31
0.0
 11
2.8225159849
 21
4.4981317469
 31
0.0
 11
2.8345981361
 21
4.5268445826
 31
0.0
 11
2.8508233318
 21
4.5576140576
 31
0.0
  0
SPLINE
  5
3FA
100
AcDbEntity
  8
0
100
AcDbSpline
 62
7
  6
CONTINUOUS
 70
0
 71
3
 72
15
 73
11
 74
9
 42
0.0000001
 43
0.0000001
 44
0.0000000001
 12
0.0
 22
0.1617702498
 32
0.0
 13
0.0
 23
-0.1617702498
 33
0.0
 40
0.0
 40
0.0
 40
0.0
 40
0.0
 40
0.125
 40
0.25
 40
0.375
 40
0.5
 40
0.625
 40
0.75
 40
0.875
 40
1.0
 40
1.0
 40
1.0
 40
1.0
 10
8.3293524805
 20
5.0516140576
 30
0.0
 10
8.3293524805
 20
5.0583544847
 30
0.0
 10
8.3266709719
 20
5.0718353388
 30
0.0
 10
8.3152165362
 20
5.0889781133
 30
0.0
 10
8.2980737618
 20
5.100432549
 30
0.0
 10
8.2778524805
 20
5.1044548119
 30
0.0
 10
8.2576311993
 20
5.100432549
 30
0.0
 10
8.2404884248
 20
5.0889781133
 30
0.0
 10
8.2290339891
 20
5.0718353388
 30
0.0
 10
8.2263524805
 20
5.0583544847
 30
0.0
 10
8.2263524805
 20
5.0516140576
 30
0.0
 11
8.3293524805
 21
5.0516140576
 31
0.0
 11
8.3254322765
 21
5.0713222544
 31
0.0
 11
8.3142684798
 21
5.0880300568
 31
0.0
 11
8.2975606773
 21
5.0991938535
 31
0.0
 11
8.2778524805
 21
5.1031140576
 31
0.0
 11
8.2581442838
 21
5.0991938535
 31
0.0
 11
8.2414364813
 21
5.0880300568
 31
0.0
 11
8.2302726846
 21
5.0713222544
 31
0.0
 11
8.2263524805
 21
5.0516140576
 31
0.0
  0
SPLINE
  5
3FB
100
AcDbEntity
  8
0
100
AcDbSpline
 62
7
  6
CONTINUOUS
 70
0
 71
3
 72
15
 73
11
 74
9
 42
0.0000001
 43
0.0000001
 44
0.0000000001
 12
0.0
 22
-0.1617702498
 32
0.0
 13
0.0
 23
0.1617702498
 33
0.0
 40
0.0
 40
0.0
 40
0.0
 40
0.0
 40
0.125
 40
0.25
 40
0.375
 40
0.5
 40
0.625
 40
0.75
 40
0.875
 40
1.0
 40
1.0
 40
1.0
 40
1.0
 10
8.3293524805
 20
3.5016140576
 30
0.0
 10
8.3293524805
 20
3.4948736305
 30
0.0
 10
8.3266709719
 20
3.4813927764
 30
0.0
 10
8.3152165362
 20
3.4642500019
 30
0.0
 10
8.2980737618
 20
3.4527955662
 30
0.0
 10
8.2778524805
 20
3.4487733033
 30
0.0
 10
8.2576311993
 20
3.4527955662
 30
0.0
 10
8.2404884248
 20
3.4642500019
 30
0.0
 10
8.2290339891
 20
3.4813927764
 30
0.0
 10
8.2263524805
 20
3.4948736305
 30
0.0
 10
8.2263524805
 20
3.5016140576
 30
0.0
 11
8.3293524805
 21
3.5016140576
 31
0.0
 11
8.3254322765
 21
3.4819058608
 31
0.0
 11
8.3142684798
 21
3.4651980584
 31
0.0
 11
8.2975606773
 21
3.4540342617
 31
0.0
 11
8.2778524805
 21
3.4501140576
 31
0.0
 11
8.2581442838
 21
3.4540342617
 31
0.0
 11
8.2414364813
 21
3.4651980584
 31
0.0
 11
8.2302726846
 21
3.4819058608
 31
0.0
 11
8.2263524805
 21
3.5016140576
 31
0.0
  0
SPLINE
  5
3FC
100
AcDbEntity
  8
0
100
AcDbSpline
 62
7
  6
CONTINUOUS
 70
0
 71
3
 72
14
 73
10
 74
8
 42
0.0000001
 43
0.0000001
 44
0.0000000001
 12
0.0
 22
0.1323573704
 32
0.0
 13
-0.0715842835
 23
-0.1113582083
 33
0.0
 40
0.0
 40
0.0
 40
0.0
 40
0.0
 40
0.152777901
 40
0.305555802
 40
0.458333703
 40
0.6111116041
 40
0.7638895051
 40
0.9166674061
 40
1.0
 40
1.0
 40
1.0
 40
1.0
 10
5.5423524805
 20
5.1941140576
 30
0.0
 10
5.5423524805
 20
5.2008544847
 30
0.0
 10
5.5396709719
 20
5.2143353388
 30
0.0
 10
5.5282165362
 20
5.2314781133
 30
0.0
 10
5.5110737618
 20
5.242932549
 30
0.0
 10
5.4908524805
 20
5.2469548119
 30
0.0
 10
5.4706311993
 20
5.242932549
 30
0.0
 10
5.4560858451
 20
5.233213654
 30
0.0
 10
5.4495190998
 20
5.2250485535
 30
0.0
 10
5.4475306651
 20
5.2219552974
 30
0.0
 11
5.5423524805
 21
5.1941140576
 31
0.0
 11
5.5384322765
 21
5.2138222544
 31
0.0
 11
5.5272684798
 21
5.2305300568
 31
0.0
 11
5.5105606773
 21
5.2416938535
 31
0.0
 11
5.4908524805
 21
5.2456140576
 31
0.0
 11
5.4711442838
 21
5.2416938535
 31
0.0
 11
5.4544364813
 21
5.2305300568
 31
0.0
 11
5.4475306651
 21
5.2219552974
 31
0.0
  0
SPLINE
  5
3FD
100
AcDbEntity
  8
0
100
AcDbSpline
 62
7
  6
CONTINUOUS
 70
0
 71
3
 72
9
 73
5
 74
3
 42
0.0000001
 43
0.0000001
 44
0.0000000001
 12
-0.0159076891
 22
-0.0247463783
 32
0.0
 13
0.0
 23
-0.0294128795
 33
0.0
 40
0.0
 40
0.0
 40
0.0
 40
0.0
 40
0.3125024955
 40
1.0
 40
1.0
 40
1.0
 40
1.0
 10
5.4475306651
 20
5.2219552974
 30
0.0
 10
5.4458736009
 20
5.219377529
 30
0.0
 10
5.4413026757
 20
5.2106587778
 30
0.0
 10
5.4393524805
 20
5.2008544847
 30
0.0
 10
5.4393524805
 20
5.1941140576
 30
0.0
 11
5.4475306651
 21
5.2219552974
 31
0.0
 11
5.4432726846
 21
5.2138222544
 31
0.0
 11
5.4393524805
 21
5.1941140576
 31
0.0
  0
SPLINE
  5
3FE
100
AcDbEntity
  8
0
100
AcDbSpline
 62
7
  6
CONTINUOUS
 70
0
 71
3
 72
14
 73
10
 74
8
 42
0.0000001
 43
0.0000001
 44
0.0000000001
 12
0.0
 22
-0.1323573704
 32
0.0
 13
-0.0715842835
 23
0.1113582083
 33
0.0
 40
0.0
 40
0.0
 40
0.0
 40
0.0
 40
0.152777901
 40
0.305555802
 40
0.458333703
 40
0.6111116041
 40
0.7638895051
 40
0.9166674061
 40
1.0
 40
1.0
 40
1.0
 40
1.0
 10
5.5423524805
 20
3.3591140576
 30
0.0
 10
5.5423524805
 20
3.3523736305
 30
0.0
 10
5.5396709719
 20
3.3388927764
 30
0.0
 10
5.5282165362
 20
3.3217500019
 30
0.0
 10
5.5110737618
 20
3.3102955662
 30
0.0
 10
5.4908524805
 20
3.3062733033
 30
0.0
 10
5.4706311993
 20
3.3102955662
 30
0.0
 10
5.4560858451
 20
3.3200144612
 30
0.0
 10
5.4495190998
 20
3.3281795617
 30
0.0
 10
5.4475306651
 20
3.3312728178
 30
0.0
 11
5.5423524805
 21
3.3591140576
 31
0.0
 11
5.5384322765
 21
3.3394058608
 31
0.0
 11
5.5272684798
 21
3.3226980584
 31
0.0
 11
5.5105606773
 21
3.3115342617
 31
0.0
 11
5.4908524805
 21
3.3076140576
 31
0.0
 11
5.4711442838
 21
3.3115342617
 31
0.0
 11
5.4544364813
 21
3.3226980584
 31
0.0
 11
5.4475306651
 21
3.3312728178
 31
0.0
  0
SPLINE
  5
3FF
100
AcDbEntity
  8
0
100
AcDbSpline
 62
7
  6
CONTINUOUS
 70
0
 71
3
 72
9
 73
5
 74
3
 42
0.0000001
 43
0.0000001
 44
0.0000000001
 12
-0.0159076891
 22
0.0247463783
 32
0.0
 13
0.0
 23
0.0294128795
 33
0.0
 40
0.0
 40
0.0
 40
0.0
 40
0.0
 40
0.3125024955
 40
1.0
 40
1.0
 40
1.0
 40
1.0
 10
5.4475306651
 20
3.3312728178
 30
0.0
 10
5.4458736009
 20
3.3338505862
 30
0.0
 10
5.4413026757
 20
3.3425693374
 30
0.0
 10
5.4393524805
 20
3.3523736305
 30
0.0
 10
5.4393524805
 20
3.3591140576
 30
0.0
 11
5.4475306651
 21
3.3312728178
 31
0.0
 11
5.4432726846
 21
3.3394058608
 31
0.0
 11
5.4393524805
 21
3.3591140576
 31
0.0
  0
SPLINE
  5
400
100
AcDbEntity
  8
0
100
AcDbSpline
 62
7
  6
CONTINUOUS
 70
0
 71
3
 72
14
 73
10
 74
8
 42
0.0000001
 43
0.0000001
 44
0.0000000001
 12
0.131259288
 22
0.0222687291
 32
0.0
 13
0.1331349995
 23
0.0
 33
0.0
 40
0.0
 40
0.0
 40
0.0
 40
0.0
 40
0.0250977999
 40
0.1004912161
 40
0.2200593269
 40
0.3800523806
 40
0.5691893756
 40
0.7803095008
 40
1.0
 40
1.0
 40
1.0
 40
1.0
 10
6.5843524805
 20
3.4956140576
 30
0.0
 10
6.585450587
 20
3.4958003563
 30
0.0
 10
6.5898488813
 20
3.4965375392
 30
0.0
 10
6.5994932495
 20
3.4980747303
 30
0.0
 10
6.6150872144
 20
3.5003094967
 30
0.0
 10
6.6357415553
 20
3.5027876614
 30
0.0
 10
6.6605077042
 20
3.5050279621
 30
0.0
 10
6.687982314
 20
3.5065720978
 30
0.0
 10
6.7071029824
 20
3.5069357157
 30
0.0
 10
6.7168524805
 20
3.5069357157
 30
0.0
 11
6.5843524805
 21
3.4956140576
 31
0.0
 11
6.5876479107
 21
3.4961663842
 31
0.0
 11
6.597560332
 21
3.4977460542
 31
0.0
 11
6.6133181677
 21
3.5000034061
 31
0.0
 11
6.6344673773
 21
3.5025390901
 31
0.0
 11
6.6595459486
 21
3.5048052804
 31
0.0
 11
6.6876092585
 21
3.5063803813
 31
0.0
 11
6.7168524805
 21
3.5069357157
 31
0.0
  0
SPLINE
  5
401
100
AcDbEntity
  8
0
100
AcDbSpline
 62
7
  6
CONTINUOUS
 70
0
 71
3
 72
14
 73
10
 74
8
 42
0.0000001
 43
0.0000001
 44
0.0000000001
 12
-0.1312592869
 22
-0.0222687289
 32
0.0
 13
-0.1331349982
 23
-0.0
 33
0.0
 40
0.0
 40
0.0
 40
0.0
 40
0.0
 40
0.0250835363
 40
0.1004456373
 40
0.2199971507
 40
0.3799829552
 40
0.569124695
 40
0.7802625545
 40
1.0
 40
1.0
 40
1.0
 40
1.0
 10
6.8493524805
 20
5.0576140576
 30
0.0
 10
6.8482549982
 20
5.0574278648
 30
0.0
 10
6.8438586996
 20
5.0566910113
 30
0.0
 10
6.834217064
 20
5.0551542084
 30
0.0
 10
6.8186255425
 20
5.0529196529
 30
0.0
 10
6.7979720708
 20
5.0504413641
 30
0.0
 10
6.7732052742
 20
5.0482007218
 30
0.0
 10
6.7457276019
 20
5.0466561498
 30
0.0
 10
6.726604062
 20
5.0462923995
 30
0.0
 10
6.7168524805
 20
5.0462923995
 30
0.0
 11
6.8493524805
 21
5.0576140576
 31
0.0
 11
6.8460589239
 21
5.0570620411
 31
0.0
 11
6.8361506274
 21
5.0554829797
 31
0.0
 11
6.8203949991
 21
5.053225803
 31
0.0
 11
6.7992467756
 21
5.0506900034
 31
0.0
 11
6.774167601
 21
5.0484234726
 31
0.0
 11
6.7461019491
 21
5.046847971
 31
0.0
 11
6.7168524805
 21
5.0462923995
 31
0.0
  0
SPLINE
  5
402
100
AcDbEntity
  8
0
100
AcDbSpline
 62
7
  6
CONTINUOUS
 70
0
 71
3
 72
10
 73
6
 74
4
 42
0.0000001
 43
0.0000001
 44
0.0000000001
 12
0.0349581508
 22
-0.0277238285
 32
0.0
 13
0.0411231286
 23
-0.0170228778
 33
0.0
 40
0.0
 40
0.0
 40
0.0
 40
0.0
 40
0.060737586
 40
0.8585648782
 40
1.0
 40
1.0
 40
1.0
 40
1.0
 10
6.3896276916
 20
3.8284471688
 30
0.0
 10
6.3903354495
 20
3.827885876
 30
0.0
 10
6.4004225599
 20
3.8200601187
 30
0.0
 10
6.413443141
 20
3.8127350401
 30
0.0
 10
6.4262410484
 20
3.8072120922
 30
0.0
 10
6.4281798
 20
3.8064095479
 30
0.0
 11
6.3896276916
 21
3.8284471688
 31
0.0
 11
6.391768102
 21
3.8267863291
 31
0.0
 11
6.4223996866
 21
3.8089061693
 31
0.0
 11
6.4281798
 21
3.8064095479
 31
0.0
  0
SPLINE
  5
403
100
AcDbEntity
  8
0
100
AcDbSpline
 62
7
  6
CONTINUOUS
 70
0
 71
3
 72
8
 73
4
 74
2
 42
0.0000001
 43
0.0000001
 44
0.0000000001
 12
0.0235480879
 22
-0.0097477073
 32
0.0
 13
0.0244422152
 23
-0.0072170133
 33
0.0
 40
0.0
 40
0.0
 40
0.0
 40
0.0
 40
1.0
 40
1.0
 40
1.0
 40
1.0
 10
6.4281798
 20
3.8064095479
 30
0.0
 10
6.4360291626
 20
3.8031603121
 30
0.0
 10
6.4440691481
 20
3.8003881908
 30
0.0
 10
6.4522165532
 20
3.7979825197
 30
0.0
 11
6.4281798
 21
3.8064095479
 31
0.0
 11
6.4522165532
 21
3.7979825197
 31
0.0
  0
SPLINE
  5
404
100
AcDbEntity
  8
0
100
AcDbSpline
 62
7
  6
CONTINUOUS
 70
0
 71
3
 72
10
 73
6
 74
4
 42
0.0000001
 43
0.0000001
 44
0.0000000001
 12
0.0685522077
 22
-0.0202412992
 32
0.0
 13
0.0709840768
 23
-0.0078223633
 33
0.0
 40
0.0
 40
0.0
 40
0.0
 40
0.0
 40
0.1080527308
 40
0.7213353858
 40
1.0
 40
1.0
 40
1.0
 40
1.0
 10
6.4522165532
 20
3.7979825197
 30
0.0
 10
6.4546856376
 20
3.7972534771
 30
0.0
 10
6.4712345415
 20
3.7926112278
 30
0.0
 10
6.4946430196
 20
3.7880645873
 30
0.0
 10
6.5157064227
 20
3.7853668952
 30
0.0
 10
6.5223000062
 20
3.78464029
 30
0.0
 11
6.4522165532
 21
3.7979825197
 31
0.0
 11
6.459651087
 21
3.7958932767
 31
0.0
 11
6.502563037
 21
3.7871850555
 31
0.0
 11
6.5223000062
 21
3.78464029
 31
0.0
  0
SPLINE
  5
405
100
AcDbEntity
  8
0
100
AcDbSpline
 62
7
  6
CONTINUOUS
 70
0
 71
3
 72
8
 73
4
 74
2
 42
0.0000001
 43
0.0000001
 44
0.0000000001
 12
0.0239955717
 22
-0.0026442843
 32
0.0
 13
0.0240821899
 23
-0.0017054984
 33
0.0
 40
0.0
 40
0.0
 40
0.0
 40
0.0
 40
1.0
 40
1.0
 40
1.0
 40
1.0
 10
6.5223000062
 20
3.78464029
 30
0.0
 10
6.5302985301
 20
3.7837588619
 30
0.0
 10
6.538316033
 20
3.7830484507
 30
0.0
 10
6.5463434296
 20
3.7824799513
 30
0.0
 11
6.5223000062
 21
3.78464029
 31
0.0
 11
6.5463434296
 21
3.7824799513
 31
0.0
  0
SPLINE
  5
406
100
AcDbEntity
  8
0
100
AcDbSpline
 62
7
  6
CONTINUOUS
 70
0
 71
3
 72
9
 73
5
 74
3
 42
0.0000001
 43
0.0000001
 44
0.0000000001
 12
0.0529250906
 22
-0.0037481498
 32
0.0
 13
0.053041597
 23
0.0
 33
0.0
 40
0.0
 40
0.0
 40
0.0
 40
0.0
 40
0.0670055043
 40
1.0
 40
1.0
 40
1.0
 40
1.0
 10
6.5463434296
 20
3.7824799513
 30
0.0
 10
6.5475255204
 20
3.7823962357
 30
0.0
 10
6.5651704192
 20
3.7811927786
 30
0.0
 10
6.5828566412
 20
3.7806540294
 30
0.0
 10
6.5993524805
 20
3.7806540294
 30
0.0
 11
6.5463434296
 21
3.7824799513
 31
0.0
 11
6.5498903166
 21
3.7822379436
 31
0.0
 11
6.5993524805
 21
3.7806540294
 31
0.0
  0
SPLINE
  5
407
100
AcDbEntity
  8
0
100
AcDbSpline
 62
7
  6
CONTINUOUS
 70
0
 71
3
 72
16
 73
12
 74
10
 42
0.0000001
 43
0.0000001
 44
0.0000000001
 12
-0.0001799917
 22
0.3556323427
 32
0.0
 13
0.354458776
 23
0.0
 33
0.0
 40
0.0
 40
0.0
 40
0.0
 40
0.0
 40
0.0020010632
 40
0.1041488023
 40
0.2144280126
 40
0.3330804148
 40
0.4588057518
 40
0.5898653659
 40
0.7245857882
 40
0.8618543261
 40
1.0
 40
1.0
 40
1.0
 40
1.0
 10
6.3493528565
 20
3.7243699454
 30
0.0
 10
6.3493527365
 20
3.7246071596
 30
0.0
 10
6.349381956
 20
3.7369528155
 30
0.0
 10
6.3532347137
 20
3.762282309
 30
0.0
 10
6.3681927263
 20
3.7987633794
 30
0.0
 10
6.3917105131
 20
3.8337501463
 30
0.0
 10
6.4228464946
 20
3.8656642916
 30
0.0
 10
6.4605237486
 20
3.8928874609
 30
0.0
 10
6.5035478244
 20
3.9138657191
 30
0.0
 10
6.5504094874
 20
3.9271605135
 30
0.0
 10
6.583030165
 20
3.9301981497
 30
0.0
 10
6.5993524805
 20
3.9301981497
 30
0.0
 11
6.3493528565
 21
3.7243699454
 31
0.0
 11
6.3493545393
 21
3.7250815503
 31
0.0
 11
6.3544252287
 21
3.7609318883
 31
0.0
 11
6.3689370126
 21
3.7972277829
 31
0.0
 11
6.39219903
 21
3.8322663645
 31
0.0
 11
6.4232230804
 21
3.8642585264
 31
0.0
 11
6.4608506598
 21
3.8915028598
 31
0.0
 11
6.5037771305
 21
3.9124229806
 31
0.0
 11
6.5505954511
 21
3.9256689191
 31
0.0
 11
6.5993524805
 21
3.9301981497
 31
0.0
  0
SPLINE
  5
408
100
AcDbEntity
  8
0
100
AcDbSpline
 62
7
  6
CONTINUOUS
 70
0
 71
3
 72
11
 73
7
 74
5
 42
0.0000001
 43
0.0000001
 44
0.0000000001
 12
-0.0648114673
 22
0.0514002171
 32
0.0
 13
-0.0799841019
 23
0.0201137112
 33
0.0
 40
0.0
 40
0.0
 40
0.0
 40
0.0
 40
0.0345890515
 40
0.464692193
 40
0.9432027806
 40
1.0
 40
1.0
 40
1.0
 40
1.0
 10
6.8090792584
 20
4.7247792665
 30
0.0
 10
6.8083320026
 20
4.7253718947
 30
0.0
 10
6.7982054306
 20
4.7332188228
 30
0.0
 10
6.7754267952
 20
4.74600822
 30
0.0
 10
6.7501757657
 20
4.754466392
 30
0.0
 10
6.7359280699
 20
4.7581574396
 30
0.0
 10
6.7344137784
 20
4.7585382406
 30
0.0
 11
6.8090792584
 21
4.7247792665
 31
0.0
 11
6.8068184017
 21
4.7265314913
 31
0.0
 11
6.7761875563
 21
4.7443749244
 31
0.0
 11
6.7389487144
 21
4.7573629395
 31
0.0
 11
6.7344137784
 21
4.7585382406
 31
0.0
  0
SPLINE
  5
409
100
AcDbEntity
  8
0
100
AcDbSpline
 62
7
  6
CONTINUOUS
 70
0
 71
3
 72
8
 73
4
 74
2
 42
0.0000001
 43
0.0000001
 44
0.0000000001
 12
-0.0237801117
 22
0.0059800171
 32
0.0
 13
-0.0241228395
 23
0.004380245
 33
0.0
 40
0.0
 40
0.0
 40
0.0
 40
0.0
 40
1.0
 40
1.0
 40
1.0
 40
1.0
 10
6.7344137784
 20
4.7585382406
 30
0.0
 10
6.7264870745
 20
4.7605315796
 30
0.0
 10
6.7184896004
 20
4.7622282613
 30
0.0
 10
6.7104486539
 20
4.763688343
 30
0.0
 11
6.7344137784
 21
4.7585382406
 31
0.0
 11
6.7104486539
 21
4.763688343
 31
0.0
  0
SPLINE
  5
40A
100
AcDbEntity
  8
0
100
AcDbSpline
 62
7
  6
CONTINUOUS
 70
0
 71
3
 72
10
 73
6
 74
4
 42
0.0000001
 43
0.0000001
 44
0.0000000001
 12
-0.0694418662
 22
0.0126093111
 32
0.0
 13
-0.0704563005
 23
0.0037869739
 33
0.0
 40
0.0
 40
0.0
 40
0.0
 40
0.0
 40
0.2065689154
 40
0.8806346054
 40
1.0
 40
1.0
 40
1.0
 40
1.0
 10
6.7104486539
 20
4.763688343
 30
0.0
 10
6.7056671436
 20
4.7645565735
 30
0.0
 10
6.685217307
 20
4.7679013064
 30
0.0
 10
6.6617968156
 20
4.7702334001
 30
0.0
 10
6.6431683062
 20
4.7713438029
 30
0.0
 10
6.6403649582
 20
4.7714944807
 30
0.0
 11
6.7104486539
 21
4.763688343
 31
0.0
 11
6.6960637469
 21
4.7660546755
 31
0.0
 11
6.648772288
 21
4.7709929531
 31
0.0
 11
6.6403649582
 21
4.7714944807
 31
0.0
  0
SPLINE
  5
40B
100
AcDbEntity
  8
0
100
AcDbSpline
 62
7
  6
CONTINUOUS
 70
0
 71
3
 72
8
 73
4
 74
2
 42
0.0000001
 43
0.0000001
 44
0.0000000001
 12
-0.0239889709
 22
0.0012893894
 32
0.0
 13
-0.0240156772
 23
0.0005161056
 33
0.0
 40
0.0
 40
0.0
 40
0.0
 40
0.0
 40
1.0
 40
1.0
 40
1.0
 40
1.0
 10
6.6403649582
 20
4.7714944807
 30
0.0
 10
6.6323686345
 20
4.7719242772
 30
0.0
 10
6.6243655008
 20
4.772220855
 30
0.0
 10
6.6163602751
 20
4.7723928902
 30
0.0
 11
6.6403649582
 21
4.7714944807
 31
0.0
 11
6.6163602751
 21
4.7723928902
 31
0.0
  0
SPLINE
  5
40C
100
AcDbEntity
  8
0
100
AcDbSpline
 62
7
  6
CONTINUOUS
 70
0
 71
3
 72
8
 73
4
 74
2
 42
0.0000001
 43
0.0000001
 44
0.0000000001
 12
-0.0170063227
 22
0.000365472
 32
0.0
 13
-0.0170075911
 23
0.0
 33
0.0
 40
0.0
 40
0.0
 40
0.0
 40
0.0
 40
1.0
 40
1.0
 40
1.0
 40
1.0
 10
6.6163602751
 20
4.7723928902
 30
0.0
 10
6.6106915009
 20
4.7725147142
 30
0.0
 10
6.6050216776
 20
4.7725740858
 30
0.0
 10
6.5993524805
 20
4.7725740858
 30
0.0
 11
6.6163602751
 21
4.7723928902
 31
0.0
 11
6.5993524805
 21
4.7725740858
 31
0.0
  0
SPLINE
  5
40D
100
AcDbEntity
  8
0
100
AcDbSpline
 62
7
  6
CONTINUOUS
 70
0
 71
3
 72
16
 73
12
 74
10
 42
0.0000001
 43
0.0000001
 44
0.0000000001
 12
0.0001801654
 22
-0.3556314926
 32
0.0
 13
-0.3544589164
 23
0.0
 33
0.0
 40
0.0
 40
0.0
 40
0.0
 40
0.0
 40
0.0019454925
 40
0.1040936554
 40
0.2143791327
 40
0.3330371786
 40
0.4587692639
 40
0.589836537
 40
0.7245663851
 40
0.8618446784
 40
1.0
 40
1.0
 40
1.0
 40
1.0
 10
6.8493521154
 20
4.8288583883
 30
0.0
 10
6.8493522322
 20
4.8286277622
 30
0.0
 10
6.8493240165
 20
4.8162886581
 30
0.0
 10
6.8454757065
 20
4.7909642943
 30
0.0
 10
6.8305208316
 20
4.7544802166
 30
0.0
 10
6.8070043474
 20
4.7194898135
 30
0.0
 10
6.7758684404
 20
4.6875721893
 30
0.0
 10
6.7381900214
 20
4.660345719
 30
0.0
 10
6.6951636934
 20
4.6393646865
 30
0.0
 10
6.6482989421
 20
4.6260680335
 30
0.0
 10
6.6156759424
 20
4.6230299655
 30
0.0
 10
6.5993524805
 20
4.6230299655
 30
0.0
 11
6.8493521154
 21
4.8288583883
 31
0.0
 11
6.8493505347
 21
4.8281665456
 31
0.0
 11
6.8442849223
 21
4.7923153237
 31
0.0
 11
6.829776142
 21
4.7560158194
 31
0.0
 11
6.8065156646
 21
4.7209737944
 31
0.0
 11
6.7754917561
 21
4.6889781384
 31
0.0
 11
6.737863146
 21
4.6617305683
 31
0.0
 11
6.6949343158
 21
4.6408076194
 31
0.0
 11
6.6481129048
 21
4.6275598313
 31
0.0
 11
6.5993524805
 21
4.6230299655
 31
0.0
  0
SPLINE
  5
40E
100
AcDbEntity
  8
0
100
AcDbSpline
 62
7
  6
CONTINUOUS
 70
0
 71
3
 72
15
 73
11
 74
9
 42
0.0000001
 43
0.0000001
 44
0.0000000001
 12
-0.3544520384
 22
0.0
 32
0.0
 13
0.000026415
 23
0.3554683494
 33
0.0
 40
0.0
 40
0.0
 40
0.0
 40
0.0
 40
0.1427059339
 40
0.2844710742
 40
0.4235381846
 40
0.5580756603
 40
0.6868160428
 40
0.8076916793
 40
0.9201270338
 40
1.0
 40
1.0
 40
1.0
 40
1.0
 10
6.5993524805
 20
4.6230299655
 30
0.0
 10
6.5824916775
 20
4.6230299655
 30
0.0
 10
6.5487934855
 20
4.6262726097
 30
0.0
 10
6.5005111851
 20
4.640442943
 30
0.0
 10
6.4564775725
 20
4.66271266
 30
0.0
 10
6.4183078132
 20
4.6914582197
 30
0.0
 10
6.3872862548
 20
4.7249346868
 30
0.0
 10
6.364490846
 20
4.7614670803
 30
0.0
 10
6.3519513606
 20
4.796642135
 30
0.0
 10
6.3493506021
 20
4.8194272892
 30
0.0
 10
6.3493513054
 20
4.828891393
 30
0.0
 11
6.5993524805
 21
4.6230299655
 31
0.0
 11
6.5490014413
 21
4.6278624558
 31
0.0
 11
6.5007751852
 21
4.6419757295
 31
0.0
 11
6.4567849806
 21
4.6642158816
 31
0.0
 11
6.4187282729
 21
4.6929516577
 31
0.0
 11
6.3878324601
 21
4.7265337175
 31
0.0
 11
6.365394971
 21
4.763033309
 31
0.0
 11
6.3523906004
 21
4.8007048263
 31
0.0
 11
6.3493513054
 21
4.828891393
 31
0.0
  0
SPLINE
  5
40F
100
AcDbEntity
  8
0
100
AcDbSpline
 62
7
  6
CONTINUOUS
 70
0
 71
3
 72
15
 73
11
 74
9
 42
0.0000001
 43
0.0000001
 44
0.0000000001
 12
0.3544518309
 22
0.0
 32
0.0
 13
-0.0000258165
 23
-0.355468263
 33
0.0
 40
0.0
 40
0.0
 40
0.0
 40
0.0
 40
0.1427089404
 40
0.2844768875
 40
0.4235467869
 40
0.5580866793
 40
0.686829373
 40
0.8077063237
 40
0.9201425401
 40
1.0
 40
1.0
 40
1.0
 40
1.0
 10
6.5993524805
 20
3.9301981497
 30
0.0
 10
6.6162136289
 20
3.9301981497
 30
0.0
 10
6.6499124934
 20
3.9269553736
 30
0.0
 10
6.6981956754
 20
3.9127844834
 30
0.0
 10
6.7422299187
 20
3.8905139455
 30
0.0
 10
6.7804000179
 20
3.8617673837
 30
0.0
 10
6.8114214991
 20
3.8282898833
 30
0.0
 10
6.8342163733
 20
3.7917565356
 30
0.0
 10
6.8467542637
 20
3.756582593
 30
0.0
 10
6.8493543434
 20
3.733799167
 30
0.0
 10
6.8493536562
 20
3.7243369029
 30
0.0
 11
6.5993524805
 21
3.9301981497
 31
0.0
 11
6.6497045416
 21
3.9253654618
 31
0.0
 11
6.6979316445
 21
3.9112516442
 31
0.0
 11
6.7419225027
 21
3.889010658
 31
0.0
 11
6.7799795081
 21
3.8602739008
 31
0.0
 11
6.8108752853
 21
3.8266907315
 31
0.0
 11
6.833312169
 21
3.7901902505
 31
0.0
 11
6.8463154679
 21
3.7525180647
 31
0.0
 11
6.8493536562
 21
3.7243369029
 31
0.0
  0
SPLINE
  5
410
100
AcDbEntity
  8
0
100
AcDbSpline
 62
7
  6
CONTINUOUS
 70
0
 71
3
 72
14
 73
10
 74
8
 42
0.0000001
 43
0.0000001
 44
0.0000000001
 12
-0.1331349904
 22
0.0
 32
0.0
 13
-0.1312592812
 23
0.0222687277
 33
0.0
 40
0.0
 40
0.0
 40
0.0
 40
0.0
 40
0.2198063779
 40
0.4313046992
 40
0.6203921511
 40
0.7804557093
 40
0.8998749922
 40
0.9749505893
 40
1.0
 40
1.0
 40
1.0
 40
1.0
 10
6.7168524805
 20
5.0462923995
 30
0.0
 10
6.7070978405
 20
5.0462923995
 30
0.0
 10
6.6879552448
 20
5.0466566263
 30
0.0
 10
6.6604609927
 20
5.0482033145
 30
0.0
 10
6.6356773837
 20
5.0504471748
 30
0.0
 10
6.6150288731
 20
5.0529263069
 30
0.0
 10
6.5994524753
 20
5.0551596936
 30
0.0
 10
6.5898307327
 20
5.0566936049
 30
0.0
 10
6.5854484697
 20
5.0574281181
 30
0.0
 10
6.5843524805
 20
5.0576140576
 30
0.0
 11
6.7168524805
 21
5.0462923995
 31
0.0
 11
6.6875938413
 21
5.0468483193
 31
0.0
 11
6.6594803437
 21
5.0484277087
 31
0.0
 11
6.6344085228
 21
5.0506952912
 31
0.0
 11
6.6132501963
 21
5.0532337736
 31
0.0
 11
6.5975121374
 21
5.055489444
 31
0.0
 11
6.5876415546
 21
5.0570627832
 31
0.0
 11
6.5843524805
 21
5.0576140576
 31
0.0
  0
SPLINE
  5
411
100
AcDbEntity
  8
0
100
AcDbSpline
 62
7
  6
CONTINUOUS
 70
0
 71
3
 72
14
 73
10
 74
8
 42
0.0000001
 43
0.0000001
 44
0.0000000001
 12
0.1331349915
 22
0.0
 32
0.0
 13
0.1312592821
 23
-0.0222687279
 33
0.0
 40
0.0
 40
0.0
 40
0.0
 40
0.0
 40
0.2197716913
 40
0.431252255
 40
0.620341253
 40
0.7803972099
 40
0.8998299409
 40
0.9749359346
 40
1.0
 40
1.0
 40
1.0
 40
1.0
 10
6.7168524805
 20
3.5069357157
 30
0.0
 10
6.7266055813
 20
3.5069357157
 30
0.0
 10
6.7457458488
 20
3.5065715907
 30
0.0
 10
6.7732378561
 20
3.5050252352
 30
0.0
 10
6.7980204325
 20
3.5027816864
 30
0.0
 10
6.8186692913
 20
3.5003027027
 30
0.0
 10
6.8342473004
 20
3.4980692186
 30
0.0
 10
6.8438716144
 20
3.4965349445
 30
0.0
 10
6.8482558501
 20
3.4958001059
 30
0.0
 10
6.8493524805
 20
3.4956140576
 30
0.0
 11
6.7168524805
 21
3.5069357157
 31
0.0
 11
6.7461065045
 21
3.5063799712
 31
0.0
 11
6.7742176537
 21
3.5048009241
 31
0.0
 11
6.7992896996
 21
3.5025335417
 31
0.0
 11
6.8204470444
 21
3.4999953715
 31
0.0
 11
6.8361868947
 21
3.4977395796
 31
0.0
 11
6.8460614815
 21
3.4961656506
 31
0.0
 11
6.8493524805
 21
3.4956140576
 31
0.0
  0
SPLINE
  5
412
100
AcDbEntity
  8
0
100
AcDbSpline
 62
7
  6
CONTINUOUS
 70
0
 71
3
 72
9
 73
5
 74
3
 42
0.0000001
 43
0.0000001
 44
0.0000000001
 12
-0.0530414479
 22
0.0
 32
0.0
 13
-0.0529249541
 23
-0.0037482039
 33
0.0
 40
0.0
 40
0.0
 40
0.0
 40
0.0
 40
0.9340954748
 40
1.0
 40
1.0
 40
1.0
 40
1.0
 10
6.5993524805
 20
4.7725740858
 30
0.0
 10
6.5828372217
 20
4.7725740858
 30
0.0
 10
6.5651510257
 20
4.7720347444
 30
0.0
 10
6.5475062268
 20
4.7708305061
 30
0.0
 10
6.5463435622
 20
4.7707481649
 30
0.0
 11
6.5993524805
 21
4.7725740858
 31
0.0
 11
6.5498321508
 21
4.7709863477
 31
0.0
 11
6.5463435622
 21
4.7707481649
 31
0.0
  0
SPLINE
  5
413
100
AcDbEntity
  8
0
100
AcDbSpline
 62
7
  6
CONTINUOUS
 70
0
 71
3
 72
8
 73
4
 74
2
 42
0.0000001
 43
0.0000001
 44
0.0000000001
 12
-0.0240823985
 22
-0.0017055422
 32
0.0
 13
-0.0239957835
 23
-0.0026442833
 33
0.0
 40
0.0
 40
0.0
 40
0.0
 40
0.0
 40
1.0
 40
1.0
 40
1.0
 40
1.0
 10
6.5463435622
 20
4.7707481649
 30
0.0
 10
6.538316096
 20
4.7701796508
 30
0.0
 10
6.5302985184
 20
4.7694692487
 30
0.0
 10
6.5222999239
 20
4.7685878209
 30
0.0
 11
6.5463435622
 21
4.7707481649
 31
0.0
 11
6.5222999239
 21
4.7685878209
 31
0.0
  0
SPLINE
  5
414
100
AcDbEntity
  8
0
100
AcDbSpline
 62
7
  6
CONTINUOUS
 70
0
 71
3
 72
10
 73
6
 74
4
 42
0.0000001
 43
0.0000001
 44
0.0000000001
 12
-0.0709832629
 22
-0.0078222017
 32
0.0
 13
-0.0685516451
 23
-0.020240936
 33
0.0
 40
0.0
 40
0.0
 40
0.0
 40
0.0
 40
0.2796053529
 40
0.8931878914
 40
1.0
 40
1.0
 40
1.0
 40
1.0
 10
6.5222999239
 20
4.7685878209
 30
0.0
 10
6.5156841572
 20
4.7678587777
 30
0.0
 10
6.4945918458
 20
4.7651561202
 30
0.0
 10
6.4711843708
 20
4.7606051607
 30
0.0
 10
6.4546579908
 20
4.7559664405
 30
0.0
 10
6.4522172755
 20
4.7552457815
 30
0.0
 11
6.5222999239
 21
4.7685878209
 31
0.0
 11
6.50249673
 21
4.7660331973
 31
0.0
 11
6.4595660783
 21
4.7573120933
 31
0.0
 11
6.4522172755
 21
4.7552457815
 31
0.0
  0
SPLINE
  5
415
100
AcDbEntity
  8
0
100
AcDbSpline
 62
7
  6
CONTINUOUS
 70
0
 71
3
 72
8
 73
4
 74
2
 42
0.0000001
 43
0.0000001
 44
0.0000000001
 12
-0.0244471983
 22
-0.0072184143
 32
0.0
 13
-0.0235527049
 23
-0.0097502398
 33
0.0
 40
0.0
 40
0.0
 40
0.0
 40
0.0
 40
1.0
 40
1.0
 40
1.0
 40
1.0
 10
6.4522172755
 20
4.7552457815
 30
0.0
 10
6.4440682094
 20
4.7528396434
 30
0.0
 10
6.4360265239
 20
4.7500669592
 30
0.0
 10
6.4281756223
 20
4.7468168792
 30
0.0
 11
6.4522172755
 21
4.7552457815
 31
0.0
 11
6.4281756223
 21
4.7468168792
 31
0.0
  0
SPLINE
  5
416
100
AcDbEntity
  8
0
100
AcDbSpline
 62
7
  6
CONTINUOUS
 70
0
 71
3
 72
10
 73
6
 74
4
 42
0.0000001
 43
0.0000001
 44
0.0000000001
 12
-0.0412202959
 22
-0.0170641873
 32
0.0
 13
-0.0350164904
 23
-0.027822907
 33
0.0
 40
0.0
 40
0.0
 40
0.0
 40
0.0
 40
0.1447260036
 40
0.9446556638
 40
1.0
 40
1.0
 40
1.0
 40
1.0
 10
6.4281756223
 20
4.7468168792
 30
0.0
 10
6.4261870727
 20
4.7459936687
 30
0.0
 10
6.4132873026
 20
4.7404204961
 30
0.0
 10
6.400244922
 20
4.7330582555
 30
0.0
 10
6.390186685
 20
4.725225342
 30
0.0
 10
6.3895406969
 20
4.7247120619
 30
0.0
 11
6.4281756223
 21
4.7468168792
 31
0.0
 11
6.4222480484
 21
4.7442535637
 31
0.0
 11
6.3914930033
 21
4.7262326371
 31
0.0
 11
6.3895406969
 21
4.7247120619
 31
0.0
  0
SPLINE
  5
417
100
AcDbEntity
  8
0
100
AcDbSpline
 62
7
  6
CONTINUOUS
 70
0
 71
3
 72
8
 73
4
 74
2
 42
0.0000001
 43
0.0000001
 44
0.0000000001
 12
0.0170076187
 22
0.0
 32
0.0
 13
0.0170063648
 23
0.0003654459
 33
0.0
 40
0.0
 40
0.0
 40
0.0
 40
0.0
 40
1.0
 40
1.0
 40
1.0
 40
1.0
 10
6.5993524805
 20
3.7806540294
 30
0.0
 10
6.6050216867
 20
3.7806540294
 30
0.0
 10
6.6106915226
 20
3.7807133915
 30
0.0
 10
6.6163603108
 20
3.7808352068
 30
0.0
 11
6.5993524805
 21
3.7806540294
 31
0.0
 11
6.6163603108
 21
3.7808352068
 31
0.0
  0
SPLINE
  5
418
100
AcDbEntity
  8
0
100
AcDbSpline
 62
7
  6
CONTINUOUS
 70
0
 71
3
 72
8
 73
4
 74
2
 42
0.0000001
 43
0.0000001
 44
0.0000000001
 12
0.0240158562
 22
0.0005160713
 32
0.0
 13
0.0239891514
 23
0.001289459
 33
0.0
 40
0.0
 40
0.0
 40
0.0
 40
0.0
 40
1.0
 40
1.0
 40
1.0
 40
1.0
 10
6.6163603108
 20
3.7808352068
 30
0.0
 10
6.6243655962
 20
3.7810072306
 30
0.0
 10
6.6323687925
 20
3.7813037998
 30
0.0
 10
6.6403651763
 20
3.7817336194
 30
0.0
 11
6.6163603108
 21
3.7808352068
 31
0.0
 11
6.6403651763
 21
3.7817336194
 31
0.0
  0
SPLINE
  5
419
100
AcDbEntity
  8
0
100
AcDbSpline
 62
7
  6
CONTINUOUS
 70
0
 71
3
 72
10
 73
6
 74
4
 42
0.0000001
 43
0.0000001
 44
0.0000000001
 12
0.0704557092
 22
0.003787118
 32
0.0
 13
0.0694417631
 23
0.0126087312
 33
0.0
 40
0.0
 40
0.0
 40
0.0
 40
0.0
 40
0.1214148551
 40
0.7966645741
 40
1.0
 40
1.0
 40
1.0
 40
1.0
 10
6.6403651763
 20
3.7817336194
 30
0.0
 10
6.6432166329
 20
3.7818868902
 30
0.0
 10
6.6619208047
 20
3.7830037558
 30
0.0
 10
6.6853405174
 20
3.7853427008
 30
0.0
 10
6.7057416697
 20
3.7886851238
 30
0.0
 10
6.7104483265
 20
3.7895397243
 30
0.0
 11
6.6403651763
 21
3.7817336194
 31
0.0
 11
6.6489167331
 21
3.7822446584
 31
0.0
 11
6.6962892084
 21
3.7872069751
 31
0.0
 11
6.7104483265
 21
3.7895397243
 31
0.0
  0
SPLINE
  5
41A
100
AcDbEntity
  8
0
100
AcDbSpline
 62
7
  6
CONTINUOUS
 70
0
 71
3
 72
8
 73
4
 74
2
 42
0.0000001
 43
0.0000001
 44
0.0000000001
 12
0.0241270824
 22
0.0043808205
 32
0.0
 13
0.0237838587
 23
0.0059815363
 33
0.0
 40
0.0
 40
0.0
 40
0.0
 40
0.0
 40
1.0
 40
1.0
 40
1.0
 40
1.0
 10
6.7104483265
 20
3.7895397243
 30
0.0
 10
6.7184906873
 20
3.7909999978
 30
0.0
 10
6.7264895864
 20
3.7926969052
 30
0.0
 10
6.7344175393
 20
3.7946907507
 30
0.0
 11
6.7104483265
 21
3.7895397243
 31
0.0
 11
6.7344175393
 21
3.7946907507
 31
0.0
  0
SPLINE
  5
41B
100
AcDbEntity
  8
0
100
AcDbSpline
 62
7
  6
CONTINUOUS
 70
0
 71
3
 72
11
 73
7
 74
5
 42
0.0000001
 43
0.0000001
 44
0.0000000001
 12
0.0800840308
 22
0.020140783
 32
0.0
 13
0.0648458485
 23
0.0515262422
 33
0.0
 40
0.0
 40
0.0
 40
0.0
 40
0.0
 40
0.0604267622
 40
0.5397851799
 40
0.9719829322
 40
1.0
 40
1.0
 40
1.0
 40
1.0
 10
6.7344175393
 20
3.7946907507
 30
0.0
 10
6.7360306122
 20
3.7950964315
 30
0.0
 10
6.7504137666
 20
3.7988301405
 30
0.0
 10
6.775858006
 20
3.8073926937
 30
0.0
 10
6.7985414552
 20
3.8202237122
 30
0.0
 10
6.8085594825
 20
3.828035374
 30
0.0
 10
6.8091650793
 20
3.8285165788
 30
0.0
 11
6.7344175393
 21
3.7946907507
 31
0.0
 11
6.7392477152
 21
3.7959451794
 31
0.0
 11
6.7765794869
 21
3.809029941
 31
0.0
 11
6.8073356734
 21
3.8270899124
 31
0.0
 11
6.8091650793
 21
3.8285165788
 31
0.0
  0
SPLINE
  5
41C
100
AcDbEntity
  8
0
100
AcDbSpline
 62
7
  6
CONTINUOUS
 70
0
 71
3
 72
14
 73
10
 74
8
 42
0.0000001
 43
0.0000001
 44
0.0000000001
 12
-0.2213297998
 22
0.4040062078
 32
0.0
 13
0.2213297998
 23
0.4040062078
 33
0.0
 40
0.0
 40
0.0
 40
0.0
 40
0.0
 40
0.154834753
 40
0.2973000192
 40
0.4331604793
 40
0.5669593799
 40
0.7028127458
 40
0.8452109428
 40
1.0
 40
1.0
 40
1.0
 40
1.0
 10
3.8923251118
 20
3.354009399
 30
0.0
 10
3.8809019301
 20
3.3748607995
 30
0.0
 10
3.860790964
 20
3.4159625931
 30
0.0
 10
3.8391820326
 20
3.4790888419
 30
0.0
 10
3.8280883009
 20
3.5416916377
 30
0.0
 10
3.8280933339
 20
3.6042908201
 30
0.0
 10
3.8391939878
 20
3.666880657
 30
0.0
 10
3.8608014472
 20
3.7299875801
 30
0.0
 10
3.8809053014
 20
3.7710734695
 30
0.0
 10
3.8923251118
 20
3.7919187161
 30
0.0
 11
3.8923251118
 21
3.354009399
 31
0.0
 11
3.8613862585
 21
3.4182761647
 31
0.0
 11
3.8405274567
 21
3.4805012125
 31
0.0
 11
3.8298762086
 21
3.5421737183
 31
0.0
 11
3.8298810266
 21
3.6038095575
 31
0.0
 11
3.8405403863
 21
3.6654773453
 31
0.0
 11
3.861394273
 21
3.7276714546
 31
0.0
 11
3.8923251118
 21
3.7919187161
 31
0.0
  0
SPLINE
  5
41D
100
AcDbEntity
  8
0
100
AcDbSpline
 62
7
  6
CONTINUOUS
 70
0
 71
3
 72
14
 73
10
 74
8
 42
0.0000001
 43
0.0000001
 44
0.0000000001
 12
-0.2344793064
 22
0.8560175403
 32
0.0
 13
0.2344793064
 23
0.8560175403
 33
0.0
 40
0.0
 40
0.0
 40
0.0
 40
0.0
 40
0.148954496
 40
0.2911277942
 40
0.4306173094
 40
0.569507012
 40
0.7089867217
 40
0.8510903473
 40
1.0
 40
1.0
 40
1.0
 40
1.0
 10
3.8923251118
 20
3.8387047405
 30
0.0
 10
3.8806828628
 20
3.8812072943
 30
0.0
 10
3.8603036264
 20
3.9649634833
 30
0.0
 10
3.8389592523
 20
4.0906801287
 30
0.0
 10
3.8280833427
 20
4.2147753208
 30
0.0
 10
3.8280882572
 20
4.3385603507
 30
0.0
 10
3.8389711176
 20
4.4626312598
 30
0.0
 10
3.86031444
 20
4.588310585
 30
0.0
 10
3.8806863677
 20
4.6720336165
 30
0.0
 10
3.8923251118
 20
4.7145233747
 30
0.0
 11
3.8923251118
 21
3.8387047405
 31
0.0
 11
3.8613862585
 21
3.9672382719
 31
0.0
 11
3.8405274567
 21
4.0916883673
 31
0.0
 11
3.8298762086
 21
4.215033379
 31
0.0
 11
3.8298810266
 21
4.3383050574
 31
0.0
 11
3.8405403863
 21
4.4616406331
 31
0.0
 11
3.861394273
 21
4.5860288517
 31
0.0
 11
3.8923251118
 21
4.7145233747
 31
0.0
  0
SPLINE
  5
41E
100
AcDbEntity
  8
0
100
AcDbSpline
 62
7
  6
CONTINUOUS
 70
0
 71
3
 72
14
 73
10
 74
8
 42
0.0000001
 43
0.0000001
 44
0.0000000001
 12
-0.2213297998
 22
0.4040062078
 32
0.0
 13
0.2213297998
 23
0.4040062078
 33
0.0
 40
0.0
 40
0.0
 40
0.0
 40
0.0
 40
0.154834753
 40
0.2973000192
 40
0.4331604793
 40
0.5669593799
 40
0.7028127458
 40
0.8452109428
 40
1.0
 40
1.0
 40
1.0
 40
1.0
 10
3.8923251118
 20
4.761309399
 30
0.0
 10
3.8809019301
 20
4.7821607995
 30
0.0
 10
3.860790964
 20
4.8232625931
 30
0.0
 10
3.8391820326
 20
4.8863888419
 30
0.0
 10
3.8280883009
 20
4.9489916377
 30
0.0
 10
3.8280933339
 20
5.0115908201
 30
0.0
 10
3.8391939878
 20
5.074180657
 30
0.0
 10
3.8608014472
 20
5.1372875801
 30
0.0
 10
3.8809053014
 20
5.1783734695
 30
0.0
 10
3.8923251118
 20
5.1992187161
 30
0.0
 11
3.8923251118
 21
4.761309399
 31
0.0
 11
3.8613862585
 21
4.8255761647
 31
0.0
 11
3.8405274567
 21
4.8878012125
 31
0.0
 11
3.8298762086
 21
4.9494737183
 31
0.0
 11
3.8298810266
 21
5.0111095575
 31
0.0
 11
3.8405403863
 21
5.0727773453
 31
0.0
 11
3.861394273
 21
5.1349714546
 31
0.0
 11
3.8923251118
 21
5.1992187161
 31
0.0
  0
SPLINE
  5
41F
100
AcDbEntity
  8
0
100
AcDbSpline
 62
7
  6
CONTINUOUS
 70
0
 71
3
 72
15
 73
11
 74
9
 42
0.0000001
 43
0.0000001
 44
0.0000000001
 12
0.3216497524
 22
0.0
 32
0.0
 13
0.0001634891
 23
-0.3227137935
 33
0.0
 40
0.0
 40
0.0
 40
0.0
 40
0.0
 40
0.1521468171
 40
0.2992295665
 40
0.4373337661
 40
0.5649142759
 40
0.6816159064
 40
0.790106865
 40
0.8957178724
 40
1.0
 40
1.0
 40
1.0
 40
1.0
 10
6.5993524805
 20
4.9765833561
 30
0.0
 10
6.6156651425
 20
4.9765833561
 30
0.0
 10
6.6477686472
 20
4.975130257
 30
0.0
 10
6.694269193
 20
4.9685166757
 30
0.0
 10
6.737214691
 20
4.9573560268
 30
0.0
 10
6.7751888331
 20
4.9414335789
 30
0.0
 10
6.8069828783
 20
4.9204254168
 30
0.0
 10
6.8312932391
 20
4.8940034505
 30
0.0
 10
6.8462674316
 20
4.8627041562
 30
0.0
 10
6.8493464324
 20
4.8400761486
 30
0.0
 10
6.8493521154
 20
4.8288583883
 30
0.0
 11
6.5993524805
 21
4.9765833561
 31
0.0
 11
6.6482377024
 21
4.9743114502
 31
0.0
 11
6.6950505621
 21
4.967476983
 31
0.0
 11
6.737969727
 21
4.9560233085
 31
0.0
 11
6.7756573719
 21
4.939787103
 31
0.0
 11
6.8067166811
 21
4.9187075045
 31
0.0
 11
6.8300504081
 21
4.8927599752
 31
0.0
 11
6.844610195
 21
4.8620686601
 31
0.0
 11
6.8493521154
 21
4.8288583883
 31
0.0
  0
SPLINE
  5
420
100
AcDbEntity
  8
0
100
AcDbSpline
 62
7
  6
CONTINUOUS
 70
0
 71
3
 72
15
 73
11
 74
9
 42
0.0000001
 43
0.0000001
 44
0.0000000001
 12
-0.3216497813
 22
0.0
 32
0.0
 13
-0.0001633315
 23
0.3227147217
 33
0.0
 40
0.0
 40
0.0
 40
0.0
 40
0.0
 40
0.1521405907
 40
0.2992065177
 40
0.4372973103
 40
0.5648780308
 40
0.6815851521
 40
0.7901161553
 40
0.8957657397
 40
1.0
 40
1.0
 40
1.0
 40
1.0
 10
6.5993524805
 20
3.5766447591
 30
0.0
 10
6.5830404846
 20
3.5766447591
 30
0.0
 10
6.5509394506
 20
3.5780976875
 30
0.0
 10
6.5044427337
 20
3.5847102703
 30
0.0
 10
6.4615001071
 20
3.5958689816
 30
0.0
 10
6.4235260232
 20
3.6117893625
 30
0.0
 10
6.3917266101
 20
3.6327982388
 30
0.0
 10
6.3674089664
 20
3.6592263481
 30
0.0
 10
6.3524357878
 20
3.690530354
 30
0.0
 10
6.3493585315
 20
3.7131573019
 30
0.0
 10
6.3493528565
 20
3.7243699454
 30
0.0
 11
6.5993524805
 21
3.5766447591
 31
0.0
 11
6.5504692503
 21
3.578916477
 31
0.0
 11
6.5036616674
 21
3.5857496619
 31
0.0
 11
6.4607463434
 21
3.5972010196
 31
0.0
 11
6.4230578645
 21
3.6134354695
 31
0.0
 11
6.391995796
 21
3.6345141533
 31
0.0
 11
6.3686528276
 21
3.6604706988
 31
0.0
 11
6.3540902991
 21
3.6911744502
 31
0.0
 11
6.3493528565
 21
3.7243699454
 31
0.0
  0
SPLINE
  5
421
100
AcDbEntity
  8
0
100
AcDbSpline
 62
7
  6
CONTINUOUS
 70
0
 71
3
 72
15
 73
11
 74
9
 42
0.0000001
 43
0.0000001
 44
0.0000000001
 12
-0.0000234187
 22
-0.3224524445
 32
0.0
 13
-0.3215304184
 23
-0.0
 33
0.0
 40
0.0
 40
0.0
 40
0.0
 40
0.0
 40
0.0249494546
 40
0.1320556647
 40
0.2419581078
 40
0.3640765456
 40
0.5050810681
 40
0.66692961
 40
0.8383893116
 40
1.0
 40
1.0
 40
1.0
 40
1.0
 10
6.8493536562
 20
3.7243369029
 30
0.0
 10
6.8493534614
 20
3.721655232
 30
0.0
 10
6.8488930948
 20
3.7074611047
 30
0.0
 10
6.8433599343
 20
3.681690031
 30
0.0
 10
6.824526479
 20
3.6498877419
 30
0.0
 10
6.7944064745
 20
3.6228165379
 30
0.0
 10
6.7537731626
 20
3.6014645866
 30
0.0
 10
6.7049256744
 20
3.586595279
 30
0.0
 10
6.6523952628
 20
3.5783603418
 30
0.0
 10
6.6166733979
 20
3.5766447591
 30
0.0
 10
6.5993524805
 20
3.5766447591
 30
0.0
 11
6.8493536562
 21
3.7243369029
 31
0.0
 11
6.849088144
 21
3.7162963989
 31
0.0
 11
6.8416970105
 21
3.6826609947
 31
0.0
 11
6.8238925082
 21
3.6521372048
 31
0.0
 11
6.7950887094
 21
3.6254526569
 31
0.0
 11
6.7552822012
 21
3.6037522534
 31
0.0
 11
6.7056676431
 21
3.5880526667
 31
0.0
 11
6.6512518521
 21
3.5792104651
 31
0.0
 11
6.5993524805
 21
3.5766447591
 31
0.0
  0
SPLINE
  5
422
100
AcDbEntity
  8
0
100
AcDbSpline
 62
7
  6
CONTINUOUS
 70
0
 71
3
 72
15
 73
11
 74
9
 42
0.0000001
 43
0.0000001
 44
0.0000000001
 12
0.0000239615
 22
0.3224521049
 32
0.0
 13
0.3215301899
 23
0.0
 33
0.0
 40
0.0
 40
0.0
 40
0.0
 40
0.0
 40
0.0249306723
 40
0.1320265619
 40
0.2419214404
 40
0.3640899592
 40
0.5051049835
 40
0.6669244131
 40
0.8383574024
 40
1.0
 40
1.0
 40
1.0
 40
1.0
 10
6.3493513054
 20
4.828891393
 30
0.0
 10
6.3493515045
 20
4.8315710423
 30
0.0
 10
6.3498114491
 20
4.8457620284
 30
0.0
 10
6.3553419897
 20
4.8715294501
 30
0.0
 10
6.3741741538
 20
4.9033364911
 30
0.0
 10
6.4042983587
 20
4.9304123966
 30
0.0
 10
6.4449352669
 20
4.9517646033
 30
0.0
 10
6.4937780531
 20
4.9666321499
 30
0.0
 10
6.5463057399
 20
4.9748674232
 30
0.0
 10
6.5820281555
 20
4.9765833561
 30
0.0
 10
6.5993524805
 20
4.9765833561
 30
0.0
 11
6.3493513054
 21
4.828891393
 31
0.0
 11
6.3496164293
 21
4.8369258441
 31
0.0
 11
6.35700459
 21
4.8705584789
 31
0.0
 11
6.3748050748
 21
4.9010817671
 31
0.0
 11
6.4036199115
 21
4.9277780534
 31
0.0
 11
6.4434299936
 21
4.9494788884
 31
0.0
 11
6.4930357664
 21
4.965175089
 31
0.0
 11
6.5474429242
 21
4.9740166256
 31
0.0
 11
6.5993524805
 21
4.9765833561
 31
0.0
  0
ENDSEC
  0
SECTION
  2
OBJECTS
  0
DICTIONARY
  5
C
100
AcDbDictionary
280
0
281
1
  3
ACAD_GROUP
350
D
  3
ACAD_MLINESTYLE
350
17
  3
ACAD_LAYOUT
350
1A
  3
ACAD_PLOTSETTINGS
350
19
  3
ACAD_PLOTSTYLENAME
350
E
  0
DICTIONARY
  5
D
102
{ACAD_REACTORS
330
C
102
}
100
AcDbDictionary
280
0
281
1
  0
ACDBDICTIONARYWDFLT
  5
E
102
{ACAD_REACTORS
330
C
102
}
100
AcDbDictionary
281
1
  3
Normal
350
F
100
AcDbDictionaryWithDefault
340
F
  0
DICTIONARY
  5
17
102
{ACAD_REACTORS
330
C
102
}
100
AcDbDictionary
280
0
281
1
  3
Standard
350
18
  0
DICTIONARY
  5
19
102
{ACAD_REACTORS
330
C
102
}
100
AcDbDictionary
281
1
  0
DICTIONARY
  5
1A
102
{ACAD_REACTORS
330
C
102
}
100
AcDbDictionary
281
1
  3
Layout1
350
1E
  3
Model
350
22
  0
ACDBPLACEHOLDER
  5
F
102
{ACAD_REACTORS
330
E
102
}
  0
MLINESTYLE
  5
18
102
{ACAD_REACTORS
330
17
102
}
100
AcDbMlineStyle
  2
STANDARD
 70
0
  3

 62
256
 51
90.0
 52
90.0
 71
2
 49
0.5
 62
256
  6
BYLAYER
 49
-0.5
 62
256
  6
BYLAYER
  0
LAYOUT
  5
1E
102
{ACAD_REACTORS
330
1A
102
}
100
AcDbPlotSettings
  1

  2

  4

  6

 40
0.0
 41
0.0
 42
0.0
 43
0.0
 44
0.0
 45
0.0
 46
0.0
 47
0.0
 48
0.0
 49
0.0
140
0.0
141
0.0
142
1.0
143
1.0
 70
0
 72
0
 73
0
 74
0
  7

 75
0
147
1.0
148
0.0
149
0.0
100
AcDbLayout
  1
Layout1
 70
0
 71
0
 10
0.0
 20
0.0
 11
0.0
 21
0.0
 12
0.0
 22
0.0
 32
0.0
 14
0.0
 24
0.0
 34
0.0
 15
0.0
 25
0.0
 35
0.0
146
0.0
 13
0.0
 23
0.0
 33
0.0
 16
0.0
 26
0.0
 36
0.0
 17
0.0
 27
0.0
 37
0.0
 76
0
330
1B
331
0
345
0
346
0
  0
LAYOUT
  5
22
102
{ACAD_REACTORS
330
1A
102
}
100
AcDbPlotSettings
  1

  2

  4

  6

 40
0.0
 41
0.0
 42
0.0
 43
0.0
 44
0.0
 45
0.0
 46
0.0
 47
0.0
 48
0.0
 49
0.0
140
0.0
141
0.0
142
1.0
143
1.0
 70
0
 72
0
 73
0
 74
0
  7

 75
0
147
1.0
148
0.0
149
0.0
100
AcDbLayout
  1
Model
 70
0
 71
0
 10
0.0
 20
0.0
 11
0.0
 21
0.0
 12
0.0
 22
0.0
 32
0.0
 14
0.0
 24
0.0
 34
0.0
 15
0.0
 25
0.0
 35
0.0
146
0.0
 13
0.0
 23
0.0
 33
0.0
 16
0.0
 26
0.0
 36
0.0
 17
0.0
 27
0.0
 37
0.0
 76
0
330
1F
331
0
345
0
346
0
  0
ENDSEC
  0
EOF
