999
DXF file: NFFC-LGN.dxf
999
Pro/ENGINEER 2006240 by Parametric Technology Corporation
  0
SECTION
  2
HEADER
  9
$ACADVER
  1
AC1015
  9
$DWGCODEPAGE
  3
ANSI_1252
  9
$EXTMAX
 10
11.6929133858
 20
8.2677165354
 30
0.0
  9
$EXTMIN
 10
0.0
 20
0.0
 30
0.0
  9
$LIMMIN
 10
0.0
 20
0.0
  9
$LIMMAX
 10
11.6929133858
 20
8.2677165354
  9
$VIEWCTR
 10
5.8464566929
 20
4.1338582677
  9
$VIEWSIZE
 40
8.2677165354
  9
$CLAYER
  8
0
  9
$LTSCALE
 40
0.6431102362
  9
$CELTYPE
  6
BYLAYER
  9
$DIMSCALE
 40
1.0
  9
$DIMASZ
 40
0.1875
  9
$DIMEXO
 40
0.0730807087
  9
$DIMDLI
 40
0.4443307087
  9
$DIMEXE
 40
0.2104724409
  9
$DIMCEN
 40
0.1052362205
  9
$DIMLFAC
 40
1.0
  9
$DIMBLK
  1
_CLOSED
  9
$DIMTXT
 40
0.15625
  9
$DIMTOL
 70
0
  9
$DIMLIM
 70
0
  9
$DIMTFAC
 40
1.0
  9
$PDMODE
 70
3
  9
$PDSIZE
 40
0.3125
  9
$HANDSEED
  5
3FC
  9
$MEASUREMENT
 70
0
  9
$INSUNITS
 70
1
  0
ENDSEC
  0
SECTION
  2
CLASSES
  0
CLASS
  1
ACDBDICTIONARYWDFLT
  2
AcDbDictionaryWithDefault
  3
AutoCAD 2000
 90
0
280
0
281
0
  0
CLASS
  1
ACDBPLACEHOLDER
  2
AcDbPlaceHolder
  3
AutoCAD 2000
 90
0
280
0
281
0
  0
CLASS
  1
LAYOUT
  2
AcDbLayout
  3
AutoCAD 2000
 90
0
280
0
281
0
  0
ENDSEC
  0
SECTION
  2
TABLES
  0
TABLE
  2
VPORT
  5
8
100
AcDbSymbolTable
 70
2
  0
VPORT
  5
1F4
100
AcDbSymbolTableRecord
100
AcDbViewportTableRecord
  2
*ACTIVE
 70
0
 10
0.0
 20
0.0
 11
1.0
 21
1.0
 12
5.8464566929
 22
4.1338582677
 13
0.0
 23
0.0
 14
1.0
 24
1.0
 15
0.0
 25
0.0
 16
0.0
 26
0.0
 36
1.0
 17
0.0
 27
0.0
 37
0.0
 40
8.2677165354
 41
1.4142857143
 42
50.0
 43
0.0
 44
0.0
 50
0.0
 51
0.0
 71
0
 72
100
 73
1
 74
1
 75
0
 76
0
 77
0
 78
0
  0
ENDTAB
  0
TABLE
  2
LTYPE
  5
5
100
AcDbSymbolTable
 70
6
  0
LTYPE
  5
14
100
AcDbSymbolTableRecord
100
AcDbLinetypeTableRecord
  2
BYBLOCK
 70
0
  3

 72
65
 73
0
 40
0.0
  0
LTYPE
  5
15
100
AcDbSymbolTableRecord
100
AcDbLinetypeTableRecord
  2
BYLAYER
 70
0
  3

 72
65
 73
0
 40
0.0
  0
LTYPE
  5
16
100
AcDbSymbolTableRecord
100
AcDbLinetypeTableRecord
  2
CONTINUOUS
 70
64
  3
Solid line
 72
65
 73
0
 40
0.0
  0
LTYPE
  5
1F5
100
AcDbSymbolTableRecord
100
AcDbLinetypeTableRecord
  2
CENTER
 70
64
  3
____ _ ____ _ ____ _ ____ _ ____ _ ____ _ ____
 72
65
 73
4
 40
0.6
 49
0.375
 74
0
 49
-0.075
 74
0
 49
0.075
 74
0
 49
-0.075
 74
0
  0
LTYPE
  5
1F6
100
AcDbSymbolTableRecord
100
AcDbLinetypeTableRecord
  2
HIDDEN
 70
64
  3
- - - - - - - - - - - - - - - - - - - -
 72
65
 73
2
 40
0.2
 49
0.1
 74
0
 49
-0.1
 74
0
  0
LTYPE
  5
1F7
100
AcDbSymbolTableRecord
100
AcDbLinetypeTableRecord
  2
PHANTOM
 70
64
  3
_____ _ _ _____ _ _ _____ _ _ _____
 72
65
 73
6
 40
0.8
 49
0.45
 74
0
 49
-0.05
 74
0
 49
0.1
 74
0
 49
-0.05
 74
0
 49
0.1
 74
0
 49
-0.05
 74
0
  0
LTYPE
  5
1F8
100
AcDbSymbolTableRecord
100
AcDbLinetypeTableRecord
  2
DOT
 70
64
  3
. . . . . . . . . . . . . . . . . . . .
 72
65
 73
2
 40
0.2
 49
0.1
 74
0
 49
-0.1
 74
0
  0
LTYPE
  5
1F9
100
AcDbSymbolTableRecord
100
AcDbLinetypeTableRecord
  2
DASHED
 70
64
  3
- - - - - - - - - - - - - - - - - - - -
 72
65
 73
2
 40
0.2
 49
0.1
 74
0
 49
-0.1
 74
0
  0
ENDTAB
  0
TABLE
  2
LAYER
  5
2
100
AcDbSymbolTable
 70
36
  0
LAYER
  5
10
100
AcDbSymbolTableRecord
100
AcDbLayerTableRecord
  2
0
 70
0
 62
7
  6
CONTINUOUS
370
-3
390
F
  0
LAYER
  5
1FA
100
AcDbSymbolTableRecord
100
AcDbLayerTableRecord
  2
DEFAULT_1
 70
0
 62
7
  6
CENTER
370
-3
390
F
  0
LAYER
  5
1FB
100
AcDbSymbolTableRecord
100
AcDbLayerTableRecord
  2
DEFAULT_2
 70
0
 62
8
  6
HIDDEN
370
-3
390
F
  0
LAYER
  5
1FC
100
AcDbSymbolTableRecord
100
AcDbLayerTableRecord
  2
DEFAULT_3
 70
0
 62
7
  6
PHANTOM
370
-3
390
F
  0
LAYER
  5
1FD
100
AcDbSymbolTableRecord
100
AcDbLayerTableRecord
  2
01_ALL_DTM_PLN
 70
0
 62
7
  6
CONTINUOUS
370
-3
390
F
  0
LAYER
  5
1FE
100
AcDbSymbolTableRecord
100
AcDbLayerTableRecord
  2
01__ASM_ALL_DTM_PLN
 70
0
 62
7
  6
CONTINUOUS
370
-3
390
F
  0
LAYER
  5
1FF
100
AcDbSymbolTableRecord
100
AcDbLayerTableRecord
  2
01__ASM_DEF_DTM_PLN
 70
0
 62
7
  6
CONTINUOUS
370
-3
390
F
  0
LAYER
  5
200
100
AcDbSymbolTableRecord
100
AcDbLayerTableRecord
  2
01___PRT_ALL_DTM_PLN
 70
0
 62
7
  6
CONTINUOUS
370
-3
390
F
  0
LAYER
  5
201
100
AcDbSymbolTableRecord
100
AcDbLayerTableRecord
  2
01___PRT_DEF_DTM_PLN
 70
0
 62
7
  6
CONTINUOUS
370
-3
390
F
  0
LAYER
  5
202
100
AcDbSymbolTableRecord
100
AcDbLayerTableRecord
  2
02_ALL_AXES
 70
0
 62
7
  6
CONTINUOUS
370
-3
390
F
  0
LAYER
  5
203
100
AcDbSymbolTableRecord
100
AcDbLayerTableRecord
  2
02__ASM_ALL_AXES
 70
0
 62
7
  6
CONTINUOUS
370
-3
390
F
  0
LAYER
  5
204
100
AcDbSymbolTableRecord
100
AcDbLayerTableRecord
  2
02___PRT_ALL_AXES
 70
0
 62
7
  6
CONTINUOUS
370
-3
390
F
  0
LAYER
  5
205
100
AcDbSymbolTableRecord
100
AcDbLayerTableRecord
  2
03_ALL_CURVES
 70
0
 62
7
  6
CONTINUOUS
370
-3
390
F
  0
LAYER
  5
206
100
AcDbSymbolTableRecord
100
AcDbLayerTableRecord
  2
03__ASM_ALL_CURVES
 70
0
 62
7
  6
CONTINUOUS
370
-3
390
F
  0
LAYER
  5
207
100
AcDbSymbolTableRecord
100
AcDbLayerTableRecord
  2
03___PRT_ALL_CURVES
 70
0
 62
7
  6
CONTINUOUS
370
-3
390
F
  0
LAYER
  5
208
100
AcDbSymbolTableRecord
100
AcDbLayerTableRecord
  2
04_ALL_DTM_PNT
 70
0
 62
7
  6
CONTINUOUS
370
-3
390
F
  0
LAYER
  5
209
100
AcDbSymbolTableRecord
100
AcDbLayerTableRecord
  2
04__ASM_ALL_DTM_PNT
 70
0
 62
7
  6
CONTINUOUS
370
-3
390
F
  0
LAYER
  5
20A
100
AcDbSymbolTableRecord
100
AcDbLayerTableRecord
  2
04___PRT_ALL_DTM_PNT
 70
0
 62
7
  6
CONTINUOUS
370
-3
390
F
  0
LAYER
  5
20B
100
AcDbSymbolTableRecord
100
AcDbLayerTableRecord
  2
05_ALL_DTM_CSYS
 70
0
 62
7
  6
CONTINUOUS
370
-3
390
F
  0
LAYER
  5
20C
100
AcDbSymbolTableRecord
100
AcDbLayerTableRecord
  2
05__ASM_ALL_DTM_CSYS
 70
0
 62
7
  6
CONTINUOUS
370
-3
390
F
  0
LAYER
  5
20D
100
AcDbSymbolTableRecord
100
AcDbLayerTableRecord
  2
05__ASM_DEF_DTM_CSYS
 70
0
 62
7
  6
CONTINUOUS
370
-3
390
F
  0
LAYER
  5
20E
100
AcDbSymbolTableRecord
100
AcDbLayerTableRecord
  2
05___PRT_ALL_DTM_CSYS
 70
0
 62
7
  6
CONTINUOUS
370
-3
390
F
  0
LAYER
  5
20F
100
AcDbSymbolTableRecord
100
AcDbLayerTableRecord
  2
05___PRT_DEF_DTM_CSYS
 70
0
 62
7
  6
CONTINUOUS
370
-3
390
F
  0
LAYER
  5
210
100
AcDbSymbolTableRecord
100
AcDbLayerTableRecord
  2
06_ALL_SURFS
 70
0
 62
7
  6
CONTINUOUS
370
-3
390
F
  0
LAYER
  5
211
100
AcDbSymbolTableRecord
100
AcDbLayerTableRecord
  2
06__ASM_ALL_SURFS
 70
0
 62
7
  6
CONTINUOUS
370
-3
390
F
  0
LAYER
  5
212
100
AcDbSymbolTableRecord
100
AcDbLayerTableRecord
  2
06___PRT_ALL_SURFS
 70
0
 62
7
  6
CONTINUOUS
370
-3
390
F
  0
LAYER
  5
213
100
AcDbSymbolTableRecord
100
AcDbLayerTableRecord
  2
07__ASM_ALL_SKELETONS
 70
0
 62
7
  6
CONTINUOUS
370
-3
390
F
  0
LAYER
  5
214
100
AcDbSymbolTableRecord
100
AcDbLayerTableRecord
  2
COPY_GEO_FET
 70
0
 62
7
  6
CONTINUOUS
370
-3
390
F
  0
LAYER
  5
215
100
AcDbSymbolTableRecord
100
AcDbLayerTableRecord
  2
COSMETIC
 70
0
 62
7
  6
CONTINUOUS
370
-3
390
F
  0
LAYER
  5
216
100
AcDbSymbolTableRecord
100
AcDbLayerTableRecord
  2
CURVES
 70
0
 62
7
  6
CONTINUOUS
370
-3
390
F
  0
LAYER
  5
217
100
AcDbSymbolTableRecord
100
AcDbLayerTableRecord
  2
CUT_REF_SURF
 70
0
 62
7
  6
CONTINUOUS
370
-3
390
F
  0
LAYER
  5
218
100
AcDbSymbolTableRecord
100
AcDbLayerTableRecord
  2
DATUM
 70
0
 62
7
  6
CONTINUOUS
370
-3
390
F
  0
LAYER
  5
219
100
AcDbSymbolTableRecord
100
AcDbLayerTableRecord
  2
DATUMCURVES
 70
0
 62
7
  6
CONTINUOUS
370
-3
390
F
  0
LAYER
  5
21A
100
AcDbSymbolTableRecord
100
AcDbLayerTableRecord
  2
DIMENSIONS
 70
0
 62
7
  6
CONTINUOUS
370
-3
390
F
  0
LAYER
  5
21B
100
AcDbSymbolTableRecord
100
AcDbLayerTableRecord
  2
DMT
 70
0
 62
7
  6
CONTINUOUS
370
-3
390
F
  0
LAYER
  5
21C
100
AcDbSymbolTableRecord
100
AcDbLayerTableRecord
  2
DP_SERRATIONS
 70
0
 62
7
  6
CONTINUOUS
370
-3
390
F
  0
LAYER
  5
21D
100
AcDbSymbolTableRecord
100
AcDbLayerTableRecord
  2
DRAWINGNOTES
 70
0
 62
7
  6
CONTINUOUS
370
-3
390
F
  0
LAYER
  5
21E
100
AcDbSymbolTableRecord
100
AcDbLayerTableRecord
  2
DTM
 70
0
 62
7
  6
CONTINUOUS
370
-3
390
F
  0
LAYER
  5
21F
100
AcDbSymbolTableRecord
100
AcDbLayerTableRecord
  2
DTM230
 70
0
 62
7
  6
CONTINUOUS
370
-3
390
F
  0
LAYER
  5
220
100
AcDbSymbolTableRecord
100
AcDbLayerTableRecord
  2
DTM_500001
 70
0
 62
7
  6
CONTINUOUS
370
-3
390
F
  0
LAYER
  5
221
100
AcDbSymbolTableRecord
100
AcDbLayerTableRecord
  2
DTM_500002
 70
0
 62
7
  6
CONTINUOUS
370
-3
390
F
  0
LAYER
  5
222
100
AcDbSymbolTableRecord
100
AcDbLayerTableRecord
  2
DTM_515002
 70
0
 62
7
  6
CONTINUOUS
370
-3
390
F
  0
LAYER
  5
223
100
AcDbSymbolTableRecord
100
AcDbLayerTableRecord
  2
DTM_530002
 70
0
 62
7
  6
CONTINUOUS
370
-3
390
F
  0
LAYER
  5
224
100
AcDbSymbolTableRecord
100
AcDbLayerTableRecord
  2
DTM_WIRE
 70
0
 62
7
  6
CONTINUOUS
370
-3
390
F
  0
LAYER
  5
225
100
AcDbSymbolTableRecord
100
AcDbLayerTableRecord
  2
GEOMETRICTOLERANCES
 70
0
 62
7
  6
CONTINUOUS
370
-3
390
F
  0
LAYER
  5
226
100
AcDbSymbolTableRecord
100
AcDbLayerTableRecord
  2
LAY0001
 70
0
 62
7
  6
CONTINUOUS
370
-3
390
F
  0
LAYER
  5
227
100
AcDbSymbolTableRecord
100
AcDbLayerTableRecord
  2
PARAMETERDIMENSIONS
 70
0
 62
7
  6
CONTINUOUS
370
-3
390
F
  0
LAYER
  5
228
100
AcDbSymbolTableRecord
100
AcDbLayerTableRecord
  2
PLANE
 70
0
 62
7
  6
CONTINUOUS
370
-3
390
F
  0
LAYER
  5
229
100
AcDbSymbolTableRecord
100
AcDbLayerTableRecord
  2
TEXT
 70
0
 62
7
  6
CONTINUOUS
370
-3
390
F
  0
LAYER
  5
22A
100
AcDbSymbolTableRecord
100
AcDbLayerTableRecord
  2
THREAD
 70
0
 62
7
  6
CONTINUOUS
370
-3
390
F
  0
ENDTAB
  0
TABLE
  2
STYLE
  5
3
100
AcDbSymbolTable
 70
1
  0
STYLE
  5
11
100
AcDbSymbolTableRecord
100
AcDbTextStyleTableRecord
  2
STANDARD
 70
0
 40
0.0
 41
0.8
 50
0.0
 71
0
 42
0.2
  3
txt
  4

  0
ENDTAB
  0
TABLE
  2
VIEW
  5
6
100
AcDbSymbolTable
 70
0
  0
ENDTAB
  0
TABLE
  2
UCS
  5
7
100
AcDbSymbolTable
 70
0
  0
ENDTAB
  0
TABLE
  2
APPID
  5
9
100
AcDbSymbolTable
 70
1
  0
APPID
  5
22B
100
AcDbSymbolTableRecord
100
AcDbRegAppTableRecord
  2
ACAD
 70
0
  0
ENDTAB
  0
TABLE
  2
BLOCK_RECORD
  5
1
100
AcDbSymbolTable
 70
0
  0
BLOCK_RECORD
  5
1F
100
AcDbSymbolTableRecord
100
AcDbBlockTableRecord
  2
*MODEL_SPACE
  0
BLOCK_RECORD
  5
1B
100
AcDbSymbolTableRecord
100
AcDbBlockTableRecord
  2
*PAPER_SPACE
  0
ENDTAB
  0
TABLE
  2
DIMSTYLE
  5
A
100
AcDbSymbolTable
 70
1
100
AcDbDimStyleTable
 71
0
  0
DIMSTYLE
105
22C
100
AcDbSymbolTableRecord
100
AcDbDimStyleTableRecord
  2
STANDARD
 70
0
  3

  4

 40
1.0
 41
0.1875
 42
0.0625
 43
0.38
 44
0.18
 45
0.0
 46
0.0
 47
0.01
 48
0.01
140
0.15625
141
0.09
142
0.0
143
25.4
144
1.0
145
0.0
146
1.0
147
0.09
 71
0.0
 72
0.0
 73
1
 74
1
 75
0
 76
0
 77
0
 78
4
170
0
171
2
172
0
173
0
174
0
175
0
176
0
177
0
178
0
270
2
271
2
272
2
273
2
274
2
275
0
280
0
281
0
282
0
283
1
284
4
285
0
286
0
287
3
288
0
340
11
  0
ENDTAB
  0
ENDSEC
  0
SECTION
  2
BLOCKS
  0
BLOCK
  5
20
100
AcDbEntity
  8
0
100
AcDbBlockBegin
  2
*MODEL_SPACE
 70
0
 10
0.0
 20
0.0
 30
0.0
  3
*MODEL_SPACE
  1

  0
ENDBLK
  5
21
100
AcDbEntity
  8
0
100
AcDbBlockEnd
  0
BLOCK
  5
1C
100
AcDbEntity
  8
0
100
AcDbBlockBegin
  2
*PAPER_SPACE
 70
0
 10
0.0
 20
0.0
 30
0.0
  3
*PAPER_SPACE
  1

  0
ENDBLK
  5
1D
100
AcDbEntity
  8
0
100
AcDbBlockEnd
  0
ENDSEC
  0
SECTION
  2
ENTITIES
  0
LINE
  5
22D
100
AcDbEntity
  8
0
100
AcDbLine
 62
7
  6
CONTINUOUS
 10
2.3323524805
 20
4.1202520576
 11
2.3323524805
 21
4.4332520576
  0
LINE
  5
22E
100
AcDbEntity
  8
03__ASM_ALL_CURVES
100
AcDbLine
 62
40
  6
CONTINUOUS
 10
2.3323524805
 20
4.4332520576
 11
2.3323524805
 21
5.6339140576
  0
LINE
  5
22F
100
AcDbEntity
  8
0
100
AcDbLine
 62
7
  6
CONTINUOUS
 10
2.3633524805
 20
4.0892520576
 11
2.3633524805
 21
4.4642520576
  0
LINE
  5
230
100
AcDbEntity
  8
03__ASM_ALL_CURVES
100
AcDbLine
 62
40
  6
CONTINUOUS
 10
2.5179624805
 20
5.6029790576
 11
2.5179624805
 21
5.5411090576
  0
LINE
  5
231
100
AcDbEntity
  8
0
100
AcDbLine
 62
7
  6
CONTINUOUS
 10
2.7023524805
 20
4.0291008725
 11
2.7023524805
 21
4.5244032427
  0
LINE
  5
232
100
AcDbEntity
  8
0
100
AcDbLine
 62
7
  6
CONTINUOUS
 10
2.7643524805
 20
4.0057520576
 11
2.7643524805
 21
4.5477520576
  0
LINE
  5
233
100
AcDbEntity
  8
0
100
AcDbLine
 62
7
  6
CONTINUOUS
 10
2.7703524805
 20
4.0057520576
 11
2.7703524805
 21
4.5477520576
  0
LINE
  5
234
100
AcDbEntity
  8
0
100
AcDbLine
 62
7
  6
CONTINUOUS
 10
2.7758524805
 20
4.0112520576
 11
2.7758524805
 21
4.5422520576
  0
LINE
  5
235
100
AcDbEntity
  8
0
100
AcDbLine
 62
7
  6
CONTINUOUS
 10
2.7918524805
 20
4.0112520576
 11
2.7918524805
 21
4.5422520576
  0
LINE
  5
236
100
AcDbEntity
  8
03__ASM_ALL_CURVES
100
AcDbLine
 62
40
  6
CONTINUOUS
 10
3.1276462305
 20
5.7499203076
 11
3.117979043
 21
5.7370307273
  0
LINE
  5
237
100
AcDbEntity
  8
0
100
AcDbLine
 62
7
  6
CONTINUOUS
 10
2.9833524805
 20
4.0057520576
 11
2.9833524805
 21
4.5477520576
  0
LINE
  5
238
100
AcDbEntity
  8
0
100
AcDbLine
 62
7
  6
CONTINUOUS
 10
3.0143524805
 20
3.5577520576
 11
3.0143524805
 21
4.9957520576
  0
LINE
  5
239
100
AcDbEntity
  8
03__ASM_ALL_CURVES
100
AcDbLine
 62
40
  6
CONTINUOUS
 10
3.3596587305
 20
5.7370307273
 11
3.369325918
 21
5.7628098879
  0
LINE
  5
23A
100
AcDbEntity
  8
03__ASM_ALL_CURVES
100
AcDbLine
 62
40
  6
CONTINUOUS
 10
3.137313418
 20
5.6725828076
 11
3.117979043
 21
5.6468036413
  0
LINE
  5
23B
100
AcDbEntity
  8
03__ASM_ALL_CURVES
100
AcDbLine
 62
40
  6
CONTINUOUS
 10
3.369325918
 20
5.7628098879
 11
3.3789931055
 21
5.7756994773
  0
LINE
  5
23C
100
AcDbEntity
  8
03__ASM_ALL_CURVES
100
AcDbLine
 62
40
  6
CONTINUOUS
 10
3.059975918
 20
5.7756994773
 11
3.079310293
 21
5.7885890576
  0
LINE
  5
23D
100
AcDbEntity
  8
0
100
AcDbLine
 62
7
  6
CONTINUOUS
 10
3.0763524805
 20
3.4957520576
 11
3.0763524805
 21
5.0577520576
  0
LINE
  5
23E
100
AcDbEntity
  8
03__ASM_ALL_CURVES
100
AcDbLine
 62
40
  6
CONTINUOUS
 10
3.1276462305
 20
5.7628098879
 11
3.1276462305
 21
5.7499203076
  0
LINE
  5
23F
100
AcDbEntity
  8
03__ASM_ALL_CURVES
100
AcDbLine
 62
40
  6
CONTINUOUS
 10
3.137313418
 20
5.6854723925
 11
3.137313418
 21
5.6725828076
  0
LINE
  5
240
100
AcDbEntity
  8
03__ASM_ALL_CURVES
100
AcDbLine
 62
40
  6
CONTINUOUS
 10
3.233985293
 20
5.6339140576
 11
3.233985293
 21
5.6468036413
  0
LINE
  5
241
100
AcDbEntity
  8
03__ASM_ALL_CURVES
100
AcDbLine
 62
40
  6
CONTINUOUS
 10
3.4369962305
 20
5.6854723925
 11
3.427329043
 21
5.659693225
  0
LINE
  5
242
100
AcDbEntity
  8
03__ASM_ALL_CURVES
100
AcDbLine
 62
40
  6
CONTINUOUS
 10
3.601338418
 20
5.6854723925
 11
3.5916712305
 21
5.659693225
  0
LINE
  5
243
100
AcDbEntity
  8
03__ASM_ALL_CURVES
100
AcDbLine
 62
40
  6
CONTINUOUS
 10
3.427329043
 20
5.659693225
 11
3.4176618555
 21
5.6468036413
  0
LINE
  5
244
100
AcDbEntity
  8
03__ASM_ALL_CURVES
100
AcDbLine
 62
40
  6
CONTINUOUS
 10
3.5916712305
 20
5.659693225
 11
3.582004043
 21
5.6468036413
  0
LINE
  5
245
100
AcDbEntity
  8
03__ASM_ALL_CURVES
100
AcDbLine
 62
40
  6
CONTINUOUS
 10
3.717344668
 20
5.7885890576
 11
3.698010293
 21
5.7628098879
  0
LINE
  5
246
100
AcDbEntity
  8
0
100
AcDbLine
 62
7
  6
CONTINUOUS
 10
2.3633524805
 20
4.4642520576
 11
2.3323524805
 21
4.4332520576
  0
LINE
  5
247
100
AcDbEntity
  8
03__ASM_ALL_CURVES
100
AcDbLine
 62
40
  6
CONTINUOUS
 10
3.117979043
 20
5.7370307273
 11
3.098644668
 21
5.7241411379
  0
LINE
  5
248
100
AcDbEntity
  8
03__ASM_ALL_CURVES
100
AcDbLine
 62
40
  6
CONTINUOUS
 10
3.117979043
 20
5.6468036413
 11
3.098644668
 21
5.6339140576
  0
LINE
  5
249
100
AcDbEntity
  8
03__ASM_ALL_CURVES
100
AcDbLine
 62
40
  6
CONTINUOUS
 10
3.3789931055
 20
5.7756994773
 11
3.3983274805
 21
5.7885890576
  0
LINE
  5
24A
100
AcDbEntity
  8
0
100
AcDbLine
 62
7
  6
CONTINUOUS
 10
2.3633524805
 20
4.0892520576
 11
2.3323524805
 21
4.1202520576
  0
LINE
  5
24B
100
AcDbEntity
  8
0
100
AcDbLine
 62
7
  6
CONTINUOUS
 10
3.0143524805
 20
3.5577520576
 11
3.0763524805
 21
3.4957520576
  0
LINE
  5
24C
100
AcDbEntity
  8
03__ASM_ALL_CURVES
100
AcDbLine
 62
40
  6
CONTINUOUS
 10
3.3596587305
 20
5.6854723925
 11
3.3596587305
 21
5.7370307273
  0
LINE
  5
24D
100
AcDbEntity
  8
03__ASM_ALL_CURVES
100
AcDbLine
 62
40
  6
CONTINUOUS
 10
3.4369962305
 20
5.7370307273
 11
3.4369962305
 21
5.6854723925
  0
LINE
  5
24E
100
AcDbEntity
  8
03__ASM_ALL_CURVES
100
AcDbLine
 62
40
  6
CONTINUOUS
 10
3.5336681055
 20
5.7885890576
 11
3.524000918
 21
5.7241411379
  0
LINE
  5
24F
100
AcDbEntity
  8
03__ASM_ALL_CURVES
100
AcDbLine
 62
40
  6
CONTINUOUS
 10
3.698010293
 20
5.7628098879
 11
3.6883431055
 21
5.7241411379
  0
LINE
  5
250
100
AcDbEntity
  8
03__ASM_ALL_CURVES
100
AcDbLine
 62
40
  6
CONTINUOUS
 10
3.8816868555
 20
5.7370307273
 11
3.9010212305
 21
5.7885890576
  0
LINE
  5
251
100
AcDbEntity
  8
0
100
AcDbLine
 62
7
  6
CONTINUOUS
 10
2.9833524805
 20
4.0057520576
 11
2.9772577084
 21
3.9951956026
  0
LINE
  5
252
100
AcDbEntity
  8
0
100
AcDbLine
 62
7
  6
CONTINUOUS
 10
3.0143524805
 20
4.9957520576
 11
3.0763524805
 21
5.0577520576
  0
LINE
  5
253
100
AcDbEntity
  8
0
100
AcDbLine
 62
7
  6
CONTINUOUS
 10
2.8073532661
 20
4.5577528432
 11
2.7918524805
 21
4.5422520576
  0
LINE
  5
254
100
AcDbEntity
  8
03__ASM_ALL_CURVES
100
AcDbLine
 62
40
  6
CONTINUOUS
 10
3.524000918
 20
5.7241411379
 11
3.543335293
 21
5.7370307273
  0
LINE
  5
255
100
AcDbEntity
  8
03__ASM_ALL_CURVES
100
AcDbLine
 62
40
  6
CONTINUOUS
 10
3.4176618555
 20
5.6468036413
 11
3.3983274805
 21
5.6339140576
  0
LINE
  5
256
100
AcDbEntity
  8
03__ASM_ALL_CURVES
100
AcDbLine
 62
40
  6
CONTINUOUS
 10
3.582004043
 20
5.6468036413
 11
3.562669668
 21
5.6339140576
  0
LINE
  5
257
100
AcDbEntity
  8
0
100
AcDbLine
 62
7
  6
CONTINUOUS
 10
2.8073532661
 20
3.995751272
 11
2.7918524805
 21
4.0112520576
  0
LINE
  5
258
100
AcDbEntity
  8
0
100
AcDbLine
 62
7
  6
CONTINUOUS
 10
2.9833524805
 20
4.5477520576
 11
2.9772577084
 21
4.5583085126
  0
LINE
  5
259
100
AcDbEntity
  8
03__ASM_ALL_CURVES
100
AcDbLine
 62
40
  6
CONTINUOUS
 10
3.6883431055
 20
5.7241411379
 11
3.6883431055
 21
5.6983619727
  0
LINE
  5
25A
100
AcDbEntity
  8
03__ASM_ALL_CURVES
100
AcDbLine
 62
40
  6
CONTINUOUS
 10
3.8623524805
 20
5.6339140576
 11
3.872019668
 21
5.6983619727
  0
LINE
  5
25B
100
AcDbEntity
  8
03__ASM_ALL_CURVES
100
AcDbLine
 62
40
  6
CONTINUOUS
 10
3.872019668
 20
5.6983619727
 11
3.8816868555
 21
5.7370307273
  0
LINE
  5
25C
100
AcDbEntity
  8
03__ASM_ALL_CURVES
100
AcDbLine
 62
40
  6
CONTINUOUS
 10
4.026694668
 20
5.6983619727
 11
4.0363618555
 21
5.7370307273
  0
LINE
  5
25D
100
AcDbEntity
  8
03__ASM_ALL_CURVES
100
AcDbLine
 62
40
  6
CONTINUOUS
 10
4.0363618555
 20
5.7370307273
 11
4.0556962305
 21
5.7885890576
  0
LINE
  5
25E
100
AcDbEntity
  8
0
100
AcDbLine
 62
7
  6
CONTINUOUS
 10
3.8923251118
 20
5.1997520576
 11
3.8253524805
 21
5.0837520576
  0
LINE
  5
25F
100
AcDbEntity
  8
03__ASM_ALL_CURVES
100
AcDbLine
 62
40
  6
CONTINUOUS
 10
4.355379043
 20
5.7885890576
 11
4.2877087305
 21
5.6725828076
  0
LINE
  5
260
100
AcDbEntity
  8
0
100
AcDbLine
 62
7
  6
CONTINUOUS
 10
3.8923251118
 20
3.3537520576
 11
3.8253524805
 21
3.4697520576
  0
LINE
  5
261
100
AcDbEntity
  8
0
100
AcDbLine
 62
7
  6
CONTINUOUS
 10
3.8253524805
 20
3.4697520576
 11
3.8253524805
 21
5.0837520576
  0
LINE
  5
262
100
AcDbEntity
  8
0
100
AcDbLine
 62
7
  6
CONTINUOUS
 10
3.8923251118
 20
3.3537520576
 11
3.8923251118
 21
3.354147399
  0
LINE
  5
263
100
AcDbEntity
  8
0
100
AcDbLine
 62
7
  6
CONTINUOUS
 10
3.8923251118
 20
3.7920567161
 11
3.8923251118
 21
3.8388427405
  0
LINE
  5
264
100
AcDbEntity
  8
0
100
AcDbLine
 62
7
  6
CONTINUOUS
 10
3.8923251118
 20
4.7146613747
 11
3.8923251118
 21
4.761447399
  0
LINE
  5
265
100
AcDbEntity
  8
0
100
AcDbLine
 62
7
  6
CONTINUOUS
 10
3.8923251118
 20
5.1993567161
 11
3.8923251118
 21
5.1997520576
  0
LINE
  5
266
100
AcDbEntity
  8
03__ASM_ALL_CURVES
100
AcDbLine
 62
40
  6
CONTINUOUS
 10
4.0170274805
 20
5.6339140576
 11
4.026694668
 21
5.6983619727
  0
LINE
  5
267
100
AcDbEntity
  8
03__ASM_ALL_CURVES
100
AcDbLine
 62
40
  6
CONTINUOUS
 10
4.4423837305
 20
5.7370307273
 11
4.452050918
 21
5.7628098879
  0
LINE
  5
268
100
AcDbEntity
  8
03__ASM_ALL_CURVES
100
AcDbLine
 62
40
  6
CONTINUOUS
 10
4.4423837305
 20
5.6854723925
 11
4.452050918
 21
5.7112515576
  0
LINE
  5
269
100
AcDbEntity
  8
03__ASM_ALL_CURVES
100
AcDbLine
 62
40
  6
CONTINUOUS
 10
4.452050918
 20
5.7628098879
 11
4.4617181055
 21
5.7756994773
  0
LINE
  5
26A
100
AcDbEntity
  8
03__ASM_ALL_CURVES
100
AcDbLine
 62
40
  6
CONTINUOUS
 10
4.510054043
 20
5.659693225
 11
4.5003868555
 21
5.6468036413
  0
LINE
  5
26B
100
AcDbEntity
  8
03__ASM_ALL_CURVES
100
AcDbLine
 62
40
  6
CONTINUOUS
 10
4.645394668
 20
5.659693225
 11
4.626060293
 21
5.6339140576
  0
LINE
  5
26C
100
AcDbEntity
  8
0
100
AcDbLine
 62
7
  6
CONTINUOUS
 10
2.7758524805
 20
4.0112520576
 11
2.7703524805
 21
4.0057520576
  0
LINE
  5
26D
100
AcDbEntity
  8
03__ASM_ALL_CURVES
100
AcDbLine
 62
40
  6
CONTINUOUS
 10
4.4617181055
 20
5.7756994773
 11
4.4810524805
 21
5.7885890576
  0
LINE
  5
26E
100
AcDbEntity
  8
03__ASM_ALL_CURVES
100
AcDbLine
 62
40
  6
CONTINUOUS
 10
4.5003868555
 20
5.6468036413
 11
4.4810524805
 21
5.6339140576
  0
LINE
  5
26F
100
AcDbEntity
  8
03__ASM_ALL_CURVES
100
AcDbLine
 62
40
  6
CONTINUOUS
 10
4.452050918
 20
5.7112515576
 11
4.4810524805
 21
5.7241411379
  0
LINE
  5
270
100
AcDbEntity
  8
0
100
AcDbLine
 62
7
  6
CONTINUOUS
 10
2.7758524805
 20
4.5422520576
 11
2.7703524805
 21
4.5477520576
  0
LINE
  5
271
100
AcDbEntity
  8
03__ASM_ALL_CURVES
100
AcDbLine
 62
40
  6
CONTINUOUS
 10
3.369325918
 20
5.659693225
 11
3.3596587305
 21
5.6854723925
  0
LINE
  5
272
100
AcDbEntity
  8
03__ASM_ALL_CURVES
100
AcDbLine
 62
40
  6
CONTINUOUS
 10
4.162035293
 20
5.6339140576
 11
4.162035293
 21
5.6468036413
  0
LINE
  5
273
100
AcDbEntity
  8
03__ASM_ALL_CURVES
100
AcDbLine
 62
40
  6
CONTINUOUS
 10
4.5197212305
 20
5.6854723925
 11
4.510054043
 21
5.659693225
  0
LINE
  5
274
100
AcDbEntity
  8
03__ASM_ALL_CURVES
100
AcDbLine
 62
40
  6
CONTINUOUS
 10
7.2215966399
 20
2.7857458076
 11
7.2070958587
 21
2.7857458076
  0
LINE
  5
275
100
AcDbEntity
  8
03__ASM_ALL_CURVES
100
AcDbLine
 62
40
  6
CONTINUOUS
 10
7.5333634368
 20
2.7857458076
 11
7.5913665618
 21
2.7857458076
  0
LINE
  5
276
100
AcDbEntity
  8
03__ASM_ALL_CURVES
100
AcDbLine
 62
40
  6
CONTINUOUS
 10
3.427329043
 20
5.7628098879
 11
3.4369962305
 21
5.7370307273
  0
LINE
  5
277
100
AcDbEntity
  8
03__ASM_ALL_CURVES
100
AcDbLine
 62
40
  6
CONTINUOUS
 10
3.5916712305
 20
5.7112515576
 11
3.601338418
 21
5.6854723925
  0
LINE
  5
278
100
AcDbEntity
  8
03__ASM_ALL_CURVES
100
AcDbLine
 62
40
  6
CONTINUOUS
 10
3.6883431055
 20
5.6983619727
 11
3.698010293
 21
5.659693225
  0
LINE
  5
279
100
AcDbEntity
  8
03__ASM_ALL_CURVES
100
AcDbLine
 62
40
  6
CONTINUOUS
 10
4.355379043
 20
5.6339140576
 11
4.355379043
 21
5.7885890576
  0
LINE
  5
27A
100
AcDbEntity
  8
03__ASM_ALL_CURVES
100
AcDbLine
 62
40
  6
CONTINUOUS
 10
4.4423837305
 20
5.6854723925
 11
4.4423837305
 21
5.7370307273
  0
LINE
  5
27B
100
AcDbEntity
  8
03__ASM_ALL_CURVES
100
AcDbLine
 62
40
  6
CONTINUOUS
 10
4.6550618555
 20
5.6983619727
 11
4.645394668
 21
5.659693225
  0
LINE
  5
27C
100
AcDbEntity
  8
0
100
AcDbLine
 62
7
  6
CONTINUOUS
 10
4.9213524805
 20
5.3062520576
 11
4.8598646769
 21
5.1997520576
  0
LINE
  5
27D
100
AcDbEntity
  8
03__ASM_ALL_CURVES
100
AcDbLine
 62
40
  6
CONTINUOUS
 10
5.8041746663
 20
5.7756994773
 11
5.8235090413
 21
5.7885890576
  0
LINE
  5
27E
100
AcDbEntity
  8
03__ASM_ALL_CURVES
100
AcDbLine
 62
40
  6
CONTINUOUS
 10
7.3376028899
 20
2.8437489326
 11
7.3013509368
 21
2.8437489326
  0
LINE
  5
27F
100
AcDbEntity
  8
03__ASM_ALL_CURVES
100
AcDbLine
 62
40
  6
CONTINUOUS
 10
7.1055903899
 20
2.8437489326
 11
7.0693384368
 21
2.8437489326
  0
LINE
  5
280
100
AcDbEntity
  8
03__ASM_ALL_CURVES
100
AcDbLine
 62
40
  6
CONTINUOUS
 10
7.0693384368
 20
2.9017520576
 11
7.1055903899
 21
2.9017520576
  0
LINE
  5
281
100
AcDbEntity
  8
03__ASM_ALL_CURVES
100
AcDbLine
 62
40
  6
CONTINUOUS
 10
7.2070958587
 20
2.9017520576
 11
7.2215966399
 21
2.9017520576
  0
LINE
  5
282
100
AcDbEntity
  8
03__ASM_ALL_CURVES
100
AcDbLine
 62
40
  6
CONTINUOUS
 10
7.3013509368
 20
2.9017520576
 11
7.3376028899
 21
2.9017520576
  0
LINE
  5
283
100
AcDbEntity
  8
03__ASM_ALL_CURVES
100
AcDbLine
 62
40
  6
CONTINUOUS
 10
7.4101067962
 20
2.9017520576
 11
7.4826107024
 21
2.9017520576
  0
LINE
  5
284
100
AcDbEntity
  8
03__ASM_ALL_CURVES
100
AcDbLine
 62
40
  6
CONTINUOUS
 10
7.5551146087
 20
2.9017520576
 11
7.5696153899
 21
2.9017520576
  0
LINE
  5
285
100
AcDbEntity
  8
03__ASM_ALL_CURVES
100
AcDbLine
 62
40
  6
CONTINUOUS
 10
3.059975918
 20
5.6468036413
 11
3.0503087305
 21
5.659693225
  0
LINE
  5
286
100
AcDbEntity
  8
03__ASM_ALL_CURVES
100
AcDbLine
 62
40
  6
CONTINUOUS
 10
3.117979043
 20
5.7112515576
 11
3.137313418
 21
5.6854723925
  0
LINE
  5
287
100
AcDbEntity
  8
03__ASM_ALL_CURVES
100
AcDbLine
 62
40
  6
CONTINUOUS
 10
3.117979043
 20
5.7756994773
 11
3.1276462305
 21
5.7628098879
  0
LINE
  5
288
100
AcDbEntity
  8
03__ASM_ALL_CURVES
100
AcDbLine
 62
40
  6
CONTINUOUS
 10
3.233985293
 20
5.6468036413
 11
3.2436524805
 21
5.6339140576
  0
LINE
  5
289
100
AcDbEntity
  8
0
100
AcDbLine
 62
7
  6
CONTINUOUS
 10
4.9213524805
 20
3.2472520576
 11
4.8598646769
 21
3.3537520576
  0
LINE
  5
28A
100
AcDbEntity
  8
03__ASM_ALL_CURVES
100
AcDbLine
 62
40
  6
CONTINUOUS
 10
4.6550618555
 20
5.7241411379
 11
4.6550618555
 21
5.6983619727
  0
LINE
  5
28B
100
AcDbEntity
  8
03__ASM_ALL_CURVES
100
AcDbLine
 62
40
  6
CONTINUOUS
 10
5.9588496663
 20
5.7756994773
 11
5.9781840413
 21
5.7885890576
  0
LINE
  5
28C
100
AcDbEntity
  8
03__ASM_ALL_CURVES
100
AcDbLine
 62
40
  6
CONTINUOUS
 10
5.8621777913
 20
5.6468036413
 11
5.8428434163
 21
5.6339140576
  0
LINE
  5
28D
100
AcDbEntity
  8
03__ASM_ALL_CURVES
100
AcDbLine
 62
40
  6
CONTINUOUS
 10
6.0168527913
 20
5.6468036413
 11
5.9975184163
 21
5.6339140576
  0
LINE
  5
28E
100
AcDbEntity
  8
0
100
AcDbLine
 62
7
  6
CONTINUOUS
 10
5.3923524805
 20
3.2472520576
 11
4.9213524805
 21
3.2472520576
  0
LINE
  5
28F
100
AcDbEntity
  8
03__ASM_ALL_CURVES
100
AcDbLine
 62
40
  6
CONTINUOUS
 10
3.3789931055
 20
5.6468036413
 11
3.369325918
 21
5.659693225
  0
LINE
  5
290
100
AcDbEntity
  8
03__ASM_ALL_CURVES
100
AcDbLine
 62
40
  6
CONTINUOUS
 10
3.4176618555
 20
5.7756994773
 11
3.427329043
 21
5.7628098879
  0
LINE
  5
291
100
AcDbEntity
  8
03__ASM_ALL_CURVES
100
AcDbLine
 62
40
  6
CONTINUOUS
 10
3.524000918
 20
5.6468036413
 11
3.5143337305
 21
5.659693225
  0
LINE
  5
292
100
AcDbEntity
  8
0
100
AcDbLine
 62
7
  6
CONTINUOUS
 10
4.8598646769
 20
3.3537520576
 11
4.8598646769
 21
5.1997520576
  0
LINE
  5
293
100
AcDbEntity
  8
0
100
AcDbLine
 62
7
  6
CONTINUOUS
 10
4.9213524805
 20
3.2472520576
 11
4.9213524805
 21
5.3062520576
  0
LINE
  5
294
100
AcDbEntity
  8
03__ASM_ALL_CURVES
100
AcDbLine
 62
40
  6
CONTINUOUS
 10
5.7848402913
 20
5.7499203076
 11
5.8041746663
 21
5.7756994773
  0
LINE
  5
295
100
AcDbEntity
  8
03__ASM_ALL_CURVES
100
AcDbLine
 62
40
  6
CONTINUOUS
 10
5.8815121663
 20
5.6725828076
 11
5.8621777913
 21
5.6468036413
  0
LINE
  5
296
100
AcDbEntity
  8
03__ASM_ALL_CURVES
100
AcDbLine
 62
40
  6
CONTINUOUS
 10
5.9395152913
 20
5.7499203076
 11
5.9588496663
 21
5.7756994773
  0
LINE
  5
297
100
AcDbEntity
  8
03__ASM_ALL_CURVES
100
AcDbLine
 62
40
  6
CONTINUOUS
 10
6.7322246663
 20
5.7756994773
 11
6.7515590413
 21
5.7885890576
  0
LINE
  5
298
100
AcDbEntity
  8
0
100
AcDbLine
 62
7
  6
CONTINUOUS
 10
5.5423524805
 20
3.3227520576
 11
5.5923524805
 21
3.3227520576
  0
LINE
  5
299
100
AcDbEntity
  8
THREAD
100
AcDbLine
 62
7
  6
CONTINUOUS
 10
5.4393524805
 20
3.3232520576
 11
5.3923524805
 21
3.3232520576
  0
LINE
  5
29A
100
AcDbEntity
  8
THREAD
100
AcDbLine
 62
7
  6
CONTINUOUS
 10
6.1688524805
 20
3.3352520576
 11
5.6423746945
 21
3.3352520576
  0
LINE
  5
29B
100
AcDbEntity
  8
0
100
AcDbLine
 62
7
  6
CONTINUOUS
 10
4.8598646769
 20
3.3537520576
 11
3.8923251118
 21
3.3537520576
  0
LINE
  5
29C
100
AcDbEntity
  8
0
100
AcDbLine
 62
7
  6
CONTINUOUS
 10
4.8598646769
 20
3.354147399
 11
3.8923251118
 21
3.354147399
  0
LINE
  5
29D
100
AcDbEntity
  8
0
100
AcDbLine
 62
7
  6
CONTINUOUS
 10
8.1763524805
 20
3.4652520576
 11
8.2263524805
 21
3.4652520576
  0
LINE
  5
29E
100
AcDbEntity
  8
0
100
AcDbLine
 62
7
  6
CONTINUOUS
 10
8.3293524805
 20
3.4652520576
 11
8.3793524805
 21
3.4652520576
  0
LINE
  5
29F
100
AcDbEntity
  8
THREAD
100
AcDbLine
 62
7
  6
CONTINUOUS
 10
8.4883524805
 20
3.4657520576
 11
8.4193524805
 21
3.4657520576
  0
LINE
  5
2A0
100
AcDbEntity
  8
THREAD
100
AcDbLine
 62
7
  6
CONTINUOUS
 10
8.1763524805
 20
3.4657520576
 11
8.0823524805
 21
3.4657520576
  0
LINE
  5
2A1
100
AcDbEntity
  8
0
100
AcDbLine
 62
7
  6
CONTINUOUS
 10
6.8633524805
 20
3.4957520576
 11
6.3293524805
 21
3.4957520576
  0
LINE
  5
2A2
100
AcDbEntity
  8
0
100
AcDbLine
 62
7
  6
CONTINUOUS
 10
3.0763524805
 20
3.4957520576
 11
3.8253524805
 21
3.4957520576
  0
LINE
  5
2A3
100
AcDbEntity
  8
0
100
AcDbLine
 62
7
  6
CONTINUOUS
 10
8.0823524805
 20
3.5267520576
 11
6.8943524805
 21
3.5267520576
  0
LINE
  5
2A4
100
AcDbEntity
  8
0
100
AcDbLine
 62
7
  6
CONTINUOUS
 10
8.4193524805
 20
3.5532520576
 11
8.3793524805
 21
3.5532520576
  0
LINE
  5
2A5
100
AcDbEntity
  8
03__ASM_ALL_CURVES
100
AcDbLine
 62
40
  6
CONTINUOUS
 10
3.582004043
 20
5.7241411379
 11
3.5916712305
 21
5.7112515576
  0
LINE
  5
2A6
100
AcDbEntity
  8
03__ASM_ALL_CURVES
100
AcDbLine
 62
40
  6
CONTINUOUS
 10
3.698010293
 20
5.659693225
 11
3.717344668
 21
5.6339140576
  0
LINE
  5
2A7
100
AcDbEntity
  8
03__ASM_ALL_CURVES
100
AcDbLine
 62
40
  6
CONTINUOUS
 10
4.452050918
 20
5.659693225
 11
4.4423837305
 21
5.6854723925
  0
LINE
  5
2A8
100
AcDbEntity
  8
03__ASM_ALL_CURVES
100
AcDbLine
 62
40
  6
CONTINUOUS
 10
4.645394668
 20
5.7628098879
 11
4.6550618555
 21
5.7241411379
  0
LINE
  5
2A9
100
AcDbEntity
  8
03__ASM_ALL_CURVES
100
AcDbLine
 62
40
  6
CONTINUOUS
 10
5.2067424805
 20
5.6029790576
 11
5.2067424805
 21
5.5411090576
  0
LINE
  5
2AA
100
AcDbEntity
  8
THREAD
100
AcDbLine
 62
7
  6
CONTINUOUS
 10
5.6423746945
 20
5.2182520576
 11
5.6123524805
 21
5.1662520576
  0
LINE
  5
2AB
100
AcDbEntity
  8
03__ASM_ALL_CURVES
100
AcDbLine
 62
40
  6
CONTINUOUS
 10
6.0265199788
 20
5.659693225
 11
6.0168527913
 21
5.6468036413
  0
LINE
  5
2AC
100
AcDbEntity
  8
03__ASM_ALL_CURVES
100
AcDbLine
 62
40
  6
CONTINUOUS
 10
6.7902277913
 20
5.6468036413
 11
6.7708934163
 21
5.6339140576
  0
LINE
  5
2AD
100
AcDbEntity
  8
03__ASM_ALL_CURVES
100
AcDbLine
 62
40
  6
CONTINUOUS
 10
7.0609090413
 20
5.7885890576
 11
7.0415746663
 21
5.7756994773
  0
LINE
  5
2AE
100
AcDbEntity
  8
0
100
AcDbLine
 62
7
  6
CONTINUOUS
 10
4.8598646769
 20
3.7920567161
 11
3.8923251118
 21
3.7920567161
  0
LINE
  5
2AF
100
AcDbEntity
  8
03__ASM_ALL_CURVES
100
AcDbLine
 62
40
  6
CONTINUOUS
 10
4.162035293
 20
5.6468036413
 11
4.1717024805
 21
5.6339140576
  0
LINE
  5
2B0
100
AcDbEntity
  8
THREAD
100
AcDbLine
 62
7
  6
CONTINUOUS
 10
5.6423746945
 20
3.3352520576
 11
5.6123524805
 21
3.3872520576
  0
LINE
  5
2B1
100
AcDbEntity
  8
03__ASM_ALL_CURVES
100
AcDbLine
 62
40
  6
CONTINUOUS
 10
4.510054043
 20
5.7112515576
 11
4.5197212305
 21
5.6854723925
  0
LINE
  5
2B2
100
AcDbEntity
  8
0
100
AcDbLine
 62
7
  6
CONTINUOUS
 10
5.3923524805
 20
3.2472520576
 11
5.3923524805
 21
5.3062520576
  0
LINE
  5
2B3
100
AcDbEntity
  8
03__ASM_ALL_CURVES
100
AcDbLine
 62
40
  6
CONTINUOUS
 10
5.3923524805
 20
5.3371870576
 11
5.3923524805
 21
5.6339140576
  0
LINE
  5
2B4
100
AcDbEntity
  8
THREAD
100
AcDbLine
 62
7
  6
CONTINUOUS
 10
5.4393524805
 20
3.3232520576
 11
5.4393524805
 21
5.2302520576
  0
LINE
  5
2B5
100
AcDbEntity
  8
0
100
AcDbLine
 62
7
  6
CONTINUOUS
 10
5.5423524805
 20
3.3227520576
 11
5.5423524805
 21
5.2307520576
  0
LINE
  5
2B6
100
AcDbEntity
  8
03__ASM_ALL_CURVES
100
AcDbLine
 62
40
  6
CONTINUOUS
 10
5.5779624805
 20
5.6029790576
 11
5.5779624805
 21
5.5411090576
  0
LINE
  5
2B7
100
AcDbEntity
  8
03__ASM_ALL_CURVES
100
AcDbLine
 62
40
  6
CONTINUOUS
 10
5.7751731038
 20
5.7112515576
 11
5.7848402913
 21
5.7499203076
  0
LINE
  5
2B8
100
AcDbEntity
  8
03__ASM_ALL_CURVES
100
AcDbLine
 62
40
  6
CONTINUOUS
 10
5.8911793538
 20
5.7112515576
 11
5.8815121663
 21
5.6725828076
  0
LINE
  5
2B9
100
AcDbEntity
  8
03__ASM_ALL_CURVES
100
AcDbLine
 62
40
  6
CONTINUOUS
 10
5.9298481038
 20
5.7112515576
 11
5.9395152913
 21
5.7499203076
  0
LINE
  5
2BA
100
AcDbEntity
  8
03__ASM_ALL_CURVES
100
AcDbLine
 62
40
  6
CONTINUOUS
 10
7.0995777913
 20
5.6468036413
 11
7.0802434163
 21
5.6339140576
  0
LINE
  5
2BB
100
AcDbEntity
  8
03__ASM_ALL_CURVES
100
AcDbLine
 62
40
  6
CONTINUOUS
 10
7.3509246663
 20
5.7756994773
 11
7.3702590413
 21
5.7885890576
  0
LINE
  5
2BC
100
AcDbEntity
  8
03__ASM_ALL_CURVES
100
AcDbLine
 62
40
  6
CONTINUOUS
 10
7.4089277913
 20
5.6468036413
 11
7.3895934163
 21
5.6339140576
  0
LINE
  5
2BD
100
AcDbEntity
  8
0
100
AcDbLine
 62
7
  6
CONTINUOUS
 10
4.8598646769
 20
3.8388427405
 11
3.8923251118
 21
3.8388427405
  0
LINE
  5
2BE
100
AcDbEntity
  8
0
100
AcDbLine
 62
7
  6
CONTINUOUS
 10
2.8073524806
 20
3.9957520576
 11
2.9775762022
 21
3.9957520576
  0
LINE
  5
2BF
100
AcDbEntity
  8
0
100
AcDbLine
 62
7
  6
CONTINUOUS
 10
3.0143524805
 20
4.0057520576
 11
2.9833524805
 21
4.0057520576
  0
LINE
  5
2C0
100
AcDbEntity
  8
0
100
AcDbLine
 62
7
  6
CONTINUOUS
 10
2.7703524805
 20
4.0057520576
 11
2.7643524805
 21
4.0057520576
  0
LINE
  5
2C1
100
AcDbEntity
  8
0
100
AcDbLine
 62
7
  6
CONTINUOUS
 10
2.7918524805
 20
4.0112520576
 11
2.7758524805
 21
4.0112520576
  0
LINE
  5
2C2
100
AcDbEntity
  8
03__ASM_ALL_CURVES
100
AcDbLine
 62
40
  6
CONTINUOUS
 10
7.2070958587
 20
2.7857458076
 11
7.1925950774
 21
2.7954129954
  0
LINE
  5
2C3
100
AcDbEntity
  8
03__ASM_ALL_CURVES
100
AcDbLine
 62
40
  6
CONTINUOUS
 10
7.1055903899
 20
2.9017520576
 11
7.1200911712
 21
2.8920848724
  0
LINE
  5
2C4
100
AcDbEntity
  8
03__ASM_ALL_CURVES
100
AcDbLine
 62
40
  6
CONTINUOUS
 10
3.079310293
 20
5.6339140576
 11
3.059975918
 21
5.6468036413
  0
LINE
  5
2C5
100
AcDbEntity
  8
03__ASM_ALL_CURVES
100
AcDbLine
 62
40
  6
CONTINUOUS
 10
7.2215966399
 20
2.9017520576
 11
7.2360974212
 21
2.8920848724
  0
LINE
  5
2C6
100
AcDbEntity
  8
03__ASM_ALL_CURVES
100
AcDbLine
 62
40
  6
CONTINUOUS
 10
3.098644668
 20
5.7241411379
 11
3.117979043
 21
5.7112515576
  0
LINE
  5
2C7
100
AcDbEntity
  8
03__ASM_ALL_CURVES
100
AcDbLine
 62
40
  6
CONTINUOUS
 10
7.3376028899
 20
2.9017520576
 11
7.3521036712
 21
2.8920848724
  0
LINE
  5
2C8
100
AcDbEntity
  8
03__ASM_ALL_CURVES
100
AcDbLine
 62
40
  6
CONTINUOUS
 10
3.098644668
 20
5.7885890576
 11
3.117979043
 21
5.7756994773
  0
LINE
  5
2C9
100
AcDbEntity
  8
03__ASM_ALL_CURVES
100
AcDbLine
 62
40
  6
CONTINUOUS
 10
4.4617181055
 20
5.6468036413
 11
4.452050918
 21
5.659693225
  0
LINE
  5
2CA
100
AcDbEntity
  8
0
100
AcDbLine
 62
7
  6
CONTINUOUS
 10
5.5923524805
 20
3.3227520576
 11
5.5923524805
 21
5.2307520576
  0
LINE
  5
2CB
100
AcDbEntity
  8
0
100
AcDbLine
 62
7
  6
CONTINUOUS
 10
5.6123524805
 20
3.3872520576
 11
5.6123524805
 21
5.1662520576
  0
LINE
  5
2CC
100
AcDbEntity
  8
03__ASM_ALL_CURVES
100
AcDbLine
 62
40
  6
CONTINUOUS
 10
5.6398324788
 20
5.7885890576
 11
5.6398324788
 21
5.6339140576
  0
LINE
  5
2CD
100
AcDbEntity
  8
THREAD
100
AcDbLine
 62
7
  6
CONTINUOUS
 10
5.6423746945
 20
3.3352520576
 11
5.6423746945
 21
5.2182520576
  0
LINE
  5
2CE
100
AcDbEntity
  8
03__ASM_ALL_CURVES
100
AcDbLine
 62
40
  6
CONTINUOUS
 10
6.0941902913
 20
5.6339140576
 11
6.1425262288
 21
5.7885890576
  0
LINE
  5
2CF
100
AcDbEntity
  8
03__ASM_ALL_CURVES
100
AcDbLine
 62
40
  6
CONTINUOUS
 10
6.7128902913
 20
5.7499203076
 11
6.7322246663
 21
5.7756994773
  0
LINE
  5
2D0
100
AcDbEntity
  8
03__ASM_ALL_CURVES
100
AcDbLine
 62
40
  6
CONTINUOUS
 10
6.7998949788
 20
5.659693225
 11
6.7902277913
 21
5.6468036413
  0
LINE
  5
2D1
100
AcDbEntity
  8
03__ASM_ALL_CURVES
100
AcDbLine
 62
40
  6
CONTINUOUS
 10
7.5636027913
 20
5.6468036413
 11
7.5442684163
 21
5.6339140576
  0
LINE
  5
2D2
100
AcDbEntity
  8
03__ASM_ALL_CURVES
100
AcDbLine
 62
40
  6
CONTINUOUS
 10
7.8632856038
 20
5.6468036413
 11
7.8439512288
 21
5.6339140576
  0
LINE
  5
2D3
100
AcDbEntity
  8
0
100
AcDbLine
 62
7
  6
CONTINUOUS
 10
2.7023524805
 20
4.0892520576
 11
2.3633524805
 21
4.0892520576
  0
LINE
  5
2D4
100
AcDbEntity
  8
0
100
AcDbLine
 62
7
  6
CONTINUOUS
 10
2.9524810701
 20
4.2767520576
 11
2.8508233318
 21
4.2767520576
  0
LINE
  5
2D5
100
AcDbEntity
  8
03__ASM_ALL_CURVES
100
AcDbLine
 62
40
  6
CONTINUOUS
 10
8.9296106842
 20
4.3076870576
 11
8.915109903
 21
4.3076870576
  0
LINE
  5
2D6
100
AcDbEntity
  8
03__ASM_ALL_CURVES
100
AcDbLine
 62
40
  6
CONTINUOUS
 10
3.3983274805
 20
5.6339140576
 11
3.3789931055
 21
5.6468036413
  0
LINE
  5
2D7
100
AcDbEntity
  8
03__ASM_ALL_CURVES
100
AcDbLine
 62
40
  6
CONTINUOUS
 10
7.5696153899
 20
2.9017520576
 11
7.5841161712
 21
2.8920848724
  0
LINE
  5
2D8
100
AcDbEntity
  8
03__ASM_ALL_CURVES
100
AcDbLine
 62
40
  6
CONTINUOUS
 10
3.543335293
 20
5.6339140576
 11
3.524000918
 21
5.6468036413
  0
LINE
  5
2D9
100
AcDbEntity
  8
03__ASM_ALL_CURVES
100
AcDbLine
 62
40
  6
CONTINUOUS
 10
3.3983274805
 20
5.7885890576
 11
3.4176618555
 21
5.7756994773
  0
LINE
  5
2DA
100
AcDbEntity
  8
03__ASM_ALL_CURVES
100
AcDbLine
 62
40
  6
CONTINUOUS
 10
3.562669668
 20
5.7370307273
 11
3.582004043
 21
5.7241411379
  0
LINE
  5
2DB
100
AcDbEntity
  8
03__ASM_ALL_CURVES
100
AcDbLine
 62
40
  6
CONTINUOUS
 10
4.5003868555
 20
5.7756994773
 11
4.510054043
 21
5.7628098879
  0
LINE
  5
2DC
100
AcDbEntity
  8
03__ASM_ALL_CURVES
100
AcDbLine
 62
40
  6
CONTINUOUS
 10
4.626060293
 20
5.7885890576
 11
4.645394668
 21
5.7628098879
  0
LINE
  5
2DD
100
AcDbEntity
  8
0
100
AcDbLine
 62
7
  6
CONTINUOUS
 10
6.2060438227
 20
5.1502471452
 11
6.2077378805
 21
5.1556747267
  0
LINE
  5
2DE
100
AcDbEntity
  8
0
100
AcDbLine
 62
7
  6
CONTINUOUS
 10
6.5239697963
 20
5.0311401279
 11
6.519574936
 21
5.0231046206
  0
LINE
  5
2DF
100
AcDbEntity
  8
03__ASM_ALL_CURVES
100
AcDbLine
 62
40
  6
CONTINUOUS
 10
7.0415746663
 20
5.7756994773
 11
7.0319074788
 21
5.7628098879
  0
LINE
  5
2E0
100
AcDbEntity
  8
03__ASM_ALL_CURVES
100
AcDbLine
 62
40
  6
CONTINUOUS
 10
7.1092449788
 20
5.659693225
 11
7.0995777913
 21
5.6468036413
  0
LINE
  5
2E1
100
AcDbEntity
  8
03__ASM_ALL_CURVES
100
AcDbLine
 62
40
  6
CONTINUOUS
 10
8.1823027913
 20
5.7241411379
 11
8.1629684163
 21
5.7112515576
  0
LINE
  5
2E2
100
AcDbEntity
  8
03__ASM_ALL_CURVES
100
AcDbLine
 62
40
  6
CONTINUOUS
 10
9.0456169342
 20
4.3656901826
 11
9.0093649811
 21
4.3656901826
  0
LINE
  5
2E3
100
AcDbEntity
  8
03__ASM_ALL_CURVES
100
AcDbLine
 62
40
  6
CONTINUOUS
 10
8.8136044342
 20
4.3656901826
 11
8.7773524811
 21
4.3656901826
  0
LINE
  5
2E4
100
AcDbEntity
  8
03__ASM_ALL_CURVES
100
AcDbLine
 62
40
  6
CONTINUOUS
 10
8.7773524811
 20
4.4236933076
 11
8.8136044342
 21
4.4236933076
  0
LINE
  5
2E5
100
AcDbEntity
  8
03__ASM_ALL_CURVES
100
AcDbLine
 62
40
  6
CONTINUOUS
 10
8.915109903
 20
4.4236933076
 11
8.9296106842
 21
4.4236933076
  0
LINE
  5
2E6
100
AcDbEntity
  8
03__ASM_ALL_CURVES
100
AcDbLine
 62
40
  6
CONTINUOUS
 10
9.0093649811
 20
4.4236933076
 11
9.0456169342
 21
4.4236933076
  0
LINE
  5
2E7
100
AcDbEntity
  8
03__ASM_ALL_CURVES
100
AcDbLine
 62
40
  6
CONTINUOUS
 10
9.1181208405
 20
4.4236933076
 11
9.1906247467
 21
4.4236933076
  0
LINE
  5
2E8
100
AcDbEntity
  8
0
100
AcDbLine
 62
7
  6
CONTINUOUS
 10
2.7023524805
 20
4.4642520576
 11
2.3633524805
 21
4.4642520576
  0
LINE
  5
2E9
100
AcDbEntity
  8
0
100
AcDbLine
 62
7
  6
CONTINUOUS
 10
2.7918524805
 20
4.5422520576
 11
2.7758524805
 21
4.5422520576
  0
LINE
  5
2EA
100
AcDbEntity
  8
0
100
AcDbLine
 62
7
  6
CONTINUOUS
 10
3.0143524805
 20
4.5477520576
 11
2.9833524805
 21
4.5477520576
  0
LINE
  5
2EB
100
AcDbEntity
  8
0
100
AcDbLine
 62
7
  6
CONTINUOUS
 10
2.7703524805
 20
4.5477520576
 11
2.7643524805
 21
4.5477520576
  0
LINE
  5
2EC
100
AcDbEntity
  8
0
100
AcDbLine
 62
7
  6
CONTINUOUS
 10
2.8073524806
 20
4.5577520576
 11
2.9775762022
 21
4.5577520576
  0
LINE
  5
2ED
100
AcDbEntity
  8
0
100
AcDbLine
 62
7
  6
CONTINUOUS
 10
6.3293524805
 20
4.2265800031
 11
6.3677219217
 21
4.2190889991
  0
LINE
  5
2EE
100
AcDbEntity
  8
03__ASM_ALL_CURVES
100
AcDbLine
 62
40
  6
CONTINUOUS
 10
7.1925950774
 20
2.7954129954
 11
7.1780942962
 21
2.8147473701
  0
LINE
  5
2EF
100
AcDbEntity
  8
03__ASM_ALL_CURVES
100
AcDbLine
 62
40
  6
CONTINUOUS
 10
7.1200911712
 20
2.8920848724
 11
7.1273415618
 21
2.8824176803
  0
LINE
  5
2F0
100
AcDbEntity
  8
THREAD
100
AcDbLine
 62
7
  6
CONTINUOUS
 10
6.1688524805
 20
3.3352520576
 11
6.1688524805
 21
5.2182520576
  0
LINE
  5
2F1
100
AcDbEntity
  8
03__ASM_ALL_CURVES
100
AcDbLine
 62
40
  6
CONTINUOUS
 10
6.2972012288
 20
5.7885890576
 11
6.2972012288
 21
5.6339140576
  0
LINE
  5
2F2
100
AcDbEntity
  8
0
100
AcDbLine
 62
7
  6
CONTINUOUS
 10
6.3293524805
 20
3.4957520576
 11
6.3293524805
 21
3.5369077138
  0
LINE
  5
2F3
100
AcDbEntity
  8
0
100
AcDbLine
 62
7
  6
CONTINUOUS
 10
6.3293524805
 20
3.6901653749
 11
6.3293524805
 21
3.9305089374
  0
LINE
  5
2F4
100
AcDbEntity
  8
0
100
AcDbLine
 62
7
  6
CONTINUOUS
 10
6.3293524805
 20
4.2265800031
 11
6.3293524805
 21
4.5269346849
  0
LINE
  5
2F5
100
AcDbEntity
  8
0
100
AcDbLine
 62
7
  6
CONTINUOUS
 10
6.3293524805
 20
4.7923847405
 11
6.3293524805
 21
4.9768068424
  0
LINE
  5
2F6
100
AcDbEntity
  8
0
100
AcDbLine
 62
7
  6
CONTINUOUS
 10
6.3293524805
 20
5.0561388454
 11
6.3293524805
 21
5.0577520576
  0
LINE
  5
2F7
100
AcDbEntity
  8
03__ASM_ALL_CURVES
100
AcDbLine
 62
40
  6
CONTINUOUS
 10
6.7032231038
 20
5.7112515576
 11
6.7128902913
 21
5.7499203076
  0
LINE
  5
2F8
100
AcDbEntity
  8
03__ASM_ALL_CURVES
100
AcDbLine
 62
40
  6
CONTINUOUS
 10
7.3315902913
 20
5.7499203076
 11
7.3509246663
 21
5.7756994773
  0
LINE
  5
2F9
100
AcDbEntity
  8
03__ASM_ALL_CURVES
100
AcDbLine
 62
40
  6
CONTINUOUS
 10
7.4282621663
 20
5.6725828076
 11
7.4089277913
 21
5.6468036413
  0
LINE
  5
2FA
100
AcDbEntity
  8
0
100
AcDbLine
 62
7
  6
CONTINUOUS
 10
4.8598646769
 20
4.7146613747
 11
3.8923251118
 21
4.7146613747
  0
LINE
  5
2FB
100
AcDbEntity
  8
0
100
AcDbLine
 62
7
  6
CONTINUOUS
 10
4.8598646769
 20
4.761447399
 11
3.8923251118
 21
4.761447399
  0
LINE
  5
2FC
100
AcDbEntity
  8
03__ASM_ALL_CURVES
100
AcDbLine
 62
40
  6
CONTINUOUS
 10
4.4810524805
 20
5.6339140576
 11
4.4617181055
 21
5.6468036413
  0
LINE
  5
2FD
100
AcDbEntity
  8
03__ASM_ALL_CURVES
100
AcDbLine
 62
40
  6
CONTINUOUS
 10
4.4810524805
 20
5.7885890576
 11
4.5003868555
 21
5.7756994773
  0
LINE
  5
2FE
100
AcDbEntity
  8
03__ASM_ALL_CURVES
100
AcDbLine
 62
40
  6
CONTINUOUS
 10
7.2360974212
 20
2.8920848724
 11
7.2505982024
 21
2.8727504951
  0
LINE
  5
2FF
100
AcDbEntity
  8
03__ASM_ALL_CURVES
100
AcDbLine
 62
40
  6
CONTINUOUS
 10
7.3521036712
 20
2.8920848724
 11
7.3593540618
 21
2.8824176803
  0
LINE
  5
300
100
AcDbEntity
  8
03__ASM_ALL_CURVES
100
AcDbLine
 62
40
  6
CONTINUOUS
 10
5.7848402913
 20
5.6725828076
 11
5.7751731038
 21
5.7112515576
  0
LINE
  5
301
100
AcDbEntity
  8
03__ASM_ALL_CURVES
100
AcDbLine
 62
40
  6
CONTINUOUS
 10
5.8815121663
 20
5.7499203076
 11
5.8911793538
 21
5.7112515576
  0
LINE
  5
302
100
AcDbEntity
  8
03__ASM_ALL_CURVES
100
AcDbLine
 62
40
  6
CONTINUOUS
 10
5.9395152913
 20
5.6725828076
 11
5.9298481038
 21
5.7112515576
  0
LINE
  5
303
100
AcDbEntity
  8
03__ASM_ALL_CURVES
100
AcDbLine
 62
40
  6
CONTINUOUS
 10
6.4518762288
 20
5.7885890576
 11
6.4518762288
 21
5.6339140576
  0
LINE
  5
304
100
AcDbEntity
  8
03__ASM_ALL_CURVES
100
AcDbLine
 62
40
  6
CONTINUOUS
 10
6.5678824788
 20
5.6339140576
 11
6.5678824788
 21
5.7885890576
  0
LINE
  5
305
100
AcDbEntity
  8
03__ASM_ALL_CURVES
100
AcDbLine
 62
40
  6
CONTINUOUS
 10
7.5732699788
 20
5.659693225
 11
7.5636027913
 21
5.6468036413
  0
LINE
  5
306
100
AcDbEntity
  8
0
100
AcDbLine
 62
7
  6
CONTINUOUS
 10
8.4193524805
 20
5.0002520576
 11
8.3793524805
 21
5.0002520576
  0
LINE
  5
307
100
AcDbEntity
  8
0
100
AcDbLine
 62
7
  6
CONTINUOUS
 10
8.0823524805
 20
5.0267520576
 11
6.8943524805
 21
5.0267520576
  0
LINE
  5
308
100
AcDbEntity
  8
0
100
AcDbLine
 62
7
  6
CONTINUOUS
 10
6.8633524805
 20
5.0577520576
 11
6.3293524805
 21
5.0577520576
  0
LINE
  5
309
100
AcDbEntity
  8
0
100
AcDbLine
 62
7
  6
CONTINUOUS
 10
3.0763524805
 20
5.0577520576
 11
3.8253524805
 21
5.0577520576
  0
LINE
  5
30A
100
AcDbEntity
  8
03__ASM_ALL_CURVES
100
AcDbLine
 62
40
  6
CONTINUOUS
 10
2.5179624805
 20
5.5411090576
 11
2.3323524805
 21
5.5720440576
  0
LINE
  5
30B
100
AcDbEntity
  8
03__ASM_ALL_CURVES
100
AcDbLine
 62
40
  6
CONTINUOUS
 10
4.4810524805
 20
5.7241411379
 11
4.510054043
 21
5.7112515576
  0
LINE
  5
30C
100
AcDbEntity
  8
03__ASM_ALL_CURVES
100
AcDbLine
 62
40
  6
CONTINUOUS
 10
7.5841161712
 20
2.8920848724
 11
7.5913665618
 21
2.8824176803
  0
LINE
  5
30D
100
AcDbEntity
  8
03__ASM_ALL_CURVES
100
AcDbLine
 62
40
  6
CONTINUOUS
 10
6.1425262288
 20
5.7885890576
 11
6.1908621663
 21
5.6339140576
  0
LINE
  5
30E
100
AcDbEntity
  8
03__ASM_ALL_CURVES
100
AcDbLine
 62
40
  6
CONTINUOUS
 10
6.6452199788
 20
5.6339140576
 11
6.6452199788
 21
5.7885890576
  0
LINE
  5
30F
100
AcDbEntity
  8
03__ASM_ALL_CURVES
100
AcDbLine
 62
40
  6
CONTINUOUS
 10
6.7998949788
 20
5.7112515576
 11
6.7998949788
 21
5.659693225
  0
LINE
  5
310
100
AcDbEntity
  8
03__ASM_ALL_CURVES
100
AcDbLine
 62
40
  6
CONTINUOUS
 10
7.8826199788
 20
5.6725828076
 11
7.8632856038
 21
5.6468036413
  0
LINE
  5
311
100
AcDbEntity
  8
THREAD
100
AcDbLine
 62
7
  6
CONTINUOUS
 10
6.3293524805
 20
3.4957520576
 11
6.1688524805
 21
3.3352520576
  0
LINE
  5
312
100
AcDbEntity
  8
THREAD
100
AcDbLine
 62
7
  6
CONTINUOUS
 10
8.4883524805
 20
5.0877520576
 11
8.4193524805
 21
5.0877520576
  0
LINE
  5
313
100
AcDbEntity
  8
THREAD
100
AcDbLine
 62
7
  6
CONTINUOUS
 10
8.1763524805
 20
5.0877520576
 11
8.0823524805
 21
5.0877520576
  0
LINE
  5
314
100
AcDbEntity
  8
0
100
AcDbLine
 62
7
  6
CONTINUOUS
 10
8.1763524805
 20
5.0882520576
 11
8.2263524805
 21
5.0882520576
  0
LINE
  5
315
100
AcDbEntity
  8
0
100
AcDbLine
 62
7
  6
CONTINUOUS
 10
8.3293524805
 20
5.0882520576
 11
8.3793524805
 21
5.0882520576
  0
LINE
  5
316
100
AcDbEntity
  8
0
100
AcDbLine
 62
7
  6
CONTINUOUS
 10
4.8598646769
 20
5.1993567161
 11
3.8923251118
 21
5.1993567161
  0
LINE
  5
317
100
AcDbEntity
  8
0
100
AcDbLine
 62
7
  6
CONTINUOUS
 10
4.8598646769
 20
5.1997520576
 11
3.8923251118
 21
5.1997520576
  0
LINE
  5
318
100
AcDbEntity
  8
THREAD
100
AcDbLine
 62
7
  6
CONTINUOUS
 10
6.1688524805
 20
5.2182520576
 11
5.6423746945
 21
5.2182520576
  0
LINE
  5
319
100
AcDbEntity
  8
THREAD
100
AcDbLine
 62
7
  6
CONTINUOUS
 10
5.4393524805
 20
5.2302520576
 11
5.3923524805
 21
5.2302520576
  0
LINE
  5
31A
100
AcDbEntity
  8
0
100
AcDbLine
 62
7
  6
CONTINUOUS
 10
5.5423524805
 20
5.2307520576
 11
5.5923524805
 21
5.2307520576
  0
LINE
  5
31B
100
AcDbEntity
  8
0
100
AcDbLine
 62
7
  6
CONTINUOUS
 10
5.3923524805
 20
5.3062520576
 11
4.9213524805
 21
5.3062520576
  0
LINE
  5
31C
100
AcDbEntity
  8
03__ASM_ALL_CURVES
100
AcDbLine
 62
40
  6
CONTINUOUS
 10
2.5179624805
 20
5.5565765576
 11
2.3323524805
 21
5.5720440576
  0
LINE
  5
31D
100
AcDbEntity
  8
03__ASM_ALL_CURVES
100
AcDbLine
 62
40
  6
CONTINUOUS
 10
2.5179624805
 20
5.5514207243
 11
2.3323524805
 21
5.5720440576
  0
LINE
  5
31E
100
AcDbEntity
  8
03__ASM_ALL_CURVES
100
AcDbLine
 62
40
  6
CONTINUOUS
 10
2.5179624805
 20
5.5462648909
 11
2.3323524805
 21
5.5720440576
  0
LINE
  5
31F
100
AcDbEntity
  8
THREAD
100
AcDbLine
 62
7
  6
CONTINUOUS
 10
6.3293524805
 20
5.0577520576
 11
6.1688524805
 21
5.2182520576
  0
LINE
  5
320
100
AcDbEntity
  8
03__ASM_ALL_CURVES
100
AcDbLine
 62
40
  6
CONTINUOUS
 10
5.8041746663
 20
5.6468036413
 11
5.7848402913
 21
5.6725828076
  0
LINE
  5
321
100
AcDbEntity
  8
03__ASM_ALL_CURVES
100
AcDbLine
 62
40
  6
CONTINUOUS
 10
5.9588496663
 20
5.6468036413
 11
5.9395152913
 21
5.6725828076
  0
LINE
  5
322
100
AcDbEntity
  8
03__ASM_ALL_CURVES
100
AcDbLine
 62
40
  6
CONTINUOUS
 10
5.8621777913
 20
5.7756994773
 11
5.8815121663
 21
5.7499203076
  0
LINE
  5
323
100
AcDbEntity
  8
03__ASM_ALL_CURVES
100
AcDbLine
 62
40
  6
CONTINUOUS
 10
7.3376028899
 20
2.8437489326
 11
7.3593540618
 21
2.7857458076
  0
LINE
  5
324
100
AcDbEntity
  8
03__ASM_ALL_CURVES
100
AcDbLine
 62
40
  6
CONTINUOUS
 10
7.1780942962
 20
2.8147473701
 11
7.1708439056
 21
2.8437489326
  0
LINE
  5
325
100
AcDbEntity
  8
0
100
AcDbLine
 62
7
  6
CONTINUOUS
 10
6.8633524805
 20
3.4957520576
 11
6.8633524805
 21
5.0577520576
  0
LINE
  5
326
100
AcDbEntity
  8
0
100
AcDbLine
 62
7
  6
CONTINUOUS
 10
6.8943524805
 20
3.5267520576
 11
6.8943524805
 21
5.0267520576
  0
LINE
  5
327
100
AcDbEntity
  8
03__ASM_ALL_CURVES
100
AcDbLine
 62
40
  6
CONTINUOUS
 10
7.0319074788
 20
5.7628098879
 11
7.0319074788
 21
5.7499203076
  0
LINE
  5
328
100
AcDbEntity
  8
03__ASM_ALL_CURVES
100
AcDbLine
 62
40
  6
CONTINUOUS
 10
7.0693384368
 20
2.7857458076
 11
7.0693384368
 21
2.9017520576
  0
LINE
  5
329
100
AcDbEntity
  8
03__ASM_ALL_CURVES
100
AcDbLine
 62
40
  6
CONTINUOUS
 10
7.3219231038
 20
5.7112515576
 11
7.3315902913
 21
5.7499203076
  0
LINE
  5
32A
100
AcDbEntity
  8
03__ASM_ALL_CURVES
100
AcDbLine
 62
40
  6
CONTINUOUS
 10
7.4379293538
 20
5.7112515576
 11
7.4282621663
 21
5.6725828076
  0
LINE
  5
32B
100
AcDbEntity
  8
03__ASM_ALL_CURVES
100
AcDbLine
 62
40
  6
CONTINUOUS
 10
8.1919699788
 20
5.7370307273
 11
8.1823027913
 21
5.7241411379
  0
LINE
  5
32C
100
AcDbEntity
  8
03__ASM_ALL_CURVES
100
AcDbLine
 62
40
  6
CONTINUOUS
 10
2.3323524805
 20
5.5720440576
 11
8.3621124805
 21
5.5720440576
  0
LINE
  5
32D
100
AcDbEntity
  8
03__ASM_ALL_CURVES
100
AcDbLine
 62
40
  6
CONTINUOUS
 10
2.5179624805
 20
5.5668882243
 11
2.3323524805
 21
5.5720440576
  0
LINE
  5
32E
100
AcDbEntity
  8
03__ASM_ALL_CURVES
100
AcDbLine
 62
40
  6
CONTINUOUS
 10
5.2067424805
 20
5.5771998909
 11
5.5779624805
 21
5.5668882243
  0
LINE
  5
32F
100
AcDbEntity
  8
03__ASM_ALL_CURVES
100
AcDbLine
 62
40
  6
CONTINUOUS
 10
2.5179624805
 20
5.5617323909
 11
2.3323524805
 21
5.5720440576
  0
LINE
  5
330
100
AcDbEntity
  8
03__ASM_ALL_CURVES
100
AcDbLine
 62
40
  6
CONTINUOUS
 10
5.2067424805
 20
5.5823557243
 11
5.5779624805
 21
5.5617323909
  0
LINE
  5
331
100
AcDbEntity
  8
03__ASM_ALL_CURVES
100
AcDbLine
 62
40
  6
CONTINUOUS
 10
5.2067424805
 20
5.5875115576
 11
5.5779624805
 21
5.5565765576
  0
LINE
  5
332
100
AcDbEntity
  8
03__ASM_ALL_CURVES
100
AcDbLine
 62
40
  6
CONTINUOUS
 10
5.2067424805
 20
5.5926673909
 11
5.5779624805
 21
5.5514207243
  0
LINE
  5
333
100
AcDbEntity
  8
03__ASM_ALL_CURVES
100
AcDbLine
 62
40
  6
CONTINUOUS
 10
5.2067424805
 20
5.5978232243
 11
5.5779624805
 21
5.5462648909
  0
LINE
  5
334
100
AcDbEntity
  8
03__ASM_ALL_CURVES
100
AcDbLine
 62
40
  6
CONTINUOUS
 10
5.5779624805
 20
5.5411090576
 11
5.2067424805
 21
5.6029790576
  0
LINE
  5
335
100
AcDbEntity
  8
03__ASM_ALL_CURVES
100
AcDbLine
 62
40
  6
CONTINUOUS
 10
5.8235090413
 20
5.6339140576
 11
5.8041746663
 21
5.6468036413
  0
LINE
  5
336
100
AcDbEntity
  8
03__ASM_ALL_CURVES
100
AcDbLine
 62
40
  6
CONTINUOUS
 10
5.9781840413
 20
5.6339140576
 11
5.9588496663
 21
5.6468036413
  0
LINE
  5
337
100
AcDbEntity
  8
03__ASM_ALL_CURVES
100
AcDbLine
 62
40
  6
CONTINUOUS
 10
5.8428434163
 20
5.7885890576
 11
5.8621777913
 21
5.7756994773
  0
LINE
  5
338
100
AcDbEntity
  8
03__ASM_ALL_CURVES
100
AcDbLine
 62
40
  6
CONTINUOUS
 10
6.0168527913
 20
5.7756994773
 11
6.0265199788
 21
5.7628098879
  0
LINE
  5
339
100
AcDbEntity
  8
03__ASM_ALL_CURVES
100
AcDbLine
 62
40
  6
CONTINUOUS
 10
7.2505982024
 20
2.8727504951
 11
7.2578485931
 21
2.8437489326
  0
LINE
  5
33A
100
AcDbEntity
  8
03__ASM_ALL_CURVES
100
AcDbLine
 62
40
  6
CONTINUOUS
 10
6.7128902913
 20
5.6725828076
 11
6.7032231038
 21
5.7112515576
  0
LINE
  5
33B
100
AcDbEntity
  8
03__ASM_ALL_CURVES
100
AcDbLine
 62
40
  6
CONTINUOUS
 10
7.1092449788
 20
5.6854723925
 11
7.1092449788
 21
5.659693225
  0
LINE
  5
33C
100
AcDbEntity
  8
03__ASM_ALL_CURVES
100
AcDbLine
 62
40
  6
CONTINUOUS
 10
7.1273415618
 20
2.8824176803
 11
7.1273415618
 21
2.8630833099
  0
LINE
  5
33D
100
AcDbEntity
  8
03__ASM_ALL_CURVES
100
AcDbLine
 62
40
  6
CONTINUOUS
 10
7.1865824788
 20
5.7885890576
 11
7.1865824788
 21
5.6339140576
  0
LINE
  5
33E
100
AcDbEntity
  8
03__ASM_ALL_CURVES
100
AcDbLine
 62
40
  6
CONTINUOUS
 10
7.2639199788
 20
5.7885890576
 11
7.2639199788
 21
5.6339140576
  0
LINE
  5
33F
100
AcDbEntity
  8
03__ASM_ALL_CURVES
100
AcDbLine
 62
40
  6
CONTINUOUS
 10
7.3013509368
 20
2.7857458076
 11
7.3013509368
 21
2.9017520576
  0
LINE
  5
340
100
AcDbEntity
  8
0
100
AcDbLine
 62
7
  6
CONTINUOUS
 10
6.8943524805
 20
3.5267520576
 11
6.8633524805
 21
3.4957520576
  0
LINE
  5
341
100
AcDbEntity
  8
03__ASM_ALL_CURVES
100
AcDbLine
 62
40
  6
CONTINUOUS
 10
5.2067424805
 20
5.5411090576
 11
5.5779624805
 21
5.6029790576
  0
LINE
  5
342
100
AcDbEntity
  8
03__ASM_ALL_CURVES
100
AcDbLine
 62
40
  6
CONTINUOUS
 10
5.2067424805
 20
5.5462648909
 11
5.5779624805
 21
5.5978232243
  0
LINE
  5
343
100
AcDbEntity
  8
03__ASM_ALL_CURVES
100
AcDbLine
 62
40
  6
CONTINUOUS
 10
5.2067424805
 20
5.5514207243
 11
5.5779624805
 21
5.5926673909
  0
LINE
  5
344
100
AcDbEntity
  8
03__ASM_ALL_CURVES
100
AcDbLine
 62
40
  6
CONTINUOUS
 10
5.2067424805
 20
5.5565765576
 11
5.5779624805
 21
5.5875115576
  0
LINE
  5
345
100
AcDbEntity
  8
03__ASM_ALL_CURVES
100
AcDbLine
 62
40
  6
CONTINUOUS
 10
5.2067424805
 20
5.5617323909
 11
5.5779624805
 21
5.5823557243
  0
LINE
  5
346
100
AcDbEntity
  8
03__ASM_ALL_CURVES
100
AcDbLine
 62
40
  6
CONTINUOUS
 10
2.5179624805
 20
5.5823557243
 11
2.3323524805
 21
5.5720440576
  0
LINE
  5
347
100
AcDbEntity
  8
03__ASM_ALL_CURVES
100
AcDbLine
 62
40
  6
CONTINUOUS
 10
5.2067424805
 20
5.5668882243
 11
5.5779624805
 21
5.5771998909
  0
LINE
  5
348
100
AcDbEntity
  8
03__ASM_ALL_CURVES
100
AcDbLine
 62
40
  6
CONTINUOUS
 10
2.5179624805
 20
5.5771998909
 11
2.3323524805
 21
5.5720440576
  0
LINE
  5
349
100
AcDbEntity
  8
03__ASM_ALL_CURVES
100
AcDbLine
 62
40
  6
CONTINUOUS
 10
8.0372949788
 20
5.6339140576
 11
7.9599574788
 21
5.6339140576
  0
LINE
  5
34A
100
AcDbEntity
  8
03__ASM_ALL_CURVES
100
AcDbLine
 62
40
  6
CONTINUOUS
 10
7.8439512288
 20
5.6339140576
 11
7.8052824788
 21
5.6339140576
  0
LINE
  5
34B
100
AcDbEntity
  8
03__ASM_ALL_CURVES
100
AcDbLine
 62
40
  6
CONTINUOUS
 10
7.5442684163
 20
5.6339140576
 11
7.5249340413
 21
5.6339140576
  0
LINE
  5
34C
100
AcDbEntity
  8
03__ASM_ALL_CURVES
100
AcDbLine
 62
40
  6
CONTINUOUS
 10
7.3895934163
 20
5.6339140576
 11
7.3702590413
 21
5.6339140576
  0
LINE
  5
34D
100
AcDbEntity
  8
03__ASM_ALL_CURVES
100
AcDbLine
 62
40
  6
CONTINUOUS
 10
7.0802434163
 20
5.6339140576
 11
7.0609090413
 21
5.6339140576
  0
LINE
  5
34E
100
AcDbEntity
  8
03__ASM_ALL_CURVES
100
AcDbLine
 62
40
  6
CONTINUOUS
 10
6.7708934163
 20
5.6339140576
 11
6.7515590413
 21
5.6339140576
  0
LINE
  5
34F
100
AcDbEntity
  8
03__ASM_ALL_CURVES
100
AcDbLine
 62
40
  6
CONTINUOUS
 10
5.9975184163
 20
5.6339140576
 11
5.9781840413
 21
5.6339140576
  0
LINE
  5
350
100
AcDbEntity
  8
03__ASM_ALL_CURVES
100
AcDbLine
 62
40
  6
CONTINUOUS
 10
5.8428434163
 20
5.6339140576
 11
5.8235090413
 21
5.6339140576
  0
LINE
  5
351
100
AcDbEntity
  8
03__ASM_ALL_CURVES
100
AcDbLine
 62
40
  6
CONTINUOUS
 10
4.1717024805
 20
5.6339140576
 11
4.162035293
 21
5.6339140576
  0
LINE
  5
352
100
AcDbEntity
  8
03__ASM_ALL_CURVES
100
AcDbLine
 62
40
  6
CONTINUOUS
 10
3.562669668
 20
5.6339140576
 11
3.543335293
 21
5.6339140576
  0
LINE
  5
353
100
AcDbEntity
  8
03__ASM_ALL_CURVES
100
AcDbLine
 62
40
  6
CONTINUOUS
 10
3.2436524805
 20
5.6339140576
 11
3.233985293
 21
5.6339140576
  0
LINE
  5
354
100
AcDbEntity
  8
03__ASM_ALL_CURVES
100
AcDbLine
 62
40
  6
CONTINUOUS
 10
3.098644668
 20
5.6339140576
 11
3.079310293
 21
5.6339140576
  0
LINE
  5
355
100
AcDbEntity
  8
03__ASM_ALL_CURVES
100
AcDbLine
 62
40
  6
CONTINUOUS
 10
5.6398324788
 20
5.6339140576
 11
5.7171699788
 21
5.6339140576
  0
LINE
  5
356
100
AcDbEntity
  8
03__ASM_ALL_CURVES
100
AcDbLine
 62
40
  6
CONTINUOUS
 10
7.6506074788
 20
5.6339140576
 11
7.7279449788
 21
5.6339140576
  0
LINE
  5
357
100
AcDbEntity
  8
03__ASM_ALL_CURVES
100
AcDbLine
 62
40
  6
CONTINUOUS
 10
4.2877087305
 20
5.6725828076
 11
4.374713418
 21
5.6725828076
  0
LINE
  5
358
100
AcDbEntity
  8
03__ASM_ALL_CURVES
100
AcDbLine
 62
40
  6
CONTINUOUS
 10
6.1135246663
 20
5.6854723925
 11
6.1715277913
 21
5.6854723925
  0
LINE
  5
359
100
AcDbEntity
  8
03__ASM_ALL_CURVES
100
AcDbLine
 62
40
  6
CONTINUOUS
 10
8.1629684163
 20
5.7112515576
 11
8.1146324788
 21
5.7112515576
  0
LINE
  5
35A
100
AcDbEntity
  8
03__ASM_ALL_CURVES
100
AcDbLine
 62
40
  6
CONTINUOUS
 10
6.7612262288
 20
5.7112515576
 11
6.7998949788
 21
5.7112515576
  0
LINE
  5
35B
100
AcDbEntity
  8
03__ASM_ALL_CURVES
100
AcDbLine
 62
40
  6
CONTINUOUS
 10
7.1865824788
 20
5.7112515576
 11
7.2639199788
 21
5.7112515576
  0
LINE
  5
35C
100
AcDbEntity
  8
03__ASM_ALL_CURVES
100
AcDbLine
 62
40
  6
CONTINUOUS
 10
7.9599574788
 20
5.7112515576
 11
8.0082934163
 21
5.7112515576
  0
LINE
  5
35D
100
AcDbEntity
  8
03__ASM_ALL_CURVES
100
AcDbLine
 62
40
  6
CONTINUOUS
 10
3.079310293
 20
5.7241411379
 11
3.098644668
 21
5.7241411379
  0
LINE
  5
35E
100
AcDbEntity
  8
03__ASM_ALL_CURVES
100
AcDbLine
 62
40
  6
CONTINUOUS
 10
3.543335293
 20
5.7370307273
 11
3.562669668
 21
5.7370307273
  0
LINE
  5
35F
100
AcDbEntity
  8
03__ASM_ALL_CURVES
100
AcDbLine
 62
40
  6
CONTINUOUS
 10
7.0802434163
 20
5.7885890576
 11
7.0609090413
 21
5.7885890576
  0
LINE
  5
360
100
AcDbEntity
  8
03__ASM_ALL_CURVES
100
AcDbLine
 62
40
  6
CONTINUOUS
 10
4.0556962305
 20
5.7885890576
 11
3.9783587305
 21
5.7885890576
  0
LINE
  5
361
100
AcDbEntity
  8
03__ASM_ALL_CURVES
100
AcDbLine
 62
40
  6
CONTINUOUS
 10
3.9010212305
 20
5.7885890576
 11
3.8236837305
 21
5.7885890576
  0
LINE
  5
362
100
AcDbEntity
  8
03__ASM_ALL_CURVES
100
AcDbLine
 62
40
  6
CONTINUOUS
 10
3.5916712305
 20
5.7885890576
 11
3.5336681055
 21
5.7885890576
  0
LINE
  5
363
100
AcDbEntity
  8
03__ASM_ALL_CURVES
100
AcDbLine
 62
40
  6
CONTINUOUS
 10
3.079310293
 20
5.7885890576
 11
3.098644668
 21
5.7885890576
  0
LINE
  5
364
100
AcDbEntity
  8
03__ASM_ALL_CURVES
100
AcDbLine
 62
40
  6
CONTINUOUS
 10
5.8235090413
 20
5.7885890576
 11
5.8428434163
 21
5.7885890576
  0
LINE
  5
365
100
AcDbEntity
  8
03__ASM_ALL_CURVES
100
AcDbLine
 62
40
  6
CONTINUOUS
 10
5.9781840413
 20
5.7885890576
 11
5.9975184163
 21
5.7885890576
  0
LINE
  5
366
100
AcDbEntity
  8
03__ASM_ALL_CURVES
100
AcDbLine
 62
40
  6
CONTINUOUS
 10
6.2488652913
 20
5.7885890576
 11
6.3455371663
 21
5.7885890576
  0
LINE
  5
367
100
AcDbEntity
  8
03__ASM_ALL_CURVES
100
AcDbLine
 62
40
  6
CONTINUOUS
 10
6.7515590413
 20
5.7885890576
 11
6.7708934163
 21
5.7885890576
  0
LINE
  5
368
100
AcDbEntity
  8
03__ASM_ALL_CURVES
100
AcDbLine
 62
40
  6
CONTINUOUS
 10
7.3702590413
 20
5.7885890576
 11
7.3895934163
 21
5.7885890576
  0
LINE
  5
369
100
AcDbEntity
  8
03__ASM_ALL_CURVES
100
AcDbLine
 62
40
  6
CONTINUOUS
 10
7.8052824788
 20
5.7885890576
 11
7.8439512288
 21
5.7885890576
  0
LINE
  5
36A
100
AcDbEntity
  8
03__ASM_ALL_CURVES
100
AcDbLine
 62
40
  6
CONTINUOUS
 10
7.9599574788
 20
5.7885890576
 11
8.0372949788
 21
5.7885890576
  0
LINE
  5
36B
100
AcDbEntity
  8
03__ASM_ALL_CURVES
100
AcDbLine
 62
40
  6
CONTINUOUS
 10
8.1146324788
 20
5.7885890576
 11
8.1629684163
 21
5.7885890576
  0
LINE
  5
36C
100
AcDbEntity
  8
03__ASM_ALL_CURVES
100
AcDbLine
 62
40
  6
CONTINUOUS
 10
5.9975184163
 20
5.7885890576
 11
6.0168527913
 21
5.7756994773
  0
LINE
  5
36D
100
AcDbEntity
  8
0
100
AcDbLine
 62
7
  6
CONTINUOUS
 10
6.8943524805
 20
5.0267520576
 11
6.8633524805
 21
5.0577520576
  0
LINE
  5
36E
100
AcDbEntity
  8
03__ASM_ALL_CURVES
100
AcDbLine
 62
40
  6
CONTINUOUS
 10
6.5678824788
 20
5.7885890576
 11
6.6452199788
 21
5.6339140576
  0
LINE
  5
36F
100
AcDbEntity
  8
03__ASM_ALL_CURVES
100
AcDbLine
 62
40
  6
CONTINUOUS
 10
7.3593540618
 20
2.8824176803
 11
7.3593540618
 21
2.8630833099
  0
LINE
  5
370
100
AcDbEntity
  8
03__ASM_ALL_CURVES
100
AcDbLine
 62
40
  6
CONTINUOUS
 10
7.4463587493
 20
2.9017520576
 11
7.4463587493
 21
2.7857458076
  0
LINE
  5
371
100
AcDbEntity
  8
03__ASM_ALL_CURVES
100
AcDbLine
 62
40
  6
CONTINUOUS
 10
7.4959324788
 20
5.659693225
 11
7.4959324788
 21
5.7885890576
  0
LINE
  5
372
100
AcDbEntity
  8
03__ASM_ALL_CURVES
100
AcDbLine
 62
40
  6
CONTINUOUS
 10
7.5732699788
 20
5.7885890576
 11
7.5732699788
 21
5.659693225
  0
LINE
  5
373
100
AcDbEntity
  8
03__ASM_ALL_CURVES
100
AcDbLine
 62
40
  6
CONTINUOUS
 10
7.5913665618
 20
2.8824176803
 11
7.5913665618
 21
2.8630833099
  0
LINE
  5
374
100
AcDbEntity
  8
03__ASM_ALL_CURVES
100
AcDbLine
 62
40
  6
CONTINUOUS
 10
7.1708439056
 20
2.8437489326
 11
7.1780942962
 21
2.8727504951
  0
LINE
  5
375
100
AcDbEntity
  8
03__ASM_ALL_CURVES
100
AcDbLine
 62
40
  6
CONTINUOUS
 10
7.8922871663
 20
5.7112515576
 11
7.8826199788
 21
5.6725828076
  0
LINE
  5
376
100
AcDbEntity
  8
03__ASM_ALL_CURVES
100
AcDbLine
 62
40
  6
CONTINUOUS
 10
7.2578485931
 20
2.8437489326
 11
7.2505982024
 21
2.8147473701
  0
LINE
  5
377
100
AcDbEntity
  8
03__ASM_ALL_CURVES
100
AcDbLine
 62
40
  6
CONTINUOUS
 10
8.8281052155
 20
4.3753573678
 11
8.8136044342
 21
4.3656901826
  0
LINE
  5
378
100
AcDbEntity
  8
03__ASM_ALL_CURVES
100
AcDbLine
 62
40
  6
CONTINUOUS
 10
8.9006091217
 20
4.4140261224
 11
8.915109903
 21
4.4236933076
  0
LINE
  5
379
100
AcDbEntity
  8
03__ASM_ALL_CURVES
100
AcDbLine
 62
40
  6
CONTINUOUS
 10
8.9441114655
 20
4.3173542454
 11
8.9296106842
 21
4.3076870576
  0
LINE
  5
37A
100
AcDbEntity
  8
03__ASM_ALL_CURVES
100
AcDbLine
 62
40
  6
CONTINUOUS
 10
9.0601177155
 20
4.3753573678
 11
9.0456169342
 21
4.3656901826
  0
LINE
  5
37B
100
AcDbEntity
  8
03__ASM_ALL_CURVES
100
AcDbLine
 62
40
  6
CONTINUOUS
 10
2.5179624805
 20
5.5978232243
 11
2.3323524805
 21
5.5720440576
  0
LINE
  5
37C
100
AcDbEntity
  8
03__ASM_ALL_CURVES
100
AcDbLine
 62
40
  6
CONTINUOUS
 10
2.5179624805
 20
5.5926673909
 11
2.3323524805
 21
5.5720440576
  0
LINE
  5
37D
100
AcDbEntity
  8
03__ASM_ALL_CURVES
100
AcDbLine
 62
40
  6
CONTINUOUS
 10
2.5179624805
 20
5.5875115576
 11
2.3323524805
 21
5.5720440576
  0
LINE
  5
37E
100
AcDbEntity
  8
03__ASM_ALL_CURVES
100
AcDbLine
 62
40
  6
CONTINUOUS
 10
6.7515590413
 20
5.6339140576
 11
6.7322246663
 21
5.6468036413
  0
LINE
  5
37F
100
AcDbEntity
  8
03__ASM_ALL_CURVES
100
AcDbLine
 62
40
  6
CONTINUOUS
 10
8.915109903
 20
4.3076870576
 11
8.9006091217
 21
4.3173542454
  0
LINE
  5
380
100
AcDbEntity
  8
03__ASM_ALL_CURVES
100
AcDbLine
 62
40
  6
CONTINUOUS
 10
8.8136044342
 20
4.4236933076
 11
8.8281052155
 21
4.4140261224
  0
LINE
  5
381
100
AcDbEntity
  8
03__ASM_ALL_CURVES
100
AcDbLine
 62
40
  6
CONTINUOUS
 10
6.7708934163
 20
5.7885890576
 11
6.7902277913
 21
5.7756994773
  0
LINE
  5
382
100
AcDbEntity
  8
03__ASM_ALL_CURVES
100
AcDbLine
 62
40
  6
CONTINUOUS
 10
6.7322246663
 20
5.6468036413
 11
6.7128902913
 21
5.6725828076
  0
LINE
  5
383
100
AcDbEntity
  8
03__ASM_ALL_CURVES
100
AcDbLine
 62
40
  6
CONTINUOUS
 10
6.7902277913
 20
5.7756994773
 11
6.7998949788
 21
5.7628098879
  0
LINE
  5
384
100
AcDbEntity
  8
03__ASM_ALL_CURVES
100
AcDbLine
 62
40
  6
CONTINUOUS
 10
7.6506074788
 20
5.7885890576
 11
7.6506074788
 21
5.6339140576
  0
LINE
  5
385
100
AcDbEntity
  8
03__ASM_ALL_CURVES
100
AcDbLine
 62
40
  6
CONTINUOUS
 10
7.8052824788
 20
5.6339140576
 11
7.8052824788
 21
5.7885890576
  0
LINE
  5
386
100
AcDbEntity
  8
03__ASM_ALL_CURVES
100
AcDbLine
 62
40
  6
CONTINUOUS
 10
7.5406138274
 20
2.8147473701
 11
7.5333634368
 21
2.7857458076
  0
LINE
  5
387
100
AcDbEntity
  8
03__ASM_ALL_CURVES
100
AcDbLine
 62
40
  6
CONTINUOUS
 10
7.1273415618
 20
2.8630833099
 11
7.1200911712
 21
2.8534161178
  0
LINE
  5
388
100
AcDbEntity
  8
03__ASM_ALL_CURVES
100
AcDbLine
 62
40
  6
CONTINUOUS
 10
7.1780942962
 20
2.8727504951
 11
7.1925950774
 21
2.8920848724
  0
LINE
  5
389
100
AcDbEntity
  8
03__ASM_ALL_CURVES
100
AcDbLine
 62
40
  6
CONTINUOUS
 10
7.2505982024
 20
2.8147473701
 11
7.2360974212
 21
2.7954129954
  0
LINE
  5
38A
100
AcDbEntity
  8
03__ASM_ALL_CURVES
100
AcDbLine
 62
40
  6
CONTINUOUS
 10
7.1200911712
 20
2.8534161178
 11
7.1055903899
 21
2.8437489326
  0
LINE
  5
38B
100
AcDbEntity
  8
03__ASM_ALL_CURVES
100
AcDbLine
 62
40
  6
CONTINUOUS
 10
7.1925950774
 20
2.8920848724
 11
7.2070958587
 21
2.9017520576
  0
LINE
  5
38C
100
AcDbEntity
  8
03__ASM_ALL_CURVES
100
AcDbLine
 62
40
  6
CONTINUOUS
 10
7.2360974212
 20
2.7954129954
 11
7.2215966399
 21
2.7857458076
  0
LINE
  5
38D
100
AcDbEntity
  8
03__ASM_ALL_CURVES
100
AcDbLine
 62
40
  6
CONTINUOUS
 10
2.3323524805
 20
5.5720440576
 11
2.5179624805
 21
5.6029790576
  0
LINE
  5
38E
100
AcDbEntity
  8
03__ASM_ALL_CURVES
100
AcDbLine
 62
40
  6
CONTINUOUS
 10
7.0609090413
 20
5.6339140576
 11
7.0415746663
 21
5.6468036413
  0
LINE
  5
38F
100
AcDbEntity
  8
03__ASM_ALL_CURVES
100
AcDbLine
 62
40
  6
CONTINUOUS
 10
8.9296106842
 20
4.4236933076
 11
8.9441114655
 21
4.4140261224
  0
LINE
  5
390
100
AcDbEntity
  8
03__ASM_ALL_CURVES
100
AcDbLine
 62
40
  6
CONTINUOUS
 10
7.0415746663
 20
5.7370307273
 11
7.0995777913
 21
5.6983619727
  0
LINE
  5
391
100
AcDbEntity
  8
03__ASM_ALL_CURVES
100
AcDbLine
 62
40
  6
CONTINUOUS
 10
9.0456169342
 20
4.4236933076
 11
9.0601177155
 21
4.4140261224
  0
LINE
  5
392
100
AcDbEntity
  8
03__ASM_ALL_CURVES
100
AcDbLine
 62
40
  6
CONTINUOUS
 10
7.0995777913
 20
5.7756994773
 11
7.0802434163
 21
5.7885890576
  0
LINE
  5
393
100
AcDbEntity
  8
03__ASM_ALL_CURVES
100
AcDbLine
 62
40
  6
CONTINUOUS
 10
7.3702590413
 20
5.6339140576
 11
7.3509246663
 21
5.6468036413
  0
LINE
  5
394
100
AcDbEntity
  8
03__ASM_ALL_CURVES
100
AcDbLine
 62
40
  6
CONTINUOUS
 10
7.0415746663
 20
5.6468036413
 11
7.0222402913
 21
5.6725828076
  0
LINE
  5
395
100
AcDbEntity
  8
03__ASM_ALL_CURVES
100
AcDbLine
 62
40
  6
CONTINUOUS
 10
7.0319074788
 20
5.7499203076
 11
7.0415746663
 21
5.7370307273
  0
LINE
  5
396
100
AcDbEntity
  8
03__ASM_ALL_CURVES
100
AcDbLine
 62
40
  6
CONTINUOUS
 10
7.0995777913
 20
5.6983619727
 11
7.1092449788
 21
5.6854723925
  0
LINE
  5
397
100
AcDbEntity
  8
03__ASM_ALL_CURVES
100
AcDbLine
 62
40
  6
CONTINUOUS
 10
7.1092449788
 20
5.7628098879
 11
7.0995777913
 21
5.7756994773
  0
LINE
  5
398
100
AcDbEntity
  8
03__ASM_ALL_CURVES
100
AcDbLine
 62
40
  6
CONTINUOUS
 10
7.3315902913
 20
5.6725828076
 11
7.3219231038
 21
5.7112515576
  0
LINE
  5
399
100
AcDbEntity
  8
03__ASM_ALL_CURVES
100
AcDbLine
 62
40
  6
CONTINUOUS
 10
7.4282621663
 20
5.7499203076
 11
7.4379293538
 21
5.7112515576
  0
LINE
  5
39A
100
AcDbEntity
  8
03__ASM_ALL_CURVES
100
AcDbLine
 62
40
  6
CONTINUOUS
 10
7.9599574788
 20
5.6339140576
 11
7.9599574788
 21
5.7885890576
  0
LINE
  5
39B
100
AcDbEntity
  8
0
100
AcDbLine
 62
7
  6
CONTINUOUS
 10
8.0823524805
 20
3.4657520576
 11
8.0823524805
 21
5.0877520576
  0
LINE
  5
39C
100
AcDbEntity
  8
03__ASM_ALL_CURVES
100
AcDbLine
 62
40
  6
CONTINUOUS
 10
7.3593540618
 20
2.8630833099
 11
7.3521036712
 21
2.8534161178
  0
LINE
  5
39D
100
AcDbEntity
  8
03__ASM_ALL_CURVES
100
AcDbLine
 62
40
  6
CONTINUOUS
 10
7.5333634368
 20
2.8824176803
 11
7.5406138274
 21
2.8920848724
  0
LINE
  5
39E
100
AcDbEntity
  8
03__ASM_ALL_CURVES
100
AcDbLine
 62
40
  6
CONTINUOUS
 10
7.5551146087
 20
2.8340817439
 11
7.5406138274
 21
2.8147473701
  0
LINE
  5
39F
100
AcDbEntity
  8
03__ASM_ALL_CURVES
100
AcDbLine
 62
40
  6
CONTINUOUS
 10
7.5913665618
 20
2.8630833099
 11
7.5841161712
 21
2.8534161178
  0
LINE
  5
3A0
100
AcDbEntity
  8
03__ASM_ALL_CURVES
100
AcDbLine
 62
40
  6
CONTINUOUS
 10
7.3521036712
 20
2.8534161178
 11
7.3376028899
 21
2.8437489326
  0
LINE
  5
3A1
100
AcDbEntity
  8
03__ASM_ALL_CURVES
100
AcDbLine
 62
40
  6
CONTINUOUS
 10
7.5406138274
 20
2.8920848724
 11
7.5551146087
 21
2.9017520576
  0
LINE
  5
3A2
100
AcDbEntity
  8
03__ASM_ALL_CURVES
100
AcDbLine
 62
40
  6
CONTINUOUS
 10
7.5841161712
 20
2.8534161178
 11
7.5551146087
 21
2.8340817439
  0
LINE
  5
3A3
100
AcDbEntity
  8
03__ASM_ALL_CURVES
100
AcDbLine
 62
40
  6
CONTINUOUS
 10
7.5249340413
 20
5.6339140576
 11
7.5055996663
 21
5.6468036413
  0
LINE
  5
3A4
100
AcDbEntity
  8
03__ASM_ALL_CURVES
100
AcDbLine
 62
40
  6
CONTINUOUS
 10
7.3895934163
 20
5.7885890576
 11
7.4089277913
 21
5.7756994773
  0
LINE
  5
3A5
100
AcDbEntity
  8
03__ASM_ALL_CURVES
100
AcDbLine
 62
40
  6
CONTINUOUS
 10
7.3509246663
 20
5.6468036413
 11
7.3315902913
 21
5.6725828076
  0
LINE
  5
3A6
100
AcDbEntity
  8
03__ASM_ALL_CURVES
100
AcDbLine
 62
40
  6
CONTINUOUS
 10
7.5055996663
 20
5.6468036413
 11
7.4959324788
 21
5.659693225
  0
LINE
  5
3A7
100
AcDbEntity
  8
03__ASM_ALL_CURVES
100
AcDbLine
 62
40
  6
CONTINUOUS
 10
7.4089277913
 20
5.7756994773
 11
7.4282621663
 21
5.7499203076
  0
LINE
  5
3A8
100
AcDbEntity
  8
03__ASM_ALL_CURVES
100
AcDbLine
 62
40
  6
CONTINUOUS
 10
8.1146324788
 20
5.6339140576
 11
8.1146324788
 21
5.7885890576
  0
LINE
  5
3A9
100
AcDbEntity
  8
0
100
AcDbLine
 62
7
  6
CONTINUOUS
 10
8.1763524805
 20
3.4652520576
 11
8.1763524805
 21
5.0882520576
  0
LINE
  5
3AA
100
AcDbEntity
  8
03__ASM_ALL_CURVES
100
AcDbLine
 62
40
  6
CONTINUOUS
 10
8.1919699788
 20
5.7628098879
 11
8.1919699788
 21
5.7370307273
  0
LINE
  5
3AB
100
AcDbEntity
  8
0
100
AcDbLine
 62
7
  6
CONTINUOUS
 10
8.2263524805
 20
3.4652520576
 11
8.2263524805
 21
5.0882520576
  0
LINE
  5
3AC
100
AcDbEntity
  8
0
100
AcDbLine
 62
7
  6
CONTINUOUS
 10
8.3293524805
 20
3.4652520576
 11
8.3293524805
 21
5.0882520576
  0
LINE
  5
3AD
100
AcDbEntity
  8
03__ASM_ALL_CURVES
100
AcDbLine
 62
40
  6
CONTINUOUS
 10
8.8353556061
 20
4.3850245599
 11
8.8281052155
 21
4.3753573678
  0
LINE
  5
3AE
100
AcDbEntity
  8
03__ASM_ALL_CURVES
100
AcDbLine
 62
40
  6
CONTINUOUS
 10
8.8861083405
 20
4.3946917451
 11
8.9006091217
 21
4.4140261224
  0
LINE
  5
3AF
100
AcDbEntity
  8
03__ASM_ALL_CURVES
100
AcDbLine
 62
40
  6
CONTINUOUS
 10
8.9586122467
 20
4.3366886201
 11
8.9441114655
 21
4.3173542454
  0
LINE
  5
3B0
100
AcDbEntity
  8
0
100
AcDbLine
 62
7
  6
CONTINUOUS
 10
8.5193524805
 20
3.4967520576
 11
8.4883524805
 21
3.4657520576
  0
LINE
  5
3B1
100
AcDbEntity
  8
03__ASM_ALL_CURVES
100
AcDbLine
 62
40
  6
CONTINUOUS
 10
7.8439512288
 20
5.7885890576
 11
7.8632856038
 21
5.7756994773
  0
LINE
  5
3B2
100
AcDbEntity
  8
0
100
AcDbLine
 62
7
  6
CONTINUOUS
 10
8.5193524805
 20
5.0567520576
 11
8.4883524805
 21
5.0877520576
  0
LINE
  5
3B3
100
AcDbEntity
  8
03__ASM_ALL_CURVES
100
AcDbLine
 62
40
  6
CONTINUOUS
 10
8.9006091217
 20
4.3173542454
 11
8.8861083405
 21
4.3366886201
  0
LINE
  5
3B4
100
AcDbEntity
  8
03__ASM_ALL_CURVES
100
AcDbLine
 62
40
  6
CONTINUOUS
 10
8.8281052155
 20
4.4140261224
 11
8.8353556061
 21
4.4043589303
  0
LINE
  5
3B5
100
AcDbEntity
  8
03__ASM_ALL_CURVES
100
AcDbLine
 62
40
  6
CONTINUOUS
 10
7.8632856038
 20
5.7756994773
 11
7.8826199788
 21
5.7499203076
  0
LINE
  5
3B6
100
AcDbEntity
  8
03__ASM_ALL_CURVES
100
AcDbLine
 62
40
  6
CONTINUOUS
 10
7.8826199788
 20
5.7499203076
 11
7.8922871663
 21
5.7112515576
  0
LINE
  5
3B7
100
AcDbEntity
  8
0
100
AcDbLine
 62
7
  6
CONTINUOUS
 10
8.3793524805
 20
3.4652520576
 11
8.3793524805
 21
5.0882520576
  0
LINE
  5
3B8
100
AcDbEntity
  8
0
100
AcDbLine
 62
7
  6
CONTINUOUS
 10
8.4193524805
 20
3.4657520576
 11
8.4193524805
 21
5.0877520576
  0
LINE
  5
3B9
100
AcDbEntity
  8
0
100
AcDbLine
 62
7
  6
CONTINUOUS
 10
8.4883524805
 20
3.4657520576
 11
8.4883524805
 21
5.0877520576
  0
LINE
  5
3BA
100
AcDbEntity
  8
0
100
AcDbLine
 62
7
  6
CONTINUOUS
 10
8.5193524805
 20
3.4967520576
 11
8.5193524805
 21
5.0567520576
  0
LINE
  5
3BB
100
AcDbEntity
  8
03__ASM_ALL_CURVES
100
AcDbLine
 62
40
  6
CONTINUOUS
 10
9.0673681061
 20
4.3850245599
 11
9.0601177155
 21
4.3753573678
  0
LINE
  5
3BC
100
AcDbEntity
  8
03__ASM_ALL_CURVES
100
AcDbLine
 62
40
  6
CONTINUOUS
 10
8.1629684163
 20
5.7885890576
 11
8.1823027913
 21
5.7756994773
  0
LINE
  5
3BD
100
AcDbEntity
  8
03__ASM_ALL_CURVES
100
AcDbLine
 62
40
  6
CONTINUOUS
 10
8.9441114655
 20
4.4140261224
 11
8.9586122467
 21
4.3946917451
  0
LINE
  5
3BE
100
AcDbEntity
  8
03__ASM_ALL_CURVES
100
AcDbLine
 62
40
  6
CONTINUOUS
 10
9.0601177155
 20
4.4140261224
 11
9.0673681061
 21
4.4043589303
  0
LINE
  5
3BF
100
AcDbEntity
  8
03__ASM_ALL_CURVES
100
AcDbLine
 62
40
  6
CONTINUOUS
 10
8.1823027913
 20
5.7756994773
 11
8.1919699788
 21
5.7628098879
  0
LINE
  5
3C0
100
AcDbEntity
  8
03__ASM_ALL_CURVES
100
AcDbLine
 62
40
  6
CONTINUOUS
 10
8.1629684163
 20
5.7112515576
 11
8.1919699788
 21
5.6339140576
  0
LINE
  5
3C1
100
AcDbEntity
  8
03__ASM_ALL_CURVES
100
AcDbLine
 62
40
  6
CONTINUOUS
 10
8.7773524811
 20
4.3076870576
 11
8.7773524811
 21
4.4236933076
  0
LINE
  5
3C2
100
AcDbEntity
  8
03__ASM_ALL_CURVES
100
AcDbLine
 62
40
  6
CONTINUOUS
 10
8.8353556061
 20
4.4043589303
 11
8.8353556061
 21
4.3850245599
  0
LINE
  5
3C3
100
AcDbEntity
  8
03__ASM_ALL_CURVES
100
AcDbLine
 62
40
  6
CONTINUOUS
 10
8.8788579499
 20
4.3656901826
 11
8.8861083405
 21
4.3946917451
  0
LINE
  5
3C4
100
AcDbEntity
  8
03__ASM_ALL_CURVES
100
AcDbLine
 62
40
  6
CONTINUOUS
 10
8.9658626374
 20
4.3656901826
 11
8.9586122467
 21
4.3366886201
  0
LINE
  5
3C5
100
AcDbEntity
  8
03__ASM_ALL_CURVES
100
AcDbLine
 62
40
  6
CONTINUOUS
 10
8.8861083405
 20
4.3366886201
 11
8.8788579499
 21
4.3656901826
  0
LINE
  5
3C6
100
AcDbEntity
  8
03__ASM_ALL_CURVES
100
AcDbLine
 62
40
  6
CONTINUOUS
 10
9.0093649811
 20
4.3076870576
 11
9.0093649811
 21
4.4236933076
  0
LINE
  5
3C7
100
AcDbEntity
  8
03__ASM_ALL_CURVES
100
AcDbLine
 62
40
  6
CONTINUOUS
 10
9.0673681061
 20
4.4043589303
 11
9.0673681061
 21
4.3850245599
  0
LINE
  5
3C8
100
AcDbEntity
  8
03__ASM_ALL_CURVES
100
AcDbLine
 62
40
  6
CONTINUOUS
 10
9.0456169342
 20
4.3656901826
 11
9.0673681061
 21
4.3076870576
  0
LINE
  5
3C9
100
AcDbEntity
  8
03__ASM_ALL_CURVES
100
AcDbLine
 62
40
  6
CONTINUOUS
 10
8.9586122467
 20
4.3946917451
 11
8.9658626374
 21
4.3656901826
  0
LINE
  5
3CA
100
AcDbEntity
  8
03__ASM_ALL_CURVES
100
AcDbLine
 62
40
  6
CONTINUOUS
 10
9.1543727936
 20
4.4236933076
 11
9.1543727936
 21
4.3076870576
  0
LINE
  5
3CB
100
AcDbEntity
  8
03__ASM_ALL_CURVES
100
AcDbLine
 62
40
  6
CONTINUOUS
 10
9.2703790436
 20
4.4236933076
 11
9.2703790436
 21
4.3076870576
  0
ARC
  5
3CC
100
AcDbEntity
  8
0
100
AcDbCircle
 62
7
  6
CONTINUOUS
 10
2.7643524805
 20
4.4537520576
 40
0.094
100
AcDbArc
 50
90.0
 51
131.267427381
  0
ARC
  5
3CD
100
AcDbEntity
  8
0
100
AcDbCircle
 62
7
  6
CONTINUOUS
 10
2.7643524805
 20
4.0997520576
 40
0.094
100
AcDbArc
 50
228.732572619
 51
270.0
  0
ARC
  5
3CE
100
AcDbEntity
  8
0
100
AcDbCircle
 62
7
  6
CONTINUOUS
 10
5.5855802916
 20
3.3837520576
 40
0.027
100
AcDbArc
 50
7.4481900491
 51
75.3134399776
  0
ARC
  5
3CF
100
AcDbEntity
  8
0
100
AcDbCircle
 62
7
  6
CONTINUOUS
 10
5.5855802916
 20
5.1697520576
 40
0.027
100
AcDbArc
 50
284.6865600224
 51
352.5518099509
  0
SPLINE
  5
3D0
100
AcDbEntity
  8
0
100
AcDbSpline
 62
7
  6
CONTINUOUS
 70
0
 71
3
 72
23
 73
19
 74
17
 42
0.0000001
 43
0.0000001
 44
0.0000000001
 12
0.0
 22
-0.2668779986
 32
-0.0261676166
 13
0.0
 23
-0.0271074061
 33
-0.2715812457
 40
0.0
 40
0.0
 40
0.0
 40
0.0
 40
0.0625
 40
0.125
 40
0.1875
 40
0.25
 40
0.3125
 40
0.375
 40
0.4375
 40
0.5
 40
0.5625
 40
0.625
 40
0.6875
 40
0.75
 40
0.8125
 40
0.875
 40
0.9375
 40
1.0
 40
1.0
 40
1.0
 40
1.0
 10
2.3476024805
 20
4.2767520576
 30
0.17175
 10
2.3476024805
 20
4.2711920993
 30
0.1712048413
 10
2.3476024805
 20
4.2601330412
 30
0.169829189
 10
2.3476024805
 20
4.243179303
 30
0.1694777203
 10
2.3476024805
 20
4.2275035935
 30
0.1631342173
 10
2.3476024805
 20
4.2108929076
 30
0.1597948981
 10
2.3476024805
 20
4.196744099
 30
0.150430878
 10
2.3476024805
 20
4.1811615349
 30
0.1440166029
 10
2.3476024805
 20
4.1688521155
 30
0.1318280489
 10
2.3476024805
 20
4.1544705838
 30
0.1221706398
 10
2.3476024805
 20
4.1451043568
 30
0.1081629298
 10
2.3476024805
 20
4.1331228178
 30
0.0961457258
 10
2.3476024805
 20
4.1265872221
 30
0.0805167987
 10
2.3476024805
 20
4.1171918271
 30
0.0664265604
 10
2.3476024805
 20
4.1137896863
 30
0.0497932896
 10
2.3476024805
 20
4.107392986
 30
0.0342513907
 10
2.3476024805
 20
4.1069812697
 30
0.0168870368
 10
2.3476024805
 20
4.1055667952
 30
0.0056579351
 10
2.3476024805
 20
4.1050020576
 30
-0.0000000075
 11
2.3476024805
 21
4.2767520576
 31
0.17175
 11
2.3476024805
 21
4.2600721827
 31
0.170114524
 11
2.3476024805
 21
4.2433923078
 31
0.1684790479
 11
2.3476024805
 21
4.2273477641
 31
0.1636349146
 11
2.3476024805
 21
4.2113032205
 31
0.1587907813
 11
2.3476024805
 21
4.1965051397
 31
0.1509225022
 11
2.3476024805
 21
4.181707059
 31
0.1430542231
 11
2.3476024805
 21
4.1685067635
 31
0.1322499064
 11
2.3476024805
 21
4.1553064679
 31
0.1214455897
 11
2.3476024805
 21
4.1446684715
 31
0.1084946808
 11
2.3476024805
 21
4.134030475
 31
0.095543772
 11
2.3476024805
 21
4.1261105889
 31
0.0807732468
 11
2.3476024805
 21
4.1181907028
 31
0.0660027217
 11
2.3476024805
 21
4.1132905931
 31
0.0499751849
 11
2.3476024805
 21
4.1083904834
 31
0.0339476482
 11
2.3476024805
 21
4.1066962705
 31
0.0169738204
 11
2.3476024805
 21
4.1050020576
 31
-0.0000000075
  0
SPLINE
  5
3D1
100
AcDbEntity
  8
0
100
AcDbSpline
 62
7
  6
CONTINUOUS
 70
0
 71
3
 72
23
 73
19
 74
17
 42
0.0000001
 43
0.0000001
 44
0.0000000001
 12
0.0
 22
-0.0261676166
 32
0.2668779986
 13
0.0
 23
-0.2715812457
 33
0.0271074061
 40
0.0
 40
0.0
 40
0.0
 40
0.0
 40
0.0625
 40
0.125
 40
0.1875
 40
0.25
 40
0.3125
 40
0.375
 40
0.4375
 40
0.5
 40
0.5625
 40
0.625
 40
0.6875
 40
0.75
 40
0.8125
 40
0.875
 40
0.9375
 40
1.0
 40
1.0
 40
1.0
 40
1.0
 10
2.3476024805
 20
4.4485020576
 30
-0.0
 10
2.3476024805
 20
4.4479568989
 30
0.0055599583
 10
2.3476024805
 20
4.4465812466
 30
0.0166190164
 10
2.3476024805
 20
4.4462297779
 30
0.0335727546
 10
2.3476024805
 20
4.4398862749
 30
0.0492484641
 10
2.3476024805
 20
4.4365469557
 30
0.06585915
 10
2.3476024805
 20
4.4271829356
 30
0.0800079586
 10
2.3476024805
 20
4.4207686605
 30
0.0955905227
 10
2.3476024805
 20
4.4085801065
 30
0.1078999421
 10
2.3476024805
 20
4.3989226974
 30
0.1222814738
 10
2.3476024805
 20
4.3849149874
 30
0.1316477008
 10
2.3476024805
 20
4.3728977834
 30
0.1436292398
 10
2.3476024805
 20
4.3572688563
 30
0.1501648355
 10
2.3476024805
 20
4.343178618
 30
0.1595602305
 10
2.3476024805
 20
4.3265453472
 30
0.1629623713
 10
2.3476024805
 20
4.3110034483
 30
0.1693590716
 10
2.3476024805
 20
4.2936390944
 30
0.1697707879
 10
2.3476024805
 20
4.2824099927
 30
0.1711852624
 10
2.3476024805
 20
4.2767520501
 30
0.17175
 11
2.3476024805
 21
4.4485020576
 31
-0.0
 11
2.3476024805
 21
4.4468665816
 31
0.0166798749
 11
2.3476024805
 21
4.4452311055
 31
0.0333597498
 11
2.3476024805
 21
4.4403869722
 31
0.0494042935
 11
2.3476024805
 21
4.4355428389
 31
0.0654488371
 11
2.3476024805
 21
4.4276745598
 31
0.0802469179
 11
2.3476024805
 21
4.4198062807
 31
0.0950449986
 11
2.3476024805
 21
4.409001964
 31
0.1082452941
 11
2.3476024805
 21
4.3981976473
 31
0.1214455897
 11
2.3476024805
 21
4.3852467384
 31
0.1320835861
 11
2.3476024805
 21
4.3722958296
 31
0.1427215826
 11
2.3476024805
 21
4.3575253044
 31
0.1506414687
 11
2.3476024805
 21
4.3427547793
 31
0.1585613548
 11
2.3476024805
 21
4.3267272425
 31
0.1634614645
 11
2.3476024805
 21
4.3106997058
 31
0.1683615742
 11
2.3476024805
 21
4.2937258779
 31
0.1700557871
 11
2.3476024805
 21
4.2767520501
 31
0.17175
  0
SPLINE
  5
3D2
100
AcDbEntity
  8
0
100
AcDbSpline
 62
7
  6
CONTINUOUS
 70
0
 71
3
 72
16
 73
12
 74
10
 42
0.0000001
 43
0.0000001
 44
0.0000000001
 12
0.0906480335
 22
0.2719441006
 32
0.0
 13
-0.0906480335
 23
0.2719441006
 33
0.0
 40
0.0
 40
0.0
 40
0.0
 40
0.0
 40
0.1184548733
 40
0.230565332
 40
0.3393089466
 40
0.4465959239
 40
0.5535015371
 40
0.6607803311
 40
0.769505023
 40
0.8815660643
 40
1.0
 40
1.0
 40
1.0
 40
1.0
 10
2.9524810701
 20
3.9957520576
 30
0.0
 10
2.9560603039
 20
4.0064897589
 30
0.0
 10
2.9624913906
 20
4.0275758058
 30
0.0
 10
2.9700108202
 20
4.0591368606
 30
0.0
 10
2.9750990477
 20
4.0901056787
 30
0.0
 10
2.9776859099
 20
4.1208887483
 30
0.0
 10
2.9776847216
 20
4.1516425493
 30
0.0
 10
2.975095881
 20
4.1824228407
 30
0.0
 10
2.9700071462
 20
4.2133841425
 30
0.0
 10
2.9624888895
 20
4.2449366741
 30
0.0
 10
2.9560596713
 20
4.2660162542
 30
0.0
 10
2.9524810701
 20
4.2767520576
 30
0.0
 11
2.9524810701
 21
3.9957520576
 31
0.0
 11
2.9623195397
 21
4.0282510855
 31
0.0
 11
2.9697067102
 21
4.0595274759
 31
0.0
 11
2.9747113276
 21
4.0902949284
 31
0.0
 11
2.9772582929
 21
4.1209435496
 31
0.0
 11
2.9772571228
 21
4.1515884981
 31
0.0
 11
2.9747081827
 21
4.1822346012
 31
0.0
 11
2.9697027436
 21
4.2129964244
 31
0.0
 11
2.9623179722
 21
4.244258826
 31
0.0
 11
2.9524810701
 21
4.2767520576
 31
0.0
  0
SPLINE
  5
3D3
100
AcDbEntity
  8
0
100
AcDbSpline
 62
7
  6
CONTINUOUS
 70
0
 71
3
 72
17
 73
13
 74
11
 42
0.0000001
 43
0.0000001
 44
0.0000000001
 12
-0.1487434696
 22
0.2576312467
 32
0.0
 13
0.1487434696
 23
0.2576312467
 33
0.0
 40
0.0
 40
0.0
 40
0.0
 40
0.0
 40
0.1169386465
 40
0.2216811606
 40
0.3184580982
 40
0.4103908543
 40
0.5000417254
 40
0.5896883004
 40
0.6816074548
 40
0.7783545182
 40
0.8830694657
 40
1.0
 40
1.0
 40
1.0
 40
1.0
 10
2.8508233318
 20
3.9957520576
 30
0.0
 10
2.8450253785
 20
4.0057944074
 30
0.0
 10
2.8346855509
 20
4.0252242548
 30
0.0
 10
2.8223119274
 20
4.0543263324
 30
0.0
 10
2.8136584807
 20
4.0821678951
 30
0.0
 10
2.8085013761
 20
4.1093512147
 30
0.0
 10
2.8067844958
 20
4.1362640996
 30
0.0
 10
2.8085043814
 20
4.1631754244
 30
0.0
 10
2.813663133
 20
4.190353565
 30
0.0
 10
2.8223159849
 20
4.218187871
 30
0.0
 10
2.8346875723
 20
4.2472837107
 30
0.0
 10
2.8450257807
 20
4.2667104045
 30
0.0
 10
2.8508233318
 20
4.2767520576
 30
0.0
 11
2.8508233318
 21
3.9957520576
 31
0.0
 11
2.8345971004
 21
4.0265237146
 31
0.0
 11
2.8225123439
 21
4.0552443512
 31
0.0
 11
2.8140596706
 21
4.0827654198
 31
0.0
 11
2.8090267852
 21
4.109647135
 31
0.0
 11
2.8073524809
 21
4.1362644911
 31
0.0
 11
2.8090297232
 21
4.1628803816
 31
0.0
 11
2.8140643699
 21
4.1897576503
 31
0.0
 11
2.8225159849
 21
4.2172697469
 31
0.0
 11
2.8345981361
 21
4.2459825826
 31
0.0
 11
2.8508233318
 21
4.2767520576
 31
0.0
  0
SPLINE
  5
3D4
100
AcDbEntity
  8
0
100
AcDbSpline
 62
7
  6
CONTINUOUS
 70
0
 71
3
 72
16
 73
12
 74
10
 42
0.0000001
 43
0.0000001
 44
0.0000000001
 12
0.0906480335
 22
0.2719441006
 32
0.0
 13
-0.0906480335
 23
0.2719441006
 33
0.0
 40
0.0
 40
0.0
 40
0.0
 40
0.0
 40
0.1184548733
 40
0.230565332
 40
0.3393089466
 40
0.4465959239
 40
0.5535015371
 40
0.6607803311
 40
0.769505023
 40
0.8815660643
 40
1.0
 40
1.0
 40
1.0
 40
1.0
 10
2.9524810701
 20
4.2767520576
 30
0.0
 10
2.9560603039
 20
4.2874897589
 30
0.0
 10
2.9624913906
 20
4.3085758058
 30
0.0
 10
2.9700108202
 20
4.3401368606
 30
0.0
 10
2.9750990477
 20
4.3711056787
 30
0.0
 10
2.9776859099
 20
4.4018887483
 30
0.0
 10
2.9776847216
 20
4.4326425493
 30
0.0
 10
2.975095881
 20
4.4634228407
 30
0.0
 10
2.9700071462
 20
4.4943841425
 30
0.0
 10
2.9624888895
 20
4.5259366741
 30
0.0
 10
2.9560596713
 20
4.5470162542
 30
0.0
 10
2.9524810701
 20
4.5577520576
 30
0.0
 11
2.9524810701
 21
4.2767520576
 31
0.0
 11
2.9623195397
 21
4.3092510855
 31
0.0
 11
2.9697067102
 21
4.3405274759
 31
0.0
 11
2.9747113276
 21
4.3712949284
 31
0.0
 11
2.9772582929
 21
4.4019435496
 31
0.0
 11
2.9772571228
 21
4.4325884981
 31
0.0
 11
2.9747081827
 21
4.4632346012
 31
0.0
 11
2.9697027436
 21
4.4939964244
 31
0.0
 11
2.9623179722
 21
4.525258826
 31
0.0
 11
2.9524810701
 21
4.5577520576
 31
0.0
  0
SPLINE
  5
3D5
100
AcDbEntity
  8
0
100
AcDbSpline
 62
7
  6
CONTINUOUS
 70
0
 71
3
 72
17
 73
13
 74
11
 42
0.0000001
 43
0.0000001
 44
0.0000000001
 12
-0.1487434696
 22
0.2576312467
 32
0.0
 13
0.1487434696
 23
0.2576312467
 33
0.0
 40
0.0
 40
0.0
 40
0.0
 40
0.0
 40
0.1169386465
 40
0.2216811606
 40
0.3184580982
 40
0.4103908543
 40
0.5000417254
 40
0.5896883004
 40
0.6816074548
 40
0.7783545182
 40
0.8830694657
 40
1.0
 40
1.0
 40
1.0
 40
1.0
 10
2.8508233318
 20
4.2767520576
 30
0.0
 10
2.8450253785
 20
4.2867944074
 30
0.0
 10
2.8346855509
 20
4.3062242548
 30
0.0
 10
2.8223119274
 20
4.3353263324
 30
0.0
 10
2.8136584807
 20
4.3631678951
 30
0.0
 10
2.8085013761
 20
4.3903512147
 30
0.0
 10
2.8067844958
 20
4.4172640996
 30
0.0
 10
2.8085043814
 20
4.4441754244
 30
0.0
 10
2.813663133
 20
4.471353565
 30
0.0
 10
2.8223159849
 20
4.499187871
 30
0.0
 10
2.8346875723
 20
4.5282837107
 30
0.0
 10
2.8450257807
 20
4.5477104045
 30
0.0
 10
2.8508233318
 20
4.5577520576
 30
0.0
 11
2.8508233318
 21
4.2767520576
 31
0.0
 11
2.8345971004
 21
4.3075237146
 31
0.0
 11
2.8225123439
 21
4.3362443512
 31
0.0
 11
2.8140596706
 21
4.3637654198
 31
0.0
 11
2.8090267852
 21
4.390647135
 31
0.0
 11
2.8073524809
 21
4.4172644911
 31
0.0
 11
2.8090297232
 21
4.4438803816
 31
0.0
 11
2.8140643699
 21
4.4707576503
 31
0.0
 11
2.8225159849
 21
4.4982697469
 31
0.0
 11
2.8345981361
 21
4.5269825826
 31
0.0
 11
2.8508233318
 21
4.5577520576
 31
0.0
  0
SPLINE
  5
3D6
100
AcDbEntity
  8
0
100
AcDbSpline
 62
7
  6
CONTINUOUS
 70
0
 71
3
 72
15
 73
11
 74
9
 42
0.0000001
 43
0.0000001
 44
0.0000000001
 12
0.0
 22
0.1617702498
 32
0.0
 13
0.0
 23
-0.1617702498
 33
0.0
 40
0.0
 40
0.0
 40
0.0
 40
0.0
 40
0.125
 40
0.25
 40
0.375
 40
0.5
 40
0.625
 40
0.75
 40
0.875
 40
1.0
 40
1.0
 40
1.0
 40
1.0
 10
8.3293524805
 20
5.0517520576
 30
0.0
 10
8.3293524805
 20
5.0584924847
 30
0.0
 10
8.3266709719
 20
5.0719733388
 30
0.0
 10
8.3152165362
 20
5.0891161133
 30
0.0
 10
8.2980737618
 20
5.100570549
 30
0.0
 10
8.2778524805
 20
5.1045928119
 30
0.0
 10
8.2576311993
 20
5.100570549
 30
0.0
 10
8.2404884248
 20
5.0891161133
 30
0.0
 10
8.2290339891
 20
5.0719733388
 30
0.0
 10
8.2263524805
 20
5.0584924847
 30
0.0
 10
8.2263524805
 20
5.0517520576
 30
0.0
 11
8.3293524805
 21
5.0517520576
 31
0.0
 11
8.3254322765
 21
5.0714602544
 31
0.0
 11
8.3142684798
 21
5.0881680568
 31
0.0
 11
8.2975606773
 21
5.0993318535
 31
0.0
 11
8.2778524805
 21
5.1032520576
 31
0.0
 11
8.2581442838
 21
5.0993318535
 31
0.0
 11
8.2414364813
 21
5.0881680568
 31
0.0
 11
8.2302726846
 21
5.0714602544
 31
0.0
 11
8.2263524805
 21
5.0517520576
 31
0.0
  0
SPLINE
  5
3D7
100
AcDbEntity
  8
0
100
AcDbSpline
 62
7
  6
CONTINUOUS
 70
0
 71
3
 72
15
 73
11
 74
9
 42
0.0000001
 43
0.0000001
 44
0.0000000001
 12
0.0
 22
-0.1617702498
 32
0.0
 13
0.0
 23
0.1617702498
 33
0.0
 40
0.0
 40
0.0
 40
0.0
 40
0.0
 40
0.125
 40
0.25
 40
0.375
 40
0.5
 40
0.625
 40
0.75
 40
0.875
 40
1.0
 40
1.0
 40
1.0
 40
1.0
 10
8.3293524805
 20
3.5017520576
 30
0.0
 10
8.3293524805
 20
3.4950116305
 30
0.0
 10
8.3266709719
 20
3.4815307764
 30
0.0
 10
8.3152165362
 20
3.4643880019
 30
0.0
 10
8.2980737618
 20
3.4529335662
 30
0.0
 10
8.2778524805
 20
3.4489113033
 30
0.0
 10
8.2576311993
 20
3.4529335662
 30
0.0
 10
8.2404884248
 20
3.4643880019
 30
0.0
 10
8.2290339891
 20
3.4815307764
 30
0.0
 10
8.2263524805
 20
3.4950116305
 30
0.0
 10
8.2263524805
 20
3.5017520576
 30
0.0
 11
8.3293524805
 21
3.5017520576
 31
0.0
 11
8.3254322765
 21
3.4820438608
 31
0.0
 11
8.3142684798
 21
3.4653360584
 31
0.0
 11
8.2975606773
 21
3.4541722617
 31
0.0
 11
8.2778524805
 21
3.4502520576
 31
0.0
 11
8.2581442838
 21
3.4541722617
 31
0.0
 11
8.2414364813
 21
3.4653360584
 31
0.0
 11
8.2302726846
 21
3.4820438608
 31
0.0
 11
8.2263524805
 21
3.5017520576
 31
0.0
  0
SPLINE
  5
3D8
100
AcDbEntity
  8
0
100
AcDbSpline
 62
7
  6
CONTINUOUS
 70
0
 71
3
 72
14
 73
10
 74
8
 42
0.0000001
 43
0.0000001
 44
0.0000000001
 12
0.0
 22
0.1323573704
 32
0.0
 13
-0.0715842835
 23
-0.1113582083
 33
0.0
 40
0.0
 40
0.0
 40
0.0
 40
0.0
 40
0.152777901
 40
0.305555802
 40
0.458333703
 40
0.6111116041
 40
0.7638895051
 40
0.9166674061
 40
1.0
 40
1.0
 40
1.0
 40
1.0
 10
5.5423524805
 20
5.1942520576
 30
0.0
 10
5.5423524805
 20
5.2009924847
 30
0.0
 10
5.5396709719
 20
5.2144733388
 30
0.0
 10
5.5282165362
 20
5.2316161133
 30
0.0
 10
5.5110737618
 20
5.243070549
 30
0.0
 10
5.4908524805
 20
5.2470928119
 30
0.0
 10
5.4706311993
 20
5.243070549
 30
0.0
 10
5.4560858451
 20
5.233351654
 30
0.0
 10
5.4495190998
 20
5.2251865535
 30
0.0
 10
5.4475306651
 20
5.2220932974
 30
0.0
 11
5.5423524805
 21
5.1942520576
 31
0.0
 11
5.5384322765
 21
5.2139602544
 31
0.0
 11
5.5272684798
 21
5.2306680568
 31
0.0
 11
5.5105606773
 21
5.2418318535
 31
0.0
 11
5.4908524805
 21
5.2457520576
 31
0.0
 11
5.4711442838
 21
5.2418318535
 31
0.0
 11
5.4544364813
 21
5.2306680568
 31
0.0
 11
5.4475306651
 21
5.2220932974
 31
0.0
  0
SPLINE
  5
3D9
100
AcDbEntity
  8
0
100
AcDbSpline
 62
7
  6
CONTINUOUS
 70
0
 71
3
 72
9
 73
5
 74
3
 42
0.0000001
 43
0.0000001
 44
0.0000000001
 12
-0.0159076891
 22
-0.0247463783
 32
0.0
 13
0.0
 23
-0.0294128795
 33
0.0
 40
0.0
 40
0.0
 40
0.0
 40
0.0
 40
0.3125024955
 40
1.0
 40
1.0
 40
1.0
 40
1.0
 10
5.4475306651
 20
5.2220932974
 30
0.0
 10
5.4458736009
 20
5.219515529
 30
0.0
 10
5.4413026757
 20
5.2107967778
 30
0.0
 10
5.4393524805
 20
5.2009924847
 30
0.0
 10
5.4393524805
 20
5.1942520576
 30
0.0
 11
5.4475306651
 21
5.2220932974
 31
0.0
 11
5.4432726846
 21
5.2139602544
 31
0.0
 11
5.4393524805
 21
5.1942520576
 31
0.0
  0
SPLINE
  5
3DA
100
AcDbEntity
  8
0
100
AcDbSpline
 62
7
  6
CONTINUOUS
 70
0
 71
3
 72
14
 73
10
 74
8
 42
0.0000001
 43
0.0000001
 44
0.0000000001
 12
0.0
 22
-0.1323573704
 32
0.0
 13
-0.0715842835
 23
0.1113582083
 33
0.0
 40
0.0
 40
0.0
 40
0.0
 40
0.0
 40
0.152777901
 40
0.305555802
 40
0.458333703
 40
0.6111116041
 40
0.7638895051
 40
0.9166674061
 40
1.0
 40
1.0
 40
1.0
 40
1.0
 10
5.5423524805
 20
3.3592520576
 30
0.0
 10
5.5423524805
 20
3.3525116305
 30
0.0
 10
5.5396709719
 20
3.3390307764
 30
0.0
 10
5.5282165362
 20
3.3218880019
 30
0.0
 10
5.5110737618
 20
3.3104335662
 30
0.0
 10
5.4908524805
 20
3.3064113033
 30
0.0
 10
5.4706311993
 20
3.3104335662
 30
0.0
 10
5.4560858451
 20
3.3201524612
 30
0.0
 10
5.4495190998
 20
3.3283175617
 30
0.0
 10
5.4475306651
 20
3.3314108178
 30
0.0
 11
5.5423524805
 21
3.3592520576
 31
0.0
 11
5.5384322765
 21
3.3395438608
 31
0.0
 11
5.5272684798
 21
3.3228360584
 31
0.0
 11
5.5105606773
 21
3.3116722617
 31
0.0
 11
5.4908524805
 21
3.3077520576
 31
0.0
 11
5.4711442838
 21
3.3116722617
 31
0.0
 11
5.4544364813
 21
3.3228360584
 31
0.0
 11
5.4475306651
 21
3.3314108178
 31
0.0
  0
SPLINE
  5
3DB
100
AcDbEntity
  8
0
100
AcDbSpline
 62
7
  6
CONTINUOUS
 70
0
 71
3
 72
9
 73
5
 74
3
 42
0.0000001
 43
0.0000001
 44
0.0000000001
 12
-0.0159076891
 22
0.0247463783
 32
0.0
 13
0.0
 23
0.0294128795
 33
0.0
 40
0.0
 40
0.0
 40
0.0
 40
0.0
 40
0.3125024955
 40
1.0
 40
1.0
 40
1.0
 40
1.0
 10
5.4475306651
 20
3.3314108178
 30
0.0
 10
5.4458736009
 20
3.3339885862
 30
0.0
 10
5.4413026757
 20
3.3427073374
 30
0.0
 10
5.4393524805
 20
3.3525116305
 30
0.0
 10
5.4393524805
 20
3.3592520576
 30
0.0
 11
5.4475306651
 21
3.3314108178
 31
0.0
 11
5.4432726846
 21
3.3395438608
 31
0.0
 11
5.4393524805
 21
3.3592520576
 31
0.0
  0
SPLINE
  5
3DC
100
AcDbEntity
  8
0
100
AcDbSpline
 62
7
  6
CONTINUOUS
 70
0
 71
3
 72
14
 73
10
 74
8
 42
0.0000001
 43
0.0000001
 44
0.0000000001
 12
-0.1459340427
 22
-0.1457019462
 32
0.0
 13
-0.1974791849
 23
-0.0116825691
 33
0.0
 40
0.0
 40
0.0
 40
0.0
 40
0.0
 40
0.0701151258
 40
0.1731031684
 40
0.3050288263
 40
0.4611385422
 40
0.6359239414
 40
0.8188894954
 40
1.0
 40
1.0
 40
1.0
 40
1.0
 10
6.5195815695
 20
5.0230979765
 30
0.0
 10
6.5161708415
 20
5.0196926731
 30
0.0
 10
6.5064923706
 20
5.0139322438
 30
0.0
 10
6.4879488247
 20
5.0057594371
 30
0.0
 10
6.4633992671
 20
4.9979037953
 30
0.0
 10
6.4337577343
 20
4.9905132486
 30
0.0
 10
6.400441301
 20
4.9842554221
 30
0.0
 10
6.3652091327
 20
4.9795212043
 30
0.0
 10
6.3412743321
 20
4.9775121211
 30
0.0
 10
6.3293524805
 20
4.9768068424
 30
0.0
 11
6.5195815695
 21
5.0230979765
 31
0.0
 11
6.5081917213
 21
5.0152103123
 31
0.0
 11
6.4896181692
 21
5.0068374516
 31
0.0
 11
6.4648413219
 21
4.9986386892
 31
0.0
 11
6.4348956309
 21
4.9910906336
 31
0.0
 11
6.400924949
 21
4.9846447383
 31
0.0
 11
6.3650548718
 21
4.9798053301
 31
0.0
 11
6.3293524805
 21
4.9768068424
 31
0.0
  0
SPLINE
  5
3DD
100
AcDbEntity
  8
0
100
AcDbSpline
 62
7
  6
CONTINUOUS
 70
0
 71
3
 72
16
 73
12
 74
10
 42
0.0000001
 43
0.0000001
 44
0.0000000001
 12
-0.1630157752
 22
0.1411045584
 32
0.0
 13
0.0
 23
0.215602967
 33
0.0
 40
0.0
 40
0.0
 40
0.0
 40
0.0
 40
0.1313209398
 40
0.2718734232
 40
0.4141291621
 40
0.5502934813
 40
0.676250127
 40
0.7876116623
 40
0.880703841
 40
0.9520451223
 40
1.0
 40
1.0
 40
1.0
 40
1.0
 10
6.3293524805
 20
4.9768068424
 30
0.0
 10
6.3222166856
 20
4.9829835035
 30
0.0
 10
6.3078871341
 20
4.9962899877
 30
0.0
 10
6.2873513739
 20
5.0178554073
 30
0.0
 10
6.2678593063
 20
5.0408267686
 30
0.0
 10
6.250271086
 20
5.063977654
 30
0.0
 10
6.2351745254
 20
5.0861904128
 30
0.0
 10
6.2229421714
 20
5.1065485754
 30
0.0
 10
6.2138374401
 20
5.1242035533
 30
0.0
 10
6.2081375046
 20
5.1383296905
 30
0.0
 10
6.2060438227
 20
5.1468007405
 30
0.0
 10
6.2060438227
 20
5.1502471452
 30
0.0
 11
6.3293524805
 21
4.9768068424
 31
0.0
 11
6.3085715323
 21
4.9960367304
 31
0.0
 11
6.2876498864
 21
5.0179590663
 31
0.0
 11
6.2677960615
 21
5.0413368574
 31
0.0
 11
6.2500445116
 21
5.0647193561
 31
0.0
 11
6.234811828
 21
5.0872015205
 31
0.0
 11
6.2225089811
 21
5.1078198175
 31
0.0
 11
6.2134448448
 21
5.1257274824
 31
0.0
 11
6.2079060926
 21
5.1400770274
 31
0.0
 11
6.2060438227
 21
5.1502471452
 31
0.0
  0
SPLINE
  5
3DE
100
AcDbEntity
  8
0
100
AcDbSpline
 62
7
  6
CONTINUOUS
 70
0
 71
3
 72
12
 73
8
 74
6
 42
0.0000001
 43
0.0000001
 44
0.0000000001
 12
0.0
 22
0.0943075012
 32
0.0
 13
0.0848046228
 23
0.0424247745
 33
0.0
 40
0.0
 40
0.0
 40
0.0
 40
0.0
 40
0.2675319623
 40
0.5063588808
 40
0.7171305849
 40
0.9060584888
 40
1.0
 40
1.0
 40
1.0
 40
1.0
 10
6.2060438227
 20
4.7289063865
 30
0.0
 10
6.2060438227
 20
4.7373164768
 30
0.0
 10
6.2070943356
 20
4.7532712524
 30
0.0
 10
6.2123958796
 20
4.775320063
 30
0.0
 10
6.2213372623
 20
4.7935295955
 30
0.0
 10
6.2320667392
 20
4.8051186697
 30
0.0
 10
6.2397077642
 20
4.8098299551
 30
0.0
 10
6.2423633223
 20
4.8111584375
 30
0.0
 11
6.2060438227
 21
4.7289063865
 31
0.0
 11
6.2079055934
 21
4.7540678725
 31
0.0
 11
6.2134419159
 21
4.775900012
 31
0.0
 11
6.2225025448
 21
4.7935922181
 31
0.0
 11
6.2347972023
 21
4.8064878854
 31
0.0
 11
6.2423633223
 21
4.8111584375
 31
0.0
  0
SPLINE
  5
3DF
100
AcDbEntity
  8
0
100
AcDbSpline
 62
7
  6
CONTINUOUS
 70
0
 71
3
 72
16
 73
12
 74
10
 42
0.0000001
 43
0.0000001
 44
0.0000000001
 12
-0.2433208542
 22
0.0619472138
 32
0.0
 13
-0.0
 23
0.2510826465
 33
0.0
 40
0.0
 40
0.0
 40
0.0
 40
0.0
 40
0.088610394
 40
0.1878711598
 40
0.2963849309
 40
0.4110791324
 40
0.5304753724
 40
0.6520179336
 40
0.7730587868
 40
0.8900641603
 40
1.0
 40
1.0
 40
1.0
 40
1.0
 10
6.3293524805
 20
4.5269346849
 30
0.0
 10
6.3221655616
 20
4.5287644073
 30
0.0
 10
6.3073813682
 20
4.534562346
 30
0.0
 10
6.2865544974
 20
4.5483022774
 30
0.0
 10
6.266922083
 20
4.5670011613
 30
0.0
 10
6.2492960298
 20
4.5897327012
 30
0.0
 10
6.2342055539
 20
4.6154741178
 30
0.0
 10
6.221997766
 20
4.6432706869
 30
0.0
 10
6.2129891809
 20
4.6720516911
 30
0.0
 10
6.2074192972
 20
4.7006977411
 30
0.0
 10
6.2060438227
 20
4.7197053927
 30
0.0
 10
6.2060438227
 20
4.7289063865
 30
0.0
 11
6.3293524805
 21
4.5269346849
 31
0.0
 11
6.3085715323
 21
4.5348813431
 31
0.0
 11
6.2876498864
 21
4.5484247365
 31
0.0
 11
6.2677960615
 21
4.5670839449
 31
0.0
 11
6.2500445116
 21
4.589759733
 31
0.0
 11
6.234811828
 21
4.6155795946
 31
0.0
 11
6.2225089811
 21
4.6435070212
 31
0.0
 11
6.2134448448
 21
4.6725151233
 31
0.0
 11
6.2079060926
 21
4.7013662968
 31
0.0
 11
6.2060438227
 21
4.7289063865
 31
0.0
  0
SPLINE
  5
3E0
100
AcDbEntity
  8
0
100
AcDbSpline
 62
7
  6
CONTINUOUS
 70
0
 71
3
 72
16
 73
12
 74
10
 42
0.0000001
 43
0.0000001
 44
0.0000000001
 12
0.0
 22
0.2424710696
 32
0.0
 13
0.2424680161
 23
-0.0012168842
 33
0.0
 40
0.0
 40
0.0
 40
0.0
 40
0.0
 40
0.1239764757
 40
0.2500968662
 40
0.375274228
 40
0.4963065451
 40
0.6115220615
 40
0.7193327495
 40
0.8201329525
 40
0.9132074878
 40
1.0
 40
1.0
 40
1.0
 40
1.0
 10
6.2060438227
 20
4.0426997543
 30
0.0
 10
6.2060438227
 20
4.0527199905
 30
0.0
 10
6.2073323715
 20
4.0729520043
 30
0.0
 10
6.2128335756
 20
4.10284751
 30
0.0
 10
6.2217887353
 20
4.1316575491
 30
0.0
 10
6.2339691702
 20
4.1583042387
 30
0.0
 10
6.2490711537
 20
4.181784651
 30
0.0
 10
6.2667796198
 20
4.2012497994
 30
0.0
 10
6.2865936763
 20
4.215796464
 30
0.0
 10
6.3077238691
 20
4.2246630296
 30
0.0
 10
6.3223376778
 20
4.2266152086
 30
0.0
 10
6.3293524805
 20
4.2265800031
 30
0.0
 11
6.2060438227
 21
4.0426997543
 31
0.0
 11
6.2079055934
 21
4.0727027544
 31
0.0
 11
6.2134419159
 21
4.1027779755
 31
0.0
 11
6.2225025448
 21
4.1317459261
 31
0.0
 11
6.2347972023
 21
4.1583932176
 31
0.0
 11
6.2500384881
 21
4.1818057634
 31
0.0
 11
6.2677754736
 21
4.2010086227
 31
0.0
 11
6.2876046065
 21
4.2152975861
 31
0.0
 11
6.3084839734
 21
4.2238627094
 31
0.0
 11
6.3293524805
 21
4.2265800031
 31
0.0
  0
SPLINE
  5
3E1
100
AcDbEntity
  8
0
100
AcDbSpline
 62
7
  6
CONTINUOUS
 70
0
 71
3
 72
17
 73
13
 74
11
 42
0.0000001
 43
0.0000001
 44
0.0000000001
 12
0.0
 22
0.2380498723
 32
0.0
 13
0.1945370306
 23
0.1371972501
 33
0.0
 40
0.0
 40
0.0
 40
0.0
 40
0.0
 40
0.0579760883
 40
0.1290031685
 40
0.2097064777
 40
0.2956868976
 40
0.3872933364
 40
0.4951582341
 40
0.6176072477
 40
0.7477107615
 40
0.8767602734
 40
1.0
 40
1.0
 40
1.0
 40
1.0
 10
6.2060438227
 20
3.493597787
 30
0.0
 10
6.2060438227
 20
3.4981981872
 30
0.0
 10
6.2071200968
 20
3.5084319695
 30
0.0
 10
6.2109824754
 20
3.5246448807
 30
0.0
 10
6.2171062072
 20
3.5425119937
 30
0.0
 10
6.2252216059
 20
3.5613494988
 30
0.0
 10
6.2355453403
 20
3.5815275959
 30
0.0
 10
6.2486551076
 20
3.6034745066
 30
0.0
 10
6.2650540634
 20
3.6269381444
 30
0.0
 10
6.2843611409
 20
3.6503149936
 30
0.0
 10
6.3057739162
 20
3.6718758176
 30
0.0
 10
6.321360917
 20
3.6845293243
 30
0.0
 10
6.3293524805
 20
3.6901653749
 30
0.0
 11
6.2060438227
 21
3.493597787
 31
0.0
 11
6.2072737207
 21
3.5073440768
 31
0.0
 11
6.2110484121
 21
3.5238253311
 31
0.0
 11
6.2171913604
 21
3.5420281483
 31
0.0
 11
6.225242431
 21
3.5608458011
 31
0.0
 11
6.2351490586
 21
3.5802725781
 31
0.0
 11
6.2483024731
 21
3.6023249606
 31
0.0
 11
6.2650082629
 21
3.6262117595
 31
0.0
 11
6.2847673078
 21
3.6500610932
 31
0.0
 11
6.3064811472
 21
3.6717922019
 31
0.0
 11
6.3293524805
 21
3.6901653749
 31
0.0
  0
SPLINE
  5
3E2
100
AcDbEntity
  8
0
100
AcDbSpline
 62
7
  6
CONTINUOUS
 70
0
 71
3
 72
10
 73
6
 74
4
 42
0.0000001
 43
0.0000001
 44
0.0000000001
 12
-0.0976405074
 22
-0.0488249895
 32
0.0
 13
-0.1082269666
 23
-0.0136808072
 33
0.0
 40
0.0
 40
0.0
 40
0.0
 40
0.0
 40
0.3244679385
 40
0.6674144343
 40
1.0
 40
1.0
 40
1.0
 40
1.0
 10
6.4334844273
 20
4.55790474
 30
0.0
 10
6.4229240225
 20
4.5526240255
 30
0.0
 10
6.4005227887
 20
4.5431391309
 30
0.0
 10
6.3655762175
 20
4.5328296315
 30
0.0
 10
6.3413507228
 20
4.5284513646
 30
0.0
 10
6.3293524805
 20
4.5269346849
 30
0.0
 11
6.4334844273
 21
4.55790474
 31
0.0
 11
6.400924949
 21
4.5440172319
 31
0.0
 11
6.3650548718
 21
4.5333893325
 31
0.0
 11
6.3293524805
 21
4.5269346849
 31
0.0
  0
SPLINE
  5
3E3
100
AcDbEntity
  8
0
100
AcDbSpline
 62
7
  6
CONTINUOUS
 70
0
 71
3
 72
13
 73
9
 74
7
 42
0.0000001
 43
0.0000001
 44
0.0000000001
 12
-0.1429984873
 22
0.03674652
 32
0.0
 13
0.0
 23
0.1468787061
 33
0.0
 40
0.0
 40
0.0
 40
0.0
 40
0.0
 40
0.0652027711
 40
0.2224489929
 40
0.3892556547
 40
0.5754889304
 40
0.7799101066
 40
1.0
 40
1.0
 40
1.0
 40
1.0
 10
6.2709465259
 20
3.9218727157
 30
0.0
 10
6.26783856
 20
3.922671374
 30
0.0
 10
6.2574378565
 20
3.9261655602
 30
0.0
 10
6.2412178542
 20
3.9368893408
 30
0.0
 10
6.2255024883
 20
3.9567259959
 30
0.0
 10
6.2142379098
 20
3.9818258632
 30
0.0
 10
6.2074645703
 20
4.0110996032
 30
0.0
 10
6.2060438227
 20
4.031924248
 30
0.0
 10
6.2060438227
 20
4.0426997543
 30
0.0
 11
6.2709465259
 21
3.9218727157
 31
0.0
 11
6.2618385958
 21
3.9249460745
 31
0.0
 11
6.2424458115
 21
3.9374900273
 31
0.0
 11
6.2269354306
 21
3.9564556559
 31
0.0
 11
6.2154148182
 21
3.9812649392
 31
0.0
 11
6.2084005973
 21
4.0104592607
 31
0.0
 11
6.2060438227
 21
4.0426997543
 31
0.0
  0
SPLINE
  5
3E4
100
AcDbEntity
  8
0
100
AcDbSpline
 62
7
  6
CONTINUOUS
 70
0
 71
3
 72
9
 73
5
 74
3
 42
0.0000001
 43
0.0000001
 44
0.0000000001
 12
-0.0176088075
 22
0.0151127399
 32
0.0
 13
0.0
 23
0.0232341696
 33
0.0
 40
0.0
 40
0.0
 40
0.0
 40
0.0
 40
0.4280618113
 40
1.0
 40
1.0
 40
1.0
 40
1.0
 10
6.2132552748
 20
3.4720423023
 30
0.0
 10
6.2107427221
 20
3.4741986979
 30
0.0
 10
6.2067079656
 20
3.4813440845
 30
0.0
 10
6.2060438227
 20
3.4891682841
 30
0.0
 10
6.2060438227
 20
3.493597787
 30
0.0
 11
6.2132552748
 21
3.4720423023
 31
0.0
 11
6.2079060926
 21
3.4804404157
 31
0.0
 11
6.2060438227
 21
3.493597787
 31
0.0
  0
SPLINE
  5
3E5
100
AcDbEntity
  8
0
100
AcDbSpline
 62
7
  6
CONTINUOUS
 70
0
 71
3
 72
15
 73
11
 74
9
 42
0.0000001
 43
0.0000001
 44
0.0000000001
 12
0.1869616907
 22
-0.0164713404
 32
0.0
 13
0.142260785
 23
-0.1227815629
 33
0.0
 40
0.0
 40
0.0
 40
0.0
 40
0.0
 40
0.1784604957
 40
0.3519684073
 40
0.5131295776
 40
0.6554314129
 40
0.7740869097
 40
0.8759959095
 40
0.9710066191
 40
1.0
 40
1.0
 40
1.0
 40
1.0
 10
6.3293524805
 20
3.6901653749
 30
0.0
 10
6.3404742392
 20
3.689185547
 30
0.0
 10
6.3623501597
 20
3.6864981641
 30
0.0
 10
6.393895022
 20
3.6804119805
 30
0.0
 10
6.4227572965
 20
3.6727368081
 30
0.0
 10
6.4477504294
 20
3.6641336339
 30
0.0
 10
6.4686221148
 20
3.6551466561
 30
0.0
 10
6.4860764972
 20
3.6458682025
 30
0.0
 10
6.4978587847
 20
3.6380046928
 30
0.0
 10
6.5038790824
 20
3.633090709
 30
0.0
 10
6.5052539562
 20
3.6319040915
 30
0.0
 11
6.3293524805
 21
3.6901653749
 31
0.0
 11
6.3625966605
 21
3.6860779915
 31
0.0
 11
6.3945673425
 21
3.6798849772
 31
0.0
 11
6.4237870009
 21
3.6720662055
 31
0.0
 11
6.44901937
 21
3.6633113777
 31
0.0
 11
6.4694443375
 21
3.6544360339
 31
0.0
 11
6.4862916116
 21
3.6453802735
 31
0.0
 11
6.501039435
 21
3.635355911
 31
0.0
 11
6.5052539562
 21
3.6319040915
 31
0.0
  0
SPLINE
  5
3E6
100
AcDbEntity
  8
0
100
AcDbSpline
 62
7
  6
CONTINUOUS
 70
0
 71
3
 72
12
 73
8
 74
6
 42
0.0000001
 43
0.0000001
 44
0.0000000001
 12
0.0837435627
 22
0.0418939634
 32
0.0
 13
0.0758504657
 23
-0.0540318987
 33
0.0
 40
0.0
 40
0.0
 40
0.0
 40
0.0
 40
0.0884461562
 40
0.280556071
 40
0.4961176268
 40
0.7374520924
 40
1.0
 40
1.0
 40
1.0
 40
1.0
 10
6.2423633223
 20
4.8111584375
 30
0.0
 10
6.2448322544
 20
4.8123935576
 30
0.0
 10
6.2529872689
 20
4.8156639465
 30
0.0
 10
6.2685547848
 20
4.8174816111
 30
0.0
 10
6.2886083863
 20
4.8139620139
 30
0.0
 10
6.309371108
 20
4.805397318
 30
0.0
 10
6.3227143535
 20
4.7971133944
 30
0.0
 10
6.3293524805
 20
4.7923847405
 30
0.0
 11
6.2423633223
 21
4.8111584375
 31
0.0
 11
6.2500384881
 21
4.8142326886
 31
0.0
 11
6.2677754736
 21
4.8165730644
 31
0.0
 11
6.2876046065
 21
4.8134426021
 31
0.0
 11
6.3084839734
 21
4.8051256
 31
0.0
 11
6.3293524805
 21
4.7923847405
 31
0.0
  0
SPLINE
  5
3E7
100
AcDbEntity
  8
0
100
AcDbSpline
 62
7
  6
CONTINUOUS
 70
0
 71
3
 72
23
 73
19
 74
17
 42
0.0000001
 43
0.0000001
 44
0.0000000001
 12
0.0645969348
 22
0.1272453922
 32
0.0
 13
0.0408867183
 23
0.1367187075
 33
0.0
 40
0.0
 40
0.0
 40
0.0
 40
0.0
 40
0.078227621
 40
0.1740743029
 40
0.2647666641
 40
0.3499430657
 40
0.4288583429
 40
0.5000318607
 40
0.5632912317
 40
0.6202829837
 40
0.6728059165
 40
0.7227290634
 40
0.7718062791
 40
0.8203728332
 40
0.8680323154
 40
0.9140301207
 40
0.9583030831
 40
1.0
 40
1.0
 40
1.0
 40
1.0
 10
6.209479895
 20
4.0060497083
 30
0.0
 10
6.2111643165
 20
4.0093677431
 30
0.0
 10
6.2148455564
 20
4.0167852011
 30
0.0
 10
6.2202929608
 20
4.0281405777
 30
0.0
 10
6.2257875061
 20
4.0398393248
 30
0.0
 10
6.2309023046
 20
4.0508264806
 30
0.0
 10
6.2356267883
 20
4.0609712139
 30
0.0
 10
6.2399371141
 20
4.0701587606
 30
0.0
 10
6.2438434196
 20
4.0783838602
 30
0.0
 10
6.2474139295
 20
4.0857861649
 30
0.0
 10
6.2507569184
 20
4.092593707
 30
0.0
 10
6.2539851402
 20
4.0990379661
 30
0.0
 10
6.2571836982
 20
4.1052862684
 30
0.0
 10
6.2603892299
 20
4.1114098785
 30
0.0
 10
6.2635739896
 20
4.1173781135
 30
0.0
 10
6.2666776292
 20
4.1231602378
 30
0.0
 10
6.2695593112
 20
4.1287318363
 30
0.0
 10
6.2711950454
 20
4.1325012825
 30
0.0
 10
6.2717633288
 20
4.1344015321
 30
0.0
 11
6.209479895
 21
4.0060497083
 31
0.0
 11
6.2144528075
 21
4.0160441884
 31
0.0
 11
6.2203816395
 21
4.0283698569
 31
0.0
 11
6.2258921894
 21
4.0400800079
 31
0.0
 11
6.2310282838
 21
4.0510963494
 31
0.0
 11
6.2357873053
 21
4.0613026856
 31
0.0
 11
6.2401046642
 21
4.0704959622
 31
0.0
 11
6.2439799482
 21
4.0786490404
 31
0.0
 11
6.2475152254
 21
4.0859732758
 31
0.0
 11
6.2508205244
 21
4.0927002046
 31
0.0
 11
6.2540124823
 21
4.0990692191
 31
0.0
 11
6.2572042803
 21
4.1053029944
 31
0.0
 11
6.2604173693
 21
4.1114436941
 31
0.0
 11
6.2636138406
 21
4.1174467999
 31
0.0
 11
6.2667008485
 21
4.1232395471
 31
0.0
 11
6.2695515078
 21
4.1288776841
 31
0.0
 11
6.2717633288
 21
4.1344015321
 31
0.0
  0
SPLINE
  5
3E8
100
AcDbEntity
  8
0
100
AcDbSpline
 62
7
  6
CONTINUOUS
 70
0
 71
3
 72
12
 73
8
 74
6
 42
0.0000001
 43
0.0000001
 44
0.0000000001
 12
0.0965155428
 22
-0.1059358925
 32
0.0
 13
0.0193710866
 23
-0.1420424713
 33
0.0
 40
0.0
 40
0.0
 40
0.0
 40
0.0
 40
0.0468463597
 40
0.3223400049
 40
0.6036047865
 40
0.879014217
 40
1.0
 40
1.0
 40
1.0
 40
1.0
 10
6.2098352153
 20
4.6935932404
 30
0.0
 10
6.2113423492
 20
4.6919390034
 30
0.0
 10
6.221534062
 20
4.6803942165
 30
0.0
 10
6.2383440214
 20
4.6568654768
 30
0.0
 10
6.25614738
 20
4.6212043683
 30
0.0
 10
6.2659196324
 20
4.5902574847
 30
0.0
 10
6.2692968222
 20
4.5715884821
 30
0.0
 10
6.2700780308
 20
4.5658601089
 30
0.0
 11
6.2098352153
 21
4.6935932404
 31
0.0
 11
6.2142790581
 21
4.6885617995
 31
0.0
 11
6.2373033153
 21
4.6565624893
 31
0.0
 11
6.2552816524
 21
4.620553544
 31
0.0
 11
6.2670173859
 21
4.5829318101
 31
0.0
 11
6.2700780308
 21
4.5658601089
 31
0.0
  0
SPLINE
  5
3E9
100
AcDbEntity
  8
0
100
AcDbSpline
 62
7
  6
CONTINUOUS
 70
0
 71
3
 72
14
 73
10
 74
8
 42
0.0000001
 43
0.0000001
 44
0.0000000001
 12
0.2201682371
 22
-0.0569263519
 32
0.0
 13
0.0
 23
-0.2272593137
 33
0.0
 40
0.0
 40
0.0
 40
0.0
 40
0.0
 40
0.1481233706
 40
0.3091528445
 40
0.4638473329
 40
0.6106832442
 40
0.7476844165
 40
0.878207348
 40
1.0
 40
1.0
 40
1.0
 40
1.0
 10
6.3677233256
 20
4.2190944289
 30
0.0
 10
6.3785940127
 20
4.2162837212
 30
0.0
 10
6.4009722867
 20
4.2092317795
 30
0.0
 10
6.4331374602
 20
4.1948539481
 30
0.0
 10
6.4630426841
 20
4.1763671885
 30
0.0
 10
6.4883988574
 20
4.1546618517
 30
0.0
 10
6.5081762999
 20
4.1299975146
 30
0.0
 10
6.5209466274
 20
4.1030540157
 30
0.0
 10
6.5239697963
 20
4.0838405549
 30
0.0
 10
6.5239697963
 20
4.0746143834
 30
0.0
 11
6.3677233256
 21
4.2190944289
 31
0.0
 11
6.3998222146
 21
4.2089451891
 31
0.0
 11
6.4331913397
 21
4.1939209327
 31
0.0
 11
6.4630086289
 21
4.1752968367
 31
0.0
 11
6.4882010124
 21
4.153413298
 31
0.0
 11
6.507438154
 21
4.1289325366
 31
0.0
 11
6.5198272266
 21
4.1019811384
 31
0.0
 11
6.5239697963
 21
4.0746143834
 31
0.0
  0
SPLINE
  5
3EA
100
AcDbEntity
  8
0
100
AcDbSpline
 62
7
  6
CONTINUOUS
 70
0
 71
3
 72
9
 73
5
 74
3
 42
0.0000001
 43
0.0000001
 44
0.0000000001
 12
0.0159816988
 22
-0.0484223377
 32
0.0
 13
0.0013867094
 23
-0.0508484348
 33
0.0
 40
0.0
 40
0.0
 40
0.0
 40
0.0
 40
0.2644019234
 40
1.0
 40
1.0
 40
1.0
 40
1.0
 10
6.2633604041
 20
4.1955256727
 30
0.0
 10
6.2647689348
 20
4.1912580196
 30
0.0
 10
6.2693593947
 20
4.1748680018
 30
0.0
 10
6.2713893353
 20
4.1578983505
 30
0.0
 10
6.2717293556
 20
4.1454303469
 30
0.0
 11
6.2633604041
 21
4.1955256727
 31
0.0
 11
6.2670173859
 21
4.1825503939
 31
0.0
 11
6.2717293556
 21
4.1454303469
 31
0.0
  0
SPLINE
  5
3EB
100
AcDbEntity
  8
0
100
AcDbSpline
 62
7
  6
CONTINUOUS
 70
0
 71
3
 72
14
 73
10
 74
8
 42
0.0000001
 43
0.0000001
 44
0.0000000001
 12
-0.2213297998
 22
0.4040062078
 32
0.0
 13
0.2213297998
 23
0.4040062078
 33
0.0
 40
0.0
 40
0.0
 40
0.0
 40
0.0
 40
0.154834753
 40
0.2973000192
 40
0.4331604793
 40
0.5669593799
 40
0.7028127458
 40
0.8452109428
 40
1.0
 40
1.0
 40
1.0
 40
1.0
 10
3.8923251118
 20
3.354147399
 30
0.0
 10
3.8809019301
 20
3.3749987995
 30
0.0
 10
3.860790964
 20
3.4161005931
 30
0.0
 10
3.8391820326
 20
3.4792268419
 30
0.0
 10
3.8280883009
 20
3.5418296377
 30
0.0
 10
3.8280933339
 20
3.6044288201
 30
0.0
 10
3.8391939878
 20
3.667018657
 30
0.0
 10
3.8608014472
 20
3.7301255801
 30
0.0
 10
3.8809053014
 20
3.7712114695
 30
0.0
 10
3.8923251118
 20
3.7920567161
 30
0.0
 11
3.8923251118
 21
3.354147399
 31
0.0
 11
3.8613862585
 21
3.4184141647
 31
0.0
 11
3.8405274567
 21
3.4806392125
 31
0.0
 11
3.8298762086
 21
3.5423117183
 31
0.0
 11
3.8298810266
 21
3.6039475575
 31
0.0
 11
3.8405403863
 21
3.6656153453
 31
0.0
 11
3.861394273
 21
3.7278094546
 31
0.0
 11
3.8923251118
 21
3.7920567161
 31
0.0
  0
SPLINE
  5
3EC
100
AcDbEntity
  8
0
100
AcDbSpline
 62
7
  6
CONTINUOUS
 70
0
 71
3
 72
14
 73
10
 74
8
 42
0.0000001
 43
0.0000001
 44
0.0000000001
 12
-0.2344793064
 22
0.8560175403
 32
0.0
 13
0.2344793064
 23
0.8560175403
 33
0.0
 40
0.0
 40
0.0
 40
0.0
 40
0.0
 40
0.148954496
 40
0.2911277942
 40
0.4306173094
 40
0.569507012
 40
0.7089867217
 40
0.8510903473
 40
1.0
 40
1.0
 40
1.0
 40
1.0
 10
3.8923251118
 20
3.8388427405
 30
0.0
 10
3.8806828628
 20
3.8813452943
 30
0.0
 10
3.8603036264
 20
3.9651014833
 30
0.0
 10
3.8389592523
 20
4.0908181287
 30
0.0
 10
3.8280833427
 20
4.2149133208
 30
0.0
 10
3.8280882572
 20
4.3386983507
 30
0.0
 10
3.8389711176
 20
4.4627692598
 30
0.0
 10
3.86031444
 20
4.588448585
 30
0.0
 10
3.8806863677
 20
4.6721716165
 30
0.0
 10
3.8923251118
 20
4.7146613747
 30
0.0
 11
3.8923251118
 21
3.8388427405
 31
0.0
 11
3.8613862585
 21
3.9673762719
 31
0.0
 11
3.8405274567
 21
4.0918263673
 31
0.0
 11
3.8298762086
 21
4.215171379
 31
0.0
 11
3.8298810266
 21
4.3384430574
 31
0.0
 11
3.8405403863
 21
4.4617786331
 31
0.0
 11
3.861394273
 21
4.5861668517
 31
0.0
 11
3.8923251118
 21
4.7146613747
 31
0.0
  0
SPLINE
  5
3ED
100
AcDbEntity
  8
0
100
AcDbSpline
 62
7
  6
CONTINUOUS
 70
0
 71
3
 72
14
 73
10
 74
8
 42
0.0000001
 43
0.0000001
 44
0.0000000001
 12
-0.2213297998
 22
0.4040062078
 32
0.0
 13
0.2213297998
 23
0.4040062078
 33
0.0
 40
0.0
 40
0.0
 40
0.0
 40
0.0
 40
0.154834753
 40
0.2973000192
 40
0.4331604793
 40
0.5669593799
 40
0.7028127458
 40
0.8452109428
 40
1.0
 40
1.0
 40
1.0
 40
1.0
 10
3.8923251118
 20
4.761447399
 30
0.0
 10
3.8809019301
 20
4.7822987995
 30
0.0
 10
3.860790964
 20
4.8234005931
 30
0.0
 10
3.8391820326
 20
4.8865268419
 30
0.0
 10
3.8280883009
 20
4.9491296377
 30
0.0
 10
3.8280933339
 20
5.0117288201
 30
0.0
 10
3.8391939878
 20
5.074318657
 30
0.0
 10
3.8608014472
 20
5.1374255801
 30
0.0
 10
3.8809053014
 20
5.1785114695
 30
0.0
 10
3.8923251118
 20
5.1993567161
 30
0.0
 11
3.8923251118
 21
4.761447399
 31
0.0
 11
3.8613862585
 21
4.8257141647
 31
0.0
 11
3.8405274567
 21
4.8879392125
 31
0.0
 11
3.8298762086
 21
4.9496117183
 31
0.0
 11
3.8298810266
 21
5.0112475575
 31
0.0
 11
3.8405403863
 21
5.0729153453
 31
0.0
 11
3.861394273
 21
5.1351094546
 31
0.0
 11
3.8923251118
 21
5.1993567161
 31
0.0
  0
SPLINE
  5
3EE
100
AcDbEntity
  8
0
100
AcDbSpline
 62
7
  6
CONTINUOUS
 70
0
 71
3
 72
15
 73
11
 74
9
 42
0.0000001
 43
0.0000001
 44
0.0000000001
 12
0.2004849302
 22
-0.0017186186
 32
0.0
 13
0.0
 23
-0.2004922963
 33
0.0
 40
0.0
 40
0.0
 40
0.0
 40
0.0
 40
0.1760542636
 40
0.3515527907
 40
0.5181470491
 40
0.6672764321
 40
0.7939279089
 40
0.8922625211
 40
0.9602606634
 40
1.0
 40
1.0
 40
1.0
 40
1.0
 10
6.3293524805
 20
5.0561388454
 30
0.0
 10
6.3411178894
 20
5.0560379887
 30
0.0
 10
6.3646110704
 20
5.0557457275
 30
0.0
 10
6.3992301111
 20
5.0549205239
 30
0.0
 10
6.432034836
 20
5.0535742197
 30
0.0
 10
6.461527981
 20
5.0514601814
 30
0.0
 10
6.4863869646
 20
5.0486587922
 30
0.0
 10
6.5055774712
 20
5.0444296338
 30
0.0
 10
6.5186273075
 20
5.0401926798
 30
0.0
 10
6.5239697963
 20
5.0337959382
 30
0.0
 10
6.5239697963
 20
5.0311401279
 30
0.0
 11
6.3293524805
 21
5.0561388454
 31
0.0
 11
6.3646469975
 21
5.0556781479
 31
0.0
 11
6.3998222146
 21
5.054802974
 31
0.0
 11
6.4331913397
 21
5.0533471933
 31
0.0
 11
6.4630086289
 21
5.0511342876
 31
0.0
 11
6.4882010124
 21
5.0479514808
 31
0.0
 11
6.507438154
 21
5.0436356141
 31
0.0
 11
6.5198272266
 21
5.0379459395
 31
0.0
 11
6.5239697963
 21
5.0311401279
 31
0.0
  0
SPLINE
  5
3EF
100
AcDbEntity
  8
0
100
AcDbSpline
 62
7
  6
CONTINUOUS
 70
0
 71
3
 72
15
 73
11
 74
9
 42
0.0000001
 43
0.0000001
 44
0.0000000001
 12
0.0
 22
-0.2155815631
 32
0.0
 13
-0.2153848773
 23
-0.0092067899
 33
0.0
 40
0.0
 40
0.0
 40
0.0
 40
0.0
 40
0.0647466952
 40
0.1435005112
 40
0.242320605
 40
0.3643327341
 40
0.5071456751
 40
0.6667614295
 40
0.834072163
 40
1.0
 40
1.0
 40
1.0
 40
1.0
 10
6.5239697963
 20
3.6003862172
 30
0.0
 10
6.5239697963
 20
3.595733486
 30
0.0
 10
6.5205480596
 20
3.5853275537
 30
0.0
 10
6.5074466517
 20
3.5732419574
 30
0.0
 10
6.4883341321
 20
3.5631230474
 30
0.0
 10
6.463526938
 20
3.5546587561
 30
0.0
 10
6.43378254
 20
3.5477758019
 30
0.0
 10
6.4004148536
 20
3.5425252011
 30
0.0
 10
6.3651742896
 20
3.5388793187
 30
0.0
 10
6.3412652628
 20
3.5374169348
 30
0.0
 10
6.3293524805
 20
3.5369077138
 30
0.0
 11
6.5239697963
 21
3.6003862172
 31
0.0
 11
6.5199991797
 21
3.5870046861
 31
0.0
 11
6.5081917213
 21
3.574805013
 31
0.0
 11
6.4896181692
 21
3.5643707118
 31
0.0
 11
6.4648413219
 21
3.5555397778
 31
0.0
 11
6.4348956309
 21
3.5483880998
 31
0.0
 11
6.400924949
 21
3.5429058022
 31
0.0
 11
6.3650548718
 21
3.5391218595
 31
0.0
 11
6.3293524805
 21
3.5369077138
 31
0.0
  0
SPLINE
  5
3F0
100
AcDbEntity
  8
0
100
AcDbSpline
 62
7
  6
CONTINUOUS
 70
0
 71
3
 72
12
 73
8
 74
6
 42
0.0000001
 43
0.0000001
 44
0.0000000001
 12
0.1128987168
 22
0.1108008459
 32
0.0
 13
0.0042417033
 23
0.1577322006
 33
0.0
 40
0.0
 40
0.0
 40
0.0
 40
0.0
 40
0.0108056958
 40
0.2445330679
 40
0.4927157967
 40
0.7475190078
 40
1.0
 40
1.0
 40
1.0
 40
1.0
 10
6.2130658165
 20
3.9914729663
 30
0.0
 10
6.2134724662
 20
3.9918720597
 30
0.0
 10
6.2226243641
 20
4.0009537588
 30
0.0
 10
6.2387571352
 20
4.0214702998
 30
0.0
 10
6.256506659
 20
4.0561635101
 30
0.0
 10
6.2681347366
 20
4.0943585186
 30
0.0
 10
6.2713723724
 20
4.1210148282
 30
0.0
 10
6.2717293556
 20
4.1342896224
 30
0.0
 11
6.2130658165
 21
3.9914729663
 31
0.0
 11
6.2142790581
 21
3.992676833
 31
0.0
 11
6.2373033153
 21
4.0214864312
 31
0.0
 11
6.2552816524
 21
4.0562762122
 31
0.0
 11
6.2670173859
 21
4.0947304804
 31
0.0
 11
6.2717293556
 21
4.1342896224
 31
0.0
  0
SPLINE
  5
3F1
100
AcDbEntity
  8
0
100
AcDbSpline
 62
7
  6
CONTINUOUS
 70
0
 71
3
 72
15
 73
11
 74
9
 42
0.0000001
 43
0.0000001
 44
0.0000000001
 12
0.0
 22
-0.2620428716
 32
0.0
 13
-0.2601882791
 23
-0.0311211499
 33
0.0
 40
0.0
 40
0.0
 40
0.0
 40
0.0
 40
0.1011977055
 40
0.2065875016
 40
0.3188485088
 40
0.4416493439
 40
0.5746868889
 40
0.7166113151
 40
0.8606196784
 40
1.0
 40
1.0
 40
1.0
 40
1.0
 10
6.5239697963
 20
4.0746143834
 30
0.0
 10
6.5239697963
 20
4.0657750043
 30
0.0
 10
6.5212333253
 20
4.0476255423
 30
0.0
 10
6.5093115367
 20
4.0221058005
 30
0.0
 10
6.4904715917
 20
3.9987902078
 30
0.0
 10
6.4656178549
 20
3.9781268465
 30
0.0
 10
6.4355649523
 20
3.9604434875
 30
0.0
 10
6.4016990657
 20
3.9463117903
 30
0.0
 10
6.3658876155
 20
3.9361500328
 30
0.0
 10
6.3414408559
 20
3.9319548294
 30
0.0
 10
6.3293524805
 20
3.9305089374
 30
0.0
 11
6.5239697963
 21
4.0746143834
 31
0.0
 11
6.5200919817
 21
4.0483813095
 31
0.0
 11
6.508652544
 21
4.0232453127
 31
0.0
 11
6.4904017774
 21
4.0001740974
 31
0.0
 11
6.4658353725
 21
3.9793898446
 31
0.0
 11
6.4358967636
 21
3.9615290861
 31
0.0
 11
6.4016301854
 21
3.9470750606
 31
0.0
 11
6.3653467708
 21
3.9367045701
 31
0.0
 11
6.3293524805
 21
3.9305089374
 31
0.0
  0
SPLINE
  5
3F2
100
AcDbEntity
  8
0
100
AcDbSpline
 62
7
  6
CONTINUOUS
 70
0
 71
3
 72
13
 73
9
 74
7
 42
0.0000001
 43
0.0000001
 44
0.0000000001
 12
0.0
 22
-0.1487278675
 32
0.0
 13
-0.1331203663
 23
-0.0665666398
 33
0.0
 40
0.0
 40
0.0
 40
0.0
 40
0.0
 40
0.1645821562
 40
0.3441546256
 40
0.5391609183
 40
0.7550638972
 40
0.9893841639
 40
1.0
 40
1.0
 40
1.0
 40
1.0
 10
6.5239697963
 20
4.6672520576
 30
0.0
 10
6.5239697963
 20
4.6590927399
 30
0.0
 10
6.5209858739
 20
4.6419410442
 30
0.0
 10
6.5086617556
 20
4.6178805723
 30
0.0
 10
6.4895207049
 20
4.5954627221
 30
0.0
 10
6.464561679
 20
4.5752284276
 30
0.0
 10
6.4448089953
 20
4.5636058903
 30
0.0
 10
6.4339554886
 20
4.5581402936
 30
0.0
 10
6.4334844273
 20
4.55790474
 30
0.0
 11
6.5239697963
 21
4.6672520576
 31
0.0
 11
6.5199991797
 21
4.643098292
 31
0.0
 11
6.5081917213
 21
4.6191426921
 31
0.0
 11
6.4896181692
 21
4.5968673776
 31
0.0
 11
6.4648413219
 21
4.5764416427
 31
0.0
 11
6.4348956309
 21
4.5586154022
 31
0.0
 11
6.4334844273
 21
4.55790474
 31
0.0
  0
SPLINE
  5
3F3
100
AcDbEntity
  8
0
100
AcDbSpline
 62
7
  6
CONTINUOUS
 70
0
 71
3
 72
15
 73
11
 74
9
 42
0.0000001
 43
0.0000001
 44
0.0000000001
 12
0.2486938165
 22
-0.0249248793
 32
0.0
 13
0.0
 23
-0.2499397207
 33
0.0
 40
0.0
 40
0.0
 40
0.0
 40
0.0
 40
0.1426603854
 40
0.2873028439
 40
0.4287183732
 40
0.5617864569
 40
0.6850276668
 40
0.7971040019
 40
0.9019116328
 40
1.0
 40
1.0
 40
1.0
 40
1.0
 10
6.3293524805
 20
4.7923847405
 30
0.0
 10
6.3411787324
 20
4.7911994762
 30
0.0
 10
6.3649081413
 20
4.787810279
 30
0.0
 10
6.3997278866
 20
4.7796254776
 30
0.0
 10
6.4328071956
 20
4.7682230349
 30
0.0
 10
6.4626980065
 20
4.7536981598
 30
0.0
 10
6.4881020688
 20
4.7362136246
 30
0.0
 10
6.5080213878
 20
4.7157230289
 30
0.0
 10
6.5209807006
 20
4.692458495
 30
0.0
 10
6.5239697963
 20
4.6754241173
 30
0.0
 10
6.5239697963
 20
4.6672520576
 30
0.0
 11
6.3293524805
 21
4.7923847405
 31
0.0
 11
6.3646469975
 21
4.7873169165
 31
0.0
 11
6.3998222146
 21
4.7789704402
 31
0.0
 11
6.4331913397
 21
4.7673172942
 31
0.0
 11
6.4630086289
 21
4.752583309
 31
0.0
 11
6.4882010124
 21
4.7348587261
 31
0.0
 11
6.507438154
 21
4.7144964351
 31
0.0
 11
6.5198272266
 21
4.6914157112
 31
0.0
 11
6.5239697963
 21
4.6672520576
 31
0.0
  0
SPLINE
  5
3F4
100
AcDbEntity
  8
0
100
AcDbSpline
 62
7
  6
CONTINUOUS
 70
0
 71
3
 72
9
 73
5
 74
3
 42
0.0000001
 43
0.0000001
 44
0.0000000001
 12
0.0039683344
 22
0.0038276488
 32
0.0
 13
0.0062040172
 23
-0.0010387755
 33
0.0
 40
0.0
 40
0.0
 40
0.0
 40
0.0
 40
0.0413125678
 40
1.0
 40
1.0
 40
1.0
 40
1.0
 10
6.2077368789
 20
5.1556757651
 30
0.0
 10
6.2077915263
 20
5.1557284751
 30
0.0
 10
6.2091525271
 20
5.1569566145
 30
0.0
 10
6.2114593448
 20
5.1569599001
 30
0.0
 10
6.2134419159
 20
5.1566279464
 30
0.0
 11
6.2077368789
 21
5.1556757651
 31
0.0
 11
6.2079055934
 21
5.1558278598
 31
0.0
 11
6.2134419159
 21
5.1566279464
 31
0.0
  0
SPLINE
  5
3F5
100
AcDbEntity
  8
0
100
AcDbSpline
 62
7
  6
CONTINUOUS
 70
0
 71
3
 72
14
 73
10
 74
8
 42
0.0000001
 43
0.0000001
 44
0.0000000001
 12
0.1638556497
 22
-0.0274353264
 32
0.0
 13
0.1088394996
 23
-0.1090999442
 33
0.0
 40
0.0
 40
0.0
 40
0.0
 40
0.0
 40
0.0641320019
 40
0.160791723
 40
0.2885350406
 40
0.4430758685
 40
0.6200116116
 40
0.8091016522
 40
1.0
 40
1.0
 40
1.0
 40
1.0
 10
6.2134419159
 20
5.1566279464
 30
0.0
 10
6.2169447129
 20
5.1560414523
 30
0.0
 10
6.2239351033
 20
5.1519483448
 30
0.0
 10
6.23627131
 20
5.1435226018
 30
0.0
 10
6.2511519187
 20
5.1310022583
 30
0.0
 10
6.2686992582
 20
5.1152186967
 30
0.0
 10
6.2880990757
 20
5.0968155462
 30
0.0
 10
6.3085834759
 20
5.0768428497
 30
0.0
 10
6.3224267203
 20
5.0630811784
 30
0.0
 10
6.3293524805
 20
5.0561388454
 30
0.0
 11
6.2134419159
 21
5.1566279464
 31
0.0
 11
6.2225025448
 21
5.1526805536
 31
0.0
 11
6.2347972023
 21
5.1442704898
 31
0.0
 11
6.2500384881
 21
5.1318107497
 31
0.0
 11
6.2677754736
 21
5.1159176817
 31
0.0
 11
6.2876046065
 21
5.097201576
 31
0.0
 11
6.3084839734
 21
5.0768744354
 31
0.0
 11
6.3293524805
 21
5.0561388454
 31
0.0
  0
SPLINE
  5
3F6
100
AcDbEntity
  8
0
100
AcDbSpline
 62
7
  6
CONTINUOUS
 70
0
 71
3
 72
10
 73
6
 74
4
 42
0.0000001
 43
0.0000001
 44
0.0000000001
 12
-0.0536790276
 22
-0.0271370469
 32
0.0
 13
-0.0585596299
 23
0.0150481495
 33
0.0
 40
0.0
 40
0.0
 40
0.0
 40
0.0
 40
0.4009503472
 40
0.7832262997
 40
1.0
 40
1.0
 40
1.0
 40
1.0
 10
6.3293524805
 20
3.9305089374
 30
0.0
 10
6.3221782723
 20
3.926882068
 30
0.0
 10
6.3073893736
 20
3.9211524955
 30
0.0
 10
6.2871754674
 20
3.9189357757
 30
0.0
 10
6.2751779218
 20
3.920785368
 30
0.0
 10
6.2709465259
 20
3.9218727157
 30
0.0
 11
6.3293524805
 21
3.9305089374
 31
0.0
 11
6.3067633879
 21
3.9220624051
 31
0.0
 11
6.2838754612
 21
3.91986285
 31
0.0
 11
6.2709465259
 21
3.9218727157
 31
0.0
  0
SPLINE
  5
3F7
100
AcDbEntity
  8
0
100
AcDbSpline
 62
7
  6
CONTINUOUS
 70
0
 71
3
 72
12
 73
8
 74
6
 42
0.0000001
 43
0.0000001
 44
0.0000000001
 12
-0.0115456819
 22
0.0425522387
 32
0.0
 13
-0.0198952976
 23
0.0393473409
 33
0.0
 40
0.0
 40
0.0
 40
0.0
 40
0.0
 40
0.1834676009
 40
0.387321312
 40
0.6036520745
 40
0.8210133098
 40
1.0
 40
1.0
 40
1.0
 40
1.0
 10
6.2717293556
 20
4.1454303469
 30
0.0
 10
6.2710232694
 20
4.1480326659
 30
0.0
 10
6.2689553696
 20
4.1533582625
 30
0.0
 10
6.2652934505
 20
4.1614334379
 30
0.0
 10
6.2612425777
 20
4.1698848781
 30
0.0
 10
6.2572688062
 20
4.1779646704
 30
0.0
 10
6.2546591797
 20
4.1831726209
 30
0.0
 10
6.2534721818
 20
4.185520171
 30
0.0
 11
6.2717293556
 21
4.1454303469
 31
0.0
 11
6.2690010045
 21
4.153045575
 31
0.0
 11
6.265340698
 21
4.1612545638
 31
0.0
 11
6.2612348766
 21
4.1698638197
 31
0.0
 11
6.2570081971
 21
4.178465042
 31
0.0
 11
6.2534721818
 21
4.185520171
 31
0.0
  0
SPLINE
  5
3F8
100
AcDbEntity
  8
0
100
AcDbSpline
 62
7
  6
CONTINUOUS
 70
0
 71
3
 72
9
 73
5
 74
3
 42
0.0000001
 43
0.0000001
 44
0.0000000001
 12
0.0
 22
0.0058274052
 32
0.0
 13
-0.0015259741
 23
0.0056240604
 33
0.0
 40
0.0
 40
0.0
 40
0.0
 40
0.0
 40
0.493451156
 40
1.0
 40
1.0
 40
1.0
 40
1.0
 10
6.2725810083
 20
4.1396785894
 30
0.0
 10
6.2725810083
 20
4.1406371027
 30
0.0
 10
6.2724136848
 20
4.1425815392
 30
0.0
 10
6.2719870157
 20
4.1444807265
 30
0.0
 10
6.2717293556
 20
4.1454303469
 30
0.0
 11
6.2725810083
 21
4.1396785894
 31
0.0
 11
6.2723527273
 21
4.1425450536
 31
0.0
 11
6.2717293556
 21
4.1454303469
 31
0.0
  0
SPLINE
  5
3F9
100
AcDbEntity
  8
0
100
AcDbSpline
 62
7
  6
CONTINUOUS
 70
0
 71
3
 72
9
 73
5
 74
3
 42
0.0000001
 43
0.0000001
 44
0.0000000001
 12
0.0015676858
 22
0.005242093
 32
0.0
 13
0.0
 23
0.0054714877
 33
0.0
 40
0.0
 40
0.0
 40
0.0
 40
0.0
 40
0.4935347042
 40
1.0
 40
1.0
 40
1.0
 40
1.0
 10
6.2717293556
 20
4.1342896224
 30
0.0
 10
6.2719872581
 20
4.1351520073
 30
0.0
 10
6.2724311557
 20
4.1369267408
 30
0.0
 10
6.2725810083
 20
4.1387548832
 30
0.0
 10
6.2725810083
 20
4.1396785894
 30
0.0
 11
6.2717293556
 21
4.1342896224
 31
0.0
 11
6.2723537934
 21
4.1369168016
 31
0.0
 11
6.2725810083
 21
4.1396785894
 31
0.0
  0
SPLINE
  5
3FA
100
AcDbEntity
  8
0
100
AcDbSpline
 62
7
  6
CONTINUOUS
 70
0
 71
3
 72
10
 73
6
 74
4
 42
0.0000001
 43
0.0000001
 44
0.0000000001
 12
0.0285058328
 22
-0.0246026388
 32
0.0
 13
0.0
 23
-0.0376079853
 33
0.0
 40
0.0
 40
0.0
 40
0.0
 40
0.0
 40
0.2947762237
 40
0.6779624119
 40
1.0
 40
1.0
 40
1.0
 40
1.0
 10
6.5052539562
 20
3.6319040915
 30
0.0
 10
6.5080549034
 20
3.6294866672
 30
0.0
 10
6.5141844283
 20
3.6235671095
 30
0.0
 10
6.5216184577
 20
3.6132853456
 30
0.0
 10
6.5239697963
 20
3.6044232789
 30
0.0
 10
6.5239697963
 20
3.6003862172
 30
0.0
 11
6.5052539562
 21
3.6319040915
 31
0.0
 11
6.5131791304
 21
3.6241403443
 31
0.0
 11
6.5212194246
 21
3.6121809726
 31
0.0
 11
6.5239697963
 21
3.6003862172
 31
0.0
  0
SPLINE
  5
3FB
100
AcDbEntity
  8
0
100
AcDbSpline
 62
7
  6
CONTINUOUS
 70
0
 71
3
 72
15
 73
11
 74
9
 42
0.0000001
 43
0.0000001
 44
0.0000000001
 12
-0.1001059022
 22
-0.0970562918
 32
0.0
 13
-0.1056728404
 23
0.0906936002
 33
0.0
 40
0.0
 40
0.0
 40
0.0
 40
0.0
 40
0.2031524849
 40
0.3985872386
 40
0.5744971162
 40
0.7220226825
 40
0.839374412
 40
0.9280510236
 40
0.9982199772
 40
1.0
 40
1.0
 40
1.0
 40
1.0
 10
6.3293524805
 20
3.5369077138
 30
0.0
 10
6.3225735596
 20
3.5303353049
 30
0.0
 10
6.3089936486
 20
3.5177245336
 30
0.0
 10
6.2885373183
 20
3.5005405301
 30
0.0
 10
6.2690921192
 20
3.486247359
 30
0.0
 10
6.2515027916
 20
3.4756360283
 30
0.0
 10
6.2363005887
 20
3.4692592217
 30
0.0
 10
6.2233676835
 20
3.467124406
 30
0.0
 10
6.2158720959
 20
3.4698360974
 30
0.0
 10
6.2133179748
 20
3.47198849
 30
0.0
 10
6.2132552748
 20
3.4720423023
 30
0.0
 11
6.3293524805
 21
3.5369077138
 31
0.0
 11
6.3085715323
 21
3.5176592036
 31
0.0
 11
6.2876498864
 21
3.5001997323
 31
0.0
 11
6.2677960615
 21
3.4857977514
 31
0.0
 11
6.2500445116
 21
3.4754056927
 31
0.0
 11
6.234811828
 21
3.4694309726
 31
0.0
 11
6.2225089811
 21
3.468199724
 31
0.0
 11
6.2134448448
 21
3.4718825633
 31
0.0
 11
6.2132552748
 21
3.4720423023
 31
0.0
  0
ENDSEC
  0
SECTION
  2
OBJECTS
  0
DICTIONARY
  5
C
100
AcDbDictionary
280
0
281
1
  3
ACAD_GROUP
350
D
  3
ACAD_MLINESTYLE
350
17
  3
ACAD_LAYOUT
350
1A
  3
ACAD_PLOTSETTINGS
350
19
  3
ACAD_PLOTSTYLENAME
350
E
  0
DICTIONARY
  5
D
102
{ACAD_REACTORS
330
C
102
}
100
AcDbDictionary
280
0
281
1
  0
ACDBDICTIONARYWDFLT
  5
E
102
{ACAD_REACTORS
330
C
102
}
100
AcDbDictionary
281
1
  3
Normal
350
F
100
AcDbDictionaryWithDefault
340
F
  0
DICTIONARY
  5
17
102
{ACAD_REACTORS
330
C
102
}
100
AcDbDictionary
280
0
281
1
  3
Standard
350
18
  0
DICTIONARY
  5
19
102
{ACAD_REACTORS
330
C
102
}
100
AcDbDictionary
281
1
  0
DICTIONARY
  5
1A
102
{ACAD_REACTORS
330
C
102
}
100
AcDbDictionary
281
1
  3
Layout1
350
1E
  3
Model
350
22
  0
ACDBPLACEHOLDER
  5
F
102
{ACAD_REACTORS
330
E
102
}
  0
MLINESTYLE
  5
18
102
{ACAD_REACTORS
330
17
102
}
100
AcDbMlineStyle
  2
STANDARD
 70
0
  3

 62
256
 51
90.0
 52
90.0
 71
2
 49
0.5
 62
256
  6
BYLAYER
 49
-0.5
 62
256
  6
BYLAYER
  0
LAYOUT
  5
1E
102
{ACAD_REACTORS
330
1A
102
}
100
AcDbPlotSettings
  1

  2

  4

  6

 40
0.0
 41
0.0
 42
0.0
 43
0.0
 44
0.0
 45
0.0
 46
0.0
 47
0.0
 48
0.0
 49
0.0
140
0.0
141
0.0
142
1.0
143
1.0
 70
0
 72
0
 73
0
 74
0
  7

 75
0
147
1.0
148
0.0
149
0.0
100
AcDbLayout
  1
Layout1
 70
0
 71
0
 10
0.0
 20
0.0
 11
0.0
 21
0.0
 12
0.0
 22
0.0
 32
0.0
 14
0.0
 24
0.0
 34
0.0
 15
0.0
 25
0.0
 35
0.0
146
0.0
 13
0.0
 23
0.0
 33
0.0
 16
0.0
 26
0.0
 36
0.0
 17
0.0
 27
0.0
 37
0.0
 76
0
330
1B
331
0
345
0
346
0
  0
LAYOUT
  5
22
102
{ACAD_REACTORS
330
1A
102
}
100
AcDbPlotSettings
  1

  2

  4

  6

 40
0.0
 41
0.0
 42
0.0
 43
0.0
 44
0.0
 45
0.0
 46
0.0
 47
0.0
 48
0.0
 49
0.0
140
0.0
141
0.0
142
1.0
143
1.0
 70
0
 72
0
 73
0
 74
0
  7

 75
0
147
1.0
148
0.0
149
0.0
100
AcDbLayout
  1
Model
 70
0
 71
0
 10
0.0
 20
0.0
 11
0.0
 21
0.0
 12
0.0
 22
0.0
 32
0.0
 14
0.0
 24
0.0
 34
0.0
 15
0.0
 25
0.0
 35
0.0
146
0.0
 13
0.0
 23
0.0
 33
0.0
 16
0.0
 26
0.0
 36
0.0
 17
0.0
 27
0.0
 37
0.0
 76
0
330
1F
331
0
345
0
346
0
  0
ENDSEC
  0
EOF
