999
DXF file: NFEC-LEN.dxf
999
Pro/ENGINEER 2006240 by Parametric Technology Corporation
  0
SECTION
  2
HEADER
  9
$ACADVER
  1
AC1015
  9
$DWGCODEPAGE
  3
ANSI_1252
  9
$EXTMAX
 10
11.6929133858
 20
8.2677165354
 30
0.0
  9
$EXTMIN
 10
0.0
 20
0.0
 30
0.0
  9
$LIMMIN
 10
0.0
 20
0.0
  9
$LIMMAX
 10
11.6929133858
 20
8.2677165354
  9
$VIEWCTR
 10
5.8464566929
 20
4.1338582677
  9
$VIEWSIZE
 40
8.2677165354
  9
$CLAYER
  8
0
  9
$LTSCALE
 40
0.6431102362
  9
$CELTYPE
  6
BYLAYER
  9
$DIMSCALE
 40
1.0
  9
$DIMASZ
 40
0.1875
  9
$DIMEXO
 40
0.0730807087
  9
$DIMDLI
 40
0.4443307087
  9
$DIMEXE
 40
0.2104724409
  9
$DIMCEN
 40
0.1052362205
  9
$DIMLFAC
 40
1.0
  9
$DIMBLK
  1
_CLOSED
  9
$DIMTXT
 40
0.15625
  9
$DIMTOL
 70
0
  9
$DIMLIM
 70
0
  9
$DIMTFAC
 40
1.0
  9
$PDMODE
 70
3
  9
$PDSIZE
 40
0.3125
  9
$HANDSEED
  5
400
  9
$MEASUREMENT
 70
0
  9
$INSUNITS
 70
1
  0
ENDSEC
  0
SECTION
  2
CLASSES
  0
CLASS
  1
ACDBDICTIONARYWDFLT
  2
AcDbDictionaryWithDefault
  3
AutoCAD 2000
 90
0
280
0
281
0
  0
CLASS
  1
ACDBPLACEHOLDER
  2
AcDbPlaceHolder
  3
AutoCAD 2000
 90
0
280
0
281
0
  0
CLASS
  1
LAYOUT
  2
AcDbLayout
  3
AutoCAD 2000
 90
0
280
0
281
0
  0
ENDSEC
  0
SECTION
  2
TABLES
  0
TABLE
  2
VPORT
  5
8
100
AcDbSymbolTable
 70
2
  0
VPORT
  5
1F4
100
AcDbSymbolTableRecord
100
AcDbViewportTableRecord
  2
*ACTIVE
 70
0
 10
0.0
 20
0.0
 11
1.0
 21
1.0
 12
5.8464566929
 22
4.1338582677
 13
0.0
 23
0.0
 14
1.0
 24
1.0
 15
0.0
 25
0.0
 16
0.0
 26
0.0
 36
1.0
 17
0.0
 27
0.0
 37
0.0
 40
8.2677165354
 41
1.4142857143
 42
50.0
 43
0.0
 44
0.0
 50
0.0
 51
0.0
 71
0
 72
100
 73
1
 74
1
 75
0
 76
0
 77
0
 78
0
  0
ENDTAB
  0
TABLE
  2
LTYPE
  5
5
100
AcDbSymbolTable
 70
6
  0
LTYPE
  5
14
100
AcDbSymbolTableRecord
100
AcDbLinetypeTableRecord
  2
BYBLOCK
 70
0
  3

 72
65
 73
0
 40
0.0
  0
LTYPE
  5
15
100
AcDbSymbolTableRecord
100
AcDbLinetypeTableRecord
  2
BYLAYER
 70
0
  3

 72
65
 73
0
 40
0.0
  0
LTYPE
  5
16
100
AcDbSymbolTableRecord
100
AcDbLinetypeTableRecord
  2
CONTINUOUS
 70
64
  3
Solid line
 72
65
 73
0
 40
0.0
  0
LTYPE
  5
1F5
100
AcDbSymbolTableRecord
100
AcDbLinetypeTableRecord
  2
CENTER
 70
64
  3
____ _ ____ _ ____ _ ____ _ ____ _ ____ _ ____
 72
65
 73
4
 40
0.6
 49
0.375
 74
0
 49
-0.075
 74
0
 49
0.075
 74
0
 49
-0.075
 74
0
  0
LTYPE
  5
1F6
100
AcDbSymbolTableRecord
100
AcDbLinetypeTableRecord
  2
HIDDEN
 70
64
  3
- - - - - - - - - - - - - - - - - - - -
 72
65
 73
2
 40
0.2
 49
0.1
 74
0
 49
-0.1
 74
0
  0
LTYPE
  5
1F7
100
AcDbSymbolTableRecord
100
AcDbLinetypeTableRecord
  2
PHANTOM
 70
64
  3
_____ _ _ _____ _ _ _____ _ _ _____
 72
65
 73
6
 40
0.8
 49
0.45
 74
0
 49
-0.05
 74
0
 49
0.1
 74
0
 49
-0.05
 74
0
 49
0.1
 74
0
 49
-0.05
 74
0
  0
LTYPE
  5
1F8
100
AcDbSymbolTableRecord
100
AcDbLinetypeTableRecord
  2
DOT
 70
64
  3
. . . . . . . . . . . . . . . . . . . .
 72
65
 73
2
 40
0.2
 49
0.1
 74
0
 49
-0.1
 74
0
  0
LTYPE
  5
1F9
100
AcDbSymbolTableRecord
100
AcDbLinetypeTableRecord
  2
DASHED
 70
64
  3
- - - - - - - - - - - - - - - - - - - -
 72
65
 73
2
 40
0.2
 49
0.1
 74
0
 49
-0.1
 74
0
  0
ENDTAB
  0
TABLE
  2
LAYER
  5
2
100
AcDbSymbolTable
 70
36
  0
LAYER
  5
10
100
AcDbSymbolTableRecord
100
AcDbLayerTableRecord
  2
0
 70
0
 62
7
  6
CONTINUOUS
370
-3
390
F
  0
LAYER
  5
1FA
100
AcDbSymbolTableRecord
100
AcDbLayerTableRecord
  2
DEFAULT_1
 70
0
 62
7
  6
CENTER
370
-3
390
F
  0
LAYER
  5
1FB
100
AcDbSymbolTableRecord
100
AcDbLayerTableRecord
  2
DEFAULT_2
 70
0
 62
8
  6
HIDDEN
370
-3
390
F
  0
LAYER
  5
1FC
100
AcDbSymbolTableRecord
100
AcDbLayerTableRecord
  2
DEFAULT_3
 70
0
 62
7
  6
PHANTOM
370
-3
390
F
  0
LAYER
  5
1FD
100
AcDbSymbolTableRecord
100
AcDbLayerTableRecord
  2
01_ALL_DTM_PLN
 70
0
 62
7
  6
CONTINUOUS
370
-3
390
F
  0
LAYER
  5
1FE
100
AcDbSymbolTableRecord
100
AcDbLayerTableRecord
  2
01__ASM_ALL_DTM_PLN
 70
0
 62
7
  6
CONTINUOUS
370
-3
390
F
  0
LAYER
  5
1FF
100
AcDbSymbolTableRecord
100
AcDbLayerTableRecord
  2
01__ASM_DEF_DTM_PLN
 70
0
 62
7
  6
CONTINUOUS
370
-3
390
F
  0
LAYER
  5
200
100
AcDbSymbolTableRecord
100
AcDbLayerTableRecord
  2
01___PRT_ALL_DTM_PLN
 70
0
 62
7
  6
CONTINUOUS
370
-3
390
F
  0
LAYER
  5
201
100
AcDbSymbolTableRecord
100
AcDbLayerTableRecord
  2
01___PRT_DEF_DTM_PLN
 70
0
 62
7
  6
CONTINUOUS
370
-3
390
F
  0
LAYER
  5
202
100
AcDbSymbolTableRecord
100
AcDbLayerTableRecord
  2
02_ALL_AXES
 70
0
 62
7
  6
CONTINUOUS
370
-3
390
F
  0
LAYER
  5
203
100
AcDbSymbolTableRecord
100
AcDbLayerTableRecord
  2
02__ASM_ALL_AXES
 70
0
 62
7
  6
CONTINUOUS
370
-3
390
F
  0
LAYER
  5
204
100
AcDbSymbolTableRecord
100
AcDbLayerTableRecord
  2
02___PRT_ALL_AXES
 70
0
 62
7
  6
CONTINUOUS
370
-3
390
F
  0
LAYER
  5
205
100
AcDbSymbolTableRecord
100
AcDbLayerTableRecord
  2
03_ALL_CURVES
 70
0
 62
7
  6
CONTINUOUS
370
-3
390
F
  0
LAYER
  5
206
100
AcDbSymbolTableRecord
100
AcDbLayerTableRecord
  2
03__ASM_ALL_CURVES
 70
0
 62
7
  6
CONTINUOUS
370
-3
390
F
  0
LAYER
  5
207
100
AcDbSymbolTableRecord
100
AcDbLayerTableRecord
  2
03___PRT_ALL_CURVES
 70
0
 62
7
  6
CONTINUOUS
370
-3
390
F
  0
LAYER
  5
208
100
AcDbSymbolTableRecord
100
AcDbLayerTableRecord
  2
04_ALL_DTM_PNT
 70
0
 62
7
  6
CONTINUOUS
370
-3
390
F
  0
LAYER
  5
209
100
AcDbSymbolTableRecord
100
AcDbLayerTableRecord
  2
04__ASM_ALL_DTM_PNT
 70
0
 62
7
  6
CONTINUOUS
370
-3
390
F
  0
LAYER
  5
20A
100
AcDbSymbolTableRecord
100
AcDbLayerTableRecord
  2
04___PRT_ALL_DTM_PNT
 70
0
 62
7
  6
CONTINUOUS
370
-3
390
F
  0
LAYER
  5
20B
100
AcDbSymbolTableRecord
100
AcDbLayerTableRecord
  2
05_ALL_DTM_CSYS
 70
0
 62
7
  6
CONTINUOUS
370
-3
390
F
  0
LAYER
  5
20C
100
AcDbSymbolTableRecord
100
AcDbLayerTableRecord
  2
05__ASM_ALL_DTM_CSYS
 70
0
 62
7
  6
CONTINUOUS
370
-3
390
F
  0
LAYER
  5
20D
100
AcDbSymbolTableRecord
100
AcDbLayerTableRecord
  2
05__ASM_DEF_DTM_CSYS
 70
0
 62
7
  6
CONTINUOUS
370
-3
390
F
  0
LAYER
  5
20E
100
AcDbSymbolTableRecord
100
AcDbLayerTableRecord
  2
05___PRT_ALL_DTM_CSYS
 70
0
 62
7
  6
CONTINUOUS
370
-3
390
F
  0
LAYER
  5
20F
100
AcDbSymbolTableRecord
100
AcDbLayerTableRecord
  2
05___PRT_DEF_DTM_CSYS
 70
0
 62
7
  6
CONTINUOUS
370
-3
390
F
  0
LAYER
  5
210
100
AcDbSymbolTableRecord
100
AcDbLayerTableRecord
  2
06_ALL_SURFS
 70
0
 62
7
  6
CONTINUOUS
370
-3
390
F
  0
LAYER
  5
211
100
AcDbSymbolTableRecord
100
AcDbLayerTableRecord
  2
06__ASM_ALL_SURFS
 70
0
 62
7
  6
CONTINUOUS
370
-3
390
F
  0
LAYER
  5
212
100
AcDbSymbolTableRecord
100
AcDbLayerTableRecord
  2
06___PRT_ALL_SURFS
 70
0
 62
7
  6
CONTINUOUS
370
-3
390
F
  0
LAYER
  5
213
100
AcDbSymbolTableRecord
100
AcDbLayerTableRecord
  2
07__ASM_ALL_SKELETONS
 70
0
 62
7
  6
CONTINUOUS
370
-3
390
F
  0
LAYER
  5
214
100
AcDbSymbolTableRecord
100
AcDbLayerTableRecord
  2
CONCENTRIC_HOLE_FEATURES
 70
0
 62
7
  6
CONTINUOUS
370
-3
390
F
  0
LAYER
  5
215
100
AcDbSymbolTableRecord
100
AcDbLayerTableRecord
  2
COPY_GEO_FET
 70
0
 62
7
  6
CONTINUOUS
370
-3
390
F
  0
LAYER
  5
216
100
AcDbSymbolTableRecord
100
AcDbLayerTableRecord
  2
COSMETIC
 70
0
 62
7
  6
CONTINUOUS
370
-3
390
F
  0
LAYER
  5
217
100
AcDbSymbolTableRecord
100
AcDbLayerTableRecord
  2
CURVES
 70
0
 62
7
  6
CONTINUOUS
370
-3
390
F
  0
LAYER
  5
218
100
AcDbSymbolTableRecord
100
AcDbLayerTableRecord
  2
CUT_REF_SURF
 70
0
 62
7
  6
CONTINUOUS
370
-3
390
F
  0
LAYER
  5
219
100
AcDbSymbolTableRecord
100
AcDbLayerTableRecord
  2
DATUM
 70
0
 62
7
  6
CONTINUOUS
370
-3
390
F
  0
LAYER
  5
21A
100
AcDbSymbolTableRecord
100
AcDbLayerTableRecord
  2
DATUMCURVES
 70
0
 62
7
  6
CONTINUOUS
370
-3
390
F
  0
LAYER
  5
21B
100
AcDbSymbolTableRecord
100
AcDbLayerTableRecord
  2
DIMENSIONS
 70
0
 62
7
  6
CONTINUOUS
370
-3
390
F
  0
LAYER
  5
21C
100
AcDbSymbolTableRecord
100
AcDbLayerTableRecord
  2
DMT
 70
0
 62
7
  6
CONTINUOUS
370
-3
390
F
  0
LAYER
  5
21D
100
AcDbSymbolTableRecord
100
AcDbLayerTableRecord
  2
DP_SERRATIONS
 70
0
 62
7
  6
CONTINUOUS
370
-3
390
F
  0
LAYER
  5
21E
100
AcDbSymbolTableRecord
100
AcDbLayerTableRecord
  2
DRAWINGNOTES
 70
0
 62
7
  6
CONTINUOUS
370
-3
390
F
  0
LAYER
  5
21F
100
AcDbSymbolTableRecord
100
AcDbLayerTableRecord
  2
DTM
 70
0
 62
7
  6
CONTINUOUS
370
-3
390
F
  0
LAYER
  5
220
100
AcDbSymbolTableRecord
100
AcDbLayerTableRecord
  2
DTM230
 70
0
 62
7
  6
CONTINUOUS
370
-3
390
F
  0
LAYER
  5
221
100
AcDbSymbolTableRecord
100
AcDbLayerTableRecord
  2
DTM_500001
 70
0
 62
7
  6
CONTINUOUS
370
-3
390
F
  0
LAYER
  5
222
100
AcDbSymbolTableRecord
100
AcDbLayerTableRecord
  2
DTM_500002
 70
0
 62
7
  6
CONTINUOUS
370
-3
390
F
  0
LAYER
  5
223
100
AcDbSymbolTableRecord
100
AcDbLayerTableRecord
  2
DTM_515002
 70
0
 62
7
  6
CONTINUOUS
370
-3
390
F
  0
LAYER
  5
224
100
AcDbSymbolTableRecord
100
AcDbLayerTableRecord
  2
DTM_530-102
 70
0
 62
7
  6
CONTINUOUS
370
-3
390
F
  0
LAYER
  5
225
100
AcDbSymbolTableRecord
100
AcDbLayerTableRecord
  2
DTM_WIRE
 70
0
 62
7
  6
CONTINUOUS
370
-3
390
F
  0
LAYER
  5
226
100
AcDbSymbolTableRecord
100
AcDbLayerTableRecord
  2
GEOMETRICTOLERANCES
 70
0
 62
7
  6
CONTINUOUS
370
-3
390
F
  0
LAYER
  5
227
100
AcDbSymbolTableRecord
100
AcDbLayerTableRecord
  2
LAY0001
 70
0
 62
7
  6
CONTINUOUS
370
-3
390
F
  0
LAYER
  5
228
100
AcDbSymbolTableRecord
100
AcDbLayerTableRecord
  2
PARAMETERDIMENSIONS
 70
0
 62
7
  6
CONTINUOUS
370
-3
390
F
  0
LAYER
  5
229
100
AcDbSymbolTableRecord
100
AcDbLayerTableRecord
  2
PART
 70
0
 62
7
  6
CONTINUOUS
370
-3
390
F
  0
LAYER
  5
22A
100
AcDbSymbolTableRecord
100
AcDbLayerTableRecord
  2
PLANE
 70
0
 62
7
  6
CONTINUOUS
370
-3
390
F
  0
LAYER
  5
22B
100
AcDbSymbolTableRecord
100
AcDbLayerTableRecord
  2
SEAT_FEATURES
 70
0
 62
7
  6
CONTINUOUS
370
-3
390
F
  0
LAYER
  5
22C
100
AcDbSymbolTableRecord
100
AcDbLayerTableRecord
  2
STOP_RING_FEATURES
 70
0
 62
7
  6
CONTINUOUS
370
-3
390
F
  0
LAYER
  5
22D
100
AcDbSymbolTableRecord
100
AcDbLayerTableRecord
  2
STOP_WIRE_FEATURES
 70
0
 62
7
  6
CONTINUOUS
370
-3
390
F
  0
LAYER
  5
22E
100
AcDbSymbolTableRecord
100
AcDbLayerTableRecord
  2
TEXT
 70
0
 62
7
  6
CONTINUOUS
370
-3
390
F
  0
LAYER
  5
22F
100
AcDbSymbolTableRecord
100
AcDbLayerTableRecord
  2
THREAD
 70
0
 62
7
  6
CONTINUOUS
370
-3
390
F
  0
ENDTAB
  0
TABLE
  2
STYLE
  5
3
100
AcDbSymbolTable
 70
1
  0
STYLE
  5
11
100
AcDbSymbolTableRecord
100
AcDbTextStyleTableRecord
  2
STANDARD
 70
0
 40
0.0
 41
0.8
 50
0.0
 71
0
 42
0.2
  3
txt
  4

  0
ENDTAB
  0
TABLE
  2
VIEW
  5
6
100
AcDbSymbolTable
 70
0
  0
ENDTAB
  0
TABLE
  2
UCS
  5
7
100
AcDbSymbolTable
 70
0
  0
ENDTAB
  0
TABLE
  2
APPID
  5
9
100
AcDbSymbolTable
 70
1
  0
APPID
  5
230
100
AcDbSymbolTableRecord
100
AcDbRegAppTableRecord
  2
ACAD
 70
0
  0
ENDTAB
  0
TABLE
  2
BLOCK_RECORD
  5
1
100
AcDbSymbolTable
 70
0
  0
BLOCK_RECORD
  5
1F
100
AcDbSymbolTableRecord
100
AcDbBlockTableRecord
  2
*MODEL_SPACE
  0
BLOCK_RECORD
  5
1B
100
AcDbSymbolTableRecord
100
AcDbBlockTableRecord
  2
*PAPER_SPACE
  0
ENDTAB
  0
TABLE
  2
DIMSTYLE
  5
A
100
AcDbSymbolTable
 70
1
100
AcDbDimStyleTable
 71
0
  0
DIMSTYLE
105
231
100
AcDbSymbolTableRecord
100
AcDbDimStyleTableRecord
  2
STANDARD
 70
0
  3

  4

 40
1.0
 41
0.1875
 42
0.0625
 43
0.38
 44
0.18
 45
0.0
 46
0.0
 47
0.01
 48
0.01
140
0.15625
141
0.09
142
0.0
143
25.4
144
1.0
145
0.0
146
1.0
147
0.09
 71
0.0
 72
0.0
 73
1
 74
1
 75
0
 76
0
 77
0
 78
4
170
0
171
2
172
0
173
0
174
0
175
0
176
0
177
0
178
0
270
2
271
2
272
2
273
2
274
2
275
0
280
0
281
0
282
0
283
1
284
4
285
0
286
0
287
3
288
0
340
11
  0
ENDTAB
  0
ENDSEC
  0
SECTION
  2
BLOCKS
  0
BLOCK
  5
20
100
AcDbEntity
  8
0
100
AcDbBlockBegin
  2
*MODEL_SPACE
 70
0
 10
0.0
 20
0.0
 30
0.0
  3
*MODEL_SPACE
  1

  0
ENDBLK
  5
21
100
AcDbEntity
  8
0
100
AcDbBlockEnd
  0
BLOCK
  5
1C
100
AcDbEntity
  8
0
100
AcDbBlockBegin
  2
*PAPER_SPACE
 70
0
 10
0.0
 20
0.0
 30
0.0
  3
*PAPER_SPACE
  1

  0
ENDBLK
  5
1D
100
AcDbEntity
  8
0
100
AcDbBlockEnd
  0
ENDSEC
  0
SECTION
  2
ENTITIES
  0
LINE
  5
232
100
AcDbEntity
  8
0
100
AcDbLine
 62
7
  6
CONTINUOUS
 10
2.9569716213
 20
4.0985267451
 11
2.9569716213
 21
4.4115267451
  0
LINE
  5
233
100
AcDbEntity
  8
03__ASM_ALL_CURVES
100
AcDbLine
 62
40
  6
CONTINUOUS
 10
2.9569716213
 20
4.4115267451
 11
2.9569716213
 21
5.3188737451
  0
LINE
  5
234
100
AcDbEntity
  8
0
100
AcDbLine
 62
7
  6
CONTINUOUS
 10
2.9879716213
 20
4.0675267451
 11
2.9879716213
 21
4.4425267451
  0
LINE
  5
235
100
AcDbEntity
  8
03__ASM_ALL_CURVES
100
AcDbLine
 62
40
  6
CONTINUOUS
 10
3.1078566213
 20
5.2937262451
 11
3.1078566213
 21
5.2434312451
  0
LINE
  5
236
100
AcDbEntity
  8
0
100
AcDbLine
 62
7
  6
CONTINUOUS
 10
3.2934716213
 20
4.00737556
 11
3.2934716213
 21
4.5026779302
  0
LINE
  5
237
100
AcDbEntity
  8
0
100
AcDbLine
 62
7
  6
CONTINUOUS
 10
3.3554716213
 20
3.9840267451
 11
3.3554716213
 21
4.5260267451
  0
LINE
  5
238
100
AcDbEntity
  8
0
100
AcDbLine
 62
7
  6
CONTINUOUS
 10
3.3614716213
 20
3.9840267451
 11
3.3614716213
 21
4.5260267451
  0
LINE
  5
239
100
AcDbEntity
  8
0
100
AcDbLine
 62
7
  6
CONTINUOUS
 10
3.3669716213
 20
3.9895267451
 11
3.3669716213
 21
4.5205267451
  0
LINE
  5
23A
100
AcDbEntity
  8
03__ASM_ALL_CURVES
100
AcDbLine
 62
40
  6
CONTINUOUS
 10
3.5918497463
 20
5.4236549926
 11
3.59970834
 21
5.4341331226
  0
LINE
  5
23B
100
AcDbEntity
  8
0
100
AcDbLine
 62
7
  6
CONTINUOUS
 10
3.3829716213
 20
3.9895267451
 11
3.3829716213
 21
4.5205267451
  0
LINE
  5
23C
100
AcDbEntity
  8
0
100
AcDbLine
 62
7
  6
CONTINUOUS
 10
3.5744716213
 20
3.9840267451
 11
3.5744716213
 21
4.5260267451
  0
LINE
  5
23D
100
AcDbEntity
  8
03__ASM_ALL_CURVES
100
AcDbLine
 62
40
  6
CONTINUOUS
 10
3.59970834
 20
5.3503081201
 11
3.5918497463
 21
5.3188737451
  0
LINE
  5
23E
100
AcDbEntity
  8
03__ASM_ALL_CURVES
100
AcDbLine
 62
40
  6
CONTINUOUS
 10
3.6154255275
 20
5.3712643688
 11
3.59970834
 21
5.3503081201
  0
LINE
  5
23F
100
AcDbEntity
  8
03__ASM_ALL_CURVES
100
AcDbLine
 62
40
  6
CONTINUOUS
 10
3.6547184963
 20
5.4026987476
 11
3.6468599025
 21
5.3922206176
  0
LINE
  5
240
100
AcDbEntity
  8
0
100
AcDbLine
 62
7
  6
CONTINUOUS
 10
3.6054716213
 20
3.7230360437
 11
3.6054716213
 21
4.7870174465
  0
LINE
  5
241
100
AcDbEntity
  8
03__ASM_ALL_CURVES
100
AcDbLine
 62
40
  6
CONTINUOUS
 10
3.6547184963
 20
5.4236549926
 11
3.6547184963
 21
5.4026987476
  0
LINE
  5
242
100
AcDbEntity
  8
0
100
AcDbLine
 62
7
  6
CONTINUOUS
 10
3.6674716213
 20
3.6610267451
 11
3.6674716213
 21
4.8490267451
  0
LINE
  5
243
100
AcDbEntity
  8
03__ASM_ALL_CURVES
100
AcDbLine
 62
40
  6
CONTINUOUS
 10
3.7411630275
 20
5.3188737451
 11
3.7411630275
 21
5.3293518704
  0
LINE
  5
244
100
AcDbEntity
  8
03__ASM_ALL_CURVES
100
AcDbLine
 62
40
  6
CONTINUOUS
 10
3.8590419338
 20
5.4446112451
 11
3.85118334
 21
5.3922206176
  0
LINE
  5
245
100
AcDbEntity
  8
03__ASM_ALL_CURVES
100
AcDbLine
 62
40
  6
CONTINUOUS
 10
3.91405209
 20
5.3607862463
 11
3.9061934963
 21
5.3398299957
  0
LINE
  5
246
100
AcDbEntity
  8
03__ASM_ALL_CURVES
100
AcDbLine
 62
40
  6
CONTINUOUS
 10
3.9690622463
 20
5.4026987476
 11
3.97692084
 21
5.4236549926
  0
LINE
  5
247
100
AcDbEntity
  8
03__ASM_ALL_CURVES
100
AcDbLine
 62
40
  6
CONTINUOUS
 10
4.0319309963
 20
5.4026987476
 11
4.0240724025
 21
5.3817424951
  0
LINE
  5
248
100
AcDbEntity
  8
03__ASM_ALL_CURVES
100
AcDbLine
 62
40
  6
CONTINUOUS
 10
4.0319309963
 20
5.3607862463
 11
4.0240724025
 21
5.3398299957
  0
LINE
  5
249
100
AcDbEntity
  8
03__ASM_ALL_CURVES
100
AcDbLine
 62
40
  6
CONTINUOUS
 10
3.9061934963
 20
5.3398299957
 11
3.8983349025
 21
5.3293518704
  0
LINE
  5
24A
100
AcDbEntity
  8
03__ASM_ALL_CURVES
100
AcDbLine
 62
40
  6
CONTINUOUS
 10
3.97692084
 20
5.4236549926
 11
3.9847794338
 21
5.4341331226
  0
LINE
  5
24B
100
AcDbEntity
  8
03__ASM_ALL_CURVES
100
AcDbLine
 62
40
  6
CONTINUOUS
 10
4.0240724025
 20
5.3398299957
 11
4.0162138088
 21
5.3293518704
  0
LINE
  5
24C
100
AcDbEntity
  8
03__ASM_ALL_CURVES
100
AcDbLine
 62
40
  6
CONTINUOUS
 10
4.134092715
 20
5.4446112451
 11
4.1183755275
 21
5.4236549926
  0
LINE
  5
24D
100
AcDbEntity
  8
0
100
AcDbLine
 62
7
  6
CONTINUOUS
 10
2.9879716213
 20
4.4425267451
 11
2.9569716213
 21
4.4115267451
  0
LINE
  5
24E
100
AcDbEntity
  8
03__ASM_ALL_CURVES
100
AcDbLine
 62
40
  6
CONTINUOUS
 10
3.59970834
 20
5.4341331226
 11
3.6154255275
 21
5.4446112451
  0
LINE
  5
24F
100
AcDbEntity
  8
03__ASM_ALL_CURVES
100
AcDbLine
 62
40
  6
CONTINUOUS
 10
3.6468599025
 20
5.3922206176
 11
3.6154255275
 21
5.3712643688
  0
LINE
  5
250
100
AcDbEntity
  8
0
100
AcDbLine
 62
7
  6
CONTINUOUS
 10
2.9879716213
 20
4.0675267451
 11
2.9569716213
 21
4.0985267451
  0
LINE
  5
251
100
AcDbEntity
  8
03__ASM_ALL_CURVES
100
AcDbLine
 62
40
  6
CONTINUOUS
 10
4.1183755275
 20
5.4236549926
 11
4.1105169338
 21
5.3922206176
  0
LINE
  5
252
100
AcDbEntity
  8
03__ASM_ALL_CURVES
100
AcDbLine
 62
40
  6
CONTINUOUS
 10
4.2205372463
 20
5.4026987476
 11
4.22839584
 21
5.4236549926
  0
LINE
  5
253
100
AcDbEntity
  8
03__ASM_ALL_CURVES
100
AcDbLine
 62
40
  6
CONTINUOUS
 10
4.2205372463
 20
5.3607862463
 11
4.22839584
 21
5.3817424951
  0
LINE
  5
254
100
AcDbEntity
  8
03__ASM_ALL_CURVES
100
AcDbLine
 62
40
  6
CONTINUOUS
 10
4.22839584
 20
5.4236549926
 11
4.2362544338
 21
5.4341331226
  0
LINE
  5
255
100
AcDbEntity
  8
03__ASM_ALL_CURVES
100
AcDbLine
 62
40
  6
CONTINUOUS
 10
4.2755474025
 20
5.3398299957
 11
4.2676888088
 21
5.3293518704
  0
LINE
  5
256
100
AcDbEntity
  8
0
100
AcDbLine
 62
7
  6
CONTINUOUS
 10
3.6054716213
 20
4.7870267451
 11
3.6674716213
 21
4.8490267451
  0
LINE
  5
257
100
AcDbEntity
  8
0
100
AcDbLine
 62
7
  6
CONTINUOUS
 10
3.3984724068
 20
4.5360275307
 11
3.3829716213
 21
4.5205267451
  0
LINE
  5
258
100
AcDbEntity
  8
03__ASM_ALL_CURVES
100
AcDbLine
 62
40
  6
CONTINUOUS
 10
3.85118334
 20
5.3922206176
 11
3.8669005275
 21
5.4026987476
  0
LINE
  5
259
100
AcDbEntity
  8
03__ASM_ALL_CURVES
100
AcDbLine
 62
40
  6
CONTINUOUS
 10
3.9847794338
 20
5.4341331226
 11
4.0004966213
 21
5.4446112451
  0
LINE
  5
25A
100
AcDbEntity
  8
03__ASM_ALL_CURVES
100
AcDbLine
 62
40
  6
CONTINUOUS
 10
3.8983349025
 20
5.3293518704
 11
3.882617715
 21
5.3188737451
  0
LINE
  5
25B
100
AcDbEntity
  8
03__ASM_ALL_CURVES
100
AcDbLine
 62
40
  6
CONTINUOUS
 10
4.0162138088
 20
5.3293518704
 11
4.0004966213
 21
5.3188737451
  0
LINE
  5
25C
100
AcDbEntity
  8
03__ASM_ALL_CURVES
100
AcDbLine
 62
40
  6
CONTINUOUS
 10
4.2362544338
 20
5.4341331226
 11
4.2519716213
 21
5.4446112451
  0
LINE
  5
25D
100
AcDbEntity
  8
0
100
AcDbLine
 62
7
  6
CONTINUOUS
 10
3.6054716213
 20
3.7230267451
 11
3.6674716213
 21
3.6610267451
  0
LINE
  5
25E
100
AcDbEntity
  8
0
100
AcDbLine
 62
7
  6
CONTINUOUS
 10
3.3984724068
 20
3.9740259595
 11
3.3829716213
 21
3.9895267451
  0
LINE
  5
25F
100
AcDbEntity
  8
03__ASM_ALL_CURVES
100
AcDbLine
 62
40
  6
CONTINUOUS
 10
4.0319309963
 20
5.4026987476
 11
4.0319309963
 21
5.3607862463
  0
LINE
  5
260
100
AcDbEntity
  8
03__ASM_ALL_CURVES
100
AcDbLine
 62
40
  6
CONTINUOUS
 10
4.1105169338
 20
5.3922206176
 11
4.1105169338
 21
5.3712643688
  0
LINE
  5
261
100
AcDbEntity
  8
03__ASM_ALL_CURVES
100
AcDbLine
 62
40
  6
CONTINUOUS
 10
4.2834059963
 20
5.3607862463
 11
4.2755474025
 21
5.3398299957
  0
LINE
  5
262
100
AcDbEntity
  8
03__ASM_ALL_CURVES
100
AcDbLine
 62
40
  6
CONTINUOUS
 10
4.41700209
 20
5.3607862463
 11
4.4091434963
 21
5.3398299957
  0
LINE
  5
263
100
AcDbEntity
  8
0
100
AcDbLine
 62
7
  6
CONTINUOUS
 10
3.5744716213
 20
3.9840267451
 11
3.5683768491
 21
3.9734702901
  0
LINE
  5
264
100
AcDbEntity
  8
03__ASM_ALL_CURVES
100
AcDbLine
 62
40
  6
CONTINUOUS
 10
4.4091434963
 20
5.3398299957
 11
4.4012849025
 21
5.3293518704
  0
LINE
  5
265
100
AcDbEntity
  8
03__ASM_ALL_CURVES
100
AcDbLine
 62
40
  6
CONTINUOUS
 10
4.35413334
 20
5.3922206176
 11
4.3698505275
 21
5.4026987476
  0
LINE
  5
266
100
AcDbEntity
  8
03__ASM_ALL_CURVES
100
AcDbLine
 62
40
  6
CONTINUOUS
 10
4.2676888088
 20
5.3293518704
 11
4.2519716213
 21
5.3188737451
  0
LINE
  5
267
100
AcDbEntity
  8
03__ASM_ALL_CURVES
100
AcDbLine
 62
40
  6
CONTINUOUS
 10
4.4012849025
 20
5.3293518704
 11
4.385567715
 21
5.3188737451
  0
LINE
  5
268
100
AcDbEntity
  8
03__ASM_ALL_CURVES
100
AcDbLine
 62
40
  6
CONTINUOUS
 10
4.0240724025
 20
5.3817424951
 11
4.0004966213
 21
5.3712643688
  0
LINE
  5
269
100
AcDbEntity
  8
03__ASM_ALL_CURVES
100
AcDbLine
 62
40
  6
CONTINUOUS
 10
4.22839584
 20
5.3817424951
 11
4.2519716213
 21
5.3922206176
  0
LINE
  5
26A
100
AcDbEntity
  8
0
100
AcDbLine
 62
7
  6
CONTINUOUS
 10
3.5744716213
 20
4.5260267451
 11
3.5683768491
 21
4.5365832001
  0
LINE
  5
26B
100
AcDbEntity
  8
0
100
AcDbLine
 62
7
  6
CONTINUOUS
 10
4.3448557952
 20
3.5460267451
 11
4.2934716213
 21
3.6350267451
  0
LINE
  5
26C
100
AcDbEntity
  8
03__ASM_ALL_CURVES
100
AcDbLine
 62
40
  6
CONTINUOUS
 10
4.2205372463
 20
5.3607862463
 11
4.2205372463
 21
5.4026987476
  0
LINE
  5
26D
100
AcDbEntity
  8
0
100
AcDbLine
 62
7
  6
CONTINUOUS
 10
4.2934716213
 20
3.6350267451
 11
4.2934716213
 21
4.8750267451
  0
LINE
  5
26E
100
AcDbEntity
  8
0
100
AcDbLine
 62
7
  6
CONTINUOUS
 10
4.3448557952
 20
3.5460267451
 11
4.3448557952
 21
3.5463877462
  0
LINE
  5
26F
100
AcDbEntity
  8
0
100
AcDbLine
 62
7
  6
CONTINUOUS
 10
4.3448557952
 20
3.881115744
 11
4.3448557952
 21
3.9202987473
  0
LINE
  5
270
100
AcDbEntity
  8
0
100
AcDbLine
 62
7
  6
CONTINUOUS
 10
4.3448557952
 20
4.5897547429
 11
4.3448557952
 21
4.6289377462
  0
LINE
  5
271
100
AcDbEntity
  8
0
100
AcDbLine
 62
7
  6
CONTINUOUS
 10
4.3448557952
 20
4.963665744
 11
4.3448557952
 21
4.9640267451
  0
LINE
  5
272
100
AcDbEntity
  8
03__ASM_ALL_CURVES
100
AcDbLine
 62
40
  6
CONTINUOUS
 10
4.3619919338
 20
5.4446112451
 11
4.35413334
 21
5.3922206176
  0
LINE
  5
273
100
AcDbEntity
  8
03__ASM_ALL_CURVES
100
AcDbLine
 62
40
  6
CONTINUOUS
 10
4.6449013088
 20
5.4026987476
 11
4.6606184963
 21
5.4446112451
  0
LINE
  5
274
100
AcDbEntity
  8
0
100
AcDbLine
 62
7
  6
CONTINUOUS
 10
4.3448557952
 20
4.9640267451
 11
4.2934716213
 21
4.8750267451
  0
LINE
  5
275
100
AcDbEntity
  8
03__ASM_ALL_CURVES
100
AcDbLine
 62
40
  6
CONTINUOUS
 10
4.7234872463
 20
5.4236549926
 11
4.73134584
 21
5.4341331226
  0
LINE
  5
276
100
AcDbEntity
  8
03__ASM_ALL_CURVES
100
AcDbLine
 62
40
  6
CONTINUOUS
 10
4.7156286525
 20
5.3607862463
 11
4.73134584
 21
5.3817424951
  0
LINE
  5
277
100
AcDbEntity
  8
03__ASM_ALL_CURVES
100
AcDbLine
 62
40
  6
CONTINUOUS
 10
4.7863559963
 20
5.4131768701
 11
4.7784974025
 21
5.4026987476
  0
LINE
  5
278
100
AcDbEntity
  8
03__ASM_ALL_CURVES
100
AcDbLine
 62
40
  6
CONTINUOUS
 10
4.79421459
 20
5.3503081201
 11
4.7784974025
 21
5.3293518704
  0
LINE
  5
279
100
AcDbEntity
  8
0
100
AcDbLine
 62
7
  6
CONTINUOUS
 10
3.3669716213
 20
3.9895267451
 11
3.3614716213
 21
3.9840267451
  0
LINE
  5
27A
100
AcDbEntity
  8
03__ASM_ALL_CURVES
100
AcDbLine
 62
40
  6
CONTINUOUS
 10
4.73134584
 20
5.4341331226
 11
4.7470630275
 21
5.4446112451
  0
LINE
  5
27B
100
AcDbEntity
  8
03__ASM_ALL_CURVES
100
AcDbLine
 62
40
  6
CONTINUOUS
 10
4.73134584
 20
5.3817424951
 11
4.7470630275
 21
5.3922206176
  0
LINE
  5
27C
100
AcDbEntity
  8
03__ASM_ALL_CURVES
100
AcDbLine
 62
40
  6
CONTINUOUS
 10
4.7784974025
 20
5.4026987476
 11
4.762780215
 21
5.3922206176
  0
LINE
  5
27D
100
AcDbEntity
  8
03__ASM_ALL_CURVES
100
AcDbLine
 62
40
  6
CONTINUOUS
 10
4.7784974025
 20
5.3293518704
 11
4.762780215
 21
5.3188737451
  0
LINE
  5
27E
100
AcDbEntity
  8
0
100
AcDbLine
 62
7
  6
CONTINUOUS
 10
3.3669716213
 20
4.5205267451
 11
3.3614716213
 21
4.5260267451
  0
LINE
  5
27F
100
AcDbEntity
  8
03__ASM_ALL_CURVES
100
AcDbLine
 62
40
  6
CONTINUOUS
 10
4.4955880275
 20
5.3188737451
 11
4.4955880275
 21
5.3293518704
  0
LINE
  5
280
100
AcDbEntity
  8
03__ASM_ALL_CURVES
100
AcDbLine
 62
40
  6
CONTINUOUS
 10
4.6291841213
 20
5.3188737451
 11
4.637042715
 21
5.3712643688
  0
LINE
  5
281
100
AcDbEntity
  8
03__ASM_ALL_CURVES
100
AcDbLine
 62
40
  6
CONTINUOUS
 10
4.637042715
 20
5.3712643688
 11
4.6449013088
 21
5.4026987476
  0
LINE
  5
282
100
AcDbEntity
  8
03__ASM_ALL_CURVES
100
AcDbLine
 62
40
  6
CONTINUOUS
 10
4.888517715
 20
5.3398299957
 11
4.8728005275
 21
5.3188737451
  0
LINE
  5
283
100
AcDbEntity
  8
03__ASM_ALL_CURVES
100
AcDbLine
 62
40
  6
CONTINUOUS
 10
3.9061934963
 20
5.3817424951
 11
3.91405209
 21
5.3607862463
  0
LINE
  5
284
100
AcDbEntity
  8
03__ASM_ALL_CURVES
100
AcDbLine
 62
40
  6
CONTINUOUS
 10
3.97692084
 20
5.3817424951
 11
3.9690622463
 21
5.4026987476
  0
LINE
  5
285
100
AcDbEntity
  8
03__ASM_ALL_CURVES
100
AcDbLine
 62
40
  6
CONTINUOUS
 10
4.0240724025
 20
5.4236549926
 11
4.0319309963
 21
5.4026987476
  0
LINE
  5
286
100
AcDbEntity
  8
03__ASM_ALL_CURVES
100
AcDbLine
 62
40
  6
CONTINUOUS
 10
4.1105169338
 20
5.3712643688
 11
4.1183755275
 21
5.3398299957
  0
LINE
  5
287
100
AcDbEntity
  8
03__ASM_ALL_CURVES
100
AcDbLine
 62
40
  6
CONTINUOUS
 10
4.7156286525
 20
5.3503081201
 11
4.7156286525
 21
5.3607862463
  0
LINE
  5
288
100
AcDbEntity
  8
03__ASM_ALL_CURVES
100
AcDbLine
 62
40
  6
CONTINUOUS
 10
4.7234872463
 20
5.4131768701
 11
4.7234872463
 21
5.4236549926
  0
LINE
  5
289
100
AcDbEntity
  8
03__ASM_ALL_CURVES
100
AcDbLine
 62
40
  6
CONTINUOUS
 10
4.7863559963
 20
5.4236549926
 11
4.7863559963
 21
5.4131768701
  0
LINE
  5
28A
100
AcDbEntity
  8
03__ASM_ALL_CURVES
100
AcDbLine
 62
40
  6
CONTINUOUS
 10
4.79421459
 20
5.3607862463
 11
4.79421459
 21
5.3503081201
  0
LINE
  5
28B
100
AcDbEntity
  8
03__ASM_ALL_CURVES
100
AcDbLine
 62
40
  6
CONTINUOUS
 10
4.8963763088
 20
5.3712643688
 11
4.888517715
 21
5.3398299957
  0
LINE
  5
28C
100
AcDbEntity
  8
03__ASM_ALL_CURVES
100
AcDbLine
 62
40
  6
CONTINUOUS
 10
7.0205624282
 20
3.1297236201
 11
7.0087745376
 21
3.1297236201
  0
LINE
  5
28D
100
AcDbEntity
  8
03__ASM_ALL_CURVES
100
AcDbLine
 62
40
  6
CONTINUOUS
 10
7.2740020766
 20
3.1297236201
 11
7.3211536391
 21
3.1297236201
  0
LINE
  5
28E
100
AcDbEntity
  8
03__ASM_ALL_CURVES
100
AcDbLine
 62
40
  6
CONTINUOUS
 10
7.1148655532
 20
3.1768751826
 11
7.0853958266
 21
3.1768751826
  0
LINE
  5
28F
100
AcDbEntity
  8
03__ASM_ALL_CURVES
100
AcDbLine
 62
40
  6
CONTINUOUS
 10
6.9262593032
 20
3.1768751826
 11
6.8967895766
 21
3.1768751826
  0
LINE
  5
290
100
AcDbEntity
  8
03__ASM_ALL_CURVES
100
AcDbLine
 62
40
  6
CONTINUOUS
 10
6.8967895766
 20
3.2240267451
 11
6.9262593032
 21
3.2240267451
  0
LINE
  5
291
100
AcDbEntity
  8
03__ASM_ALL_CURVES
100
AcDbLine
 62
40
  6
CONTINUOUS
 10
7.0087745376
 20
3.2240267451
 11
7.0205624282
 21
3.2240267451
  0
LINE
  5
292
100
AcDbEntity
  8
03__ASM_ALL_CURVES
100
AcDbLine
 62
40
  6
CONTINUOUS
 10
7.0853958266
 20
3.2240267451
 11
7.1148655532
 21
3.2240267451
  0
LINE
  5
293
100
AcDbEntity
  8
03__ASM_ALL_CURVES
100
AcDbLine
 62
40
  6
CONTINUOUS
 10
7.1738050063
 20
3.2240267451
 11
7.2327444594
 21
3.2240267451
  0
LINE
  5
294
100
AcDbEntity
  8
03__ASM_ALL_CURVES
100
AcDbLine
 62
40
  6
CONTINUOUS
 10
7.2916839126
 20
3.2240267451
 11
7.3034718032
 21
3.2240267451
  0
LINE
  5
295
100
AcDbEntity
  8
03__ASM_ALL_CURVES
100
AcDbLine
 62
40
  6
CONTINUOUS
 10
3.6468599025
 20
5.4341331226
 11
3.6547184963
 21
5.4236549926
  0
LINE
  5
296
100
AcDbEntity
  8
03__ASM_ALL_CURVES
100
AcDbLine
 62
40
  6
CONTINUOUS
 10
3.7411630275
 20
5.3293518704
 11
3.7490216213
 21
5.3188737451
  0
LINE
  5
297
100
AcDbEntity
  8
0
100
AcDbLine
 62
7
  6
CONTINUOUS
 10
5.0844716213
 20
3.4755267451
 11
5.0437684273
 21
3.5460267451
  0
LINE
  5
298
100
AcDbEntity
  8
03__ASM_ALL_CURVES
100
AcDbLine
 62
40
  6
CONTINUOUS
 10
4.22839584
 20
5.3398299957
 11
4.2205372463
 21
5.3607862463
  0
LINE
  5
299
100
AcDbEntity
  8
03__ASM_ALL_CURVES
100
AcDbLine
 62
40
  6
CONTINUOUS
 10
4.2755474025
 20
5.3817424951
 11
4.2834059963
 21
5.3607862463
  0
LINE
  5
29A
100
AcDbEntity
  8
03__ASM_ALL_CURVES
100
AcDbLine
 62
40
  6
CONTINUOUS
 10
4.8963763088
 20
5.3922206176
 11
4.8963763088
 21
5.3712643688
  0
LINE
  5
29B
100
AcDbEntity
  8
0
100
AcDbLine
 62
7
  6
CONTINUOUS
 10
5.0844716213
 20
5.0345267451
 11
5.0437684273
 21
4.9640267451
  0
LINE
  5
29C
100
AcDbEntity
  8
03__ASM_ALL_CURVES
100
AcDbLine
 62
40
  6
CONTINUOUS
 10
5.8817477142
 20
5.4341331226
 11
5.8974649017
 21
5.4446112451
  0
LINE
  5
29D
100
AcDbEntity
  8
03__ASM_ALL_CURVES
100
AcDbLine
 62
40
  6
CONTINUOUS
 10
6.0074852142
 20
5.4341331226
 11
6.0232024017
 21
5.4446112451
  0
LINE
  5
29E
100
AcDbEntity
  8
03__ASM_ALL_CURVES
100
AcDbLine
 62
40
  6
CONTINUOUS
 10
5.9288992767
 20
5.3293518704
 11
5.9131820892
 21
5.3188737451
  0
LINE
  5
29F
100
AcDbEntity
  8
0
100
AcDbLine
 62
7
  6
CONTINUOUS
 10
5.5469716213
 20
3.4755267451
 11
5.0844716213
 21
3.4755267451
  0
LINE
  5
2A0
100
AcDbEntity
  8
03__ASM_ALL_CURVES
100
AcDbLine
 62
40
  6
CONTINUOUS
 10
3.85118334
 20
5.3293518704
 11
3.8433247463
 21
5.3398299957
  0
LINE
  5
2A1
100
AcDbEntity
  8
03__ASM_ALL_CURVES
100
AcDbLine
 62
40
  6
CONTINUOUS
 10
3.8983349025
 20
5.3922206176
 11
3.9061934963
 21
5.3817424951
  0
LINE
  5
2A2
100
AcDbEntity
  8
03__ASM_ALL_CURVES
100
AcDbLine
 62
40
  6
CONTINUOUS
 10
3.9847794338
 20
5.3293518704
 11
3.97692084
 21
5.3398299957
  0
LINE
  5
2A3
100
AcDbEntity
  8
03__ASM_ALL_CURVES
100
AcDbLine
 62
40
  6
CONTINUOUS
 10
4.4091434963
 20
5.3817424951
 11
4.41700209
 21
5.3607862463
  0
LINE
  5
2A4
100
AcDbEntity
  8
0
100
AcDbLine
 62
7
  6
CONTINUOUS
 10
5.0437684273
 20
3.5460267451
 11
5.0437684273
 21
4.9640267451
  0
LINE
  5
2A5
100
AcDbEntity
  8
0
100
AcDbLine
 62
7
  6
CONTINUOUS
 10
5.0844716213
 20
3.4755267451
 11
5.0844716213
 21
5.0345267451
  0
LINE
  5
2A6
100
AcDbEntity
  8
03__ASM_ALL_CURVES
100
AcDbLine
 62
40
  6
CONTINUOUS
 10
5.8660305267
 20
5.4131768701
 11
5.8817477142
 21
5.4341331226
  0
LINE
  5
2A7
100
AcDbEntity
  8
03__ASM_ALL_CURVES
100
AcDbLine
 62
40
  6
CONTINUOUS
 10
6.0546367767
 20
5.3293518704
 11
6.0389195892
 21
5.3188737451
  0
LINE
  5
2A8
100
AcDbEntity
  8
0
100
AcDbLine
 62
7
  6
CONTINUOUS
 10
5.6969716213
 20
3.5370267451
 11
5.7469716213
 21
3.5370267451
  0
LINE
  5
2A9
100
AcDbEntity
  8
THREAD
100
AcDbLine
 62
7
  6
CONTINUOUS
 10
5.5939716213
 20
3.5375267451
 11
5.5469716213
 21
3.5375267451
  0
LINE
  5
2AA
100
AcDbEntity
  8
0
100
AcDbLine
 62
7
  6
CONTINUOUS
 10
5.0437684273
 20
3.5460267451
 11
4.3448557952
 21
3.5460267451
  0
LINE
  5
2AB
100
AcDbEntity
  8
0
100
AcDbLine
 62
7
  6
CONTINUOUS
 10
5.0437684273
 20
3.5463877462
 11
4.3448557952
 21
3.5463877462
  0
LINE
  5
2AC
100
AcDbEntity
  8
THREAD
100
AcDbLine
 62
7
  6
CONTINUOUS
 10
6.1074716213
 20
3.5535267451
 11
5.7956844342
 21
3.5535267451
  0
LINE
  5
2AD
100
AcDbEntity
  8
0
100
AcDbLine
 62
7
  6
CONTINUOUS
 10
7.6864716213
 20
3.6310267451
 11
7.7364716213
 21
3.6310267451
  0
LINE
  5
2AE
100
AcDbEntity
  8
0
100
AcDbLine
 62
7
  6
CONTINUOUS
 10
7.8394716213
 20
3.6310267451
 11
7.8894716213
 21
3.6310267451
  0
LINE
  5
2AF
100
AcDbEntity
  8
THREAD
100
AcDbLine
 62
7
  6
CONTINUOUS
 10
7.9554716213
 20
3.6315267451
 11
7.9104716213
 21
3.6315267451
  0
LINE
  5
2B0
100
AcDbEntity
  8
THREAD
100
AcDbLine
 62
7
  6
CONTINUOUS
 10
7.6864716213
 20
3.6315267451
 11
7.5864716213
 21
3.6315267451
  0
LINE
  5
2B1
100
AcDbEntity
  8
0
100
AcDbLine
 62
7
  6
CONTINUOUS
 10
3.6674716213
 20
3.6610267451
 11
4.2934716213
 21
3.6610267451
  0
LINE
  5
2B2
100
AcDbEntity
  8
0
100
AcDbLine
 62
7
  6
CONTINUOUS
 10
7.5864716213
 20
3.6770267451
 11
6.4154716213
 21
3.6770267451
  0
LINE
  5
2B3
100
AcDbEntity
  8
0
100
AcDbLine
 62
7
  6
CONTINUOUS
 10
6.1814716213
 20
3.6770267451
 11
6.1554716213
 21
3.6770267451
  0
LINE
  5
2B4
100
AcDbEntity
  8
03__ASM_ALL_CURVES
100
AcDbLine
 62
40
  6
CONTINUOUS
 10
4.0162138088
 20
5.4341331226
 11
4.0240724025
 21
5.4236549926
  0
LINE
  5
2B5
100
AcDbEntity
  8
03__ASM_ALL_CURVES
100
AcDbLine
 62
40
  6
CONTINUOUS
 10
4.1183755275
 20
5.3398299957
 11
4.134092715
 21
5.3188737451
  0
LINE
  5
2B6
100
AcDbEntity
  8
03__ASM_ALL_CURVES
100
AcDbLine
 62
40
  6
CONTINUOUS
 10
4.2362544338
 20
5.3293518704
 11
4.22839584
 21
5.3398299957
  0
LINE
  5
2B7
100
AcDbEntity
  8
03__ASM_ALL_CURVES
100
AcDbLine
 62
40
  6
CONTINUOUS
 10
4.888517715
 20
5.4236549926
 11
4.8963763088
 21
5.3922206176
  0
LINE
  5
2B8
100
AcDbEntity
  8
03__ASM_ALL_CURVES
100
AcDbLine
 62
40
  6
CONTINUOUS
 10
5.3960866213
 20
5.2937262451
 11
5.3960866213
 21
5.2434312451
  0
LINE
  5
2B9
100
AcDbEntity
  8
03__ASM_ALL_CURVES
100
AcDbLine
 62
40
  6
CONTINUOUS
 10
5.9446164642
 20
5.3503081201
 11
5.9288992767
 21
5.3293518704
  0
LINE
  5
2BA
100
AcDbEntity
  8
03__ASM_ALL_CURVES
100
AcDbLine
 62
40
  6
CONTINUOUS
 10
5.9917680267
 20
5.4131768701
 11
6.0074852142
 21
5.4341331226
  0
LINE
  5
2BB
100
AcDbEntity
  8
03__ASM_ALL_CURVES
100
AcDbLine
 62
40
  6
CONTINUOUS
 10
6.0624953705
 20
5.3398299957
 11
6.0546367767
 21
5.3293518704
  0
LINE
  5
2BC
100
AcDbEntity
  8
03__ASM_ALL_CURVES
100
AcDbLine
 62
40
  6
CONTINUOUS
 10
6.6361727142
 20
5.4341331226
 11
6.6518899017
 21
5.4446112451
  0
LINE
  5
2BD
100
AcDbEntity
  8
0
100
AcDbLine
 62
7
  6
CONTINUOUS
 10
7.9104716213
 20
3.7190267451
 11
7.8894716213
 21
3.7190267451
  0
LINE
  5
2BE
100
AcDbEntity
  8
0
100
AcDbLine
 62
7
  6
CONTINUOUS
 10
5.0437684273
 20
3.881115744
 11
4.3448557952
 21
3.881115744
  0
LINE
  5
2BF
100
AcDbEntity
  8
03__ASM_ALL_CURVES
100
AcDbLine
 62
40
  6
CONTINUOUS
 10
4.2676888088
 20
5.4341331226
 11
4.2755474025
 21
5.4236549926
  0
LINE
  5
2C0
100
AcDbEntity
  8
03__ASM_ALL_CURVES
100
AcDbLine
 62
40
  6
CONTINUOUS
 10
4.35413334
 20
5.3293518704
 11
4.3462747463
 21
5.3398299957
  0
LINE
  5
2C1
100
AcDbEntity
  8
03__ASM_ALL_CURVES
100
AcDbLine
 62
40
  6
CONTINUOUS
 10
4.4012849025
 20
5.3922206176
 11
4.4091434963
 21
5.3817424951
  0
LINE
  5
2C2
100
AcDbEntity
  8
03__ASM_ALL_CURVES
100
AcDbLine
 62
40
  6
CONTINUOUS
 10
4.4955880275
 20
5.3293518704
 11
4.5034466213
 21
5.3188737451
  0
LINE
  5
2C3
100
AcDbEntity
  8
0
100
AcDbLine
 62
7
  6
CONTINUOUS
 10
5.5469716213
 20
3.4755267451
 11
5.5469716213
 21
5.0345267451
  0
LINE
  5
2C4
100
AcDbEntity
  8
03__ASM_ALL_CURVES
100
AcDbLine
 62
40
  6
CONTINUOUS
 10
5.5469716213
 20
5.0596742451
 11
5.5469716213
 21
5.3188737451
  0
LINE
  5
2C5
100
AcDbEntity
  8
THREAD
100
AcDbLine
 62
7
  6
CONTINUOUS
 10
5.5939716213
 20
3.5375267451
 11
5.5939716213
 21
4.9725267451
  0
LINE
  5
2C6
100
AcDbEntity
  8
03__ASM_ALL_CURVES
100
AcDbLine
 62
40
  6
CONTINUOUS
 10
5.858171933
 20
5.3817424951
 11
5.8660305267
 21
5.4131768701
  0
LINE
  5
2C7
100
AcDbEntity
  8
THREAD
100
AcDbLine
 62
7
  6
CONTINUOUS
 10
5.7956844342
 20
4.9565267451
 11
5.7679716213
 21
4.9085267451
  0
LINE
  5
2C8
100
AcDbEntity
  8
03__ASM_ALL_CURVES
100
AcDbLine
 62
40
  6
CONTINUOUS
 10
6.6833242767
 20
5.3293518704
 11
6.6676070892
 21
5.3188737451
  0
LINE
  5
2C9
100
AcDbEntity
  8
03__ASM_ALL_CURVES
100
AcDbLine
 62
40
  6
CONTINUOUS
 10
6.9033649017
 20
5.4446112451
 11
6.8876477142
 21
5.4341331226
  0
LINE
  5
2CA
100
AcDbEntity
  8
03__ASM_ALL_CURVES
100
AcDbLine
 62
40
  6
CONTINUOUS
 10
6.9347992767
 20
5.3293518704
 11
6.9190820892
 21
5.3188737451
  0
LINE
  5
2CB
100
AcDbEntity
  8
03__ASM_ALL_CURVES
100
AcDbLine
 62
40
  6
CONTINUOUS
 10
7.1391227142
 20
5.4341331226
 11
7.1548399017
 21
5.4446112451
  0
LINE
  5
2CC
100
AcDbEntity
  8
0
100
AcDbLine
 62
7
  6
CONTINUOUS
 10
5.0437684273
 20
3.9202987473
 11
4.3448557952
 21
3.9202987473
  0
LINE
  5
2CD
100
AcDbEntity
  8
0
100
AcDbLine
 62
7
  6
CONTINUOUS
 10
3.3984716213
 20
3.9740267451
 11
3.568695343
 21
3.9740267451
  0
LINE
  5
2CE
100
AcDbEntity
  8
0
100
AcDbLine
 62
7
  6
CONTINUOUS
 10
3.6054716213
 20
3.9840267451
 11
3.5744716213
 21
3.9840267451
  0
LINE
  5
2CF
100
AcDbEntity
  8
0
100
AcDbLine
 62
7
  6
CONTINUOUS
 10
3.3614716213
 20
3.9840267451
 11
3.3554716213
 21
3.9840267451
  0
LINE
  5
2D0
100
AcDbEntity
  8
0
100
AcDbLine
 62
7
  6
CONTINUOUS
 10
3.3829716213
 20
3.9895267451
 11
3.3669716213
 21
3.9895267451
  0
LINE
  5
2D1
100
AcDbEntity
  8
0
100
AcDbLine
 62
7
  6
CONTINUOUS
 10
3.2934716213
 20
4.0675267451
 11
2.9879716213
 21
4.0675267451
  0
LINE
  5
2D2
100
AcDbEntity
  8
03__ASM_ALL_CURVES
100
AcDbLine
 62
40
  6
CONTINUOUS
 10
7.0087745376
 20
3.1297236201
 11
6.9969866469
 21
3.1375822141
  0
LINE
  5
2D3
100
AcDbEntity
  8
03__ASM_ALL_CURVES
100
AcDbLine
 62
40
  6
CONTINUOUS
 10
6.9262593032
 20
3.2240267451
 11
6.9380471938
 21
3.2161681532
  0
LINE
  5
2D4
100
AcDbEntity
  8
03__ASM_ALL_CURVES
100
AcDbLine
 62
40
  6
CONTINUOUS
 10
3.631142715
 20
5.4446112451
 11
3.6468599025
 21
5.4341331226
  0
LINE
  5
2D5
100
AcDbEntity
  8
03__ASM_ALL_CURVES
100
AcDbLine
 62
40
  6
CONTINUOUS
 10
3.8669005275
 20
5.3188737451
 11
3.85118334
 21
5.3293518704
  0
LINE
  5
2D6
100
AcDbEntity
  8
03__ASM_ALL_CURVES
100
AcDbLine
 62
40
  6
CONTINUOUS
 10
7.0205624282
 20
3.2240267451
 11
7.0323503188
 21
3.2161681532
  0
LINE
  5
2D7
100
AcDbEntity
  8
03__ASM_ALL_CURVES
100
AcDbLine
 62
40
  6
CONTINUOUS
 10
4.73134584
 20
5.3293518704
 11
4.7156286525
 21
5.3503081201
  0
LINE
  5
2D8
100
AcDbEntity
  8
03__ASM_ALL_CURVES
100
AcDbLine
 62
40
  6
CONTINUOUS
 10
4.73134584
 20
5.4026987476
 11
4.7234872463
 21
5.4131768701
  0
LINE
  5
2D9
100
AcDbEntity
  8
THREAD
100
AcDbLine
 62
7
  6
CONTINUOUS
 10
5.7956844342
 20
3.5535267451
 11
5.7679716213
 21
3.6015267451
  0
LINE
  5
2DA
100
AcDbEntity
  8
0
100
AcDbLine
 62
7
  6
CONTINUOUS
 10
5.6969716213
 20
3.5370267451
 11
5.6969716213
 21
4.9730267451
  0
LINE
  5
2DB
100
AcDbEntity
  8
03__ASM_ALL_CURVES
100
AcDbLine
 62
40
  6
CONTINUOUS
 10
5.6978566213
 20
5.2937262451
 11
5.6978566213
 21
5.2434312451
  0
LINE
  5
2DC
100
AcDbEntity
  8
0
100
AcDbLine
 62
7
  6
CONTINUOUS
 10
5.7469716213
 20
3.5370267451
 11
5.7469716213
 21
4.9730267451
  0
LINE
  5
2DD
100
AcDbEntity
  8
03__ASM_ALL_CURVES
100
AcDbLine
 62
40
  6
CONTINUOUS
 10
5.7481516205
 20
5.4446112451
 11
5.7481516205
 21
5.3188737451
  0
LINE
  5
2DE
100
AcDbEntity
  8
0
100
AcDbLine
 62
7
  6
CONTINUOUS
 10
5.7679716213
 20
3.6015267451
 11
5.7679716213
 21
4.9085267451
  0
LINE
  5
2DF
100
AcDbEntity
  8
THREAD
100
AcDbLine
 62
7
  6
CONTINUOUS
 10
5.7956844342
 20
3.5535267451
 11
5.7956844342
 21
4.9565267451
  0
LINE
  5
2E0
100
AcDbEntity
  8
03__ASM_ALL_CURVES
100
AcDbLine
 62
40
  6
CONTINUOUS
 10
5.952475058
 20
5.3817424951
 11
5.9446164642
 21
5.3503081201
  0
LINE
  5
2E1
100
AcDbEntity
  8
03__ASM_ALL_CURVES
100
AcDbLine
 62
40
  6
CONTINUOUS
 10
5.983909433
 20
5.3817424951
 11
5.9917680267
 21
5.4131768701
  0
LINE
  5
2E2
100
AcDbEntity
  8
03__ASM_ALL_CURVES
100
AcDbLine
 62
40
  6
CONTINUOUS
 10
6.1175055267
 20
5.3188737451
 11
6.1567984955
 21
5.4446112451
  0
LINE
  5
2E3
100
AcDbEntity
  8
03__ASM_ALL_CURVES
100
AcDbLine
 62
40
  6
CONTINUOUS
 10
6.6204555267
 20
5.4131768701
 11
6.6361727142
 21
5.4341331226
  0
LINE
  5
2E4
100
AcDbEntity
  8
03__ASM_ALL_CURVES
100
AcDbLine
 62
40
  6
CONTINUOUS
 10
7.1862742767
 20
5.3293518704
 11
7.1705570892
 21
5.3188737451
  0
LINE
  5
2E5
100
AcDbEntity
  8
03__ASM_ALL_CURVES
100
AcDbLine
 62
40
  6
CONTINUOUS
 10
7.3120117767
 20
5.3293518704
 11
7.2962945892
 21
5.3188737451
  0
LINE
  5
2E6
100
AcDbEntity
  8
0
100
AcDbLine
 62
7
  6
CONTINUOUS
 10
3.5436002109
 20
4.2550267451
 11
3.4419424726
 21
4.2550267451
  0
LINE
  5
2E7
100
AcDbEntity
  8
03__ASM_ALL_CURVES
100
AcDbLine
 62
40
  6
CONTINUOUS
 10
8.3687444732
 20
4.2801742451
 11
8.3569565825
 21
4.2801742451
  0
LINE
  5
2E8
100
AcDbEntity
  8
03__ASM_ALL_CURVES
100
AcDbLine
 62
40
  6
CONTINUOUS
 10
7.1148655532
 20
3.2240267451
 11
7.1266534438
 21
3.2161681532
  0
LINE
  5
2E9
100
AcDbEntity
  8
03__ASM_ALL_CURVES
100
AcDbLine
 62
40
  6
CONTINUOUS
 10
4.0004966213
 20
5.3188737451
 11
3.9847794338
 21
5.3293518704
  0
LINE
  5
2EA
100
AcDbEntity
  8
03__ASM_ALL_CURVES
100
AcDbLine
 62
40
  6
CONTINUOUS
 10
3.882617715
 20
5.4026987476
 11
3.8983349025
 21
5.3922206176
  0
LINE
  5
2EB
100
AcDbEntity
  8
03__ASM_ALL_CURVES
100
AcDbLine
 62
40
  6
CONTINUOUS
 10
7.3034718032
 20
3.2240267451
 11
7.3152596938
 21
3.2161681532
  0
LINE
  5
2EC
100
AcDbEntity
  8
03__ASM_ALL_CURVES
100
AcDbLine
 62
40
  6
CONTINUOUS
 10
4.0004966213
 20
5.4446112451
 11
4.0162138088
 21
5.4341331226
  0
LINE
  5
2ED
100
AcDbEntity
  8
03__ASM_ALL_CURVES
100
AcDbLine
 62
40
  6
CONTINUOUS
 10
4.2519716213
 20
5.3188737451
 11
4.2362544338
 21
5.3293518704
  0
LINE
  5
2EE
100
AcDbEntity
  8
03__ASM_ALL_CURVES
100
AcDbLine
 62
40
  6
CONTINUOUS
 10
4.7784974025
 20
5.3817424951
 11
4.79421459
 21
5.3607862463
  0
LINE
  5
2EF
100
AcDbEntity
  8
03__ASM_ALL_CURVES
100
AcDbLine
 62
40
  6
CONTINUOUS
 10
4.7784974025
 20
5.4341331226
 11
4.7863559963
 21
5.4236549926
  0
LINE
  5
2F0
100
AcDbEntity
  8
03__ASM_ALL_CURVES
100
AcDbLine
 62
40
  6
CONTINUOUS
 10
4.8728005275
 20
5.4446112451
 11
4.888517715
 21
5.4236549926
  0
LINE
  5
2F1
100
AcDbEntity
  8
03__ASM_ALL_CURVES
100
AcDbLine
 62
40
  6
CONTINUOUS
 10
6.6911828705
 20
5.3398299957
 11
6.6833242767
 21
5.3293518704
  0
LINE
  5
2F2
100
AcDbEntity
  8
03__ASM_ALL_CURVES
100
AcDbLine
 62
40
  6
CONTINUOUS
 10
6.8876477142
 20
5.4341331226
 11
6.8797891205
 21
5.4236549926
  0
LINE
  5
2F3
100
AcDbEntity
  8
03__ASM_ALL_CURVES
100
AcDbLine
 62
40
  6
CONTINUOUS
 10
7.555628183
 20
5.3293518704
 11
7.5399109955
 21
5.3188737451
  0
LINE
  5
2F4
100
AcDbEntity
  8
03__ASM_ALL_CURVES
100
AcDbLine
 62
40
  6
CONTINUOUS
 10
7.8149617767
 20
5.3922206176
 11
7.7992445892
 21
5.3817424951
  0
LINE
  5
2F5
100
AcDbEntity
  8
03__ASM_ALL_CURVES
100
AcDbLine
 62
40
  6
CONTINUOUS
 10
8.4630475982
 20
4.3273258076
 11
8.4335778716
 21
4.3273258076
  0
LINE
  5
2F6
100
AcDbEntity
  8
03__ASM_ALL_CURVES
100
AcDbLine
 62
40
  6
CONTINUOUS
 10
8.2744413482
 20
4.3273258076
 11
8.2449716216
 21
4.3273258076
  0
LINE
  5
2F7
100
AcDbEntity
  8
03__ASM_ALL_CURVES
100
AcDbLine
 62
40
  6
CONTINUOUS
 10
8.2449716216
 20
4.3744773701
 11
8.2744413482
 21
4.3744773701
  0
LINE
  5
2F8
100
AcDbEntity
  8
03__ASM_ALL_CURVES
100
AcDbLine
 62
40
  6
CONTINUOUS
 10
8.3569565825
 20
4.3744773701
 11
8.3687444732
 21
4.3744773701
  0
LINE
  5
2F9
100
AcDbEntity
  8
03__ASM_ALL_CURVES
100
AcDbLine
 62
40
  6
CONTINUOUS
 10
8.4335778716
 20
4.3744773701
 11
8.4630475982
 21
4.3744773701
  0
LINE
  5
2FA
100
AcDbEntity
  8
03__ASM_ALL_CURVES
100
AcDbLine
 62
40
  6
CONTINUOUS
 10
8.5219870513
 20
4.3744773701
 11
8.5809265044
 21
4.3744773701
  0
LINE
  5
2FB
100
AcDbEntity
  8
0
100
AcDbLine
 62
7
  6
CONTINUOUS
 10
3.2934716213
 20
4.4425267451
 11
2.9879716213
 21
4.4425267451
  0
LINE
  5
2FC
100
AcDbEntity
  8
03__ASM_ALL_CURVES
100
AcDbLine
 62
40
  6
CONTINUOUS
 10
4.3698505275
 20
5.3188737451
 11
4.35413334
 21
5.3293518704
  0
LINE
  5
2FD
100
AcDbEntity
  8
03__ASM_ALL_CURVES
100
AcDbLine
 62
40
  6
CONTINUOUS
 10
4.2519716213
 20
5.4446112451
 11
4.2676888088
 21
5.4341331226
  0
LINE
  5
2FE
100
AcDbEntity
  8
03__ASM_ALL_CURVES
100
AcDbLine
 62
40
  6
CONTINUOUS
 10
4.385567715
 20
5.4026987476
 11
4.4012849025
 21
5.3922206176
  0
LINE
  5
2FF
100
AcDbEntity
  8
THREAD
100
AcDbLine
 62
7
  6
CONTINUOUS
 10
6.1074716213
 20
3.5535267451
 11
6.1074716213
 21
4.9565267451
  0
LINE
  5
300
100
AcDbEntity
  8
THREAD
100
AcDbLine
 62
7
  6
CONTINUOUS
 10
6.1554716213
 20
3.6015267451
 11
6.1554716213
 21
4.9085267451
  0
LINE
  5
301
100
AcDbEntity
  8
03__ASM_ALL_CURVES
100
AcDbLine
 62
40
  6
CONTINUOUS
 10
6.9426578705
 20
5.3398299957
 11
6.9347992767
 21
5.3293518704
  0
LINE
  5
302
100
AcDbEntity
  8
03__ASM_ALL_CURVES
100
AcDbLine
 62
40
  6
CONTINUOUS
 10
7.1234055267
 20
5.4131768701
 11
7.1391227142
 21
5.4341331226
  0
LINE
  5
303
100
AcDbEntity
  8
0
100
AcDbLine
 62
7
  6
CONTINUOUS
 10
3.3829716213
 20
4.5205267451
 11
3.3669716213
 21
4.5205267451
  0
LINE
  5
304
100
AcDbEntity
  8
0
100
AcDbLine
 62
7
  6
CONTINUOUS
 10
3.6054716213
 20
4.5260267451
 11
3.5744716213
 21
4.5260267451
  0
LINE
  5
305
100
AcDbEntity
  8
0
100
AcDbLine
 62
7
  6
CONTINUOUS
 10
3.3614716213
 20
4.5260267451
 11
3.3554716213
 21
4.5260267451
  0
LINE
  5
306
100
AcDbEntity
  8
0
100
AcDbLine
 62
7
  6
CONTINUOUS
 10
3.3984716213
 20
4.5360267451
 11
3.568695343
 21
4.5360267451
  0
LINE
  5
307
100
AcDbEntity
  8
0
100
AcDbLine
 62
7
  6
CONTINUOUS
 10
5.0437684273
 20
4.5897547429
 11
4.3448557952
 21
4.5897547429
  0
LINE
  5
308
100
AcDbEntity
  8
0
100
AcDbLine
 62
7
  6
CONTINUOUS
 10
5.0437684273
 20
4.6289377462
 11
4.3448557952
 21
4.6289377462
  0
LINE
  5
309
100
AcDbEntity
  8
03__ASM_ALL_CURVES
100
AcDbLine
 62
40
  6
CONTINUOUS
 10
4.0004966213
 20
5.3712643688
 11
3.97692084
 21
5.3817424951
  0
LINE
  5
30A
100
AcDbEntity
  8
03__ASM_ALL_CURVES
100
AcDbLine
 62
40
  6
CONTINUOUS
 10
4.2519716213
 20
5.3922206176
 11
4.2755474025
 21
5.3817424951
  0
LINE
  5
30B
100
AcDbEntity
  8
03__ASM_ALL_CURVES
100
AcDbLine
 62
40
  6
CONTINUOUS
 10
4.7470630275
 20
5.3188737451
 11
4.73134584
 21
5.3293518704
  0
LINE
  5
30C
100
AcDbEntity
  8
03__ASM_ALL_CURVES
100
AcDbLine
 62
40
  6
CONTINUOUS
 10
4.7470630275
 20
5.3922206176
 11
4.73134584
 21
5.4026987476
  0
LINE
  5
30D
100
AcDbEntity
  8
03__ASM_ALL_CURVES
100
AcDbLine
 62
40
  6
CONTINUOUS
 10
4.762780215
 20
5.3922206176
 11
4.7784974025
 21
5.3817424951
  0
LINE
  5
30E
100
AcDbEntity
  8
03__ASM_ALL_CURVES
100
AcDbLine
 62
40
  6
CONTINUOUS
 10
4.762780215
 20
5.4446112451
 11
4.7784974025
 21
5.4341331226
  0
LINE
  5
30F
100
AcDbEntity
  8
03__ASM_ALL_CURVES
100
AcDbLine
 62
40
  6
CONTINUOUS
 10
6.9969866469
 20
3.1375822141
 11
6.9851987563
 21
3.1532994013
  0
LINE
  5
310
100
AcDbEntity
  8
03__ASM_ALL_CURVES
100
AcDbLine
 62
40
  6
CONTINUOUS
 10
6.9380471938
 20
3.2161681532
 11
6.9439411391
 21
3.2083095557
  0
LINE
  5
311
100
AcDbEntity
  8
03__ASM_ALL_CURVES
100
AcDbLine
 62
40
  6
CONTINUOUS
 10
7.0323503188
 20
3.2161681532
 11
7.0441382094
 21
3.2004509638
  0
LINE
  5
312
100
AcDbEntity
  8
03__ASM_ALL_CURVES
100
AcDbLine
 62
40
  6
CONTINUOUS
 10
7.1266534438
 20
3.2161681532
 11
7.1325473891
 21
3.2083095557
  0
LINE
  5
313
100
AcDbEntity
  8
03__ASM_ALL_CURVES
100
AcDbLine
 62
40
  6
CONTINUOUS
 10
5.8660305267
 20
5.3503081201
 11
5.858171933
 21
5.3817424951
  0
LINE
  5
314
100
AcDbEntity
  8
03__ASM_ALL_CURVES
100
AcDbLine
 62
40
  6
CONTINUOUS
 10
5.9446164642
 20
5.4131768701
 11
5.952475058
 21
5.3817424951
  0
LINE
  5
315
100
AcDbEntity
  8
03__ASM_ALL_CURVES
100
AcDbLine
 62
40
  6
CONTINUOUS
 10
6.2825359955
 20
5.4446112451
 11
6.2825359955
 21
5.3188737451
  0
LINE
  5
316
100
AcDbEntity
  8
03__ASM_ALL_CURVES
100
AcDbLine
 62
40
  6
CONTINUOUS
 10
6.4082734955
 20
5.4446112451
 11
6.4082734955
 21
5.3188737451
  0
LINE
  5
317
100
AcDbEntity
  8
03__ASM_ALL_CURVES
100
AcDbLine
 62
40
  6
CONTINUOUS
 10
6.612596933
 20
5.3817424951
 11
6.6204555267
 21
5.4131768701
  0
LINE
  5
318
100
AcDbEntity
  8
03__ASM_ALL_CURVES
100
AcDbLine
 62
40
  6
CONTINUOUS
 10
7.2019914642
 20
5.3503081201
 11
7.1862742767
 21
5.3293518704
  0
LINE
  5
319
100
AcDbEntity
  8
03__ASM_ALL_CURVES
100
AcDbLine
 62
40
  6
CONTINUOUS
 10
7.3198703705
 20
5.3398299957
 11
7.3120117767
 21
5.3293518704
  0
LINE
  5
31A
100
AcDbEntity
  8
0
100
AcDbLine
 62
7
  6
CONTINUOUS
 10
7.9104716213
 20
4.7910267451
 11
7.8894716213
 21
4.7910267451
  0
LINE
  5
31B
100
AcDbEntity
  8
0
100
AcDbLine
 62
7
  6
CONTINUOUS
 10
7.5864716213
 20
4.8330267451
 11
6.4154716213
 21
4.8330267451
  0
LINE
  5
31C
100
AcDbEntity
  8
0
100
AcDbLine
 62
7
  6
CONTINUOUS
 10
6.1814716213
 20
4.8330267451
 11
6.1554716213
 21
4.8330267451
  0
LINE
  5
31D
100
AcDbEntity
  8
0
100
AcDbLine
 62
7
  6
CONTINUOUS
 10
3.6674716213
 20
4.8490267451
 11
4.2934716213
 21
4.8490267451
  0
LINE
  5
31E
100
AcDbEntity
  8
THREAD
100
AcDbLine
 62
7
  6
CONTINUOUS
 10
7.9554716213
 20
4.8785267451
 11
7.9104716213
 21
4.8785267451
  0
LINE
  5
31F
100
AcDbEntity
  8
THREAD
100
AcDbLine
 62
7
  6
CONTINUOUS
 10
7.6864716213
 20
4.8785267451
 11
7.5864716213
 21
4.8785267451
  0
LINE
  5
320
100
AcDbEntity
  8
0
100
AcDbLine
 62
7
  6
CONTINUOUS
 10
7.6864716213
 20
4.8790267451
 11
7.7364716213
 21
4.8790267451
  0
LINE
  5
321
100
AcDbEntity
  8
0
100
AcDbLine
 62
7
  6
CONTINUOUS
 10
7.8394716213
 20
4.8790267451
 11
7.8894716213
 21
4.8790267451
  0
LINE
  5
322
100
AcDbEntity
  8
03__ASM_ALL_CURVES
100
AcDbLine
 62
40
  6
CONTINUOUS
 10
3.1078566213
 20
5.2476224951
 11
2.9569716213
 21
5.2685787451
  0
LINE
  5
323
100
AcDbEntity
  8
03__ASM_ALL_CURVES
100
AcDbLine
 62
40
  6
CONTINUOUS
 10
3.1078566213
 20
5.2434312451
 11
2.9569716213
 21
5.2685787451
  0
LINE
  5
324
100
AcDbEntity
  8
03__ASM_ALL_CURVES
100
AcDbLine
 62
40
  6
CONTINUOUS
 10
7.3152596938
 20
3.2161681532
 11
7.3211536391
 21
3.2083095557
  0
LINE
  5
325
100
AcDbEntity
  8
03__ASM_ALL_CURVES
100
AcDbLine
 62
40
  6
CONTINUOUS
 10
5.9917680267
 20
5.3503081201
 11
5.983909433
 21
5.3817424951
  0
LINE
  5
326
100
AcDbEntity
  8
03__ASM_ALL_CURVES
100
AcDbLine
 62
40
  6
CONTINUOUS
 10
6.5025766205
 20
5.3188737451
 11
6.5025766205
 21
5.4446112451
  0
LINE
  5
327
100
AcDbEntity
  8
03__ASM_ALL_CURVES
100
AcDbLine
 62
40
  6
CONTINUOUS
 10
6.5654453705
 20
5.3188737451
 11
6.5654453705
 21
5.4446112451
  0
LINE
  5
328
100
AcDbEntity
  8
03__ASM_ALL_CURVES
100
AcDbLine
 62
40
  6
CONTINUOUS
 10
7.5713453705
 20
5.3503081201
 11
7.555628183
 21
5.3293518704
  0
LINE
  5
329
100
AcDbEntity
  8
THREAD
100
AcDbLine
 62
7
  6
CONTINUOUS
 10
6.1554716213
 20
3.6015267451
 11
6.1074716213
 21
3.5535267451
  0
LINE
  5
32A
100
AcDbEntity
  8
THREAD
100
AcDbLine
 62
7
  6
CONTINUOUS
 10
6.1074716213
 20
4.9565267451
 11
5.7956844342
 21
4.9565267451
  0
LINE
  5
32B
100
AcDbEntity
  8
0
100
AcDbLine
 62
7
  6
CONTINUOUS
 10
5.0437684273
 20
4.963665744
 11
4.3448557952
 21
4.963665744
  0
LINE
  5
32C
100
AcDbEntity
  8
0
100
AcDbLine
 62
7
  6
CONTINUOUS
 10
5.0437684273
 20
4.9640267451
 11
4.3448557952
 21
4.9640267451
  0
LINE
  5
32D
100
AcDbEntity
  8
THREAD
100
AcDbLine
 62
7
  6
CONTINUOUS
 10
5.5939716213
 20
4.9725267451
 11
5.5469716213
 21
4.9725267451
  0
LINE
  5
32E
100
AcDbEntity
  8
0
100
AcDbLine
 62
7
  6
CONTINUOUS
 10
5.6969716213
 20
4.9730267451
 11
5.7469716213
 21
4.9730267451
  0
LINE
  5
32F
100
AcDbEntity
  8
0
100
AcDbLine
 62
7
  6
CONTINUOUS
 10
5.5469716213
 20
5.0345267451
 11
5.0844716213
 21
5.0345267451
  0
LINE
  5
330
100
AcDbEntity
  8
03__ASM_ALL_CURVES
100
AcDbLine
 62
40
  6
CONTINUOUS
 10
3.1078566213
 20
5.2601962451
 11
2.9569716213
 21
5.2685787451
  0
LINE
  5
331
100
AcDbEntity
  8
03__ASM_ALL_CURVES
100
AcDbLine
 62
40
  6
CONTINUOUS
 10
3.1078566213
 20
5.2560049951
 11
2.9569716213
 21
5.2685787451
  0
LINE
  5
332
100
AcDbEntity
  8
03__ASM_ALL_CURVES
100
AcDbLine
 62
40
  6
CONTINUOUS
 10
3.1078566213
 20
5.2518137451
 11
2.9569716213
 21
5.2685787451
  0
LINE
  5
333
100
AcDbEntity
  8
THREAD
100
AcDbLine
 62
7
  6
CONTINUOUS
 10
6.1554716213
 20
4.9085267451
 11
6.1074716213
 21
4.9565267451
  0
LINE
  5
334
100
AcDbEntity
  8
03__ASM_ALL_CURVES
100
AcDbLine
 62
40
  6
CONTINUOUS
 10
5.8817477142
 20
5.3293518704
 11
5.8660305267
 21
5.3503081201
  0
LINE
  5
335
100
AcDbEntity
  8
03__ASM_ALL_CURVES
100
AcDbLine
 62
40
  6
CONTINUOUS
 10
6.0074852142
 20
5.3293518704
 11
5.9917680267
 21
5.3503081201
  0
LINE
  5
336
100
AcDbEntity
  8
03__ASM_ALL_CURVES
100
AcDbLine
 62
40
  6
CONTINUOUS
 10
5.9288992767
 20
5.4341331226
 11
5.9446164642
 21
5.4131768701
  0
LINE
  5
337
100
AcDbEntity
  8
03__ASM_ALL_CURVES
100
AcDbLine
 62
40
  6
CONTINUOUS
 10
7.1148655532
 20
3.1768751826
 11
7.1325473891
 21
3.1297236201
  0
LINE
  5
338
100
AcDbEntity
  8
03__ASM_ALL_CURVES
100
AcDbLine
 62
40
  6
CONTINUOUS
 10
6.1567984955
 20
5.4446112451
 11
6.1960914642
 21
5.3188737451
  0
LINE
  5
339
100
AcDbEntity
  8
03__ASM_ALL_CURVES
100
AcDbLine
 62
40
  6
CONTINUOUS
 10
6.6911828705
 20
5.3817424951
 11
6.6911828705
 21
5.3398299957
  0
LINE
  5
33A
100
AcDbEntity
  8
03__ASM_ALL_CURVES
100
AcDbLine
 62
40
  6
CONTINUOUS
 10
7.115546933
 20
5.3817424951
 11
7.1234055267
 21
5.4131768701
  0
LINE
  5
33B
100
AcDbEntity
  8
03__ASM_ALL_CURVES
100
AcDbLine
 62
40
  6
CONTINUOUS
 10
7.8228203705
 20
5.4026987476
 11
7.8149617767
 21
5.3922206176
  0
LINE
  5
33C
100
AcDbEntity
  8
03__ASM_ALL_CURVES
100
AcDbLine
 62
40
  6
CONTINUOUS
 10
5.3960866213
 20
5.2434312451
 11
5.6978566213
 21
5.2937262451
  0
LINE
  5
33D
100
AcDbEntity
  8
03__ASM_ALL_CURVES
100
AcDbLine
 62
40
  6
CONTINUOUS
 10
5.3960866213
 20
5.2476224951
 11
5.6978566213
 21
5.2895349951
  0
LINE
  5
33E
100
AcDbEntity
  8
03__ASM_ALL_CURVES
100
AcDbLine
 62
40
  6
CONTINUOUS
 10
5.3960866213
 20
5.2518137451
 11
5.6978566213
 21
5.2853437451
  0
LINE
  5
33F
100
AcDbEntity
  8
03__ASM_ALL_CURVES
100
AcDbLine
 62
40
  6
CONTINUOUS
 10
5.3960866213
 20
5.2560049951
 11
5.6978566213
 21
5.2811524951
  0
LINE
  5
340
100
AcDbEntity
  8
03__ASM_ALL_CURVES
100
AcDbLine
 62
40
  6
CONTINUOUS
 10
5.3960866213
 20
5.2601962451
 11
5.6978566213
 21
5.2769612451
  0
LINE
  5
341
100
AcDbEntity
  8
03__ASM_ALL_CURVES
100
AcDbLine
 62
40
  6
CONTINUOUS
 10
5.3960866213
 20
5.2643874951
 11
5.6978566213
 21
5.2727699951
  0
LINE
  5
342
100
AcDbEntity
  8
03__ASM_ALL_CURVES
100
AcDbLine
 62
40
  6
CONTINUOUS
 10
2.9569716213
 20
5.2685787451
 11
7.9611316213
 21
5.2685787451
  0
LINE
  5
343
100
AcDbEntity
  8
03__ASM_ALL_CURVES
100
AcDbLine
 62
40
  6
CONTINUOUS
 10
7.6970828705
 20
5.3188737451
 11
7.6342141205
 21
5.3188737451
  0
LINE
  5
344
100
AcDbEntity
  8
03__ASM_ALL_CURVES
100
AcDbLine
 62
40
  6
CONTINUOUS
 10
7.5399109955
 20
5.3188737451
 11
7.5084766205
 21
5.3188737451
  0
LINE
  5
345
100
AcDbEntity
  8
03__ASM_ALL_CURVES
100
AcDbLine
 62
40
  6
CONTINUOUS
 10
7.2962945892
 20
5.3188737451
 11
7.2805774017
 21
5.3188737451
  0
LINE
  5
346
100
AcDbEntity
  8
03__ASM_ALL_CURVES
100
AcDbLine
 62
40
  6
CONTINUOUS
 10
7.1705570892
 20
5.3188737451
 11
7.1548399017
 21
5.3188737451
  0
LINE
  5
347
100
AcDbEntity
  8
03__ASM_ALL_CURVES
100
AcDbLine
 62
40
  6
CONTINUOUS
 10
6.9190820892
 20
5.3188737451
 11
6.9033649017
 21
5.3188737451
  0
LINE
  5
348
100
AcDbEntity
  8
03__ASM_ALL_CURVES
100
AcDbLine
 62
40
  6
CONTINUOUS
 10
6.6676070892
 20
5.3188737451
 11
6.6518899017
 21
5.3188737451
  0
LINE
  5
349
100
AcDbEntity
  8
03__ASM_ALL_CURVES
100
AcDbLine
 62
40
  6
CONTINUOUS
 10
6.0389195892
 20
5.3188737451
 11
6.0232024017
 21
5.3188737451
  0
LINE
  5
34A
100
AcDbEntity
  8
03__ASM_ALL_CURVES
100
AcDbLine
 62
40
  6
CONTINUOUS
 10
5.9131820892
 20
5.3188737451
 11
5.8974649017
 21
5.3188737451
  0
LINE
  5
34B
100
AcDbEntity
  8
03__ASM_ALL_CURVES
100
AcDbLine
 62
40
  6
CONTINUOUS
 10
4.762780215
 20
5.3188737451
 11
4.7470630275
 21
5.3188737451
  0
LINE
  5
34C
100
AcDbEntity
  8
03__ASM_ALL_CURVES
100
AcDbLine
 62
40
  6
CONTINUOUS
 10
4.5034466213
 20
5.3188737451
 11
4.4955880275
 21
5.3188737451
  0
LINE
  5
34D
100
AcDbEntity
  8
03__ASM_ALL_CURVES
100
AcDbLine
 62
40
  6
CONTINUOUS
 10
4.385567715
 20
5.3188737451
 11
4.3698505275
 21
5.3188737451
  0
LINE
  5
34E
100
AcDbEntity
  8
03__ASM_ALL_CURVES
100
AcDbLine
 62
40
  6
CONTINUOUS
 10
3.882617715
 20
5.3188737451
 11
3.8669005275
 21
5.3188737451
  0
LINE
  5
34F
100
AcDbEntity
  8
03__ASM_ALL_CURVES
100
AcDbLine
 62
40
  6
CONTINUOUS
 10
3.7490216213
 20
5.3188737451
 11
3.7411630275
 21
5.3188737451
  0
LINE
  5
350
100
AcDbEntity
  8
03__ASM_ALL_CURVES
100
AcDbLine
 62
40
  6
CONTINUOUS
 10
3.5918497463
 20
5.3188737451
 11
3.6547184963
 21
5.3188737451
  0
LINE
  5
351
100
AcDbEntity
  8
03__ASM_ALL_CURVES
100
AcDbLine
 62
40
  6
CONTINUOUS
 10
5.7481516205
 20
5.3188737451
 11
5.8110203705
 21
5.3188737451
  0
LINE
  5
352
100
AcDbEntity
  8
03__ASM_ALL_CURVES
100
AcDbLine
 62
40
  6
CONTINUOUS
 10
7.3827391205
 20
5.3188737451
 11
7.4456078705
 21
5.3188737451
  0
LINE
  5
353
100
AcDbEntity
  8
03__ASM_ALL_CURVES
100
AcDbLine
 62
40
  6
CONTINUOUS
 10
3.1078566213
 20
5.2643874951
 11
2.9569716213
 21
5.2685787451
  0
LINE
  5
354
100
AcDbEntity
  8
03__ASM_ALL_CURVES
100
AcDbLine
 62
40
  6
CONTINUOUS
 10
5.3960866213
 20
5.2727699951
 11
5.6978566213
 21
5.2643874951
  0
LINE
  5
355
100
AcDbEntity
  8
03__ASM_ALL_CURVES
100
AcDbLine
 62
40
  6
CONTINUOUS
 10
5.3960866213
 20
5.2769612451
 11
5.6978566213
 21
5.2601962451
  0
LINE
  5
356
100
AcDbEntity
  8
03__ASM_ALL_CURVES
100
AcDbLine
 62
40
  6
CONTINUOUS
 10
5.3960866213
 20
5.2811524951
 11
5.6978566213
 21
5.2560049951
  0
LINE
  5
357
100
AcDbEntity
  8
03__ASM_ALL_CURVES
100
AcDbLine
 62
40
  6
CONTINUOUS
 10
5.3960866213
 20
5.2853437451
 11
5.6978566213
 21
5.2518137451
  0
LINE
  5
358
100
AcDbEntity
  8
03__ASM_ALL_CURVES
100
AcDbLine
 62
40
  6
CONTINUOUS
 10
5.3960866213
 20
5.2895349951
 11
5.6978566213
 21
5.2476224951
  0
LINE
  5
359
100
AcDbEntity
  8
03__ASM_ALL_CURVES
100
AcDbLine
 62
40
  6
CONTINUOUS
 10
5.6978566213
 20
5.2434312451
 11
5.3960866213
 21
5.2937262451
  0
LINE
  5
35A
100
AcDbEntity
  8
03__ASM_ALL_CURVES
100
AcDbLine
 62
40
  6
CONTINUOUS
 10
5.8974649017
 20
5.3188737451
 11
5.8817477142
 21
5.3293518704
  0
LINE
  5
35B
100
AcDbEntity
  8
03__ASM_ALL_CURVES
100
AcDbLine
 62
40
  6
CONTINUOUS
 10
6.0232024017
 20
5.3188737451
 11
6.0074852142
 21
5.3293518704
  0
LINE
  5
35C
100
AcDbEntity
  8
03__ASM_ALL_CURVES
100
AcDbLine
 62
40
  6
CONTINUOUS
 10
5.9131820892
 20
5.4446112451
 11
5.9288992767
 21
5.4341331226
  0
LINE
  5
35D
100
AcDbEntity
  8
03__ASM_ALL_CURVES
100
AcDbLine
 62
40
  6
CONTINUOUS
 10
6.0546367767
 20
5.4341331226
 11
6.0624953705
 21
5.4236549926
  0
LINE
  5
35E
100
AcDbEntity
  8
03__ASM_ALL_CURVES
100
AcDbLine
 62
40
  6
CONTINUOUS
 10
6.9851987563
 20
3.1532994013
 11
6.979304811
 21
3.1768751826
  0
LINE
  5
35F
100
AcDbEntity
  8
03__ASM_ALL_CURVES
100
AcDbLine
 62
40
  6
CONTINUOUS
 10
7.0441382094
 20
3.2004509638
 11
7.0500321548
 21
3.1768751826
  0
LINE
  5
360
100
AcDbEntity
  8
03__ASM_ALL_CURVES
100
AcDbLine
 62
40
  6
CONTINUOUS
 10
6.8797891205
 20
5.4236549926
 11
6.8797891205
 21
5.4131768701
  0
LINE
  5
361
100
AcDbEntity
  8
03__ASM_ALL_CURVES
100
AcDbLine
 62
40
  6
CONTINUOUS
 10
6.8967895766
 20
3.1297236201
 11
6.8967895766
 21
3.2240267451
  0
LINE
  5
362
100
AcDbEntity
  8
03__ASM_ALL_CURVES
100
AcDbLine
 62
40
  6
CONTINUOUS
 10
6.9426578705
 20
5.3607862463
 11
6.9426578705
 21
5.3398299957
  0
LINE
  5
363
100
AcDbEntity
  8
03__ASM_ALL_CURVES
100
AcDbLine
 62
40
  6
CONTINUOUS
 10
6.9439411391
 20
3.2083095557
 11
6.9439411391
 21
3.192592372
  0
LINE
  5
364
100
AcDbEntity
  8
03__ASM_ALL_CURVES
100
AcDbLine
 62
40
  6
CONTINUOUS
 10
7.0055266205
 20
5.4446112451
 11
7.0055266205
 21
5.3188737451
  0
LINE
  5
365
100
AcDbEntity
  8
03__ASM_ALL_CURVES
100
AcDbLine
 62
40
  6
CONTINUOUS
 10
7.209850058
 20
5.3817424951
 11
7.2019914642
 21
5.3503081201
  0
LINE
  5
366
100
AcDbEntity
  8
03__ASM_ALL_CURVES
100
AcDbLine
 62
40
  6
CONTINUOUS
 10
3.1078566213
 20
5.2811524951
 11
2.9569716213
 21
5.2685787451
  0
LINE
  5
367
100
AcDbEntity
  8
03__ASM_ALL_CURVES
100
AcDbLine
 62
40
  6
CONTINUOUS
 10
3.1078566213
 20
5.2769612451
 11
2.9569716213
 21
5.2685787451
  0
LINE
  5
368
100
AcDbEntity
  8
03__ASM_ALL_CURVES
100
AcDbLine
 62
40
  6
CONTINUOUS
 10
3.1078566213
 20
5.2727699951
 11
2.9569716213
 21
5.2685787451
  0
LINE
  5
369
100
AcDbEntity
  8
03__ASM_ALL_CURVES
100
AcDbLine
 62
40
  6
CONTINUOUS
 10
6.1332227142
 20
5.3607862463
 11
6.1803742767
 21
5.3607862463
  0
LINE
  5
36A
100
AcDbEntity
  8
03__ASM_ALL_CURVES
100
AcDbLine
 62
40
  6
CONTINUOUS
 10
7.7992445892
 20
5.3817424951
 11
7.7599516205
 21
5.3817424951
  0
LINE
  5
36B
100
AcDbEntity
  8
03__ASM_ALL_CURVES
100
AcDbLine
 62
40
  6
CONTINUOUS
 10
6.6597484955
 20
5.3817424951
 11
6.6911828705
 21
5.3817424951
  0
LINE
  5
36C
100
AcDbEntity
  8
03__ASM_ALL_CURVES
100
AcDbLine
 62
40
  6
CONTINUOUS
 10
7.0055266205
 20
5.3817424951
 11
7.0683953705
 21
5.3817424951
  0
LINE
  5
36D
100
AcDbEntity
  8
03__ASM_ALL_CURVES
100
AcDbLine
 62
40
  6
CONTINUOUS
 10
7.6342141205
 20
5.3817424951
 11
7.6735070892
 21
5.3817424951
  0
LINE
  5
36E
100
AcDbEntity
  8
03__ASM_ALL_CURVES
100
AcDbLine
 62
40
  6
CONTINUOUS
 10
4.7470630275
 20
5.3922206176
 11
4.762780215
 21
5.3922206176
  0
LINE
  5
36F
100
AcDbEntity
  8
03__ASM_ALL_CURVES
100
AcDbLine
 62
40
  6
CONTINUOUS
 10
3.8669005275
 20
5.4026987476
 11
3.882617715
 21
5.4026987476
  0
LINE
  5
370
100
AcDbEntity
  8
03__ASM_ALL_CURVES
100
AcDbLine
 62
40
  6
CONTINUOUS
 10
4.3698505275
 20
5.4026987476
 11
4.385567715
 21
5.4026987476
  0
LINE
  5
371
100
AcDbEntity
  8
03__ASM_ALL_CURVES
100
AcDbLine
 62
40
  6
CONTINUOUS
 10
6.9190820892
 20
5.4446112451
 11
6.9033649017
 21
5.4446112451
  0
LINE
  5
372
100
AcDbEntity
  8
03__ASM_ALL_CURVES
100
AcDbLine
 62
40
  6
CONTINUOUS
 10
4.6606184963
 20
5.4446112451
 11
4.5977497463
 21
5.4446112451
  0
LINE
  5
373
100
AcDbEntity
  8
03__ASM_ALL_CURVES
100
AcDbLine
 62
40
  6
CONTINUOUS
 10
4.4091434963
 20
5.4446112451
 11
4.3619919338
 21
5.4446112451
  0
LINE
  5
374
100
AcDbEntity
  8
03__ASM_ALL_CURVES
100
AcDbLine
 62
40
  6
CONTINUOUS
 10
3.9061934963
 20
5.4446112451
 11
3.8590419338
 21
5.4446112451
  0
LINE
  5
375
100
AcDbEntity
  8
03__ASM_ALL_CURVES
100
AcDbLine
 62
40
  6
CONTINUOUS
 10
3.6154255275
 20
5.4446112451
 11
3.631142715
 21
5.4446112451
  0
LINE
  5
376
100
AcDbEntity
  8
03__ASM_ALL_CURVES
100
AcDbLine
 62
40
  6
CONTINUOUS
 10
4.7470630275
 20
5.4446112451
 11
4.762780215
 21
5.4446112451
  0
LINE
  5
377
100
AcDbEntity
  8
03__ASM_ALL_CURVES
100
AcDbLine
 62
40
  6
CONTINUOUS
 10
5.8974649017
 20
5.4446112451
 11
5.9131820892
 21
5.4446112451
  0
LINE
  5
378
100
AcDbEntity
  8
03__ASM_ALL_CURVES
100
AcDbLine
 62
40
  6
CONTINUOUS
 10
6.0232024017
 20
5.4446112451
 11
6.0389195892
 21
5.4446112451
  0
LINE
  5
379
100
AcDbEntity
  8
03__ASM_ALL_CURVES
100
AcDbLine
 62
40
  6
CONTINUOUS
 10
6.2432430267
 20
5.4446112451
 11
6.3218289642
 21
5.4446112451
  0
LINE
  5
37A
100
AcDbEntity
  8
03__ASM_ALL_CURVES
100
AcDbLine
 62
40
  6
CONTINUOUS
 10
6.6518899017
 20
5.4446112451
 11
6.6676070892
 21
5.4446112451
  0
LINE
  5
37B
100
AcDbEntity
  8
03__ASM_ALL_CURVES
100
AcDbLine
 62
40
  6
CONTINUOUS
 10
7.1548399017
 20
5.4446112451
 11
7.1705570892
 21
5.4446112451
  0
LINE
  5
37C
100
AcDbEntity
  8
03__ASM_ALL_CURVES
100
AcDbLine
 62
40
  6
CONTINUOUS
 10
7.5084766205
 20
5.4446112451
 11
7.5399109955
 21
5.4446112451
  0
LINE
  5
37D
100
AcDbEntity
  8
03__ASM_ALL_CURVES
100
AcDbLine
 62
40
  6
CONTINUOUS
 10
7.6342141205
 20
5.4446112451
 11
7.6970828705
 21
5.4446112451
  0
LINE
  5
37E
100
AcDbEntity
  8
03__ASM_ALL_CURVES
100
AcDbLine
 62
40
  6
CONTINUOUS
 10
7.7599516205
 20
5.4446112451
 11
7.7992445892
 21
5.4446112451
  0
LINE
  5
37F
100
AcDbEntity
  8
03__ASM_ALL_CURVES
100
AcDbLine
 62
40
  6
CONTINUOUS
 10
6.0389195892
 20
5.4446112451
 11
6.0546367767
 21
5.4341331226
  0
LINE
  5
380
100
AcDbEntity
  8
03__ASM_ALL_CURVES
100
AcDbLine
 62
40
  6
CONTINUOUS
 10
6.5025766205
 20
5.4446112451
 11
6.5654453705
 21
5.3188737451
  0
LINE
  5
381
100
AcDbEntity
  8
03__ASM_ALL_CURVES
100
AcDbLine
 62
40
  6
CONTINUOUS
 10
6.6204555267
 20
5.3503081201
 11
6.612596933
 21
5.3817424951
  0
LINE
  5
382
100
AcDbEntity
  8
03__ASM_ALL_CURVES
100
AcDbLine
 62
40
  6
CONTINUOUS
 10
7.0683953705
 20
5.4446112451
 11
7.0683953705
 21
5.3188737451
  0
LINE
  5
383
100
AcDbEntity
  8
03__ASM_ALL_CURVES
100
AcDbLine
 62
40
  6
CONTINUOUS
 10
7.0853958266
 20
3.1297236201
 11
7.0853958266
 21
3.2240267451
  0
LINE
  5
384
100
AcDbEntity
  8
03__ASM_ALL_CURVES
100
AcDbLine
 62
40
  6
CONTINUOUS
 10
7.1325473891
 20
3.2083095557
 11
7.1325473891
 21
3.192592372
  0
LINE
  5
385
100
AcDbEntity
  8
03__ASM_ALL_CURVES
100
AcDbLine
 62
40
  6
CONTINUOUS
 10
7.2032747329
 20
3.2240267451
 11
7.2032747329
 21
3.1297236201
  0
LINE
  5
386
100
AcDbEntity
  8
03__ASM_ALL_CURVES
100
AcDbLine
 62
40
  6
CONTINUOUS
 10
7.2570016205
 20
5.3398299957
 11
7.2570016205
 21
5.4446112451
  0
LINE
  5
387
100
AcDbEntity
  8
03__ASM_ALL_CURVES
100
AcDbLine
 62
40
  6
CONTINUOUS
 10
6.979304811
 20
3.1768751826
 11
6.9851987563
 21
3.2004509638
  0
LINE
  5
388
100
AcDbEntity
  8
03__ASM_ALL_CURVES
100
AcDbLine
 62
40
  6
CONTINUOUS
 10
7.5792039642
 20
5.3817424951
 11
7.5713453705
 21
5.3503081201
  0
LINE
  5
389
100
AcDbEntity
  8
03__ASM_ALL_CURVES
100
AcDbLine
 62
40
  6
CONTINUOUS
 10
8.2862292388
 20
4.3351843995
 11
8.2744413482
 21
4.3273258076
  0
LINE
  5
38A
100
AcDbEntity
  8
03__ASM_ALL_CURVES
100
AcDbLine
 62
40
  6
CONTINUOUS
 10
8.3451686919
 20
4.3666187782
 11
8.3569565825
 21
4.3744773701
  0
LINE
  5
38B
100
AcDbEntity
  8
03__ASM_ALL_CURVES
100
AcDbLine
 62
40
  6
CONTINUOUS
 10
8.3805323638
 20
4.2880328391
 11
8.3687444732
 21
4.2801742451
  0
LINE
  5
38C
100
AcDbEntity
  8
03__ASM_ALL_CURVES
100
AcDbLine
 62
40
  6
CONTINUOUS
 10
8.4748354888
 20
4.3351843995
 11
8.4630475982
 21
4.3273258076
  0
LINE
  5
38D
100
AcDbEntity
  8
03__ASM_ALL_CURVES
100
AcDbLine
 62
40
  6
CONTINUOUS
 10
2.9569716213
 20
5.2685787451
 11
3.1078566213
 21
5.2937262451
  0
LINE
  5
38E
100
AcDbEntity
  8
03__ASM_ALL_CURVES
100
AcDbLine
 62
40
  6
CONTINUOUS
 10
3.1078566213
 20
5.2895349951
 11
2.9569716213
 21
5.2685787451
  0
LINE
  5
38F
100
AcDbEntity
  8
03__ASM_ALL_CURVES
100
AcDbLine
 62
40
  6
CONTINUOUS
 10
3.1078566213
 20
5.2853437451
 11
2.9569716213
 21
5.2685787451
  0
LINE
  5
390
100
AcDbEntity
  8
03__ASM_ALL_CURVES
100
AcDbLine
 62
40
  6
CONTINUOUS
 10
6.6518899017
 20
5.3188737451
 11
6.6361727142
 21
5.3293518704
  0
LINE
  5
391
100
AcDbEntity
  8
03__ASM_ALL_CURVES
100
AcDbLine
 62
40
  6
CONTINUOUS
 10
8.3569565825
 20
4.2801742451
 11
8.3451686919
 21
4.2880328391
  0
LINE
  5
392
100
AcDbEntity
  8
03__ASM_ALL_CURVES
100
AcDbLine
 62
40
  6
CONTINUOUS
 10
6.6676070892
 20
5.4446112451
 11
6.6833242767
 21
5.4341331226
  0
LINE
  5
393
100
AcDbEntity
  8
03__ASM_ALL_CURVES
100
AcDbLine
 62
40
  6
CONTINUOUS
 10
8.2744413482
 20
4.3744773701
 11
8.2862292388
 21
4.3666187782
  0
LINE
  5
394
100
AcDbEntity
  8
03__ASM_ALL_CURVES
100
AcDbLine
 62
40
  6
CONTINUOUS
 10
6.6361727142
 20
5.3293518704
 11
6.6204555267
 21
5.3503081201
  0
LINE
  5
395
100
AcDbEntity
  8
03__ASM_ALL_CURVES
100
AcDbLine
 62
40
  6
CONTINUOUS
 10
6.6833242767
 20
5.4341331226
 11
6.6911828705
 21
5.4236549926
  0
LINE
  5
396
100
AcDbEntity
  8
03__ASM_ALL_CURVES
100
AcDbLine
 62
40
  6
CONTINUOUS
 10
7.3198703705
 20
5.4446112451
 11
7.3198703705
 21
5.3398299957
  0
LINE
  5
397
100
AcDbEntity
  8
03__ASM_ALL_CURVES
100
AcDbLine
 62
40
  6
CONTINUOUS
 10
7.3211536391
 20
3.2083095557
 11
7.3211536391
 21
3.192592372
  0
LINE
  5
398
100
AcDbEntity
  8
03__ASM_ALL_CURVES
100
AcDbLine
 62
40
  6
CONTINUOUS
 10
7.3827391205
 20
5.4446112451
 11
7.3827391205
 21
5.3188737451
  0
LINE
  5
399
100
AcDbEntity
  8
03__ASM_ALL_CURVES
100
AcDbLine
 62
40
  6
CONTINUOUS
 10
7.0500321548
 20
3.1768751826
 11
7.0441382094
 21
3.1532994013
  0
LINE
  5
39A
100
AcDbEntity
  8
03__ASM_ALL_CURVES
100
AcDbLine
 62
40
  6
CONTINUOUS
 10
6.9439411391
 20
3.192592372
 11
6.9380471938
 21
3.1847337745
  0
LINE
  5
39B
100
AcDbEntity
  8
03__ASM_ALL_CURVES
100
AcDbLine
 62
40
  6
CONTINUOUS
 10
6.9851987563
 20
3.2004509638
 11
6.9969866469
 21
3.2161681532
  0
LINE
  5
39C
100
AcDbEntity
  8
03__ASM_ALL_CURVES
100
AcDbLine
 62
40
  6
CONTINUOUS
 10
6.9380471938
 20
3.1847337745
 11
6.9262593032
 21
3.1768751826
  0
LINE
  5
39D
100
AcDbEntity
  8
03__ASM_ALL_CURVES
100
AcDbLine
 62
40
  6
CONTINUOUS
 10
6.9969866469
 20
3.2161681532
 11
7.0087745376
 21
3.2240267451
  0
LINE
  5
39E
100
AcDbEntity
  8
03__ASM_ALL_CURVES
100
AcDbLine
 62
40
  6
CONTINUOUS
 10
7.0323503188
 20
3.1375822141
 11
7.0205624282
 21
3.1297236201
  0
LINE
  5
39F
100
AcDbEntity
  8
03__ASM_ALL_CURVES
100
AcDbLine
 62
40
  6
CONTINUOUS
 10
7.1266534438
 20
3.1847337745
 11
7.1148655532
 21
3.1768751826
  0
LINE
  5
3A0
100
AcDbEntity
  8
03__ASM_ALL_CURVES
100
AcDbLine
 62
40
  6
CONTINUOUS
 10
6.9033649017
 20
5.3188737451
 11
6.8876477142
 21
5.3293518704
  0
LINE
  5
3A1
100
AcDbEntity
  8
03__ASM_ALL_CURVES
100
AcDbLine
 62
40
  6
CONTINUOUS
 10
8.3687444732
 20
4.3744773701
 11
8.3805323638
 21
4.3666187782
  0
LINE
  5
3A2
100
AcDbEntity
  8
03__ASM_ALL_CURVES
100
AcDbLine
 62
40
  6
CONTINUOUS
 10
6.8876477142
 20
5.4026987476
 11
6.9347992767
 21
5.3712643688
  0
LINE
  5
3A3
100
AcDbEntity
  8
03__ASM_ALL_CURVES
100
AcDbLine
 62
40
  6
CONTINUOUS
 10
8.4630475982
 20
4.3744773701
 11
8.4748354888
 21
4.3666187782
  0
LINE
  5
3A4
100
AcDbEntity
  8
03__ASM_ALL_CURVES
100
AcDbLine
 62
40
  6
CONTINUOUS
 10
6.9347992767
 20
5.4341331226
 11
6.9190820892
 21
5.4446112451
  0
LINE
  5
3A5
100
AcDbEntity
  8
03__ASM_ALL_CURVES
100
AcDbLine
 62
40
  6
CONTINUOUS
 10
7.1548399017
 20
5.3188737451
 11
7.1391227142
 21
5.3293518704
  0
LINE
  5
3A6
100
AcDbEntity
  8
03__ASM_ALL_CURVES
100
AcDbLine
 62
40
  6
CONTINUOUS
 10
6.8876477142
 20
5.3293518704
 11
6.8719305267
 21
5.3503081201
  0
LINE
  5
3A7
100
AcDbEntity
  8
03__ASM_ALL_CURVES
100
AcDbLine
 62
40
  6
CONTINUOUS
 10
6.8797891205
 20
5.4131768701
 11
6.8876477142
 21
5.4026987476
  0
LINE
  5
3A8
100
AcDbEntity
  8
03__ASM_ALL_CURVES
100
AcDbLine
 62
40
  6
CONTINUOUS
 10
6.9347992767
 20
5.3712643688
 11
6.9426578705
 21
5.3607862463
  0
LINE
  5
3A9
100
AcDbEntity
  8
03__ASM_ALL_CURVES
100
AcDbLine
 62
40
  6
CONTINUOUS
 10
6.9426578705
 20
5.4236549926
 11
6.9347992767
 21
5.4341331226
  0
LINE
  5
3AA
100
AcDbEntity
  8
03__ASM_ALL_CURVES
100
AcDbLine
 62
40
  6
CONTINUOUS
 10
7.1234055267
 20
5.3503081201
 11
7.115546933
 21
5.3817424951
  0
LINE
  5
3AB
100
AcDbEntity
  8
03__ASM_ALL_CURVES
100
AcDbLine
 62
40
  6
CONTINUOUS
 10
7.2019914642
 20
5.4131768701
 11
7.209850058
 21
5.3817424951
  0
LINE
  5
3AC
100
AcDbEntity
  8
03__ASM_ALL_CURVES
100
AcDbLine
 62
40
  6
CONTINUOUS
 10
7.5084766205
 20
5.3188737451
 11
7.5084766205
 21
5.4446112451
  0
LINE
  5
3AD
100
AcDbEntity
  8
0
100
AcDbLine
 62
7
  6
CONTINUOUS
 10
7.5864716213
 20
3.6315267451
 11
7.5864716213
 21
4.8785267451
  0
LINE
  5
3AE
100
AcDbEntity
  8
03__ASM_ALL_CURVES
100
AcDbLine
 62
40
  6
CONTINUOUS
 10
7.6342141205
 20
5.3188737451
 11
7.6342141205
 21
5.4446112451
  0
LINE
  5
3AF
100
AcDbEntity
  8
03__ASM_ALL_CURVES
100
AcDbLine
 62
40
  6
CONTINUOUS
 10
7.2798960219
 20
3.1532994013
 11
7.2740020766
 21
3.1297236201
  0
LINE
  5
3B0
100
AcDbEntity
  8
03__ASM_ALL_CURVES
100
AcDbLine
 62
40
  6
CONTINUOUS
 10
7.0441382094
 20
3.1532994013
 11
7.0323503188
 21
3.1375822141
  0
LINE
  5
3B1
100
AcDbEntity
  8
03__ASM_ALL_CURVES
100
AcDbLine
 62
40
  6
CONTINUOUS
 10
7.1325473891
 20
3.192592372
 11
7.1266534438
 21
3.1847337745
  0
LINE
  5
3B2
100
AcDbEntity
  8
03__ASM_ALL_CURVES
100
AcDbLine
 62
40
  6
CONTINUOUS
 10
7.2740020766
 20
3.2083095557
 11
7.2798960219
 21
3.2161681532
  0
LINE
  5
3B3
100
AcDbEntity
  8
03__ASM_ALL_CURVES
100
AcDbLine
 62
40
  6
CONTINUOUS
 10
7.2916839126
 20
3.1690165879
 11
7.2798960219
 21
3.1532994013
  0
LINE
  5
3B4
100
AcDbEntity
  8
03__ASM_ALL_CURVES
100
AcDbLine
 62
40
  6
CONTINUOUS
 10
7.2798960219
 20
3.2161681532
 11
7.2916839126
 21
3.2240267451
  0
LINE
  5
3B5
100
AcDbEntity
  8
03__ASM_ALL_CURVES
100
AcDbLine
 62
40
  6
CONTINUOUS
 10
7.3152596938
 20
3.1847337745
 11
7.2916839126
 21
3.1690165879
  0
LINE
  5
3B6
100
AcDbEntity
  8
03__ASM_ALL_CURVES
100
AcDbLine
 62
40
  6
CONTINUOUS
 10
7.2805774017
 20
5.3188737451
 11
7.2648602142
 21
5.3293518704
  0
LINE
  5
3B7
100
AcDbEntity
  8
03__ASM_ALL_CURVES
100
AcDbLine
 62
40
  6
CONTINUOUS
 10
7.1705570892
 20
5.4446112451
 11
7.1862742767
 21
5.4341331226
  0
LINE
  5
3B8
100
AcDbEntity
  8
03__ASM_ALL_CURVES
100
AcDbLine
 62
40
  6
CONTINUOUS
 10
7.1391227142
 20
5.3293518704
 11
7.1234055267
 21
5.3503081201
  0
LINE
  5
3B9
100
AcDbEntity
  8
03__ASM_ALL_CURVES
100
AcDbLine
 62
40
  6
CONTINUOUS
 10
7.1862742767
 20
5.4341331226
 11
7.2019914642
 21
5.4131768701
  0
LINE
  5
3BA
100
AcDbEntity
  8
03__ASM_ALL_CURVES
100
AcDbLine
 62
40
  6
CONTINUOUS
 10
7.2648602142
 20
5.3293518704
 11
7.2570016205
 21
5.3398299957
  0
LINE
  5
3BB
100
AcDbEntity
  8
0
100
AcDbLine
 62
7
  6
CONTINUOUS
 10
7.6864716213
 20
3.6310267451
 11
7.6864716213
 21
4.8790267451
  0
LINE
  5
3BC
100
AcDbEntity
  8
0
100
AcDbLine
 62
7
  6
CONTINUOUS
 10
7.7364716213
 20
3.6310267451
 11
7.7364716213
 21
4.8790267451
  0
LINE
  5
3BD
100
AcDbEntity
  8
03__ASM_ALL_CURVES
100
AcDbLine
 62
40
  6
CONTINUOUS
 10
7.7599516205
 20
5.3188737451
 11
7.7599516205
 21
5.4446112451
  0
LINE
  5
3BE
100
AcDbEntity
  8
03__ASM_ALL_CURVES
100
AcDbLine
 62
40
  6
CONTINUOUS
 10
7.8228203705
 20
5.4236549926
 11
7.8228203705
 21
5.4026987476
  0
LINE
  5
3BF
100
AcDbEntity
  8
0
100
AcDbLine
 62
7
  6
CONTINUOUS
 10
7.8394716213
 20
3.6310267451
 11
7.8394716213
 21
4.8790267451
  0
LINE
  5
3C0
100
AcDbEntity
  8
03__ASM_ALL_CURVES
100
AcDbLine
 62
40
  6
CONTINUOUS
 10
7.3211536391
 20
3.192592372
 11
7.3152596938
 21
3.1847337745
  0
LINE
  5
3C1
100
AcDbEntity
  8
03__ASM_ALL_CURVES
100
AcDbLine
 62
40
  6
CONTINUOUS
 10
8.2921231841
 20
4.343042997
 11
8.2862292388
 21
4.3351843995
  0
LINE
  5
3C2
100
AcDbEntity
  8
03__ASM_ALL_CURVES
100
AcDbLine
 62
40
  6
CONTINUOUS
 10
8.3333808013
 20
4.3509015888
 11
8.3451686919
 21
4.3666187782
  0
LINE
  5
3C3
100
AcDbEntity
  8
03__ASM_ALL_CURVES
100
AcDbLine
 62
40
  6
CONTINUOUS
 10
8.3923202544
 20
4.3037500263
 11
8.3805323638
 21
4.2880328391
  0
LINE
  5
3C4
100
AcDbEntity
  8
0
100
AcDbLine
 62
7
  6
CONTINUOUS
 10
7.9864716213
 20
3.6625267451
 11
7.9554716213
 21
3.6315267451
  0
LINE
  5
3C5
100
AcDbEntity
  8
03__ASM_ALL_CURVES
100
AcDbLine
 62
40
  6
CONTINUOUS
 10
7.5399109955
 20
5.4446112451
 11
7.555628183
 21
5.4341331226
  0
LINE
  5
3C6
100
AcDbEntity
  8
03__ASM_ALL_CURVES
100
AcDbLine
 62
40
  6
CONTINUOUS
 10
7.7992445892
 20
5.4446112451
 11
7.8149617767
 21
5.4341331226
  0
LINE
  5
3C7
100
AcDbEntity
  8
0
100
AcDbLine
 62
7
  6
CONTINUOUS
 10
7.9864716213
 20
4.8475267451
 11
7.9554716213
 21
4.8785267451
  0
LINE
  5
3C8
100
AcDbEntity
  8
03__ASM_ALL_CURVES
100
AcDbLine
 62
40
  6
CONTINUOUS
 10
8.3451686919
 20
4.2880328391
 11
8.3333808013
 21
4.3037500263
  0
LINE
  5
3C9
100
AcDbEntity
  8
03__ASM_ALL_CURVES
100
AcDbLine
 62
40
  6
CONTINUOUS
 10
8.2862292388
 20
4.3666187782
 11
8.2921231841
 21
4.3587601807
  0
LINE
  5
3CA
100
AcDbEntity
  8
03__ASM_ALL_CURVES
100
AcDbLine
 62
40
  6
CONTINUOUS
 10
7.5713453705
 20
5.4131768701
 11
7.5792039642
 21
5.3817424951
  0
LINE
  5
3CB
100
AcDbEntity
  8
0
100
AcDbLine
 62
7
  6
CONTINUOUS
 10
7.8894716213
 20
3.6310267451
 11
7.8894716213
 21
4.8790267451
  0
LINE
  5
3CC
100
AcDbEntity
  8
0
100
AcDbLine
 62
7
  6
CONTINUOUS
 10
7.9104716213
 20
3.6315267451
 11
7.9104716213
 21
4.8785267451
  0
LINE
  5
3CD
100
AcDbEntity
  8
0
100
AcDbLine
 62
7
  6
CONTINUOUS
 10
7.9554716213
 20
3.6315267451
 11
7.9554716213
 21
4.8785267451
  0
LINE
  5
3CE
100
AcDbEntity
  8
0
100
AcDbLine
 62
7
  6
CONTINUOUS
 10
7.9864716213
 20
3.6625267451
 11
7.9864716213
 21
4.8475267451
  0
LINE
  5
3CF
100
AcDbEntity
  8
03__ASM_ALL_CURVES
100
AcDbLine
 62
40
  6
CONTINUOUS
 10
8.4807294341
 20
4.343042997
 11
8.4748354888
 21
4.3351843995
  0
LINE
  5
3D0
100
AcDbEntity
  8
03__ASM_ALL_CURVES
100
AcDbLine
 62
40
  6
CONTINUOUS
 10
7.555628183
 20
5.4341331226
 11
7.5713453705
 21
5.4131768701
  0
LINE
  5
3D1
100
AcDbEntity
  8
03__ASM_ALL_CURVES
100
AcDbLine
 62
40
  6
CONTINUOUS
 10
8.3805323638
 20
4.3666187782
 11
8.3923202544
 21
4.3509015888
  0
LINE
  5
3D2
100
AcDbEntity
  8
03__ASM_ALL_CURVES
100
AcDbLine
 62
40
  6
CONTINUOUS
 10
8.4748354888
 20
4.3666187782
 11
8.4807294341
 21
4.3587601807
  0
LINE
  5
3D3
100
AcDbEntity
  8
03__ASM_ALL_CURVES
100
AcDbLine
 62
40
  6
CONTINUOUS
 10
7.7992445892
 20
5.3817424951
 11
7.8228203705
 21
5.3188737451
  0
LINE
  5
3D4
100
AcDbEntity
  8
03__ASM_ALL_CURVES
100
AcDbLine
 62
40
  6
CONTINUOUS
 10
8.2449716216
 20
4.2801742451
 11
8.2449716216
 21
4.3744773701
  0
LINE
  5
3D5
100
AcDbEntity
  8
03__ASM_ALL_CURVES
100
AcDbLine
 62
40
  6
CONTINUOUS
 10
8.327486856
 20
4.3273258076
 11
8.3333808013
 21
4.3509015888
  0
LINE
  5
3D6
100
AcDbEntity
  8
03__ASM_ALL_CURVES
100
AcDbLine
 62
40
  6
CONTINUOUS
 10
7.8149617767
 20
5.4341331226
 11
7.8228203705
 21
5.4236549926
  0
LINE
  5
3D7
100
AcDbEntity
  8
03__ASM_ALL_CURVES
100
AcDbLine
 62
40
  6
CONTINUOUS
 10
8.3333808013
 20
4.3037500263
 11
8.327486856
 21
4.3273258076
  0
LINE
  5
3D8
100
AcDbEntity
  8
03__ASM_ALL_CURVES
100
AcDbLine
 62
40
  6
CONTINUOUS
 10
8.2921231841
 20
4.3587601807
 11
8.2921231841
 21
4.343042997
  0
LINE
  5
3D9
100
AcDbEntity
  8
03__ASM_ALL_CURVES
100
AcDbLine
 62
40
  6
CONTINUOUS
 10
8.4335778716
 20
4.2801742451
 11
8.4335778716
 21
4.3744773701
  0
LINE
  5
3DA
100
AcDbEntity
  8
03__ASM_ALL_CURVES
100
AcDbLine
 62
40
  6
CONTINUOUS
 10
8.4807294341
 20
4.3587601807
 11
8.4807294341
 21
4.343042997
  0
LINE
  5
3DB
100
AcDbEntity
  8
03__ASM_ALL_CURVES
100
AcDbLine
 62
40
  6
CONTINUOUS
 10
8.3982141997
 20
4.3273258076
 11
8.3923202544
 21
4.3037500263
  0
LINE
  5
3DC
100
AcDbEntity
  8
03__ASM_ALL_CURVES
100
AcDbLine
 62
40
  6
CONTINUOUS
 10
8.4630475982
 20
4.3273258076
 11
8.4807294341
 21
4.2801742451
  0
LINE
  5
3DD
100
AcDbEntity
  8
03__ASM_ALL_CURVES
100
AcDbLine
 62
40
  6
CONTINUOUS
 10
8.3923202544
 20
4.3509015888
 11
8.3982141997
 21
4.3273258076
  0
LINE
  5
3DE
100
AcDbEntity
  8
03__ASM_ALL_CURVES
100
AcDbLine
 62
40
  6
CONTINUOUS
 10
8.5514567779
 20
4.3744773701
 11
8.5514567779
 21
4.2801742451
  0
LINE
  5
3DF
100
AcDbEntity
  8
03__ASM_ALL_CURVES
100
AcDbLine
 62
40
  6
CONTINUOUS
 10
8.6457599029
 20
4.3744773701
 11
8.6457599029
 21
4.2801742451
  0
CIRCLE
  5
3E0
100
AcDbEntity
  8
0
100
AcDbCircle
 62
7
  6
CONTINUOUS
 10
6.2984716213
 20
4.2550267451
 40
0.117
  0
ARC
  5
3E1
100
AcDbEntity
  8
0
100
AcDbCircle
 62
7
  6
CONTINUOUS
 10
3.3554716213
 20
4.4320267451
 40
0.094
100
AcDbArc
 50
90.0
 51
131.267427381
  0
ARC
  5
3E2
100
AcDbEntity
  8
0
100
AcDbCircle
 62
7
  6
CONTINUOUS
 10
3.3554716213
 20
4.0780267451
 40
0.094
100
AcDbArc
 50
228.732572619
 51
270.0
  0
ARC
  5
3E3
100
AcDbEntity
  8
0
100
AcDbCircle
 62
7
  6
CONTINUOUS
 10
5.741199434
 20
3.5980267451
 40
0.027
100
AcDbArc
 50
7.4481904995
 51
77.4821012864
  0
ARC
  5
3E4
100
AcDbEntity
  8
0
100
AcDbCircle
 62
7
  6
CONTINUOUS
 10
5.741199434
 20
4.9120267451
 40
0.027
100
AcDbArc
 50
282.5178987136
 51
352.5518095005
  0
SPLINE
  5
3E5
100
AcDbEntity
  8
0
100
AcDbSpline
 62
7
  6
CONTINUOUS
 70
0
 71
3
 72
23
 73
19
 74
17
 42
0.0000001
 43
0.0000001
 44
0.0000000001
 12
0.0
 22
-0.2668779986
 32
-0.0261676166
 13
0.0
 23
-0.0271074061
 33
-0.2715812457
 40
0.0
 40
0.0
 40
0.0
 40
0.0
 40
0.0625
 40
0.125
 40
0.1875
 40
0.25
 40
0.3125
 40
0.375
 40
0.4375
 40
0.5
 40
0.5625
 40
0.625
 40
0.6875
 40
0.75
 40
0.8125
 40
0.875
 40
0.9375
 40
1.0
 40
1.0
 40
1.0
 40
1.0
 10
2.9722216213
 20
4.2550267451
 30
0.17175
 10
2.9722216213
 20
4.2494667868
 30
0.1712048413
 10
2.9722216213
 20
4.2384077287
 30
0.169829189
 10
2.9722216213
 20
4.2214539905
 30
0.1694777203
 10
2.9722216213
 20
4.205778281
 30
0.1631342173
 10
2.9722216213
 20
4.1891675951
 30
0.1597948981
 10
2.9722216213
 20
4.1750187865
 30
0.150430878
 10
2.9722216213
 20
4.1594362224
 30
0.1440166029
 10
2.9722216213
 20
4.147126803
 30
0.1318280489
 10
2.9722216213
 20
4.1327452713
 30
0.1221706398
 10
2.9722216213
 20
4.1233790443
 30
0.1081629298
 10
2.9722216213
 20
4.1113975053
 30
0.0961457258
 10
2.9722216213
 20
4.1048619096
 30
0.0805167987
 10
2.9722216213
 20
4.0954665146
 30
0.0664265604
 10
2.9722216213
 20
4.0920643738
 30
0.0497932896
 10
2.9722216213
 20
4.0856676735
 30
0.0342513907
 10
2.9722216213
 20
4.0852559572
 30
0.0168870368
 10
2.9722216213
 20
4.0838414827
 30
0.0056579351
 10
2.9722216213
 20
4.0832767451
 30
-0.0000000075
 11
2.9722216213
 21
4.2550267451
 31
0.17175
 11
2.9722216213
 21
4.2383468702
 31
0.170114524
 11
2.9722216213
 21
4.2216669953
 31
0.1684790479
 11
2.9722216213
 21
4.2056224516
 31
0.1636349146
 11
2.9722216213
 21
4.189577908
 31
0.1587907813
 11
2.9722216213
 21
4.1747798272
 31
0.1509225022
 11
2.9722216213
 21
4.1599817465
 31
0.1430542231
 11
2.9722216213
 21
4.146781451
 31
0.1322499064
 11
2.9722216213
 21
4.1335811554
 31
0.1214455897
 11
2.9722216213
 21
4.122943159
 31
0.1084946808
 11
2.9722216213
 21
4.1123051625
 31
0.095543772
 11
2.9722216213
 21
4.1043852764
 31
0.0807732468
 11
2.9722216213
 21
4.0964653903
 31
0.0660027217
 11
2.9722216213
 21
4.0915652806
 31
0.0499751849
 11
2.9722216213
 21
4.0866651709
 31
0.0339476482
 11
2.9722216213
 21
4.084970958
 31
0.0169738204
 11
2.9722216213
 21
4.0832767451
 31
-0.0000000075
  0
SPLINE
  5
3E6
100
AcDbEntity
  8
0
100
AcDbSpline
 62
7
  6
CONTINUOUS
 70
0
 71
3
 72
23
 73
19
 74
17
 42
0.0000001
 43
0.0000001
 44
0.0000000001
 12
0.0
 22
-0.0261676166
 32
0.2668779986
 13
0.0
 23
-0.2715812457
 33
0.0271074061
 40
0.0
 40
0.0
 40
0.0
 40
0.0
 40
0.0625
 40
0.125
 40
0.1875
 40
0.25
 40
0.3125
 40
0.375
 40
0.4375
 40
0.5
 40
0.5625
 40
0.625
 40
0.6875
 40
0.75
 40
0.8125
 40
0.875
 40
0.9375
 40
1.0
 40
1.0
 40
1.0
 40
1.0
 10
2.9722216213
 20
4.4267767451
 30
-0.0
 10
2.9722216213
 20
4.4262315864
 30
0.0055599583
 10
2.9722216213
 20
4.4248559341
 30
0.0166190164
 10
2.9722216213
 20
4.4245044654
 30
0.0335727546
 10
2.9722216213
 20
4.4181609624
 30
0.0492484641
 10
2.9722216213
 20
4.4148216432
 30
0.06585915
 10
2.9722216213
 20
4.4054576231
 30
0.0800079586
 10
2.9722216213
 20
4.399043348
 30
0.0955905227
 10
2.9722216213
 20
4.386854794
 30
0.1078999421
 10
2.9722216213
 20
4.3771973849
 30
0.1222814738
 10
2.9722216213
 20
4.3631896749
 30
0.1316477008
 10
2.9722216213
 20
4.3511724709
 30
0.1436292398
 10
2.9722216213
 20
4.3355435438
 30
0.1501648355
 10
2.9722216213
 20
4.3214533055
 30
0.1595602305
 10
2.9722216213
 20
4.3048200347
 30
0.1629623713
 10
2.9722216213
 20
4.2892781358
 30
0.1693590716
 10
2.9722216213
 20
4.2719137819
 30
0.1697707879
 10
2.9722216213
 20
4.2606846802
 30
0.1711852624
 10
2.9722216213
 20
4.2550267376
 30
0.17175
 11
2.9722216213
 21
4.4267767451
 31
-0.0
 11
2.9722216213
 21
4.4251412691
 31
0.0166798749
 11
2.9722216213
 21
4.423505793
 31
0.0333597498
 11
2.9722216213
 21
4.4186616597
 31
0.0494042935
 11
2.9722216213
 21
4.4138175264
 31
0.0654488371
 11
2.9722216213
 21
4.4059492473
 31
0.0802469179
 11
2.9722216213
 21
4.3980809682
 31
0.0950449986
 11
2.9722216213
 21
4.3872766515
 31
0.1082452941
 11
2.9722216213
 21
4.3764723348
 31
0.1214455897
 11
2.9722216213
 21
4.3635214259
 31
0.1320835861
 11
2.9722216213
 21
4.3505705171
 31
0.1427215826
 11
2.9722216213
 21
4.3357999919
 31
0.1506414687
 11
2.9722216213
 21
4.3210294668
 31
0.1585613548
 11
2.9722216213
 21
4.30500193
 31
0.1634614645
 11
2.9722216213
 21
4.2889743933
 31
0.1683615742
 11
2.9722216213
 21
4.2720005654
 31
0.1700557871
 11
2.9722216213
 21
4.2550267376
 31
0.17175
  0
SPLINE
  5
3E7
100
AcDbEntity
  8
0
100
AcDbSpline
 62
7
  6
CONTINUOUS
 70
0
 71
3
 72
15
 73
11
 74
9
 42
0.0000001
 43
0.0000001
 44
0.0000000001
 12
0.0
 22
0.1617702498
 32
0.0
 13
0.0
 23
-0.1617702498
 33
0.0
 40
0.0
 40
0.0
 40
0.0
 40
0.0
 40
0.125
 40
0.25
 40
0.375
 40
0.5
 40
0.625
 40
0.75
 40
0.875
 40
1.0
 40
1.0
 40
1.0
 40
1.0
 10
7.8394716213
 20
4.8425267451
 30
0.0
 10
7.8394716213
 20
4.8492671722
 30
0.0
 10
7.8367901127
 20
4.8627480263
 30
0.0
 10
7.825335677
 20
4.8798908008
 30
0.0
 10
7.8081929025
 20
4.8913452365
 30
0.0
 10
7.7879716213
 20
4.8953674994
 30
0.0
 10
7.76775034
 20
4.8913452365
 30
0.0
 10
7.7506075656
 20
4.8798908008
 30
0.0
 10
7.7391531299
 20
4.8627480263
 30
0.0
 10
7.7364716213
 20
4.8492671722
 30
0.0
 10
7.7364716213
 20
4.8425267451
 30
0.0
 11
7.8394716213
 21
4.8425267451
 31
0.0
 11
7.8355514172
 21
4.8622349419
 31
0.0
 11
7.8243876205
 21
4.8789427443
 31
0.0
 11
7.807679818
 21
4.890106541
 31
0.0
 11
7.7879716213
 21
4.8940267451
 31
0.0
 11
7.7682634245
 21
4.890106541
 31
0.0
 11
7.751555622
 21
4.8789427443
 31
0.0
 11
7.7403918253
 21
4.8622349419
 31
0.0
 11
7.7364716213
 21
4.8425267451
 31
0.0
  0
SPLINE
  5
3E8
100
AcDbEntity
  8
0
100
AcDbSpline
 62
7
  6
CONTINUOUS
 70
0
 71
3
 72
15
 73
11
 74
9
 42
0.0000001
 43
0.0000001
 44
0.0000000001
 12
0.0
 22
-0.1617702498
 32
0.0
 13
0.0
 23
0.1617702498
 33
0.0
 40
0.0
 40
0.0
 40
0.0
 40
0.0
 40
0.125
 40
0.25
 40
0.375
 40
0.5
 40
0.625
 40
0.75
 40
0.875
 40
1.0
 40
1.0
 40
1.0
 40
1.0
 10
7.8394716213
 20
3.6675267451
 30
0.0
 10
7.8394716213
 20
3.660786318
 30
0.0
 10
7.8367901127
 20
3.6473054639
 30
0.0
 10
7.825335677
 20
3.6301626894
 30
0.0
 10
7.8081929025
 20
3.6187082537
 30
0.0
 10
7.7879716213
 20
3.6146859908
 30
0.0
 10
7.76775034
 20
3.6187082537
 30
0.0
 10
7.7506075656
 20
3.6301626894
 30
0.0
 10
7.7391531299
 20
3.6473054639
 30
0.0
 10
7.7364716213
 20
3.660786318
 30
0.0
 10
7.7364716213
 20
3.6675267451
 30
0.0
 11
7.8394716213
 21
3.6675267451
 31
0.0
 11
7.8355514172
 21
3.6478185483
 31
0.0
 11
7.8243876205
 21
3.6311107459
 31
0.0
 11
7.807679818
 21
3.6199469492
 31
0.0
 11
7.7879716213
 21
3.6160267451
 31
0.0
 11
7.7682634245
 21
3.6199469492
 31
0.0
 11
7.751555622
 21
3.6311107459
 31
0.0
 11
7.7403918253
 21
3.6478185483
 31
0.0
 11
7.7364716213
 21
3.6675267451
 31
0.0
  0
SPLINE
  5
3E9
100
AcDbEntity
  8
0
100
AcDbSpline
 62
7
  6
CONTINUOUS
 70
0
 71
3
 72
16
 73
12
 74
10
 42
0.0000001
 43
0.0000001
 44
0.0000000001
 12
0.0906480335
 22
0.2719441006
 32
0.0
 13
-0.0906480335
 23
0.2719441006
 33
0.0
 40
0.0
 40
0.0
 40
0.0
 40
0.0
 40
0.1184548733
 40
0.230565332
 40
0.3393089466
 40
0.4465959239
 40
0.5535015371
 40
0.6607803311
 40
0.769505023
 40
0.8815660643
 40
1.0
 40
1.0
 40
1.0
 40
1.0
 10
3.5436002109
 20
3.9740267451
 30
0.0
 10
3.5471794447
 20
3.9847644464
 30
0.0
 10
3.5536105313
 20
4.0058504933
 30
0.0
 10
3.561129961
 20
4.0374115481
 30
0.0
 10
3.5662181884
 20
4.0683803662
 30
0.0
 10
3.5688050506
 20
4.0991634358
 30
0.0
 10
3.5688038623
 20
4.1299172368
 30
0.0
 10
3.5662150217
 20
4.1606975282
 30
0.0
 10
3.561126287
 20
4.19165883
 30
0.0
 10
3.5536080302
 20
4.2232113616
 30
0.0
 10
3.547178812
 20
4.2442909417
 30
0.0
 10
3.5436002109
 20
4.2550267451
 30
0.0
 11
3.5436002109
 21
3.9740267451
 31
0.0
 11
3.5534386805
 21
4.006525773
 31
0.0
 11
3.560825851
 21
4.0378021634
 31
0.0
 11
3.5658304684
 21
4.0685696159
 31
0.0
 11
3.5683774337
 21
4.0992182371
 31
0.0
 11
3.5683762635
 21
4.1298631856
 31
0.0
 11
3.5658273234
 21
4.1605092887
 31
0.0
 11
3.5608218844
 21
4.1912711119
 31
0.0
 11
3.5534371129
 21
4.2225335135
 31
0.0
 11
3.5436002109
 21
4.2550267451
 31
0.0
  0
SPLINE
  5
3EA
100
AcDbEntity
  8
0
100
AcDbSpline
 62
7
  6
CONTINUOUS
 70
0
 71
3
 72
17
 73
13
 74
11
 42
0.0000001
 43
0.0000001
 44
0.0000000001
 12
-0.1487434696
 22
0.2576312467
 32
0.0
 13
0.1487434696
 23
0.2576312467
 33
0.0
 40
0.0
 40
0.0
 40
0.0
 40
0.0
 40
0.1169386465
 40
0.2216811606
 40
0.3184580982
 40
0.4103908543
 40
0.5000417254
 40
0.5896883004
 40
0.6816074548
 40
0.7783545182
 40
0.8830694657
 40
1.0
 40
1.0
 40
1.0
 40
1.0
 10
3.4419424726
 20
3.9740267451
 30
0.0
 10
3.4361445192
 20
3.9840690949
 30
0.0
 10
3.4258046916
 20
4.0034989423
 30
0.0
 10
3.4134310682
 20
4.0326010199
 30
0.0
 10
3.4047776215
 20
4.0604425826
 30
0.0
 10
3.3996205169
 20
4.0876259022
 30
0.0
 10
3.3979036365
 20
4.1145387871
 30
0.0
 10
3.3996235222
 20
4.1414501119
 30
0.0
 10
3.4047822738
 20
4.1686282525
 30
0.0
 10
3.4134351256
 20
4.1964625585
 30
0.0
 10
3.425806713
 20
4.2255583982
 30
0.0
 10
3.4361449214
 20
4.244985092
 30
0.0
 10
3.4419424726
 20
4.2550267451
 30
0.0
 11
3.4419424726
 21
3.9740267451
 31
0.0
 11
3.4257162411
 21
4.0047984021
 31
0.0
 11
3.4136314846
 21
4.0335190387
 31
0.0
 11
3.4051788114
 21
4.0610401073
 31
0.0
 11
3.400145926
 21
4.0879218225
 31
0.0
 11
3.3984716216
 21
4.1145391786
 31
0.0
 11
3.4001488639
 21
4.1411550691
 31
0.0
 11
3.4051835106
 21
4.1680323378
 31
0.0
 11
3.4136351256
 21
4.1955444344
 31
0.0
 11
3.4257172768
 21
4.2242572701
 31
0.0
 11
3.4419424726
 21
4.2550267451
 31
0.0
  0
SPLINE
  5
3EB
100
AcDbEntity
  8
0
100
AcDbSpline
 62
7
  6
CONTINUOUS
 70
0
 71
3
 72
16
 73
12
 74
10
 42
0.0000001
 43
0.0000001
 44
0.0000000001
 12
0.0906480335
 22
0.2719441006
 32
0.0
 13
-0.0906480335
 23
0.2719441006
 33
0.0
 40
0.0
 40
0.0
 40
0.0
 40
0.0
 40
0.1184548733
 40
0.230565332
 40
0.3393089466
 40
0.4465959239
 40
0.5535015371
 40
0.6607803311
 40
0.769505023
 40
0.8815660643
 40
1.0
 40
1.0
 40
1.0
 40
1.0
 10
3.5436002109
 20
4.2550267451
 30
0.0
 10
3.5471794447
 20
4.2657644464
 30
0.0
 10
3.5536105313
 20
4.2868504933
 30
0.0
 10
3.561129961
 20
4.3184115481
 30
0.0
 10
3.5662181884
 20
4.3493803662
 30
0.0
 10
3.5688050506
 20
4.3801634358
 30
0.0
 10
3.5688038623
 20
4.4109172368
 30
0.0
 10
3.5662150217
 20
4.4416975282
 30
0.0
 10
3.561126287
 20
4.47265883
 30
0.0
 10
3.5536080302
 20
4.5042113616
 30
0.0
 10
3.547178812
 20
4.5252909417
 30
0.0
 10
3.5436002109
 20
4.5360267451
 30
0.0
 11
3.5436002109
 21
4.2550267451
 31
0.0
 11
3.5534386805
 21
4.287525773
 31
0.0
 11
3.560825851
 21
4.3188021634
 31
0.0
 11
3.5658304684
 21
4.3495696159
 31
0.0
 11
3.5683774337
 21
4.3802182371
 31
0.0
 11
3.5683762635
 21
4.4108631856
 31
0.0
 11
3.5658273234
 21
4.4415092887
 31
0.0
 11
3.5608218844
 21
4.4722711119
 31
0.0
 11
3.5534371129
 21
4.5035335135
 31
0.0
 11
3.5436002109
 21
4.5360267451
 31
0.0
  0
SPLINE
  5
3EC
100
AcDbEntity
  8
0
100
AcDbSpline
 62
7
  6
CONTINUOUS
 70
0
 71
3
 72
17
 73
13
 74
11
 42
0.0000001
 43
0.0000001
 44
0.0000000001
 12
-0.1487434696
 22
0.2576312467
 32
0.0
 13
0.1487434696
 23
0.2576312467
 33
0.0
 40
0.0
 40
0.0
 40
0.0
 40
0.0
 40
0.1169386465
 40
0.2216811606
 40
0.3184580982
 40
0.4103908543
 40
0.5000417254
 40
0.5896883004
 40
0.6816074548
 40
0.7783545182
 40
0.8830694657
 40
1.0
 40
1.0
 40
1.0
 40
1.0
 10
3.4419424726
 20
4.2550267451
 30
0.0
 10
3.4361445192
 20
4.2650690949
 30
0.0
 10
3.4258046916
 20
4.2844989423
 30
0.0
 10
3.4134310682
 20
4.3136010199
 30
0.0
 10
3.4047776215
 20
4.3414425826
 30
0.0
 10
3.3996205169
 20
4.3686259022
 30
0.0
 10
3.3979036365
 20
4.3955387871
 30
0.0
 10
3.3996235222
 20
4.4224501119
 30
0.0
 10
3.4047822738
 20
4.4496282525
 30
0.0
 10
3.4134351256
 20
4.4774625585
 30
0.0
 10
3.425806713
 20
4.5065583982
 30
0.0
 10
3.4361449214
 20
4.525985092
 30
0.0
 10
3.4419424726
 20
4.5360267451
 30
0.0
 11
3.4419424726
 21
4.2550267451
 31
0.0
 11
3.4257162411
 21
4.2857984021
 31
0.0
 11
3.4136314846
 21
4.3145190387
 31
0.0
 11
3.4051788114
 21
4.3420401073
 31
0.0
 11
3.400145926
 21
4.3689218225
 31
0.0
 11
3.3984716216
 21
4.3955391786
 31
0.0
 11
3.4001488639
 21
4.4221550691
 31
0.0
 11
3.4051835106
 21
4.4490323378
 31
0.0
 11
3.4136351256
 21
4.4765444344
 31
0.0
 11
3.4257172768
 21
4.5052572701
 31
0.0
 11
3.4419424726
 21
4.5360267451
 31
0.0
  0
SPLINE
  5
3ED
100
AcDbEntity
  8
0
100
AcDbSpline
 62
7
  6
CONTINUOUS
 70
0
 71
3
 72
15
 73
11
 74
9
 42
0.0000001
 43
0.0000001
 44
0.0000000001
 12
0.0
 22
0.1617702498
 32
0.0
 13
0.0
 23
-0.1617702498
 33
0.0
 40
0.0
 40
0.0
 40
0.0
 40
0.0
 40
0.125
 40
0.25
 40
0.375
 40
0.5
 40
0.625
 40
0.75
 40
0.875
 40
1.0
 40
1.0
 40
1.0
 40
1.0
 10
5.6969716213
 20
4.9365267451
 30
0.0
 10
5.6969716213
 20
4.9432671722
 30
0.0
 10
5.6942901127
 20
4.9567480263
 30
0.0
 10
5.682835677
 20
4.9738908008
 30
0.0
 10
5.6656929025
 20
4.9853452365
 30
0.0
 10
5.6454716213
 20
4.9893674994
 30
0.0
 10
5.62525034
 20
4.9853452365
 30
0.0
 10
5.6081075656
 20
4.9738908008
 30
0.0
 10
5.5966531299
 20
4.9567480263
 30
0.0
 10
5.5939716213
 20
4.9432671722
 30
0.0
 10
5.5939716213
 20
4.9365267451
 30
0.0
 11
5.6969716213
 21
4.9365267451
 31
0.0
 11
5.6930514172
 21
4.9562349419
 31
0.0
 11
5.6818876205
 21
4.9729427443
 31
0.0
 11
5.665179818
 21
4.984106541
 31
0.0
 11
5.6454716213
 21
4.9880267451
 31
0.0
 11
5.6257634245
 21
4.984106541
 31
0.0
 11
5.609055622
 21
4.9729427443
 31
0.0
 11
5.5978918253
 21
4.9562349419
 31
0.0
 11
5.5939716213
 21
4.9365267451
 31
0.0
  0
SPLINE
  5
3EE
100
AcDbEntity
  8
0
100
AcDbSpline
 62
7
  6
CONTINUOUS
 70
0
 71
3
 72
15
 73
11
 74
9
 42
0.0000001
 43
0.0000001
 44
0.0000000001
 12
0.0
 22
-0.1617702498
 32
0.0
 13
0.0
 23
0.1617702498
 33
0.0
 40
0.0
 40
0.0
 40
0.0
 40
0.0
 40
0.125
 40
0.25
 40
0.375
 40
0.5
 40
0.625
 40
0.75
 40
0.875
 40
1.0
 40
1.0
 40
1.0
 40
1.0
 10
5.6969716213
 20
3.5735267451
 30
0.0
 10
5.6969716213
 20
3.566786318
 30
0.0
 10
5.6942901127
 20
3.5533054639
 30
0.0
 10
5.682835677
 20
3.5361626894
 30
0.0
 10
5.6656929025
 20
3.5247082537
 30
0.0
 10
5.6454716213
 20
3.5206859908
 30
0.0
 10
5.62525034
 20
3.5247082537
 30
0.0
 10
5.6081075656
 20
3.5361626894
 30
0.0
 10
5.5966531299
 20
3.5533054639
 30
0.0
 10
5.5939716213
 20
3.566786318
 30
0.0
 10
5.5939716213
 20
3.5735267451
 30
0.0
 11
5.6969716213
 21
3.5735267451
 31
0.0
 11
5.6930514172
 21
3.5538185483
 31
0.0
 11
5.6818876205
 21
3.5371107459
 31
0.0
 11
5.665179818
 21
3.5259469492
 31
0.0
 11
5.6454716213
 21
3.5220267451
 31
0.0
 11
5.6257634245
 21
3.5259469492
 31
0.0
 11
5.609055622
 21
3.5371107459
 31
0.0
 11
5.5978918253
 21
3.5538185483
 31
0.0
 11
5.5939716213
 21
3.5735267451
 31
0.0
  0
SPLINE
  5
3EF
100
AcDbEntity
  8
0
100
AcDbSpline
 62
7
  6
CONTINUOUS
 70
0
 71
3
 72
22
 73
18
 74
16
 42
0.0000001
 43
0.0000001
 44
0.0000000001
 12
0.0
 22
0.3254237275
 32
0.0
 13
0.0
 23
-0.3254237275
 33
0.0
 40
0.0
 40
0.0
 40
0.0
 40
0.0
 40
0.054493817
 40
0.1130356816
 40
0.1761496376
 40
0.2432916344
 40
0.3141853401
 40
0.3873374915
 40
0.4624506453
 40
0.5376894262
 40
0.6127791192
 40
0.6859339066
 40
0.7567758497
 40
0.8239238129
 40
0.8869935263
 40
0.9455376495
 40
1.0
 40
1.0
 40
1.0
 40
1.0
 10
6.1814716213
 20
3.8463190256
 30
0.0
 10
6.1814716213
 20
3.8522302193
 30
0.0
 10
6.1833655106
 20
3.8645406724
 30
0.0
 10
6.1911888257
 20
3.8821698994
 30
0.0
 10
6.2035924792
 20
3.8986643528
 30
0.0
 10
6.2200339865
 20
3.9132125284
 30
0.0
 10
6.2398222968
 20
3.9250084818
 30
0.0
 10
6.2622132255
 20
3.9333662999
 30
0.0
 10
6.2862008991
 20
3.9376957575
 30
0.0
 10
6.3107856537
 20
3.9376916536
 30
0.0
 10
6.3347696645
 20
3.9333552435
 30
0.0
 10
6.3571508199
 20
3.9249936967
 30
0.0
 10
6.3769320172
 20
3.9131954315
 30
0.0
 10
6.3933633198
 20
3.8986503621
 30
0.0
 10
6.4057614965
 20
3.8821570131
 30
0.0
 10
6.4135793539
 20
3.8645340266
 30
0.0
 10
6.4154716213
 20
3.8522268059
 30
0.0
 10
6.4154716213
 20
3.8463190256
 30
0.0
 11
6.1814716213
 21
3.8463190256
 31
0.0
 11
6.1840242963
 21
3.8638679215
 31
0.0
 11
6.1915853879
 21
3.8813541198
 31
0.0
 11
6.2038183536
 21
3.897852483
 31
0.0
 11
6.2201180038
 21
3.9124033034
 31
0.0
 11
6.2399061193
 21
3.9242640865
 31
0.0
 11
6.2621990365
 21
3.9326142417
 31
0.0
 11
6.2862521882
 21
3.936965747
 31
0.0
 11
6.3107366724
 21
3.9369616558
 31
0.0
 11
6.334780969
 21
3.9326040969
 31
0.0
 11
6.3570722599
 21
3.924247157
 31
0.0
 11
6.3768430423
 21
3.9123902223
 31
0.0
 11
6.3931411491
 21
3.8978347581
 31
0.0
 11
6.4053626723
 21
3.8813458347
 31
0.0
 11
6.412921808
 21
3.86385799
 31
0.0
 11
6.4154716213
 21
3.8463190256
 31
0.0
  0
SPLINE
  5
3F0
100
AcDbEntity
  8
0
100
AcDbSpline
 62
7
  6
CONTINUOUS
 70
0
 71
3
 72
22
 73
18
 74
16
 42
0.0000001
 43
0.0000001
 44
0.0000000001
 12
0.0
 22
-0.3254237275
 32
0.0
 13
0.0
 23
0.3254237275
 33
0.0
 40
0.0
 40
0.0
 40
0.0
 40
0.0
 40
0.054493817
 40
0.1130356816
 40
0.1761496376
 40
0.2432916344
 40
0.3141853401
 40
0.3873374915
 40
0.4624506453
 40
0.5376894262
 40
0.6127791192
 40
0.6859339066
 40
0.7567758497
 40
0.8239238129
 40
0.8869935263
 40
0.9455376495
 40
1.0
 40
1.0
 40
1.0
 40
1.0
 10
6.4154716213
 20
4.6637344646
 30
0.0
 10
6.4154716213
 20
4.6578232709
 30
0.0
 10
6.4135777319
 20
4.6455128178
 30
0.0
 10
6.4057544169
 20
4.6278835908
 30
0.0
 10
6.3933507634
 20
4.6113891374
 30
0.0
 10
6.3769092561
 20
4.5968409617
 30
0.0
 10
6.3571209458
 20
4.5850450084
 30
0.0
 10
6.3347300171
 20
4.5766871903
 30
0.0
 10
6.3107423434
 20
4.5723577327
 30
0.0
 10
6.2861575889
 20
4.5723618366
 30
0.0
 10
6.262173578
 20
4.5766982467
 30
0.0
 10
6.2397924227
 20
4.5850597935
 30
0.0
 10
6.2200112254
 20
4.5968580587
 30
0.0
 10
6.2035799228
 20
4.6114031281
 30
0.0
 10
6.1911817461
 20
4.6278964771
 30
0.0
 10
6.1833638886
 20
4.6455194636
 30
0.0
 10
6.1814716213
 20
4.6578266843
 30
0.0
 10
6.1814716213
 20
4.6637344646
 30
0.0
 11
6.4154716213
 21
4.6637344646
 31
0.0
 11
6.4129189463
 21
4.6461855687
 31
0.0
 11
6.4053578546
 21
4.6286993704
 31
0.0
 11
6.3931248889
 21
4.6122010072
 31
0.0
 11
6.3768252387
 21
4.5976501868
 31
0.0
 11
6.3570371232
 21
4.5857894037
 31
0.0
 11
6.334744206
 21
4.5774392485
 31
0.0
 11
6.3106910544
 21
4.5730877431
 31
0.0
 11
6.2862065702
 21
4.5730918344
 31
0.0
 11
6.2621622735
 21
4.5774493933
 31
0.0
 11
6.2398709827
 21
4.5858063332
 31
0.0
 11
6.2201002002
 21
4.5976632679
 31
0.0
 11
6.2038020934
 21
4.612218732
 31
0.0
 11
6.1915805703
 21
4.6287076555
 31
0.0
 11
6.1840214346
 21
4.6461955002
 31
0.0
 11
6.1814716213
 21
4.6637344646
 31
0.0
  0
SPLINE
  5
3F1
100
AcDbEntity
  8
0
100
AcDbSpline
 62
7
  6
CONTINUOUS
 70
0
 71
3
 72
22
 73
18
 74
16
 42
0.0000001
 43
0.0000001
 44
0.0000000001
 12
-0.2309194683
 22
-0.0467432619
 32
0.0
 13
-0.2309194972
 23
0.0467432591
 33
0.0
 40
0.0
 40
0.0
 40
0.0
 40
0.0
 40
0.0113384027
 40
0.0448599351
 40
0.0988838369
 40
0.170479993
 40
0.2568965372
 40
0.3537779113
 40
0.4577123117
 40
0.5625844323
 40
0.6644329913
 40
0.7576767128
 40
0.8397437242
 40
0.9072441929
 40
0.957971831
 40
0.9893829585
 40
1.0
 40
1.0
 40
1.0
 40
1.0
 10
6.4154716213
 20
4.8330267451
 30
0.0
 10
6.4145988686
 20
4.8328500805
 30
0.0
 10
6.4111443933
 20
4.8321583189
 30
0.0
 10
6.4035171972
 20
4.8306966953
 30
0.0
 10
6.3912045878
 20
4.8285464148
 30
0.0
 10
6.3747342459
 20
4.8260778237
 30
0.0
 10
6.3548506875
 20
4.8237279463
 30
0.0
 10
6.3323604381
 20
4.8219112504
 30
0.0
 10
6.3083644188
 20
4.8209693949
 30
0.0
 10
6.2839597502
 20
4.8210726471
 30
0.0
 10
6.2604214659
 20
4.8221846954
 30
0.0
 10
6.2387325871
 20
4.8240825729
 30
0.0
 10
6.2198032519
 20
4.8264144277
 30
0.0
 10
6.2042526522
 20
4.8287955654
 30
0.0
 10
6.1926787695
 20
4.8308370407
 30
0.0
 10
6.1855251742
 20
4.8322127962
 30
0.0
 10
6.1822888486
 20
4.8328613201
 30
0.0
 10
6.1814716213
 20
4.8330267451
 30
0.0
 11
6.4154716213
 21
4.8330267451
 31
0.0
 11
6.4128522588
 21
4.8325022253
 31
0.0
 11
6.4050955749
 21
4.8310160397
 31
0.0
 11
6.3925569782
 21
4.8288272805
 31
0.0
 11
6.3758747336
 21
4.8263289784
 31
0.0
 11
6.3556550934
 21
4.8239423359
 31
0.0
 11
6.332903408
 21
4.8221074695
 31
0.0
 11
6.3084349087
 21
4.821148876
 31
0.0
 11
6.28372693
 21
4.8212532068
 31
0.0
 11
6.25975773
 21
4.8223835688
 31
0.0
 11
6.2378725994
 21
4.8242957865
 31
0.0
 11
6.2186820958
 21
4.8266571925
 31
0.0
 11
6.2029617351
 21
4.8290625788
 31
0.0
 11
6.1911916955
 21
4.8311378303
 31
0.0
 11
6.1839242717
 21
4.8325352691
 31
0.0
 11
6.1814716213
 21
4.8330267451
 31
0.0
  0
SPLINE
  5
3F2
100
AcDbEntity
  8
0
100
AcDbSpline
 62
7
  6
CONTINUOUS
 70
0
 71
3
 72
11
 73
7
 74
5
 42
0.0000001
 43
0.0000001
 44
0.0000000001
 12
0.0368966329
 22
-0.0000109839
 32
0.0
 13
0.0160401107
 23
0.0334717738
 33
0.0
 40
0.0
 40
0.0
 40
0.0
 40
0.0
 40
0.0065653845
 40
0.4111366934
 40
0.7602454904
 40
1.0
 40
1.0
 40
1.0
 40
1.0
 10
6.3812062411
 20
3.8505879462
 30
0.0
 10
6.381286988
 20
3.8505879222
 30
0.0
 10
6.3863440557
 20
3.8505964304
 30
0.0
 10
6.3957572611
 20
3.851778697
 30
0.0
 10
6.4065541637
 20
3.8583571028
 30
0.0
 10
6.4106269754
 20
3.8644728874
 30
0.0
 10
6.4119088717
 20
3.8671478903
 30
0.0
 11
6.3812062411
 21
3.8505879462
 31
0.0
 11
6.3814485077
 21
3.8505883548
 31
0.0
 11
6.3961152887
 21
3.852965306
 31
0.0
 11
6.4069247381
 21
3.8598602405
 31
0.0
 11
6.4119088717
 21
3.8671478903
 31
0.0
  0
SPLINE
  5
3F3
100
AcDbEntity
  8
0
100
AcDbSpline
 62
7
  6
CONTINUOUS
 70
0
 71
3
 72
10
 73
6
 74
4
 42
0.0000001
 43
0.0000001
 44
0.0000000001
 12
-0.036850769
 22
0.0000727097
 32
0.0
 13
-0.0161260772
 23
-0.0333878379
 33
0.0
 40
0.0
 40
0.0
 40
0.0
 40
0.0
 40
0.3429797959
 40
0.7225414456
 40
1.0
 40
1.0
 40
1.0
 40
1.0
 10
6.2156734316
 20
4.6594788
 30
0.0
 10
6.2114604085
 20
4.6594871127
 30
0.0
 10
6.2025977364
 20
4.6585349476
 30
0.0
 10
6.191257233
 20
4.6527417451
 30
0.0
 10
6.1865363336
 20
4.6460025811
 30
0.0
 10
6.1850448943
 20
4.6429146673
 30
0.0
 11
6.2156734316
 21
4.6594788
 31
0.0
 11
6.2031971213
 21
4.6578545263
 31
0.0
 11
6.191010454
 21
4.6511714132
 31
0.0
 11
6.1850448943
 21
4.6429146673
 31
0.0
  0
SPLINE
  5
3F4
100
AcDbEntity
  8
0
100
AcDbSpline
 62
7
  6
CONTINUOUS
 70
0
 71
3
 72
22
 73
18
 74
16
 42
0.0000001
 43
0.0000001
 44
0.0000000001
 12
0.2309194894
 22
0.0467432654
 32
0.0
 13
0.2309195126
 23
-0.0467432631
 33
0.0
 40
0.0
 40
0.0
 40
0.0
 40
0.0
 40
0.0112808304
 40
0.0446338859
 40
0.098396346
 40
0.1696683847
 40
0.2557219881
 40
0.3522165025
 40
0.4558090709
 40
0.5605152554
 40
0.6624596327
 40
0.7560623728
 40
0.8386140768
 40
0.9065789851
 40
0.9576640555
 40
0.9893057799
 40
1.0
 40
1.0
 40
1.0
 40
1.0
 10
6.1814716213
 20
3.6770267451
 30
0.0
 10
6.1823399425
 20
3.6772025127
 30
0.0
 10
6.1857770036
 20
3.6778908249
 30
0.0
 10
6.1933665201
 20
3.679345642
 30
0.0
 10
6.2056204941
 20
3.681487387
 30
0.0
 10
6.2220165207
 20
3.6839490651
 30
0.0
 10
6.2418153445
 20
3.6862968742
 30
0.0
 10
6.2642190571
 20
3.6881191678
 30
0.0
 10
6.288144118
 20
3.6890754528
 30
0.0
 10
6.3125164786
 20
3.6889925188
 30
0.0
 10
6.3360783749
 20
3.6878991183
 30
0.0
 10
6.3578422075
 20
3.6860106899
 30
0.0
 10
6.376874845
 20
3.6836766398
 30
0.0
 10
6.3925277429
 20
3.6812854011
 30
0.0
 10
6.4041834181
 20
3.6792317075
 30
0.0
 10
6.4113884181
 20
3.6778465995
 30
0.0
 10
6.4146484532
 20
3.6771933727
 30
0.0
 10
6.4154716213
 20
3.6770267451
 30
0.0
 11
6.1814716213
 21
3.6770267451
 31
0.0
 11
6.1840776782
 21
3.6775486293
 31
0.0
 11
6.1917952999
 21
3.6790277542
 31
0.0
 11
6.204272923
 21
3.6812076144
 31
0.0
 11
6.2208790184
 21
3.6836988077
 31
0.0
 11
6.2410127957
 21
3.6860834117
 31
0.0
 11
6.2636726085
 21
3.6879236052
 31
0.0
 11
6.2880599429
 21
3.6888965454
 31
0.0
 11
6.3127289066
 21
3.6888127659
 31
0.0
 11
6.3367215956
 21
3.6877013882
 31
0.0
 11
6.3586923882
 21
3.6857978449
 31
0.0
 11
6.3779975279
 21
3.6834330346
 31
0.0
 11
6.3938268978
 21
3.6810166156
 31
0.0
 11
6.4056802571
 21
3.6789289308
 31
0.0
 11
6.4130011345
 21
3.6775217586
 31
0.0
 11
6.4154716213
 21
3.6770267451
 31
0.0
  0
SPLINE
  5
3F5
100
AcDbEntity
  8
0
100
AcDbSpline
 62
7
  6
CONTINUOUS
 70
0
 71
3
 72
11
 73
7
 74
5
 42
0.0000001
 43
0.0000001
 44
0.0000000001
 12
-0.0159098767
 22
0.0333753742
 32
0.0
 13
-0.0367803736
 23
0.0000854535
 33
0.0
 40
0.0
 40
0.0
 40
0.0
 40
0.0
 40
0.1875066248
 40
0.5061676295
 40
0.8792176943
 40
1.0
 40
1.0
 40
1.0
 40
1.0
 10
6.4119094844
 20
4.6429170852
 30
0.0
 10
6.410915082
 20
4.6450031197
 30
0.0
 10
6.4076111056
 20
4.6503219533
 30
0.0
 10
6.3987285097
 20
4.6570314955
 30
0.0
 10
6.3888048786
 20
4.6592203406
 30
0.0
 10
6.382747346
 20
4.6594675481
 30
0.0
 10
6.3812665399
 20
4.6594709885
 30
0.0
 11
6.4119094844
 21
4.6429170852
 31
0.0
 11
6.4082188573
 21
4.6487439536
 31
0.0
 11
6.3989680999
 21
4.6558916339
 31
0.0
 11
6.3857089147
 21
4.6592818279
 31
0.0
 11
6.3812665399
 21
4.6594709885
 31
0.0
  0
SPLINE
  5
3F6
100
AcDbEntity
  8
0
100
AcDbSpline
 62
7
  6
CONTINUOUS
 70
0
 71
3
 72
11
 73
7
 74
5
 42
0.0000001
 43
0.0000001
 44
0.0000000001
 12
0.0160931111
 22
-0.0334901176
 32
0.0
 13
0.0368285456
 23
-0.0000023877
 33
0.0
 40
0.0
 40
0.0
 40
0.0
 40
0.0
 40
0.2455533994
 40
0.564630955
 40
0.8928980335
 40
1.0
 40
1.0
 40
1.0
 40
1.0
 10
6.1850402885
 20
3.8671324722
 30
0.0
 10
6.1863575278
 20
3.8643912682
 30
0.0
 10
6.1903045967
 20
3.8585335539
 30
0.0
 10
6.199877974
 20
3.8525160599
 30
0.0
 10
6.2090956252
 20
3.8507682583
 30
0.0
 10
6.2144416391
 20
3.8505872571
 30
0.0
 10
6.2157564424
 20
3.8505871719
 30
0.0
 11
6.1850402885
 21
3.8671324722
 31
0.0
 11
6.1901890718
 21
3.859684516
 31
0.0
 11
6.2000147403
 21
3.8532735535
 31
0.0
 11
6.2118129918
 21
3.8507263951
 31
0.0
 11
6.2157564424
 21
3.8505871719
 31
0.0
  0
SPLINE
  5
3F7
100
AcDbEntity
  8
0
100
AcDbSpline
 62
7
  6
CONTINUOUS
 70
0
 71
3
 72
12
 73
8
 74
6
 42
0.0000001
 43
0.0000001
 44
0.0000000001
 12
0.090859192
 22
-0.0000058908
 32
0.0
 13
0.0743069324
 23
0.0520310727
 33
0.0
 40
0.0
 40
0.0
 40
0.0
 40
0.0
 40
0.101870827
 40
0.2814866526
 40
0.4941604186
 40
0.7364278995
 40
1.0
 40
1.0
 40
1.0
 40
1.0
 10
6.2157564424
 20
3.8505871719
 30
0.0
 10
6.2188417427
 20
3.8505869719
 30
0.0
 10
6.2273619275
 20
3.8512626115
 30
0.0
 10
6.2419570864
 20
3.8547515138
 30
0.0
 10
6.2598635707
 20
3.8617731089
 30
0.0
 10
6.2791326073
 20
3.8718919833
 30
0.0
 10
6.2919432099
 20
3.8802850321
 30
0.0
 10
6.2984716213
 20
3.8848563451
 30
0.0
 11
6.2157564424
 21
3.8505871719
 31
0.0
 11
6.2249816681
 21
3.8512478058
 31
0.0
 11
6.2408724513
 21
3.8548474938
 31
0.0
 11
6.2588891878
 21
3.8617456652
 31
0.0
 11
6.2783880841
 21
3.871883101
 31
0.0
 11
6.2984716213
 21
3.8848563451
 31
0.0
  0
SPLINE
  5
3F8
100
AcDbEntity
  8
0
100
AcDbSpline
 62
7
  6
CONTINUOUS
 70
0
 71
3
 72
11
 73
7
 74
5
 42
0.0000001
 43
0.0000001
 44
0.0000000001
 12
-0.0909886793
 22
0.0002113981
 32
0.0
 13
-0.0744449977
 23
-0.0519083659
 33
0.0
 40
0.0
 40
0.0
 40
0.0
 40
0.0
 40
0.1410548739
 40
0.3786023656
 40
0.6655155953
 40
1.0
 40
1.0
 40
1.0
 40
1.0
 10
6.3812665399
 20
4.6594709885
 30
0.0
 10
6.3769884076
 20
4.6594809281
 30
0.0
 10
6.3655224752
 20
4.6582301402
 30
0.0
 10
6.3461519832
 20
4.6523780216
 30
0.0
 10
6.3226190072
 20
4.6411738981
 30
0.0
 10
6.3067718515
 20
4.630984658
 30
0.0
 10
6.2984716213
 20
4.625197145
 30
0.0
 11
6.3812665399
 21
4.6594709885
 31
0.0
 11
6.368506698
 21
4.6582604275
 31
0.0
 11
6.3477726421
 21
4.6523547637
 31
0.0
 11
6.3241733909
 21
4.6413502003
 31
0.0
 11
6.2984716213
 21
4.625197145
 31
0.0
  0
SPLINE
  5
3F9
100
AcDbEntity
  8
0
100
AcDbSpline
 62
7
  6
CONTINUOUS
 70
0
 71
3
 72
14
 73
10
 74
8
 42
0.0000001
 43
0.0000001
 44
0.0000000001
 12
-0.1684527097
 22
0.3090030944
 32
0.0
 13
0.1684527097
 23
0.3090030944
 33
0.0
 40
0.0
 40
0.0
 40
0.0
 40
0.0
 40
0.1546757524
 40
0.2971498922
 40
0.4331013552
 40
0.5670155335
 40
0.7029600408
 40
0.8453689352
 40
1.0
 40
1.0
 40
1.0
 40
1.0
 10
4.3448557952
 20
3.5463877462
 30
0.0
 10
4.336170612
 20
3.5623195082
 30
0.0
 10
4.3208791284
 20
3.5937362434
 30
0.0
 10
4.304457281
 20
3.6419847677
 30
0.0
 10
4.2960280517
 20
3.689843676
 30
0.0
 10
4.2960317773
 20
3.7377002961
 30
0.0
 10
4.304466139
 20
3.7855495779
 30
0.0
 10
4.3208869083
 20
3.8337837071
 30
0.0
 10
4.3361731213
 20
3.8651885848
 30
0.0
 10
4.3448557952
 20
3.881115744
 30
0.0
 11
4.3448557952
 21
3.5463877462
 31
0.0
 11
4.3213416733
 21
3.5954832359
 31
0.0
 11
4.3054839515
 21
3.643051464
 31
0.0
 11
4.2973871133
 21
3.6902076574
 31
0.0
 11
4.2973906816
 21
3.7373369308
 31
0.0
 11
4.3054935297
 21
3.7844896081
 31
0.0
 11
4.3213476339
 21
3.8320348375
 31
0.0
 11
4.3448557952
 21
3.881115744
 31
0.0
  0
SPLINE
  5
3FA
100
AcDbEntity
  8
0
100
AcDbSpline
 62
7
  6
CONTINUOUS
 70
0
 71
3
 72
14
 73
10
 74
8
 42
0.0000001
 43
0.0000001
 44
0.0000000001
 12
-0.1783866806
 22
0.6544511679
 32
0.0
 13
0.1783866806
 23
0.6544511679
 33
0.0
 40
0.0
 40
0.0
 40
0.0
 40
0.0
 40
0.1488473348
 40
0.2910338478
 40
0.4305819521
 40
0.5695392444
 40
0.7090777779
 40
0.8511965268
 40
1.0
 40
1.0
 40
1.0
 40
1.0
 10
4.3448557952
 20
3.9202987473
 30
0.0
 10
4.3360050012
 20
3.9527698513
 30
0.0
 10
4.3205116344
 20
4.0167797522
 30
0.0
 10
4.304289736
 20
4.1128675411
 30
0.0
 10
4.2960243438
 20
4.207744103
 30
0.0
 10
4.2960279828
 20
4.3023895194
 30
0.0
 10
4.3042985275
 20
4.3972480286
 30
0.0
 10
4.3205196564
 20
4.4933080148
 30
0.0
 10
4.3360076093
 20
4.5572932073
 30
0.0
 10
4.3448557952
 20
4.5897547429
 30
0.0
 11
4.3448557952
 21
3.9202987473
 31
0.0
 11
4.3213416733
 21
4.0184897267
 31
0.0
 11
4.3054839515
 21
4.1136261829
 31
0.0
 11
4.2973871133
 21
4.2079385698
 31
0.0
 11
4.2973906816
 21
4.3021971165
 31
0.0
 11
4.3054935297
 21
4.3965024711
 31
0.0
 11
4.3213476339
 21
4.4915929298
 31
0.0
 11
4.3448557952
 21
4.5897547429
 31
0.0
  0
SPLINE
  5
3FB
100
AcDbEntity
  8
0
100
AcDbSpline
 62
7
  6
CONTINUOUS
 70
0
 71
3
 72
14
 73
10
 74
8
 42
0.0000001
 43
0.0000001
 44
0.0000000001
 12
-0.1684527097
 22
0.3090030944
 32
0.0
 13
0.1684527097
 23
0.3090030944
 33
0.0
 40
0.0
 40
0.0
 40
0.0
 40
0.0
 40
0.1546757524
 40
0.2971498922
 40
0.4331013552
 40
0.5670155335
 40
0.7029600408
 40
0.8453689352
 40
1.0
 40
1.0
 40
1.0
 40
1.0
 10
4.3448557952
 20
4.6289377462
 30
0.0
 10
4.336170612
 20
4.6448695082
 30
0.0
 10
4.3208791284
 20
4.6762862434
 30
0.0
 10
4.304457281
 20
4.7245347677
 30
0.0
 10
4.2960280517
 20
4.772393676
 30
0.0
 10
4.2960317773
 20
4.8202502961
 30
0.0
 10
4.304466139
 20
4.8680995779
 30
0.0
 10
4.3208869083
 20
4.9163337071
 30
0.0
 10
4.3361731213
 20
4.9477385848
 30
0.0
 10
4.3448557952
 20
4.963665744
 30
0.0
 11
4.3448557952
 21
4.6289377462
 31
0.0
 11
4.3213416733
 21
4.6780332359
 31
0.0
 11
4.3054839515
 21
4.725601464
 31
0.0
 11
4.2973871133
 21
4.7727576574
 31
0.0
 11
4.2973906816
 21
4.8198869308
 31
0.0
 11
4.3054935297
 21
4.8670396081
 31
0.0
 11
4.3213476339
 21
4.9145848375
 31
0.0
 11
4.3448557952
 21
4.963665744
 31
0.0
  0
SPLINE
  5
3FC
100
AcDbEntity
  8
0
100
AcDbSpline
 62
7
  6
CONTINUOUS
 70
0
 71
3
 72
20
 73
16
 74
14
 42
0.0000001
 43
0.0000001
 44
0.0000000001
 12
0.0
 22
0.3060021532
 32
0.0
 13
0.0
 23
-0.3060021532
 33
0.0
 40
0.0
 40
0.0
 40
0.0
 40
0.0
 40
0.063292608
 40
0.1302450701
 40
0.2020633899
 40
0.2793412241
 40
0.364468903
 40
0.4548665088
 40
0.5454754312
 40
0.635623128
 40
0.72050752
 40
0.797790628
 40
0.8694029773
 40
0.9363782082
 40
1.0
 40
1.0
 40
1.0
 40
1.0
 10
6.1814716213
 20
4.6637344646
 30
0.0
 10
6.1814716213
 20
4.6701903561
 30
0.0
 10
6.1837569973
 20
4.6836089444
 30
0.0
 10
6.1944794859
 20
4.7016982109
 30
0.0
 10
6.2113492499
 20
4.7163343065
 30
0.0
 10
6.2327883408
 20
4.7272576275
 30
0.0
 10
6.2576494164
 20
4.7345413311
 30
0.0
 10
6.2846430741
 20
4.7381643337
 30
0.0
 10
6.3123791792
 20
4.7381575559
 30
0.0
 10
6.3393211825
 20
4.7345318409
 30
0.0
 10
6.3641335759
 20
4.7272631236
 30
0.0
 10
6.385536564
 20
4.7163689808
 30
0.0
 10
6.40240356
 20
4.7017620698
 30
0.0
 10
6.413166743
 20
4.6836803128
 30
0.0
 10
6.4154716213
 20
4.6702239331
 30
0.0
 10
6.4154716213
 20
4.6637344646
 30
0.0
 11
6.1814716213
 21
4.6637344646
 31
0.0
 11
6.184785215
 21
4.6828165742
 31
0.0
 11
6.195029428
 21
4.700559115
 31
0.0
 11
6.2113882224
 21
4.7152342319
 31
0.0
 11
6.2323202066
 21
4.7262361105
 31
0.0
 11
6.2572586166
 21
4.7337620187
 31
0.0
 11
6.2846604796
 21
4.7375457356
 31
0.0
 11
6.3123870041
 21
4.7375387445
 31
0.0
 11
6.3397118255
 21
4.7337561743
 31
0.0
 11
6.3645795212
 21
4.7262536217
 31
0.0
 11
6.3855175265
 21
4.7152597345
 31
0.0
 11
6.4018442224
 21
4.7006432393
 31
0.0
 11
6.4121231852
 21
4.6829127539
 31
0.0
 11
6.4154716213
 21
4.6637344646
 31
0.0
  0
SPLINE
  5
3FD
100
AcDbEntity
  8
0
100
AcDbSpline
 62
7
  6
CONTINUOUS
 70
0
 71
3
 72
20
 73
16
 74
14
 42
0.0000001
 43
0.0000001
 44
0.0000000001
 12
0.0
 22
-0.306001952
 32
0.0
 13
0.0
 23
0.306001952
 33
0.0
 40
0.0
 40
0.0
 40
0.0
 40
0.0
 40
0.0633193362
 40
0.1302850272
 40
0.2021162989
 40
0.2794211335
 40
0.3644850449
 40
0.4548561492
 40
0.5454738821
 40
0.6355992222
 40
0.7204268429
 40
0.7977375989
 40
0.869366629
 40
0.9363544261
 40
1.0
 40
1.0
 40
1.0
 40
1.0
 10
6.4154716213
 20
3.8463190256
 30
0.0
 10
6.4154716213
 20
3.8398604121
 30
0.0
 10
6.4131844769
 20
3.8264375943
 30
0.0
 10
6.4024558505
 20
3.8083454966
 30
0.0
 10
6.3855792451
 20
3.7937089848
 30
0.0
 10
6.3641402862
 20
3.7827907437
 30
0.0
 10
6.3392851011
 20
3.7755110443
 30
0.0
 10
6.312299733
 20
3.7718892431
 30
0.0
 10
6.2845677312
 20
3.7718957824
 30
0.0
 10
6.257632828
 20
3.7755200259
 30
0.0
 10
6.2328250773
 20
3.7827848588
 30
0.0
 10
6.2114211754
 20
3.7936744279
 30
0.0
 10
6.1945471036
 20
3.8082821307
 30
0.0
 10
6.1837780939
 20
3.8263669108
 30
0.0
 10
6.1814716213
 20
3.8398271356
 30
0.0
 10
6.1814716213
 20
3.8463190256
 30
0.0
 11
6.4154716213
 21
3.8463190256
 31
0.0
 11
6.4121552097
 21
3.827229117
 31
0.0
 11
6.4019059373
 21
3.809484839
 31
0.0
 11
6.3855415224
 21
3.7948100742
 31
0.0
 11
6.3646002219
 21
3.7838081966
 31
0.0
 11
6.3396797564
 21
3.7762904257
 31
0.0
 11
6.3122859247
 21
3.7725079659
 31
0.0
 11
6.2845567223
 21
3.7725147131
 31
0.0
 11
6.257238616
 21
3.7762957686
 31
0.0
 11
6.2323867562
 21
3.7837906062
 31
0.0
 11
6.2114392474
 21
3.7947845585
 31
0.0
 11
6.1951061992
 21
3.8094015886
 31
0.0
 11
6.1848225771
 21
3.8271338018
 31
0.0
 11
6.1814716213
 21
3.8463190256
 31
0.0
  0
SPLINE
  5
3FE
100
AcDbEntity
  8
0
100
AcDbSpline
 62
7
  6
CONTINUOUS
 70
0
 71
3
 72
11
 73
7
 74
5
 42
0.0000001
 43
0.0000001
 44
0.0000000001
 12
-0.0745037194
 22
0.0517561374
 32
0.0
 13
-0.0912926591
 23
0.0001801282
 33
0.0
 40
0.0
 40
0.0
 40
0.0
 40
0.0
 40
0.3787748949
 40
0.6944572118
 40
0.9457731281
 40
1.0
 40
1.0
 40
1.0
 40
1.0
 10
6.2984716213
 20
4.625197145
 30
0.0
 10
6.2890649084
 20
4.6317317869
 30
0.0
 10
6.2712968746
 20
4.6430358529
 30
0.0
 10
6.245040668
 20
4.6546956375
 30
0.0
 10
6.2266267649
 20
4.6590593104
 30
0.0
 10
6.2173236033
 20
4.6594755441
 30
0.0
 10
6.2156734316
 20
4.6594788
 30
0.0
 11
6.2984716213
 21
4.625197145
 31
0.0
 11
6.269233044
 21
4.643246957
 31
0.0
 11
6.242923387
 21
4.6545569367
 31
0.0
 11
6.2206180373
 21
4.6592733086
 31
0.0
 11
6.2156734316
 21
4.6594788
 31
0.0
  0
SPLINE
  5
3FF
100
AcDbEntity
  8
0
100
AcDbSpline
 62
7
  6
CONTINUOUS
 70
0
 71
3
 72
11
 73
7
 74
5
 42
0.0000001
 43
0.0000001
 44
0.0000000001
 12
0.0744177784
 22
-0.0518551862
 32
0.0
 13
0.091124926
 23
-0.0000271273
 33
0.0
 40
0.0
 40
0.0
 40
0.0
 40
0.0
 40
0.2765643416
 40
0.5516457542
 40
0.799756549
 40
1.0
 40
1.0
 40
1.0
 40
1.0
 10
6.2984716213
 20
3.8848563451
 30
0.0
 10
6.3053320559
 20
3.8800759133
 30
0.0
 10
6.319304646
 20
3.8709268354
 30
0.0
 10
6.3408933155
 20
3.8599110374
 30
0.0
 10
6.3616162377
 20
3.8526253409
 30
0.0
 10
6.3751238512
 20
3.8505897569
 30
0.0
 10
6.3812062411
 20
3.8505879462
 30
0.0
 11
6.2984716213
 21
3.8848563451
 31
0.0
 11
6.3195730842
 21
3.8712920138
 31
0.0
 11
6.3418601615
 21
3.8600751101
 31
0.0
 11
6.3631908766
 21
3.8529026543
 31
0.0
 11
6.3812062411
 21
3.8505879462
 31
0.0
  0
ENDSEC
  0
SECTION
  2
OBJECTS
  0
DICTIONARY
  5
C
100
AcDbDictionary
280
0
281
1
  3
ACAD_GROUP
350
D
  3
ACAD_MLINESTYLE
350
17
  3
ACAD_LAYOUT
350
1A
  3
ACAD_PLOTSETTINGS
350
19
  3
ACAD_PLOTSTYLENAME
350
E
  0
DICTIONARY
  5
D
102
{ACAD_REACTORS
330
C
102
}
100
AcDbDictionary
280
0
281
1
  0
ACDBDICTIONARYWDFLT
  5
E
102
{ACAD_REACTORS
330
C
102
}
100
AcDbDictionary
281
1
  3
Normal
350
F
100
AcDbDictionaryWithDefault
340
F
  0
DICTIONARY
  5
17
102
{ACAD_REACTORS
330
C
102
}
100
AcDbDictionary
280
0
281
1
  3
Standard
350
18
  0
DICTIONARY
  5
19
102
{ACAD_REACTORS
330
C
102
}
100
AcDbDictionary
281
1
  0
DICTIONARY
  5
1A
102
{ACAD_REACTORS
330
C
102
}
100
AcDbDictionary
281
1
  3
Layout1
350
1E
  3
Model
350
22
  0
ACDBPLACEHOLDER
  5
F
102
{ACAD_REACTORS
330
E
102
}
  0
MLINESTYLE
  5
18
102
{ACAD_REACTORS
330
17
102
}
100
AcDbMlineStyle
  2
STANDARD
 70
0
  3

 62
256
 51
90.0
 52
90.0
 71
2
 49
0.5
 62
256
  6
BYLAYER
 49
-0.5
 62
256
  6
BYLAYER
  0
LAYOUT
  5
1E
102
{ACAD_REACTORS
330
1A
102
}
100
AcDbPlotSettings
  1

  2

  4

  6

 40
0.0
 41
0.0
 42
0.0
 43
0.0
 44
0.0
 45
0.0
 46
0.0
 47
0.0
 48
0.0
 49
0.0
140
0.0
141
0.0
142
1.0
143
1.0
 70
0
 72
0
 73
0
 74
0
  7

 75
0
147
1.0
148
0.0
149
0.0
100
AcDbLayout
  1
Layout1
 70
0
 71
0
 10
0.0
 20
0.0
 11
0.0
 21
0.0
 12
0.0
 22
0.0
 32
0.0
 14
0.0
 24
0.0
 34
0.0
 15
0.0
 25
0.0
 35
0.0
146
0.0
 13
0.0
 23
0.0
 33
0.0
 16
0.0
 26
0.0
 36
0.0
 17
0.0
 27
0.0
 37
0.0
 76
0
330
1B
331
0
345
0
346
0
  0
LAYOUT
  5
22
102
{ACAD_REACTORS
330
1A
102
}
100
AcDbPlotSettings
  1

  2

  4

  6

 40
0.0
 41
0.0
 42
0.0
 43
0.0
 44
0.0
 45
0.0
 46
0.0
 47
0.0
 48
0.0
 49
0.0
140
0.0
141
0.0
142
1.0
143
1.0
 70
0
 72
0
 73
0
 74
0
  7

 75
0
147
1.0
148
0.0
149
0.0
100
AcDbLayout
  1
Model
 70
0
 71
0
 10
0.0
 20
0.0
 11
0.0
 21
0.0
 12
0.0
 22
0.0
 32
0.0
 14
0.0
 24
0.0
 34
0.0
 15
0.0
 25
0.0
 35
0.0
146
0.0
 13
0.0
 23
0.0
 33
0.0
 16
0.0
 26
0.0
 36
0.0
 17
0.0
 27
0.0
 37
0.0
 76
0
330
1F
331
0
345
0
346
0
  0
ENDSEC
  0
EOF
