999
DXF file: NFDD-LGN.dxf
999
Pro/ENGINEER 2006240 by Parametric Technology Corporation
  0
SECTION
  2
HEADER
  9
$ACADVER
  1
AC1015
  9
$DWGCODEPAGE
  3
ANSI_1252
  9
$EXTMAX
 10
11.6929133858
 20
8.2677165354
 30
0.0
  9
$EXTMIN
 10
0.0
 20
0.0
 30
0.0
  9
$LIMMIN
 10
0.0
 20
0.0
  9
$LIMMAX
 10
11.6929133858
 20
8.2677165354
  9
$VIEWCTR
 10
5.8464566929
 20
4.1338582677
  9
$VIEWSIZE
 40
8.2677165354
  9
$CLAYER
  8
0
  9
$LTSCALE
 40
0.6431102362
  9
$CELTYPE
  6
BYLAYER
  9
$DIMSCALE
 40
1.0
  9
$DIMASZ
 40
0.1875
  9
$DIMEXO
 40
0.0730807087
  9
$DIMDLI
 40
0.4443307087
  9
$DIMEXE
 40
0.2104724409
  9
$DIMCEN
 40
0.1052362205
  9
$DIMLFAC
 40
1.0
  9
$DIMBLK
  1
_CLOSED
  9
$DIMTXT
 40
0.15625
  9
$DIMTOL
 70
0
  9
$DIMLIM
 70
0
  9
$DIMTFAC
 40
1.0
  9
$PDMODE
 70
3
  9
$PDSIZE
 40
0.3125
  9
$HANDSEED
  5
414
  9
$MEASUREMENT
 70
0
  9
$INSUNITS
 70
1
  0
ENDSEC
  0
SECTION
  2
CLASSES
  0
CLASS
  1
ACDBDICTIONARYWDFLT
  2
AcDbDictionaryWithDefault
  3
AutoCAD 2000
 90
0
280
0
281
0
  0
CLASS
  1
ACDBPLACEHOLDER
  2
AcDbPlaceHolder
  3
AutoCAD 2000
 90
0
280
0
281
0
  0
CLASS
  1
LAYOUT
  2
AcDbLayout
  3
AutoCAD 2000
 90
0
280
0
281
0
  0
ENDSEC
  0
SECTION
  2
TABLES
  0
TABLE
  2
VPORT
  5
8
100
AcDbSymbolTable
 70
2
  0
VPORT
  5
1F4
100
AcDbSymbolTableRecord
100
AcDbViewportTableRecord
  2
*ACTIVE
 70
0
 10
0.0
 20
0.0
 11
1.0
 21
1.0
 12
5.8464566929
 22
4.1338582677
 13
0.0
 23
0.0
 14
1.0
 24
1.0
 15
0.0
 25
0.0
 16
0.0
 26
0.0
 36
1.0
 17
0.0
 27
0.0
 37
0.0
 40
8.2677165354
 41
1.4142857143
 42
50.0
 43
0.0
 44
0.0
 50
0.0
 51
0.0
 71
0
 72
100
 73
1
 74
1
 75
0
 76
0
 77
0
 78
0
  0
ENDTAB
  0
TABLE
  2
LTYPE
  5
5
100
AcDbSymbolTable
 70
6
  0
LTYPE
  5
14
100
AcDbSymbolTableRecord
100
AcDbLinetypeTableRecord
  2
BYBLOCK
 70
0
  3

 72
65
 73
0
 40
0.0
  0
LTYPE
  5
15
100
AcDbSymbolTableRecord
100
AcDbLinetypeTableRecord
  2
BYLAYER
 70
0
  3

 72
65
 73
0
 40
0.0
  0
LTYPE
  5
16
100
AcDbSymbolTableRecord
100
AcDbLinetypeTableRecord
  2
CONTINUOUS
 70
64
  3
Solid line
 72
65
 73
0
 40
0.0
  0
LTYPE
  5
1F5
100
AcDbSymbolTableRecord
100
AcDbLinetypeTableRecord
  2
CENTER
 70
64
  3
____ _ ____ _ ____ _ ____ _ ____ _ ____ _ ____
 72
65
 73
4
 40
0.6
 49
0.375
 74
0
 49
-0.075
 74
0
 49
0.075
 74
0
 49
-0.075
 74
0
  0
LTYPE
  5
1F6
100
AcDbSymbolTableRecord
100
AcDbLinetypeTableRecord
  2
HIDDEN
 70
64
  3
- - - - - - - - - - - - - - - - - - - -
 72
65
 73
2
 40
0.2
 49
0.1
 74
0
 49
-0.1
 74
0
  0
LTYPE
  5
1F7
100
AcDbSymbolTableRecord
100
AcDbLinetypeTableRecord
  2
PHANTOM
 70
64
  3
_____ _ _ _____ _ _ _____ _ _ _____
 72
65
 73
6
 40
0.8
 49
0.45
 74
0
 49
-0.05
 74
0
 49
0.1
 74
0
 49
-0.05
 74
0
 49
0.1
 74
0
 49
-0.05
 74
0
  0
LTYPE
  5
1F8
100
AcDbSymbolTableRecord
100
AcDbLinetypeTableRecord
  2
DOT
 70
64
  3
. . . . . . . . . . . . . . . . . . . .
 72
65
 73
2
 40
0.2
 49
0.1
 74
0
 49
-0.1
 74
0
  0
LTYPE
  5
1F9
100
AcDbSymbolTableRecord
100
AcDbLinetypeTableRecord
  2
DASHED
 70
64
  3
- - - - - - - - - - - - - - - - - - - -
 72
65
 73
2
 40
0.2
 49
0.1
 74
0
 49
-0.1
 74
0
  0
ENDTAB
  0
TABLE
  2
LAYER
  5
2
100
AcDbSymbolTable
 70
36
  0
LAYER
  5
10
100
AcDbSymbolTableRecord
100
AcDbLayerTableRecord
  2
0
 70
0
 62
7
  6
CONTINUOUS
370
-3
390
F
  0
LAYER
  5
1FA
100
AcDbSymbolTableRecord
100
AcDbLayerTableRecord
  2
DEFAULT_1
 70
0
 62
7
  6
CENTER
370
-3
390
F
  0
LAYER
  5
1FB
100
AcDbSymbolTableRecord
100
AcDbLayerTableRecord
  2
DEFAULT_2
 70
0
 62
8
  6
HIDDEN
370
-3
390
F
  0
LAYER
  5
1FC
100
AcDbSymbolTableRecord
100
AcDbLayerTableRecord
  2
DEFAULT_3
 70
0
 62
7
  6
PHANTOM
370
-3
390
F
  0
LAYER
  5
1FD
100
AcDbSymbolTableRecord
100
AcDbLayerTableRecord
  2
_BLACK_HOLE
 70
0
 62
7
  6
CONTINUOUS
370
-3
390
F
  0
LAYER
  5
1FE
100
AcDbSymbolTableRecord
100
AcDbLayerTableRecord
  2
01_ALL_DTM_PLN
 70
0
 62
7
  6
CONTINUOUS
370
-3
390
F
  0
LAYER
  5
1FF
100
AcDbSymbolTableRecord
100
AcDbLayerTableRecord
  2
01__ASM_ALL_DTM_PLN
 70
0
 62
7
  6
CONTINUOUS
370
-3
390
F
  0
LAYER
  5
200
100
AcDbSymbolTableRecord
100
AcDbLayerTableRecord
  2
01__ASM_DEF_DTM_PLN
 70
0
 62
7
  6
CONTINUOUS
370
-3
390
F
  0
LAYER
  5
201
100
AcDbSymbolTableRecord
100
AcDbLayerTableRecord
  2
01___PRT_ALL_DTM_PLN
 70
0
 62
7
  6
CONTINUOUS
370
-3
390
F
  0
LAYER
  5
202
100
AcDbSymbolTableRecord
100
AcDbLayerTableRecord
  2
01___PRT_DEF_DTM_PLN
 70
0
 62
7
  6
CONTINUOUS
370
-3
390
F
  0
LAYER
  5
203
100
AcDbSymbolTableRecord
100
AcDbLayerTableRecord
  2
02_ALL_AXES
 70
0
 62
7
  6
CONTINUOUS
370
-3
390
F
  0
LAYER
  5
204
100
AcDbSymbolTableRecord
100
AcDbLayerTableRecord
  2
02__ASM_ALL_AXES
 70
0
 62
7
  6
CONTINUOUS
370
-3
390
F
  0
LAYER
  5
205
100
AcDbSymbolTableRecord
100
AcDbLayerTableRecord
  2
02___PRT_ALL_AXES
 70
0
 62
7
  6
CONTINUOUS
370
-3
390
F
  0
LAYER
  5
206
100
AcDbSymbolTableRecord
100
AcDbLayerTableRecord
  2
03_ALL_CURVES
 70
0
 62
7
  6
CONTINUOUS
370
-3
390
F
  0
LAYER
  5
207
100
AcDbSymbolTableRecord
100
AcDbLayerTableRecord
  2
03__ASM_ALL_CURVES
 70
0
 62
7
  6
CONTINUOUS
370
-3
390
F
  0
LAYER
  5
208
100
AcDbSymbolTableRecord
100
AcDbLayerTableRecord
  2
03___PRT_ALL_CURVES
 70
0
 62
7
  6
CONTINUOUS
370
-3
390
F
  0
LAYER
  5
209
100
AcDbSymbolTableRecord
100
AcDbLayerTableRecord
  2
04_ALL_DTM_PNT
 70
0
 62
7
  6
CONTINUOUS
370
-3
390
F
  0
LAYER
  5
20A
100
AcDbSymbolTableRecord
100
AcDbLayerTableRecord
  2
04__ASM_ALL_DTM_PNT
 70
0
 62
7
  6
CONTINUOUS
370
-3
390
F
  0
LAYER
  5
20B
100
AcDbSymbolTableRecord
100
AcDbLayerTableRecord
  2
04___PRT_ALL_DTM_PNT
 70
0
 62
7
  6
CONTINUOUS
370
-3
390
F
  0
LAYER
  5
20C
100
AcDbSymbolTableRecord
100
AcDbLayerTableRecord
  2
05_ALL_DTM_CSYS
 70
0
 62
7
  6
CONTINUOUS
370
-3
390
F
  0
LAYER
  5
20D
100
AcDbSymbolTableRecord
100
AcDbLayerTableRecord
  2
05__ASM_ALL_DTM_CSYS
 70
0
 62
7
  6
CONTINUOUS
370
-3
390
F
  0
LAYER
  5
20E
100
AcDbSymbolTableRecord
100
AcDbLayerTableRecord
  2
05__ASM_DEF_DTM_CSYS
 70
0
 62
7
  6
CONTINUOUS
370
-3
390
F
  0
LAYER
  5
20F
100
AcDbSymbolTableRecord
100
AcDbLayerTableRecord
  2
05___PRT_ALL_DTM_CSYS
 70
0
 62
7
  6
CONTINUOUS
370
-3
390
F
  0
LAYER
  5
210
100
AcDbSymbolTableRecord
100
AcDbLayerTableRecord
  2
05___PRT_DEF_DTM_CSYS
 70
0
 62
7
  6
CONTINUOUS
370
-3
390
F
  0
LAYER
  5
211
100
AcDbSymbolTableRecord
100
AcDbLayerTableRecord
  2
06_ALL_SURFS
 70
0
 62
7
  6
CONTINUOUS
370
-3
390
F
  0
LAYER
  5
212
100
AcDbSymbolTableRecord
100
AcDbLayerTableRecord
  2
06__ASM_ALL_SURFS
 70
0
 62
7
  6
CONTINUOUS
370
-3
390
F
  0
LAYER
  5
213
100
AcDbSymbolTableRecord
100
AcDbLayerTableRecord
  2
06___PRT_ALL_SURFS
 70
0
 62
7
  6
CONTINUOUS
370
-3
390
F
  0
LAYER
  5
214
100
AcDbSymbolTableRecord
100
AcDbLayerTableRecord
  2
07__ASM_ALL_SKELETONS
 70
0
 62
7
  6
CONTINUOUS
370
-3
390
F
  0
LAYER
  5
215
100
AcDbSymbolTableRecord
100
AcDbLayerTableRecord
  2
125-146_FEATURES
 70
0
 62
7
  6
CONTINUOUS
370
-3
390
F
  0
LAYER
  5
216
100
AcDbSymbolTableRecord
100
AcDbLayerTableRecord
  2
125-146_REF_GEOMETRY
 70
0
 62
7
  6
CONTINUOUS
370
-3
390
F
  0
LAYER
  5
217
100
AcDbSymbolTableRecord
100
AcDbLayerTableRecord
  2
125-194_FEATURES
 70
0
 62
7
  6
CONTINUOUS
370
-3
390
F
  0
LAYER
  5
218
100
AcDbSymbolTableRecord
100
AcDbLayerTableRecord
  2
125-194_REF_GEOMETRY
 70
0
 62
7
  6
CONTINUOUS
370
-3
390
F
  0
LAYER
  5
219
100
AcDbSymbolTableRecord
100
AcDbLayerTableRecord
  2
125-195_FEATURES
 70
0
 62
7
  6
CONTINUOUS
370
-3
390
F
  0
LAYER
  5
21A
100
AcDbSymbolTableRecord
100
AcDbLayerTableRecord
  2
125-195_REF_GEOMETRY
 70
0
 62
7
  6
CONTINUOUS
370
-3
390
F
  0
LAYER
  5
21B
100
AcDbSymbolTableRecord
100
AcDbLayerTableRecord
  2
125-198_FEATURES
 70
0
 62
7
  6
CONTINUOUS
370
-3
390
F
  0
LAYER
  5
21C
100
AcDbSymbolTableRecord
100
AcDbLayerTableRecord
  2
125-198_REF_GEOMETRY
 70
0
 62
7
  6
CONTINUOUS
370
-3
390
F
  0
LAYER
  5
21D
100
AcDbSymbolTableRecord
100
AcDbLayerTableRecord
  2
COPY_GEO_FET
 70
0
 62
7
  6
CONTINUOUS
370
-3
390
F
  0
LAYER
  5
21E
100
AcDbSymbolTableRecord
100
AcDbLayerTableRecord
  2
COSMETIC
 70
0
 62
7
  6
CONTINUOUS
370
-3
390
F
  0
LAYER
  5
21F
100
AcDbSymbolTableRecord
100
AcDbLayerTableRecord
  2
CURVES
 70
0
 62
7
  6
CONTINUOUS
370
-3
390
F
  0
LAYER
  5
220
100
AcDbSymbolTableRecord
100
AcDbLayerTableRecord
  2
CUT_REF_SURF
 70
0
 62
7
  6
CONTINUOUS
370
-3
390
F
  0
LAYER
  5
221
100
AcDbSymbolTableRecord
100
AcDbLayerTableRecord
  2
DATUM
 70
0
 62
7
  6
CONTINUOUS
370
-3
390
F
  0
LAYER
  5
222
100
AcDbSymbolTableRecord
100
AcDbLayerTableRecord
  2
DATUMCURVES
 70
0
 62
7
  6
CONTINUOUS
370
-3
390
F
  0
LAYER
  5
223
100
AcDbSymbolTableRecord
100
AcDbLayerTableRecord
  2
DATUM_PLANES
 70
0
 62
7
  6
CONTINUOUS
370
-3
390
F
  0
LAYER
  5
224
100
AcDbSymbolTableRecord
100
AcDbLayerTableRecord
  2
DIMENSIONS
 70
0
 62
7
  6
CONTINUOUS
370
-3
390
F
  0
LAYER
  5
225
100
AcDbSymbolTableRecord
100
AcDbLayerTableRecord
  2
DMT
 70
0
 62
7
  6
CONTINUOUS
370
-3
390
F
  0
LAYER
  5
226
100
AcDbSymbolTableRecord
100
AcDbLayerTableRecord
  2
DP_SERRATIONS
 70
0
 62
7
  6
CONTINUOUS
370
-3
390
F
  0
LAYER
  5
227
100
AcDbSymbolTableRecord
100
AcDbLayerTableRecord
  2
DRAWINGNOTES
 70
0
 62
7
  6
CONTINUOUS
370
-3
390
F
  0
LAYER
  5
228
100
AcDbSymbolTableRecord
100
AcDbLayerTableRecord
  2
DTM
 70
0
 62
7
  6
CONTINUOUS
370
-3
390
F
  0
LAYER
  5
229
100
AcDbSymbolTableRecord
100
AcDbLayerTableRecord
  2
DTM230
 70
0
 62
7
  6
CONTINUOUS
370
-3
390
F
  0
LAYER
  5
22A
100
AcDbSymbolTableRecord
100
AcDbLayerTableRecord
  2
DTM_500001
 70
0
 62
7
  6
CONTINUOUS
370
-3
390
F
  0
LAYER
  5
22B
100
AcDbSymbolTableRecord
100
AcDbLayerTableRecord
  2
DTM_500002
 70
0
 62
7
  6
CONTINUOUS
370
-3
390
F
  0
LAYER
  5
22C
100
AcDbSymbolTableRecord
100
AcDbLayerTableRecord
  2
DTM_515002
 70
0
 62
7
  6
CONTINUOUS
370
-3
390
F
  0
LAYER
  5
22D
100
AcDbSymbolTableRecord
100
AcDbLayerTableRecord
  2
DTM_530002
 70
0
 62
7
  6
CONTINUOUS
370
-3
390
F
  0
LAYER
  5
22E
100
AcDbSymbolTableRecord
100
AcDbLayerTableRecord
  2
GEOMETRICTOLERANCES
 70
0
 62
7
  6
CONTINUOUS
370
-3
390
F
  0
LAYER
  5
22F
100
AcDbSymbolTableRecord
100
AcDbLayerTableRecord
  2
LAY0001
 70
0
 62
7
  6
CONTINUOUS
370
-3
390
F
  0
LAYER
  5
230
100
AcDbSymbolTableRecord
100
AcDbLayerTableRecord
  2
PARAMETERDIMENSIONS
 70
0
 62
7
  6
CONTINUOUS
370
-3
390
F
  0
LAYER
  5
231
100
AcDbSymbolTableRecord
100
AcDbLayerTableRecord
  2
PLANE
 70
0
 62
7
  6
CONTINUOUS
370
-3
390
F
  0
LAYER
  5
232
100
AcDbSymbolTableRecord
100
AcDbLayerTableRecord
  2
PLANE_PATTERN
 70
0
 62
7
  6
CONTINUOUS
370
-3
390
F
  0
LAYER
  5
233
100
AcDbSymbolTableRecord
100
AcDbLayerTableRecord
  2
TEXT
 70
0
 62
7
  6
CONTINUOUS
370
-3
390
F
  0
LAYER
  5
234
100
AcDbSymbolTableRecord
100
AcDbLayerTableRecord
  2
THREAD
 70
0
 62
7
  6
CONTINUOUS
370
-3
390
F
  0
LAYER
  5
235
100
AcDbSymbolTableRecord
100
AcDbLayerTableRecord
  2
XSEC_DATUMS
 70
0
 62
7
  6
CONTINUOUS
370
-3
390
F
  0
ENDTAB
  0
TABLE
  2
STYLE
  5
3
100
AcDbSymbolTable
 70
1
  0
STYLE
  5
11
100
AcDbSymbolTableRecord
100
AcDbTextStyleTableRecord
  2
STANDARD
 70
0
 40
0.0
 41
0.8
 50
0.0
 71
0
 42
0.2
  3
txt
  4

  0
ENDTAB
  0
TABLE
  2
VIEW
  5
6
100
AcDbSymbolTable
 70
0
  0
ENDTAB
  0
TABLE
  2
UCS
  5
7
100
AcDbSymbolTable
 70
0
  0
ENDTAB
  0
TABLE
  2
APPID
  5
9
100
AcDbSymbolTable
 70
1
  0
APPID
  5
236
100
AcDbSymbolTableRecord
100
AcDbRegAppTableRecord
  2
ACAD
 70
0
  0
ENDTAB
  0
TABLE
  2
BLOCK_RECORD
  5
1
100
AcDbSymbolTable
 70
0
  0
BLOCK_RECORD
  5
1F
100
AcDbSymbolTableRecord
100
AcDbBlockTableRecord
  2
*MODEL_SPACE
  0
BLOCK_RECORD
  5
1B
100
AcDbSymbolTableRecord
100
AcDbBlockTableRecord
  2
*PAPER_SPACE
  0
ENDTAB
  0
TABLE
  2
DIMSTYLE
  5
A
100
AcDbSymbolTable
 70
1
100
AcDbDimStyleTable
 71
0
  0
DIMSTYLE
105
237
100
AcDbSymbolTableRecord
100
AcDbDimStyleTableRecord
  2
STANDARD
 70
0
  3

  4

 40
1.0
 41
0.1875
 42
0.0625
 43
0.38
 44
0.18
 45
0.0
 46
0.0
 47
0.01
 48
0.01
140
0.15625
141
0.09
142
0.0
143
25.4
144
1.0
145
0.0
146
1.0
147
0.09
 71
0.0
 72
0.0
 73
1
 74
1
 75
0
 76
0
 77
0
 78
4
170
0
171
2
172
0
173
0
174
0
175
0
176
0
177
0
178
0
270
2
271
2
272
2
273
2
274
2
275
0
280
0
281
0
282
0
283
1
284
4
285
0
286
0
287
3
288
0
340
11
  0
ENDTAB
  0
ENDSEC
  0
SECTION
  2
BLOCKS
  0
BLOCK
  5
20
100
AcDbEntity
  8
0
100
AcDbBlockBegin
  2
*MODEL_SPACE
 70
0
 10
0.0
 20
0.0
 30
0.0
  3
*MODEL_SPACE
  1

  0
ENDBLK
  5
21
100
AcDbEntity
  8
0
100
AcDbBlockEnd
  0
BLOCK
  5
1C
100
AcDbEntity
  8
0
100
AcDbBlockBegin
  2
*PAPER_SPACE
 70
0
 10
0.0
 20
0.0
 30
0.0
  3
*PAPER_SPACE
  1

  0
ENDBLK
  5
1D
100
AcDbEntity
  8
0
100
AcDbBlockEnd
  0
ENDSEC
  0
SECTION
  2
ENTITIES
  0
LINE
  5
238
100
AcDbEntity
  8
0
100
AcDbLine
 62
7
  6
CONTINUOUS
 10
3.5291678601
 20
4.2752779591
 11
3.5291678601
 21
3.9692779591
  0
LINE
  5
239
100
AcDbEntity
  8
03__ASM_ALL_CURVES
100
AcDbLine
 62
40
  6
CONTINUOUS
 10
3.5291678601
 20
4.2752779591
 11
3.5291678601
 21
5.1462557726
  0
LINE
  5
23A
100
AcDbEntity
  8
0
100
AcDbLine
 62
7
  6
CONTINUOUS
 10
3.5601678601
 20
4.3062779591
 11
3.5601678601
 21
3.9382779591
  0
LINE
  5
23B
100
AcDbEntity
  8
03__ASM_ALL_CURVES
100
AcDbLine
 62
40
  6
CONTINUOUS
 10
3.6482133007
 20
5.1264148659
 11
3.6482133007
 21
5.0867330524
  0
LINE
  5
23C
100
AcDbEntity
  8
0
100
AcDbLine
 62
7
  6
CONTINUOUS
 10
3.8763492119
 20
3.874626774
 11
3.8763492119
 21
4.3699291442
  0
LINE
  5
23D
100
AcDbEntity
  8
0
100
AcDbLine
 62
7
  6
CONTINUOUS
 10
3.9383492119
 20
3.8512779591
 11
3.9383492119
 21
4.3932779591
  0
LINE
  5
23E
100
AcDbEntity
  8
0
100
AcDbLine
 62
7
  6
CONTINUOUS
 10
3.9443492119
 20
3.8512779591
 11
3.9443492119
 21
4.3932779591
  0
LINE
  5
23F
100
AcDbEntity
  8
0
100
AcDbLine
 62
7
  6
CONTINUOUS
 10
3.9498492119
 20
3.8567779591
 11
3.9498492119
 21
4.3877779591
  0
LINE
  5
240
100
AcDbEntity
  8
0
100
AcDbLine
 62
7
  6
CONTINUOUS
 10
3.9658492119
 20
3.8567779591
 11
3.9658492119
 21
4.3877779591
  0
LINE
  5
241
100
AcDbEntity
  8
03__ASM_ALL_CURVES
100
AcDbLine
 62
40
  6
CONTINUOUS
 10
4.1799347336
 20
5.2289262155
 11
4.1861350169
 21
5.2371932639
  0
LINE
  5
242
100
AcDbEntity
  8
03__ASM_ALL_CURVES
100
AcDbLine
 62
40
  6
CONTINUOUS
 10
4.1985355837
 20
5.1875909941
 11
4.1861350169
 21
5.1710569061
  0
LINE
  5
243
100
AcDbEntity
  8
03__ASM_ALL_CURVES
100
AcDbLine
 62
40
  6
CONTINUOUS
 10
4.2295370005
 20
5.2123921305
 11
4.2233367171
 21
5.204125082
  0
LINE
  5
244
100
AcDbEntity
  8
0
100
AcDbLine
 62
7
  6
CONTINUOUS
 10
3.5291678601
 20
3.9692779591
 11
3.5601678601
 21
3.9382779591
  0
LINE
  5
245
100
AcDbEntity
  8
0
100
AcDbLine
 62
7
  6
CONTINUOUS
 10
4.1573492119
 20
3.8512779591
 11
4.1573492119
 21
4.3932779591
  0
LINE
  5
246
100
AcDbEntity
  8
03__ASM_ALL_CURVES
100
AcDbLine
 62
40
  6
CONTINUOUS
 10
4.1861350169
 20
5.1710569061
 11
4.1799347336
 21
5.1462557726
  0
LINE
  5
247
100
AcDbEntity
  8
03__ASM_ALL_CURVES
100
AcDbLine
 62
40
  6
CONTINUOUS
 10
4.4279460681
 20
5.220659173
 11
4.4217457847
 21
5.2123921305
  0
LINE
  5
248
100
AcDbEntity
  8
03__ASM_ALL_CURVES
100
AcDbLine
 62
40
  6
CONTINUOUS
 10
4.4341463514
 20
5.1710569061
 11
4.4217457847
 21
5.1545228174
  0
LINE
  5
249
100
AcDbEntity
  8
03__ASM_ALL_CURVES
100
AcDbLine
 62
40
  6
CONTINUOUS
 10
4.1861350169
 20
5.2371932639
 11
4.1985355837
 21
5.2454603064
  0
LINE
  5
24A
100
AcDbEntity
  8
03__ASM_ALL_CURVES
100
AcDbLine
 62
40
  6
CONTINUOUS
 10
4.2233367171
 20
5.204125082
 11
4.1985355837
 21
5.1875909941
  0
LINE
  5
24B
100
AcDbEntity
  8
0
100
AcDbLine
 62
7
  6
CONTINUOUS
 10
4.1883492119
 20
3.6872779591
 11
4.1883492119
 21
4.5572779591
  0
LINE
  5
24C
100
AcDbEntity
  8
03__ASM_ALL_CURVES
100
AcDbLine
 62
40
  6
CONTINUOUS
 10
4.2295370005
 20
5.2289262155
 11
4.2295370005
 21
5.2123921305
  0
LINE
  5
24D
100
AcDbEntity
  8
0
100
AcDbLine
 62
7
  6
CONTINUOUS
 10
4.2503492119
 20
3.6252779591
 11
4.2503492119
 21
4.6192779591
  0
LINE
  5
24E
100
AcDbEntity
  8
03__ASM_ALL_CURVES
100
AcDbLine
 62
40
  6
CONTINUOUS
 10
4.2977401175
 20
5.1462557726
 11
4.2977401175
 21
5.1545228174
  0
LINE
  5
24F
100
AcDbEntity
  8
03__ASM_ALL_CURVES
100
AcDbLine
 62
40
  6
CONTINUOUS
 10
4.5209503185
 20
5.2454603064
 11
4.477548335
 21
5.1710569061
  0
LINE
  5
250
100
AcDbEntity
  8
03__ASM_ALL_CURVES
100
AcDbLine
 62
40
  6
CONTINUOUS
 10
4.6077542856
 20
5.2454603064
 11
4.5953537188
 21
5.2289262155
  0
LINE
  5
251
100
AcDbEntity
  8
0
100
AcDbLine
 62
7
  6
CONTINUOUS
 10
3.5291678601
 20
4.2752779591
 11
3.5601678601
 21
4.3062779591
  0
LINE
  5
252
100
AcDbEntity
  8
03__ASM_ALL_CURVES
100
AcDbLine
 62
40
  6
CONTINUOUS
 10
4.3845440845
 20
5.2371932639
 11
4.3969446513
 21
5.2454603064
  0
LINE
  5
253
100
AcDbEntity
  8
03__ASM_ALL_CURVES
100
AcDbLine
 62
40
  6
CONTINUOUS
 10
4.4217457847
 20
5.2123921305
 11
4.409345218
 21
5.204125082
  0
LINE
  5
254
100
AcDbEntity
  8
03__ASM_ALL_CURVES
100
AcDbLine
 62
40
  6
CONTINUOUS
 10
4.4217457847
 20
5.1545228174
 11
4.409345218
 21
5.1462557726
  0
LINE
  5
255
100
AcDbEntity
  8
0
100
AcDbLine
 62
7
  6
CONTINUOUS
 10
3.9813499975
 20
3.8412771735
 11
3.9658492119
 21
3.8567779591
  0
LINE
  5
256
100
AcDbEntity
  8
0
100
AcDbLine
 62
7
  6
CONTINUOUS
 10
4.1883492119
 20
3.6872779591
 11
4.2503492119
 21
3.6252779591
  0
LINE
  5
257
100
AcDbEntity
  8
03__ASM_ALL_CURVES
100
AcDbLine
 62
40
  6
CONTINUOUS
 10
4.4279460681
 20
5.2289262155
 11
4.4279460681
 21
5.220659173
  0
LINE
  5
258
100
AcDbEntity
  8
03__ASM_ALL_CURVES
100
AcDbLine
 62
40
  6
CONTINUOUS
 10
4.4341463514
 20
5.1793239515
 11
4.4341463514
 21
5.1710569061
  0
LINE
  5
259
100
AcDbEntity
  8
03__ASM_ALL_CURVES
100
AcDbLine
 62
40
  6
CONTINUOUS
 10
4.5953537188
 20
5.2289262155
 11
4.5891534355
 21
5.204125082
  0
LINE
  5
25A
100
AcDbEntity
  8
03__ASM_ALL_CURVES
100
AcDbLine
 62
40
  6
CONTINUOUS
 10
4.7317599528
 20
5.1793239515
 11
4.7255596695
 21
5.1627898621
  0
LINE
  5
25B
100
AcDbEntity
  8
03__ASM_ALL_CURVES
100
AcDbLine
 62
40
  6
CONTINUOUS
 10
4.7255596695
 20
5.1627898621
 11
4.7193593861
 21
5.1545228174
  0
LINE
  5
25C
100
AcDbEntity
  8
03__ASM_ALL_CURVES
100
AcDbLine
 62
40
  6
CONTINUOUS
 10
4.7813622197
 20
5.2289262155
 11
4.7875625031
 21
5.2371932639
  0
LINE
  5
25D
100
AcDbEntity
  8
03__ASM_ALL_CURVES
100
AcDbLine
 62
40
  6
CONTINUOUS
 10
4.8185639199
 20
5.1627898621
 11
4.8123636365
 21
5.1545228174
  0
LINE
  5
25E
100
AcDbEntity
  8
0
100
AcDbLine
 62
7
  6
CONTINUOUS
 10
3.9813499975
 20
4.4032787447
 11
3.9658492119
 21
4.3877779591
  0
LINE
  5
25F
100
AcDbEntity
  8
0
100
AcDbLine
 62
7
  6
CONTINUOUS
 10
4.1883492119
 20
4.5572779591
 11
4.2503492119
 21
4.6192779591
  0
LINE
  5
260
100
AcDbEntity
  8
03__ASM_ALL_CURVES
100
AcDbLine
 62
40
  6
CONTINUOUS
 10
4.6821576859
 20
5.204125082
 11
4.6945582526
 21
5.2123921305
  0
LINE
  5
261
100
AcDbEntity
  8
03__ASM_ALL_CURVES
100
AcDbLine
 62
40
  6
CONTINUOUS
 10
4.7875625031
 20
5.2371932639
 11
4.7999630698
 21
5.2454603064
  0
LINE
  5
262
100
AcDbEntity
  8
03__ASM_ALL_CURVES
100
AcDbLine
 62
40
  6
CONTINUOUS
 10
4.7193593861
 20
5.1545228174
 11
4.7069588194
 21
5.1462557726
  0
LINE
  5
263
100
AcDbEntity
  8
0
100
AcDbLine
 62
7
  6
CONTINUOUS
 10
4.1573492119
 20
4.3932779591
 11
4.1512544398
 21
4.4038344141
  0
LINE
  5
264
100
AcDbEntity
  8
03__ASM_ALL_CURVES
100
AcDbLine
 62
40
  6
CONTINUOUS
 10
4.5209503185
 20
5.1462557726
 11
4.5209503185
 21
5.2454603064
  0
LINE
  5
265
100
AcDbEntity
  8
03__ASM_ALL_CURVES
100
AcDbLine
 62
40
  6
CONTINUOUS
 10
4.5891534355
 20
5.204125082
 11
4.5891534355
 21
5.1875909941
  0
LINE
  5
266
100
AcDbEntity
  8
03__ASM_ALL_CURVES
100
AcDbLine
 62
40
  6
CONTINUOUS
 10
4.6883579693
 20
5.2454603064
 11
4.6821576859
 21
5.204125082
  0
LINE
  5
267
100
AcDbEntity
  8
03__ASM_ALL_CURVES
100
AcDbLine
 62
40
  6
CONTINUOUS
 10
4.7751619364
 20
5.2123921305
 11
4.7813622197
 21
5.2289262155
  0
LINE
  5
268
100
AcDbEntity
  8
03__ASM_ALL_CURVES
100
AcDbLine
 62
40
  6
CONTINUOUS
 10
4.8247642032
 20
5.2123921305
 11
4.8185639199
 21
5.1958580395
  0
LINE
  5
269
100
AcDbEntity
  8
03__ASM_ALL_CURVES
100
AcDbLine
 62
40
  6
CONTINUOUS
 10
4.8247642032
 20
5.1793239515
 11
4.8185639199
 21
5.1627898621
  0
LINE
  5
26A
100
AcDbEntity
  8
0
100
AcDbLine
 62
7
  6
CONTINUOUS
 10
4.1573492119
 20
3.8512779591
 11
4.1512544398
 21
3.8407215041
  0
LINE
  5
26B
100
AcDbEntity
  8
03__ASM_ALL_CURVES
100
AcDbLine
 62
40
  6
CONTINUOUS
 10
5.0169729875
 20
5.2454603064
 11
4.9735710039
 21
5.1710569061
  0
LINE
  5
26C
100
AcDbEntity
  8
03__ASM_ALL_CURVES
100
AcDbLine
 62
40
  6
CONTINUOUS
 10
4.8123636365
 20
5.1545228174
 11
4.7999630698
 21
5.1462557726
  0
LINE
  5
26D
100
AcDbEntity
  8
03__ASM_ALL_CURVES
100
AcDbLine
 62
40
  6
CONTINUOUS
 10
5.0789758211
 20
5.2371932639
 11
5.0913763878
 21
5.2454603064
  0
LINE
  5
26E
100
AcDbEntity
  8
03__ASM_ALL_CURVES
100
AcDbLine
 62
40
  6
CONTINUOUS
 10
5.1161775213
 20
5.2123921305
 11
5.1037769545
 21
5.204125082
  0
LINE
  5
26F
100
AcDbEntity
  8
03__ASM_ALL_CURVES
100
AcDbLine
 62
40
  6
CONTINUOUS
 10
4.8185639199
 20
5.1958580395
 11
4.7999630698
 21
5.1875909941
  0
LINE
  5
270
100
AcDbEntity
  8
0
100
AcDbLine
 62
7
  6
CONTINUOUS
 10
3.9498492119
 20
4.3877779591
 11
3.9443492119
 21
4.3932779591
  0
LINE
  5
271
100
AcDbEntity
  8
03__ASM_ALL_CURVES
100
AcDbLine
 62
40
  6
CONTINUOUS
 10
4.8247642032
 20
5.2123921305
 11
4.8247642032
 21
5.1793239515
  0
LINE
  5
272
100
AcDbEntity
  8
03__ASM_ALL_CURVES
100
AcDbLine
 62
40
  6
CONTINUOUS
 10
5.1223778046
 20
5.220659173
 11
5.1161775213
 21
5.2123921305
  0
LINE
  5
273
100
AcDbEntity
  8
03__ASM_ALL_CURVES
100
AcDbLine
 62
40
  6
CONTINUOUS
 10
5.128578088
 20
5.1710569061
 11
5.1161775213
 21
5.1545228174
  0
LINE
  5
274
100
AcDbEntity
  8
03__ASM_ALL_CURVES
100
AcDbLine
 62
40
  6
CONTINUOUS
 10
5.2029814883
 20
5.1627898621
 11
5.1905809216
 21
5.1462557726
  0
LINE
  5
275
100
AcDbEntity
  8
0
100
AcDbLine
 62
7
  6
CONTINUOUS
 10
3.9498492119
 20
3.8567779591
 11
3.9443492119
 21
3.8512779591
  0
LINE
  5
276
100
AcDbEntity
  8
03__ASM_ALL_CURVES
100
AcDbLine
 62
40
  6
CONTINUOUS
 10
5.1161775213
 20
5.1545228174
 11
5.1037769545
 21
5.1462557726
  0
LINE
  5
277
100
AcDbEntity
  8
0
100
AcDbLine
 62
7
  6
CONTINUOUS
 10
5.0696297561
 20
3.4882779591
 11
5.0283492119
 21
3.5597779591
  0
LINE
  5
278
100
AcDbEntity
  8
03__ASM_ALL_CURVES
100
AcDbLine
 62
40
  6
CONTINUOUS
 10
4.8929673202
 20
5.1462557726
 11
4.8929673202
 21
5.1545228174
  0
LINE
  5
279
100
AcDbEntity
  8
0
100
AcDbLine
 62
7
  6
CONTINUOUS
 10
5.0693635873
 20
4.7558169412
 11
5.0283492119
 21
4.6847779591
  0
LINE
  5
27A
100
AcDbEntity
  8
03__ASM_ALL_CURVES
100
AcDbLine
 62
40
  6
CONTINUOUS
 10
6.896595984
 20
3.3288745588
 11
6.887295559
 21
3.3288745588
  0
LINE
  5
27B
100
AcDbEntity
  8
03__ASM_ALL_CURVES
100
AcDbLine
 62
40
  6
CONTINUOUS
 10
7.0965551225
 20
3.3288745588
 11
7.1337568226
 21
3.3288745588
  0
LINE
  5
27C
100
AcDbEntity
  8
03__ASM_ALL_CURVES
100
AcDbLine
 62
40
  6
CONTINUOUS
 10
6.9709993844
 20
3.3660762589
 11
6.9477483218
 21
3.3660762589
  0
LINE
  5
27D
100
AcDbEntity
  8
03__ASM_ALL_CURVES
100
AcDbLine
 62
40
  6
CONTINUOUS
 10
6.8221925837
 20
3.3660762589
 11
6.7989415211
 21
3.3660762589
  0
LINE
  5
27E
100
AcDbEntity
  8
03__ASM_ALL_CURVES
100
AcDbLine
 62
40
  6
CONTINUOUS
 10
6.7989415211
 20
3.4032779591
 11
6.8221925837
 21
3.4032779591
  0
LINE
  5
27F
100
AcDbEntity
  8
03__ASM_ALL_CURVES
100
AcDbLine
 62
40
  6
CONTINUOUS
 10
6.887295559
 20
3.4032779591
 11
6.896595984
 21
3.4032779591
  0
LINE
  5
280
100
AcDbEntity
  8
03__ASM_ALL_CURVES
100
AcDbLine
 62
40
  6
CONTINUOUS
 10
6.9477483218
 20
3.4032779591
 11
6.9709993844
 21
3.4032779591
  0
LINE
  5
281
100
AcDbEntity
  8
03__ASM_ALL_CURVES
100
AcDbLine
 62
40
  6
CONTINUOUS
 10
7.0175015096
 20
3.4032779591
 11
7.0640036348
 21
3.4032779591
  0
LINE
  5
282
100
AcDbEntity
  8
03__ASM_ALL_CURVES
100
AcDbLine
 62
40
  6
CONTINUOUS
 10
7.11050576
 20
3.4032779591
 11
7.1198061851
 21
3.4032779591
  0
LINE
  5
283
100
AcDbEntity
  8
03__ASM_ALL_CURVES
100
AcDbLine
 62
40
  6
CONTINUOUS
 10
4.5891534355
 20
5.1875909941
 11
4.5953537188
 21
5.1627898621
  0
LINE
  5
284
100
AcDbEntity
  8
03__ASM_ALL_CURVES
100
AcDbLine
 62
40
  6
CONTINUOUS
 10
5.0169729875
 20
5.1462557726
 11
5.0169729875
 21
5.2454603064
  0
LINE
  5
285
100
AcDbEntity
  8
0
100
AcDbLine
 62
7
  6
CONTINUOUS
 10
5.0283492119
 20
3.5597842008
 11
5.0283492119
 21
4.6847717174
  0
LINE
  5
286
100
AcDbEntity
  8
0
100
AcDbLine
 62
7
  6
CONTINUOUS
 10
5.0696297561
 20
4.7562779591
 11
5.0696297561
 21
4.7556632686
  0
LINE
  5
287
100
AcDbEntity
  8
0
100
AcDbLine
 62
7
  6
CONTINUOUS
 10
5.0696297561
 20
3.4888926496
 11
5.0696297561
 21
3.4882779591
  0
LINE
  5
288
100
AcDbEntity
  8
0
100
AcDbLine
 62
7
  6
CONTINUOUS
 10
5.0696297561
 20
3.7814132686
 11
5.0696297561
 21
3.8297573402
  0
LINE
  5
289
100
AcDbEntity
  8
0
100
AcDbLine
 62
7
  6
CONTINUOUS
 10
5.0696297561
 20
4.414798578
 11
5.0696297561
 21
4.4631426496
  0
LINE
  5
28A
100
AcDbEntity
  8
03__ASM_ALL_CURVES
100
AcDbLine
 62
40
  6
CONTINUOUS
 10
5.1223778046
 20
5.2289262155
 11
5.1223778046
 21
5.220659173
  0
LINE
  5
28B
100
AcDbEntity
  8
03__ASM_ALL_CURVES
100
AcDbLine
 62
40
  6
CONTINUOUS
 10
5.128578088
 20
5.1793239515
 11
5.128578088
 21
5.1710569061
  0
LINE
  5
28C
100
AcDbEntity
  8
03__ASM_ALL_CURVES
100
AcDbLine
 62
40
  6
CONTINUOUS
 10
5.2091817717
 20
5.1875909941
 11
5.2029814883
 21
5.1627898621
  0
LINE
  5
28D
100
AcDbEntity
  8
0
100
AcDbLine
 62
7
  6
CONTINUOUS
 10
5.5263492119
 20
3.4882779591
 11
5.0696297561
 21
3.4882779591
  0
LINE
  5
28E
100
AcDbEntity
  8
0
100
AcDbLine
 62
7
  6
CONTINUOUS
 10
5.5263492119
 20
3.4888926496
 11
5.0696297561
 21
3.4888926496
  0
LINE
  5
28F
100
AcDbEntity
  8
0
100
AcDbLine
 62
7
  6
CONTINUOUS
 10
5.8723492119
 20
3.5842779591
 11
5.6223492119
 21
3.5842779591
  0
LINE
  5
290
100
AcDbEntity
  8
THREAD
100
AcDbLine
 62
7
  6
CONTINUOUS
 10
5.9193492119
 20
3.6077779591
 11
5.8879376692
 21
3.6077779591
  0
LINE
  5
291
100
AcDbEntity
  8
0
100
AcDbLine
 62
7
  6
CONTINUOUS
 10
5.9893492119
 20
3.6102779591
 11
6.0393492119
 21
3.6102779591
  0
LINE
  5
292
100
AcDbEntity
  8
0
100
AcDbLine
 62
7
  6
CONTINUOUS
 10
4.2503492119
 20
3.6252779591
 11
5.0283492119
 21
3.6252779591
  0
LINE
  5
293
100
AcDbEntity
  8
THREAD
100
AcDbLine
 62
7
  6
CONTINUOUS
 10
6.3243492119
 20
3.6262779591
 11
6.0812885221
 21
3.6262779591
  0
LINE
  5
294
100
AcDbEntity
  8
03__ASM_ALL_CURVES
100
AcDbLine
 62
40
  6
CONTINUOUS
 10
4.2233367171
 20
5.2371932639
 11
4.2295370005
 21
5.2289262155
  0
LINE
  5
295
100
AcDbEntity
  8
03__ASM_ALL_CURVES
100
AcDbLine
 62
40
  6
CONTINUOUS
 10
4.2977401175
 20
5.1545228174
 11
4.3039404008
 21
5.1462557726
  0
LINE
  5
296
100
AcDbEntity
  8
03__ASM_ALL_CURVES
100
AcDbLine
 62
40
  6
CONTINUOUS
 10
4.7255596695
 20
5.1958580395
 11
4.7317599528
 21
5.1793239515
  0
LINE
  5
297
100
AcDbEntity
  8
03__ASM_ALL_CURVES
100
AcDbLine
 62
40
  6
CONTINUOUS
 10
4.7813622197
 20
5.1958580395
 11
4.7751619364
 21
5.2123921305
  0
LINE
  5
298
100
AcDbEntity
  8
03__ASM_ALL_CURVES
100
AcDbLine
 62
40
  6
CONTINUOUS
 10
5.2091817717
 20
5.204125082
 11
5.2091817717
 21
5.1875909941
  0
LINE
  5
299
100
AcDbEntity
  8
03__ASM_ALL_CURVES
100
AcDbLine
 62
40
  6
CONTINUOUS
 10
6.1364812834
 20
5.2371932639
 11
6.1488818501
 21
5.2454603064
  0
LINE
  5
29A
100
AcDbEntity
  8
03__ASM_ALL_CURVES
100
AcDbLine
 62
40
  6
CONTINUOUS
 10
6.2356858172
 20
5.2371932639
 11
6.2480863839
 21
5.2454603064
  0
LINE
  5
29B
100
AcDbEntity
  8
03__ASM_ALL_CURVES
100
AcDbLine
 62
40
  6
CONTINUOUS
 10
6.1736829836
 20
5.1545228174
 11
6.1612824168
 21
5.1462557726
  0
LINE
  5
29C
100
AcDbEntity
  8
THREAD
100
AcDbLine
 62
7
  6
CONTINUOUS
 10
6.0521323335
 20
3.6642779591
 11
6.0393492119
 21
3.6642779591
  0
LINE
  5
29D
100
AcDbEntity
  8
125-198_FEATURES
100
AcDbLine
 62
7
  6
CONTINUOUS
 10
7.2353492119
 20
3.6857779591
 11
7.1483492119
 21
3.6857779591
  0
LINE
  5
29E
100
AcDbEntity
  8
0
100
AcDbLine
 62
7
  6
CONTINUOUS
 10
7.4773492119
 20
3.6860279591
 11
7.4333492119
 21
3.6860279591
  0
LINE
  5
29F
100
AcDbEntity
  8
0
100
AcDbLine
 62
7
  6
CONTINUOUS
 10
7.2353492119
 20
3.6862779591
 11
7.2853492119
 21
3.6862779591
  0
LINE
  5
2A0
100
AcDbEntity
  8
0
100
AcDbLine
 62
7
  6
CONTINUOUS
 10
7.3553492119
 20
3.6862779591
 11
7.4053492119
 21
3.6862779591
  0
LINE
  5
2A1
100
AcDbEntity
  8
125-198_FEATURES
100
AcDbLine
 62
7
  6
CONTINUOUS
 10
7.1483492119
 20
3.7317779591
 11
6.7703492119
 21
3.7317779591
  0
LINE
  5
2A2
100
AcDbEntity
  8
125-198_FEATURES
100
AcDbLine
 62
7
  6
CONTINUOUS
 10
6.5823492119
 20
3.7317779591
 11
6.3673492119
 21
3.7317779591
  0
LINE
  5
2A3
100
AcDbEntity
  8
0
100
AcDbLine
 62
7
  6
CONTINUOUS
 10
7.4333492119
 20
3.7402779591
 11
7.4053492119
 21
3.7402779591
  0
LINE
  5
2A4
100
AcDbEntity
  8
0
100
AcDbLine
 62
7
  6
CONTINUOUS
 10
5.5263492119
 20
3.7814132686
 11
5.0696297561
 21
3.7814132686
  0
LINE
  5
2A5
100
AcDbEntity
  8
03__ASM_ALL_CURVES
100
AcDbLine
 62
40
  6
CONTINUOUS
 10
4.3845440845
 20
5.1545228174
 11
4.3783438012
 21
5.1627898621
  0
LINE
  5
2A6
100
AcDbEntity
  8
03__ASM_ALL_CURVES
100
AcDbLine
 62
40
  6
CONTINUOUS
 10
4.4217457847
 20
5.1958580395
 11
4.4341463514
 21
5.1793239515
  0
LINE
  5
2A7
100
AcDbEntity
  8
03__ASM_ALL_CURVES
100
AcDbLine
 62
40
  6
CONTINUOUS
 10
4.4217457847
 20
5.2371932639
 11
4.4279460681
 21
5.2289262155
  0
LINE
  5
2A8
100
AcDbEntity
  8
03__ASM_ALL_CURVES
100
AcDbLine
 62
40
  6
CONTINUOUS
 10
4.8185639199
 20
5.2289262155
 11
4.8247642032
 21
5.2123921305
  0
LINE
  5
2A9
100
AcDbEntity
  8
03__ASM_ALL_CURVES
100
AcDbLine
 62
40
  6
CONTINUOUS
 10
6.2728875173
 20
5.1545228174
 11
6.2604869506
 21
5.1462557726
  0
LINE
  5
2AA
100
AcDbEntity
  8
0
100
AcDbLine
 62
7
  6
CONTINUOUS
 10
5.5263492119
 20
3.8297573402
 11
5.0696297561
 21
3.8297573402
  0
LINE
  5
2AB
100
AcDbEntity
  8
0
100
AcDbLine
 62
7
  6
CONTINUOUS
 10
3.9813492119
 20
3.8412779591
 11
4.1515729336
 21
3.8412779591
  0
LINE
  5
2AC
100
AcDbEntity
  8
0
100
AcDbLine
 62
7
  6
CONTINUOUS
 10
4.1883492119
 20
3.8512779591
 11
4.1573492119
 21
3.8512779591
  0
LINE
  5
2AD
100
AcDbEntity
  8
0
100
AcDbLine
 62
7
  6
CONTINUOUS
 10
3.9443492119
 20
3.8512779591
 11
3.9383492119
 21
3.8512779591
  0
LINE
  5
2AE
100
AcDbEntity
  8
0
100
AcDbLine
 62
7
  6
CONTINUOUS
 10
3.9658492119
 20
3.8567779591
 11
3.9498492119
 21
3.8567779591
  0
LINE
  5
2AF
100
AcDbEntity
  8
0
100
AcDbLine
 62
7
  6
CONTINUOUS
 10
3.5601678601
 20
3.9382779591
 11
3.8763492119
 21
3.9382779591
  0
LINE
  5
2B0
100
AcDbEntity
  8
03__ASM_ALL_CURVES
100
AcDbLine
 62
40
  6
CONTINUOUS
 10
4.5953537188
 20
5.1627898621
 11
4.6077542856
 21
5.1462557726
  0
LINE
  5
2B1
100
AcDbEntity
  8
03__ASM_ALL_CURVES
100
AcDbLine
 62
40
  6
CONTINUOUS
 10
4.6821576859
 20
5.1545228174
 11
4.6759574026
 21
5.1627898621
  0
LINE
  5
2B2
100
AcDbEntity
  8
03__ASM_ALL_CURVES
100
AcDbLine
 62
40
  6
CONTINUOUS
 10
4.7193593861
 20
5.204125082
 11
4.7255596695
 21
5.1958580395
  0
LINE
  5
2B3
100
AcDbEntity
  8
03__ASM_ALL_CURVES
100
AcDbLine
 62
40
  6
CONTINUOUS
 10
5.2029814883
 20
5.2289262155
 11
5.2091817717
 21
5.204125082
  0
LINE
  5
2B4
100
AcDbEntity
  8
0
100
AcDbLine
 62
7
  6
CONTINUOUS
 10
5.5263492119
 20
3.4882779591
 11
5.5263492119
 21
3.4888926496
  0
LINE
  5
2B5
100
AcDbEntity
  8
0
100
AcDbLine
 62
7
  6
CONTINUOUS
 10
5.5263492119
 20
3.7814132686
 11
5.5263492119
 21
3.8297573402
  0
LINE
  5
2B6
100
AcDbEntity
  8
0
100
AcDbLine
 62
7
  6
CONTINUOUS
 10
5.5263492119
 20
4.414798578
 11
5.5263492119
 21
4.4631426496
  0
LINE
  5
2B7
100
AcDbEntity
  8
0
100
AcDbLine
 62
7
  6
CONTINUOUS
 10
5.5263492119
 20
4.7556632686
 11
5.5263492119
 21
4.7562779591
  0
LINE
  5
2B8
100
AcDbEntity
  8
0
100
AcDbLine
 62
7
  6
CONTINUOUS
 10
5.6223492119
 20
3.5842779591
 11
5.6223492119
 21
4.6602779591
  0
LINE
  5
2B9
100
AcDbEntity
  8
03__ASM_ALL_CURVES
100
AcDbLine
 62
40
  6
CONTINUOUS
 10
6.1240807167
 20
5.220659173
 11
6.1364812834
 21
5.2371932639
  0
LINE
  5
2BA
100
AcDbEntity
  8
03__ASM_ALL_CURVES
100
AcDbLine
 62
40
  6
CONTINUOUS
 10
6.1860835503
 20
5.1710569061
 11
6.1736829836
 21
5.1545228174
  0
LINE
  5
2BB
100
AcDbEntity
  8
03__ASM_ALL_CURVES
100
AcDbLine
 62
40
  6
CONTINUOUS
 10
6.2232852504
 20
5.220659173
 11
6.2356858172
 21
5.2371932639
  0
LINE
  5
2BC
100
AcDbEntity
  8
03__ASM_ALL_CURVES
100
AcDbLine
 62
40
  6
CONTINUOUS
 10
6.2790878007
 20
5.1627898621
 11
6.2728875173
 21
5.1545228174
  0
LINE
  5
2BD
100
AcDbEntity
  8
03__ASM_ALL_CURVES
100
AcDbLine
 62
40
  6
CONTINUOUS
 10
6.7317084861
 20
5.2371932639
 11
6.7441090529
 21
5.2454603064
  0
LINE
  5
2BE
100
AcDbEntity
  8
03__ASM_ALL_CURVES
100
AcDbLine
 62
40
  6
CONTINUOUS
 10
6.7689101863
 20
5.1545228174
 11
6.7565096196
 21
5.1462557726
  0
LINE
  5
2BF
100
AcDbEntity
  8
03__ASM_ALL_CURVES
100
AcDbLine
 62
40
  6
CONTINUOUS
 10
6.9425181205
 20
5.2454603064
 11
6.9301175537
 21
5.2371932639
  0
LINE
  5
2C0
100
AcDbEntity
  8
0
100
AcDbLine
 62
7
  6
CONTINUOUS
 10
4.1264778015
 20
4.1222779591
 11
4.0248200632
 21
4.1222779591
  0
LINE
  5
2C1
100
AcDbEntity
  8
03__ASM_ALL_CURVES
100
AcDbLine
 62
40
  6
CONTINUOUS
 10
7.8550036755
 20
4.1421188659
 11
7.8457032505
 21
4.1421188659
  0
LINE
  5
2C2
100
AcDbEntity
  8
03__ASM_ALL_CURVES
100
AcDbLine
 62
40
  6
CONTINUOUS
 10
6.887295559
 20
3.3288745588
 11
6.8779951339
 21
3.3350748423
  0
LINE
  5
2C3
100
AcDbEntity
  8
03__ASM_ALL_CURVES
100
AcDbLine
 62
40
  6
CONTINUOUS
 10
6.8221925837
 20
3.4032779591
 11
6.8314930087
 21
3.3970776772
  0
LINE
  5
2C4
100
AcDbEntity
  8
03__ASM_ALL_CURVES
100
AcDbLine
 62
40
  6
CONTINUOUS
 10
4.7875625031
 20
5.1545228174
 11
4.7813622197
 21
5.1627898621
  0
LINE
  5
2C5
100
AcDbEntity
  8
03__ASM_ALL_CURVES
100
AcDbLine
 62
40
  6
CONTINUOUS
 10
4.8123636365
 20
5.2371932639
 11
4.8185639199
 21
5.2289262155
  0
LINE
  5
2C6
100
AcDbEntity
  8
03__ASM_ALL_CURVES
100
AcDbLine
 62
40
  6
CONTINUOUS
 10
4.8929673202
 20
5.1545228174
 11
4.8991676036
 21
5.1462557726
  0
LINE
  5
2C7
100
AcDbEntity
  8
03__ASM_ALL_CURVES
100
AcDbLine
 62
40
  6
CONTINUOUS
 10
5.7533037713
 20
5.1264148659
 11
5.7533037713
 21
5.0867330524
  0
LINE
  5
2C8
100
AcDbEntity
  8
03__ASM_ALL_CURVES
100
AcDbLine
 62
40
  6
CONTINUOUS
 10
6.9673192539
 20
5.1545228174
 11
6.9549186872
 21
5.1462557726
  0
LINE
  5
2C9
100
AcDbEntity
  8
03__ASM_ALL_CURVES
100
AcDbLine
 62
40
  6
CONTINUOUS
 10
7.1285266213
 20
5.2371932639
 11
7.1409271881
 21
5.2454603064
  0
LINE
  5
2CA
100
AcDbEntity
  8
03__ASM_ALL_CURVES
100
AcDbLine
 62
40
  6
CONTINUOUS
 10
7.9294070759
 20
4.179320566
 11
7.9061560132
 21
4.179320566
  0
LINE
  5
2CB
100
AcDbEntity
  8
03__ASM_ALL_CURVES
100
AcDbLine
 62
40
  6
CONTINUOUS
 10
7.7806002752
 20
4.179320566
 11
7.7573492126
 21
4.179320566
  0
LINE
  5
2CC
100
AcDbEntity
  8
03__ASM_ALL_CURVES
100
AcDbLine
 62
40
  6
CONTINUOUS
 10
7.7573492126
 20
4.2165222662
 11
7.7806002752
 21
4.2165222662
  0
LINE
  5
2CD
100
AcDbEntity
  8
03__ASM_ALL_CURVES
100
AcDbLine
 62
40
  6
CONTINUOUS
 10
7.8457032505
 20
4.2165222662
 11
7.8550036755
 21
4.2165222662
  0
LINE
  5
2CE
100
AcDbEntity
  8
03__ASM_ALL_CURVES
100
AcDbLine
 62
40
  6
CONTINUOUS
 10
7.9061560132
 20
4.2165222662
 11
7.9294070759
 21
4.2165222662
  0
LINE
  5
2CF
100
AcDbEntity
  8
03__ASM_ALL_CURVES
100
AcDbLine
 62
40
  6
CONTINUOUS
 10
7.9759092011
 20
4.2165222662
 11
8.0224113263
 21
4.2165222662
  0
LINE
  5
2D0
100
AcDbEntity
  8
0
100
AcDbLine
 62
7
  6
CONTINUOUS
 10
3.5601678601
 20
4.3062779591
 11
3.8763492119
 21
4.3062779591
  0
LINE
  5
2D1
100
AcDbEntity
  8
03__ASM_ALL_CURVES
100
AcDbLine
 62
40
  6
CONTINUOUS
 10
6.896595984
 20
3.4032779591
 11
6.9058964091
 21
3.3970776772
  0
LINE
  5
2D2
100
AcDbEntity
  8
03__ASM_ALL_CURVES
100
AcDbLine
 62
40
  6
CONTINUOUS
 10
6.9709993844
 20
3.4032779591
 11
6.9802998094
 21
3.3970776772
  0
LINE
  5
2D3
100
AcDbEntity
  8
03__ASM_ALL_CURVES
100
AcDbLine
 62
40
  6
CONTINUOUS
 10
4.2109361504
 20
5.2454603064
 11
4.2233367171
 21
5.2371932639
  0
LINE
  5
2D4
100
AcDbEntity
  8
03__ASM_ALL_CURVES
100
AcDbLine
 62
40
  6
CONTINUOUS
 10
4.3969446513
 20
5.1462557726
 11
4.3845440845
 21
5.1545228174
  0
LINE
  5
2D5
100
AcDbEntity
  8
03__ASM_ALL_CURVES
100
AcDbLine
 62
40
  6
CONTINUOUS
 10
4.409345218
 20
5.204125082
 11
4.4217457847
 21
5.1958580395
  0
LINE
  5
2D6
100
AcDbEntity
  8
03__ASM_ALL_CURVES
100
AcDbLine
 62
40
  6
CONTINUOUS
 10
7.1198061851
 20
3.4032779591
 11
7.1291066101
 21
3.3970776772
  0
LINE
  5
2D7
100
AcDbEntity
  8
03__ASM_ALL_CURVES
100
AcDbLine
 62
40
  6
CONTINUOUS
 10
5.0789758211
 20
5.1545228174
 11
5.0727755377
 21
5.1627898621
  0
LINE
  5
2D8
100
AcDbEntity
  8
03__ASM_ALL_CURVES
100
AcDbLine
 62
40
  6
CONTINUOUS
 10
5.1161775213
 20
5.1958580395
 11
5.128578088
 21
5.1793239515
  0
LINE
  5
2D9
100
AcDbEntity
  8
03__ASM_ALL_CURVES
100
AcDbLine
 62
40
  6
CONTINUOUS
 10
5.1161775213
 20
5.2371932639
 11
5.1223778046
 21
5.2289262155
  0
LINE
  5
2DA
100
AcDbEntity
  8
THREAD
100
AcDbLine
 62
7
  6
CONTINUOUS
 10
6.0812885221
 20
3.6262779591
 11
6.0629576511
 21
3.6580279591
  0
LINE
  5
2DB
100
AcDbEntity
  8
0
100
AcDbLine
 62
7
  6
CONTINUOUS
 10
5.8723492119
 20
3.5842779591
 11
5.8723492119
 21
4.6602779591
  0
LINE
  5
2DC
100
AcDbEntity
  8
03__ASM_ALL_CURVES
100
AcDbLine
 62
40
  6
CONTINUOUS
 10
5.8723492119
 20
4.6801188659
 11
5.8723492119
 21
5.1462557726
  0
LINE
  5
2DD
100
AcDbEntity
  8
THREAD
100
AcDbLine
 62
7
  6
CONTINUOUS
 10
5.8879376692
 20
3.6077779591
 11
5.8879376692
 21
4.6367779591
  0
LINE
  5
2DE
100
AcDbEntity
  8
THREAD
100
AcDbLine
 62
7
  6
CONTINUOUS
 10
5.9193492119
 20
3.6077779591
 11
5.9193492119
 21
4.6367779591
  0
LINE
  5
2DF
100
AcDbEntity
  8
03__ASM_ALL_CURVES
100
AcDbLine
 62
40
  6
CONTINUOUS
 10
6.1178804333
 20
5.1958580395
 11
6.1240807167
 21
5.220659173
  0
LINE
  5
2E0
100
AcDbEntity
  8
03__ASM_ALL_CURVES
100
AcDbLine
 62
40
  6
CONTINUOUS
 10
6.1922838336
 20
5.1958580395
 11
6.1860835503
 21
5.1710569061
  0
LINE
  5
2E1
100
AcDbEntity
  8
03__ASM_ALL_CURVES
100
AcDbLine
 62
40
  6
CONTINUOUS
 10
6.2170849671
 20
5.1958580395
 11
6.2232852504
 21
5.220659173
  0
LINE
  5
2E2
100
AcDbEntity
  8
THREAD
100
AcDbLine
 62
7
  6
CONTINUOUS
 10
6.0812885221
 20
4.6182779591
 11
6.0629576511
 21
4.5865279591
  0
LINE
  5
2E3
100
AcDbEntity
  8
03__ASM_ALL_CURVES
100
AcDbLine
 62
40
  6
CONTINUOUS
 10
6.7193079194
 20
5.220659173
 11
6.7317084861
 21
5.2371932639
  0
LINE
  5
2E4
100
AcDbEntity
  8
03__ASM_ALL_CURVES
100
AcDbLine
 62
40
  6
CONTINUOUS
 10
7.1657283215
 20
5.1545228174
 11
7.1533277548
 21
5.1462557726
  0
LINE
  5
2E5
100
AcDbEntity
  8
03__ASM_ALL_CURVES
100
AcDbLine
 62
40
  6
CONTINUOUS
 10
7.2649328553
 20
5.1545228174
 11
7.2525322886
 21
5.1462557726
  0
LINE
  5
2E6
100
AcDbEntity
  8
0
100
AcDbLine
 62
7
  6
CONTINUOUS
 10
3.9658492119
 20
4.3877779591
 11
3.9498492119
 21
4.3877779591
  0
LINE
  5
2E7
100
AcDbEntity
  8
0
100
AcDbLine
 62
7
  6
CONTINUOUS
 10
4.1883492119
 20
4.3932779591
 11
4.1573492119
 21
4.3932779591
  0
LINE
  5
2E8
100
AcDbEntity
  8
0
100
AcDbLine
 62
7
  6
CONTINUOUS
 10
3.9443492119
 20
4.3932779591
 11
3.9383492119
 21
4.3932779591
  0
LINE
  5
2E9
100
AcDbEntity
  8
0
100
AcDbLine
 62
7
  6
CONTINUOUS
 10
3.9813492119
 20
4.4032779591
 11
4.1515729336
 21
4.4032779591
  0
LINE
  5
2EA
100
AcDbEntity
  8
0
100
AcDbLine
 62
7
  6
CONTINUOUS
 10
5.5263492119
 20
4.414798578
 11
5.0696297561
 21
4.414798578
  0
LINE
  5
2EB
100
AcDbEntity
  8
0
100
AcDbLine
 62
7
  6
CONTINUOUS
 10
5.5263492119
 20
4.4631426496
 11
5.0696297561
 21
4.4631426496
  0
LINE
  5
2EC
100
AcDbEntity
  8
03__ASM_ALL_CURVES
100
AcDbLine
 62
40
  6
CONTINUOUS
 10
4.409345218
 20
5.2454603064
 11
4.4217457847
 21
5.2371932639
  0
LINE
  5
2ED
100
AcDbEntity
  8
03__ASM_ALL_CURVES
100
AcDbLine
 62
40
  6
CONTINUOUS
 10
4.6945582526
 20
5.1462557726
 11
4.6821576859
 21
5.1545228174
  0
LINE
  5
2EE
100
AcDbEntity
  8
03__ASM_ALL_CURVES
100
AcDbLine
 62
40
  6
CONTINUOUS
 10
4.7999630698
 20
5.1462557726
 11
4.7875625031
 21
5.1545228174
  0
LINE
  5
2EF
100
AcDbEntity
  8
03__ASM_ALL_CURVES
100
AcDbLine
 62
40
  6
CONTINUOUS
 10
4.7069588194
 20
5.2123921305
 11
4.7193593861
 21
5.204125082
  0
LINE
  5
2F0
100
AcDbEntity
  8
0
100
AcDbLine
 62
7
  6
CONTINUOUS
 10
5.6223492119
 20
4.6602779591
 11
5.5266565572
 21
4.7559706138
  0
LINE
  5
2F1
100
AcDbEntity
  8
03__ASM_ALL_CURVES
100
AcDbLine
 62
40
  6
CONTINUOUS
 10
5.1905809216
 20
5.2454603064
 11
5.2029814883
 21
5.2289262155
  0
LINE
  5
2F2
100
AcDbEntity
  8
0
100
AcDbLine
 62
7
  6
CONTINUOUS
 10
5.9893492119
 20
3.6102779591
 11
5.9893492119
 21
4.6342779591
  0
LINE
  5
2F3
100
AcDbEntity
  8
03__ASM_ALL_CURVES
100
AcDbLine
 62
40
  6
CONTINUOUS
 10
5.9913946525
 20
5.1264148659
 11
5.9913946525
 21
5.0867330524
  0
LINE
  5
2F4
100
AcDbEntity
  8
03__ASM_ALL_CURVES
100
AcDbLine
 62
40
  6
CONTINUOUS
 10
6.0310764662
 20
5.2454603064
 11
6.0310764662
 21
5.1462557726
  0
LINE
  5
2F5
100
AcDbEntity
  8
0
100
AcDbLine
 62
7
  6
CONTINUOUS
 10
6.0393492119
 20
3.6102779591
 11
6.0393492119
 21
4.6342779591
  0
LINE
  5
2F6
100
AcDbEntity
  8
THREAD
100
AcDbLine
 62
7
  6
CONTINUOUS
 10
6.0521323335
 20
3.6642779591
 11
6.0521323335
 21
4.5802779591
  0
LINE
  5
2F7
100
AcDbEntity
  8
THREAD
100
AcDbLine
 62
7
  6
CONTINUOUS
 10
6.0629576511
 20
3.6580279591
 11
6.0629576511
 21
4.5865279591
  0
LINE
  5
2F8
100
AcDbEntity
  8
THREAD
100
AcDbLine
 62
7
  6
CONTINUOUS
 10
6.0812885221
 20
3.6262779591
 11
6.0812885221
 21
4.6182779591
  0
LINE
  5
2F9
100
AcDbEntity
  8
03__ASM_ALL_CURVES
100
AcDbLine
 62
40
  6
CONTINUOUS
 10
6.3224897842
 20
5.1462557726
 11
6.3534912011
 21
5.2454603064
  0
LINE
  5
2FA
100
AcDbEntity
  8
03__ASM_ALL_CURVES
100
AcDbLine
 62
40
  6
CONTINUOUS
 10
6.7751104697
 20
5.1627898621
 11
6.7689101863
 21
5.1545228174
  0
LINE
  5
2FB
100
AcDbEntity
  8
03__ASM_ALL_CURVES
100
AcDbLine
 62
40
  6
CONTINUOUS
 10
6.9301175537
 20
5.2371932639
 11
6.9239172704
 21
5.2289262155
  0
LINE
  5
2FC
100
AcDbEntity
  8
03__ASM_ALL_CURVES
100
AcDbLine
 62
40
  6
CONTINUOUS
 10
7.4571416395
 20
5.1545228174
 11
7.4447410728
 21
5.1462557726
  0
LINE
  5
2FD
100
AcDbEntity
  8
03__ASM_ALL_CURVES
100
AcDbLine
 62
40
  6
CONTINUOUS
 10
7.6617509905
 20
5.204125082
 11
7.6493504238
 21
5.1958580395
  0
LINE
  5
2FE
100
AcDbEntity
  8
0
100
AcDbLine
 62
7
  6
CONTINUOUS
 10
7.4333492119
 20
4.5042779591
 11
7.4053492119
 21
4.5042779591
  0
LINE
  5
2FF
100
AcDbEntity
  8
125-198_FEATURES
100
AcDbLine
 62
7
  6
CONTINUOUS
 10
7.1483492119
 20
4.5127779591
 11
6.6838492119
 21
4.5127779591
  0
LINE
  5
300
100
AcDbEntity
  8
125-198_FEATURES
100
AcDbLine
 62
7
  6
CONTINUOUS
 10
6.4188492119
 20
4.5127779591
 11
6.3673492119
 21
4.5127779591
  0
LINE
  5
301
100
AcDbEntity
  8
0
100
AcDbLine
 62
7
  6
CONTINUOUS
 10
7.2353492119
 20
4.5582779591
 11
7.2853492119
 21
4.5582779591
  0
LINE
  5
302
100
AcDbEntity
  8
0
100
AcDbLine
 62
7
  6
CONTINUOUS
 10
7.3553492119
 20
4.5582779591
 11
7.4053492119
 21
4.5582779591
  0
LINE
  5
303
100
AcDbEntity
  8
0
100
AcDbLine
 62
7
  6
CONTINUOUS
 10
7.4773492119
 20
4.5585279591
 11
7.4333492119
 21
4.5585279591
  0
LINE
  5
304
100
AcDbEntity
  8
125-198_FEATURES
100
AcDbLine
 62
7
  6
CONTINUOUS
 10
7.2353492119
 20
4.5587779591
 11
7.1483492119
 21
4.5587779591
  0
LINE
  5
305
100
AcDbEntity
  8
THREAD
100
AcDbLine
 62
7
  6
CONTINUOUS
 10
6.0521323335
 20
4.5802779591
 11
6.0393492119
 21
4.5802779591
  0
LINE
  5
306
100
AcDbEntity
  8
THREAD
100
AcDbLine
 62
7
  6
CONTINUOUS
 10
6.3243492119
 20
4.6182779591
 11
6.0812885221
 21
4.6182779591
  0
LINE
  5
307
100
AcDbEntity
  8
0
100
AcDbLine
 62
7
  6
CONTINUOUS
 10
4.2503492119
 20
4.6192779591
 11
5.0283492119
 21
4.6192779591
  0
LINE
  5
308
100
AcDbEntity
  8
0
100
AcDbLine
 62
7
  6
CONTINUOUS
 10
5.9893492119
 20
4.6342779591
 11
6.0393492119
 21
4.6342779591
  0
LINE
  5
309
100
AcDbEntity
  8
THREAD
100
AcDbLine
 62
7
  6
CONTINUOUS
 10
5.9193492119
 20
4.6367779591
 11
5.8879376692
 21
4.6367779591
  0
LINE
  5
30A
100
AcDbEntity
  8
THREAD
100
AcDbLine
 62
7
  6
CONTINUOUS
 10
5.8879376692
 20
4.6367779591
 11
5.8723492119
 21
4.6457779591
  0
LINE
  5
30B
100
AcDbEntity
  8
03__ASM_ALL_CURVES
100
AcDbLine
 62
40
  6
CONTINUOUS
 10
4.7999630698
 20
5.2454603064
 11
4.8123636365
 21
5.2371932639
  0
LINE
  5
30C
100
AcDbEntity
  8
03__ASM_ALL_CURVES
100
AcDbLine
 62
40
  6
CONTINUOUS
 10
5.0913763878
 20
5.1462557726
 11
5.0789758211
 21
5.1545228174
  0
LINE
  5
30D
100
AcDbEntity
  8
03__ASM_ALL_CURVES
100
AcDbLine
 62
40
  6
CONTINUOUS
 10
6.8779951339
 20
3.3350748423
 11
6.8686947089
 21
3.3474754089
  0
LINE
  5
30E
100
AcDbEntity
  8
03__ASM_ALL_CURVES
100
AcDbLine
 62
40
  6
CONTINUOUS
 10
6.8314930087
 20
3.3970776772
 11
6.8361432212
 21
3.3908773909
  0
LINE
  5
30F
100
AcDbEntity
  8
03__ASM_ALL_CURVES
100
AcDbLine
 62
40
  6
CONTINUOUS
 10
6.9058964091
 20
3.3970776772
 11
6.9151968341
 21
3.384677109
  0
LINE
  5
310
100
AcDbEntity
  8
03__ASM_ALL_CURVES
100
AcDbLine
 62
40
  6
CONTINUOUS
 10
6.9735195373
 20
5.1627898621
 11
6.9673192539
 21
5.1545228174
  0
LINE
  5
311
100
AcDbEntity
  8
03__ASM_ALL_CURVES
100
AcDbLine
 62
40
  6
CONTINUOUS
 10
7.1161260546
 20
5.220659173
 11
7.1285266213
 21
5.2371932639
  0
LINE
  5
312
100
AcDbEntity
  8
0
100
AcDbLine
 62
7
  6
CONTINUOUS
 10
5.6223492119
 20
3.5842779591
 11
5.5266565572
 21
3.4885853044
  0
LINE
  5
313
100
AcDbEntity
  8
0
100
AcDbLine
 62
7
  6
CONTINUOUS
 10
5.8723492119
 20
4.6602779591
 11
5.6223492119
 21
4.6602779591
  0
LINE
  5
314
100
AcDbEntity
  8
0
100
AcDbLine
 62
7
  6
CONTINUOUS
 10
5.5263492119
 20
4.7556632686
 11
5.0696297561
 21
4.7556632686
  0
LINE
  5
315
100
AcDbEntity
  8
0
100
AcDbLine
 62
7
  6
CONTINUOUS
 10
5.5263492119
 20
4.7562779591
 11
5.0696297561
 21
4.7562779591
  0
LINE
  5
316
100
AcDbEntity
  8
03__ASM_ALL_CURVES
100
AcDbLine
 62
40
  6
CONTINUOUS
 10
3.6482133007
 20
5.0900398701
 11
3.5291678601
 21
5.1065739591
  0
LINE
  5
317
100
AcDbEntity
  8
03__ASM_ALL_CURVES
100
AcDbLine
 62
40
  6
CONTINUOUS
 10
3.6482133007
 20
5.0867330524
 11
3.5291678601
 21
5.1065739591
  0
LINE
  5
318
100
AcDbEntity
  8
03__ASM_ALL_CURVES
100
AcDbLine
 62
40
  6
CONTINUOUS
 10
4.7999630698
 20
5.1875909941
 11
4.7813622197
 21
5.1958580395
  0
LINE
  5
319
100
AcDbEntity
  8
03__ASM_ALL_CURVES
100
AcDbLine
 62
40
  6
CONTINUOUS
 10
5.1037769545
 20
5.204125082
 11
5.1161775213
 21
5.1958580395
  0
LINE
  5
31A
100
AcDbEntity
  8
03__ASM_ALL_CURVES
100
AcDbLine
 62
40
  6
CONTINUOUS
 10
5.1037769545
 20
5.2454603064
 11
5.1161775213
 21
5.2371932639
  0
LINE
  5
31B
100
AcDbEntity
  8
03__ASM_ALL_CURVES
100
AcDbLine
 62
40
  6
CONTINUOUS
 10
6.9802998094
 20
3.3970776772
 11
6.9849500219
 21
3.3908773909
  0
LINE
  5
31C
100
AcDbEntity
  8
THREAD
100
AcDbLine
 62
7
  6
CONTINUOUS
 10
6.3243492119
 20
3.6262779591
 11
6.3243492119
 21
4.6182779591
  0
LINE
  5
31D
100
AcDbEntity
  8
125-198_FEATURES
100
AcDbLine
 62
7
  6
CONTINUOUS
 10
6.3673492119
 20
3.6692779591
 11
6.3673492119
 21
4.5752779591
  0
LINE
  5
31E
100
AcDbEntity
  8
03__ASM_ALL_CURVES
100
AcDbLine
 62
40
  6
CONTINUOUS
 10
6.4526957349
 20
5.2454603064
 11
6.4526957349
 21
5.1462557726
  0
LINE
  5
31F
100
AcDbEntity
  8
03__ASM_ALL_CURVES
100
AcDbLine
 62
40
  6
CONTINUOUS
 10
6.7131076361
 20
5.1958580395
 11
6.7193079194
 21
5.220659173
  0
LINE
  5
320
100
AcDbEntity
  8
03__ASM_ALL_CURVES
100
AcDbLine
 62
40
  6
CONTINUOUS
 10
7.1781288882
 20
5.1710569061
 11
7.1657283215
 21
5.1545228174
  0
LINE
  5
321
100
AcDbEntity
  8
03__ASM_ALL_CURVES
100
AcDbLine
 62
40
  6
CONTINUOUS
 10
7.2711331387
 20
5.1627898621
 11
7.2649328553
 21
5.1545228174
  0
LINE
  5
322
100
AcDbEntity
  8
THREAD
100
AcDbLine
 62
7
  6
CONTINUOUS
 10
5.8879376692
 20
3.6077779591
 11
5.8723492119
 21
3.5987779591
  0
LINE
  5
323
100
AcDbEntity
  8
03__ASM_ALL_CURVES
100
AcDbLine
 62
40
  6
CONTINUOUS
 10
3.6482133007
 20
5.0966535057
 11
3.5291678601
 21
5.1065739591
  0
LINE
  5
324
100
AcDbEntity
  8
03__ASM_ALL_CURVES
100
AcDbLine
 62
40
  6
CONTINUOUS
 10
3.6482133007
 20
5.0933466879
 11
3.5291678601
 21
5.1065739591
  0
LINE
  5
325
100
AcDbEntity
  8
THREAD
100
AcDbLine
 62
7
  6
CONTINUOUS
 10
6.3673492119
 20
4.5752779591
 11
6.3243492119
 21
4.6182779591
  0
LINE
  5
326
100
AcDbEntity
  8
03__ASM_ALL_CURVES
100
AcDbLine
 62
40
  6
CONTINUOUS
 10
7.1291066101
 20
3.3970776772
 11
7.1337568226
 21
3.3908773909
  0
LINE
  5
327
100
AcDbEntity
  8
03__ASM_ALL_CURVES
100
AcDbLine
 62
40
  6
CONTINUOUS
 10
6.1240807167
 20
5.1710569061
 11
6.1178804333
 21
5.1958580395
  0
LINE
  5
328
100
AcDbEntity
  8
03__ASM_ALL_CURVES
100
AcDbLine
 62
40
  6
CONTINUOUS
 10
6.1860835503
 20
5.220659173
 11
6.1922838336
 21
5.1958580395
  0
LINE
  5
329
100
AcDbEntity
  8
03__ASM_ALL_CURVES
100
AcDbLine
 62
40
  6
CONTINUOUS
 10
6.2232852504
 20
5.1710569061
 11
6.2170849671
 21
5.1958580395
  0
LINE
  5
32A
100
AcDbEntity
  8
0
100
AcDbLine
 62
7
  6
CONTINUOUS
 10
6.4911678601
 20
3.8997741388
 11
6.4911678601
 21
4.0382352811
  0
LINE
  5
32B
100
AcDbEntity
  8
0
100
AcDbLine
 62
7
  6
CONTINUOUS
 10
6.4981678601
 20
3.8978671228
 11
6.4981678601
 21
4.0411444388
  0
LINE
  5
32C
100
AcDbEntity
  8
0
100
AcDbLine
 62
7
  6
CONTINUOUS
 10
6.5081678601
 20
3.8951428144
 11
6.5081678601
 21
4.0453003785
  0
LINE
  5
32D
100
AcDbEntity
  8
0
100
AcDbLine
 62
7
  6
CONTINUOUS
 10
6.5151678601
 20
3.8940188685
 11
6.5151678601
 21
4.0480201894
  0
LINE
  5
32E
100
AcDbEntity
  8
03__ASM_ALL_CURVES
100
AcDbLine
 62
40
  6
CONTINUOUS
 10
6.5519002686
 20
5.2454603064
 11
6.5519002686
 21
5.1462557726
  0
LINE
  5
32F
100
AcDbEntity
  8
0
100
AcDbLine
 62
7
  6
CONTINUOUS
 10
6.5851678601
 20
3.893490042
 11
6.5851678601
 21
4.0482289952
  0
LINE
  5
330
100
AcDbEntity
  8
0
100
AcDbLine
 62
7
  6
CONTINUOUS
 10
6.5921678601
 20
4.2905973125
 11
6.5921678601
 21
4.2808395746
  0
LINE
  5
331
100
AcDbEntity
  8
0
100
AcDbLine
 62
7
  6
CONTINUOUS
 10
6.5921678601
 20
3.8948378516
 11
6.5921678601
 21
4.0466453202
  0
LINE
  5
332
100
AcDbEntity
  8
0
100
AcDbLine
 62
7
  6
CONTINUOUS
 10
6.6021678601
 20
4.3030976264
 11
6.6021678601
 21
4.2662946104
  0
LINE
  5
333
100
AcDbEntity
  8
0
100
AcDbLine
 62
7
  6
CONTINUOUS
 10
6.6021678601
 20
3.8972376156
 11
6.6021678601
 21
4.0421434871
  0
LINE
  5
334
100
AcDbEntity
  8
0
100
AcDbLine
 62
7
  6
CONTINUOUS
 10
6.6091678601
 20
3.8989174505
 11
6.6091678601
 21
4.038992204
  0
LINE
  5
335
100
AcDbEntity
  8
0
100
AcDbLine
 62
7
  6
CONTINUOUS
 10
6.6091678601
 20
4.2582720257
 11
6.6091678601
 21
4.3089574178
  0
LINE
  5
336
100
AcDbEntity
  8
03__ASM_ALL_CURVES
100
AcDbLine
 62
40
  6
CONTINUOUS
 10
6.626303669
 20
5.1462557726
 11
6.626303669
 21
5.2454603064
  0
LINE
  5
337
100
AcDbEntity
  8
03__ASM_ALL_CURVES
100
AcDbLine
 62
40
  6
CONTINUOUS
 10
7.4695422062
 20
5.1710569061
 11
7.4571416395
 21
5.1545228174
  0
LINE
  5
338
100
AcDbEntity
  8
THREAD
100
AcDbLine
 62
7
  6
CONTINUOUS
 10
6.3673492119
 20
3.6692779591
 11
6.3243492119
 21
3.6262779591
  0
LINE
  5
339
100
AcDbEntity
  8
03__ASM_ALL_CURVES
100
AcDbLine
 62
40
  6
CONTINUOUS
 10
5.7533037713
 20
5.0867330524
 11
5.9913946525
 21
5.1264148659
  0
LINE
  5
33A
100
AcDbEntity
  8
03__ASM_ALL_CURVES
100
AcDbLine
 62
40
  6
CONTINUOUS
 10
5.7533037713
 20
5.0900398701
 11
5.9913946525
 21
5.1231080481
  0
LINE
  5
33B
100
AcDbEntity
  8
03__ASM_ALL_CURVES
100
AcDbLine
 62
40
  6
CONTINUOUS
 10
5.7533037713
 20
5.0933466879
 11
5.9913946525
 21
5.1198012303
  0
LINE
  5
33C
100
AcDbEntity
  8
03__ASM_ALL_CURVES
100
AcDbLine
 62
40
  6
CONTINUOUS
 10
5.7533037713
 20
5.0966535057
 11
5.9913946525
 21
5.1164944125
  0
LINE
  5
33D
100
AcDbEntity
  8
03__ASM_ALL_CURVES
100
AcDbLine
 62
40
  6
CONTINUOUS
 10
5.7533037713
 20
5.0999603235
 11
5.9913946525
 21
5.1131875947
  0
LINE
  5
33E
100
AcDbEntity
  8
03__ASM_ALL_CURVES
100
AcDbLine
 62
40
  6
CONTINUOUS
 10
5.7533037713
 20
5.1032671413
 11
5.9913946525
 21
5.1098807769
  0
LINE
  5
33F
100
AcDbEntity
  8
03__ASM_ALL_CURVES
100
AcDbLine
 62
40
  6
CONTINUOUS
 10
3.5291678601
 20
5.1065739591
 11
7.7770762608
 21
5.1065739591
  0
LINE
  5
340
100
AcDbEntity
  8
03__ASM_ALL_CURVES
100
AcDbLine
 62
40
  6
CONTINUOUS
 10
3.6482133007
 20
5.1032671413
 11
3.5291678601
 21
5.1065739591
  0
LINE
  5
341
100
AcDbEntity
  8
03__ASM_ALL_CURVES
100
AcDbLine
 62
40
  6
CONTINUOUS
 10
5.7533037713
 20
5.1098807769
 11
5.9913946525
 21
5.1032671413
  0
LINE
  5
342
100
AcDbEntity
  8
03__ASM_ALL_CURVES
100
AcDbLine
 62
40
  6
CONTINUOUS
 10
3.6482133007
 20
5.0999603235
 11
3.5291678601
 21
5.1065739591
  0
LINE
  5
343
100
AcDbEntity
  8
03__ASM_ALL_CURVES
100
AcDbLine
 62
40
  6
CONTINUOUS
 10
5.7533037713
 20
5.1131875947
 11
5.9913946525
 21
5.0999603235
  0
LINE
  5
344
100
AcDbEntity
  8
03__ASM_ALL_CURVES
100
AcDbLine
 62
40
  6
CONTINUOUS
 10
5.7533037713
 20
5.1164944125
 11
5.9913946525
 21
5.0966535057
  0
LINE
  5
345
100
AcDbEntity
  8
03__ASM_ALL_CURVES
100
AcDbLine
 62
40
  6
CONTINUOUS
 10
5.7533037713
 20
5.1198012303
 11
5.9913946525
 21
5.0933466879
  0
LINE
  5
346
100
AcDbEntity
  8
03__ASM_ALL_CURVES
100
AcDbLine
 62
40
  6
CONTINUOUS
 10
5.7533037713
 20
5.1231080481
 11
5.9913946525
 21
5.0900398701
  0
LINE
  5
347
100
AcDbEntity
  8
03__ASM_ALL_CURVES
100
AcDbLine
 62
40
  6
CONTINUOUS
 10
5.9913946525
 20
5.0867330524
 11
5.7533037713
 21
5.1264148659
  0
LINE
  5
348
100
AcDbEntity
  8
03__ASM_ALL_CURVES
100
AcDbLine
 62
40
  6
CONTINUOUS
 10
6.1364812834
 20
5.1545228174
 11
6.1240807167
 21
5.1710569061
  0
LINE
  5
349
100
AcDbEntity
  8
03__ASM_ALL_CURVES
100
AcDbLine
 62
40
  6
CONTINUOUS
 10
6.9709993844
 20
3.3660762589
 11
6.9849500219
 21
3.3288745588
  0
LINE
  5
34A
100
AcDbEntity
  8
03__ASM_ALL_CURVES
100
AcDbLine
 62
40
  6
CONTINUOUS
 10
6.3534912011
 20
5.2454603064
 11
6.3844926179
 21
5.1462557726
  0
LINE
  5
34B
100
AcDbEntity
  8
03__ASM_ALL_CURVES
100
AcDbLine
 62
40
  6
CONTINUOUS
 10
6.8686947089
 20
3.3474754089
 11
6.8640444964
 21
3.3660762589
  0
LINE
  5
34C
100
AcDbEntity
  8
03__ASM_ALL_CURVES
100
AcDbLine
 62
40
  6
CONTINUOUS
 10
6.6759059359
 20
5.1462557726
 11
6.6759059359
 21
5.2454603064
  0
LINE
  5
34D
100
AcDbEntity
  8
0
100
AcDbLine
 62
7
  6
CONTINUOUS
 10
6.6791678601
 20
4.2310332426
 11
6.6791678601
 21
4.3290549221
  0
LINE
  5
34E
100
AcDbEntity
  8
0
100
AcDbLine
 62
7
  6
CONTINUOUS
 10
6.6861678601
 20
4.3290487899
 11
6.6861678601
 21
4.2310343176
  0
LINE
  5
34F
100
AcDbEntity
  8
0
100
AcDbLine
 62
7
  6
CONTINUOUS
 10
6.6961678601
 20
4.3275963255
 11
6.6961678601
 21
4.233116719
  0
LINE
  5
350
100
AcDbEntity
  8
0
100
AcDbLine
 62
7
  6
CONTINUOUS
 10
6.7031678601
 20
4.2347940135
 11
6.7031678601
 21
4.3265206665
  0
LINE
  5
351
100
AcDbEntity
  8
03__ASM_ALL_CURVES
100
AcDbLine
 62
40
  6
CONTINUOUS
 10
6.7751104697
 20
5.1958580395
 11
6.7751104697
 21
5.1627898621
  0
LINE
  5
352
100
AcDbEntity
  8
03__ASM_ALL_CURVES
100
AcDbLine
 62
40
  6
CONTINUOUS
 10
6.7989415211
 20
3.3288745588
 11
6.7989415211
 21
3.4032779591
  0
LINE
  5
353
100
AcDbEntity
  8
03__ASM_ALL_CURVES
100
AcDbLine
 62
40
  6
CONTINUOUS
 10
7.6679512738
 20
5.2123921305
 11
7.6617509905
 21
5.204125082
  0
LINE
  5
354
100
AcDbEntity
  8
03__ASM_ALL_CURVES
100
AcDbLine
 62
40
  6
CONTINUOUS
 10
3.6482133007
 20
5.1164944125
 11
3.5291678601
 21
5.1065739591
  0
LINE
  5
355
100
AcDbEntity
  8
03__ASM_ALL_CURVES
100
AcDbLine
 62
40
  6
CONTINUOUS
 10
3.6482133007
 20
5.1131875947
 11
3.5291678601
 21
5.1065739591
  0
LINE
  5
356
100
AcDbEntity
  8
03__ASM_ALL_CURVES
100
AcDbLine
 62
40
  6
CONTINUOUS
 10
3.6482133007
 20
5.1098807769
 11
3.5291678601
 21
5.1065739591
  0
LINE
  5
357
100
AcDbEntity
  8
03__ASM_ALL_CURVES
100
AcDbLine
 62
40
  6
CONTINUOUS
 10
7.56874674
 20
5.1462557726
 11
7.5191444731
 21
5.1462557726
  0
LINE
  5
358
100
AcDbEntity
  8
03__ASM_ALL_CURVES
100
AcDbLine
 62
40
  6
CONTINUOUS
 10
7.4447410728
 20
5.1462557726
 11
7.4199399394
 21
5.1462557726
  0
LINE
  5
359
100
AcDbEntity
  8
03__ASM_ALL_CURVES
100
AcDbLine
 62
40
  6
CONTINUOUS
 10
7.2525322886
 20
5.1462557726
 11
7.2401317218
 21
5.1462557726
  0
LINE
  5
35A
100
AcDbEntity
  8
03__ASM_ALL_CURVES
100
AcDbLine
 62
40
  6
CONTINUOUS
 10
7.1533277548
 20
5.1462557726
 11
7.1409271881
 21
5.1462557726
  0
LINE
  5
35B
100
AcDbEntity
  8
03__ASM_ALL_CURVES
100
AcDbLine
 62
40
  6
CONTINUOUS
 10
6.9549186872
 20
5.1462557726
 11
6.9425181205
 21
5.1462557726
  0
LINE
  5
35C
100
AcDbEntity
  8
03__ASM_ALL_CURVES
100
AcDbLine
 62
40
  6
CONTINUOUS
 10
6.7565096196
 20
5.1462557726
 11
6.7441090529
 21
5.1462557726
  0
LINE
  5
35D
100
AcDbEntity
  8
03__ASM_ALL_CURVES
100
AcDbLine
 62
40
  6
CONTINUOUS
 10
6.2604869506
 20
5.1462557726
 11
6.2480863839
 21
5.1462557726
  0
LINE
  5
35E
100
AcDbEntity
  8
03__ASM_ALL_CURVES
100
AcDbLine
 62
40
  6
CONTINUOUS
 10
6.1612824168
 20
5.1462557726
 11
6.1488818501
 21
5.1462557726
  0
LINE
  5
35F
100
AcDbEntity
  8
03__ASM_ALL_CURVES
100
AcDbLine
 62
40
  6
CONTINUOUS
 10
5.1037769545
 20
5.1462557726
 11
5.0913763878
 21
5.1462557726
  0
LINE
  5
360
100
AcDbEntity
  8
03__ASM_ALL_CURVES
100
AcDbLine
 62
40
  6
CONTINUOUS
 10
4.8991676036
 20
5.1462557726
 11
4.8929673202
 21
5.1462557726
  0
LINE
  5
361
100
AcDbEntity
  8
03__ASM_ALL_CURVES
100
AcDbLine
 62
40
  6
CONTINUOUS
 10
4.7069588194
 20
5.1462557726
 11
4.6945582526
 21
5.1462557726
  0
LINE
  5
362
100
AcDbEntity
  8
03__ASM_ALL_CURVES
100
AcDbLine
 62
40
  6
CONTINUOUS
 10
4.409345218
 20
5.1462557726
 11
4.3969446513
 21
5.1462557726
  0
LINE
  5
363
100
AcDbEntity
  8
03__ASM_ALL_CURVES
100
AcDbLine
 62
40
  6
CONTINUOUS
 10
4.3039404008
 20
5.1462557726
 11
4.2977401175
 21
5.1462557726
  0
LINE
  5
364
100
AcDbEntity
  8
03__ASM_ALL_CURVES
100
AcDbLine
 62
40
  6
CONTINUOUS
 10
4.1799347336
 20
5.1462557726
 11
4.2295370005
 21
5.1462557726
  0
LINE
  5
365
100
AcDbEntity
  8
03__ASM_ALL_CURVES
100
AcDbLine
 62
40
  6
CONTINUOUS
 10
6.0310764662
 20
5.1462557726
 11
6.0806787331
 21
5.1462557726
  0
LINE
  5
366
100
AcDbEntity
  8
03__ASM_ALL_CURVES
100
AcDbLine
 62
40
  6
CONTINUOUS
 10
7.3207354056
 20
5.1462557726
 11
7.3703376725
 21
5.1462557726
  0
LINE
  5
367
100
AcDbEntity
  8
03__ASM_ALL_CURVES
100
AcDbLine
 62
40
  6
CONTINUOUS
 10
4.477548335
 20
5.1710569061
 11
4.5333508852
 21
5.1710569061
  0
LINE
  5
368
100
AcDbEntity
  8
03__ASM_ALL_CURVES
100
AcDbLine
 62
40
  6
CONTINUOUS
 10
4.9735710039
 20
5.1710569061
 11
5.0293735542
 21
5.1710569061
  0
LINE
  5
369
100
AcDbEntity
  8
03__ASM_ALL_CURVES
100
AcDbLine
 62
40
  6
CONTINUOUS
 10
6.334890351
 20
5.1793239515
 11
6.3720920511
 21
5.1793239515
  0
LINE
  5
36A
100
AcDbEntity
  8
03__ASM_ALL_CURVES
100
AcDbLine
 62
40
  6
CONTINUOUS
 10
7.6493504238
 20
5.1958580395
 11
7.6183490069
 21
5.1958580395
  0
LINE
  5
36B
100
AcDbEntity
  8
03__ASM_ALL_CURVES
100
AcDbLine
 62
40
  6
CONTINUOUS
 10
6.7503093362
 20
5.1958580395
 11
6.7751104697
 21
5.1958580395
  0
LINE
  5
36C
100
AcDbEntity
  8
03__ASM_ALL_CURVES
100
AcDbLine
 62
40
  6
CONTINUOUS
 10
7.0231218042
 20
5.1958580395
 11
7.0727240711
 21
5.1958580395
  0
LINE
  5
36D
100
AcDbEntity
  8
03__ASM_ALL_CURVES
100
AcDbLine
 62
40
  6
CONTINUOUS
 10
7.5191444731
 20
5.1958580395
 11
7.55014589
 21
5.1958580395
  0
LINE
  5
36E
100
AcDbEntity
  8
03__ASM_ALL_CURVES
100
AcDbLine
 62
40
  6
CONTINUOUS
 10
4.3969446513
 20
5.204125082
 11
4.409345218
 21
5.204125082
  0
LINE
  5
36F
100
AcDbEntity
  8
03__ASM_ALL_CURVES
100
AcDbLine
 62
40
  6
CONTINUOUS
 10
5.0913763878
 20
5.204125082
 11
5.1037769545
 21
5.204125082
  0
LINE
  5
370
100
AcDbEntity
  8
03__ASM_ALL_CURVES
100
AcDbLine
 62
40
  6
CONTINUOUS
 10
4.6945582526
 20
5.2123921305
 11
4.7069588194
 21
5.2123921305
  0
LINE
  5
371
100
AcDbEntity
  8
03__ASM_ALL_CURVES
100
AcDbLine
 62
40
  6
CONTINUOUS
 10
6.9549186872
 20
5.2454603064
 11
6.9425181205
 21
5.2454603064
  0
LINE
  5
372
100
AcDbEntity
  8
03__ASM_ALL_CURVES
100
AcDbLine
 62
40
  6
CONTINUOUS
 10
4.7255596695
 20
5.2454603064
 11
4.6883579693
 21
5.2454603064
  0
LINE
  5
373
100
AcDbEntity
  8
03__ASM_ALL_CURVES
100
AcDbLine
 62
40
  6
CONTINUOUS
 10
4.1985355837
 20
5.2454603064
 11
4.2109361504
 21
5.2454603064
  0
LINE
  5
374
100
AcDbEntity
  8
03__ASM_ALL_CURVES
100
AcDbLine
 62
40
  6
CONTINUOUS
 10
4.3969446513
 20
5.2454603064
 11
4.409345218
 21
5.2454603064
  0
LINE
  5
375
100
AcDbEntity
  8
03__ASM_ALL_CURVES
100
AcDbLine
 62
40
  6
CONTINUOUS
 10
5.0913763878
 20
5.2454603064
 11
5.1037769545
 21
5.2454603064
  0
LINE
  5
376
100
AcDbEntity
  8
03__ASM_ALL_CURVES
100
AcDbLine
 62
40
  6
CONTINUOUS
 10
6.1488818501
 20
5.2454603064
 11
6.1612824168
 21
5.2454603064
  0
LINE
  5
377
100
AcDbEntity
  8
03__ASM_ALL_CURVES
100
AcDbLine
 62
40
  6
CONTINUOUS
 10
6.2480863839
 20
5.2454603064
 11
6.2604869506
 21
5.2454603064
  0
LINE
  5
378
100
AcDbEntity
  8
03__ASM_ALL_CURVES
100
AcDbLine
 62
40
  6
CONTINUOUS
 10
6.421694318
 20
5.2454603064
 11
6.4836971517
 21
5.2454603064
  0
LINE
  5
379
100
AcDbEntity
  8
03__ASM_ALL_CURVES
100
AcDbLine
 62
40
  6
CONTINUOUS
 10
6.7441090529
 20
5.2454603064
 11
6.7565096196
 21
5.2454603064
  0
LINE
  5
37A
100
AcDbEntity
  8
03__ASM_ALL_CURVES
100
AcDbLine
 62
40
  6
CONTINUOUS
 10
7.1409271881
 20
5.2454603064
 11
7.1533277548
 21
5.2454603064
  0
LINE
  5
37B
100
AcDbEntity
  8
03__ASM_ALL_CURVES
100
AcDbLine
 62
40
  6
CONTINUOUS
 10
7.4199399394
 20
5.2454603064
 11
7.4447410728
 21
5.2454603064
  0
LINE
  5
37C
100
AcDbEntity
  8
03__ASM_ALL_CURVES
100
AcDbLine
 62
40
  6
CONTINUOUS
 10
7.5191444731
 20
5.2454603064
 11
7.56874674
 21
5.2454603064
  0
LINE
  5
37D
100
AcDbEntity
  8
03__ASM_ALL_CURVES
100
AcDbLine
 62
40
  6
CONTINUOUS
 10
7.6183490069
 20
5.2454603064
 11
7.6493504238
 21
5.2454603064
  0
LINE
  5
37E
100
AcDbEntity
  8
03__ASM_ALL_CURVES
100
AcDbLine
 62
40
  6
CONTINUOUS
 10
6.1488818501
 20
5.1462557726
 11
6.1364812834
 21
5.1545228174
  0
LINE
  5
37F
100
AcDbEntity
  8
03__ASM_ALL_CURVES
100
AcDbLine
 62
40
  6
CONTINUOUS
 10
6.2480863839
 20
5.1462557726
 11
6.2356858172
 21
5.1545228174
  0
LINE
  5
380
100
AcDbEntity
  8
03__ASM_ALL_CURVES
100
AcDbLine
 62
40
  6
CONTINUOUS
 10
6.1612824168
 20
5.2454603064
 11
6.1736829836
 21
5.2371932639
  0
LINE
  5
381
100
AcDbEntity
  8
03__ASM_ALL_CURVES
100
AcDbLine
 62
40
  6
CONTINUOUS
 10
6.2356858172
 20
5.1545228174
 11
6.2232852504
 21
5.1710569061
  0
LINE
  5
382
100
AcDbEntity
  8
03__ASM_ALL_CURVES
100
AcDbLine
 62
40
  6
CONTINUOUS
 10
6.1736829836
 20
5.2371932639
 11
6.1860835503
 21
5.220659173
  0
LINE
  5
383
100
AcDbEntity
  8
03__ASM_ALL_CURVES
100
AcDbLine
 62
40
  6
CONTINUOUS
 10
6.2728875173
 20
5.2371932639
 11
6.2790878007
 21
5.2289262155
  0
LINE
  5
384
100
AcDbEntity
  8
03__ASM_ALL_CURVES
100
AcDbLine
 62
40
  6
CONTINUOUS
 10
6.9151968341
 20
3.384677109
 11
6.9198470466
 21
3.3660762589
  0
LINE
  5
385
100
AcDbEntity
  8
03__ASM_ALL_CURVES
100
AcDbLine
 62
40
  6
CONTINUOUS
 10
6.8361432212
 20
3.3908773909
 11
6.8361432212
 21
3.3784768271
  0
LINE
  5
386
100
AcDbEntity
  8
03__ASM_ALL_CURVES
100
AcDbLine
 62
40
  6
CONTINUOUS
 10
6.9239172704
 20
5.2289262155
 11
6.9239172704
 21
5.220659173
  0
LINE
  5
387
100
AcDbEntity
  8
03__ASM_ALL_CURVES
100
AcDbLine
 62
40
  6
CONTINUOUS
 10
6.9477483218
 20
3.3288745588
 11
6.9477483218
 21
3.4032779591
  0
LINE
  5
388
100
AcDbEntity
  8
03__ASM_ALL_CURVES
100
AcDbLine
 62
40
  6
CONTINUOUS
 10
6.9735195373
 20
5.1793239515
 11
6.9735195373
 21
5.1627898621
  0
LINE
  5
389
100
AcDbEntity
  8
03__ASM_ALL_CURVES
100
AcDbLine
 62
40
  6
CONTINUOUS
 10
7.1099257712
 20
5.1958580395
 11
7.1161260546
 21
5.220659173
  0
LINE
  5
38A
100
AcDbEntity
  8
03__ASM_ALL_CURVES
100
AcDbLine
 62
40
  6
CONTINUOUS
 10
7.1843291716
 20
5.1958580395
 11
7.1781288882
 21
5.1710569061
  0
LINE
  5
38B
100
AcDbEntity
  8
03__ASM_ALL_CURVES
100
AcDbLine
 62
40
  6
CONTINUOUS
 10
3.6482133007
 20
5.1231080481
 11
3.5291678601
 21
5.1065739591
  0
LINE
  5
38C
100
AcDbEntity
  8
03__ASM_ALL_CURVES
100
AcDbLine
 62
40
  6
CONTINUOUS
 10
3.6482133007
 20
5.1198012303
 11
3.5291678601
 21
5.1065739591
  0
LINE
  5
38D
100
AcDbEntity
  8
03__ASM_ALL_CURVES
100
AcDbLine
 62
40
  6
CONTINUOUS
 10
7.8457032505
 20
4.1421188659
 11
7.8364028254
 21
4.1483191494
  0
LINE
  5
38E
100
AcDbEntity
  8
03__ASM_ALL_CURVES
100
AcDbLine
 62
40
  6
CONTINUOUS
 10
7.7806002752
 20
4.2165222662
 11
7.7899007002
 21
4.2103219843
  0
LINE
  5
38F
100
AcDbEntity
  8
03__ASM_ALL_CURVES
100
AcDbLine
 62
40
  6
CONTINUOUS
 10
6.2604869506
 20
5.2454603064
 11
6.2728875173
 21
5.2371932639
  0
LINE
  5
390
100
AcDbEntity
  8
03__ASM_ALL_CURVES
100
AcDbLine
 62
40
  6
CONTINUOUS
 10
7.8550036755
 20
4.2165222662
 11
7.8643041006
 21
4.2103219843
  0
LINE
  5
391
100
AcDbEntity
  8
03__ASM_ALL_CURVES
100
AcDbLine
 62
40
  6
CONTINUOUS
 10
7.9294070759
 20
4.2165222662
 11
7.9387075009
 21
4.2103219843
  0
LINE
  5
392
100
AcDbEntity
  8
03__ASM_ALL_CURVES
100
AcDbLine
 62
40
  6
CONTINUOUS
 10
6.626303669
 20
5.2454603064
 11
6.6759059359
 21
5.1462557726
  0
LINE
  5
393
100
AcDbEntity
  8
03__ASM_ALL_CURVES
100
AcDbLine
 62
40
  6
CONTINUOUS
 10
6.7193079194
 20
5.1710569061
 11
6.7131076361
 21
5.1958580395
  0
LINE
  5
394
100
AcDbEntity
  8
03__ASM_ALL_CURVES
100
AcDbLine
 62
40
  6
CONTINUOUS
 10
6.9849500219
 20
3.3908773909
 11
6.9849500219
 21
3.3784768271
  0
LINE
  5
395
100
AcDbEntity
  8
03__ASM_ALL_CURVES
100
AcDbLine
 62
40
  6
CONTINUOUS
 10
7.0231218042
 20
5.2454603064
 11
7.0231218042
 21
5.1462557726
  0
LINE
  5
396
100
AcDbEntity
  8
03__ASM_ALL_CURVES
100
AcDbLine
 62
40
  6
CONTINUOUS
 10
7.0407525722
 20
3.4032779591
 11
7.0407525722
 21
3.3288745588
  0
LINE
  5
397
100
AcDbEntity
  8
03__ASM_ALL_CURVES
100
AcDbLine
 62
40
  6
CONTINUOUS
 10
7.0727240711
 20
5.2454603064
 11
7.0727240711
 21
5.1462557726
  0
LINE
  5
398
100
AcDbEntity
  8
03__ASM_ALL_CURVES
100
AcDbLine
 62
40
  6
CONTINUOUS
 10
7.1337568226
 20
3.3908773909
 11
7.1337568226
 21
3.3784768271
  0
LINE
  5
399
100
AcDbEntity
  8
03__ASM_ALL_CURVES
100
AcDbLine
 62
40
  6
CONTINUOUS
 10
6.8640444964
 20
3.3660762589
 11
6.8686947089
 21
3.384677109
  0
LINE
  5
39A
100
AcDbEntity
  8
03__ASM_ALL_CURVES
100
AcDbLine
 62
40
  6
CONTINUOUS
 10
6.9198470466
 20
3.3660762589
 11
6.9151968341
 21
3.3474754089
  0
LINE
  5
39B
100
AcDbEntity
  8
03__ASM_ALL_CURVES
100
AcDbLine
 62
40
  6
CONTINUOUS
 10
7.7899007002
 20
4.1855208479
 11
7.7806002752
 21
4.179320566
  0
LINE
  5
39C
100
AcDbEntity
  8
03__ASM_ALL_CURVES
100
AcDbLine
 62
40
  6
CONTINUOUS
 10
7.8364028254
 20
4.2103219843
 11
7.8457032505
 21
4.2165222662
  0
LINE
  5
39D
100
AcDbEntity
  8
03__ASM_ALL_CURVES
100
AcDbLine
 62
40
  6
CONTINUOUS
 10
7.8643041006
 20
4.1483191494
 11
7.8550036755
 21
4.1421188659
  0
LINE
  5
39E
100
AcDbEntity
  8
03__ASM_ALL_CURVES
100
AcDbLine
 62
40
  6
CONTINUOUS
 10
7.9387075009
 20
4.1855208479
 11
7.9294070759
 21
4.179320566
  0
LINE
  5
39F
100
AcDbEntity
  8
03__ASM_ALL_CURVES
100
AcDbLine
 62
40
  6
CONTINUOUS
 10
6.8314930087
 20
3.3722765408
 11
6.8221925837
 21
3.3660762589
  0
LINE
  5
3A0
100
AcDbEntity
  8
03__ASM_ALL_CURVES
100
AcDbLine
 62
40
  6
CONTINUOUS
 10
3.5291678601
 20
5.1065739591
 11
3.6482133007
 21
5.1264148659
  0
LINE
  5
3A1
100
AcDbEntity
  8
03__ASM_ALL_CURVES
100
AcDbLine
 62
40
  6
CONTINUOUS
 10
6.7441090529
 20
5.1462557726
 11
6.7317084861
 21
5.1545228174
  0
LINE
  5
3A2
100
AcDbEntity
  8
03__ASM_ALL_CURVES
100
AcDbLine
 62
40
  6
CONTINUOUS
 10
6.7565096196
 20
5.2454603064
 11
6.7689101863
 21
5.2371932639
  0
LINE
  5
3A3
100
AcDbEntity
  8
03__ASM_ALL_CURVES
100
AcDbLine
 62
40
  6
CONTINUOUS
 10
6.7317084861
 20
5.1545228174
 11
6.7193079194
 21
5.1710569061
  0
LINE
  5
3A4
100
AcDbEntity
  8
125-198_FEATURES
100
AcDbLine
 62
7
  6
CONTINUOUS
 10
7.1483492119
 20
3.6857779591
 11
7.1483492119
 21
4.5587779591
  0
LINE
  5
3A5
100
AcDbEntity
  8
03__ASM_ALL_CURVES
100
AcDbLine
 62
40
  6
CONTINUOUS
 10
7.2215308718
 20
5.1627898621
 11
7.2215308718
 21
5.2454603064
  0
LINE
  5
3A6
100
AcDbEntity
  8
125-198_FEATURES
100
AcDbLine
 62
7
  6
CONTINUOUS
 10
7.2353492119
 20
3.6857779591
 11
7.2353492119
 21
4.5587779591
  0
LINE
  5
3A7
100
AcDbEntity
  8
03__ASM_ALL_CURVES
100
AcDbLine
 62
40
  6
CONTINUOUS
 10
7.2711331387
 20
5.2454603064
 11
7.2711331387
 21
5.1627898621
  0
LINE
  5
3A8
100
AcDbEntity
  8
0
100
AcDbLine
 62
7
  6
CONTINUOUS
 10
7.2853492119
 20
3.686278622
 11
7.2853492119
 21
4.5582772962
  0
LINE
  5
3A9
100
AcDbEntity
  8
03__ASM_ALL_CURVES
100
AcDbLine
 62
40
  6
CONTINUOUS
 10
7.4757424896
 20
5.1958580395
 11
7.4695422062
 21
5.1710569061
  0
LINE
  5
3AA
100
AcDbEntity
  8
03__ASM_ALL_CURVES
100
AcDbLine
 62
40
  6
CONTINUOUS
 10
7.101205335
 20
3.3474754089
 11
7.0965551225
 21
3.3288745588
  0
LINE
  5
3AB
100
AcDbEntity
  8
03__ASM_ALL_CURVES
100
AcDbLine
 62
40
  6
CONTINUOUS
 10
6.8361432212
 20
3.3784768271
 11
6.8314930087
 21
3.3722765408
  0
LINE
  5
3AC
100
AcDbEntity
  8
03__ASM_ALL_CURVES
100
AcDbLine
 62
40
  6
CONTINUOUS
 10
6.8686947089
 20
3.384677109
 11
6.8779951339
 21
3.3970776772
  0
LINE
  5
3AD
100
AcDbEntity
  8
03__ASM_ALL_CURVES
100
AcDbLine
 62
40
  6
CONTINUOUS
 10
6.9151968341
 20
3.3474754089
 11
6.9058964091
 21
3.3350748423
  0
LINE
  5
3AE
100
AcDbEntity
  8
03__ASM_ALL_CURVES
100
AcDbLine
 62
40
  6
CONTINUOUS
 10
6.9849500219
 20
3.3784768271
 11
6.9802998094
 21
3.3722765408
  0
LINE
  5
3AF
100
AcDbEntity
  8
03__ASM_ALL_CURVES
100
AcDbLine
 62
40
  6
CONTINUOUS
 10
6.8779951339
 20
3.3970776772
 11
6.887295559
 21
3.4032779591
  0
LINE
  5
3B0
100
AcDbEntity
  8
03__ASM_ALL_CURVES
100
AcDbLine
 62
40
  6
CONTINUOUS
 10
6.9058964091
 20
3.3350748423
 11
6.896595984
 21
3.3288745588
  0
LINE
  5
3B1
100
AcDbEntity
  8
03__ASM_ALL_CURVES
100
AcDbLine
 62
40
  6
CONTINUOUS
 10
6.9802998094
 20
3.3722765408
 11
6.9709993844
 21
3.3660762589
  0
LINE
  5
3B2
100
AcDbEntity
  8
03__ASM_ALL_CURVES
100
AcDbLine
 62
40
  6
CONTINUOUS
 10
7.101205335
 20
3.3970776772
 11
7.11050576
 21
3.4032779591
  0
LINE
  5
3B3
100
AcDbEntity
  8
03__ASM_ALL_CURVES
100
AcDbLine
 62
40
  6
CONTINUOUS
 10
7.1291066101
 20
3.3722765408
 11
7.11050576
 21
3.3598759748
  0
LINE
  5
3B4
100
AcDbEntity
  8
03__ASM_ALL_CURVES
100
AcDbLine
 62
40
  6
CONTINUOUS
 10
6.9425181205
 20
5.1462557726
 11
6.9301175537
 21
5.1545228174
  0
LINE
  5
3B5
100
AcDbEntity
  8
03__ASM_ALL_CURVES
100
AcDbLine
 62
40
  6
CONTINUOUS
 10
6.9301175537
 20
5.2123921305
 11
6.9673192539
 21
5.1875909941
  0
LINE
  5
3B6
100
AcDbEntity
  8
03__ASM_ALL_CURVES
100
AcDbLine
 62
40
  6
CONTINUOUS
 10
6.9673192539
 20
5.2371932639
 11
6.9549186872
 21
5.2454603064
  0
LINE
  5
3B7
100
AcDbEntity
  8
03__ASM_ALL_CURVES
100
AcDbLine
 62
40
  6
CONTINUOUS
 10
7.1409271881
 20
5.1462557726
 11
7.1285266213
 21
5.1545228174
  0
LINE
  5
3B8
100
AcDbEntity
  8
125-198_FEATURES
100
AcDbLine
 62
7
  6
CONTINUOUS
 10
7.4973492119
 20
4.5385279591
 11
7.4773492119
 21
4.5585279591
  0
LINE
  5
3B9
100
AcDbEntity
  8
03__ASM_ALL_CURVES
100
AcDbLine
 62
40
  6
CONTINUOUS
 10
6.7689101863
 20
5.2371932639
 11
6.7751104697
 21
5.2289262155
  0
LINE
  5
3BA
100
AcDbEntity
  8
03__ASM_ALL_CURVES
100
AcDbLine
 62
40
  6
CONTINUOUS
 10
6.9301175537
 20
5.1545228174
 11
6.917716987
 21
5.1710569061
  0
LINE
  5
3BB
100
AcDbEntity
  8
03__ASM_ALL_CURVES
100
AcDbLine
 62
40
  6
CONTINUOUS
 10
6.9239172704
 20
5.220659173
 11
6.9301175537
 21
5.2123921305
  0
LINE
  5
3BC
100
AcDbEntity
  8
03__ASM_ALL_CURVES
100
AcDbLine
 62
40
  6
CONTINUOUS
 10
6.9673192539
 20
5.1875909941
 11
6.9735195373
 21
5.1793239515
  0
LINE
  5
3BD
100
AcDbEntity
  8
03__ASM_ALL_CURVES
100
AcDbLine
 62
40
  6
CONTINUOUS
 10
7.1161260546
 20
5.1710569061
 11
7.1099257712
 21
5.1958580395
  0
LINE
  5
3BE
100
AcDbEntity
  8
03__ASM_ALL_CURVES
100
AcDbLine
 62
40
  6
CONTINUOUS
 10
7.3207354056
 20
5.2454603064
 11
7.3207354056
 21
5.1462557726
  0
LINE
  5
3BF
100
AcDbEntity
  8
0
100
AcDbLine
 62
7
  6
CONTINUOUS
 10
7.3553492119
 20
3.686278622
 11
7.3553492119
 21
4.5582772962
  0
LINE
  5
3C0
100
AcDbEntity
  8
0
100
AcDbLine
 62
7
  6
CONTINUOUS
 10
7.4053492119
 20
3.686278622
 11
7.4053492119
 21
4.5582772962
  0
LINE
  5
3C1
100
AcDbEntity
  8
03__ASM_ALL_CURVES
100
AcDbLine
 62
40
  6
CONTINUOUS
 10
7.4199399394
 20
5.1462557726
 11
7.4199399394
 21
5.2454603064
  0
LINE
  5
3C2
100
AcDbEntity
  8
0
100
AcDbLine
 62
7
  6
CONTINUOUS
 10
7.4333492119
 20
3.6860279591
 11
7.4333492119
 21
4.5585279591
  0
LINE
  5
3C3
100
AcDbEntity
  8
03__ASM_ALL_CURVES
100
AcDbLine
 62
40
  6
CONTINUOUS
 10
7.0965551225
 20
3.3908773909
 11
7.101205335
 21
3.3970776772
  0
LINE
  5
3C4
100
AcDbEntity
  8
03__ASM_ALL_CURVES
100
AcDbLine
 62
40
  6
CONTINUOUS
 10
7.11050576
 20
3.3598759748
 11
7.101205335
 21
3.3474754089
  0
LINE
  5
3C5
100
AcDbEntity
  8
03__ASM_ALL_CURVES
100
AcDbLine
 62
40
  6
CONTINUOUS
 10
7.1337568226
 20
3.3784768271
 11
7.1291066101
 21
3.3722765408
  0
LINE
  5
3C6
100
AcDbEntity
  8
03__ASM_ALL_CURVES
100
AcDbLine
 62
40
  6
CONTINUOUS
 10
7.7945509127
 20
4.1917211342
 11
7.7899007002
 21
4.1855208479
  0
LINE
  5
3C7
100
AcDbEntity
  8
125-198_FEATURES
100
AcDbLine
 62
7
  6
CONTINUOUS
 10
7.4973492119
 20
3.7060279591
 11
7.4773492119
 21
3.6860279591
  0
LINE
  5
3C8
100
AcDbEntity
  8
03__ASM_ALL_CURVES
100
AcDbLine
 62
40
  6
CONTINUOUS
 10
7.2401317218
 20
5.1462557726
 11
7.2277311551
 21
5.1545228174
  0
LINE
  5
3C9
100
AcDbEntity
  8
03__ASM_ALL_CURVES
100
AcDbLine
 62
40
  6
CONTINUOUS
 10
7.1533277548
 20
5.2454603064
 11
7.1657283215
 21
5.2371932639
  0
LINE
  5
3CA
100
AcDbEntity
  8
03__ASM_ALL_CURVES
100
AcDbLine
 62
40
  6
CONTINUOUS
 10
6.9735195373
 20
5.2289262155
 11
6.9673192539
 21
5.2371932639
  0
LINE
  5
3CB
100
AcDbEntity
  8
03__ASM_ALL_CURVES
100
AcDbLine
 62
40
  6
CONTINUOUS
 10
7.8364028254
 20
4.1483191494
 11
7.8271024004
 21
4.160719716
  0
LINE
  5
3CC
100
AcDbEntity
  8
03__ASM_ALL_CURVES
100
AcDbLine
 62
40
  6
CONTINUOUS
 10
7.7899007002
 20
4.2103219843
 11
7.7945509127
 21
4.204121698
  0
LINE
  5
3CD
100
AcDbEntity
  8
03__ASM_ALL_CURVES
100
AcDbLine
 62
40
  6
CONTINUOUS
 10
7.1285266213
 20
5.1545228174
 11
7.1161260546
 21
5.1710569061
  0
LINE
  5
3CE
100
AcDbEntity
  8
03__ASM_ALL_CURVES
100
AcDbLine
 62
40
  6
CONTINUOUS
 10
7.8643041006
 20
4.2103219843
 11
7.8736045256
 21
4.1979214161
  0
LINE
  5
3CF
100
AcDbEntity
  8
03__ASM_ALL_CURVES
100
AcDbLine
 62
40
  6
CONTINUOUS
 10
7.1657283215
 20
5.2371932639
 11
7.1781288882
 21
5.220659173
  0
LINE
  5
3D0
100
AcDbEntity
  8
03__ASM_ALL_CURVES
100
AcDbLine
 62
40
  6
CONTINUOUS
 10
7.2277311551
 20
5.1545228174
 11
7.2215308718
 21
5.1627898621
  0
LINE
  5
3D1
100
AcDbEntity
  8
03__ASM_ALL_CURVES
100
AcDbLine
 62
40
  6
CONTINUOUS
 10
7.9387075009
 20
4.2103219843
 11
7.9433577134
 21
4.204121698
  0
LINE
  5
3D2
100
AcDbEntity
  8
03__ASM_ALL_CURVES
100
AcDbLine
 62
40
  6
CONTINUOUS
 10
7.1781288882
 20
5.220659173
 11
7.1843291716
 21
5.1958580395
  0
LINE
  5
3D3
100
AcDbEntity
  8
125-198_FEATURES
100
AcDbLine
 62
7
  6
CONTINUOUS
 10
7.4773492119
 20
3.6860279591
 11
7.4773492119
 21
4.5585279591
  0
LINE
  5
3D4
100
AcDbEntity
  8
125-198_FEATURES
100
AcDbLine
 62
7
  6
CONTINUOUS
 10
7.4973492119
 20
3.7060279591
 11
7.4973492119
 21
4.5385279591
  0
LINE
  5
3D5
100
AcDbEntity
  8
03__ASM_ALL_CURVES
100
AcDbLine
 62
40
  6
CONTINUOUS
 10
7.5191444731
 20
5.1462557726
 11
7.5191444731
 21
5.2454603064
  0
LINE
  5
3D6
100
AcDbEntity
  8
03__ASM_ALL_CURVES
100
AcDbLine
 62
40
  6
CONTINUOUS
 10
7.6183490069
 20
5.1462557726
 11
7.6183490069
 21
5.2454603064
  0
LINE
  5
3D7
100
AcDbEntity
  8
03__ASM_ALL_CURVES
100
AcDbLine
 62
40
  6
CONTINUOUS
 10
7.8271024004
 20
4.1979214161
 11
7.8364028254
 21
4.2103219843
  0
LINE
  5
3D8
100
AcDbEntity
  8
03__ASM_ALL_CURVES
100
AcDbLine
 62
40
  6
CONTINUOUS
 10
7.8736045256
 20
4.160719716
 11
7.8643041006
 21
4.1483191494
  0
LINE
  5
3D9
100
AcDbEntity
  8
03__ASM_ALL_CURVES
100
AcDbLine
 62
40
  6
CONTINUOUS
 10
7.9433577134
 20
4.1917211342
 11
7.9387075009
 21
4.1855208479
  0
LINE
  5
3DA
100
AcDbEntity
  8
03__ASM_ALL_CURVES
100
AcDbLine
 62
40
  6
CONTINUOUS
 10
7.4447410728
 20
5.2454603064
 11
7.4571416395
 21
5.2371932639
  0
LINE
  5
3DB
100
AcDbEntity
  8
03__ASM_ALL_CURVES
100
AcDbLine
 62
40
  6
CONTINUOUS
 10
7.6493504238
 20
5.2454603064
 11
7.6617509905
 21
5.2371932639
  0
LINE
  5
3DC
100
AcDbEntity
  8
03__ASM_ALL_CURVES
100
AcDbLine
 62
40
  6
CONTINUOUS
 10
7.6679512738
 20
5.2289262155
 11
7.6679512738
 21
5.2123921305
  0
LINE
  5
3DD
100
AcDbEntity
  8
03__ASM_ALL_CURVES
100
AcDbLine
 62
40
  6
CONTINUOUS
 10
7.7573492126
 20
4.1421188659
 11
7.7573492126
 21
4.2165222662
  0
LINE
  5
3DE
100
AcDbEntity
  8
03__ASM_ALL_CURVES
100
AcDbLine
 62
40
  6
CONTINUOUS
 10
7.7945509127
 20
4.204121698
 11
7.7945509127
 21
4.1917211342
  0
LINE
  5
3DF
100
AcDbEntity
  8
03__ASM_ALL_CURVES
100
AcDbLine
 62
40
  6
CONTINUOUS
 10
7.8224521879
 20
4.179320566
 11
7.8271024004
 21
4.1979214161
  0
LINE
  5
3E0
100
AcDbEntity
  8
03__ASM_ALL_CURVES
100
AcDbLine
 62
40
  6
CONTINUOUS
 10
7.4571416395
 20
5.2371932639
 11
7.4695422062
 21
5.220659173
  0
LINE
  5
3E1
100
AcDbEntity
  8
03__ASM_ALL_CURVES
100
AcDbLine
 62
40
  6
CONTINUOUS
 10
7.9294070759
 20
4.179320566
 11
7.9433577134
 21
4.1421188659
  0
LINE
  5
3E2
100
AcDbEntity
  8
03__ASM_ALL_CURVES
100
AcDbLine
 62
40
  6
CONTINUOUS
 10
7.4695422062
 20
5.220659173
 11
7.4757424896
 21
5.1958580395
  0
LINE
  5
3E3
100
AcDbEntity
  8
03__ASM_ALL_CURVES
100
AcDbLine
 62
40
  6
CONTINUOUS
 10
7.8271024004
 20
4.160719716
 11
7.8224521879
 21
4.179320566
  0
LINE
  5
3E4
100
AcDbEntity
  8
03__ASM_ALL_CURVES
100
AcDbLine
 62
40
  6
CONTINUOUS
 10
7.8736045256
 20
4.1979214161
 11
7.8782547381
 21
4.179320566
  0
LINE
  5
3E5
100
AcDbEntity
  8
03__ASM_ALL_CURVES
100
AcDbLine
 62
40
  6
CONTINUOUS
 10
7.9061560132
 20
4.1421188659
 11
7.9061560132
 21
4.2165222662
  0
LINE
  5
3E6
100
AcDbEntity
  8
03__ASM_ALL_CURVES
100
AcDbLine
 62
40
  6
CONTINUOUS
 10
7.9433577134
 20
4.204121698
 11
7.9433577134
 21
4.1917211342
  0
LINE
  5
3E7
100
AcDbEntity
  8
03__ASM_ALL_CURVES
100
AcDbLine
 62
40
  6
CONTINUOUS
 10
7.8782547381
 20
4.179320566
 11
7.8736045256
 21
4.160719716
  0
LINE
  5
3E8
100
AcDbEntity
  8
03__ASM_ALL_CURVES
100
AcDbLine
 62
40
  6
CONTINUOUS
 10
7.6617509905
 20
5.2371932639
 11
7.6679512738
 21
5.2289262155
  0
LINE
  5
3E9
100
AcDbEntity
  8
03__ASM_ALL_CURVES
100
AcDbLine
 62
40
  6
CONTINUOUS
 10
7.6493504238
 20
5.1958580395
 11
7.6679512738
 21
5.1462557726
  0
LINE
  5
3EA
100
AcDbEntity
  8
03__ASM_ALL_CURVES
100
AcDbLine
 62
40
  6
CONTINUOUS
 10
7.9991602637
 20
4.2165222662
 11
7.9991602637
 21
4.1421188659
  0
LINE
  5
3EB
100
AcDbEntity
  8
03__ASM_ALL_CURVES
100
AcDbLine
 62
40
  6
CONTINUOUS
 10
8.073563664
 20
4.2165222662
 11
8.073563664
 21
4.1421188659
  0
ARC
  5
3EC
100
AcDbEntity
  8
0
100
AcDbCircle
 62
7
  6
CONTINUOUS
 10
3.9383492119
 20
4.2992779591
 40
0.094
100
AcDbArc
 50
90.0
 51
131.267427381
  0
ARC
  5
3ED
100
AcDbEntity
  8
0
100
AcDbCircle
 62
7
  6
CONTINUOUS
 10
3.9383492119
 20
3.9452779591
 40
0.094
100
AcDbArc
 50
228.732572619
 51
270.0
  0
ARC
  5
3EE
100
AcDbEntity
  8
THREAD
100
AcDbCircle
 62
7
  6
CONTINUOUS
 10
6.0521323335
 20
3.6517779591
 40
0.0125
100
AcDbArc
 50
29.9999999895
 51
90.0
  0
ARC
  5
3EF
100
AcDbEntity
  8
THREAD
100
AcDbCircle
 62
7
  6
CONTINUOUS
 10
6.0521323335
 20
4.5927779591
 40
0.0125
100
AcDbArc
 50
270.0
 51
330.0000000125
  0
SPLINE
  5
3F0
100
AcDbEntity
  8
0
100
AcDbSpline
 62
7
  6
CONTINUOUS
 70
0
 71
3
 72
15
 73
11
 74
9
 42
0.0000001
 43
0.0000001
 44
0.0000000001
 12
0.0
 22
0.1099409465
 32
0.0
 13
0.0
 23
-0.1099409465
 33
0.0
 40
0.0
 40
0.0
 40
0.0
 40
0.0
 40
0.125
 40
0.25
 40
0.375
 40
0.5
 40
0.625
 40
0.75
 40
0.875
 40
1.0
 40
1.0
 40
1.0
 40
1.0
 10
7.3553492119
 20
4.5392779591
 30
0.0
 10
7.3553492119
 20
4.5438588319
 30
0.0
 10
7.3535268274
 20
4.5530205774
 30
0.0
 10
7.3457422595
 20
4.5646710067
 30
0.0
 10
7.3340918302
 20
4.5724555746
 30
0.0
 10
7.3203492119
 20
4.5751891514
 30
0.0
 10
7.3066065936
 20
4.5724555746
 30
0.0
 10
7.2949561643
 20
4.5646710067
 30
0.0
 10
7.2871715964
 20
4.5530205774
 30
0.0
 10
7.2853492119
 20
4.5438588319
 30
0.0
 10
7.2853492119
 20
4.5392779591
 30
0.0
 11
7.3553492119
 21
4.5392779591
 31
0.0
 11
7.3526849955
 21
4.5526718792
 31
0.0
 11
7.3450979492
 21
4.5640266965
 31
0.0
 11
7.333743132
 21
4.5716137428
 31
0.0
 11
7.3203492119
 21
4.5742779591
 31
0.0
 11
7.3069552918
 21
4.5716137428
 31
0.0
 11
7.2956004746
 21
4.5640266965
 31
0.0
 11
7.2880134283
 21
4.5526718792
 31
0.0
 11
7.2853492119
 21
4.5392779591
 31
0.0
  0
SPLINE
  5
3F1
100
AcDbEntity
  8
0
100
AcDbSpline
 62
7
  6
CONTINUOUS
 70
0
 71
3
 72
15
 73
11
 74
9
 42
0.0000001
 43
0.0000001
 44
0.0000000001
 12
0.0
 22
-0.1099409465
 32
0.0
 13
0.0
 23
0.1099409465
 33
0.0
 40
0.0
 40
0.0
 40
0.0
 40
0.0
 40
0.125
 40
0.25
 40
0.375
 40
0.5
 40
0.625
 40
0.75
 40
0.875
 40
1.0
 40
1.0
 40
1.0
 40
1.0
 10
7.3553492119
 20
3.7052779591
 30
0.0
 10
7.3553492119
 20
3.7006970863
 30
0.0
 10
7.3535268274
 20
3.6915353408
 30
0.0
 10
7.3457422595
 20
3.6798849116
 30
0.0
 10
7.3340918302
 20
3.6721003436
 30
0.0
 10
7.3203492119
 20
3.6693667669
 30
0.0
 10
7.3066065936
 20
3.6721003436
 30
0.0
 10
7.2949561643
 20
3.6798849116
 30
0.0
 10
7.2871715964
 20
3.6915353408
 30
0.0
 10
7.2853492119
 20
3.7006970863
 30
0.0
 10
7.2853492119
 20
3.7052779591
 30
0.0
 11
7.3553492119
 21
3.7052779591
 31
0.0
 11
7.3526849955
 21
3.691884039
 31
0.0
 11
7.3450979492
 21
3.6805292218
 31
0.0
 11
7.333743132
 21
3.6729421755
 31
0.0
 11
7.3203492119
 21
3.6702779591
 31
0.0
 11
7.3069552918
 21
3.6729421755
 31
0.0
 11
7.2956004746
 21
3.6805292218
 31
0.0
 11
7.2880134283
 21
3.691884039
 31
0.0
 11
7.2853492119
 21
3.7052779591
 31
0.0
  0
SPLINE
  5
3F2
100
AcDbEntity
  8
0
100
AcDbSpline
 62
7
  6
CONTINUOUS
 70
0
 71
3
 72
14
 73
10
 74
8
 42
0.0000001
 43
0.0000001
 44
0.0000000001
 12
0.0
 22
0.0916172274
 32
0.0
 13
-0.045846371
 23
-0.079336773
 33
0.0
 40
0.0
 40
0.0
 40
0.0
 40
0.0
 40
0.1500003733
 40
0.3000007465
 40
0.4500011198
 40
0.6000014931
 40
0.7500018663
 40
0.9000022396
 40
1.0
 40
1.0
 40
1.0
 40
1.0
 10
5.9893492119
 20
4.6152779591
 30
0.0
 10
5.9893492119
 20
4.6198588319
 30
0.0
 10
5.9875268274
 20
4.6290205774
 30
0.0
 10
5.9797422595
 20
4.6406710067
 30
0.0
 10
5.9680918302
 20
4.6484555746
 30
0.0
 10
5.9543492119
 20
4.6511891514
 30
0.0
 10
5.9406065936
 20
4.6484555746
 30
0.0
 10
5.9302507209
 20
4.6415360017
 30
0.0
 10
5.9255680396
 20
4.6354215698
 30
0.0
 10
5.9240398615
 20
4.6327770699
 30
0.0
 11
5.9893492119
 21
4.6152779591
 31
0.0
 11
5.9866849955
 21
4.6286718792
 31
0.0
 11
5.9790979492
 21
4.6400266965
 31
0.0
 11
5.967743132
 21
4.6476137428
 31
0.0
 11
5.9543492119
 21
4.6502779591
 31
0.0
 11
5.9409552918
 21
4.6476137428
 31
0.0
 11
5.9296004746
 21
4.6400266965
 31
0.0
 11
5.9240398615
 21
4.6327770699
 31
0.0
  0
SPLINE
  5
3F3
100
AcDbEntity
  8
0
100
AcDbSpline
 62
7
  6
CONTINUOUS
 70
0
 71
3
 72
9
 73
5
 74
3
 42
0.0000001
 43
0.0000001
 44
0.0000000001
 12
-0.0091694111
 22
-0.0158675915
 32
0.0
 13
0.0
 23
-0.0183237191
 33
0.0
 40
0.0
 40
0.0
 40
0.0
 40
0.0
 40
0.2500093315
 40
1.0
 40
1.0
 40
1.0
 40
1.0
 10
5.9240398615
 20
4.6327770699
 30
0.0
 10
5.9232757154
 20
4.6314547213
 30
0.0
 10
5.92056415
 20
4.6259667382
 30
0.0
 10
5.9193492119
 20
4.6198588319
 30
0.0
 10
5.9193492119
 20
4.6152779591
 30
0.0
 11
5.9240398615
 21
4.6327770699
 31
0.0
 11
5.9220134283
 21
4.6286718792
 31
0.0
 11
5.9193492119
 21
4.6152779591
 31
0.0
  0
SPLINE
  5
3F4
100
AcDbEntity
  8
0
100
AcDbSpline
 62
7
  6
CONTINUOUS
 70
0
 71
3
 72
14
 73
10
 74
8
 42
0.0000001
 43
0.0000001
 44
0.0000000001
 12
0.0
 22
-0.0916172274
 32
0.0
 13
-0.045846371
 23
0.079336773
 33
0.0
 40
0.0
 40
0.0
 40
0.0
 40
0.0
 40
0.1500003733
 40
0.3000007465
 40
0.4500011198
 40
0.6000014931
 40
0.7500018663
 40
0.9000022396
 40
1.0
 40
1.0
 40
1.0
 40
1.0
 10
5.9893492119
 20
3.6292779591
 30
0.0
 10
5.9893492119
 20
3.6246970863
 30
0.0
 10
5.9875268274
 20
3.6155353408
 30
0.0
 10
5.9797422595
 20
3.6038849116
 30
0.0
 10
5.9680918302
 20
3.5961003436
 30
0.0
 10
5.9543492119
 20
3.5933667669
 30
0.0
 10
5.9406065936
 20
3.5961003436
 30
0.0
 10
5.9302507209
 20
3.6030199165
 30
0.0
 10
5.9255680396
 20
3.6091343484
 30
0.0
 10
5.9240398615
 20
3.6117788483
 30
0.0
 11
5.9893492119
 21
3.6292779591
 31
0.0
 11
5.9866849955
 21
3.615884039
 31
0.0
 11
5.9790979492
 21
3.6045292218
 31
0.0
 11
5.967743132
 21
3.5969421755
 31
0.0
 11
5.9543492119
 21
3.5942779591
 31
0.0
 11
5.9409552918
 21
3.5969421755
 31
0.0
 11
5.9296004746
 21
3.6045292218
 31
0.0
 11
5.9240398615
 21
3.6117788483
 31
0.0
  0
SPLINE
  5
3F5
100
AcDbEntity
  8
0
100
AcDbSpline
 62
7
  6
CONTINUOUS
 70
0
 71
3
 72
9
 73
5
 74
3
 42
0.0000001
 43
0.0000001
 44
0.0000000001
 12
-0.0091694111
 22
0.0158675915
 32
0.0
 13
0.0
 23
0.0183237191
 33
0.0
 40
0.0
 40
0.0
 40
0.0
 40
0.0
 40
0.2500093315
 40
1.0
 40
1.0
 40
1.0
 40
1.0
 10
5.9240398615
 20
3.6117788483
 30
0.0
 10
5.9232757154
 20
3.6131011969
 30
0.0
 10
5.92056415
 20
3.61858918
 30
0.0
 10
5.9193492119
 20
3.6246970863
 30
0.0
 10
5.9193492119
 20
3.6292779591
 30
0.0
 11
5.9240398615
 21
3.6117788483
 31
0.0
 11
5.9220134283
 21
3.615884039
 31
0.0
 11
5.9193492119
 21
3.6292779591
 31
0.0
  0
SPLINE
  5
3F6
100
AcDbEntity
  8
0
100
AcDbSpline
 62
7
  6
CONTINUOUS
 70
0
 71
3
 72
16
 73
12
 74
10
 42
0.0000001
 43
0.0000001
 44
0.0000000001
 12
0.0906480335
 22
0.2719441006
 32
0.0
 13
-0.0906480335
 23
0.2719441006
 33
0.0
 40
0.0
 40
0.0
 40
0.0
 40
0.0
 40
0.1184548733
 40
0.230565332
 40
0.3393089466
 40
0.4465959239
 40
0.5535015371
 40
0.6607803311
 40
0.769505023
 40
0.8815660643
 40
1.0
 40
1.0
 40
1.0
 40
1.0
 10
4.1264778015
 20
3.8412779591
 30
0.0
 10
4.1300570353
 20
3.8520156604
 30
0.0
 10
4.1364881219
 20
3.8731017073
 30
0.0
 10
4.1440075516
 20
3.9046627621
 30
0.0
 10
4.1490957791
 20
3.9356315802
 30
0.0
 10
4.1516826413
 20
3.9664146499
 30
0.0
 10
4.151681453
 20
3.9971684508
 30
0.0
 10
4.1490926124
 20
4.0279487422
 30
0.0
 10
4.1440038776
 20
4.058910044
 30
0.0
 10
4.1364856208
 20
4.0904625756
 30
0.0
 10
4.1300564026
 20
4.1115421557
 30
0.0
 10
4.1264778015
 20
4.1222779591
 30
0.0
 11
4.1264778015
 21
3.8412779591
 31
0.0
 11
4.1363162711
 21
3.873776987
 31
0.0
 11
4.1437034416
 21
3.9050533775
 31
0.0
 11
4.148708059
 21
3.9358208299
 31
0.0
 11
4.1512550243
 21
3.9664694511
 31
0.0
 11
4.1512538541
 21
3.9971143996
 31
0.0
 11
4.1487049141
 21
4.0277605027
 31
0.0
 11
4.143699475
 21
4.0585223259
 31
0.0
 11
4.1363147036
 21
4.0897847275
 31
0.0
 11
4.1264778015
 21
4.1222779591
 31
0.0
  0
SPLINE
  5
3F7
100
AcDbEntity
  8
0
100
AcDbSpline
 62
7
  6
CONTINUOUS
 70
0
 71
3
 72
17
 73
13
 74
11
 42
0.0000001
 43
0.0000001
 44
0.0000000001
 12
-0.1487434696
 22
0.2576312467
 32
0.0
 13
0.1487434696
 23
0.2576312467
 33
0.0
 40
0.0
 40
0.0
 40
0.0
 40
0.0
 40
0.1169386465
 40
0.2216811606
 40
0.3184580982
 40
0.4103908543
 40
0.5000417254
 40
0.5896883004
 40
0.6816074548
 40
0.7783545182
 40
0.8830694657
 40
1.0
 40
1.0
 40
1.0
 40
1.0
 10
4.0248200632
 20
3.8412779591
 30
0.0
 10
4.0190221099
 20
3.8513203089
 30
0.0
 10
4.0086822822
 20
3.8707501563
 30
0.0
 10
3.9963086588
 20
3.8998522339
 30
0.0
 10
3.9876552121
 20
3.9276937966
 30
0.0
 10
3.9824981075
 20
3.9548771162
 30
0.0
 10
3.9807812272
 20
3.9817900011
 30
0.0
 10
3.9825011128
 20
4.0087013259
 30
0.0
 10
3.9876598644
 20
4.0358794665
 30
0.0
 10
3.9963127163
 20
4.0637137726
 30
0.0
 10
4.0086843036
 20
4.0928096122
 30
0.0
 10
4.0190225121
 20
4.112236306
 30
0.0
 10
4.0248200632
 20
4.1222779591
 30
0.0
 11
4.0248200632
 21
3.8412779591
 31
0.0
 11
4.0085938317
 21
3.8720496162
 31
0.0
 11
3.9965090752
 21
3.9007702527
 31
0.0
 11
3.988056402
 21
3.9282913213
 31
0.0
 11
3.9830235166
 21
3.9551730365
 31
0.0
 11
3.9813492123
 21
3.9817903926
 31
0.0
 11
3.9830264546
 21
4.0084062831
 31
0.0
 11
3.9880611012
 21
4.0352835518
 31
0.0
 11
3.9965127162
 21
4.0627956484
 31
0.0
 11
4.0085948675
 21
4.0915084842
 31
0.0
 11
4.0248200632
 21
4.1222779591
 31
0.0
  0
SPLINE
  5
3F8
100
AcDbEntity
  8
0
100
AcDbSpline
 62
7
  6
CONTINUOUS
 70
0
 71
3
 72
16
 73
12
 74
10
 42
0.0000001
 43
0.0000001
 44
0.0000000001
 12
0.0906480335
 22
0.2719441006
 32
0.0
 13
-0.0906480335
 23
0.2719441006
 33
0.0
 40
0.0
 40
0.0
 40
0.0
 40
0.0
 40
0.1184548733
 40
0.230565332
 40
0.3393089466
 40
0.4465959239
 40
0.5535015371
 40
0.6607803311
 40
0.769505023
 40
0.8815660643
 40
1.0
 40
1.0
 40
1.0
 40
1.0
 10
4.1264778015
 20
4.1222779591
 30
0.0
 10
4.1300570353
 20
4.1330156604
 30
0.0
 10
4.1364881219
 20
4.1541017073
 30
0.0
 10
4.1440075516
 20
4.1856627621
 30
0.0
 10
4.1490957791
 20
4.2166315802
 30
0.0
 10
4.1516826413
 20
4.2474146499
 30
0.0
 10
4.151681453
 20
4.2781684508
 30
0.0
 10
4.1490926124
 20
4.3089487422
 30
0.0
 10
4.1440038776
 20
4.339910044
 30
0.0
 10
4.1364856208
 20
4.3714625756
 30
0.0
 10
4.1300564026
 20
4.3925421557
 30
0.0
 10
4.1264778015
 20
4.4032779591
 30
0.0
 11
4.1264778015
 21
4.1222779591
 31
0.0
 11
4.1363162711
 21
4.154776987
 31
0.0
 11
4.1437034416
 21
4.1860533775
 31
0.0
 11
4.148708059
 21
4.2168208299
 31
0.0
 11
4.1512550243
 21
4.2474694511
 31
0.0
 11
4.1512538541
 21
4.2781143996
 31
0.0
 11
4.1487049141
 21
4.3087605027
 31
0.0
 11
4.143699475
 21
4.3395223259
 31
0.0
 11
4.1363147036
 21
4.3707847275
 31
0.0
 11
4.1264778015
 21
4.4032779591
 31
0.0
  0
SPLINE
  5
3F9
100
AcDbEntity
  8
0
100
AcDbSpline
 62
7
  6
CONTINUOUS
 70
0
 71
3
 72
17
 73
13
 74
11
 42
0.0000001
 43
0.0000001
 44
0.0000000001
 12
-0.1487434696
 22
0.2576312467
 32
0.0
 13
0.1487434696
 23
0.2576312467
 33
0.0
 40
0.0
 40
0.0
 40
0.0
 40
0.0
 40
0.1169386465
 40
0.2216811606
 40
0.3184580982
 40
0.4103908543
 40
0.5000417254
 40
0.5896883004
 40
0.6816074548
 40
0.7783545182
 40
0.8830694657
 40
1.0
 40
1.0
 40
1.0
 40
1.0
 10
4.0248200632
 20
4.1222779591
 30
0.0
 10
4.0190221099
 20
4.1323203089
 30
0.0
 10
4.0086822822
 20
4.1517501563
 30
0.0
 10
3.9963086588
 20
4.1808522339
 30
0.0
 10
3.9876552121
 20
4.2086937966
 30
0.0
 10
3.9824981075
 20
4.2358771162
 30
0.0
 10
3.9807812272
 20
4.2627900011
 30
0.0
 10
3.9825011128
 20
4.2897013259
 30
0.0
 10
3.9876598644
 20
4.3168794665
 30
0.0
 10
3.9963127163
 20
4.3447137726
 30
0.0
 10
4.0086843036
 20
4.3738096122
 30
0.0
 10
4.0190225121
 20
4.393236306
 30
0.0
 10
4.0248200632
 20
4.4032779591
 30
0.0
 11
4.0248200632
 21
4.1222779591
 31
0.0
 11
4.0085938317
 21
4.1530496162
 31
0.0
 11
3.9965090752
 21
4.1817702527
 31
0.0
 11
3.988056402
 21
4.2092913213
 31
0.0
 11
3.9830235166
 21
4.2361730365
 31
0.0
 11
3.9813492123
 21
4.2627903926
 31
0.0
 11
3.9830264546
 21
4.2894062831
 31
0.0
 11
3.9880611012
 21
4.3162835518
 31
0.0
 11
3.9965127162
 21
4.3437956484
 31
0.0
 11
4.0085948675
 21
4.3725084842
 31
0.0
 11
4.0248200632
 21
4.4032779591
 31
0.0
  0
SPLINE
  5
3FA
100
AcDbEntity
  8
125-198_FEATURES
100
AcDbSpline
 62
7
  6
CONTINUOUS
 70
0
 71
3
 72
14
 73
10
 74
8
 42
0.0000001
 43
0.0000001
 44
0.0000000001
 12
0.031012674
 22
-0.0869887829
 32
0.0
 13
0.0879732913
 23
-0.0279339102
 33
0.0
 40
0.0
 40
0.0
 40
0.0
 40
0.0
 40
0.0193344419
 40
0.1884293743
 40
0.3509514064
 40
0.5164053695
 40
0.7111408212
 40
0.9453186244
 40
1.0
 40
1.0
 40
1.0
 40
1.0
 10
6.4239070322
 20
3.9578562747
 30
0.0
 10
6.4241069031
 20
3.9572956482
 30
0.0
 10
6.4261137449
 20
3.9518528366
 30
0.0
 10
6.4309240479
 20
3.9421198207
 30
0.0
 10
6.4401817257
 20
3.9298588398
 30
0.0
 10
6.4519996967
 20
3.9188608667
 30
0.0
 10
6.467362978
 20
3.9088077294
 30
0.0
 10
6.4810481031
 20
3.9028307581
 30
0.0
 10
6.4894761471
 20
3.9000054818
 30
0.0
 10
6.4910796473
 20
3.8994963269
 30
0.0
 11
6.4239070322
 21
3.9578562747
 31
0.0
 11
6.4245248038
 21
3.9561809768
 31
0.0
 11
6.4314381848
 21
3.9422019597
 31
0.0
 11
6.4404480115
 21
3.9302231966
 31
0.0
 11
6.4515838534
 21
3.919790556
 31
0.0
 11
6.4665601361
 21
3.9098775437
 31
0.0
 11
6.4862943612
 21
3.9011018302
 31
0.0
 11
6.4910796473
 21
3.8994963269
 31
0.0
  0
SPLINE
  5
3FB
100
AcDbEntity
  8
125-198_FEATURES
100
AcDbSpline
 62
7
  6
CONTINUOUS
 70
0
 71
3
 72
9
 73
5
 74
3
 42
0.0000001
 43
0.0000001
 44
0.0000000001
 12
0.0235803494
 22
-0.0074874016
 32
0.0
 13
0.0243876959
 23
-0.0041377248
 33
0.0
 40
0.0
 40
0.0
 40
0.0
 40
0.0
 40
0.7696704035
 40
1.0
 40
1.0
 40
1.0
 40
1.0
 10
6.4910796473
 20
3.8994963269
 30
0.0
 10
6.4971293463
 20
3.8975753831
 30
0.0
 10
6.5051385548
 20
3.8955543757
 30
0.0
 10
6.5132481736
 20
3.8940578587
 30
0.0
 10
6.5151205763
 20
3.8937401785
 30
0.0
 11
6.4910796473
 21
3.8994963269
 31
0.0
 11
6.5095177301
 21
3.8947750681
 31
0.0
 11
6.5151205763
 21
3.8937401785
 31
0.0
  0
SPLINE
  5
3FC
100
AcDbEntity
  8
125-198_FEATURES
100
AcDbSpline
 62
7
  6
CONTINUOUS
 70
0
 71
3
 72
10
 73
6
 74
4
 42
0.0000001
 43
0.0000001
 44
0.0000000001
 12
0.0693766931
 22
-0.0117707579
 32
0.0
 13
0.0695176342
 23
0.0109263786
 33
0.0
 40
0.0
 40
0.0
 40
0.0
 40
0.0
 40
0.2866383481
 40
0.6623747959
 40
1.0
 40
1.0
 40
1.0
 40
1.0
 10
6.5151205763
 20
3.8937401785
 30
0.0
 10
6.5217492499
 20
3.8926155283
 30
0.0
 10
6.5371978753
 20
3.8907989577
 30
0.0
 10
6.5606878713
 20
3.8904948675
 30
0.0
 10
6.5773661234
 20
3.8921210424
 30
0.0
 10
6.5851897586
 20
3.893350716
 30
0.0
 11
6.5151205763
 21
3.8937401785
 31
0.0
 11
6.535140536
 21
3.8913457742
 31
0.0
 11
6.5615612958
 21
3.8909946024
 31
0.0
 11
6.5851897586
 21
3.893350716
 31
0.0
  0
SPLINE
  5
3FD
100
AcDbEntity
  8
125-198_FEATURES
100
AcDbSpline
 62
7
  6
CONTINUOUS
 70
0
 71
3
 72
9
 73
5
 74
3
 42
0.0000001
 43
0.0000001
 44
0.0000000001
 12
0.0243443995
 22
0.0038263116
 32
0.0
 13
0.0236064531
 23
0.0070894318
 33
0.0
 40
0.0
 40
0.0
 40
0.0
 40
0.0
 40
0.1007759842
 40
1.0
 40
1.0
 40
1.0
 40
1.0
 10
6.5851897586
 20
3.893350716
 30
0.0
 10
6.5860075355
 20
3.8934792494
 30
0.0
 10
6.594114749
 20
3.894804561
 30
0.0
 10
6.6021407943
 20
3.8966300797
 30
0.0
 10
6.6092166242
 20
3.8987550754
 30
0.0
 11
6.5851897586
 21
3.893350716
 31
0.0
 11
6.587640736
 21
3.8937514486
 31
0.0
 11
6.6092166242
 21
3.8987550754
 31
0.0
  0
SPLINE
  5
3FE
100
AcDbEntity
  8
125-198_FEATURES
100
AcDbSpline
 62
7
  6
CONTINUOUS
 70
0
 71
3
 72
14
 73
10
 74
8
 42
0.0000001
 43
0.0000001
 44
0.0000000001
 12
0.0909841058
 22
0.0273241222
 32
0.0
 13
0.0317159663
 23
0.0896052586
 33
0.0
 40
0.0
 40
0.0
 40
0.0
 40
0.0
 40
0.0276944642
 40
0.2659142455
 40
0.4677597193
 40
0.6364583001
 40
0.7986521769
 40
0.9675049289
 40
1.0
 40
1.0
 40
1.0
 40
1.0
 10
6.6092166242
 20
3.8987550754
 30
0.0
 10
6.6100565429
 20
3.8990073178
 30
0.0
 10
6.6181020717
 20
3.9014946813
 30
0.0
 10
6.6319110425
 20
3.9069962339
 30
0.0
 10
6.6484309105
 20
3.9170893751
 30
0.0
 10
6.6611216733
 20
3.9283073551
 30
0.0
 10
6.6709681826
 20
3.940791171
 30
0.0
 10
6.6762688774
 20
3.9510849662
 30
0.0
 10
6.6785093698
 20
3.9570592616
 30
0.0
 10
6.6788529073
 20
3.958029838
 30
0.0
 11
6.6092166242
 21
3.8987550754
 31
0.0
 11
6.6117302772
 21
3.8995323701
 31
0.0
 11
6.6326773396
 21
3.9080453866
 31
0.0
 11
6.6489659259
 21
3.9181312449
 31
0.0
 11
6.6609223868
 21
3.9287817454
 31
0.0
 11
6.670429931
 21
3.9408898438
 31
0.0
 11
6.6777680839
 21
3.9551380179
 31
0.0
 11
6.6788529073
 21
3.958029838
 31
0.0
  0
SPLINE
  5
3FF
100
AcDbEntity
  8
125-198_FEATURES
100
AcDbSpline
 62
7
  6
CONTINUOUS
 70
0
 71
3
 72
13
 73
9
 74
7
 42
0.0000001
 43
0.0000001
 44
0.0000000001
 12
-0.0345048107
 22
0.0661482361
 32
0.0
 13
-0.0729604582
 23
0.014981344
 33
0.0
 40
0.0
 40
0.0
 40
0.0
 40
0.0
 40
0.0290108571
 40
0.2523275969
 40
0.4650549421
 40
0.6929275938
 40
0.950005273
 40
1.0
 40
1.0
 40
1.0
 40
1.0
 10
6.7631166374
 20
4.2866177549
 30
0.0
 10
6.762782966
 20
4.2872574272
 30
0.0
 10
6.7597848273
 20
4.2927706124
 30
0.0
 10
6.7527407925
 20
4.3020658457
 30
0.0
 10
6.7399322896
 20
4.3126029404
 30
0.0
 10
6.7245724873
 20
4.3207870904
 30
0.0
 10
6.7118780681
 20
4.3248636506
 30
0.0
 10
6.7044324929
 20
4.3265084369
 30
0.0
 10
6.7032166135
 20
4.3267580996
 30
0.0
 11
6.7631166374
 21
4.2866177549
 31
0.0
 11
6.7620826666
 21
4.2885189515
 31
0.0
 11
6.7521062591
 21
4.3018067212
 31
0.0
 11
6.7399447766
 21
4.3119373022
 31
0.0
 11
6.7250318518
 21
4.3200044176
 31
0.0
 11
6.7068527288
 21
4.325954429
 31
0.0
 11
6.7032166135
 21
4.3267580996
 31
0.0
  0
SPLINE
  5
400
100
AcDbEntity
  8
125-198_FEATURES
100
AcDbSpline
 62
7
  6
CONTINUOUS
 70
0
 71
3
 72
9
 73
5
 74
3
 42
0.0000001
 43
0.0000001
 44
0.0000000001
 12
-0.0237265423
 22
0.0048718922
 32
0.0
 13
-0.0242131036
 23
0.0004965246
 33
0.0
 40
0.0
 40
0.0
 40
0.0
 40
0.0
 40
0.6881251991
 40
1.0
 40
1.0
 40
1.0
 40
1.0
 10
6.7032166135
 20
4.3267580996
 30
0.0
 10
6.6977743363
 20
4.3278755902
 30
0.0
 10
6.6897589645
 20
4.3289718099
 30
0.0
 10
6.681692297
 20
4.3293585381
 30
0.0
 10
6.6791751447
 20
4.3294101559
 30
0.0
 11
6.7032166135
 21
4.3267580996
 31
0.0
 11
6.6867188883
 21
4.3290483072
 31
0.0
 11
6.6791751447
 21
4.3294101559
 31
0.0
  0
SPLINE
  5
401
100
AcDbEntity
  8
125-198_FEATURES
100
AcDbSpline
 62
7
  6
CONTINUOUS
 70
0
 71
3
 72
12
 73
8
 74
6
 42
0.0000001
 43
0.0000001
 44
0.0000000001
 12
-0.0743489377
 22
0.0015246321
 32
0.0
 13
-0.0592345805
 23
-0.0450812718
 33
0.0
 40
0.0
 40
0.0
 40
0.0
 40
0.0
 40
0.1743308394
 40
0.4499731386
 40
0.7099514626
 40
0.9395575021
 40
1.0
 40
1.0
 40
1.0
 40
1.0
 10
6.6791751447
 20
4.3294101559
 30
0.0
 10
6.6748547071
 20
4.3294987527
 30
0.0
 10
6.6636926757
 20
4.3292028036
 30
0.0
 10
6.6462322504
 20
4.3266002137
 30
0.0
 10
6.6280952549
 20
4.3207841029
 30
0.0
 10
6.616009892
 20
4.314327137
 30
0.0
 10
6.6101578103
 20
4.3101330534
 30
0.0
 10
6.6089643817
 20
4.3092247785
 30
0.0
 11
6.6791751447
 21
4.3294101559
 31
0.0
 11
6.6662201369
 21
4.3290662646
 31
0.0
 11
6.6459735962
 21
4.3259846568
 31
0.0
 11
6.6276141026
 21
4.3199818753
 31
0.0
 11
6.6126194347
 21
4.311846776
 31
0.0
 11
6.6089643817
 21
4.3092247785
 31
0.0
  0
SPLINE
  5
402
100
AcDbEntity
  8
125-198_FEATURES
100
AcDbSpline
 62
7
  6
CONTINUOUS
 70
0
 71
3
 72
10
 73
6
 74
4
 42
0.0000001
 43
0.0000001
 44
0.0000000001
 12
-0.0238830265
 22
-0.0181764976
 32
0.0
 13
-0.0138892605
 23
-0.0266315906
 33
0.0
 40
0.0
 40
0.0
 40
0.0
 40
0.0
 40
0.3797907524
 40
0.9269171397
 40
1.0
 40
1.0
 40
1.0
 40
1.0
 10
6.6089643817
 20
4.3092247785
 30
0.0
 10
6.6059408641
 20
4.3069236899
 30
0.0
 10
6.5989700873
 20
4.3007706577
 30
0.0
 10
6.5928855336
 20
4.2927171727
 30
0.0
 10
6.589917847
 20
4.2872621079
 30
0.0
 10
6.5895794914
 20
4.286613337
 30
0.0
 11
6.6089643817
 21
4.3092247785
 31
0.0
 11
6.6004519518
 21
4.3016612172
 31
0.0
 11
6.5906284382
 21
4.2885413216
 31
0.0
 11
6.5895794914
 21
4.286613337
 31
0.0
  0
SPLINE
  5
403
100
AcDbEntity
  8
125-198_FEATURES
100
AcDbSpline
 62
7
  6
CONTINUOUS
 70
0
 71
3
 72
22
 73
18
 74
16
 42
0.0000001
 43
0.0000001
 44
0.0000000001
 12
0.1845577184
 22
0.0444262264
 32
0.0
 13
0.184557696
 23
-0.0444262269
 33
0.0
 40
0.0
 40
0.0
 40
0.0
 40
0.0
 40
0.0108154283
 40
0.0427824443
 40
0.0942578897
 40
0.1625089332
 40
0.2451754566
 40
0.3387900216
 40
0.440705904
 40
0.5452315405
 40
0.648512286
 40
0.744684547
 40
0.8304791299
 40
0.9015823758
 40
0.9552883591
 40
0.9886821
 40
1.0
 40
1.0
 40
1.0
 40
1.0
 10
6.5823492119
 20
3.7317779591
 30
0.0
 10
6.5830145688
 20
3.731938122
 30
0.0
 10
6.5856479599
 20
3.7325656868
 30
0.0
 10
6.5914622769
 20
3.7338957185
 30
0.0
 10
6.6008571098
 20
3.7358671993
 30
0.0
 10
6.6134585214
 20
3.738162645
 30
0.0
 10
6.6287723315
 20
3.7404045978
 30
0.0
 10
6.646287959
 20
3.7422195382
 30
0.0
 10
6.6652537579
 20
3.7432668776
 30
0.0
 10
6.684860806
 20
3.7433360846
 30
0.0
 10
6.7040814413
 20
3.7424030093
 30
0.0
 10
6.722051427
 20
3.7406417004
 30
0.0
 10
6.7379094846
 20
3.7383852568
 30
0.0
 10
6.7510283012
 20
3.7360297878
 30
0.0
 10
6.7608290876
 20
3.7339867256
 30
0.0
 10
6.7669007341
 20
3.7326011359
 30
0.0
 10
6.7696529434
 20
3.731945563
 30
0.0
 10
6.7703492119
 20
3.7317779591
 30
0.0
 11
6.5823492119
 21
3.7317779591
 31
0.0
 11
6.5843463758
 21
3.7322538934
 31
0.0
 11
6.5902619301
 21
3.7336067998
 31
0.0
 11
6.5998254301
 21
3.7356125493
 31
0.0
 11
6.6125721832
 21
3.737932074
 31
0.0
 11
6.6280997483
 21
3.7402017092
 31
0.0
 11
6.6457763355
 21
3.742029421
 31
0.0
 11
6.6650937198
 21
3.7430933918
 31
0.0
 11
6.6849356687
 21
3.7431632308
 31
0.0
 11
6.7045184853
 21
3.7422151249
 31
0.0
 11
6.7226881636
 21
3.7404382697
 31
0.0
 11
6.7388126663
 21
3.7381478599
 31
0.0
 11
6.7520981995
 21
3.7357651403
 31
0.0
 11
6.7620789005
 21
3.7336858471
 31
0.0
 11
6.7682592092
 21
3.7322757827
 31
0.0
 11
6.7703492119
 21
3.7317779591
 31
0.0
  0
SPLINE
  5
404
100
AcDbEntity
  8
125-198_FEATURES
100
AcDbSpline
 62
7
  6
CONTINUOUS
 70
0
 71
3
 72
20
 73
16
 74
14
 42
0.0000001
 43
0.0000001
 44
0.0000000001
 12
0.0
 22
-0.2825348729
 32
0.0
 13
-0.0
 23
0.2825348729
 33
0.0
 40
0.0
 40
0.0
 40
0.0
 40
0.0
 40
0.070213703
 40
0.1461218986
 40
0.2240919259
 40
0.3022137307
 40
0.3811082485
 40
0.4606106573
 40
0.5392864452
 40
0.6189796541
 40
0.6979762023
 40
0.7761607924
 40
0.8543344577
 40
0.9301930334
 40
1.0
 40
1.0
 40
1.0
 40
1.0
 10
6.7703492119
 20
4.3175279591
 30
0.0
 10
6.7703492119
 20
4.3109153526
 30
0.0
 10
6.7683870583
 20
4.2970984569
 30
0.0
 10
6.7600362618
 20
4.2774793683
 30
0.0
 10
6.7467666168
 20
4.2598619643
 30
0.0
 10
6.7296248837
 20
4.2455674934
 30
0.0
 10
6.7095702857
 20
4.2354312167
 30
0.0
 10
6.6876592745
 20
4.2301660118
 30
0.0
 10
6.6650503161
 20
4.2301624868
 30
0.0
 10
6.643111065
 20
4.2354340253
 30
0.0
 10
6.6230300367
 20
4.2455939781
 30
0.0
 10
6.6058704782
 20
4.2599220565
 30
0.0
 10
6.5926064053
 20
4.2775711148
 30
0.0
 10
6.5842936027
 20
4.2971805467
 30
0.0
 10
6.5823492119
 20
4.3109536583
 30
0.0
 10
6.5823492119
 20
4.3175279591
 30
0.0
 11
6.7703492119
 21
4.3175279591
 31
0.0
 11
6.7676593005
 21
4.2978733549
 31
0.0
 11
6.759366743
 21
4.2780947058
 31
0.0
 11
6.7461618404
 21
4.2604618251
 31
0.0
 11
6.7292209314
 21
4.2463131606
 31
0.0
 11
6.7093219063
 21
4.2362686059
 31
0.0
 11
6.6874780309
 21
4.2310345188
 31
0.0
 11
6.6652493774
 21
4.2310311051
 31
0.0
 11
6.6433529626
 21
4.2362772711
 31
0.0
 11
6.6234322988
 21
4.2463429256
 31
0.0
 11
6.6064869912
 21
4.2605139894
 31
0.0
 11
6.5932669392
 21
4.2782073884
 31
0.0
 11
6.5850086496
 21
4.2979851786
 31
0.0
 11
6.5823492119
 21
4.3175279591
 31
0.0
  0
SPLINE
  5
405
100
AcDbEntity
  8
125-198_FEATURES
100
AcDbSpline
 62
7
  6
CONTINUOUS
 70
0
 71
3
 72
24
 73
20
 74
18
 42
0.0000001
 43
0.0000001
 44
0.0000000001
 12
0.0
 22
0.4031838106
 32
0.0
 13
0.0
 23
-0.4031838106
 33
0.0
 40
0.0
 40
0.0
 40
0.0
 40
0.0
 40
0.051787153
 40
0.1076241885
 40
0.1641128321
 40
0.2188425172
 40
0.2763016121
 40
0.3410954851
 40
0.4069555686
 40
0.4724025813
 40
0.5372658229
 40
0.6027912409
 40
0.6684319483
 40
0.7318606169
 40
0.7870970196
 40
0.840543933
 40
0.8957041813
 40
0.9498153037
 40
1.0
 40
1.0
 40
1.0
 40
1.0
 10
6.4188492119
 20
3.9270279591
 30
0.0
 10
6.4188492119
 20
3.933987873
 30
0.0
 10
6.4203789455
 20
3.9484848822
 30
0.0
 10
6.4269392218
 20
3.9696757352
 30
0.0
 10
6.4373855602
 20
3.9896789649
 30
0.0
 10
6.4511029967
 20
4.0078449695
 30
0.0
 10
6.4683630021
 20
4.0243629976
 30
0.0
 10
6.4895160679
 20
4.0384818707
 30
0.0
 10
6.5139987493
 20
4.048700664
 30
0.0
 10
6.5400620575
 20
4.0537738867
 30
0.0
 10
6.5665675989
 20
4.0533624034
 30
0.0
 10
6.5924433897
 20
4.0474979374
 30
0.0
 10
6.6164294612
 20
4.0366561117
 30
0.0
 10
6.6367877263
 20
4.0223016737
 30
0.0
 10
6.6532404262
 20
4.0059095859
 30
0.0
 10
6.666288201
 20
3.9880627762
 30
0.0
 10
6.6762184913
 20
3.9684572245
 30
0.0
 10
6.6824131672
 20
3.9478196031
 30
0.0
 10
6.6838492119
 20
3.9337725115
 30
0.0
 10
6.6838492119
 20
3.9270279591
 30
0.0
 11
6.4188492119
 21
3.9270279591
 31
0.0
 11
6.4209633136
 21
3.9478003973
 31
0.0
 11
6.4275393071
 21
3.9693311418
 31
0.0
 11
6.4380346931
 21
3.9895440452
 31
0.0
 11
6.4513135629
 21
4.0071674785
 31
0.0
 11
6.4680507492
 21
4.0231848714
 31
0.0
 11
6.4897945739
 21
4.0376645516
 31
0.0
 11
6.5143150276
 21
4.0478551043
 31
0.0
 11
6.5402213075
 21
4.0528698542
 31
0.0
 11
6.5663700024
 21
4.0524662874
 31
0.0
 11
6.5921421448
 21
4.0466568968
 31
0.0
 11
6.6162747385
 21
4.0357928061
 31
0.0
 11
6.6371886172
 21
4.0210751603
 31
0.0
 11
6.6529635169
 21
4.0053549729
 31
0.0
 11
6.6656623315
 21
3.987945306
 31
0.0
 11
6.6756649524
 21
3.9680819558
 31
0.0
 11
6.6818616097
 21
3.947163756
 31
0.0
 11
6.6838492119
 21
3.9270279591
 31
0.0
  0
SPLINE
  5
406
100
AcDbEntity
  8
125-198_FEATURES
100
AcDbSpline
 62
7
  6
CONTINUOUS
 70
0
 71
3
 72
23
 73
19
 74
17
 42
0.0000001
 43
0.0000001
 44
0.0000000001
 12
-0.2558827968
 22
-0.0868232325
 32
0.0
 13
-0.2558827695
 23
0.0868232239
 33
0.0
 40
0.0
 40
0.0
 40
0.0
 40
0.0
 40
0.0098464004
 40
0.0388564715
 40
0.0853319226
 40
0.1469899171
 40
0.2214697822
 40
0.3064206888
 40
0.3994497038
 40
0.4966316048
 40
0.593764048
 40
0.6871217626
 40
0.7733564236
 40
0.849448597
 40
0.9125807488
 40
0.9601559578
 40
0.9898942133
 40
1.0
 40
1.0
 40
1.0
 40
1.0
 10
6.6838492119
 20
4.5127779591
 30
0.0
 10
6.6830093704
 20
4.5124929937
 30
0.0
 10
6.6796922475
 20
4.5113769263
 30
0.0
 10
6.6723826548
 20
4.5090004531
 30
0.0
 10
6.6605580296
 20
4.5054228733
 30
0.0
 10
6.6446711744
 20
4.5011488777
 30
0.0
 10
6.6252356937
 20
4.4967778436
 30
0.0
 10
6.6028086682
 20
4.4929481888
 30
0.0
 10
6.5781491767
 20
4.4902913871
 30
0.0
 10
6.5522648788
 20
4.4892989386
 30
0.0
 10
6.5263463345
 20
4.4901635856
 30
0.0
 10
6.5015341858
 20
4.4927182707
 30
0.0
 10
6.4788051366
 20
4.4965077531
 30
0.0
 10
6.4589729009
 20
4.5009107009
 30
0.0
 10
6.4427144195
 20
4.5052557218
 30
0.0
 10
6.4306019003
 20
4.5089091473
 30
0.0
 10
6.423112686
 20
4.5113412827
 30
0.0
 10
6.4197111775
 20
4.5124854868
 30
0.0
 10
6.4188492119
 20
4.5127779591
 30
0.0
 11
6.6838492119
 21
4.5127779591
 31
0.0
 11
6.6813274946
 21
4.5119295393
 31
0.0
 11
6.673872507
 21
4.5095065193
 31
0.0
 11
6.6618515715
 21
4.5058724996
 31
0.0
 11
6.6457612075
 21
4.5015504534
 31
0.0
 11
6.6261239628
 21
4.4971449534
 31
0.0
 11
6.6034944862
 21
4.493294306
 31
0.0
 11
6.578500272
 21
4.4906136485
 31
0.0
 11
6.5522596402
 21
4.4896127232
 31
0.0
 11
6.5260277322
 21
4.4904833058
 31
0.0
 11
6.5009328138
 21
4.4930552686
 31
0.0
 11
6.4779461744
 21
4.4968737492
 31
0.0
 11
6.4578714302
 21
4.5013189802
 31
0.0
 11
6.441388959
 21
4.5057166859
 31
0.0
 11
6.429080366
 21
4.5094260841
 31
0.0
 11
6.4214374187
 21
4.5119073651
 31
0.0
 11
6.4188492119
 21
4.5127779591
 31
0.0
  0
SPLINE
  5
407
100
AcDbEntity
  8
125-198_FEATURES
100
AcDbSpline
 62
7
  6
CONTINUOUS
 70
0
 71
3
 72
22
 73
18
 74
16
 42
0.0000001
 43
0.0000001
 44
0.0000000001
 12
0.0
 22
0.2683720037
 32
0.0
 13
0.0
 23
-0.2683720037
 33
0.0
 40
0.0
 40
0.0
 40
0.0
 40
0.0
 40
0.0625227141
 40
0.1244656072
 40
0.1871596082
 40
0.2518303155
 40
0.3196416441
 40
0.3901596415
 40
0.4632053145
 40
0.5366527565
 40
0.6096641363
 40
0.6801094462
 40
0.7479243246
 40
0.8125950844
 40
0.8753826057
 40
0.9373911121
 40
1.0
 40
1.0
 40
1.0
 40
1.0
 10
6.5823492119
 20
4.3175279591
 30
0.0
 10
6.5823492119
 20
4.3231210745
 30
0.0
 10
6.5836930917
 20
4.3343103459
 30
0.0
 10
6.589868898
 20
4.3500598252
 30
0.0
 10
6.5998721577
 20
4.3639346984
 30
0.0
 10
6.6131868032
 20
4.3754464762
 30
0.0
 10
6.6291819256
 20
4.3842873641
 30
0.0
 10
6.647211835
 20
4.390291319
 30
0.0
 10
6.6664714318
 20
4.393320491
 30
0.0
 10
6.6861855097
 20
4.3933234474
 30
0.0
 10
6.7054365751
 20
4.3903024809
 30
0.0
 10
6.7234604665
 20
4.3843108819
 30
0.0
 10
6.7394563559
 20
4.3754844614
 30
0.0
 10
6.7527871327
 20
4.3639783136
 30
0.0
 10
6.7628099663
 20
4.3500992684
 30
0.0
 10
6.7690017699
 20
4.3343318755
 30
0.0
 10
6.7703492119
 20
4.3231287833
 30
0.0
 10
6.7703492119
 20
4.3175279591
 30
0.0
 11
6.5823492119
 21
4.3175279591
 31
0.0
 11
6.5843965979
 21
4.3341819276
 31
0.0
 11
6.5904549995
 21
4.3496623812
 31
0.0
 11
6.6002422586
 21
4.3633481685
 31
0.0
 11
6.6133063959
 21
4.3747741198
 31
0.0
 11
6.6291848819
 21
4.3836659692
 31
0.0
 11
6.6471157703
 21
4.3897191498
 31
0.0
 11
6.6664744694
 21
4.3928069638
 31
0.0
 11
6.6861857064
 21
4.3928099589
 31
0.0
 11
6.7055364117
 21
4.3897304658
 31
0.0
 11
6.7234520293
 21
4.3836930467
 31
0.0
 11
6.739337734
 21
4.3748121478
 31
0.0
 11
6.752411453
 21
4.3633971398
 31
0.0
 11
6.7622237883
 21
4.3496984358
 31
0.0
 11
6.7682961197
 21
4.3342045265
 31
0.0
 11
6.7703492119
 21
4.3175279591
 31
0.0
  0
SPLINE
  5
408
100
AcDbEntity
  8
125-198_FEATURES
100
AcDbSpline
 62
7
  6
CONTINUOUS
 70
0
 71
3
 72
23
 73
19
 74
17
 42
0.0000001
 43
0.0000001
 44
0.0000000001
 12
0.0
 22
-0.3743178352
 32
0.0
 13
-0.0
 23
0.3743178352
 33
0.0
 40
0.0
 40
0.0
 40
0.0
 40
0.0
 40
0.0591882445
 40
0.1170514702
 40
0.1748569267
 40
0.2342461951
 40
0.2963997712
 40
0.3617767605
 40
0.4300419531
 40
0.4999436585
 40
0.5698003395
 40
0.6379748702
 40
0.7032713681
 40
0.7654073197
 40
0.8248424823
 40
0.8827430201
 40
0.9407148222
 40
1.0
 40
1.0
 40
1.0
 40
1.0
 10
6.6838492119
 20
3.9270279591
 30
0.0
 10
6.6838492119
 20
3.9196428873
 30
0.0
 10
6.6822016529
 20
3.9049702706
 30
0.0
 10
6.6745321681
 20
3.8843176478
 30
0.0
 10
6.6620703534
 20
3.8661230965
 30
0.0
 10
6.6454223355
 20
3.8509076623
 30
0.0
 10
6.6252591131
 20
3.8389110155
 30
0.0
 10
6.6022965317
 20
3.8302565319
 30
0.0
 10
6.5773525844
 20
3.8250267827
 30
0.0
 10
6.5513761846
 20
3.8232757056
 30
0.0
 10
6.5254107653
 20
3.8250191779
 30
0.0
 10
6.5004913763
 20
3.8302326571
 30
0.0
 10
6.4775451903
 20
3.8388622189
 30
0.0
 10
6.4573756226
 20
3.8508345684
 30
0.0
 10
6.4406980074
 20
3.866040502
 30
0.0
 10
6.4281987793
 20
3.8842482071
 30
0.0
 10
6.420502432
 20
3.9049321727
 30
0.0
 10
6.4188492119
 20
3.9196307926
 30
0.0
 10
6.4188492119
 20
3.9270279591
 30
0.0
 11
6.6838492119
 21
3.9270279591
 31
0.0
 11
6.6812915343
 21
3.9050208725
 31
0.0
 11
6.6737386742
 21
3.8847211959
 31
0.0
 11
6.6615661468
 21
3.866832208
 31
0.0
 11
6.6452423115
 21
3.8517416196
 31
0.0
 11
6.6253218671
 21
3.8397230899
 31
0.0
 11
6.6024667093
 21
3.8309761226
 31
0.0
 11
6.5774747472
 21
3.8256515136
 31
0.0
 11
6.551370505
 21
3.8238627764
 31
0.0
 11
6.5252825974
 21
3.8256433506
 31
0.0
 11
6.5003214736
 21
3.8309498311
 31
0.0
 11
6.4774880205
 21
3.8396691984
 31
0.0
 11
6.4575607675
 21
3.8516636482
 31
0.0
 11
6.4412065177
 21
3.8667466208
 31
0.0
 11
6.4289954323
 21
3.8846524065
 31
0.0
 11
6.4214154056
 21
3.9049853346
 31
0.0
 11
6.4188492119
 21
3.9270279591
 31
0.0
  0
SPLINE
  5
409
100
AcDbEntity
  8
0
100
AcDbSpline
 62
7
  6
CONTINUOUS
 70
0
 71
3
 72
11
 73
7
 74
5
 42
0.0000001
 43
0.0000001
 44
0.0000000001
 12
-0.0675263006
 22
0.1267466133
 32
0.0
 13
-0.0058255746
 23
0.1435729202
 33
0.0
 40
0.0
 40
0.0
 40
0.0
 40
0.0
 40
0.2839565448
 40
0.549579487
 40
0.8041918053
 40
1.0
 40
1.0
 40
1.0
 40
1.0
 10
5.0696297561
 20
3.4888926496
 30
0.0
 10
5.0632382445
 20
3.5008894931
 30
0.0
 10
5.0517854102
 20
3.5246221809
 30
0.0
 10
5.0386668367
 20
3.5609007186
 30
0.0
 10
5.0310351897
 20
3.5944157992
 30
0.0
 10
5.0289196908
 20
3.6159405667
 30
0.0
 10
5.0285394591
 20
3.6253114848
 30
0.0
 11
5.0696297561
 21
3.4888926496
 31
0.0
 11
5.0520674587
 21
3.5256968176
 31
0.0
 11
5.0392541223
 21
3.5616271901
 31
0.0
 11
5.031266448
 21
3.5973095497
 31
0.0
 11
5.0285394591
 21
3.6253114848
 31
0.0
  0
SPLINE
  5
40A
100
AcDbEntity
  8
0
100
AcDbSpline
 62
7
  6
CONTINUOUS
 70
0
 71
3
 72
8
 73
4
 74
2
 42
0.0000001
 43
0.0000001
 44
0.0000000001
 12
-0.0003118505
 22
0.0076856433
 32
0.0
 13
-0.0000679904
 23
0.007687453
 33
0.0
 40
0.0
 40
0.0
 40
0.0
 40
0.0
 40
1.0
 40
1.0
 40
1.0
 40
1.0
 10
5.0285394591
 20
3.6253114848
 30
0.0
 10
5.0284355089
 20
3.6278733659
 30
0.0
 10
5.0283718754
 20
3.6304362638
 30
0.0
 10
5.0283492119
 20
3.6329987481
 30
0.0
 11
5.0285394591
 21
3.6253114848
 31
0.0
 11
5.0283492119
 21
3.6329987481
 31
0.0
  0
SPLINE
  5
40B
100
AcDbEntity
  8
0
100
AcDbSpline
 62
7
  6
CONTINUOUS
 70
0
 71
3
 72
11
 73
7
 74
5
 42
0.0000001
 43
0.0000001
 44
0.0000000001
 12
0.001338096
 22
0.1512941749
 32
0.0
 13
0.0711410679
 23
0.133531518
 33
0.0
 40
0.0
 40
0.0
 40
0.0
 40
0.0
 40
0.2367010418
 40
0.4783943579
 40
0.7305092079
 40
1.0
 40
1.0
 40
1.0
 40
1.0
 10
5.0283492119
 20
3.6373071701
 30
0.0
 10
5.0284547881
 20
3.649244333
 30
0.0
 10
5.030465109
 20
3.6733885698
 30
0.0
 10
5.0386685265
 20
3.7094109072
 30
0.0
 10
5.0517872536
 20
3.7456877152
 30
0.0
 10
5.0632391352
 20
3.7694180971
 30
0.0
 10
5.0696297561
 20
3.7814132686
 30
0.0
 11
5.0283492119
 21
3.6373071701
 31
0.0
 11
5.0312671594
 21
3.6730009879
 31
0.0
 11
5.0392562047
 21
3.7086858578
 31
0.0
 11
5.0520696567
 21
3.7446143489
 31
0.0
 11
5.0696297561
 21
3.7814132686
 31
0.0
  0
SPLINE
  5
40C
100
AcDbEntity
  8
0
100
AcDbSpline
 62
7
  6
CONTINUOUS
 70
0
 71
3
 72
15
 73
11
 74
9
 42
0.0000001
 43
0.0000001
 44
0.0000000001
 12
0.2257490671
 22
0.2446407181
 32
0.0
 13
-0.2257490671
 23
0.2446407181
 33
0.0
 40
0.0
 40
0.0
 40
0.0
 40
0.0
 40
0.1515116105
 40
0.280214772
 40
0.393951807
 40
0.5000661469
 40
0.6061698475
 40
0.7198841272
 40
0.8485128173
 40
1.0
 40
1.0
 40
1.0
 40
1.0
 10
5.5263492119
 20
3.4888926496
 30
0.0
 10
5.5377504135
 20
3.5012479527
 30
0.0
 10
5.5577647865
 20
3.5251614136
 30
0.0
 10
5.5808379909
 20
3.5625128392
 30
0.0
 10
5.5947132408
 20
3.5989276547
 30
0.0
 10
5.5993898838
 20
3.6351741863
 30
0.0
 10
5.5947026739
 20
3.6714165763
 30
0.0
 10
5.5808244874
 20
3.7078170336
 30
0.0
 10
5.5577560639
 20
3.7451550844
 30
0.0
 10
5.5377485753
 20
3.7690599575
 30
0.0
 10
5.5263492119
 20
3.7814132686
 30
0.0
 11
5.5263492119
 21
3.4888926496
 31
0.0
 11
5.5583406501
 21
3.5278838805
 31
0.0
 11
5.5804327336
 21
3.5645919319
 31
0.0
 11
5.5935185843
 21
3.6001198573
 31
0.0
 11
5.5978657104
 21
3.6351751071
 31
0.0
 11
5.5935088103
 21
3.6702255745
 31
0.0
 11
5.5804182696
 21
3.7057436993
 31
0.0
 11
5.5583359195
 21
3.7424286748
 31
0.0
 11
5.5263492119
 21
3.7814132686
 31
0.0
  0
SPLINE
  5
40D
100
AcDbEntity
  8
0
100
AcDbSpline
 62
7
  6
CONTINUOUS
 70
0
 71
3
 72
11
 73
7
 74
5
 42
0.0000001
 43
0.0000001
 44
0.0000000001
 12
-0.0751414012
 22
0.2820802573
 32
0.0
 13
-0.0012908927
 23
0.291914089
 33
0.0
 40
0.0
 40
0.0
 40
0.0
 40
0.0
 40
0.2592327895
 40
0.5092839348
 40
0.7552797555
 40
1.0
 40
1.0
 40
1.0
 40
1.0
 10
5.0696297561
 20
3.8297573402
 30
0.0
 10
5.0631367178
 20
3.8541321575
 30
0.0
 10
5.0515481625
 20
3.9023427915
 30
0.0
 10
5.0385302934
 20
3.9747201218
 30
0.0
 10
5.0304271911
 20
4.0463983491
 30
0.0
 10
5.0284545144
 20
4.0941571081
 30
0.0
 10
5.0283492119
 20
4.1179695371
 30
0.0
 11
5.0696297561
 21
3.8297573402
 31
0.0
 11
5.0520674587
 21
3.903365676
 31
0.0
 11
5.0392541223
 21
3.9752264211
 31
0.0
 11
5.031266448
 21
4.0465911403
 31
0.0
 11
5.0283492119
 21
4.1179695371
 31
0.0
  0
SPLINE
  5
40E
100
AcDbEntity
  8
0
100
AcDbSpline
 62
7
  6
CONTINUOUS
 70
0
 71
3
 72
11
 73
7
 74
5
 42
0.0000001
 43
0.0000001
 44
0.0000000001
 12
0.0012908927
 22
0.2919140869
 32
0.0
 13
0.0751414007
 23
0.2820802553
 33
0.0
 40
0.0
 40
0.0
 40
0.0
 40
0.0
 40
0.2447519681
 40
0.4907654051
 40
0.7408039318
 40
1.0
 40
1.0
 40
1.0
 40
1.0
 10
5.0283492119
 20
4.1265863811
 30
0.0
 10
5.0284545281
 20
4.1504018969
 30
0.0
 10
5.0304276345
 20
4.1981654611
 30
0.0
 10
5.0385319601
 20
4.2698471538
 30
0.0
 10
5.0515500406
 20
4.3422212997
 30
0.0
 10
5.0631376376
 20
4.3904272137
 30
0.0
 10
5.0696297561
 20
4.414798578
 30
0.0
 11
5.0283492119
 21
4.1265863811
 31
0.0
 11
5.0312671594
 21
4.1979740168
 31
0.0
 11
5.0392562047
 21
4.2693437566
 31
0.0
 11
5.0520696567
 21
4.3412007388
 31
0.0
 11
5.0696297561
 21
4.414798578
 31
0.0
  0
SPLINE
  5
40F
100
AcDbEntity
  8
0
100
AcDbSpline
 62
7
  6
CONTINUOUS
 70
0
 71
3
 72
15
 73
11
 74
9
 42
0.0000001
 43
0.0000001
 44
0.0000000001
 12
0.2542242975
 22
0.5509977561
 32
0.0
 13
-0.2542242975
 23
0.5509977561
 33
0.0
 40
0.0
 40
0.0
 40
0.0
 40
0.0
 40
0.1389039715
 40
0.2652482266
 40
0.3843131275
 40
0.5000728745
 40
0.6158178878
 40
0.7348524215
 40
0.8611192254
 40
1.0
 40
1.0
 40
1.0
 40
1.0
 10
5.5263492119
 20
3.8297573402
 30
0.0
 10
5.5381201334
 20
3.8552692657
 30
0.0
 10
5.5587152805
 20
3.9049023059
 30
0.0
 10
5.5814236062
 20
3.9793894146
 30
0.0
 10
5.5948742776
 20
4.051365293
 30
0.0
 10
5.5993429389
 20
4.1223193958
 30
0.0
 10
5.59486407
 20
4.1932666087
 30
0.0
 10
5.5814098731
 20
4.265216422
 30
0.0
 10
5.5587058105
 20
4.3396768491
 30
0.0
 10
5.5381181677
 20
4.389290913
 30
0.0
 10
5.5263492119
 20
4.414798578
 30
0.0
 11
5.5263492119
 21
3.8297573402
 31
0.0
 11
5.5583406501
 21
3.9077398018
 31
0.0
 11
5.5804327336
 21
3.9811559046
 31
0.0
 11
5.5935185843
 21
4.0522117555
 31
0.0
 11
5.5978657104
 21
4.122322255
 31
0.0
 11
5.5935088103
 21
4.1924231899
 31
0.0
 11
5.5804182696
 21
4.2634594394
 31
0.0
 11
5.5583359195
 21
4.3368293905
 31
0.0
 11
5.5263492119
 21
4.414798578
 31
0.0
  0
SPLINE
  5
410
100
AcDbEntity
  8
0
100
AcDbSpline
 62
7
  6
CONTINUOUS
 70
0
 71
3
 72
11
 73
7
 74
5
 42
0.0000001
 43
0.0000001
 44
0.0000000001
 12
-0.0711410704
 22
0.1335315227
 32
0.0
 13
-0.0013380961
 23
0.1512941802
 33
0.0
 40
0.0
 40
0.0
 40
0.0
 40
0.0
 40
0.2695283454
 40
0.5216546424
 40
0.7633297794
 40
1.0
 40
1.0
 40
1.0
 40
1.0
 10
5.0696297561
 20
4.4631426496
 30
0.0
 10
5.0632382445
 20
4.4751394931
 30
0.0
 10
5.0517854102
 20
4.4988721809
 30
0.0
 10
5.0386668367
 20
4.5351507186
 30
0.0
 10
5.030464649
 20
4.571171381
 30
0.0
 10
5.0284547744
 20
4.5953131391
 30
0.0
 10
5.0283492119
 20
4.6072487481
 30
0.0
 11
5.0696297561
 21
4.4631426496
 31
0.0
 11
5.0520674587
 21
4.4999468176
 31
0.0
 11
5.0392541223
 21
4.5358771901
 31
0.0
 11
5.031266448
 21
4.5715595497
 31
0.0
 11
5.0283492119
 21
4.6072487481
 31
0.0
  0
SPLINE
  5
411
100
AcDbEntity
  8
0
100
AcDbSpline
 62
7
  6
CONTINUOUS
 70
0
 71
3
 72
8
 73
4
 74
2
 42
0.0000001
 43
0.0000001
 44
0.0000000001
 12
0.0000679903
 22
0.0076874439
 32
0.0
 13
0.0003118505
 23
0.0076856348
 33
0.0
 40
0.0
 40
0.0
 40
0.0
 40
0.0
 40
1.0
 40
1.0
 40
1.0
 40
1.0
 10
5.0283492119
 20
4.6115571701
 30
0.0
 10
5.0283718753
 20
4.6141196514
 30
0.0
 10
5.0284355089
 20
4.6166825464
 30
0.0
 10
5.0285394591
 20
4.6192444247
 30
0.0
 11
5.0283492119
 21
4.6115571701
 31
0.0
 11
5.0285394591
 21
4.6192444247
 31
0.0
  0
SPLINE
  5
412
100
AcDbEntity
  8
0
100
AcDbSpline
 62
7
  6
CONTINUOUS
 70
0
 71
3
 72
11
 73
7
 74
5
 42
0.0000001
 43
0.0000001
 44
0.0000000001
 12
0.0058255816
 22
0.143572935
 32
0.0
 13
0.0675263024
 23
0.1267466166
 33
0.0
 40
0.0
 40
0.0
 40
0.0
 40
0.0
 40
0.1958407151
 40
0.4504721699
 40
0.7160830362
 40
1.0
 40
1.0
 40
1.0
 40
1.0
 10
5.0285394591
 20
4.6192444247
 30
0.0
 10
5.0289197544
 20
4.6286169001
 30
0.0
 10
5.0310357052
 20
4.6501441364
 30
0.0
 10
5.0386685265
 20
4.6836609072
 30
0.0
 10
5.0517872536
 20
4.7199377152
 30
0.0
 10
5.0632391352
 20
4.7436680971
 30
0.0
 10
5.0696297561
 20
4.7556632686
 30
0.0
 11
5.0285394591
 21
4.6192444247
 31
0.0
 11
5.0312671594
 21
4.6472509879
 31
0.0
 11
5.0392562047
 21
4.6829358578
 31
0.0
 11
5.0520696567
 21
4.7188643489
 31
0.0
 11
5.0696297561
 21
4.7556632686
 31
0.0
  0
SPLINE
  5
413
100
AcDbEntity
  8
0
100
AcDbSpline
 62
7
  6
CONTINUOUS
 70
0
 71
3
 72
15
 73
11
 74
9
 42
0.0000001
 43
0.0000001
 44
0.0000000001
 12
0.2257490671
 22
0.2446407181
 32
0.0
 13
-0.2257490671
 23
0.2446407181
 33
0.0
 40
0.0
 40
0.0
 40
0.0
 40
0.0
 40
0.1515116105
 40
0.280214772
 40
0.393951807
 40
0.5000661469
 40
0.6061698475
 40
0.7198841272
 40
0.8485128173
 40
1.0
 40
1.0
 40
1.0
 40
1.0
 10
5.5263492119
 20
4.4631426496
 30
0.0
 10
5.5377504135
 20
4.4754979527
 30
0.0
 10
5.5577647865
 20
4.4994114136
 30
0.0
 10
5.5808379909
 20
4.5367628392
 30
0.0
 10
5.5947132408
 20
4.5731776547
 30
0.0
 10
5.5993898838
 20
4.6094241863
 30
0.0
 10
5.5947026739
 20
4.6456665763
 30
0.0
 10
5.5808244874
 20
4.6820670336
 30
0.0
 10
5.5577560639
 20
4.7194050844
 30
0.0
 10
5.5377485753
 20
4.7433099575
 30
0.0
 10
5.5263492119
 20
4.7556632686
 30
0.0
 11
5.5263492119
 21
4.4631426496
 31
0.0
 11
5.5583406501
 21
4.5021338805
 31
0.0
 11
5.5804327336
 21
4.5388419319
 31
0.0
 11
5.5935185843
 21
4.5743698573
 31
0.0
 11
5.5978657104
 21
4.6094251071
 31
0.0
 11
5.5935088103
 21
4.6444755745
 31
0.0
 11
5.5804182696
 21
4.6799936993
 31
0.0
 11
5.5583359195
 21
4.7166786748
 31
0.0
 11
5.5263492119
 21
4.7556632686
 31
0.0
  0
ENDSEC
  0
SECTION
  2
OBJECTS
  0
DICTIONARY
  5
C
100
AcDbDictionary
280
0
281
1
  3
ACAD_GROUP
350
D
  3
ACAD_MLINESTYLE
350
17
  3
ACAD_LAYOUT
350
1A
  3
ACAD_PLOTSETTINGS
350
19
  3
ACAD_PLOTSTYLENAME
350
E
  0
DICTIONARY
  5
D
102
{ACAD_REACTORS
330
C
102
}
100
AcDbDictionary
280
0
281
1
  0
ACDBDICTIONARYWDFLT
  5
E
102
{ACAD_REACTORS
330
C
102
}
100
AcDbDictionary
281
1
  3
Normal
350
F
100
AcDbDictionaryWithDefault
340
F
  0
DICTIONARY
  5
17
102
{ACAD_REACTORS
330
C
102
}
100
AcDbDictionary
280
0
281
1
  3
Standard
350
18
  0
DICTIONARY
  5
19
102
{ACAD_REACTORS
330
C
102
}
100
AcDbDictionary
281
1
  0
DICTIONARY
  5
1A
102
{ACAD_REACTORS
330
C
102
}
100
AcDbDictionary
281
1
  3
Layout1
350
1E
  3
Model
350
22
  0
ACDBPLACEHOLDER
  5
F
102
{ACAD_REACTORS
330
E
102
}
  0
MLINESTYLE
  5
18
102
{ACAD_REACTORS
330
17
102
}
100
AcDbMlineStyle
  2
STANDARD
 70
0
  3

 62
256
 51
90.0
 52
90.0
 71
2
 49
0.5
 62
256
  6
BYLAYER
 49
-0.5
 62
256
  6
BYLAYER
  0
LAYOUT
  5
1E
102
{ACAD_REACTORS
330
1A
102
}
100
AcDbPlotSettings
  1

  2

  4

  6

 40
0.0
 41
0.0
 42
0.0
 43
0.0
 44
0.0
 45
0.0
 46
0.0
 47
0.0
 48
0.0
 49
0.0
140
0.0
141
0.0
142
1.0
143
1.0
 70
0
 72
0
 73
0
 74
0
  7

 75
0
147
1.0
148
0.0
149
0.0
100
AcDbLayout
  1
Layout1
 70
0
 71
0
 10
0.0
 20
0.0
 11
0.0
 21
0.0
 12
0.0
 22
0.0
 32
0.0
 14
0.0
 24
0.0
 34
0.0
 15
0.0
 25
0.0
 35
0.0
146
0.0
 13
0.0
 23
0.0
 33
0.0
 16
0.0
 26
0.0
 36
0.0
 17
0.0
 27
0.0
 37
0.0
 76
0
330
1B
331
0
345
0
346
0
  0
LAYOUT
  5
22
102
{ACAD_REACTORS
330
1A
102
}
100
AcDbPlotSettings
  1

  2

  4

  6

 40
0.0
 41
0.0
 42
0.0
 43
0.0
 44
0.0
 45
0.0
 46
0.0
 47
0.0
 48
0.0
 49
0.0
140
0.0
141
0.0
142
1.0
143
1.0
 70
0
 72
0
 73
0
 74
0
  7

 75
0
147
1.0
148
0.0
149
0.0
100
AcDbLayout
  1
Model
 70
0
 71
0
 10
0.0
 20
0.0
 11
0.0
 21
0.0
 12
0.0
 22
0.0
 32
0.0
 14
0.0
 24
0.0
 34
0.0
 15
0.0
 25
0.0
 35
0.0
146
0.0
 13
0.0
 23
0.0
 33
0.0
 16
0.0
 26
0.0
 36
0.0
 17
0.0
 27
0.0
 37
0.0
 76
0
330
1F
331
0
345
0
346
0
  0
ENDSEC
  0
EOF
