999
DXF file: NFCD-LFN.dxf
999
Pro/ENGINEER 2006240 by Parametric Technology Corporation
  0
SECTION
  2
HEADER
  9
$ACADVER
  1
AC1015
  9
$DWGCODEPAGE
  3
ANSI_1252
  9
$EXTMAX
 10
11.6929133858
 20
8.2677165354
 30
0.0
  9
$EXTMIN
 10
0.0
 20
0.0
 30
0.0
  9
$LIMMIN
 10
0.0
 20
0.0
  9
$LIMMAX
 10
11.6929133858
 20
8.2677165354
  9
$VIEWCTR
 10
5.8464566929
 20
4.1338582677
  9
$VIEWSIZE
 40
8.2677165354
  9
$CLAYER
  8
0
  9
$LTSCALE
 40
0.6431102362
  9
$CELTYPE
  6
BYLAYER
  9
$DIMSCALE
 40
1.0
  9
$DIMASZ
 40
0.1875
  9
$DIMEXO
 40
0.0730807087
  9
$DIMDLI
 40
0.4443307087
  9
$DIMEXE
 40
0.2104724409
  9
$DIMCEN
 40
0.1052362205
  9
$DIMLFAC
 40
1.0
  9
$DIMBLK
  1
_CLOSED
  9
$DIMTXT
 40
0.15625
  9
$DIMTOL
 70
0
  9
$DIMLIM
 70
0
  9
$DIMTFAC
 40
1.0
  9
$PDMODE
 70
3
  9
$PDSIZE
 40
0.3125
  9
$HANDSEED
  5
40C
  9
$MEASUREMENT
 70
0
  9
$INSUNITS
 70
1
  0
ENDSEC
  0
SECTION
  2
CLASSES
  0
CLASS
  1
ACDBDICTIONARYWDFLT
  2
AcDbDictionaryWithDefault
  3
AutoCAD 2000
 90
0
280
0
281
0
  0
CLASS
  1
ACDBPLACEHOLDER
  2
AcDbPlaceHolder
  3
AutoCAD 2000
 90
0
280
0
281
0
  0
CLASS
  1
LAYOUT
  2
AcDbLayout
  3
AutoCAD 2000
 90
0
280
0
281
0
  0
ENDSEC
  0
SECTION
  2
TABLES
  0
TABLE
  2
VPORT
  5
8
100
AcDbSymbolTable
 70
2
  0
VPORT
  5
1F4
100
AcDbSymbolTableRecord
100
AcDbViewportTableRecord
  2
*ACTIVE
 70
0
 10
0.0
 20
0.0
 11
1.0
 21
1.0
 12
5.8464566929
 22
4.1338582677
 13
0.0
 23
0.0
 14
1.0
 24
1.0
 15
0.0
 25
0.0
 16
0.0
 26
0.0
 36
1.0
 17
0.0
 27
0.0
 37
0.0
 40
8.2677165354
 41
1.4142857143
 42
50.0
 43
0.0
 44
0.0
 50
0.0
 51
0.0
 71
0
 72
100
 73
1
 74
1
 75
0
 76
0
 77
0
 78
0
  0
ENDTAB
  0
TABLE
  2
LTYPE
  5
5
100
AcDbSymbolTable
 70
6
  0
LTYPE
  5
14
100
AcDbSymbolTableRecord
100
AcDbLinetypeTableRecord
  2
BYBLOCK
 70
0
  3

 72
65
 73
0
 40
0.0
  0
LTYPE
  5
15
100
AcDbSymbolTableRecord
100
AcDbLinetypeTableRecord
  2
BYLAYER
 70
0
  3

 72
65
 73
0
 40
0.0
  0
LTYPE
  5
16
100
AcDbSymbolTableRecord
100
AcDbLinetypeTableRecord
  2
CONTINUOUS
 70
64
  3
Solid line
 72
65
 73
0
 40
0.0
  0
LTYPE
  5
1F5
100
AcDbSymbolTableRecord
100
AcDbLinetypeTableRecord
  2
CENTER
 70
64
  3
____ _ ____ _ ____ _ ____ _ ____ _ ____ _ ____
 72
65
 73
4
 40
0.6
 49
0.375
 74
0
 49
-0.075
 74
0
 49
0.075
 74
0
 49
-0.075
 74
0
  0
LTYPE
  5
1F6
100
AcDbSymbolTableRecord
100
AcDbLinetypeTableRecord
  2
HIDDEN
 70
64
  3
- - - - - - - - - - - - - - - - - - - -
 72
65
 73
2
 40
0.2
 49
0.1
 74
0
 49
-0.1
 74
0
  0
LTYPE
  5
1F7
100
AcDbSymbolTableRecord
100
AcDbLinetypeTableRecord
  2
PHANTOM
 70
64
  3
_____ _ _ _____ _ _ _____ _ _ _____
 72
65
 73
6
 40
0.8
 49
0.45
 74
0
 49
-0.05
 74
0
 49
0.1
 74
0
 49
-0.05
 74
0
 49
0.1
 74
0
 49
-0.05
 74
0
  0
LTYPE
  5
1F8
100
AcDbSymbolTableRecord
100
AcDbLinetypeTableRecord
  2
DOT
 70
64
  3
. . . . . . . . . . . . . . . . . . . .
 72
65
 73
2
 40
0.2
 49
0.1
 74
0
 49
-0.1
 74
0
  0
LTYPE
  5
1F9
100
AcDbSymbolTableRecord
100
AcDbLinetypeTableRecord
  2
DASHED
 70
64
  3
- - - - - - - - - - - - - - - - - - - -
 72
65
 73
2
 40
0.2
 49
0.1
 74
0
 49
-0.1
 74
0
  0
ENDTAB
  0
TABLE
  2
LAYER
  5
2
100
AcDbSymbolTable
 70
36
  0
LAYER
  5
10
100
AcDbSymbolTableRecord
100
AcDbLayerTableRecord
  2
0
 70
0
 62
7
  6
CONTINUOUS
370
-3
390
F
  0
LAYER
  5
1FA
100
AcDbSymbolTableRecord
100
AcDbLayerTableRecord
  2
DEFAULT_1
 70
0
 62
7
  6
CENTER
370
-3
390
F
  0
LAYER
  5
1FB
100
AcDbSymbolTableRecord
100
AcDbLayerTableRecord
  2
DEFAULT_2
 70
0
 62
8
  6
HIDDEN
370
-3
390
F
  0
LAYER
  5
1FC
100
AcDbSymbolTableRecord
100
AcDbLayerTableRecord
  2
DEFAULT_3
 70
0
 62
7
  6
PHANTOM
370
-3
390
F
  0
LAYER
  5
1FD
100
AcDbSymbolTableRecord
100
AcDbLayerTableRecord
  2
_BLACK_HOLE
 70
0
 62
7
  6
CONTINUOUS
370
-3
390
F
  0
LAYER
  5
1FE
100
AcDbSymbolTableRecord
100
AcDbLayerTableRecord
  2
01_ALL_DTM_PLN
 70
0
 62
7
  6
CONTINUOUS
370
-3
390
F
  0
LAYER
  5
1FF
100
AcDbSymbolTableRecord
100
AcDbLayerTableRecord
  2
01__ASM_ALL_DTM_PLN
 70
0
 62
7
  6
CONTINUOUS
370
-3
390
F
  0
LAYER
  5
200
100
AcDbSymbolTableRecord
100
AcDbLayerTableRecord
  2
01__ASM_DEF_DTM_PLN
 70
0
 62
7
  6
CONTINUOUS
370
-3
390
F
  0
LAYER
  5
201
100
AcDbSymbolTableRecord
100
AcDbLayerTableRecord
  2
01___PRT_ALL_DTM_PLN
 70
0
 62
7
  6
CONTINUOUS
370
-3
390
F
  0
LAYER
  5
202
100
AcDbSymbolTableRecord
100
AcDbLayerTableRecord
  2
01___PRT_DEF_DTM_PLN
 70
0
 62
7
  6
CONTINUOUS
370
-3
390
F
  0
LAYER
  5
203
100
AcDbSymbolTableRecord
100
AcDbLayerTableRecord
  2
02_ALL_AXES
 70
0
 62
7
  6
CONTINUOUS
370
-3
390
F
  0
LAYER
  5
204
100
AcDbSymbolTableRecord
100
AcDbLayerTableRecord
  2
02__ASM_ALL_AXES
 70
0
 62
7
  6
CONTINUOUS
370
-3
390
F
  0
LAYER
  5
205
100
AcDbSymbolTableRecord
100
AcDbLayerTableRecord
  2
02___PRT_ALL_AXES
 70
0
 62
7
  6
CONTINUOUS
370
-3
390
F
  0
LAYER
  5
206
100
AcDbSymbolTableRecord
100
AcDbLayerTableRecord
  2
03_ALL_CURVES
 70
0
 62
7
  6
CONTINUOUS
370
-3
390
F
  0
LAYER
  5
207
100
AcDbSymbolTableRecord
100
AcDbLayerTableRecord
  2
03__ASM_ALL_CURVES
 70
0
 62
7
  6
CONTINUOUS
370
-3
390
F
  0
LAYER
  5
208
100
AcDbSymbolTableRecord
100
AcDbLayerTableRecord
  2
03___PRT_ALL_CURVES
 70
0
 62
7
  6
CONTINUOUS
370
-3
390
F
  0
LAYER
  5
209
100
AcDbSymbolTableRecord
100
AcDbLayerTableRecord
  2
04_ALL_DTM_PNT
 70
0
 62
7
  6
CONTINUOUS
370
-3
390
F
  0
LAYER
  5
20A
100
AcDbSymbolTableRecord
100
AcDbLayerTableRecord
  2
04__ASM_ALL_DTM_PNT
 70
0
 62
7
  6
CONTINUOUS
370
-3
390
F
  0
LAYER
  5
20B
100
AcDbSymbolTableRecord
100
AcDbLayerTableRecord
  2
04___PRT_ALL_DTM_PNT
 70
0
 62
7
  6
CONTINUOUS
370
-3
390
F
  0
LAYER
  5
20C
100
AcDbSymbolTableRecord
100
AcDbLayerTableRecord
  2
05_ALL_DTM_CSYS
 70
0
 62
7
  6
CONTINUOUS
370
-3
390
F
  0
LAYER
  5
20D
100
AcDbSymbolTableRecord
100
AcDbLayerTableRecord
  2
05__ASM_ALL_DTM_CSYS
 70
0
 62
7
  6
CONTINUOUS
370
-3
390
F
  0
LAYER
  5
20E
100
AcDbSymbolTableRecord
100
AcDbLayerTableRecord
  2
05__ASM_DEF_DTM_CSYS
 70
0
 62
7
  6
CONTINUOUS
370
-3
390
F
  0
LAYER
  5
20F
100
AcDbSymbolTableRecord
100
AcDbLayerTableRecord
  2
05___PRT_ALL_DTM_CSYS
 70
0
 62
7
  6
CONTINUOUS
370
-3
390
F
  0
LAYER
  5
210
100
AcDbSymbolTableRecord
100
AcDbLayerTableRecord
  2
05___PRT_DEF_DTM_CSYS
 70
0
 62
7
  6
CONTINUOUS
370
-3
390
F
  0
LAYER
  5
211
100
AcDbSymbolTableRecord
100
AcDbLayerTableRecord
  2
06_ALL_SURFS
 70
0
 62
7
  6
CONTINUOUS
370
-3
390
F
  0
LAYER
  5
212
100
AcDbSymbolTableRecord
100
AcDbLayerTableRecord
  2
06__ASM_ALL_SURFS
 70
0
 62
7
  6
CONTINUOUS
370
-3
390
F
  0
LAYER
  5
213
100
AcDbSymbolTableRecord
100
AcDbLayerTableRecord
  2
06___PRT_ALL_SURFS
 70
0
 62
7
  6
CONTINUOUS
370
-3
390
F
  0
LAYER
  5
214
100
AcDbSymbolTableRecord
100
AcDbLayerTableRecord
  2
07__ASM_ALL_SKELETONS
 70
0
 62
7
  6
CONTINUOUS
370
-3
390
F
  0
LAYER
  5
215
100
AcDbSymbolTableRecord
100
AcDbLayerTableRecord
  2
125-147_FEATURES
 70
0
 62
7
  6
CONTINUOUS
370
-3
390
F
  0
LAYER
  5
216
100
AcDbSymbolTableRecord
100
AcDbLayerTableRecord
  2
125-147_REF_GEOMETRY
 70
0
 62
7
  6
CONTINUOUS
370
-3
390
F
  0
LAYER
  5
217
100
AcDbSymbolTableRecord
100
AcDbLayerTableRecord
  2
125-152_FEATURES
 70
0
 62
7
  6
CONTINUOUS
370
-3
390
F
  0
LAYER
  5
218
100
AcDbSymbolTableRecord
100
AcDbLayerTableRecord
  2
125-152_REF_GEOMETRY
 70
0
 62
7
  6
CONTINUOUS
370
-3
390
F
  0
LAYER
  5
219
100
AcDbSymbolTableRecord
100
AcDbLayerTableRecord
  2
125-168_FEATURES
 70
0
 62
7
  6
CONTINUOUS
370
-3
390
F
  0
LAYER
  5
21A
100
AcDbSymbolTableRecord
100
AcDbLayerTableRecord
  2
125-168_REF_GEOMETRY
 70
0
 62
7
  6
CONTINUOUS
370
-3
390
F
  0
LAYER
  5
21B
100
AcDbSymbolTableRecord
100
AcDbLayerTableRecord
  2
125-199_FEATURES
 70
0
 62
7
  6
CONTINUOUS
370
-3
390
F
  0
LAYER
  5
21C
100
AcDbSymbolTableRecord
100
AcDbLayerTableRecord
  2
125-199_REF_GEOMETRY
 70
0
 62
7
  6
CONTINUOUS
370
-3
390
F
  0
LAYER
  5
21D
100
AcDbSymbolTableRecord
100
AcDbLayerTableRecord
  2
COPY_GEO_FET
 70
0
 62
7
  6
CONTINUOUS
370
-3
390
F
  0
LAYER
  5
21E
100
AcDbSymbolTableRecord
100
AcDbLayerTableRecord
  2
COSMETIC
 70
0
 62
7
  6
CONTINUOUS
370
-3
390
F
  0
LAYER
  5
21F
100
AcDbSymbolTableRecord
100
AcDbLayerTableRecord
  2
CURVES
 70
0
 62
7
  6
CONTINUOUS
370
-3
390
F
  0
LAYER
  5
220
100
AcDbSymbolTableRecord
100
AcDbLayerTableRecord
  2
CUT_REF_SURF
 70
0
 62
7
  6
CONTINUOUS
370
-3
390
F
  0
LAYER
  5
221
100
AcDbSymbolTableRecord
100
AcDbLayerTableRecord
  2
DATUM
 70
0
 62
7
  6
CONTINUOUS
370
-3
390
F
  0
LAYER
  5
222
100
AcDbSymbolTableRecord
100
AcDbLayerTableRecord
  2
DATUMCURVES
 70
0
 62
7
  6
CONTINUOUS
370
-3
390
F
  0
LAYER
  5
223
100
AcDbSymbolTableRecord
100
AcDbLayerTableRecord
  2
DATUM_PLANES
 70
0
 62
7
  6
CONTINUOUS
370
-3
390
F
  0
LAYER
  5
224
100
AcDbSymbolTableRecord
100
AcDbLayerTableRecord
  2
DIMENSIONS
 70
0
 62
7
  6
CONTINUOUS
370
-3
390
F
  0
LAYER
  5
225
100
AcDbSymbolTableRecord
100
AcDbLayerTableRecord
  2
DMT
 70
0
 62
7
  6
CONTINUOUS
370
-3
390
F
  0
LAYER
  5
226
100
AcDbSymbolTableRecord
100
AcDbLayerTableRecord
  2
DP_SERATION
 70
0
 62
7
  6
CONTINUOUS
370
-3
390
F
  0
LAYER
  5
227
100
AcDbSymbolTableRecord
100
AcDbLayerTableRecord
  2
DRAWINGNOTES
 70
0
 62
7
  6
CONTINUOUS
370
-3
390
F
  0
LAYER
  5
228
100
AcDbSymbolTableRecord
100
AcDbLayerTableRecord
  2
DTM
 70
0
 62
7
  6
CONTINUOUS
370
-3
390
F
  0
LAYER
  5
229
100
AcDbSymbolTableRecord
100
AcDbLayerTableRecord
  2
DTM230
 70
0
 62
7
  6
CONTINUOUS
370
-3
390
F
  0
LAYER
  5
22A
100
AcDbSymbolTableRecord
100
AcDbLayerTableRecord
  2
DTM_500001
 70
0
 62
7
  6
CONTINUOUS
370
-3
390
F
  0
LAYER
  5
22B
100
AcDbSymbolTableRecord
100
AcDbLayerTableRecord
  2
DTM_500002
 70
0
 62
7
  6
CONTINUOUS
370
-3
390
F
  0
LAYER
  5
22C
100
AcDbSymbolTableRecord
100
AcDbLayerTableRecord
  2
DTM_515002
 70
0
 62
7
  6
CONTINUOUS
370
-3
390
F
  0
LAYER
  5
22D
100
AcDbSymbolTableRecord
100
AcDbLayerTableRecord
  2
DTM_530002
 70
0
 62
7
  6
CONTINUOUS
370
-3
390
F
  0
LAYER
  5
22E
100
AcDbSymbolTableRecord
100
AcDbLayerTableRecord
  2
GEOMETRICTOLERANCES
 70
0
 62
7
  6
CONTINUOUS
370
-3
390
F
  0
LAYER
  5
22F
100
AcDbSymbolTableRecord
100
AcDbLayerTableRecord
  2
LAY0001
 70
0
 62
7
  6
CONTINUOUS
370
-3
390
F
  0
LAYER
  5
230
100
AcDbSymbolTableRecord
100
AcDbLayerTableRecord
  2
PARAMETERDIMENSIONS
 70
0
 62
7
  6
CONTINUOUS
370
-3
390
F
  0
LAYER
  5
231
100
AcDbSymbolTableRecord
100
AcDbLayerTableRecord
  2
PLANE
 70
0
 62
7
  6
CONTINUOUS
370
-3
390
F
  0
LAYER
  5
232
100
AcDbSymbolTableRecord
100
AcDbLayerTableRecord
  2
TEXT
 70
0
 62
7
  6
CONTINUOUS
370
-3
390
F
  0
LAYER
  5
233
100
AcDbSymbolTableRecord
100
AcDbLayerTableRecord
  2
THREAD
 70
0
 62
7
  6
CONTINUOUS
370
-3
390
F
  0
LAYER
  5
234
100
AcDbSymbolTableRecord
100
AcDbLayerTableRecord
  2
XSEC_DATUMS
 70
0
 62
7
  6
CONTINUOUS
370
-3
390
F
  0
ENDTAB
  0
TABLE
  2
STYLE
  5
3
100
AcDbSymbolTable
 70
1
  0
STYLE
  5
11
100
AcDbSymbolTableRecord
100
AcDbTextStyleTableRecord
  2
STANDARD
 70
0
 40
0.0
 41
0.8
 50
0.0
 71
0
 42
0.2
  3
txt
  4

  0
ENDTAB
  0
TABLE
  2
VIEW
  5
6
100
AcDbSymbolTable
 70
0
  0
ENDTAB
  0
TABLE
  2
UCS
  5
7
100
AcDbSymbolTable
 70
0
  0
ENDTAB
  0
TABLE
  2
APPID
  5
9
100
AcDbSymbolTable
 70
1
  0
APPID
  5
235
100
AcDbSymbolTableRecord
100
AcDbRegAppTableRecord
  2
ACAD
 70
0
  0
ENDTAB
  0
TABLE
  2
BLOCK_RECORD
  5
1
100
AcDbSymbolTable
 70
0
  0
BLOCK_RECORD
  5
1F
100
AcDbSymbolTableRecord
100
AcDbBlockTableRecord
  2
*MODEL_SPACE
  0
BLOCK_RECORD
  5
1B
100
AcDbSymbolTableRecord
100
AcDbBlockTableRecord
  2
*PAPER_SPACE
  0
ENDTAB
  0
TABLE
  2
DIMSTYLE
  5
A
100
AcDbSymbolTable
 70
1
100
AcDbDimStyleTable
 71
0
  0
DIMSTYLE
105
236
100
AcDbSymbolTableRecord
100
AcDbDimStyleTableRecord
  2
STANDARD
 70
0
  3

  4

 40
1.0
 41
0.1875
 42
0.0625
 43
0.38
 44
0.18
 45
0.0
 46
0.0
 47
0.01
 48
0.01
140
0.15625
141
0.09
142
0.0
143
25.4
144
1.0
145
0.0
146
1.0
147
0.09
 71
0.0
 72
0.0
 73
1
 74
1
 75
0
 76
0
 77
0
 78
4
170
0
171
2
172
0
173
0
174
0
175
0
176
0
177
0
178
0
270
2
271
2
272
2
273
2
274
2
275
0
280
0
281
0
282
0
283
1
284
4
285
0
286
0
287
3
288
0
340
11
  0
ENDTAB
  0
ENDSEC
  0
SECTION
  2
BLOCKS
  0
BLOCK
  5
20
100
AcDbEntity
  8
0
100
AcDbBlockBegin
  2
*MODEL_SPACE
 70
0
 10
0.0
 20
0.0
 30
0.0
  3
*MODEL_SPACE
  1

  0
ENDBLK
  5
21
100
AcDbEntity
  8
0
100
AcDbBlockEnd
  0
BLOCK
  5
1C
100
AcDbEntity
  8
0
100
AcDbBlockBegin
  2
*PAPER_SPACE
 70
0
 10
0.0
 20
0.0
 30
0.0
  3
*PAPER_SPACE
  1

  0
ENDBLK
  5
1D
100
AcDbEntity
  8
0
100
AcDbBlockEnd
  0
ENDSEC
  0
SECTION
  2
ENTITIES
  0
LINE
  5
237
100
AcDbEntity
  8
0
100
AcDbLine
 62
7
  6
CONTINUOUS
 10
3.8685023243
 20
4.2303531826
 11
3.8685023243
 21
3.9243531826
  0
LINE
  5
238
100
AcDbEntity
  8
03__ASM_ALL_CURVES
100
AcDbLine
 62
40
  6
CONTINUOUS
 10
3.8685023243
 20
4.2303531826
 11
3.8685023243
 21
5.0411991826
  0
LINE
  5
239
100
AcDbEntity
  8
0
100
AcDbLine
 62
7
  6
CONTINUOUS
 10
3.8995023243
 20
4.2613531826
 11
3.8995023243
 21
3.8933531826
  0
LINE
  5
23A
100
AcDbEntity
  8
03__ASM_ALL_CURVES
100
AcDbLine
 62
40
  6
CONTINUOUS
 10
3.9396323243
 20
5.0293441826
 11
3.9396323243
 21
5.0056341826
  0
LINE
  5
23B
100
AcDbEntity
  8
0
100
AcDbLine
 62
7
  6
CONTINUOUS
 10
4.2165023243
 20
3.8297019975
 11
4.2165023243
 21
4.3250043677
  0
LINE
  5
23C
100
AcDbEntity
  8
0
100
AcDbLine
 62
7
  6
CONTINUOUS
 10
4.2785023243
 20
3.8063531826
 11
4.2785023243
 21
4.3483531826
  0
LINE
  5
23D
100
AcDbEntity
  8
0
100
AcDbLine
 62
7
  6
CONTINUOUS
 10
3.8685023243
 20
3.9243531826
 11
3.8995023243
 21
3.8933531826
  0
LINE
  5
23E
100
AcDbEntity
  8
0
100
AcDbLine
 62
7
  6
CONTINUOUS
 10
4.2845023243
 20
3.8063531826
 11
4.2845023243
 21
4.3483531826
  0
LINE
  5
23F
100
AcDbEntity
  8
0
100
AcDbLine
 62
7
  6
CONTINUOUS
 10
4.2900023243
 20
3.8118531826
 11
4.2900023243
 21
4.3428531826
  0
LINE
  5
240
100
AcDbEntity
  8
0
100
AcDbLine
 62
7
  6
CONTINUOUS
 10
4.3060023243
 20
3.8118531826
 11
4.3060023243
 21
4.3428531826
  0
LINE
  5
241
100
AcDbEntity
  8
03__ASM_ALL_CURVES
100
AcDbLine
 62
40
  6
CONTINUOUS
 10
4.5681998243
 20
5.1004741812
 11
4.5726454493
 21
5.106401684
  0
LINE
  5
242
100
AcDbEntity
  8
03__ASM_ALL_CURVES
100
AcDbLine
 62
40
  6
CONTINUOUS
 10
4.5815366993
 20
5.0708366819
 11
4.5726454493
 21
5.0589816826
  0
LINE
  5
243
100
AcDbEntity
  8
03__ASM_ALL_CURVES
100
AcDbLine
 62
40
  6
CONTINUOUS
 10
4.6037648243
 20
5.088619184
 11
4.5993191993
 21
5.0826916812
  0
LINE
  5
244
100
AcDbEntity
  8
0
100
AcDbLine
 62
7
  6
CONTINUOUS
 10
4.3215031099
 20
3.796352397
 11
4.3060023243
 21
3.8118531826
  0
LINE
  5
245
100
AcDbEntity
  8
0
100
AcDbLine
 62
7
  6
CONTINUOUS
 10
4.4975023243
 20
3.8063531826
 11
4.4975023243
 21
4.3483531826
  0
LINE
  5
246
100
AcDbEntity
  8
0
100
AcDbLine
 62
7
  6
CONTINUOUS
 10
4.5285023243
 20
3.7658586272
 11
4.5285023243
 21
4.388847738
  0
LINE
  5
247
100
AcDbEntity
  8
03__ASM_ALL_CURVES
100
AcDbLine
 62
40
  6
CONTINUOUS
 10
4.5726454493
 20
5.0589816826
 11
4.5681998243
 21
5.0411991826
  0
LINE
  5
248
100
AcDbEntity
  8
03__ASM_ALL_CURVES
100
AcDbLine
 62
40
  6
CONTINUOUS
 10
4.7104598243
 20
5.088619184
 11
4.7149054493
 21
5.1004741812
  0
LINE
  5
249
100
AcDbEntity
  8
03__ASM_ALL_CURVES
100
AcDbLine
 62
40
  6
CONTINUOUS
 10
4.7460248243
 20
5.0649091833
 11
4.7415791993
 21
5.0530541829
  0
LINE
  5
24A
100
AcDbEntity
  8
03__ASM_ALL_CURVES
100
AcDbLine
 62
40
  6
CONTINUOUS
 10
4.7149054493
 20
5.1004741812
 11
4.7193510743
 21
5.106401684
  0
LINE
  5
24B
100
AcDbEntity
  8
03__ASM_ALL_CURVES
100
AcDbLine
 62
40
  6
CONTINUOUS
 10
4.7415791993
 20
5.0530541829
 11
4.7371335743
 21
5.0471266828
  0
LINE
  5
24C
100
AcDbEntity
  8
03__ASM_ALL_CURVES
100
AcDbLine
 62
40
  6
CONTINUOUS
 10
4.8038179493
 20
5.1123291826
 11
4.7949266993
 21
5.1004741812
  0
LINE
  5
24D
100
AcDbEntity
  8
0
100
AcDbLine
 62
7
  6
CONTINUOUS
 10
3.8685023243
 20
4.2303531826
 11
3.8995023243
 21
4.2613531826
  0
LINE
  5
24E
100
AcDbEntity
  8
03__ASM_ALL_CURVES
100
AcDbLine
 62
40
  6
CONTINUOUS
 10
4.5726454493
 20
5.106401684
 11
4.5815366993
 21
5.1123291826
  0
LINE
  5
24F
100
AcDbEntity
  8
03__ASM_ALL_CURVES
100
AcDbLine
 62
40
  6
CONTINUOUS
 10
4.5993191993
 20
5.0826916812
 11
4.5815366993
 21
5.0708366819
  0
LINE
  5
250
100
AcDbEntity
  8
03__ASM_ALL_CURVES
100
AcDbLine
 62
40
  6
CONTINUOUS
 10
4.7193510743
 20
5.106401684
 11
4.7282423243
 21
5.1123291826
  0
LINE
  5
251
100
AcDbEntity
  8
0
100
AcDbLine
 62
7
  6
CONTINUOUS
 10
4.5285023243
 20
3.7658531826
 11
4.5905023243
 21
3.7038531826
  0
LINE
  5
252
100
AcDbEntity
  8
0
100
AcDbLine
 62
7
  6
CONTINUOUS
 10
4.5905023243
 20
3.7038531826
 11
4.5905023243
 21
4.4508531826
  0
LINE
  5
253
100
AcDbEntity
  8
03__ASM_ALL_CURVES
100
AcDbLine
 62
40
  6
CONTINUOUS
 10
4.6037648243
 20
5.1004741812
 11
4.6037648243
 21
5.088619184
  0
LINE
  5
254
100
AcDbEntity
  8
03__ASM_ALL_CURVES
100
AcDbLine
 62
40
  6
CONTINUOUS
 10
4.6526666993
 20
5.0411991826
 11
4.6526666993
 21
5.0471266828
  0
LINE
  5
255
100
AcDbEntity
  8
03__ASM_ALL_CURVES
100
AcDbLine
 62
40
  6
CONTINUOUS
 10
4.7949266993
 20
5.1004741812
 11
4.7904810743
 21
5.0826916812
  0
LINE
  5
256
100
AcDbEntity
  8
03__ASM_ALL_CURVES
100
AcDbLine
 62
40
  6
CONTINUOUS
 10
4.8927304493
 20
5.0649091833
 11
4.8882848243
 21
5.0530541829
  0
LINE
  5
257
100
AcDbEntity
  8
03__ASM_ALL_CURVES
100
AcDbLine
 62
40
  6
CONTINUOUS
 10
4.9238498243
 20
5.088619184
 11
4.9282954493
 21
5.1004741812
  0
LINE
  5
258
100
AcDbEntity
  8
03__ASM_ALL_CURVES
100
AcDbLine
 62
40
  6
CONTINUOUS
 10
4.8882848243
 20
5.0530541829
 11
4.8838391993
 21
5.0471266828
  0
LINE
  5
259
100
AcDbEntity
  8
03__ASM_ALL_CURVES
100
AcDbLine
 62
40
  6
CONTINUOUS
 10
4.9282954493
 20
5.1004741812
 11
4.9327410743
 21
5.106401684
  0
LINE
  5
25A
100
AcDbEntity
  8
03__ASM_ALL_CURVES
100
AcDbLine
 62
40
  6
CONTINUOUS
 10
4.9549691993
 20
5.0530541829
 11
4.9505235743
 21
5.0471266828
  0
LINE
  5
25B
100
AcDbEntity
  8
03__ASM_ALL_CURVES
100
AcDbLine
 62
40
  6
CONTINUOUS
 10
4.7371335743
 20
5.0471266828
 11
4.7282423243
 21
5.0411991826
  0
LINE
  5
25C
100
AcDbEntity
  8
03__ASM_ALL_CURVES
100
AcDbLine
 62
40
  6
CONTINUOUS
 10
4.8571654493
 20
5.0826916812
 11
4.8660566993
 21
5.088619184
  0
LINE
  5
25D
100
AcDbEntity
  8
03__ASM_ALL_CURVES
100
AcDbLine
 62
40
  6
CONTINUOUS
 10
4.9327410743
 20
5.106401684
 11
4.9416323243
 21
5.1123291826
  0
LINE
  5
25E
100
AcDbEntity
  8
03__ASM_ALL_CURVES
100
AcDbLine
 62
40
  6
CONTINUOUS
 10
4.8838391993
 20
5.0471266828
 11
4.8749479493
 21
5.0411991826
  0
LINE
  5
25F
100
AcDbEntity
  8
03__ASM_ALL_CURVES
100
AcDbLine
 62
40
  6
CONTINUOUS
 10
4.9505235743
 20
5.0471266828
 11
4.9416323243
 21
5.0411991826
  0
LINE
  5
260
100
AcDbEntity
  8
03__ASM_ALL_CURVES
100
AcDbLine
 62
40
  6
CONTINUOUS
 10
4.7104598243
 20
5.0649091833
 11
4.7104598243
 21
5.088619184
  0
LINE
  5
261
100
AcDbEntity
  8
03__ASM_ALL_CURVES
100
AcDbLine
 62
40
  6
CONTINUOUS
 10
4.7460248243
 20
5.088619184
 11
4.7460248243
 21
5.0649091833
  0
LINE
  5
262
100
AcDbEntity
  8
03__ASM_ALL_CURVES
100
AcDbLine
 62
40
  6
CONTINUOUS
 10
4.7904810743
 20
5.0826916812
 11
4.7904810743
 21
5.0708366819
  0
LINE
  5
263
100
AcDbEntity
  8
03__ASM_ALL_CURVES
100
AcDbLine
 62
40
  6
CONTINUOUS
 10
4.8616110743
 20
5.1123291826
 11
4.8571654493
 21
5.0826916812
  0
LINE
  5
264
100
AcDbEntity
  8
03__ASM_ALL_CURVES
100
AcDbLine
 62
40
  6
CONTINUOUS
 10
4.9594148243
 20
5.0649091833
 11
4.9549691993
 21
5.0530541829
  0
LINE
  5
265
100
AcDbEntity
  8
03__ASM_ALL_CURVES
100
AcDbLine
 62
40
  6
CONTINUOUS
 10
5.0661098243
 20
5.1004741812
 11
5.0705554493
 21
5.106401684
  0
LINE
  5
266
100
AcDbEntity
  8
03__ASM_ALL_CURVES
100
AcDbLine
 62
40
  6
CONTINUOUS
 10
5.0616641993
 20
5.0649091833
 11
5.0705554493
 21
5.0767641826
  0
LINE
  5
267
100
AcDbEntity
  8
03__ASM_ALL_CURVES
100
AcDbLine
 62
40
  6
CONTINUOUS
 10
5.1016748243
 20
5.0945466826
 11
5.0972291993
 21
5.088619184
  0
LINE
  5
268
100
AcDbEntity
  8
03__ASM_ALL_CURVES
100
AcDbLine
 62
40
  6
CONTINUOUS
 10
5.1061204493
 20
5.0589816826
 11
5.0972291993
 21
5.0471266828
  0
LINE
  5
269
100
AcDbEntity
  8
03__ASM_ALL_CURVES
100
AcDbLine
 62
40
  6
CONTINUOUS
 10
5.1594679493
 20
5.0530541829
 11
5.1505766993
 21
5.0411991826
  0
LINE
  5
26A
100
AcDbEntity
  8
0
100
AcDbLine
 62
7
  6
CONTINUOUS
 10
4.3215031099
 20
4.3583539682
 11
4.3060023243
 21
4.3428531826
  0
LINE
  5
26B
100
AcDbEntity
  8
0
100
AcDbLine
 62
7
  6
CONTINUOUS
 10
4.5285023243
 20
4.3888531826
 11
4.5905023243
 21
4.4508531826
  0
LINE
  5
26C
100
AcDbEntity
  8
03__ASM_ALL_CURVES
100
AcDbLine
 62
40
  6
CONTINUOUS
 10
5.0705554493
 20
5.106401684
 11
5.0794466993
 21
5.1123291826
  0
LINE
  5
26D
100
AcDbEntity
  8
03__ASM_ALL_CURVES
100
AcDbLine
 62
40
  6
CONTINUOUS
 10
5.0705554493
 20
5.0767641826
 11
5.0794466993
 21
5.0826916812
  0
LINE
  5
26E
100
AcDbEntity
  8
03__ASM_ALL_CURVES
100
AcDbLine
 62
40
  6
CONTINUOUS
 10
5.0972291993
 20
5.088619184
 11
5.0883379493
 21
5.0826916812
  0
LINE
  5
26F
100
AcDbEntity
  8
03__ASM_ALL_CURVES
100
AcDbLine
 62
40
  6
CONTINUOUS
 10
5.0972291993
 20
5.0471266828
 11
5.0883379493
 21
5.0411991826
  0
LINE
  5
270
100
AcDbEntity
  8
0
100
AcDbLine
 62
7
  6
CONTINUOUS
 10
4.2900023243
 20
4.3428531826
 11
4.2845023243
 21
4.3483531826
  0
LINE
  5
271
100
AcDbEntity
  8
0
100
AcDbLine
 62
7
  6
CONTINUOUS
 10
4.4975023243
 20
4.3483531826
 11
4.4914075522
 21
4.3589096376
  0
LINE
  5
272
100
AcDbEntity
  8
03__ASM_ALL_CURVES
100
AcDbLine
 62
40
  6
CONTINUOUS
 10
4.9238498243
 20
5.0649091833
 11
4.9238498243
 21
5.088619184
  0
LINE
  5
273
100
AcDbEntity
  8
03__ASM_ALL_CURVES
100
AcDbLine
 62
40
  6
CONTINUOUS
 10
4.9594148243
 20
5.088619184
 11
4.9594148243
 21
5.0649091833
  0
LINE
  5
274
100
AcDbEntity
  8
0
100
AcDbLine
 62
7
  6
CONTINUOUS
 10
4.4975023243
 20
3.8063531826
 11
4.4914075522
 21
3.7957967276
  0
LINE
  5
275
100
AcDbEntity
  8
03__ASM_ALL_CURVES
100
AcDbLine
 62
40
  6
CONTINUOUS
 10
6.7914890253
 20
3.4620056826
 11
6.7848205878
 21
3.4620056826
  0
LINE
  5
276
100
AcDbEntity
  8
03__ASM_ALL_CURVES
100
AcDbLine
 62
40
  6
CONTINUOUS
 10
6.9348604315
 20
3.4620056826
 11
6.9615341815
 21
3.4620056826
  0
LINE
  5
277
100
AcDbEntity
  8
0
100
AcDbLine
 62
7
  6
CONTINUOUS
 10
5.2122358632
 20
3.5883531826
 11
5.1825023243
 21
3.6398531826
  0
LINE
  5
278
100
AcDbEntity
  8
03__ASM_ALL_CURVES
100
AcDbLine
 62
40
  6
CONTINUOUS
 10
5.0083166993
 20
5.0411991826
 11
5.0083166993
 21
5.0471266828
  0
LINE
  5
279
100
AcDbEntity
  8
03__ASM_ALL_CURVES
100
AcDbLine
 62
40
  6
CONTINUOUS
 10
5.0616641993
 20
5.0589816826
 11
5.0616641993
 21
5.0649091833
  0
LINE
  5
27A
100
AcDbEntity
  8
03__ASM_ALL_CURVES
100
AcDbLine
 62
40
  6
CONTINUOUS
 10
5.0661098243
 20
5.0945466826
 11
5.0661098243
 21
5.1004741812
  0
LINE
  5
27B
100
AcDbEntity
  8
03__ASM_ALL_CURVES
100
AcDbLine
 62
40
  6
CONTINUOUS
 10
5.1016748243
 20
5.1004741812
 11
5.1016748243
 21
5.0945466826
  0
LINE
  5
27C
100
AcDbEntity
  8
03__ASM_ALL_CURVES
100
AcDbLine
 62
40
  6
CONTINUOUS
 10
5.1061204493
 20
5.0649091833
 11
5.1061204493
 21
5.0589816826
  0
LINE
  5
27D
100
AcDbEntity
  8
03__ASM_ALL_CURVES
100
AcDbLine
 62
40
  6
CONTINUOUS
 10
5.1639135743
 20
5.0708366819
 11
5.1594679493
 21
5.0530541829
  0
LINE
  5
27E
100
AcDbEntity
  8
0
100
AcDbLine
 62
7
  6
CONTINUOUS
 10
4.2900023243
 20
3.8118531826
 11
4.2845023243
 21
3.8063531826
  0
LINE
  5
27F
100
AcDbEntity
  8
03__ASM_ALL_CURVES
100
AcDbLine
 62
40
  6
CONTINUOUS
 10
6.8448365253
 20
3.4886794326
 11
6.8281654315
 21
3.4886794326
  0
LINE
  5
280
100
AcDbEntity
  8
03__ASM_ALL_CURVES
100
AcDbLine
 62
40
  6
CONTINUOUS
 10
6.7381415253
 20
3.4886794326
 11
6.7214704315
 21
3.4886794326
  0
LINE
  5
281
100
AcDbEntity
  8
03__ASM_ALL_CURVES
100
AcDbLine
 62
40
  6
CONTINUOUS
 10
6.7214704315
 20
3.5153531826
 11
6.7381415253
 21
3.5153531826
  0
LINE
  5
282
100
AcDbEntity
  8
03__ASM_ALL_CURVES
100
AcDbLine
 62
40
  6
CONTINUOUS
 10
6.7848205878
 20
3.5153531826
 11
6.7914890253
 21
3.5153531826
  0
LINE
  5
283
100
AcDbEntity
  8
03__ASM_ALL_CURVES
100
AcDbLine
 62
40
  6
CONTINUOUS
 10
6.8281654315
 20
3.5153531826
 11
6.8448365253
 21
3.5153531826
  0
LINE
  5
284
100
AcDbEntity
  8
03__ASM_ALL_CURVES
100
AcDbLine
 62
40
  6
CONTINUOUS
 10
6.8781787128
 20
3.5153531826
 11
6.9115209003
 21
3.5153531826
  0
LINE
  5
285
100
AcDbEntity
  8
03__ASM_ALL_CURVES
100
AcDbLine
 62
40
  6
CONTINUOUS
 10
6.9448630878
 20
3.5153531826
 11
6.9515315253
 21
3.5153531826
  0
LINE
  5
286
100
AcDbEntity
  8
0
100
AcDbLine
 62
7
  6
CONTINUOUS
 10
5.6240023243
 20
3.5883531826
 11
5.2122358632
 21
3.5883531826
  0
LINE
  5
287
100
AcDbEntity
  8
0
100
AcDbLine
 62
7
  6
CONTINUOUS
 10
5.6240023243
 20
3.5892507101
 11
5.2122358632
 21
3.5892507101
  0
LINE
  5
288
100
AcDbEntity
  8
03__ASM_ALL_CURVES
100
AcDbLine
 62
40
  6
CONTINUOUS
 10
4.7149054493
 20
5.0530541829
 11
4.7104598243
 21
5.0649091833
  0
LINE
  5
289
100
AcDbEntity
  8
03__ASM_ALL_CURVES
100
AcDbLine
 62
40
  6
CONTINUOUS
 10
4.7415791993
 20
5.1004741812
 11
4.7460248243
 21
5.088619184
  0
LINE
  5
28A
100
AcDbEntity
  8
03__ASM_ALL_CURVES
100
AcDbLine
 62
40
  6
CONTINUOUS
 10
4.7904810743
 20
5.0708366819
 11
4.7949266993
 21
5.0530541829
  0
LINE
  5
28B
100
AcDbEntity
  8
03__ASM_ALL_CURVES
100
AcDbLine
 62
40
  6
CONTINUOUS
 10
5.1639135743
 20
5.0826916812
 11
5.1639135743
 21
5.0708366819
  0
LINE
  5
28C
100
AcDbEntity
  8
0
100
AcDbLine
 62
7
  6
CONTINUOUS
 10
5.1825023243
 20
3.639853186
 11
5.1825023243
 21
4.5148531792
  0
LINE
  5
28D
100
AcDbEntity
  8
0
100
AcDbLine
 62
7
  6
CONTINUOUS
 10
5.2122358632
 20
4.5663531826
 11
5.2122358632
 21
4.5654556551
  0
LINE
  5
28E
100
AcDbEntity
  8
0
100
AcDbLine
 62
7
  6
CONTINUOUS
 10
5.2122358632
 20
3.5892507101
 11
5.2122358632
 21
3.5883531826
  0
LINE
  5
28F
100
AcDbEntity
  8
0
100
AcDbLine
 62
7
  6
CONTINUOUS
 10
5.2122358632
 20
3.8076556551
 11
5.2122358632
 21
3.8589482376
  0
LINE
  5
290
100
AcDbEntity
  8
0
100
AcDbLine
 62
7
  6
CONTINUOUS
 10
5.2122358632
 20
4.2957581276
 11
5.2122358632
 21
4.3470507101
  0
LINE
  5
291
100
AcDbEntity
  8
0
100
AcDbLine
 62
7
  6
CONTINUOUS
 10
5.2118472224
 20
4.565680037
 11
5.1825023243
 21
4.5148531826
  0
LINE
  5
292
100
AcDbEntity
  8
03__ASM_ALL_CURVES
100
AcDbLine
 62
40
  6
CONTINUOUS
 10
6.0429179493
 20
5.106401684
 11
6.0518091993
 21
5.1123291826
  0
LINE
  5
293
100
AcDbEntity
  8
0
100
AcDbLine
 62
7
  6
CONTINUOUS
 10
5.8725023243
 20
3.6488531826
 11
5.6845023243
 21
3.6488531826
  0
LINE
  5
294
100
AcDbEntity
  8
THREAD
100
AcDbLine
 62
7
  6
CONTINUOUS
 10
5.9195023243
 20
3.6723531826
 11
5.8880907816
 21
3.6723531826
  0
LINE
  5
295
100
AcDbEntity
  8
0
100
AcDbLine
 62
7
  6
CONTINUOUS
 10
5.9895023243
 20
3.6728531826
 11
6.0395023243
 21
3.6728531826
  0
LINE
  5
296
100
AcDbEntity
  8
THREAD
100
AcDbLine
 62
7
  6
CONTINUOUS
 10
6.2605023243
 20
3.6863531826
 11
6.0828850102
 21
3.6863531826
  0
LINE
  5
297
100
AcDbEntity
  8
0
100
AcDbLine
 62
7
  6
CONTINUOUS
 10
4.5905023243
 20
3.7038531826
 11
5.1825023243
 21
3.7038531826
  0
LINE
  5
298
100
AcDbEntity
  8
THREAD
100
AcDbLine
 62
7
  6
CONTINUOUS
 10
6.0595023243
 20
3.7268531826
 11
6.0395023243
 21
3.7268531826
  0
LINE
  5
299
100
AcDbEntity
  8
0
100
AcDbLine
 62
7
  6
CONTINUOUS
 10
6.9905023243
 20
3.7338531826
 11
7.0405023243
 21
3.7338531826
  0
LINE
  5
29A
100
AcDbEntity
  8
0
100
AcDbLine
 62
7
  6
CONTINUOUS
 10
7.1105023243
 20
3.7338531826
 11
7.1605023243
 21
3.7338531826
  0
LINE
  5
29B
100
AcDbEntity
  8
0
100
AcDbLine
 62
7
  6
CONTINUOUS
 10
7.2295023243
 20
3.7353531826
 11
7.1885023243
 21
3.7353531826
  0
LINE
  5
29C
100
AcDbEntity
  8
0
100
AcDbLine
 62
7
  6
CONTINUOUS
 10
6.9905023243
 20
3.7353531826
 11
6.9325023243
 21
3.7353531826
  0
LINE
  5
29D
100
AcDbEntity
  8
03__ASM_ALL_CURVES
100
AcDbLine
 62
40
  6
CONTINUOUS
 10
4.8882848243
 20
5.0767641826
 11
4.8927304493
 21
5.0649091833
  0
LINE
  5
29E
100
AcDbEntity
  8
03__ASM_ALL_CURVES
100
AcDbLine
 62
40
  6
CONTINUOUS
 10
4.9282954493
 20
5.0530541829
 11
4.9238498243
 21
5.0649091833
  0
LINE
  5
29F
100
AcDbEntity
  8
03__ASM_ALL_CURVES
100
AcDbLine
 62
40
  6
CONTINUOUS
 10
6.1140479493
 20
5.106401684
 11
6.1229391993
 21
5.1123291826
  0
LINE
  5
2A0
100
AcDbEntity
  8
03__ASM_ALL_CURVES
100
AcDbLine
 62
40
  6
CONTINUOUS
 10
6.0695916993
 20
5.0471266828
 11
6.0607004493
 21
5.0411991826
  0
LINE
  5
2A1
100
AcDbEntity
  8
03__ASM_ALL_CURVES
100
AcDbLine
 62
40
  6
CONTINUOUS
 10
6.1407216993
 20
5.0471266828
 11
6.1318304493
 21
5.0411991826
  0
LINE
  5
2A2
100
AcDbEntity
  8
0
100
AcDbLine
 62
7
  6
CONTINUOUS
 10
6.3855023243
 20
3.7493531826
 11
6.3075023243
 21
3.7493531826
  0
LINE
  5
2A3
100
AcDbEntity
  8
0
100
AcDbLine
 62
7
  6
CONTINUOUS
 10
7.1885023243
 20
3.7878531826
 11
7.1605023243
 21
3.7878531826
  0
LINE
  5
2A4
100
AcDbEntity
  8
0
100
AcDbLine
 62
7
  6
CONTINUOUS
 10
6.9325023243
 20
3.7963531826
 11
6.6995023243
 21
3.7963531826
  0
LINE
  5
2A5
100
AcDbEntity
  8
0
100
AcDbLine
 62
7
  6
CONTINUOUS
 10
4.3215023244
 20
3.7963531826
 11
4.491726046
 21
3.7963531826
  0
LINE
  5
2A6
100
AcDbEntity
  8
125-199_FEATURES
100
AcDbLine
 62
7
  6
CONTINUOUS
 10
6.6370023243
 20
3.8033919627
 11
6.4910023243
 21
3.8033919627
  0
LINE
  5
2A7
100
AcDbEntity
  8
0
100
AcDbLine
 62
7
  6
CONTINUOUS
 10
4.5285023243
 20
3.8063531826
 11
4.4975023243
 21
3.8063531826
  0
LINE
  5
2A8
100
AcDbEntity
  8
0
100
AcDbLine
 62
7
  6
CONTINUOUS
 10
4.2845023243
 20
3.8063531826
 11
4.2785023243
 21
3.8063531826
  0
LINE
  5
2A9
100
AcDbEntity
  8
0
100
AcDbLine
 62
7
  6
CONTINUOUS
 10
5.6240023243
 20
3.8076556551
 11
5.2122358632
 21
3.8076556551
  0
LINE
  5
2AA
100
AcDbEntity
  8
0
100
AcDbLine
 62
7
  6
CONTINUOUS
 10
4.3060023243
 20
3.8118531826
 11
4.2900023243
 21
3.8118531826
  0
LINE
  5
2AB
100
AcDbEntity
  8
0
100
AcDbLine
 62
7
  6
CONTINUOUS
 10
5.6240023243
 20
3.8589482376
 11
5.2122358632
 21
3.8589482376
  0
LINE
  5
2AC
100
AcDbEntity
  8
03__ASM_ALL_CURVES
100
AcDbLine
 62
40
  6
CONTINUOUS
 10
4.5993191993
 20
5.106401684
 11
4.6037648243
 21
5.1004741812
  0
LINE
  5
2AD
100
AcDbEntity
  8
03__ASM_ALL_CURVES
100
AcDbLine
 62
40
  6
CONTINUOUS
 10
4.6526666993
 20
5.0471266828
 11
4.6571123243
 21
5.0411991826
  0
LINE
  5
2AE
100
AcDbEntity
  8
03__ASM_ALL_CURVES
100
AcDbLine
 62
40
  6
CONTINUOUS
 10
4.7193510743
 20
5.0471266828
 11
4.7149054493
 21
5.0530541829
  0
LINE
  5
2AF
100
AcDbEntity
  8
03__ASM_ALL_CURVES
100
AcDbLine
 62
40
  6
CONTINUOUS
 10
4.9549691993
 20
5.1004741812
 11
4.9594148243
 21
5.088619184
  0
LINE
  5
2B0
100
AcDbEntity
  8
03__ASM_ALL_CURVES
100
AcDbLine
 62
40
  6
CONTINUOUS
 10
5.1594679493
 20
5.1004741812
 11
5.1639135743
 21
5.0826916812
  0
LINE
  5
2B1
100
AcDbEntity
  8
03__ASM_ALL_CURVES
100
AcDbLine
 62
40
  6
CONTINUOUS
 10
6.0340266993
 20
5.0945466826
 11
6.0429179493
 21
5.106401684
  0
LINE
  5
2B2
100
AcDbEntity
  8
03__ASM_ALL_CURVES
100
AcDbLine
 62
40
  6
CONTINUOUS
 10
6.4696979493
 20
5.106401684
 11
6.4785891993
 21
5.1123291826
  0
LINE
  5
2B3
100
AcDbEntity
  8
0
100
AcDbLine
 62
7
  6
CONTINUOUS
 10
3.8995023243
 20
3.8933531826
 11
4.2165023243
 21
3.8933531826
  0
LINE
  5
2B4
100
AcDbEntity
  8
125-199_FEATURES
100
AcDbLine
 62
7
  6
CONTINUOUS
 10
6.6940023243
 20
4.0148531826
 11
6.4910023243
 21
4.0148531826
  0
LINE
  5
2B5
100
AcDbEntity
  8
03__ASM_ALL_CURVES
100
AcDbLine
 62
40
  6
CONTINUOUS
 10
4.7371335743
 20
5.106401684
 11
4.7415791993
 21
5.1004741812
  0
LINE
  5
2B6
100
AcDbEntity
  8
03__ASM_ALL_CURVES
100
AcDbLine
 62
40
  6
CONTINUOUS
 10
4.7949266993
 20
5.0530541829
 11
4.8038179493
 21
5.0411991826
  0
LINE
  5
2B7
100
AcDbEntity
  8
03__ASM_ALL_CURVES
100
AcDbLine
 62
40
  6
CONTINUOUS
 10
4.8571654493
 20
5.0471266828
 11
4.8527198243
 21
5.0530541829
  0
LINE
  5
2B8
100
AcDbEntity
  8
0
100
AcDbLine
 62
7
  6
CONTINUOUS
 10
5.6240023243
 20
3.5883531826
 11
5.6240023243
 21
3.5892507101
  0
LINE
  5
2B9
100
AcDbEntity
  8
0
100
AcDbLine
 62
7
  6
CONTINUOUS
 10
5.6240023243
 20
3.8076556551
 11
5.6240023243
 21
3.8589482376
  0
LINE
  5
2BA
100
AcDbEntity
  8
0
100
AcDbLine
 62
7
  6
CONTINUOUS
 10
5.6240023243
 20
4.2957581276
 11
5.6240023243
 21
4.3470507101
  0
LINE
  5
2BB
100
AcDbEntity
  8
0
100
AcDbLine
 62
7
  6
CONTINUOUS
 10
5.6240023243
 20
4.5654556551
 11
5.6240023243
 21
4.5663531826
  0
LINE
  5
2BC
100
AcDbEntity
  8
03__ASM_ALL_CURVES
100
AcDbLine
 62
40
  6
CONTINUOUS
 10
6.0784829493
 20
5.0589816826
 11
6.0695916993
 21
5.0471266828
  0
LINE
  5
2BD
100
AcDbEntity
  8
03__ASM_ALL_CURVES
100
AcDbLine
 62
40
  6
CONTINUOUS
 10
6.1051566993
 20
5.0945466826
 11
6.1140479493
 21
5.106401684
  0
LINE
  5
2BE
100
AcDbEntity
  8
03__ASM_ALL_CURVES
100
AcDbLine
 62
40
  6
CONTINUOUS
 10
6.1451673243
 20
5.0530541829
 11
6.1407216993
 21
5.0471266828
  0
LINE
  5
2BF
100
AcDbEntity
  8
03__ASM_ALL_CURVES
100
AcDbLine
 62
40
  6
CONTINUOUS
 10
6.4963716993
 20
5.0471266828
 11
6.4874804493
 21
5.0411991826
  0
LINE
  5
2C0
100
AcDbEntity
  8
03__ASM_ALL_CURVES
100
AcDbLine
 62
40
  6
CONTINUOUS
 10
6.6208491993
 20
5.1123291826
 11
6.6119579493
 21
5.106401684
  0
LINE
  5
2C1
100
AcDbEntity
  8
03__ASM_ALL_CURVES
100
AcDbLine
 62
40
  6
CONTINUOUS
 10
6.6386316993
 20
5.0471266828
 11
6.6297404493
 21
5.0411991826
  0
LINE
  5
2C2
100
AcDbEntity
  8
03__ASM_ALL_CURVES
100
AcDbLine
 62
40
  6
CONTINUOUS
 10
6.7542179493
 20
5.106401684
 11
6.7631091993
 21
5.1123291826
  0
LINE
  5
2C3
100
AcDbEntity
  8
0
100
AcDbLine
 62
7
  6
CONTINUOUS
 10
4.466630914
 20
4.0773531826
 11
4.3649731756
 21
4.0773531826
  0
LINE
  5
2C4
100
AcDbEntity
  8
03__ASM_ALL_CURVES
100
AcDbLine
 62
40
  6
CONTINUOUS
 10
7.5775209185
 20
4.0892081826
 11
7.570852481
 21
4.0892081826
  0
LINE
  5
2C5
100
AcDbEntity
  8
03__ASM_ALL_CURVES
100
AcDbLine
 62
40
  6
CONTINUOUS
 10
7.6308684185
 20
4.1158819326
 11
7.6141973248
 21
4.1158819326
  0
LINE
  5
2C6
100
AcDbEntity
  8
03__ASM_ALL_CURVES
100
AcDbLine
 62
40
  6
CONTINUOUS
 10
7.5241734185
 20
4.1158819326
 11
7.5075023248
 21
4.1158819326
  0
LINE
  5
2C7
100
AcDbEntity
  8
125-199_FEATURES
100
AcDbLine
 62
7
  6
CONTINUOUS
 10
6.6940023243
 20
4.1398531826
 11
6.4910023243
 21
4.1398531826
  0
LINE
  5
2C8
100
AcDbEntity
  8
03__ASM_ALL_CURVES
100
AcDbLine
 62
40
  6
CONTINUOUS
 10
7.5075023248
 20
4.1425556826
 11
7.5241734185
 21
4.1425556826
  0
LINE
  5
2C9
100
AcDbEntity
  8
03__ASM_ALL_CURVES
100
AcDbLine
 62
40
  6
CONTINUOUS
 10
7.570852481
 20
4.1425556826
 11
7.5775209185
 21
4.1425556826
  0
LINE
  5
2CA
100
AcDbEntity
  8
03__ASM_ALL_CURVES
100
AcDbLine
 62
40
  6
CONTINUOUS
 10
7.6141973248
 20
4.1425556826
 11
7.6308684185
 21
4.1425556826
  0
LINE
  5
2CB
100
AcDbEntity
  8
03__ASM_ALL_CURVES
100
AcDbLine
 62
40
  6
CONTINUOUS
 10
7.664210606
 20
4.1425556826
 11
7.6975527935
 21
4.1425556826
  0
LINE
  5
2CC
100
AcDbEntity
  8
03__ASM_ALL_CURVES
100
AcDbLine
 62
40
  6
CONTINUOUS
 10
6.7848205878
 20
3.4620056826
 11
6.7781521503
 21
3.4664513077
  0
LINE
  5
2CD
100
AcDbEntity
  8
03__ASM_ALL_CURVES
100
AcDbLine
 62
40
  6
CONTINUOUS
 10
6.7381415253
 20
3.5153531826
 11
6.7448099628
 21
3.5109075587
  0
LINE
  5
2CE
100
AcDbEntity
  8
03__ASM_ALL_CURVES
100
AcDbLine
 62
40
  6
CONTINUOUS
 10
4.8838391993
 20
5.0826916812
 11
4.8882848243
 21
5.0767641826
  0
LINE
  5
2CF
100
AcDbEntity
  8
03__ASM_ALL_CURVES
100
AcDbLine
 62
40
  6
CONTINUOUS
 10
4.9327410743
 20
5.0471266828
 11
4.9282954493
 21
5.0530541829
  0
LINE
  5
2D0
100
AcDbEntity
  8
03__ASM_ALL_CURVES
100
AcDbLine
 62
40
  6
CONTINUOUS
 10
4.9505235743
 20
5.106401684
 11
4.9549691993
 21
5.1004741812
  0
LINE
  5
2D1
100
AcDbEntity
  8
03__ASM_ALL_CURVES
100
AcDbLine
 62
40
  6
CONTINUOUS
 10
5.0083166993
 20
5.0471266828
 11
5.0127623243
 21
5.0411991826
  0
LINE
  5
2D2
100
AcDbEntity
  8
03__ASM_ALL_CURVES
100
AcDbLine
 62
40
  6
CONTINUOUS
 10
5.0705554493
 20
5.0471266828
 11
5.0616641993
 21
5.0589816826
  0
LINE
  5
2D3
100
AcDbEntity
  8
0
100
AcDbLine
 62
7
  6
CONTINUOUS
 10
5.6845023243
 20
3.6488531826
 11
5.6845023243
 21
4.5058531826
  0
LINE
  5
2D4
100
AcDbEntity
  8
03__ASM_ALL_CURVES
100
AcDbLine
 62
40
  6
CONTINUOUS
 10
5.8013723243
 20
5.0293441826
 11
5.8013723243
 21
5.0056341826
  0
LINE
  5
2D5
100
AcDbEntity
  8
03__ASM_ALL_CURVES
100
AcDbLine
 62
40
  6
CONTINUOUS
 10
6.7808916993
 20
5.0471266828
 11
6.7720004493
 21
5.0411991826
  0
LINE
  5
2D6
100
AcDbEntity
  8
03__ASM_ALL_CURVES
100
AcDbLine
 62
40
  6
CONTINUOUS
 10
6.8520216993
 20
5.0471266828
 11
6.8431304493
 21
5.0411991826
  0
LINE
  5
2D7
100
AcDbEntity
  8
0
100
AcDbLine
 62
7
  6
CONTINUOUS
 10
3.8995023243
 20
4.2613531826
 11
4.2165023243
 21
4.2613531826
  0
LINE
  5
2D8
100
AcDbEntity
  8
0
100
AcDbLine
 62
7
  6
CONTINUOUS
 10
5.6240023243
 20
4.2957581276
 11
5.2122358632
 21
4.2957581276
  0
LINE
  5
2D9
100
AcDbEntity
  8
03__ASM_ALL_CURVES
100
AcDbLine
 62
40
  6
CONTINUOUS
 10
6.7914890253
 20
3.5153531826
 11
6.7981574628
 21
3.5109075587
  0
LINE
  5
2DA
100
AcDbEntity
  8
03__ASM_ALL_CURVES
100
AcDbLine
 62
40
  6
CONTINUOUS
 10
6.8448365253
 20
3.5153531826
 11
6.8515049628
 21
3.5109075587
  0
LINE
  5
2DB
100
AcDbEntity
  8
03__ASM_ALL_CURVES
100
AcDbLine
 62
40
  6
CONTINUOUS
 10
6.9515315253
 20
3.5153531826
 11
6.9581999628
 21
3.5109075587
  0
LINE
  5
2DC
100
AcDbEntity
  8
03__ASM_ALL_CURVES
100
AcDbLine
 62
40
  6
CONTINUOUS
 10
4.5904279493
 20
5.1123291826
 11
4.5993191993
 21
5.106401684
  0
LINE
  5
2DD
100
AcDbEntity
  8
03__ASM_ALL_CURVES
100
AcDbLine
 62
40
  6
CONTINUOUS
 10
5.0705554493
 20
5.088619184
 11
5.0661098243
 21
5.0945466826
  0
LINE
  5
2DE
100
AcDbEntity
  8
03__ASM_ALL_CURVES
100
AcDbLine
 62
40
  6
CONTINUOUS
 10
5.0972291993
 20
5.0767641826
 11
5.1061204493
 21
5.0649091833
  0
LINE
  5
2DF
100
AcDbEntity
  8
03__ASM_ALL_CURVES
100
AcDbLine
 62
40
  6
CONTINUOUS
 10
5.0972291993
 20
5.106401684
 11
5.1016748243
 21
5.1004741812
  0
LINE
  5
2E0
100
AcDbEntity
  8
03__ASM_ALL_CURVES
100
AcDbLine
 62
40
  6
CONTINUOUS
 10
5.1505766993
 20
5.1123291826
 11
5.1594679493
 21
5.1004741812
  0
LINE
  5
2E1
100
AcDbEntity
  8
THREAD
100
AcDbLine
 62
7
  6
CONTINUOUS
 10
6.0828850102
 20
3.6863531826
 11
6.0595023243
 21
3.7268531826
  0
LINE
  5
2E2
100
AcDbEntity
  8
0
100
AcDbLine
 62
7
  6
CONTINUOUS
 10
5.8725023243
 20
3.6488531826
 11
5.8725023243
 21
4.5058531826
  0
LINE
  5
2E3
100
AcDbEntity
  8
03__ASM_ALL_CURVES
100
AcDbLine
 62
40
  6
CONTINUOUS
 10
5.8725023243
 20
4.5177081826
 11
5.8725023243
 21
5.0411991826
  0
LINE
  5
2E4
100
AcDbEntity
  8
THREAD
100
AcDbLine
 62
7
  6
CONTINUOUS
 10
5.8880907816
 20
3.6723531826
 11
5.8880907816
 21
4.4823531826
  0
LINE
  5
2E5
100
AcDbEntity
  8
THREAD
100
AcDbLine
 62
7
  6
CONTINUOUS
 10
5.9195023243
 20
3.6723531826
 11
5.9195023243
 21
4.4823531826
  0
LINE
  5
2E6
100
AcDbEntity
  8
03__ASM_ALL_CURVES
100
AcDbLine
 62
40
  6
CONTINUOUS
 10
5.9436323243
 20
5.0293441826
 11
5.9436323243
 21
5.0056341826
  0
LINE
  5
2E7
100
AcDbEntity
  8
03__ASM_ALL_CURVES
100
AcDbLine
 62
40
  6
CONTINUOUS
 10
6.0295810743
 20
5.0767641826
 11
6.0340266993
 21
5.0945466826
  0
LINE
  5
2E8
100
AcDbEntity
  8
03__ASM_ALL_CURVES
100
AcDbLine
 62
40
  6
CONTINUOUS
 10
6.0829285743
 20
5.0767641826
 11
6.0784829493
 21
5.0589816826
  0
LINE
  5
2E9
100
AcDbEntity
  8
03__ASM_ALL_CURVES
100
AcDbLine
 62
40
  6
CONTINUOUS
 10
6.1007110743
 20
5.0767641826
 11
6.1051566993
 21
5.0945466826
  0
LINE
  5
2EA
100
AcDbEntity
  8
03__ASM_ALL_CURVES
100
AcDbLine
 62
40
  6
CONTINUOUS
 10
6.1762866993
 20
5.0411991826
 11
6.1985148243
 21
5.1123291826
  0
LINE
  5
2EB
100
AcDbEntity
  8
THREAD
100
AcDbLine
 62
7
  6
CONTINUOUS
 10
6.0828850102
 20
4.4683531826
 11
6.0595023243
 21
4.4278531826
  0
LINE
  5
2EC
100
AcDbEntity
  8
03__ASM_ALL_CURVES
100
AcDbLine
 62
40
  6
CONTINUOUS
 10
6.4608066993
 20
5.0945466826
 11
6.4696979493
 21
5.106401684
  0
LINE
  5
2ED
100
AcDbEntity
  8
03__ASM_ALL_CURVES
100
AcDbLine
 62
40
  6
CONTINUOUS
 10
6.5008173243
 20
5.0530541829
 11
6.4963716993
 21
5.0471266828
  0
LINE
  5
2EE
100
AcDbEntity
  8
03__ASM_ALL_CURVES
100
AcDbLine
 62
40
  6
CONTINUOUS
 10
6.6119579493
 20
5.106401684
 11
6.6075123243
 21
5.1004741812
  0
LINE
  5
2EF
100
AcDbEntity
  8
03__ASM_ALL_CURVES
100
AcDbLine
 62
40
  6
CONTINUOUS
 10
6.9898360743
 20
5.0471266828
 11
6.9809448243
 21
5.0411991826
  0
LINE
  5
2F0
100
AcDbEntity
  8
03__ASM_ALL_CURVES
100
AcDbLine
 62
40
  6
CONTINUOUS
 10
7.1365416993
 20
5.0826916812
 11
7.1276504493
 21
5.0767641826
  0
LINE
  5
2F1
100
AcDbEntity
  8
0
100
AcDbLine
 62
7
  6
CONTINUOUS
 10
4.3060023243
 20
4.3428531826
 11
4.2900023243
 21
4.3428531826
  0
LINE
  5
2F2
100
AcDbEntity
  8
0
100
AcDbLine
 62
7
  6
CONTINUOUS
 10
5.6240023243
 20
4.3470507101
 11
5.2122358632
 21
4.3470507101
  0
LINE
  5
2F3
100
AcDbEntity
  8
0
100
AcDbLine
 62
7
  6
CONTINUOUS
 10
4.5285023243
 20
4.3483531826
 11
4.4975023243
 21
4.3483531826
  0
LINE
  5
2F4
100
AcDbEntity
  8
0
100
AcDbLine
 62
7
  6
CONTINUOUS
 10
4.2845023243
 20
4.3483531826
 11
4.2785023243
 21
4.3483531826
  0
LINE
  5
2F5
100
AcDbEntity
  8
125-199_FEATURES
100
AcDbLine
 62
7
  6
CONTINUOUS
 10
6.4910023243
 20
4.3513144025
 11
6.6370023243
 21
4.3513144025
  0
LINE
  5
2F6
100
AcDbEntity
  8
0
100
AcDbLine
 62
7
  6
CONTINUOUS
 10
6.9325023243
 20
4.3583531826
 11
6.6995023243
 21
4.3583531826
  0
LINE
  5
2F7
100
AcDbEntity
  8
0
100
AcDbLine
 62
7
  6
CONTINUOUS
 10
4.3215023244
 20
4.3583531826
 11
4.491726046
 21
4.3583531826
  0
LINE
  5
2F8
100
AcDbEntity
  8
0
100
AcDbLine
 62
7
  6
CONTINUOUS
 10
7.1885023243
 20
4.3668531826
 11
7.1605023243
 21
4.3668531826
  0
LINE
  5
2F9
100
AcDbEntity
  8
0
100
AcDbLine
 62
7
  6
CONTINUOUS
 10
6.3855023243
 20
4.4053531826
 11
6.3075023243
 21
4.4053531826
  0
LINE
  5
2FA
100
AcDbEntity
  8
0
100
AcDbLine
 62
7
  6
CONTINUOUS
 10
7.2295023243
 20
4.4193531826
 11
7.1885023243
 21
4.4193531826
  0
LINE
  5
2FB
100
AcDbEntity
  8
0
100
AcDbLine
 62
7
  6
CONTINUOUS
 10
6.9905023243
 20
4.4193531826
 11
6.9325023243
 21
4.4193531826
  0
LINE
  5
2FC
100
AcDbEntity
  8
0
100
AcDbLine
 62
7
  6
CONTINUOUS
 10
6.9905023243
 20
4.4208531826
 11
7.0405023243
 21
4.4208531826
  0
LINE
  5
2FD
100
AcDbEntity
  8
0
100
AcDbLine
 62
7
  6
CONTINUOUS
 10
7.1105023243
 20
4.4208531826
 11
7.1605023243
 21
4.4208531826
  0
LINE
  5
2FE
100
AcDbEntity
  8
THREAD
100
AcDbLine
 62
7
  6
CONTINUOUS
 10
6.0595023243
 20
4.4278531826
 11
6.0395023243
 21
4.4278531826
  0
LINE
  5
2FF
100
AcDbEntity
  8
03__ASM_ALL_CURVES
100
AcDbLine
 62
40
  6
CONTINUOUS
 10
4.7282423243
 20
5.0411991826
 11
4.7193510743
 21
5.0471266828
  0
LINE
  5
300
100
AcDbEntity
  8
03__ASM_ALL_CURVES
100
AcDbLine
 62
40
  6
CONTINUOUS
 10
4.7282423243
 20
5.1123291826
 11
4.7371335743
 21
5.106401684
  0
LINE
  5
301
100
AcDbEntity
  8
03__ASM_ALL_CURVES
100
AcDbLine
 62
40
  6
CONTINUOUS
 10
4.8660566993
 20
5.0411991826
 11
4.8571654493
 21
5.0471266828
  0
LINE
  5
302
100
AcDbEntity
  8
03__ASM_ALL_CURVES
100
AcDbLine
 62
40
  6
CONTINUOUS
 10
4.9416323243
 20
5.0411991826
 11
4.9327410743
 21
5.0471266828
  0
LINE
  5
303
100
AcDbEntity
  8
03__ASM_ALL_CURVES
100
AcDbLine
 62
40
  6
CONTINUOUS
 10
4.8749479493
 20
5.088619184
 11
4.8838391993
 21
5.0826916812
  0
LINE
  5
304
100
AcDbEntity
  8
0
100
AcDbLine
 62
7
  6
CONTINUOUS
 10
5.6845023243
 20
4.5058531826
 11
5.6244510881
 21
4.5659044188
  0
LINE
  5
305
100
AcDbEntity
  8
03__ASM_ALL_CURVES
100
AcDbLine
 62
40
  6
CONTINUOUS
 10
5.9673423243
 20
5.1123291826
 11
5.9673423243
 21
5.0411991826
  0
LINE
  5
306
100
AcDbEntity
  8
0
100
AcDbLine
 62
7
  6
CONTINUOUS
 10
5.9895023243
 20
3.6728537976
 11
5.9895023243
 21
4.4818525676
  0
LINE
  5
307
100
AcDbEntity
  8
0
100
AcDbLine
 62
7
  6
CONTINUOUS
 10
6.0395023243
 20
3.6728537976
 11
6.0395023243
 21
4.4818525676
  0
LINE
  5
308
100
AcDbEntity
  8
THREAD
100
AcDbLine
 62
7
  6
CONTINUOUS
 10
6.0595023243
 20
3.7268531826
 11
6.0595023243
 21
4.4278531826
  0
LINE
  5
309
100
AcDbEntity
  8
THREAD
100
AcDbLine
 62
7
  6
CONTINUOUS
 10
6.0828850102
 20
3.6863531826
 11
6.0828850102
 21
4.4683531826
  0
LINE
  5
30A
100
AcDbEntity
  8
03__ASM_ALL_CURVES
100
AcDbLine
 62
40
  6
CONTINUOUS
 10
6.6430773243
 20
5.0530541829
 11
6.6386316993
 21
5.0471266828
  0
LINE
  5
30B
100
AcDbEntity
  8
03__ASM_ALL_CURVES
100
AcDbLine
 62
40
  6
CONTINUOUS
 10
6.7453266993
 20
5.0945466826
 11
6.7542179493
 21
5.106401684
  0
LINE
  5
30C
100
AcDbEntity
  8
0
100
AcDbLine
 62
7
  6
CONTINUOUS
 10
4.5905023243
 20
4.4508531826
 11
5.1825023243
 21
4.4508531826
  0
LINE
  5
30D
100
AcDbEntity
  8
THREAD
100
AcDbLine
 62
7
  6
CONTINUOUS
 10
6.2605023243
 20
4.4683531826
 11
6.0828850102
 21
4.4683531826
  0
LINE
  5
30E
100
AcDbEntity
  8
0
100
AcDbLine
 62
7
  6
CONTINUOUS
 10
5.9895023243
 20
4.4818531826
 11
6.0395023243
 21
4.4818531826
  0
LINE
  5
30F
100
AcDbEntity
  8
THREAD
100
AcDbLine
 62
7
  6
CONTINUOUS
 10
5.9195023243
 20
4.4823531826
 11
5.8880907816
 21
4.4823531826
  0
LINE
  5
310
100
AcDbEntity
  8
0
100
AcDbLine
 62
7
  6
CONTINUOUS
 10
5.8725023243
 20
4.5058531826
 11
5.6845023243
 21
4.5058531826
  0
LINE
  5
311
100
AcDbEntity
  8
0
100
AcDbLine
 62
7
  6
CONTINUOUS
 10
5.6240023243
 20
4.5654556551
 11
5.2122358632
 21
4.5654556551
  0
LINE
  5
312
100
AcDbEntity
  8
0
100
AcDbLine
 62
7
  6
CONTINUOUS
 10
5.6240023243
 20
4.5663531826
 11
5.2122358632
 21
4.5663531826
  0
LINE
  5
313
100
AcDbEntity
  8
THREAD
100
AcDbLine
 62
7
  6
CONTINUOUS
 10
5.8880907816
 20
4.4823531826
 11
5.8725023243
 21
4.4913531826
  0
LINE
  5
314
100
AcDbEntity
  8
03__ASM_ALL_CURVES
100
AcDbLine
 62
40
  6
CONTINUOUS
 10
4.9416323243
 20
5.1123291826
 11
4.9505235743
 21
5.106401684
  0
LINE
  5
315
100
AcDbEntity
  8
03__ASM_ALL_CURVES
100
AcDbLine
 62
40
  6
CONTINUOUS
 10
5.0794466993
 20
5.0411991826
 11
5.0705554493
 21
5.0471266828
  0
LINE
  5
316
100
AcDbEntity
  8
03__ASM_ALL_CURVES
100
AcDbLine
 62
40
  6
CONTINUOUS
 10
5.0794466993
 20
5.0826916812
 11
5.0705554493
 21
5.088619184
  0
LINE
  5
317
100
AcDbEntity
  8
03__ASM_ALL_CURVES
100
AcDbLine
 62
40
  6
CONTINUOUS
 10
5.0883379493
 20
5.0826916812
 11
5.0972291993
 21
5.0767641826
  0
LINE
  5
318
100
AcDbEntity
  8
03__ASM_ALL_CURVES
100
AcDbLine
 62
40
  6
CONTINUOUS
 10
5.0883379493
 20
5.1123291826
 11
5.0972291993
 21
5.106401684
  0
LINE
  5
319
100
AcDbEntity
  8
03__ASM_ALL_CURVES
100
AcDbLine
 62
40
  6
CONTINUOUS
 10
6.7781521503
 20
3.4664513077
 11
6.7714837128
 21
3.4753425576
  0
LINE
  5
31A
100
AcDbEntity
  8
03__ASM_ALL_CURVES
100
AcDbLine
 62
40
  6
CONTINUOUS
 10
6.7448099628
 20
3.5109075587
 11
6.7481441815
 21
3.5064619315
  0
LINE
  5
31B
100
AcDbEntity
  8
03__ASM_ALL_CURVES
100
AcDbLine
 62
40
  6
CONTINUOUS
 10
6.7897829493
 20
5.0589816826
 11
6.7808916993
 21
5.0471266828
  0
LINE
  5
31C
100
AcDbEntity
  8
03__ASM_ALL_CURVES
100
AcDbLine
 62
40
  6
CONTINUOUS
 10
6.8564673243
 20
5.0530541829
 11
6.8520216993
 21
5.0471266828
  0
LINE
  5
31D
100
AcDbEntity
  8
0
100
AcDbLine
 62
7
  6
CONTINUOUS
 10
5.6845023243
 20
3.6488531826
 11
5.6244510881
 21
3.5888019463
  0
LINE
  5
31E
100
AcDbEntity
  8
03__ASM_ALL_CURVES
100
AcDbLine
 62
40
  6
CONTINUOUS
 10
3.9396323243
 20
5.0056341826
 11
3.8685023243
 21
5.0174891826
  0
LINE
  5
31F
100
AcDbEntity
  8
03__ASM_ALL_CURVES
100
AcDbLine
 62
40
  6
CONTINUOUS
 10
6.7981574628
 20
3.5109075587
 11
6.8048259003
 21
3.5020163076
  0
LINE
  5
320
100
AcDbEntity
  8
03__ASM_ALL_CURVES
100
AcDbLine
 62
40
  6
CONTINUOUS
 10
6.8515049628
 20
3.5109075587
 11
6.8548391815
 21
3.5064619315
  0
LINE
  5
321
100
AcDbEntity
  8
03__ASM_ALL_CURVES
100
AcDbLine
 62
40
  6
CONTINUOUS
 10
6.0340266993
 20
5.0589816826
 11
6.0295810743
 21
5.0767641826
  0
LINE
  5
322
100
AcDbEntity
  8
THREAD
100
AcDbLine
 62
7
  6
CONTINUOUS
 10
6.2605023243
 20
3.6863531826
 11
6.2605023243
 21
4.4683531826
  0
LINE
  5
323
100
AcDbEntity
  8
03__ASM_ALL_CURVES
100
AcDbLine
 62
40
  6
CONTINUOUS
 10
6.2696448243
 20
5.1123291826
 11
6.2696448243
 21
5.0411991826
  0
LINE
  5
324
100
AcDbEntity
  8
0
100
AcDbLine
 62
7
  6
CONTINUOUS
 10
6.3075023243
 20
3.7333531826
 11
6.3075023243
 21
4.4213531826
  0
LINE
  5
325
100
AcDbEntity
  8
03__ASM_ALL_CURVES
100
AcDbLine
 62
40
  6
CONTINUOUS
 10
6.3407748243
 20
5.1123291826
 11
6.3407748243
 21
5.0411991826
  0
LINE
  5
326
100
AcDbEntity
  8
03__ASM_ALL_CURVES
100
AcDbLine
 62
40
  6
CONTINUOUS
 10
6.4563610743
 20
5.0767641826
 11
6.4608066993
 21
5.0945466826
  0
LINE
  5
327
100
AcDbEntity
  8
03__ASM_ALL_CURVES
100
AcDbLine
 62
40
  6
CONTINUOUS
 10
6.9987273243
 20
5.0589816826
 11
6.9898360743
 21
5.0471266828
  0
LINE
  5
328
100
AcDbEntity
  8
THREAD
100
AcDbLine
 62
7
  6
CONTINUOUS
 10
5.8880907816
 20
3.6723531826
 11
5.8725023243
 21
3.6633531826
  0
LINE
  5
329
100
AcDbEntity
  8
03__ASM_ALL_CURVES
100
AcDbLine
 62
40
  6
CONTINUOUS
 10
3.9396323243
 20
5.0115616826
 11
3.8685023243
 21
5.0174891826
  0
LINE
  5
32A
100
AcDbEntity
  8
03__ASM_ALL_CURVES
100
AcDbLine
 62
40
  6
CONTINUOUS
 10
3.9396323243
 20
5.0095858493
 11
3.8685023243
 21
5.0174891826
  0
LINE
  5
32B
100
AcDbEntity
  8
03__ASM_ALL_CURVES
100
AcDbLine
 62
40
  6
CONTINUOUS
 10
3.9396323243
 20
5.0076100159
 11
3.8685023243
 21
5.0174891826
  0
LINE
  5
32C
100
AcDbEntity
  8
THREAD
100
AcDbLine
 62
7
  6
CONTINUOUS
 10
6.3075023243
 20
4.4213531826
 11
6.2605023243
 21
4.4683531826
  0
LINE
  5
32D
100
AcDbEntity
  8
0
100
AcDbLine
 62
7
  6
CONTINUOUS
 10
6.4285023243
 20
4.3623531826
 11
6.3855023243
 21
4.4053531826
  0
LINE
  5
32E
100
AcDbEntity
  8
03__ASM_ALL_CURVES
100
AcDbLine
 62
40
  6
CONTINUOUS
 10
6.9581999628
 20
3.5109075587
 11
6.9615341815
 21
3.5064619315
  0
LINE
  5
32F
100
AcDbEntity
  8
03__ASM_ALL_CURVES
100
AcDbLine
 62
40
  6
CONTINUOUS
 10
6.0784829493
 20
5.0945466826
 11
6.0829285743
 21
5.0767641826
  0
LINE
  5
330
100
AcDbEntity
  8
03__ASM_ALL_CURVES
100
AcDbLine
 62
40
  6
CONTINUOUS
 10
6.1051566993
 20
5.0589816826
 11
6.1007110743
 21
5.0767641826
  0
LINE
  5
331
100
AcDbEntity
  8
0
100
AcDbLine
 62
7
  6
CONTINUOUS
 10
6.3855023243
 20
3.7493531826
 11
6.3855023243
 21
4.4053531826
  0
LINE
  5
332
100
AcDbEntity
  8
03__ASM_ALL_CURVES
100
AcDbLine
 62
40
  6
CONTINUOUS
 10
6.3941223243
 20
5.0411991826
 11
6.3941223243
 21
5.1123291826
  0
LINE
  5
333
100
AcDbEntity
  8
03__ASM_ALL_CURVES
100
AcDbLine
 62
40
  6
CONTINUOUS
 10
6.4296873243
 20
5.0411991826
 11
6.4296873243
 21
5.1123291826
  0
LINE
  5
334
100
AcDbEntity
  8
125-199_FEATURES
100
AcDbLine
 62
7
  6
CONTINUOUS
 10
6.4325023243
 20
3.7972157163
 11
6.4325023243
 21
4.0553531826
  0
LINE
  5
335
100
AcDbEntity
  8
125-199_FEATURES
100
AcDbLine
 62
7
  6
CONTINUOUS
 10
6.4325023243
 20
4.0993531826
 11
6.4325023243
 21
4.3574906489
  0
LINE
  5
336
100
AcDbEntity
  8
0
100
AcDbLine
 62
7
  6
CONTINUOUS
 10
6.4745023243
 20
4.0173622063
 11
6.4745023243
 21
4.1373441718
  0
LINE
  5
337
100
AcDbEntity
  8
0
100
AcDbLine
 62
7
  6
CONTINUOUS
 10
6.4815023243
 20
4.0158029745
 11
6.4815023243
 21
4.138902112
  0
LINE
  5
338
100
AcDbEntity
  8
0
100
AcDbLine
 62
7
  6
CONTINUOUS
 10
6.4915023243
 20
4.0148531826
 11
6.4915023243
 21
4.1398531826
  0
LINE
  5
339
100
AcDbEntity
  8
0
100
AcDbLine
 62
7
  6
CONTINUOUS
 10
6.4985023243
 20
4.0148531826
 11
6.4985023243
 21
4.1398531826
  0
LINE
  5
33A
100
AcDbEntity
  8
03__ASM_ALL_CURVES
100
AcDbLine
 62
40
  6
CONTINUOUS
 10
6.5008173243
 20
5.0767641826
 11
6.5008173243
 21
5.0530541829
  0
LINE
  5
33B
100
AcDbEntity
  8
03__ASM_ALL_CURVES
100
AcDbLine
 62
40
  6
CONTINUOUS
 10
7.1409873243
 20
5.088619184
 11
7.1365416993
 21
5.0826916812
  0
LINE
  5
33C
100
AcDbEntity
  8
03__ASM_ALL_CURVES
100
AcDbLine
 62
40
  6
CONTINUOUS
 10
5.8013723243
 20
5.0056341826
 11
5.9436323243
 21
5.0293441826
  0
LINE
  5
33D
100
AcDbEntity
  8
03__ASM_ALL_CURVES
100
AcDbLine
 62
40
  6
CONTINUOUS
 10
5.8013723243
 20
5.0076100159
 11
5.9436323243
 21
5.0273683493
  0
LINE
  5
33E
100
AcDbEntity
  8
03__ASM_ALL_CURVES
100
AcDbLine
 62
40
  6
CONTINUOUS
 10
5.8013723243
 20
5.0095858493
 11
5.9436323243
 21
5.0253925159
  0
LINE
  5
33F
100
AcDbEntity
  8
03__ASM_ALL_CURVES
100
AcDbLine
 62
40
  6
CONTINUOUS
 10
3.9396323243
 20
5.0155133493
 11
3.8685023243
 21
5.0174891826
  0
LINE
  5
340
100
AcDbEntity
  8
03__ASM_ALL_CURVES
100
AcDbLine
 62
40
  6
CONTINUOUS
 10
3.9396323243
 20
5.0135375159
 11
3.8685023243
 21
5.0174891826
  0
LINE
  5
341
100
AcDbEntity
  8
03__ASM_ALL_CURVES
100
AcDbLine
 62
40
  6
CONTINUOUS
 10
6.0429179493
 20
5.0471266828
 11
6.0340266993
 21
5.0589816826
  0
LINE
  5
342
100
AcDbEntity
  8
03__ASM_ALL_CURVES
100
AcDbLine
 62
40
  6
CONTINUOUS
 10
6.1140479493
 20
5.0471266828
 11
6.1051566993
 21
5.0589816826
  0
LINE
  5
343
100
AcDbEntity
  8
03__ASM_ALL_CURVES
100
AcDbLine
 62
40
  6
CONTINUOUS
 10
6.0695916993
 20
5.106401684
 11
6.0784829493
 21
5.0945466826
  0
LINE
  5
344
100
AcDbEntity
  8
03__ASM_ALL_CURVES
100
AcDbLine
 62
40
  6
CONTINUOUS
 10
6.8448365253
 20
3.4886794326
 11
6.8548391815
 21
3.4620056826
  0
LINE
  5
345
100
AcDbEntity
  8
03__ASM_ALL_CURVES
100
AcDbLine
 62
40
  6
CONTINUOUS
 10
6.1985148243
 20
5.1123291826
 11
6.2207429493
 21
5.0411991826
  0
LINE
  5
346
100
AcDbEntity
  8
0
100
AcDbLine
 62
7
  6
CONTINUOUS
 10
6.5685023243
 20
4.0148531826
 11
6.5685023243
 21
4.1398531826
  0
LINE
  5
347
100
AcDbEntity
  8
0
100
AcDbLine
 62
7
  6
CONTINUOUS
 10
6.5755023243
 20
4.0148531826
 11
6.5755023243
 21
4.1398531826
  0
LINE
  5
348
100
AcDbEntity
  8
0
100
AcDbLine
 62
7
  6
CONTINUOUS
 10
6.5855023243
 20
4.0148531826
 11
6.5855023243
 21
4.1398531826
  0
LINE
  5
349
100
AcDbEntity
  8
0
100
AcDbLine
 62
7
  6
CONTINUOUS
 10
6.5925023243
 20
4.0148531826
 11
6.5925023243
 21
4.1398531826
  0
LINE
  5
34A
100
AcDbEntity
  8
03__ASM_ALL_CURVES
100
AcDbLine
 62
40
  6
CONTINUOUS
 10
6.6075123243
 20
5.1004741812
 11
6.6075123243
 21
5.0945466826
  0
LINE
  5
34B
100
AcDbEntity
  8
03__ASM_ALL_CURVES
100
AcDbLine
 62
40
  6
CONTINUOUS
 10
6.6430773243
 20
5.0649091833
 11
6.6430773243
 21
5.0530541829
  0
LINE
  5
34C
100
AcDbEntity
  8
03__ASM_ALL_CURVES
100
AcDbLine
 62
40
  6
CONTINUOUS
 10
6.7408810743
 20
5.0767641826
 11
6.7453266993
 21
5.0945466826
  0
LINE
  5
34D
100
AcDbEntity
  8
03__ASM_ALL_CURVES
100
AcDbLine
 62
40
  6
CONTINUOUS
 10
6.7942285743
 20
5.0767641826
 11
6.7897829493
 21
5.0589816826
  0
LINE
  5
34E
100
AcDbEntity
  8
THREAD
100
AcDbLine
 62
7
  6
CONTINUOUS
 10
6.3075023243
 20
3.7333531826
 11
6.2605023243
 21
3.6863531826
  0
LINE
  5
34F
100
AcDbEntity
  8
0
100
AcDbLine
 62
7
  6
CONTINUOUS
 10
6.4285023243
 20
3.7923531826
 11
6.3855023243
 21
3.7493531826
  0
LINE
  5
350
100
AcDbEntity
  8
03__ASM_ALL_CURVES
100
AcDbLine
 62
40
  6
CONTINUOUS
 10
5.8013723243
 20
5.0115616826
 11
5.9436323243
 21
5.0234166826
  0
LINE
  5
351
100
AcDbEntity
  8
03__ASM_ALL_CURVES
100
AcDbLine
 62
40
  6
CONTINUOUS
 10
5.8013723243
 20
5.0135375159
 11
5.9436323243
 21
5.0214408493
  0
LINE
  5
352
100
AcDbEntity
  8
03__ASM_ALL_CURVES
100
AcDbLine
 62
40
  6
CONTINUOUS
 10
3.9396323243
 20
5.0214408493
 11
3.8685023243
 21
5.0174891826
  0
LINE
  5
353
100
AcDbEntity
  8
03__ASM_ALL_CURVES
100
AcDbLine
 62
40
  6
CONTINUOUS
 10
5.8013723243
 20
5.0155133493
 11
5.9436323243
 21
5.0194650159
  0
LINE
  5
354
100
AcDbEntity
  8
03__ASM_ALL_CURVES
100
AcDbLine
 62
40
  6
CONTINUOUS
 10
3.9396323243
 20
5.0194650159
 11
3.8685023243
 21
5.0174891826
  0
LINE
  5
355
100
AcDbEntity
  8
03__ASM_ALL_CURVES
100
AcDbLine
 62
40
  6
CONTINUOUS
 10
3.8685023243
 20
5.0174891826
 11
7.2239723243
 21
5.0174891826
  0
LINE
  5
356
100
AcDbEntity
  8
03__ASM_ALL_CURVES
100
AcDbLine
 62
40
  6
CONTINUOUS
 10
7.0698573243
 20
5.0411991826
 11
7.0342923243
 21
5.0411991826
  0
LINE
  5
357
100
AcDbEntity
  8
03__ASM_ALL_CURVES
100
AcDbLine
 62
40
  6
CONTINUOUS
 10
6.9809448243
 20
5.0411991826
 11
6.9631623243
 21
5.0411991826
  0
LINE
  5
358
100
AcDbEntity
  8
03__ASM_ALL_CURVES
100
AcDbLine
 62
40
  6
CONTINUOUS
 10
6.8431304493
 20
5.0411991826
 11
6.8342391993
 21
5.0411991826
  0
LINE
  5
359
100
AcDbEntity
  8
03__ASM_ALL_CURVES
100
AcDbLine
 62
40
  6
CONTINUOUS
 10
6.7720004493
 20
5.0411991826
 11
6.7631091993
 21
5.0411991826
  0
LINE
  5
35A
100
AcDbEntity
  8
03__ASM_ALL_CURVES
100
AcDbLine
 62
40
  6
CONTINUOUS
 10
6.6297404493
 20
5.0411991826
 11
6.6208491993
 21
5.0411991826
  0
LINE
  5
35B
100
AcDbEntity
  8
03__ASM_ALL_CURVES
100
AcDbLine
 62
40
  6
CONTINUOUS
 10
6.4874804493
 20
5.0411991826
 11
6.4785891993
 21
5.0411991826
  0
LINE
  5
35C
100
AcDbEntity
  8
03__ASM_ALL_CURVES
100
AcDbLine
 62
40
  6
CONTINUOUS
 10
6.1318304493
 20
5.0411991826
 11
6.1229391993
 21
5.0411991826
  0
LINE
  5
35D
100
AcDbEntity
  8
03__ASM_ALL_CURVES
100
AcDbLine
 62
40
  6
CONTINUOUS
 10
6.0607004493
 20
5.0411991826
 11
6.0518091993
 21
5.0411991826
  0
LINE
  5
35E
100
AcDbEntity
  8
03__ASM_ALL_CURVES
100
AcDbLine
 62
40
  6
CONTINUOUS
 10
5.0883379493
 20
5.0411991826
 11
5.0794466993
 21
5.0411991826
  0
LINE
  5
35F
100
AcDbEntity
  8
03__ASM_ALL_CURVES
100
AcDbLine
 62
40
  6
CONTINUOUS
 10
5.0127623243
 20
5.0411991826
 11
5.0083166993
 21
5.0411991826
  0
LINE
  5
360
100
AcDbEntity
  8
03__ASM_ALL_CURVES
100
AcDbLine
 62
40
  6
CONTINUOUS
 10
4.8749479493
 20
5.0411991826
 11
4.8660566993
 21
5.0411991826
  0
LINE
  5
361
100
AcDbEntity
  8
03__ASM_ALL_CURVES
100
AcDbLine
 62
40
  6
CONTINUOUS
 10
4.6571123243
 20
5.0411991826
 11
4.6526666993
 21
5.0411991826
  0
LINE
  5
362
100
AcDbEntity
  8
03__ASM_ALL_CURVES
100
AcDbLine
 62
40
  6
CONTINUOUS
 10
4.5681998243
 20
5.0411991826
 11
4.6037648243
 21
5.0411991826
  0
LINE
  5
363
100
AcDbEntity
  8
03__ASM_ALL_CURVES
100
AcDbLine
 62
40
  6
CONTINUOUS
 10
5.9673423243
 20
5.0411991826
 11
6.0029073243
 21
5.0411991826
  0
LINE
  5
364
100
AcDbEntity
  8
03__ASM_ALL_CURVES
100
AcDbLine
 62
40
  6
CONTINUOUS
 10
6.8920323243
 20
5.0411991826
 11
6.9275973243
 21
5.0411991826
  0
LINE
  5
365
100
AcDbEntity
  8
03__ASM_ALL_CURVES
100
AcDbLine
 62
40
  6
CONTINUOUS
 10
6.1851779493
 20
5.0649091833
 11
6.2118516993
 21
5.0649091833
  0
LINE
  5
366
100
AcDbEntity
  8
03__ASM_ALL_CURVES
100
AcDbLine
 62
40
  6
CONTINUOUS
 10
7.1276504493
 20
5.0767641826
 11
7.1054223243
 21
5.0767641826
  0
LINE
  5
367
100
AcDbEntity
  8
03__ASM_ALL_CURVES
100
AcDbLine
 62
40
  6
CONTINUOUS
 10
6.4830348243
 20
5.0767641826
 11
6.5008173243
 21
5.0767641826
  0
LINE
  5
368
100
AcDbEntity
  8
03__ASM_ALL_CURVES
100
AcDbLine
 62
40
  6
CONTINUOUS
 10
6.6786423243
 20
5.0767641826
 11
6.7142073243
 21
5.0767641826
  0
LINE
  5
369
100
AcDbEntity
  8
03__ASM_ALL_CURVES
100
AcDbLine
 62
40
  6
CONTINUOUS
 10
7.0342923243
 20
5.0767641826
 11
7.0565204493
 21
5.0767641826
  0
LINE
  5
36A
100
AcDbEntity
  8
03__ASM_ALL_CURVES
100
AcDbLine
 62
40
  6
CONTINUOUS
 10
5.0794466993
 20
5.0826916812
 11
5.0883379493
 21
5.0826916812
  0
LINE
  5
36B
100
AcDbEntity
  8
03__ASM_ALL_CURVES
100
AcDbLine
 62
40
  6
CONTINUOUS
 10
4.8660566993
 20
5.088619184
 11
4.8749479493
 21
5.088619184
  0
LINE
  5
36C
100
AcDbEntity
  8
03__ASM_ALL_CURVES
100
AcDbLine
 62
40
  6
CONTINUOUS
 10
6.6297404493
 20
5.1123291826
 11
6.6208491993
 21
5.1123291826
  0
LINE
  5
36D
100
AcDbEntity
  8
03__ASM_ALL_CURVES
100
AcDbLine
 62
40
  6
CONTINUOUS
 10
4.8882848243
 20
5.1123291826
 11
4.8616110743
 21
5.1123291826
  0
LINE
  5
36E
100
AcDbEntity
  8
03__ASM_ALL_CURVES
100
AcDbLine
 62
40
  6
CONTINUOUS
 10
4.5815366993
 20
5.1123291826
 11
4.5904279493
 21
5.1123291826
  0
LINE
  5
36F
100
AcDbEntity
  8
03__ASM_ALL_CURVES
100
AcDbLine
 62
40
  6
CONTINUOUS
 10
5.0794466993
 20
5.1123291826
 11
5.0883379493
 21
5.1123291826
  0
LINE
  5
370
100
AcDbEntity
  8
03__ASM_ALL_CURVES
100
AcDbLine
 62
40
  6
CONTINUOUS
 10
6.0518091993
 20
5.1123291826
 11
6.0607004493
 21
5.1123291826
  0
LINE
  5
371
100
AcDbEntity
  8
03__ASM_ALL_CURVES
100
AcDbLine
 62
40
  6
CONTINUOUS
 10
6.1229391993
 20
5.1123291826
 11
6.1318304493
 21
5.1123291826
  0
LINE
  5
372
100
AcDbEntity
  8
03__ASM_ALL_CURVES
100
AcDbLine
 62
40
  6
CONTINUOUS
 10
6.2474166993
 20
5.1123291826
 11
6.2918729493
 21
5.1123291826
  0
LINE
  5
373
100
AcDbEntity
  8
03__ASM_ALL_CURVES
100
AcDbLine
 62
40
  6
CONTINUOUS
 10
6.4785891993
 20
5.1123291826
 11
6.4874804493
 21
5.1123291826
  0
LINE
  5
374
100
AcDbEntity
  8
03__ASM_ALL_CURVES
100
AcDbLine
 62
40
  6
CONTINUOUS
 10
6.7631091993
 20
5.1123291826
 11
6.7720004493
 21
5.1123291826
  0
LINE
  5
375
100
AcDbEntity
  8
03__ASM_ALL_CURVES
100
AcDbLine
 62
40
  6
CONTINUOUS
 10
6.9631623243
 20
5.1123291826
 11
6.9809448243
 21
5.1123291826
  0
LINE
  5
376
100
AcDbEntity
  8
03__ASM_ALL_CURVES
100
AcDbLine
 62
40
  6
CONTINUOUS
 10
7.0342923243
 20
5.1123291826
 11
7.0698573243
 21
5.1123291826
  0
LINE
  5
377
100
AcDbEntity
  8
03__ASM_ALL_CURVES
100
AcDbLine
 62
40
  6
CONTINUOUS
 10
7.1054223243
 20
5.1123291826
 11
7.1276504493
 21
5.1123291826
  0
LINE
  5
378
100
AcDbEntity
  8
03__ASM_ALL_CURVES
100
AcDbLine
 62
40
  6
CONTINUOUS
 10
5.8013723243
 20
5.0194650159
 11
5.9436323243
 21
5.0155133493
  0
LINE
  5
379
100
AcDbEntity
  8
03__ASM_ALL_CURVES
100
AcDbLine
 62
40
  6
CONTINUOUS
 10
5.8013723243
 20
5.0214408493
 11
5.9436323243
 21
5.0135375159
  0
LINE
  5
37A
100
AcDbEntity
  8
03__ASM_ALL_CURVES
100
AcDbLine
 62
40
  6
CONTINUOUS
 10
5.8013723243
 20
5.0234166826
 11
5.9436323243
 21
5.0115616826
  0
LINE
  5
37B
100
AcDbEntity
  8
03__ASM_ALL_CURVES
100
AcDbLine
 62
40
  6
CONTINUOUS
 10
5.8013723243
 20
5.0253925159
 11
5.9436323243
 21
5.0095858493
  0
LINE
  5
37C
100
AcDbEntity
  8
03__ASM_ALL_CURVES
100
AcDbLine
 62
40
  6
CONTINUOUS
 10
5.8013723243
 20
5.0273683493
 11
5.9436323243
 21
5.0076100159
  0
LINE
  5
37D
100
AcDbEntity
  8
03__ASM_ALL_CURVES
100
AcDbLine
 62
40
  6
CONTINUOUS
 10
5.9436323243
 20
5.0056341826
 11
5.8013723243
 21
5.0293441826
  0
LINE
  5
37E
100
AcDbEntity
  8
03__ASM_ALL_CURVES
100
AcDbLine
 62
40
  6
CONTINUOUS
 10
6.0518091993
 20
5.0411991826
 11
6.0429179493
 21
5.0471266828
  0
LINE
  5
37F
100
AcDbEntity
  8
03__ASM_ALL_CURVES
100
AcDbLine
 62
40
  6
CONTINUOUS
 10
6.1229391993
 20
5.0411991826
 11
6.1140479493
 21
5.0471266828
  0
LINE
  5
380
100
AcDbEntity
  8
03__ASM_ALL_CURVES
100
AcDbLine
 62
40
  6
CONTINUOUS
 10
7.570852481
 20
4.0892081826
 11
7.5641840435
 21
4.0936538077
  0
LINE
  5
381
100
AcDbEntity
  8
03__ASM_ALL_CURVES
100
AcDbLine
 62
40
  6
CONTINUOUS
 10
6.0607004493
 20
5.1123291826
 11
6.0695916993
 21
5.106401684
  0
LINE
  5
382
100
AcDbEntity
  8
03__ASM_ALL_CURVES
100
AcDbLine
 62
40
  6
CONTINUOUS
 10
7.5241734185
 20
4.1425556826
 11
7.530841856
 21
4.1381100587
  0
LINE
  5
383
100
AcDbEntity
  8
03__ASM_ALL_CURVES
100
AcDbLine
 62
40
  6
CONTINUOUS
 10
6.1407216993
 20
5.106401684
 11
6.1451673243
 21
5.1004741812
  0
LINE
  5
384
100
AcDbEntity
  8
03__ASM_ALL_CURVES
100
AcDbLine
 62
40
  6
CONTINUOUS
 10
6.7714837128
 20
3.4753425576
 11
6.768149494
 21
3.4886794326
  0
LINE
  5
385
100
AcDbEntity
  8
03__ASM_ALL_CURVES
100
AcDbLine
 62
40
  6
CONTINUOUS
 10
6.8048259003
 20
3.5020163076
 11
6.808160119
 21
3.4886794326
  0
LINE
  5
386
100
AcDbEntity
  8
03__ASM_ALL_CURVES
100
AcDbLine
 62
40
  6
CONTINUOUS
 10
6.4608066993
 20
5.0589816826
 11
6.4563610743
 21
5.0767641826
  0
LINE
  5
387
100
AcDbEntity
  8
0
100
AcDbLine
 62
7
  6
CONTINUOUS
 10
6.6625023243
 20
4.0148531826
 11
6.6625023243
 21
4.1398531826
  0
LINE
  5
388
100
AcDbEntity
  8
0
100
AcDbLine
 62
7
  6
CONTINUOUS
 10
6.6695023243
 20
4.0148531826
 11
6.6695023243
 21
4.1398531826
  0
LINE
  5
389
100
AcDbEntity
  8
03__ASM_ALL_CURVES
100
AcDbLine
 62
40
  6
CONTINUOUS
 10
6.6786423243
 20
5.1123291826
 11
6.6786423243
 21
5.0411991826
  0
LINE
  5
38A
100
AcDbEntity
  8
0
100
AcDbLine
 62
7
  6
CONTINUOUS
 10
6.6795023243
 20
4.0148531826
 11
6.6795023243
 21
4.1398531826
  0
LINE
  5
38B
100
AcDbEntity
  8
0
100
AcDbLine
 62
7
  6
CONTINUOUS
 10
6.6865023243
 20
4.0148531826
 11
6.6865023243
 21
4.1398531826
  0
LINE
  5
38C
100
AcDbEntity
  8
03__ASM_ALL_CURVES
100
AcDbLine
 62
40
  6
CONTINUOUS
 10
6.7142073243
 20
5.1123291826
 11
6.7142073243
 21
5.0411991826
  0
LINE
  5
38D
100
AcDbEntity
  8
03__ASM_ALL_CURVES
100
AcDbLine
 62
40
  6
CONTINUOUS
 10
6.7214704315
 20
3.4620056826
 11
6.7214704315
 21
3.5153531826
  0
LINE
  5
38E
100
AcDbEntity
  8
03__ASM_ALL_CURVES
100
AcDbLine
 62
40
  6
CONTINUOUS
 10
6.7481441815
 20
3.5064619315
 11
6.7481441815
 21
3.4975706837
  0
LINE
  5
38F
100
AcDbEntity
  8
03__ASM_ALL_CURVES
100
AcDbLine
 62
40
  6
CONTINUOUS
 10
7.0031729493
 20
5.0767641826
 11
6.9987273243
 21
5.0589816826
  0
LINE
  5
390
100
AcDbEntity
  8
03__ASM_ALL_CURVES
100
AcDbLine
 62
40
  6
CONTINUOUS
 10
3.9396323243
 20
5.0273683493
 11
3.8685023243
 21
5.0174891826
  0
LINE
  5
391
100
AcDbEntity
  8
03__ASM_ALL_CURVES
100
AcDbLine
 62
40
  6
CONTINUOUS
 10
3.9396323243
 20
5.0253925159
 11
3.8685023243
 21
5.0174891826
  0
LINE
  5
392
100
AcDbEntity
  8
03__ASM_ALL_CURVES
100
AcDbLine
 62
40
  6
CONTINUOUS
 10
3.9396323243
 20
5.0234166826
 11
3.8685023243
 21
5.0174891826
  0
LINE
  5
393
100
AcDbEntity
  8
03__ASM_ALL_CURVES
100
AcDbLine
 62
40
  6
CONTINUOUS
 10
7.5775209185
 20
4.1425556826
 11
7.584189356
 21
4.1381100587
  0
LINE
  5
394
100
AcDbEntity
  8
03__ASM_ALL_CURVES
100
AcDbLine
 62
40
  6
CONTINUOUS
 10
6.1318304493
 20
5.1123291826
 11
6.1407216993
 21
5.106401684
  0
LINE
  5
395
100
AcDbEntity
  8
03__ASM_ALL_CURVES
100
AcDbLine
 62
40
  6
CONTINUOUS
 10
7.6308684185
 20
4.1425556826
 11
7.637536856
 21
4.1381100587
  0
LINE
  5
396
100
AcDbEntity
  8
03__ASM_ALL_CURVES
100
AcDbLine
 62
40
  6
CONTINUOUS
 10
6.4696979493
 20
5.0471266828
 11
6.4608066993
 21
5.0589816826
  0
LINE
  5
397
100
AcDbEntity
  8
03__ASM_ALL_CURVES
100
AcDbLine
 62
40
  6
CONTINUOUS
 10
6.3941223243
 20
5.1123291826
 11
6.4296873243
 21
5.0411991826
  0
LINE
  5
398
100
AcDbEntity
  8
03__ASM_ALL_CURVES
100
AcDbLine
 62
40
  6
CONTINUOUS
 10
6.8209023243
 20
5.0530541829
 11
6.8209023243
 21
5.1123291826
  0
LINE
  5
399
100
AcDbEntity
  8
03__ASM_ALL_CURVES
100
AcDbLine
 62
40
  6
CONTINUOUS
 10
6.8281654315
 20
3.4620056826
 11
6.8281654315
 21
3.5153531826
  0
LINE
  5
39A
100
AcDbEntity
  8
03__ASM_ALL_CURVES
100
AcDbLine
 62
40
  6
CONTINUOUS
 10
6.8548391815
 20
3.5064619315
 11
6.8548391815
 21
3.4975706837
  0
LINE
  5
39B
100
AcDbEntity
  8
03__ASM_ALL_CURVES
100
AcDbLine
 62
40
  6
CONTINUOUS
 10
6.8564673243
 20
5.1123291826
 11
6.8564673243
 21
5.0530541829
  0
LINE
  5
39C
100
AcDbEntity
  8
03__ASM_ALL_CURVES
100
AcDbLine
 62
40
  6
CONTINUOUS
 10
6.8920323243
 20
5.1123291826
 11
6.8920323243
 21
5.0411991826
  0
LINE
  5
39D
100
AcDbEntity
  8
03__ASM_ALL_CURVES
100
AcDbLine
 62
40
  6
CONTINUOUS
 10
6.8948498065
 20
3.5153531826
 11
6.8948498065
 21
3.4620056826
  0
LINE
  5
39E
100
AcDbEntity
  8
0
100
AcDbLine
 62
7
  6
CONTINUOUS
 10
6.9325023243
 20
3.7353531826
 11
6.9325023243
 21
4.4193531826
  0
LINE
  5
39F
100
AcDbEntity
  8
03__ASM_ALL_CURVES
100
AcDbLine
 62
40
  6
CONTINUOUS
 10
6.768149494
 20
3.4886794326
 11
6.7714837128
 21
3.5020163076
  0
LINE
  5
3A0
100
AcDbEntity
  8
03__ASM_ALL_CURVES
100
AcDbLine
 62
40
  6
CONTINUOUS
 10
7.530841856
 20
4.1203275565
 11
7.5241734185
 21
4.1158819326
  0
LINE
  5
3A1
100
AcDbEntity
  8
03__ASM_ALL_CURVES
100
AcDbLine
 62
40
  6
CONTINUOUS
 10
7.5641840435
 20
4.1381100587
 11
7.570852481
 21
4.1425556826
  0
LINE
  5
3A2
100
AcDbEntity
  8
03__ASM_ALL_CURVES
100
AcDbLine
 62
40
  6
CONTINUOUS
 10
3.8685023243
 20
5.0174891826
 11
3.9396323243
 21
5.0293441826
  0
LINE
  5
3A3
100
AcDbEntity
  8
03__ASM_ALL_CURVES
100
AcDbLine
 62
40
  6
CONTINUOUS
 10
6.4785891993
 20
5.0411991826
 11
6.4696979493
 21
5.0471266828
  0
LINE
  5
3A4
100
AcDbEntity
  8
03__ASM_ALL_CURVES
100
AcDbLine
 62
40
  6
CONTINUOUS
 10
6.4874804493
 20
5.1123291826
 11
6.4963716993
 21
5.106401684
  0
LINE
  5
3A5
100
AcDbEntity
  8
03__ASM_ALL_CURVES
100
AcDbLine
 62
40
  6
CONTINUOUS
 10
6.6208491993
 20
5.0411991826
 11
6.6119579493
 21
5.0471266828
  0
LINE
  5
3A6
100
AcDbEntity
  8
03__ASM_ALL_CURVES
100
AcDbLine
 62
40
  6
CONTINUOUS
 10
6.6119579493
 20
5.088619184
 11
6.6386316993
 21
5.0708366819
  0
LINE
  5
3A7
100
AcDbEntity
  8
0
100
AcDbLine
 62
7
  6
CONTINUOUS
 10
7.2445023243
 20
4.4043531826
 11
7.2295023243
 21
4.4193531826
  0
LINE
  5
3A8
100
AcDbEntity
  8
03__ASM_ALL_CURVES
100
AcDbLine
 62
40
  6
CONTINUOUS
 10
6.4963716993
 20
5.106401684
 11
6.5008173243
 21
5.1004741812
  0
LINE
  5
3A9
100
AcDbEntity
  8
03__ASM_ALL_CURVES
100
AcDbLine
 62
40
  6
CONTINUOUS
 10
6.6119579493
 20
5.0471266828
 11
6.6030666993
 21
5.0589816826
  0
LINE
  5
3AA
100
AcDbEntity
  8
03__ASM_ALL_CURVES
100
AcDbLine
 62
40
  6
CONTINUOUS
 10
6.6075123243
 20
5.0945466826
 11
6.6119579493
 21
5.088619184
  0
LINE
  5
3AB
100
AcDbEntity
  8
03__ASM_ALL_CURVES
100
AcDbLine
 62
40
  6
CONTINUOUS
 10
6.7453266993
 20
5.0589816826
 11
6.7408810743
 21
5.0767641826
  0
LINE
  5
3AC
100
AcDbEntity
  8
03__ASM_ALL_CURVES
100
AcDbLine
 62
40
  6
CONTINUOUS
 10
6.9615341815
 20
3.5064619315
 11
6.9615341815
 21
3.4975706837
  0
LINE
  5
3AD
100
AcDbEntity
  8
03__ASM_ALL_CURVES
100
AcDbLine
 62
40
  6
CONTINUOUS
 10
6.9631623243
 20
5.0411991826
 11
6.9631623243
 21
5.1123291826
  0
LINE
  5
3AE
100
AcDbEntity
  8
0
100
AcDbLine
 62
7
  6
CONTINUOUS
 10
6.9905023243
 20
3.7338537048
 11
6.9905023243
 21
4.4208526604
  0
LINE
  5
3AF
100
AcDbEntity
  8
03__ASM_ALL_CURVES
100
AcDbLine
 62
40
  6
CONTINUOUS
 10
7.0342923243
 20
5.0411991826
 11
7.0342923243
 21
5.1123291826
  0
LINE
  5
3B0
100
AcDbEntity
  8
0
100
AcDbLine
 62
7
  6
CONTINUOUS
 10
7.0405023243
 20
3.7338537048
 11
7.0405023243
 21
4.4208526604
  0
LINE
  5
3B1
100
AcDbEntity
  8
03__ASM_ALL_CURVES
100
AcDbLine
 62
40
  6
CONTINUOUS
 10
6.808160119
 20
3.4886794326
 11
6.8048259003
 21
3.4753425576
  0
LINE
  5
3B2
100
AcDbEntity
  8
03__ASM_ALL_CURVES
100
AcDbLine
 62
40
  6
CONTINUOUS
 10
6.7481441815
 20
3.4975706837
 11
6.7448099628
 21
3.4931250565
  0
LINE
  5
3B3
100
AcDbEntity
  8
03__ASM_ALL_CURVES
100
AcDbLine
 62
40
  6
CONTINUOUS
 10
6.7714837128
 20
3.5020163076
 11
6.7781521503
 21
3.5109075587
  0
LINE
  5
3B4
100
AcDbEntity
  8
03__ASM_ALL_CURVES
100
AcDbLine
 62
40
  6
CONTINUOUS
 10
7.584189356
 20
4.0936538077
 11
7.5775209185
 21
4.0892081826
  0
LINE
  5
3B5
100
AcDbEntity
  8
03__ASM_ALL_CURVES
100
AcDbLine
 62
40
  6
CONTINUOUS
 10
7.637536856
 20
4.1203275565
 11
7.6308684185
 21
4.1158819326
  0
LINE
  5
3B6
100
AcDbEntity
  8
03__ASM_ALL_CURVES
100
AcDbLine
 62
40
  6
CONTINUOUS
 10
6.7448099628
 20
3.4931250565
 11
6.7381415253
 21
3.4886794326
  0
LINE
  5
3B7
100
AcDbEntity
  8
03__ASM_ALL_CURVES
100
AcDbLine
 62
40
  6
CONTINUOUS
 10
6.7781521503
 20
3.5109075587
 11
6.7848205878
 21
3.5153531826
  0
LINE
  5
3B8
100
AcDbEntity
  8
03__ASM_ALL_CURVES
100
AcDbLine
 62
40
  6
CONTINUOUS
 10
6.7981574628
 20
3.4664513077
 11
6.7914890253
 21
3.4620056826
  0
LINE
  5
3B9
100
AcDbEntity
  8
03__ASM_ALL_CURVES
100
AcDbLine
 62
40
  6
CONTINUOUS
 10
6.8515049628
 20
3.4931250565
 11
6.8448365253
 21
3.4886794326
  0
LINE
  5
3BA
100
AcDbEntity
  8
03__ASM_ALL_CURVES
100
AcDbLine
 62
40
  6
CONTINUOUS
 10
6.9381946503
 20
3.5109075587
 11
6.9448630878
 21
3.5153531826
  0
LINE
  5
3BB
100
AcDbEntity
  8
03__ASM_ALL_CURVES
100
AcDbLine
 62
40
  6
CONTINUOUS
 10
6.6386316993
 20
5.106401684
 11
6.6297404493
 21
5.1123291826
  0
LINE
  5
3BC
100
AcDbEntity
  8
03__ASM_ALL_CURVES
100
AcDbLine
 62
40
  6
CONTINUOUS
 10
6.7631091993
 20
5.0411991826
 11
6.7542179493
 21
5.0471266828
  0
LINE
  5
3BD
100
AcDbEntity
  8
03__ASM_ALL_CURVES
100
AcDbLine
 62
40
  6
CONTINUOUS
 10
6.8342391993
 20
5.0411991826
 11
6.8253479493
 21
5.0471266828
  0
LINE
  5
3BE
100
AcDbEntity
  8
03__ASM_ALL_CURVES
100
AcDbLine
 62
40
  6
CONTINUOUS
 10
6.7720004493
 20
5.1123291826
 11
6.7808916993
 21
5.106401684
  0
LINE
  5
3BF
100
AcDbEntity
  8
03__ASM_ALL_CURVES
100
AcDbLine
 62
40
  6
CONTINUOUS
 10
6.6386316993
 20
5.0708366819
 11
6.6430773243
 21
5.0649091833
  0
LINE
  5
3C0
100
AcDbEntity
  8
03__ASM_ALL_CURVES
100
AcDbLine
 62
40
  6
CONTINUOUS
 10
6.6430773243
 20
5.1004741812
 11
6.6386316993
 21
5.106401684
  0
LINE
  5
3C1
100
AcDbEntity
  8
03__ASM_ALL_CURVES
100
AcDbLine
 62
40
  6
CONTINUOUS
 10
6.7542179493
 20
5.0471266828
 11
6.7453266993
 21
5.0589816826
  0
LINE
  5
3C2
100
AcDbEntity
  8
03__ASM_ALL_CURVES
100
AcDbLine
 62
40
  6
CONTINUOUS
 10
6.7808916993
 20
5.106401684
 11
6.7897829493
 21
5.0945466826
  0
LINE
  5
3C3
100
AcDbEntity
  8
03__ASM_ALL_CURVES
100
AcDbLine
 62
40
  6
CONTINUOUS
 10
6.8253479493
 20
5.0471266828
 11
6.8209023243
 21
5.0530541829
  0
LINE
  5
3C4
100
AcDbEntity
  8
03__ASM_ALL_CURVES
100
AcDbLine
 62
40
  6
CONTINUOUS
 10
6.7897829493
 20
5.0945466826
 11
6.7942285743
 21
5.0767641826
  0
LINE
  5
3C5
100
AcDbEntity
  8
03__ASM_ALL_CURVES
100
AcDbLine
 62
40
  6
CONTINUOUS
 10
7.1054223243
 20
5.0411991826
 11
7.1054223243
 21
5.1123291826
  0
LINE
  5
3C6
100
AcDbEntity
  8
0
100
AcDbLine
 62
7
  6
CONTINUOUS
 10
7.1105023243
 20
3.7338537048
 11
7.1105023243
 21
4.4208526604
  0
LINE
  5
3C7
100
AcDbEntity
  8
03__ASM_ALL_CURVES
100
AcDbLine
 62
40
  6
CONTINUOUS
 10
7.1409873243
 20
5.1004741812
 11
7.1409873243
 21
5.088619184
  0
LINE
  5
3C8
100
AcDbEntity
  8
0
100
AcDbLine
 62
7
  6
CONTINUOUS
 10
7.1605023243
 20
3.7338537048
 11
7.1605023243
 21
4.4208526604
  0
LINE
  5
3C9
100
AcDbEntity
  8
0
100
AcDbLine
 62
7
  6
CONTINUOUS
 10
7.1885023243
 20
3.7353531826
 11
7.1885023243
 21
4.4193531826
  0
LINE
  5
3CA
100
AcDbEntity
  8
03__ASM_ALL_CURVES
100
AcDbLine
 62
40
  6
CONTINUOUS
 10
6.9381946503
 20
3.4753425576
 11
6.9348604315
 21
3.4620056826
  0
LINE
  5
3CB
100
AcDbEntity
  8
03__ASM_ALL_CURVES
100
AcDbLine
 62
40
  6
CONTINUOUS
 10
6.8048259003
 20
3.4753425576
 11
6.7981574628
 21
3.4664513077
  0
LINE
  5
3CC
100
AcDbEntity
  8
03__ASM_ALL_CURVES
100
AcDbLine
 62
40
  6
CONTINUOUS
 10
6.8548391815
 20
3.4975706837
 11
6.8515049628
 21
3.4931250565
  0
LINE
  5
3CD
100
AcDbEntity
  8
03__ASM_ALL_CURVES
100
AcDbLine
 62
40
  6
CONTINUOUS
 10
6.9348604315
 20
3.5064619315
 11
6.9381946503
 21
3.5109075587
  0
LINE
  5
3CE
100
AcDbEntity
  8
03__ASM_ALL_CURVES
100
AcDbLine
 62
40
  6
CONTINUOUS
 10
6.9448630878
 20
3.4842338071
 11
6.9381946503
 21
3.4753425576
  0
LINE
  5
3CF
100
AcDbEntity
  8
03__ASM_ALL_CURVES
100
AcDbLine
 62
40
  6
CONTINUOUS
 10
6.9615341815
 20
3.4975706837
 11
6.9581999628
 21
3.4931250565
  0
LINE
  5
3D0
100
AcDbEntity
  8
0
100
AcDbLine
 62
7
  6
CONTINUOUS
 10
7.2445023243
 20
3.7503531826
 11
7.2295023243
 21
3.7353531826
  0
LINE
  5
3D1
100
AcDbEntity
  8
03__ASM_ALL_CURVES
100
AcDbLine
 62
40
  6
CONTINUOUS
 10
6.9581999628
 20
3.4931250565
 11
6.9448630878
 21
3.4842338071
  0
LINE
  5
3D2
100
AcDbEntity
  8
03__ASM_ALL_CURVES
100
AcDbLine
 62
40
  6
CONTINUOUS
 10
6.9809448243
 20
5.1123291826
 11
6.9898360743
 21
5.106401684
  0
LINE
  5
3D3
100
AcDbEntity
  8
03__ASM_ALL_CURVES
100
AcDbLine
 62
40
  6
CONTINUOUS
 10
7.5641840435
 20
4.0936538077
 11
7.557515606
 21
4.1025450576
  0
LINE
  5
3D4
100
AcDbEntity
  8
03__ASM_ALL_CURVES
100
AcDbLine
 62
40
  6
CONTINUOUS
 10
7.530841856
 20
4.1381100587
 11
7.5341760748
 21
4.1336644315
  0
LINE
  5
3D5
100
AcDbEntity
  8
03__ASM_ALL_CURVES
100
AcDbLine
 62
40
  6
CONTINUOUS
 10
7.584189356
 20
4.1381100587
 11
7.5908577935
 21
4.1292188076
  0
LINE
  5
3D6
100
AcDbEntity
  8
03__ASM_ALL_CURVES
100
AcDbLine
 62
40
  6
CONTINUOUS
 10
7.637536856
 20
4.1381100587
 11
7.6408710748
 21
4.1336644315
  0
LINE
  5
3D7
100
AcDbEntity
  8
03__ASM_ALL_CURVES
100
AcDbLine
 62
40
  6
CONTINUOUS
 10
6.9987273243
 20
5.0945466826
 11
7.0031729493
 21
5.0767641826
  0
LINE
  5
3D8
100
AcDbEntity
  8
0
100
AcDbLine
 62
7
  6
CONTINUOUS
 10
7.2295023243
 20
3.7353531826
 11
7.2295023243
 21
4.4193531826
  0
LINE
  5
3D9
100
AcDbEntity
  8
0
100
AcDbLine
 62
7
  6
CONTINUOUS
 10
7.2445023243
 20
3.7503531826
 11
7.2445023243
 21
4.4043531826
  0
LINE
  5
3DA
100
AcDbEntity
  8
03__ASM_ALL_CURVES
100
AcDbLine
 62
40
  6
CONTINUOUS
 10
7.5341760748
 20
4.1247731837
 11
7.530841856
 21
4.1203275565
  0
LINE
  5
3DB
100
AcDbEntity
  8
03__ASM_ALL_CURVES
100
AcDbLine
 62
40
  6
CONTINUOUS
 10
7.557515606
 20
4.1292188076
 11
7.5641840435
 21
4.1381100587
  0
LINE
  5
3DC
100
AcDbEntity
  8
03__ASM_ALL_CURVES
100
AcDbLine
 62
40
  6
CONTINUOUS
 10
7.5908577935
 20
4.1025450576
 11
7.584189356
 21
4.0936538077
  0
LINE
  5
3DD
100
AcDbEntity
  8
03__ASM_ALL_CURVES
100
AcDbLine
 62
40
  6
CONTINUOUS
 10
7.1276504493
 20
5.1123291826
 11
7.1365416993
 21
5.106401684
  0
LINE
  5
3DE
100
AcDbEntity
  8
03__ASM_ALL_CURVES
100
AcDbLine
 62
40
  6
CONTINUOUS
 10
6.9898360743
 20
5.106401684
 11
6.9987273243
 21
5.0945466826
  0
LINE
  5
3DF
100
AcDbEntity
  8
03__ASM_ALL_CURVES
100
AcDbLine
 62
40
  6
CONTINUOUS
 10
7.1365416993
 20
5.106401684
 11
7.1409873243
 21
5.1004741812
  0
LINE
  5
3E0
100
AcDbEntity
  8
03__ASM_ALL_CURVES
100
AcDbLine
 62
40
  6
CONTINUOUS
 10
7.1276504493
 20
5.0767641826
 11
7.1409873243
 21
5.0411991826
  0
LINE
  5
3E1
100
AcDbEntity
  8
03__ASM_ALL_CURVES
100
AcDbLine
 62
40
  6
CONTINUOUS
 10
7.6408710748
 20
4.1247731837
 11
7.637536856
 21
4.1203275565
  0
LINE
  5
3E2
100
AcDbEntity
  8
03__ASM_ALL_CURVES
100
AcDbLine
 62
40
  6
CONTINUOUS
 10
7.6308684185
 20
4.1158819326
 11
7.6408710748
 21
4.0892081826
  0
LINE
  5
3E3
100
AcDbEntity
  8
03__ASM_ALL_CURVES
100
AcDbLine
 62
40
  6
CONTINUOUS
 10
7.557515606
 20
4.1025450576
 11
7.5541813873
 21
4.1158819326
  0
LINE
  5
3E4
100
AcDbEntity
  8
03__ASM_ALL_CURVES
100
AcDbLine
 62
40
  6
CONTINUOUS
 10
7.5908577935
 20
4.1292188076
 11
7.5941920123
 21
4.1158819326
  0
LINE
  5
3E5
100
AcDbEntity
  8
03__ASM_ALL_CURVES
100
AcDbLine
 62
40
  6
CONTINUOUS
 10
7.5075023248
 20
4.0892081826
 11
7.5075023248
 21
4.1425556826
  0
LINE
  5
3E6
100
AcDbEntity
  8
03__ASM_ALL_CURVES
100
AcDbLine
 62
40
  6
CONTINUOUS
 10
7.5341760748
 20
4.1336644315
 11
7.5341760748
 21
4.1247731837
  0
LINE
  5
3E7
100
AcDbEntity
  8
03__ASM_ALL_CURVES
100
AcDbLine
 62
40
  6
CONTINUOUS
 10
7.6141973248
 20
4.0892081826
 11
7.6141973248
 21
4.1425556826
  0
LINE
  5
3E8
100
AcDbEntity
  8
03__ASM_ALL_CURVES
100
AcDbLine
 62
40
  6
CONTINUOUS
 10
7.6408710748
 20
4.1336644315
 11
7.6408710748
 21
4.1247731837
  0
LINE
  5
3E9
100
AcDbEntity
  8
03__ASM_ALL_CURVES
100
AcDbLine
 62
40
  6
CONTINUOUS
 10
7.5541813873
 20
4.1158819326
 11
7.557515606
 21
4.1292188076
  0
LINE
  5
3EA
100
AcDbEntity
  8
03__ASM_ALL_CURVES
100
AcDbLine
 62
40
  6
CONTINUOUS
 10
7.5941920123
 20
4.1158819326
 11
7.5908577935
 21
4.1025450576
  0
LINE
  5
3EB
100
AcDbEntity
  8
03__ASM_ALL_CURVES
100
AcDbLine
 62
40
  6
CONTINUOUS
 10
7.6808816998
 20
4.1425556826
 11
7.6808816998
 21
4.0892081826
  0
LINE
  5
3EC
100
AcDbEntity
  8
03__ASM_ALL_CURVES
100
AcDbLine
 62
40
  6
CONTINUOUS
 10
7.7342291998
 20
4.1425556826
 11
7.7342291998
 21
4.0892081826
  0
ARC
  5
3ED
100
AcDbEntity
  8
0
100
AcDbCircle
 62
7
  6
CONTINUOUS
 10
4.2785023243
 20
4.2543531826
 40
0.094
100
AcDbArc
 50
90.0
 51
131.267427381
  0
ARC
  5
3EE
100
AcDbEntity
  8
0
100
AcDbCircle
 62
7
  6
CONTINUOUS
 10
4.2785023243
 20
3.9003531826
 40
0.094
100
AcDbArc
 50
228.732572619
 51
270.0
  0
ARC
  5
3EF
100
AcDbEntity
  8
125-199_FEATURES
100
AcDbCircle
 62
7
  6
CONTINUOUS
 10
6.6940023243
 20
4.0773531826
 40
0.0625
100
AcDbArc
 50
270.0
 51
90.0
  0
ARC
  5
3F0
100
AcDbEntity
  8
125-199_FEATURES
100
AcDbCircle
 62
7
  6
CONTINUOUS
 10
6.4910023243
 20
4.0773531826
 40
0.0625
100
AcDbArc
 50
90.0
 51
270.0
  0
SPLINE
  5
3F1
100
AcDbEntity
  8
0
100
AcDbSpline
 62
7
  6
CONTINUOUS
 70
0
 71
3
 72
15
 73
11
 74
9
 42
0.0000001
 43
0.0000001
 44
0.0000000001
 12
0.0
 22
0.1099409465
 32
0.0
 13
0.0
 23
-0.1099409465
 33
0.0
 40
0.0
 40
0.0
 40
0.0
 40
0.0
 40
0.125
 40
0.25
 40
0.375
 40
0.5
 40
0.625
 40
0.75
 40
0.875
 40
1.0
 40
1.0
 40
1.0
 40
1.0
 10
7.1105023243
 20
4.4018531826
 30
0.0
 10
7.1105023243
 20
4.4064340554
 30
0.0
 10
7.1086799398
 20
4.4155958009
 30
0.0
 10
7.1008953719
 20
4.4272462302
 30
0.0
 10
7.0892449426
 20
4.4350307981
 30
0.0
 10
7.0755023243
 20
4.4377643748
 30
0.0
 10
7.061759706
 20
4.4350307981
 30
0.0
 10
7.0501092768
 20
4.4272462302
 30
0.0
 10
7.0423247088
 20
4.4155958009
 30
0.0
 10
7.0405023243
 20
4.4064340554
 30
0.0
 10
7.0405023243
 20
4.4018531826
 30
0.0
 11
7.1105023243
 21
4.4018531826
 31
0.0
 11
7.107838108
 21
4.4152471027
 31
0.0
 11
7.1002510617
 21
4.4266019199
 31
0.0
 11
7.0888962445
 21
4.4341889662
 31
0.0
 11
7.0755023243
 21
4.4368531826
 31
0.0
 11
7.0621084042
 21
4.4341889662
 31
0.0
 11
7.050753587
 21
4.4266019199
 31
0.0
 11
7.0431665407
 21
4.4152471027
 31
0.0
 11
7.0405023243
 21
4.4018531826
 31
0.0
  0
SPLINE
  5
3F2
100
AcDbEntity
  8
0
100
AcDbSpline
 62
7
  6
CONTINUOUS
 70
0
 71
3
 72
15
 73
11
 74
9
 42
0.0000001
 43
0.0000001
 44
0.0000000001
 12
0.0
 22
-0.1099409465
 32
0.0
 13
0.0
 23
0.1099409465
 33
0.0
 40
0.0
 40
0.0
 40
0.0
 40
0.0
 40
0.125
 40
0.25
 40
0.375
 40
0.5
 40
0.625
 40
0.75
 40
0.875
 40
1.0
 40
1.0
 40
1.0
 40
1.0
 10
7.1105023243
 20
3.7528531826
 30
0.0
 10
7.1105023243
 20
3.7482723098
 30
0.0
 10
7.1086799398
 20
3.7391105643
 30
0.0
 10
7.1008953719
 20
3.727460135
 30
0.0
 10
7.0892449426
 20
3.7196755671
 30
0.0
 10
7.0755023243
 20
3.7169419903
 30
0.0
 10
7.061759706
 20
3.7196755671
 30
0.0
 10
7.0501092768
 20
3.727460135
 30
0.0
 10
7.0423247088
 20
3.7391105643
 30
0.0
 10
7.0405023243
 20
3.7482723098
 30
0.0
 10
7.0405023243
 20
3.7528531826
 30
0.0
 11
7.1105023243
 21
3.7528531826
 31
0.0
 11
7.107838108
 21
3.7394592625
 31
0.0
 11
7.1002510617
 21
3.7281044453
 31
0.0
 11
7.0888962445
 21
3.720517399
 31
0.0
 11
7.0755023243
 21
3.7178531826
 31
0.0
 11
7.0621084042
 21
3.720517399
 31
0.0
 11
7.050753587
 21
3.7281044453
 31
0.0
 11
7.0431665407
 21
3.7394592625
 31
0.0
 11
7.0405023243
 21
3.7528531826
 31
0.0
  0
SPLINE
  5
3F3
100
AcDbEntity
  8
0
100
AcDbSpline
 62
7
  6
CONTINUOUS
 70
0
 71
3
 72
14
 73
10
 74
8
 42
0.0000001
 43
0.0000001
 44
0.0000000001
 12
0.0
 22
0.0923501321
 32
0.0
 13
-0.0445331995
 23
-0.0809161858
 33
0.0
 40
0.0
 40
0.0
 40
0.0
 40
0.0
 40
0.1488099475
 40
0.297619895
 40
0.4464298425
 40
0.59523979
 40
0.7440497375
 40
0.892859685
 40
1.0
 40
1.0
 40
1.0
 40
1.0
 10
5.9895023243
 20
4.4628531826
 30
0.0
 10
5.9895023243
 20
4.4674340554
 30
0.0
 10
5.9876799398
 20
4.4765958009
 30
0.0
 10
5.9798953719
 20
4.4882462302
 30
0.0
 10
5.9682449426
 20
4.4960307981
 30
0.0
 10
5.9545023243
 20
4.4987643748
 30
0.0
 10
5.940759706
 20
4.4960307981
 30
0.0
 10
5.9301967245
 20
4.4889728395
 30
0.0
 10
5.9254233043
 20
4.4826036519
 30
0.0
 10
5.9238328706
 20
4.4797138567
 30
0.0
 11
5.9895023243
 21
4.4628531826
 31
0.0
 11
5.986838108
 21
4.4762471027
 31
0.0
 11
5.9792510617
 21
4.4876019199
 31
0.0
 11
5.9678962445
 21
4.4951889662
 31
0.0
 11
5.9545023243
 21
4.4978531826
 31
0.0
 11
5.9411084042
 21
4.4951889662
 31
0.0
 11
5.929753587
 21
4.4876019199
 31
0.0
 11
5.9238328706
 21
4.4797138567
 31
0.0
  0
SPLINE
  5
3F4
100
AcDbEntity
  8
0
100
AcDbSpline
 62
7
  6
CONTINUOUS
 70
0
 71
3
 72
9
 73
5
 74
3
 42
0.0000001
 43
0.0000001
 44
0.0000000001
 12
-0.0084826651
 22
-0.0154128811
 32
0.0
 13
0.0
 23
-0.0175908144
 33
0.0
 40
0.0
 40
0.0
 40
0.0
 40
0.0
 40
0.2187616778
 40
1.0
 40
1.0
 40
1.0
 40
1.0
 10
5.9238328706
 20
4.4797138567
 30
0.0
 10
5.9232143099
 20
4.4785899408
 30
0.0
 10
5.9206686678
 20
4.4732976602
 30
0.0
 10
5.9195023243
 20
4.4674340554
 30
0.0
 10
5.9195023243
 20
4.4628531826
 30
0.0
 11
5.9238328706
 21
4.4797138567
 31
0.0
 11
5.9221665407
 21
4.4762471027
 31
0.0
 11
5.9195023243
 21
4.4628531826
 31
0.0
  0
SPLINE
  5
3F5
100
AcDbEntity
  8
0
100
AcDbSpline
 62
7
  6
CONTINUOUS
 70
0
 71
3
 72
14
 73
10
 74
8
 42
0.0000001
 43
0.0000001
 44
0.0000000001
 12
0.0
 22
-0.0923501321
 32
0.0
 13
-0.0445331995
 23
0.0809161858
 33
0.0
 40
0.0
 40
0.0
 40
0.0
 40
0.0
 40
0.1488099475
 40
0.297619895
 40
0.4464298425
 40
0.59523979
 40
0.7440497375
 40
0.892859685
 40
1.0
 40
1.0
 40
1.0
 40
1.0
 10
5.9895023243
 20
3.6918531826
 30
0.0
 10
5.9895023243
 20
3.6872723098
 30
0.0
 10
5.9876799398
 20
3.6781105643
 30
0.0
 10
5.9798953719
 20
3.666460135
 30
0.0
 10
5.9682449426
 20
3.6586755671
 30
0.0
 10
5.9545023243
 20
3.6559419903
 30
0.0
 10
5.940759706
 20
3.6586755671
 30
0.0
 10
5.9301967245
 20
3.6657335257
 30
0.0
 10
5.9254233043
 20
3.6721027133
 30
0.0
 10
5.9238328706
 20
3.6749925085
 30
0.0
 11
5.9895023243
 21
3.6918531826
 31
0.0
 11
5.986838108
 21
3.6784592625
 31
0.0
 11
5.9792510617
 21
3.6671044453
 31
0.0
 11
5.9678962445
 21
3.659517399
 31
0.0
 11
5.9545023243
 21
3.6568531826
 31
0.0
 11
5.9411084042
 21
3.659517399
 31
0.0
 11
5.929753587
 21
3.6671044453
 31
0.0
 11
5.9238328706
 21
3.6749925085
 31
0.0
  0
SPLINE
  5
3F6
100
AcDbEntity
  8
0
100
AcDbSpline
 62
7
  6
CONTINUOUS
 70
0
 71
3
 72
9
 73
5
 74
3
 42
0.0000001
 43
0.0000001
 44
0.0000000001
 12
-0.0084826651
 22
0.0154128811
 32
0.0
 13
0.0
 23
0.0175908144
 33
0.0
 40
0.0
 40
0.0
 40
0.0
 40
0.0
 40
0.2187616778
 40
1.0
 40
1.0
 40
1.0
 40
1.0
 10
5.9238328706
 20
3.6749925085
 30
0.0
 10
5.9232143099
 20
3.6761164244
 30
0.0
 10
5.9206686678
 20
3.681408705
 30
0.0
 10
5.9195023243
 20
3.6872723098
 30
0.0
 10
5.9195023243
 20
3.6918531826
 30
0.0
 11
5.9238328706
 21
3.6749925085
 31
0.0
 11
5.9221665407
 21
3.6784592625
 31
0.0
 11
5.9195023243
 21
3.6918531826
 31
0.0
  0
SPLINE
  5
3F7
100
AcDbEntity
  8
0
100
AcDbSpline
 62
7
  6
CONTINUOUS
 70
0
 71
3
 72
16
 73
12
 74
10
 42
0.0000001
 43
0.0000001
 44
0.0000000001
 12
0.0906480335
 22
0.2719441006
 32
0.0
 13
-0.0906480335
 23
0.2719441006
 33
0.0
 40
0.0
 40
0.0
 40
0.0
 40
0.0
 40
0.1184548733
 40
0.230565332
 40
0.3393089466
 40
0.4465959239
 40
0.5535015371
 40
0.6607803311
 40
0.769505023
 40
0.8815660643
 40
1.0
 40
1.0
 40
1.0
 40
1.0
 10
4.466630914
 20
3.7963531826
 30
0.0
 10
4.4702101477
 20
3.8070908839
 30
0.0
 10
4.4766412344
 20
3.8281769308
 30
0.0
 10
4.484160664
 20
3.8597379856
 30
0.0
 10
4.4892488915
 20
3.8907068037
 30
0.0
 10
4.4918357537
 20
3.9214898733
 30
0.0
 10
4.4918345654
 20
3.9522436743
 30
0.0
 10
4.4892457248
 20
3.9830239657
 30
0.0
 10
4.48415699
 20
4.0139852675
 30
0.0
 10
4.4766387333
 20
4.0455377991
 30
0.0
 10
4.4702095151
 20
4.0666173792
 30
0.0
 10
4.466630914
 20
4.0773531826
 30
0.0
 11
4.466630914
 21
3.7963531826
 31
0.0
 11
4.4764693835
 21
3.8288522105
 31
0.0
 11
4.483856554
 21
3.8601286009
 31
0.0
 11
4.4888611714
 21
3.8908960534
 31
0.0
 11
4.4914081367
 21
3.9215446746
 31
0.0
 11
4.4914069666
 21
3.9521896231
 31
0.0
 11
4.4888580265
 21
3.9828357262
 31
0.0
 11
4.4838525874
 21
4.0135975494
 31
0.0
 11
4.476467816
 21
4.044859951
 31
0.0
 11
4.466630914
 21
4.0773531826
 31
0.0
  0
SPLINE
  5
3F8
100
AcDbEntity
  8
0
100
AcDbSpline
 62
7
  6
CONTINUOUS
 70
0
 71
3
 72
17
 73
13
 74
11
 42
0.0000001
 43
0.0000001
 44
0.0000000001
 12
-0.1487434696
 22
0.2576312467
 32
0.0
 13
0.1487434696
 23
0.2576312467
 33
0.0
 40
0.0
 40
0.0
 40
0.0
 40
0.0
 40
0.1169386465
 40
0.2216811606
 40
0.3184580982
 40
0.4103908543
 40
0.5000417254
 40
0.5896883004
 40
0.6816074548
 40
0.7783545182
 40
0.8830694657
 40
1.0
 40
1.0
 40
1.0
 40
1.0
 10
4.3649731756
 20
3.7963531826
 30
0.0
 10
4.3591752223
 20
3.8063955324
 30
0.0
 10
4.3488353947
 20
3.8258253798
 30
0.0
 10
4.3364617713
 20
3.8549274574
 30
0.0
 10
4.3278083245
 20
3.8827690201
 30
0.0
 10
4.3226512199
 20
3.9099523397
 30
0.0
 10
4.3209343396
 20
3.9368652246
 30
0.0
 10
4.3226542252
 20
3.9637765494
 30
0.0
 10
4.3278129769
 20
3.99095469
 30
0.0
 10
4.3364658287
 20
4.018788996
 30
0.0
 10
4.3488374161
 20
4.0478848357
 30
0.0
 10
4.3591756245
 20
4.0673115295
 30
0.0
 10
4.3649731756
 20
4.0773531826
 30
0.0
 11
4.3649731756
 21
3.7963531826
 31
0.0
 11
4.3487469442
 21
3.8271248396
 31
0.0
 11
4.3366621877
 21
3.8558454762
 31
0.0
 11
4.3282095144
 21
3.8833665448
 31
0.0
 11
4.323176629
 21
3.91024826
 31
0.0
 11
4.3215023247
 21
3.9368656161
 31
0.0
 11
4.323179567
 21
3.9634815066
 31
0.0
 11
4.3282142137
 21
3.9903587753
 31
0.0
 11
4.3366658287
 21
4.0178708719
 31
0.0
 11
4.3487479799
 21
4.0465837076
 31
0.0
 11
4.3649731756
 21
4.0773531826
 31
0.0
  0
SPLINE
  5
3F9
100
AcDbEntity
  8
0
100
AcDbSpline
 62
7
  6
CONTINUOUS
 70
0
 71
3
 72
16
 73
12
 74
10
 42
0.0000001
 43
0.0000001
 44
0.0000000001
 12
0.0906480335
 22
0.2719441006
 32
0.0
 13
-0.0906480335
 23
0.2719441006
 33
0.0
 40
0.0
 40
0.0
 40
0.0
 40
0.0
 40
0.1184548733
 40
0.230565332
 40
0.3393089466
 40
0.4465959239
 40
0.5535015371
 40
0.6607803311
 40
0.769505023
 40
0.8815660643
 40
1.0
 40
1.0
 40
1.0
 40
1.0
 10
4.466630914
 20
4.0773531826
 30
0.0
 10
4.4702101477
 20
4.0880908839
 30
0.0
 10
4.4766412344
 20
4.1091769308
 30
0.0
 10
4.484160664
 20
4.1407379856
 30
0.0
 10
4.4892488915
 20
4.1717068037
 30
0.0
 10
4.4918357537
 20
4.2024898733
 30
0.0
 10
4.4918345654
 20
4.2332436743
 30
0.0
 10
4.4892457248
 20
4.2640239657
 30
0.0
 10
4.48415699
 20
4.2949852675
 30
0.0
 10
4.4766387333
 20
4.3265377991
 30
0.0
 10
4.4702095151
 20
4.3476173792
 30
0.0
 10
4.466630914
 20
4.3583531826
 30
0.0
 11
4.466630914
 21
4.0773531826
 31
0.0
 11
4.4764693835
 21
4.1098522105
 31
0.0
 11
4.483856554
 21
4.1411286009
 31
0.0
 11
4.4888611714
 21
4.1718960534
 31
0.0
 11
4.4914081367
 21
4.2025446746
 31
0.0
 11
4.4914069666
 21
4.2331896231
 31
0.0
 11
4.4888580265
 21
4.2638357262
 31
0.0
 11
4.4838525874
 21
4.2945975494
 31
0.0
 11
4.476467816
 21
4.325859951
 31
0.0
 11
4.466630914
 21
4.3583531826
 31
0.0
  0
SPLINE
  5
3FA
100
AcDbEntity
  8
0
100
AcDbSpline
 62
7
  6
CONTINUOUS
 70
0
 71
3
 72
17
 73
13
 74
11
 42
0.0000001
 43
0.0000001
 44
0.0000000001
 12
-0.1487434696
 22
0.2576312467
 32
0.0
 13
0.1487434696
 23
0.2576312467
 33
0.0
 40
0.0
 40
0.0
 40
0.0
 40
0.0
 40
0.1169386465
 40
0.2216811606
 40
0.3184580982
 40
0.4103908543
 40
0.5000417254
 40
0.5896883004
 40
0.6816074548
 40
0.7783545182
 40
0.8830694657
 40
1.0
 40
1.0
 40
1.0
 40
1.0
 10
4.3649731756
 20
4.0773531826
 30
0.0
 10
4.3591752223
 20
4.0873955324
 30
0.0
 10
4.3488353947
 20
4.1068253798
 30
0.0
 10
4.3364617713
 20
4.1359274574
 30
0.0
 10
4.3278083245
 20
4.1637690201
 30
0.0
 10
4.3226512199
 20
4.1909523397
 30
0.0
 10
4.3209343396
 20
4.2178652246
 30
0.0
 10
4.3226542252
 20
4.2447765494
 30
0.0
 10
4.3278129769
 20
4.27195469
 30
0.0
 10
4.3364658287
 20
4.299788996
 30
0.0
 10
4.3488374161
 20
4.3288848357
 30
0.0
 10
4.3591756245
 20
4.3483115295
 30
0.0
 10
4.3649731756
 20
4.3583531826
 30
0.0
 11
4.3649731756
 21
4.0773531826
 31
0.0
 11
4.3487469442
 21
4.1081248396
 31
0.0
 11
4.3366621877
 21
4.1368454762
 31
0.0
 11
4.3282095144
 21
4.1643665448
 31
0.0
 11
4.323176629
 21
4.19124826
 31
0.0
 11
4.3215023247
 21
4.2178656161
 31
0.0
 11
4.323179567
 21
4.2444815066
 31
0.0
 11
4.3282142137
 21
4.2713587753
 31
0.0
 11
4.3366658287
 21
4.2988708719
 31
0.0
 11
4.3487479799
 21
4.3275837076
 31
0.0
 11
4.3649731756
 21
4.3583531826
 31
0.0
  0
SPLINE
  5
3FB
100
AcDbEntity
  8
125-199_FEATURES
100
AcDbSpline
 62
7
  6
CONTINUOUS
 70
0
 71
3
 72
9
 73
5
 74
3
 42
0.0000001
 43
0.0000001
 44
0.0000000001
 12
0.0039928174
 22
0.0048684337
 32
0.0
 13
0.0040073266
 23
0.0048564992
 33
0.0
 40
0.0
 40
0.0
 40
0.0
 40
0.0
 40
0.2393862694
 40
1.0
 40
1.0
 40
1.0
 40
1.0
 10
6.4285023243
 20
3.7923531826
 30
0.0
 10
6.4288209329
 20
3.7927416613
 30
0.0
 10
6.4301524337
 20
3.7943640125
 30
0.0
 10
6.4314863151
 20
3.7959844097
 30
0.0
 10
6.4325023243
 20
3.7972157163
 30
0.0
 11
6.4285023243
 21
3.7923531826
 31
0.0
 11
6.4294585553
 21
3.7935182865
 31
0.0
 11
6.4325023243
 21
3.7972157163
 31
0.0
  0
SPLINE
  5
3FC
100
AcDbEntity
  8
125-199_FEATURES
100
AcDbSpline
 62
7
  6
CONTINUOUS
 70
0
 71
3
 72
9
 73
5
 74
3
 42
0.0000001
 43
0.0000001
 44
0.0000000001
 12
-0.0040073266
 22
0.0048564992
 32
0.0
 13
-0.0039928174
 23
0.0048684337
 33
0.0
 40
0.0
 40
0.0
 40
0.0
 40
0.0
 40
0.7601756544
 40
1.0
 40
1.0
 40
1.0
 40
1.0
 10
6.4325023243
 20
4.3574906489
 30
0.0
 10
6.4314869003
 20
4.3587212463
 30
0.0
 10
6.4301530178
 20
4.3603416426
 30
0.0
 10
6.4288215159
 20
4.361963993
 30
0.0
 10
6.4285023243
 20
4.3623531826
 30
0.0
 11
6.4325023243
 21
4.3574906489
 31
0.0
 11
6.429460306
 21
4.3611859471
 31
0.0
 11
6.4285023243
 21
4.3623531826
 31
0.0
  0
SPLINE
  5
3FD
100
AcDbEntity
  8
125-199_FEATURES
100
AcDbSpline
 62
7
  6
CONTINUOUS
 70
0
 71
3
 72
13
 73
9
 74
7
 42
0.0000001
 43
0.0000001
 44
0.0000000001
 12
0.0576822022
 22
0.0120455463
 32
0.0
 13
0.0589264936
 23
0.0
 33
0.0
 40
0.0
 40
0.0
 40
0.0
 40
0.0
 40
0.0979153523
 40
0.230908203
 40
0.3940825
 40
0.5824003348
 40
0.7875820285
 40
1.0
 40
1.0
 40
1.0
 40
1.0
 10
6.4325023243
 20
3.7972157163
 30
0.0
 10
6.4343849821
 20
3.7976088643
 30
0.0
 10
6.4388334075
 20
3.7984950019
 30
0.0
 10
6.4464575712
 20
3.799837718
 30
0.0
 10
6.4558758855
 20
3.8012119718
 30
0.0
 10
6.4667482104
 20
3.8024007163
 30
0.0
 10
6.4786261705
 20
3.8032043143
 30
0.0
 10
6.4868299756
 20
3.8033919627
 30
0.0
 10
6.4910023243
 20
3.8033919627
 30
0.0
 11
6.4325023243
 21
3.7972157163
 31
0.0
 11
6.4381610353
 21
3.7983425164
 31
0.0
 11
6.4458792299
 21
3.7997008034
 31
0.0
 11
6.4553939941
 21
3.8010875438
 31
0.0
 11
6.4664253687
 21
3.8022917772
 31
0.0
 11
6.4784885379
 21
3.8031063142
 31
0.0
 11
6.4910023243
 21
3.8033919627
 31
0.0
  0
SPLINE
  5
3FE
100
AcDbEntity
  8
125-199_FEATURES
100
AcDbSpline
 62
7
  6
CONTINUOUS
 70
0
 71
3
 72
13
 73
9
 74
7
 42
0.0000001
 43
0.0000001
 44
0.0000000001
 12
-0.0589264953
 22
0.0
 32
0.0
 13
-0.0576822039
 23
0.0120455467
 33
0.0
 40
0.0
 40
0.0
 40
0.0
 40
0.0
 40
0.2125095767
 40
0.4175600805
 40
0.6056465586
 40
0.7687805541
 40
0.9020780435
 40
1.0
 40
1.0
 40
1.0
 40
1.0
 10
6.4910023243
 20
4.3513144025
 30
0.0
 10
6.4868281761
 20
4.3513144025
 30
0.0
 10
6.4786251468
 20
4.3515021144
 30
0.0
 10
6.4667525073
 20
4.3523054172
 30
0.0
 10
6.4558880185
 20
4.3534929467
 30
0.0
 10
6.4464689828
 20
4.3548667395
 30
0.0
 10
6.4388395311
 20
4.3562101451
 30
0.0
 10
6.4343851091
 20
4.3570974744
 30
0.0
 10
6.4325023243
 20
4.3574906489
 30
0.0
 11
6.4910023243
 21
4.3513144025
 31
0.0
 11
6.4784831438
 21
4.3516002972
 31
0.0
 11
6.4664276918
 21
4.3524143805
 31
0.0
 11
6.4554098307
 21
4.3536167806
 31
0.0
 11
6.4458973349
 21
4.35500262
 31
0.0
 11
6.4381614179
 21
4.3563637763
 31
0.0
 11
6.4325023243
 21
4.3574906489
 31
0.0
  0
SPLINE
  5
3FF
100
AcDbEntity
  8
125-199_FEATURES
100
AcDbSpline
 62
7
  6
CONTINUOUS
 70
0
 71
3
 72
15
 73
11
 74
9
 42
0.0000001
 43
0.0000001
 44
0.0000000001
 12
-0.0615153402
 22
-0.0136822464
 32
0.0
 13
-0.0630186305
 23
0.0
 33
0.0
 40
0.0
 40
0.0
 40
0.0
 40
0.0
 40
0.0185279059
 40
0.0772637988
 40
0.1714693097
 40
0.2959845752
 40
0.4468390098
 40
0.6195240358
 40
0.8067066514
 40
1.0
 40
1.0
 40
1.0
 40
1.0
 10
6.6995023243
 20
4.3583531826
 30
0.0
 10
6.6991224075
 20
4.3582686815
 30
0.0
 10
6.6975374549
 20
4.3579192106
 30
0.0
 10
6.694014075
 20
4.3571707284
 30
0.0
 10
6.6882945589
 20
4.3560479727
 30
0.0
 10
6.6806437531
 20
4.3547254995
 30
0.0
 10
6.6713246426
 20
4.3533951183
 30
0.0
 10
6.6606541836
 20
4.3522566106
 30
0.0
 10
6.6490561901
 20
4.3514923211
 30
0.0
 10
6.641062685
 20
4.3513144025
 30
0.0
 10
6.6370023243
 20
4.3513144025
 30
0.0
 11
6.6995023243
 21
4.3583531826
 31
0.0
 11
6.6983621084
 21
4.3581017767
 31
0.0
 11
6.6947414236
 21
4.3573327418
 31
0.0
 11
6.6889158152
 21
4.3561896231
 31
0.0
 11
6.6811835313
 21
4.3548540458
 31
0.0
 11
6.6717720974
 21
4.3535119904
 31
0.0
 11
6.6609509588
 21
4.3523591591
 31
0.0
 11
6.6491804019
 21
4.3515849378
 31
0.0
 11
6.6370023243
 21
4.3513144025
 31
0.0
  0
SPLINE
  5
400
100
AcDbEntity
  8
125-199_FEATURES
100
AcDbSpline
 62
7
  6
CONTINUOUS
 70
0
 71
3
 72
15
 73
11
 74
9
 42
0.0000001
 43
0.0000001
 44
0.0000000001
 12
0.0630186224
 22
0.0
 32
0.0
 13
0.0615153346
 23
-0.0136822449
 33
0.0
 40
0.0
 40
0.0
 40
0.0
 40
0.0
 40
0.1936432169
 40
0.3809005731
 40
0.5536186742
 40
0.7045209923
 40
0.8294453202
 40
0.9235141603
 40
0.9816426337
 40
1.0
 40
1.0
 40
1.0
 40
1.0
 10
6.6370023243
 20
3.8033919627
 30
0.0
 10
6.6410700339
 20
3.8033919627
 30
0.0
 10
6.6490724638
 20
3.8032135221
 30
0.0
 10
6.6606799854
 20
3.8024475771
 30
0.0
 10
6.6713535853
 20
3.8013076739
 30
0.0
 10
6.6806827474
 20
3.7999748642
 30
0.0
 10
6.6883399903
 20
3.7986500954
 30
0.0
 10
6.6940524036
 20
3.7975277059
 30
0.0
 10
6.6975569166
 20
3.7967828845
 30
0.0
 10
6.6991259045
 20
3.7964369059
 30
0.0
 10
6.6995023243
 20
3.7963531826
 30
0.0
 11
6.6370023243
 21
3.8033919627
 31
0.0
 11
6.6492024322
 21
3.8031204482
 31
0.0
 11
6.6609776194
 21
3.8023448831
 31
0.0
 11
6.6718007161
 21
3.8011907701
 31
0.0
 11
6.6812149963
 21
3.7998473081
 31
0.0
 11
6.6889724816
 21
3.7985061865
 31
0.0
 11
6.6947894396
 21
3.7973637173
 31
0.0
 11
6.6983726078
 21
3.7966022936
 31
0.0
 11
6.6995023243
 21
3.7963531826
 31
0.0
  0
SPLINE
  5
401
100
AcDbEntity
  8
0
100
AcDbSpline
 62
7
  6
CONTINUOUS
 70
0
 71
3
 72
11
 73
7
 74
5
 42
0.0000001
 43
0.0000001
 44
0.0000000001
 12
-0.0523509287
 22
0.1015082672
 32
0.0
 13
-0.0
 23
0.1142127315
 33
0.0
 40
0.0
 40
0.0
 40
0.0
 40
0.0
 40
0.269004701
 40
0.5212442733
 40
0.7630879372
 40
1.0
 40
1.0
 40
1.0
 40
1.0
 10
5.2122358632
 20
3.5892507101
 30
0.0
 10
5.2075416479
 20
3.5983527771
 30
0.0
 10
5.1991538285
 20
3.6163735359
 30
0.0
 10
5.1896515816
 20
3.6438911896
 30
0.0
 10
5.1838301657
 20
3.6711823873
 30
0.0
 10
5.1825100875
 20
3.6894337246
 30
0.0
 10
5.1825100875
 20
3.6984531825
 30
0.0
 11
5.2122358632
 21
3.5892507101
 31
0.0
 11
5.1993893192
 21
3.6171597738
 31
0.0
 11
5.1901001504
 21
3.644430053
 31
0.0
 11
5.1844269413
 21
3.6714627904
 31
0.0
 11
5.1825100875
 21
3.6984531825
 31
0.0
  0
SPLINE
  5
402
100
AcDbEntity
  8
0
100
AcDbSpline
 62
7
  6
CONTINUOUS
 70
0
 71
3
 72
8
 73
4
 74
2
 42
0.0000001
 43
0.0000001
 44
0.0000000001
 12
-0.0
 22
0.0053804276
 32
0.0
 13
0.0001539618
 23
0.005380857
 33
0.0
 40
0.0
 40
0.0
 40
0.0
 40
0.0
 40
1.0
 40
1.0
 40
1.0
 40
1.0
 10
5.1825100875
 20
3.6984531825
 30
0.0
 10
5.1825100875
 20
3.7002466584
 30
0.0
 10
5.1825359164
 20
3.702040617
 30
0.0
 10
5.182587237
 20
3.7038342361
 30
0.0
 11
5.1825100875
 21
3.6984531825
 31
0.0
 11
5.182587237
 21
3.7038342361
 31
0.0
  0
SPLINE
  5
403
100
AcDbEntity
  8
0
100
AcDbSpline
 62
7
  6
CONTINUOUS
 70
0
 71
3
 72
11
 73
7
 74
5
 42
0.0000001
 43
0.0000001
 44
0.0000000001
 12
0.0031142537
 22
0.1088409883
 32
0.0
 13
0.0498847366
 23
0.0967263292
 33
0.0
 40
0.0
 40
0.0
 40
0.0
 40
0.0
 40
0.1992306996
 40
0.4530435575
 40
0.7177068346
 40
1.0
 40
1.0
 40
1.0
 40
1.0
 10
5.182587237
 20
3.7038342361
 30
0.0
 10
5.1827940553
 20
3.7110623915
 30
0.0
 10
5.1842057612
 20
3.7274864181
 30
0.0
 10
5.189652772
 20
3.7530190721
 30
0.0
 10
5.1991548514
 20
3.7805350594
 30
0.0
 10
5.2075418231
 20
3.7985539279
 30
0.0
 10
5.2122358632
 20
3.8076556551
 30
0.0
 11
5.182587237
 21
3.7038342361
 31
0.0
 11
5.1844276135
 21
3.7254483281
 31
0.0
 11
5.1901018085
 21
3.7524823012
 31
0.0
 11
5.1993897477
 21
3.7797476568
 31
0.0
 11
5.2122358632
 21
3.8076556551
 31
0.0
  0
SPLINE
  5
404
100
AcDbEntity
  8
0
100
AcDbSpline
 62
7
  6
CONTINUOUS
 70
0
 71
3
 72
15
 73
11
 74
9
 42
0.0000001
 43
0.0000001
 44
0.0000000001
 12
0.1643031241
 22
0.1839340856
 32
0.0
 13
-0.1643031241
 23
0.1839340856
 33
0.0
 40
0.0
 40
0.0
 40
0.0
 40
0.0
 40
0.1498215377
 40
0.2783315905
 40
0.3927788038
 40
0.5000592815
 40
0.6073304266
 40
0.7217569014
 40
0.8502022558
 40
1.0
 40
1.0
 40
1.0
 40
1.0
 10
5.6240023243
 20
3.5892507101
 30
0.0
 10
5.6322077066
 20
3.5984364726
 30
0.0
 10
5.6466394861
 20
3.6162794312
 30
0.0
 10
5.6632372148
 20
3.6441378453
 30
0.0
 10
5.6732223218
 20
3.6713649193
 30
0.0
 10
5.6765833449
 20
3.698467275
 30
0.0
 10
5.6732155712
 20
3.7255669388
 30
0.0
 10
5.6632284539
 20
3.7527847154
 30
0.0
 10
5.6466337243
 20
3.7806341758
 30
0.0
 10
5.6322064035
 20
3.7984713514
 30
0.0
 10
5.6240023243
 20
3.8076556551
 30
0.0
 11
5.6240023243
 21
3.5892507101
 31
0.0
 11
5.6469707981
 21
3.6181956231
 31
0.0
 11
5.662896983
 21
3.6455983381
 31
0.0
 11
5.6723459804
 21
3.6721961195
 31
0.0
 11
5.6754862894
 21
3.6984678834
 31
0.0
 11
5.6723397011
 21
3.7247365779
 31
0.0
 11
5.662887669
 21
3.7513278527
 31
0.0
 11
5.6469674615
 21
3.7787155857
 31
0.0
 11
5.6240023243
 21
3.8076556551
 31
0.0
  0
SPLINE
  5
405
100
AcDbEntity
  8
0
100
AcDbSpline
 62
7
  6
CONTINUOUS
 70
0
 71
3
 72
11
 73
7
 74
5
 42
0.0000001
 43
0.0000001
 44
0.0000000001
 12
-0.0551781963
 22
0.2139806584
 32
0.0
 13
-0.0
 23
0.2209804415
 33
0.0
 40
0.0
 40
0.0
 40
0.0
 40
0.0
 40
0.2591965564
 40
0.5095623962
 40
0.7555674757
 40
1.0
 40
1.0
 40
1.0
 40
1.0
 10
5.2122358632
 20
3.8589482376
 30
0.0
 10
5.2074685304
 20
3.8774359209
 30
0.0
 10
5.1989867852
 20
3.91402101
 30
0.0
 10
5.1895594294
 20
3.9689065809
 30
0.0
 10
5.1838074637
 20
4.0232099129
 30
0.0
 10
5.1825100875
 20
4.0593482467
 30
0.0
 10
5.1825100875
 20
4.0773531825
 30
0.0
 11
5.2122358632
 21
3.8589482376
 31
0.0
 11
5.1993893192
 21
3.9147663651
 31
0.0
 11
5.1901001504
 21
3.9693069235
 31
0.0
 11
5.1844269413
 21
4.0233723983
 31
0.0
 11
5.1825100875
 21
4.0773531825
 31
0.0
  0
SPLINE
  5
406
100
AcDbEntity
  8
0
100
AcDbSpline
 62
7
  6
CONTINUOUS
 70
0
 71
3
 72
11
 73
7
 74
5
 42
0.0000001
 43
0.0000001
 44
0.0000000001
 12
-0.0
 22
0.2209804405
 32
0.0
 13
0.0551781961
 23
0.2139806575
 33
0.0
 40
0.0
 40
0.0
 40
0.0
 40
0.0
 40
0.2444756281
 40
0.490492297
 40
0.7408132744
 40
1.0
 40
1.0
 40
1.0
 40
1.0
 10
5.1825100875
 20
4.0773531825
 30
0.0
 10
5.1825100875
 20
4.0953612931
 30
0.0
 10
5.1838078395
 20
4.1315036618
 30
0.0
 10
5.1895606155
 20
4.1858076383
 30
0.0
 10
5.1989878429
 20
4.2406899916
 30
0.0
 10
5.2074687112
 20
4.2772711456
 30
0.0
 10
5.2122358632
 20
4.2957581276
 30
0.0
 11
5.1825100875
 21
4.0773531825
 31
0.0
 11
5.1844276135
 21
4.1313434736
 31
0.0
 11
5.1901018085
 21
4.1854114198
 31
0.0
 11
5.1993897477
 21
4.2399421309
 31
0.0
 11
5.2122358632
 21
4.2957581276
 31
0.0
  0
SPLINE
  5
407
100
AcDbEntity
  8
0
100
AcDbSpline
 62
7
  6
CONTINUOUS
 70
0
 71
3
 72
15
 73
11
 74
9
 42
0.0000001
 43
0.0000001
 44
0.0000000001
 12
0.1843202379
 22
0.4126856942
 32
0.0
 13
-0.1843202379
 23
0.4126856942
 33
0.0
 40
0.0
 40
0.0
 40
0.0
 40
0.0
 40
0.1377942686
 40
0.2640673782
 40
0.3836049145
 40
0.5000649493
 40
0.6165122554
 40
0.736022619
 40
0.8622283762
 40
1.0
 40
1.0
 40
1.0
 40
1.0
 10
5.6240023243
 20
3.8589482376
 30
0.0
 10
5.6324684151
 20
3.8779034787
 30
0.0
 10
5.6472999579
 20
3.9148844176
 30
0.0
 10
5.6636370731
 20
3.9704206987
 30
0.0
 10
5.6733302426
 20
4.024251438
 30
0.0
 10
5.6765518991
 20
4.0773807409
 30
0.0
 10
5.673323709
 20
4.1305054915
 30
0.0
 10
5.6636281874
 20
4.1843192741
 30
0.0
 10
5.647293738
 20
4.2398377693
 30
0.0
 10
5.6324670238
 20
4.2768060015
 30
0.0
 10
5.6240023243
 20
4.2957581276
 30
0.0
 11
5.6240023243
 21
3.8589482376
 31
0.0
 11
5.6469707981
 21
3.9168380636
 31
0.0
 11
5.662896983
 21
3.9716434937
 31
0.0
 11
5.6723459804
 21
4.0248390563
 31
0.0
 11
5.6754862894
 21
4.0773825843
 31
0.0
 11
5.6723397011
 21
4.1299199732
 31
0.0
 11
5.662887669
 21
4.1831025229
 31
0.0
 11
5.6469674615
 21
4.2378779889
 31
0.0
 11
5.6240023243
 21
4.2957581276
 31
0.0
  0
SPLINE
  5
408
100
AcDbEntity
  8
0
100
AcDbSpline
 62
7
  6
CONTINUOUS
 70
0
 71
3
 72
11
 73
7
 74
5
 42
0.0000001
 43
0.0000001
 44
0.0000000001
 12
-0.0498847344
 22
0.0967263251
 32
0.0
 13
-0.0031142479
 23
0.1088409726
 33
0.0
 40
0.0
 40
0.0
 40
0.0
 40
0.0
 40
0.2823037165
 40
0.5470134722
 40
0.8008133682
 40
1.0
 40
1.0
 40
1.0
 40
1.0
 10
5.2122358632
 20
4.3470507101
 30
0.0
 10
5.2075416479
 20
4.3561527771
 30
0.0
 10
5.1991538285
 20
4.3741735359
 30
0.0
 10
5.1896515816
 20
4.4016911896
 30
0.0
 10
5.1842053261
 20
4.4272236098
 30
0.0
 10
5.1827940091
 20
4.443645566
 30
0.0
 10
5.1825872369
 20
4.4508721215
 30
0.0
 11
5.2122358632
 21
4.3470507101
 31
0.0
 11
5.1993893192
 21
4.3749597738
 31
0.0
 11
5.1901001504
 21
4.402230053
 31
0.0
 11
5.1844269413
 21
4.4292627904
 31
0.0
 11
5.1825872369
 21
4.4508721215
 31
0.0
  0
SPLINE
  5
409
100
AcDbEntity
  8
0
100
AcDbSpline
 62
7
  6
CONTINUOUS
 70
0
 71
3
 72
8
 73
4
 74
2
 42
0.0000001
 43
0.0000001
 44
0.0000000001
 12
-0.0001539617
 22
0.0053808642
 32
0.0
 13
-0.0
 23
0.0053804353
 33
0.0
 40
0.0
 40
0.0
 40
0.0
 40
0.0
 40
1.0
 40
1.0
 40
1.0
 40
1.0
 10
5.1825872369
 20
4.4508721215
 30
0.0
 10
5.1825359163
 20
4.4526657429
 30
0.0
 10
5.1825100875
 20
4.4544597041
 30
0.0
 10
5.1825100875
 20
4.4562531825
 30
0.0
 11
5.1825872369
 21
4.4508721215
 31
0.0
 11
5.1825100875
 21
4.4562531825
 31
0.0
  0
SPLINE
  5
40A
100
AcDbEntity
  8
0
100
AcDbSpline
 62
7
  6
CONTINUOUS
 70
0
 71
3
 72
11
 73
7
 74
5
 42
0.0000001
 43
0.0000001
 44
0.0000000001
 12
-0.0
 22
0.1142127284
 32
0.0
 13
0.0523509273
 23
0.1015082644
 33
0.0
 40
0.0
 40
0.0
 40
0.0
 40
0.0
 40
0.2369540013
 40
0.4788100334
 40
0.7310053343
 40
1.0
 40
1.0
 40
1.0
 40
1.0
 10
5.1825100875
 20
4.4562531825
 30
0.0
 10
5.1825100875
 20
4.4652742369
 30
0.0
 10
5.1838305548
 20
4.4835276529
 30
0.0
 10
5.189652772
 20
4.5108190721
 30
0.0
 10
5.1991548514
 20
4.5383350594
 30
0.0
 10
5.2075418231
 20
4.5563539279
 30
0.0
 10
5.2122358632
 20
4.5654556551
 30
0.0
 11
5.1825100875
 21
4.4562531825
 31
0.0
 11
5.1844276135
 21
4.4832483281
 31
0.0
 11
5.1901018085
 21
4.5102823012
 31
0.0
 11
5.1993897477
 21
4.5375476568
 31
0.0
 11
5.2122358632
 21
4.5654556551
 31
0.0
  0
SPLINE
  5
40B
100
AcDbEntity
  8
0
100
AcDbSpline
 62
7
  6
CONTINUOUS
 70
0
 71
3
 72
15
 73
11
 74
9
 42
0.0000001
 43
0.0000001
 44
0.0000000001
 12
0.1643031241
 22
0.1839340856
 32
0.0
 13
-0.1643031241
 23
0.1839340856
 33
0.0
 40
0.0
 40
0.0
 40
0.0
 40
0.0
 40
0.1498215377
 40
0.2783315905
 40
0.3927788038
 40
0.5000592815
 40
0.6073304266
 40
0.7217569014
 40
0.8502022558
 40
1.0
 40
1.0
 40
1.0
 40
1.0
 10
5.6240023243
 20
4.3470507101
 30
0.0
 10
5.6322077066
 20
4.3562364726
 30
0.0
 10
5.6466394861
 20
4.3740794312
 30
0.0
 10
5.6632372148
 20
4.4019378453
 30
0.0
 10
5.6732223218
 20
4.4291649193
 30
0.0
 10
5.6765833449
 20
4.456267275
 30
0.0
 10
5.6732155712
 20
4.4833669388
 30
0.0
 10
5.6632284539
 20
4.5105847154
 30
0.0
 10
5.6466337243
 20
4.5384341758
 30
0.0
 10
5.6322064035
 20
4.5562713514
 30
0.0
 10
5.6240023243
 20
4.5654556551
 30
0.0
 11
5.6240023243
 21
4.3470507101
 31
0.0
 11
5.6469707981
 21
4.3759956231
 31
0.0
 11
5.662896983
 21
4.4033983381
 31
0.0
 11
5.6723459804
 21
4.4299961195
 31
0.0
 11
5.6754862894
 21
4.4562678834
 31
0.0
 11
5.6723397011
 21
4.4825365779
 31
0.0
 11
5.662887669
 21
4.5091278527
 31
0.0
 11
5.6469674615
 21
4.5365155857
 31
0.0
 11
5.6240023243
 21
4.5654556551
 31
0.0
  0
ENDSEC
  0
SECTION
  2
OBJECTS
  0
DICTIONARY
  5
C
100
AcDbDictionary
280
0
281
1
  3
ACAD_GROUP
350
D
  3
ACAD_MLINESTYLE
350
17
  3
ACAD_LAYOUT
350
1A
  3
ACAD_PLOTSETTINGS
350
19
  3
ACAD_PLOTSTYLENAME
350
E
  0
DICTIONARY
  5
D
102
{ACAD_REACTORS
330
C
102
}
100
AcDbDictionary
280
0
281
1
  0
ACDBDICTIONARYWDFLT
  5
E
102
{ACAD_REACTORS
330
C
102
}
100
AcDbDictionary
281
1
  3
Normal
350
F
100
AcDbDictionaryWithDefault
340
F
  0
DICTIONARY
  5
17
102
{ACAD_REACTORS
330
C
102
}
100
AcDbDictionary
280
0
281
1
  3
Standard
350
18
  0
DICTIONARY
  5
19
102
{ACAD_REACTORS
330
C
102
}
100
AcDbDictionary
281
1
  0
DICTIONARY
  5
1A
102
{ACAD_REACTORS
330
C
102
}
100
AcDbDictionary
281
1
  3
Layout1
350
1E
  3
Model
350
22
  0
ACDBPLACEHOLDER
  5
F
102
{ACAD_REACTORS
330
E
102
}
  0
MLINESTYLE
  5
18
102
{ACAD_REACTORS
330
17
102
}
100
AcDbMlineStyle
  2
STANDARD
 70
0
  3

 62
256
 51
90.0
 52
90.0
 71
2
 49
0.5
 62
256
  6
BYLAYER
 49
-0.5
 62
256
  6
BYLAYER
  0
LAYOUT
  5
1E
102
{ACAD_REACTORS
330
1A
102
}
100
AcDbPlotSettings
  1

  2

  4

  6

 40
0.0
 41
0.0
 42
0.0
 43
0.0
 44
0.0
 45
0.0
 46
0.0
 47
0.0
 48
0.0
 49
0.0
140
0.0
141
0.0
142
1.0
143
1.0
 70
0
 72
0
 73
0
 74
0
  7

 75
0
147
1.0
148
0.0
149
0.0
100
AcDbLayout
  1
Layout1
 70
0
 71
0
 10
0.0
 20
0.0
 11
0.0
 21
0.0
 12
0.0
 22
0.0
 32
0.0
 14
0.0
 24
0.0
 34
0.0
 15
0.0
 25
0.0
 35
0.0
146
0.0
 13
0.0
 23
0.0
 33
0.0
 16
0.0
 26
0.0
 36
0.0
 17
0.0
 27
0.0
 37
0.0
 76
0
330
1B
331
0
345
0
346
0
  0
LAYOUT
  5
22
102
{ACAD_REACTORS
330
1A
102
}
100
AcDbPlotSettings
  1

  2

  4

  6

 40
0.0
 41
0.0
 42
0.0
 43
0.0
 44
0.0
 45
0.0
 46
0.0
 47
0.0
 48
0.0
 49
0.0
140
0.0
141
0.0
142
1.0
143
1.0
 70
0
 72
0
 73
0
 74
0
  7

 75
0
147
1.0
148
0.0
149
0.0
100
AcDbLayout
  1
Model
 70
0
 71
0
 10
0.0
 20
0.0
 11
0.0
 21
0.0
 12
0.0
 22
0.0
 32
0.0
 14
0.0
 24
0.0
 34
0.0
 15
0.0
 25
0.0
 35
0.0
146
0.0
 13
0.0
 23
0.0
 33
0.0
 16
0.0
 26
0.0
 36
0.0
 17
0.0
 27
0.0
 37
0.0
 76
0
330
1F
331
0
345
0
346
0
  0
ENDSEC
  0
EOF
