999
DXF file: NFCC-LCN.dxf
999
Pro/ENGINEER 2006240 by Parametric Technology Corporation
  0
SECTION
  2
HEADER
  9
$ACADVER
  1
AC1015
  9
$DWGCODEPAGE
  3
ANSI_1252
  9
$EXTMAX
 10
11.6929133858
 20
8.2677165354
 30
0.0
  9
$EXTMIN
 10
0.0
 20
0.0
 30
0.0
  9
$LIMMIN
 10
0.0
 20
0.0
  9
$LIMMAX
 10
11.6929133858
 20
8.2677165354
  9
$VIEWCTR
 10
5.8464566929
 20
4.1338582677
  9
$VIEWSIZE
 40
8.2677165354
  9
$CLAYER
  8
0
  9
$LTSCALE
 40
0.6431102362
  9
$CELTYPE
  6
BYLAYER
  9
$DIMSCALE
 40
1.0
  9
$DIMASZ
 40
0.1875
  9
$DIMEXO
 40
0.0730807087
  9
$DIMDLI
 40
0.4443307087
  9
$DIMEXE
 40
0.2104724409
  9
$DIMCEN
 40
0.1052362205
  9
$DIMLFAC
 40
1.0
  9
$DIMBLK
  1
_CLOSED
  9
$DIMTXT
 40
0.15625
  9
$DIMTOL
 70
0
  9
$DIMLIM
 70
0
  9
$DIMTFAC
 40
1.0
  9
$PDMODE
 70
3
  9
$PDSIZE
 40
0.3125
  9
$HANDSEED
  5
40E
  9
$MEASUREMENT
 70
0
  9
$INSUNITS
 70
1
  0
ENDSEC
  0
SECTION
  2
CLASSES
  0
CLASS
  1
ACDBDICTIONARYWDFLT
  2
AcDbDictionaryWithDefault
  3
AutoCAD 2000
 90
0
280
0
281
0
  0
CLASS
  1
ACDBPLACEHOLDER
  2
AcDbPlaceHolder
  3
AutoCAD 2000
 90
0
280
0
281
0
  0
CLASS
  1
LAYOUT
  2
AcDbLayout
  3
AutoCAD 2000
 90
0
280
0
281
0
  0
ENDSEC
  0
SECTION
  2
TABLES
  0
TABLE
  2
VPORT
  5
8
100
AcDbSymbolTable
 70
2
  0
VPORT
  5
1F4
100
AcDbSymbolTableRecord
100
AcDbViewportTableRecord
  2
*ACTIVE
 70
0
 10
0.0
 20
0.0
 11
1.0
 21
1.0
 12
5.8464566929
 22
4.1338582677
 13
0.0
 23
0.0
 14
1.0
 24
1.0
 15
0.0
 25
0.0
 16
0.0
 26
0.0
 36
1.0
 17
0.0
 27
0.0
 37
0.0
 40
8.2677165354
 41
1.4142857143
 42
50.0
 43
0.0
 44
0.0
 50
0.0
 51
0.0
 71
0
 72
100
 73
1
 74
1
 75
0
 76
0
 77
0
 78
0
  0
ENDTAB
  0
TABLE
  2
LTYPE
  5
5
100
AcDbSymbolTable
 70
6
  0
LTYPE
  5
14
100
AcDbSymbolTableRecord
100
AcDbLinetypeTableRecord
  2
BYBLOCK
 70
0
  3

 72
65
 73
0
 40
0.0
  0
LTYPE
  5
15
100
AcDbSymbolTableRecord
100
AcDbLinetypeTableRecord
  2
BYLAYER
 70
0
  3

 72
65
 73
0
 40
0.0
  0
LTYPE
  5
16
100
AcDbSymbolTableRecord
100
AcDbLinetypeTableRecord
  2
CONTINUOUS
 70
64
  3
Solid line
 72
65
 73
0
 40
0.0
  0
LTYPE
  5
1F5
100
AcDbSymbolTableRecord
100
AcDbLinetypeTableRecord
  2
CENTER
 70
64
  3
____ _ ____ _ ____ _ ____ _ ____ _ ____ _ ____
 72
65
 73
4
 40
0.6
 49
0.375
 74
0
 49
-0.075
 74
0
 49
0.075
 74
0
 49
-0.075
 74
0
  0
LTYPE
  5
1F6
100
AcDbSymbolTableRecord
100
AcDbLinetypeTableRecord
  2
HIDDEN
 70
64
  3
- - - - - - - - - - - - - - - - - - - -
 72
65
 73
2
 40
0.2
 49
0.1
 74
0
 49
-0.1
 74
0
  0
LTYPE
  5
1F7
100
AcDbSymbolTableRecord
100
AcDbLinetypeTableRecord
  2
PHANTOM
 70
64
  3
_____ _ _ _____ _ _ _____ _ _ _____
 72
65
 73
6
 40
0.8
 49
0.45
 74
0
 49
-0.05
 74
0
 49
0.1
 74
0
 49
-0.05
 74
0
 49
0.1
 74
0
 49
-0.05
 74
0
  0
LTYPE
  5
1F8
100
AcDbSymbolTableRecord
100
AcDbLinetypeTableRecord
  2
DOT
 70
64
  3
. . . . . . . . . . . . . . . . . . . .
 72
65
 73
2
 40
0.2
 49
0.1
 74
0
 49
-0.1
 74
0
  0
LTYPE
  5
1F9
100
AcDbSymbolTableRecord
100
AcDbLinetypeTableRecord
  2
DASHED
 70
64
  3
- - - - - - - - - - - - - - - - - - - -
 72
65
 73
2
 40
0.2
 49
0.1
 74
0
 49
-0.1
 74
0
  0
ENDTAB
  0
TABLE
  2
LAYER
  5
2
100
AcDbSymbolTable
 70
36
  0
LAYER
  5
10
100
AcDbSymbolTableRecord
100
AcDbLayerTableRecord
  2
0
 70
0
 62
7
  6
CONTINUOUS
370
-3
390
F
  0
LAYER
  5
1FA
100
AcDbSymbolTableRecord
100
AcDbLayerTableRecord
  2
DEFAULT_1
 70
0
 62
7
  6
CENTER
370
-3
390
F
  0
LAYER
  5
1FB
100
AcDbSymbolTableRecord
100
AcDbLayerTableRecord
  2
DEFAULT_2
 70
0
 62
8
  6
HIDDEN
370
-3
390
F
  0
LAYER
  5
1FC
100
AcDbSymbolTableRecord
100
AcDbLayerTableRecord
  2
DEFAULT_3
 70
0
 62
7
  6
PHANTOM
370
-3
390
F
  0
LAYER
  5
1FD
100
AcDbSymbolTableRecord
100
AcDbLayerTableRecord
  2
_BLACK_HOLE
 70
0
 62
7
  6
CONTINUOUS
370
-3
390
F
  0
LAYER
  5
1FE
100
AcDbSymbolTableRecord
100
AcDbLayerTableRecord
  2
01_ALL_DTM_PLN
 70
0
 62
7
  6
CONTINUOUS
370
-3
390
F
  0
LAYER
  5
1FF
100
AcDbSymbolTableRecord
100
AcDbLayerTableRecord
  2
01__ASM_ALL_DTM_PLN
 70
0
 62
7
  6
CONTINUOUS
370
-3
390
F
  0
LAYER
  5
200
100
AcDbSymbolTableRecord
100
AcDbLayerTableRecord
  2
01__ASM_DEF_DTM_PLN
 70
0
 62
7
  6
CONTINUOUS
370
-3
390
F
  0
LAYER
  5
201
100
AcDbSymbolTableRecord
100
AcDbLayerTableRecord
  2
01___PRT_ALL_DTM_PLN
 70
0
 62
7
  6
CONTINUOUS
370
-3
390
F
  0
LAYER
  5
202
100
AcDbSymbolTableRecord
100
AcDbLayerTableRecord
  2
01___PRT_DEF_DTM_PLN
 70
0
 62
7
  6
CONTINUOUS
370
-3
390
F
  0
LAYER
  5
203
100
AcDbSymbolTableRecord
100
AcDbLayerTableRecord
  2
02_ALL_AXES
 70
0
 62
7
  6
CONTINUOUS
370
-3
390
F
  0
LAYER
  5
204
100
AcDbSymbolTableRecord
100
AcDbLayerTableRecord
  2
02__ASM_ALL_AXES
 70
0
 62
7
  6
CONTINUOUS
370
-3
390
F
  0
LAYER
  5
205
100
AcDbSymbolTableRecord
100
AcDbLayerTableRecord
  2
02___PRT_ALL_AXES
 70
0
 62
7
  6
CONTINUOUS
370
-3
390
F
  0
LAYER
  5
206
100
AcDbSymbolTableRecord
100
AcDbLayerTableRecord
  2
03_ALL_CURVES
 70
0
 62
7
  6
CONTINUOUS
370
-3
390
F
  0
LAYER
  5
207
100
AcDbSymbolTableRecord
100
AcDbLayerTableRecord
  2
03__ASM_ALL_CURVES
 70
0
 62
7
  6
CONTINUOUS
370
-3
390
F
  0
LAYER
  5
208
100
AcDbSymbolTableRecord
100
AcDbLayerTableRecord
  2
03___PRT_ALL_CURVES
 70
0
 62
7
  6
CONTINUOUS
370
-3
390
F
  0
LAYER
  5
209
100
AcDbSymbolTableRecord
100
AcDbLayerTableRecord
  2
04_ALL_DTM_PNT
 70
0
 62
7
  6
CONTINUOUS
370
-3
390
F
  0
LAYER
  5
20A
100
AcDbSymbolTableRecord
100
AcDbLayerTableRecord
  2
04__ASM_ALL_DTM_PNT
 70
0
 62
7
  6
CONTINUOUS
370
-3
390
F
  0
LAYER
  5
20B
100
AcDbSymbolTableRecord
100
AcDbLayerTableRecord
  2
04___PRT_ALL_DTM_PNT
 70
0
 62
7
  6
CONTINUOUS
370
-3
390
F
  0
LAYER
  5
20C
100
AcDbSymbolTableRecord
100
AcDbLayerTableRecord
  2
05_ALL_DTM_CSYS
 70
0
 62
7
  6
CONTINUOUS
370
-3
390
F
  0
LAYER
  5
20D
100
AcDbSymbolTableRecord
100
AcDbLayerTableRecord
  2
05__ASM_ALL_DTM_CSYS
 70
0
 62
7
  6
CONTINUOUS
370
-3
390
F
  0
LAYER
  5
20E
100
AcDbSymbolTableRecord
100
AcDbLayerTableRecord
  2
05__ASM_DEF_DTM_CSYS
 70
0
 62
7
  6
CONTINUOUS
370
-3
390
F
  0
LAYER
  5
20F
100
AcDbSymbolTableRecord
100
AcDbLayerTableRecord
  2
05___PRT_ALL_DTM_CSYS
 70
0
 62
7
  6
CONTINUOUS
370
-3
390
F
  0
LAYER
  5
210
100
AcDbSymbolTableRecord
100
AcDbLayerTableRecord
  2
05___PRT_DEF_DTM_CSYS
 70
0
 62
7
  6
CONTINUOUS
370
-3
390
F
  0
LAYER
  5
211
100
AcDbSymbolTableRecord
100
AcDbLayerTableRecord
  2
06_ALL_SURFS
 70
0
 62
7
  6
CONTINUOUS
370
-3
390
F
  0
LAYER
  5
212
100
AcDbSymbolTableRecord
100
AcDbLayerTableRecord
  2
06__ASM_ALL_SURFS
 70
0
 62
7
  6
CONTINUOUS
370
-3
390
F
  0
LAYER
  5
213
100
AcDbSymbolTableRecord
100
AcDbLayerTableRecord
  2
06___PRT_ALL_SURFS
 70
0
 62
7
  6
CONTINUOUS
370
-3
390
F
  0
LAYER
  5
214
100
AcDbSymbolTableRecord
100
AcDbLayerTableRecord
  2
07__ASM_ALL_SKELETONS
 70
0
 62
7
  6
CONTINUOUS
370
-3
390
F
  0
LAYER
  5
215
100
AcDbSymbolTableRecord
100
AcDbLayerTableRecord
  2
125-147_FEATURES
 70
0
 62
7
  6
CONTINUOUS
370
-3
390
F
  0
LAYER
  5
216
100
AcDbSymbolTableRecord
100
AcDbLayerTableRecord
  2
125-147_REF_GEOMETRY
 70
0
 62
7
  6
CONTINUOUS
370
-3
390
F
  0
LAYER
  5
217
100
AcDbSymbolTableRecord
100
AcDbLayerTableRecord
  2
125-152_FEATURES
 70
0
 62
7
  6
CONTINUOUS
370
-3
390
F
  0
LAYER
  5
218
100
AcDbSymbolTableRecord
100
AcDbLayerTableRecord
  2
125-152_REF_GEOMETRY
 70
0
 62
7
  6
CONTINUOUS
370
-3
390
F
  0
LAYER
  5
219
100
AcDbSymbolTableRecord
100
AcDbLayerTableRecord
  2
125-168_FEATURES
 70
0
 62
7
  6
CONTINUOUS
370
-3
390
F
  0
LAYER
  5
21A
100
AcDbSymbolTableRecord
100
AcDbLayerTableRecord
  2
125-168_REF_GEOMETRY
 70
0
 62
7
  6
CONTINUOUS
370
-3
390
F
  0
LAYER
  5
21B
100
AcDbSymbolTableRecord
100
AcDbLayerTableRecord
  2
125-199_FEATURES
 70
0
 62
7
  6
CONTINUOUS
370
-3
390
F
  0
LAYER
  5
21C
100
AcDbSymbolTableRecord
100
AcDbLayerTableRecord
  2
125-199_REF_GEOMETRY
 70
0
 62
7
  6
CONTINUOUS
370
-3
390
F
  0
LAYER
  5
21D
100
AcDbSymbolTableRecord
100
AcDbLayerTableRecord
  2
COPY_GEO_FET
 70
0
 62
7
  6
CONTINUOUS
370
-3
390
F
  0
LAYER
  5
21E
100
AcDbSymbolTableRecord
100
AcDbLayerTableRecord
  2
COSMETIC
 70
0
 62
7
  6
CONTINUOUS
370
-3
390
F
  0
LAYER
  5
21F
100
AcDbSymbolTableRecord
100
AcDbLayerTableRecord
  2
CURVES
 70
0
 62
7
  6
CONTINUOUS
370
-3
390
F
  0
LAYER
  5
220
100
AcDbSymbolTableRecord
100
AcDbLayerTableRecord
  2
CUT_REF_SURF
 70
0
 62
7
  6
CONTINUOUS
370
-3
390
F
  0
LAYER
  5
221
100
AcDbSymbolTableRecord
100
AcDbLayerTableRecord
  2
DATUM
 70
0
 62
7
  6
CONTINUOUS
370
-3
390
F
  0
LAYER
  5
222
100
AcDbSymbolTableRecord
100
AcDbLayerTableRecord
  2
DATUMCURVES
 70
0
 62
7
  6
CONTINUOUS
370
-3
390
F
  0
LAYER
  5
223
100
AcDbSymbolTableRecord
100
AcDbLayerTableRecord
  2
DATUM_PLANES
 70
0
 62
7
  6
CONTINUOUS
370
-3
390
F
  0
LAYER
  5
224
100
AcDbSymbolTableRecord
100
AcDbLayerTableRecord
  2
DIMENSIONS
 70
0
 62
7
  6
CONTINUOUS
370
-3
390
F
  0
LAYER
  5
225
100
AcDbSymbolTableRecord
100
AcDbLayerTableRecord
  2
DMT
 70
0
 62
7
  6
CONTINUOUS
370
-3
390
F
  0
LAYER
  5
226
100
AcDbSymbolTableRecord
100
AcDbLayerTableRecord
  2
DP_SERATION
 70
0
 62
7
  6
CONTINUOUS
370
-3
390
F
  0
LAYER
  5
227
100
AcDbSymbolTableRecord
100
AcDbLayerTableRecord
  2
DRAWINGNOTES
 70
0
 62
7
  6
CONTINUOUS
370
-3
390
F
  0
LAYER
  5
228
100
AcDbSymbolTableRecord
100
AcDbLayerTableRecord
  2
DTM
 70
0
 62
7
  6
CONTINUOUS
370
-3
390
F
  0
LAYER
  5
229
100
AcDbSymbolTableRecord
100
AcDbLayerTableRecord
  2
DTM230
 70
0
 62
7
  6
CONTINUOUS
370
-3
390
F
  0
LAYER
  5
22A
100
AcDbSymbolTableRecord
100
AcDbLayerTableRecord
  2
DTM_500001
 70
0
 62
7
  6
CONTINUOUS
370
-3
390
F
  0
LAYER
  5
22B
100
AcDbSymbolTableRecord
100
AcDbLayerTableRecord
  2
DTM_500002
 70
0
 62
7
  6
CONTINUOUS
370
-3
390
F
  0
LAYER
  5
22C
100
AcDbSymbolTableRecord
100
AcDbLayerTableRecord
  2
DTM_515002
 70
0
 62
7
  6
CONTINUOUS
370
-3
390
F
  0
LAYER
  5
22D
100
AcDbSymbolTableRecord
100
AcDbLayerTableRecord
  2
GEOMETRICTOLERANCES
 70
0
 62
7
  6
CONTINUOUS
370
-3
390
F
  0
LAYER
  5
22E
100
AcDbSymbolTableRecord
100
AcDbLayerTableRecord
  2
LAY0001
 70
0
 62
7
  6
CONTINUOUS
370
-3
390
F
  0
LAYER
  5
22F
100
AcDbSymbolTableRecord
100
AcDbLayerTableRecord
  2
PARAMETERDIMENSIONS
 70
0
 62
7
  6
CONTINUOUS
370
-3
390
F
  0
LAYER
  5
230
100
AcDbSymbolTableRecord
100
AcDbLayerTableRecord
  2
PLANE
 70
0
 62
7
  6
CONTINUOUS
370
-3
390
F
  0
LAYER
  5
231
100
AcDbSymbolTableRecord
100
AcDbLayerTableRecord
  2
TEXT
 70
0
 62
7
  6
CONTINUOUS
370
-3
390
F
  0
LAYER
  5
232
100
AcDbSymbolTableRecord
100
AcDbLayerTableRecord
  2
THREAD
 70
0
 62
7
  6
CONTINUOUS
370
-3
390
F
  0
LAYER
  5
233
100
AcDbSymbolTableRecord
100
AcDbLayerTableRecord
  2
XSEC_DATUMS
 70
0
 62
7
  6
CONTINUOUS
370
-3
390
F
  0
ENDTAB
  0
TABLE
  2
STYLE
  5
3
100
AcDbSymbolTable
 70
1
  0
STYLE
  5
11
100
AcDbSymbolTableRecord
100
AcDbTextStyleTableRecord
  2
STANDARD
 70
0
 40
0.0
 41
0.8
 50
0.0
 71
0
 42
0.2
  3
txt
  4

  0
ENDTAB
  0
TABLE
  2
VIEW
  5
6
100
AcDbSymbolTable
 70
0
  0
ENDTAB
  0
TABLE
  2
UCS
  5
7
100
AcDbSymbolTable
 70
0
  0
ENDTAB
  0
TABLE
  2
APPID
  5
9
100
AcDbSymbolTable
 70
1
  0
APPID
  5
234
100
AcDbSymbolTableRecord
100
AcDbRegAppTableRecord
  2
ACAD
 70
0
  0
ENDTAB
  0
TABLE
  2
BLOCK_RECORD
  5
1
100
AcDbSymbolTable
 70
0
  0
BLOCK_RECORD
  5
1F
100
AcDbSymbolTableRecord
100
AcDbBlockTableRecord
  2
*MODEL_SPACE
  0
BLOCK_RECORD
  5
1B
100
AcDbSymbolTableRecord
100
AcDbBlockTableRecord
  2
*PAPER_SPACE
  0
ENDTAB
  0
TABLE
  2
DIMSTYLE
  5
A
100
AcDbSymbolTable
 70
1
100
AcDbDimStyleTable
 71
0
  0
DIMSTYLE
105
235
100
AcDbSymbolTableRecord
100
AcDbDimStyleTableRecord
  2
STANDARD
 70
0
  3

  4

 40
1.0
 41
0.1875
 42
0.0625
 43
0.38
 44
0.18
 45
0.0
 46
0.0
 47
0.01
 48
0.01
140
0.15625
141
0.09
142
0.0
143
25.4
144
1.0
145
0.0
146
1.0
147
0.09
 71
0.0
 72
0.0
 73
1
 74
1
 75
0
 76
0
 77
0
 78
4
170
0
171
2
172
0
173
0
174
0
175
0
176
0
177
0
178
0
270
2
271
2
272
2
273
2
274
2
275
0
280
0
281
0
282
0
283
1
284
4
285
0
286
0
287
3
288
0
340
11
  0
ENDTAB
  0
ENDSEC
  0
SECTION
  2
BLOCKS
  0
BLOCK
  5
20
100
AcDbEntity
  8
0
100
AcDbBlockBegin
  2
*MODEL_SPACE
 70
0
 10
0.0
 20
0.0
 30
0.0
  3
*MODEL_SPACE
  1

  0
ENDBLK
  5
21
100
AcDbEntity
  8
0
100
AcDbBlockEnd
  0
BLOCK
  5
1C
100
AcDbEntity
  8
0
100
AcDbBlockBegin
  2
*PAPER_SPACE
 70
0
 10
0.0
 20
0.0
 30
0.0
  3
*PAPER_SPACE
  1

  0
ENDBLK
  5
1D
100
AcDbEntity
  8
0
100
AcDbBlockEnd
  0
ENDSEC
  0
SECTION
  2
ENTITIES
  0
LINE
  5
236
100
AcDbEntity
  8
03__ASM_ALL_CURVES
100
AcDbLine
 62
40
  6
CONTINUOUS
 10
3.8676120248
 20
4.230338674
 11
3.8676120248
 21
5.0412012141
  0
LINE
  5
237
100
AcDbEntity
  8
0
100
AcDbLine
 62
7
  6
CONTINUOUS
 10
3.8676119896
 20
4.230338674
 11
3.8676120601
 21
3.924338674
  0
LINE
  5
238
100
AcDbEntity
  8
0
100
AcDbLine
 62
7
  6
CONTINUOUS
 10
3.8986119825
 20
4.2613386811
 11
3.8986120672
 21
3.8933386811
  0
LINE
  5
239
100
AcDbEntity
  8
03__ASM_ALL_CURVES
100
AcDbLine
 62
40
  6
CONTINUOUS
 10
3.938790782
 20
5.029338088
 11
3.938790782
 21
5.0056118356
  0
LINE
  5
23A
100
AcDbEntity
  8
0
100
AcDbLine
 62
7
  6
CONTINUOUS
 10
4.2172372629
 20
3.8296877766
 11
4.2172372629
 21
4.3249901469
  0
LINE
  5
23B
100
AcDbEntity
  8
0
100
AcDbLine
 62
7
  6
CONTINUOUS
 10
3.8676120601
 20
3.924338674
 11
3.8986120672
 21
3.8933386811
  0
LINE
  5
23C
100
AcDbEntity
  8
0
100
AcDbLine
 62
7
  6
CONTINUOUS
 10
4.2792372629
 20
3.8063389618
 11
4.2792372629
 21
4.3483389618
  0
LINE
  5
23D
100
AcDbEntity
  8
0
100
AcDbLine
 62
7
  6
CONTINUOUS
 10
4.2852372629
 20
3.8063389618
 11
4.2852372629
 21
4.3483389618
  0
LINE
  5
23E
100
AcDbEntity
  8
0
100
AcDbLine
 62
7
  6
CONTINUOUS
 10
4.2907372629
 20
3.8118389618
 11
4.2907372629
 21
4.3428389618
  0
LINE
  5
23F
100
AcDbEntity
  8
0
100
AcDbLine
 62
7
  6
CONTINUOUS
 10
4.3067372629
 20
3.8118389618
 11
4.3067372629
 21
4.3428389618
  0
LINE
  5
240
100
AcDbEntity
  8
03__ASM_ALL_CURVES
100
AcDbLine
 62
40
  6
CONTINUOUS
 10
4.567914926
 20
5.1005168437
 11
4.5723635983
 21
5.1064484096
  0
LINE
  5
241
100
AcDbEntity
  8
03__ASM_ALL_CURVES
100
AcDbLine
 62
40
  6
CONTINUOUS
 10
4.581260943
 20
5.0708590289
 11
4.5723635983
 21
5.0589959034
  0
LINE
  5
242
100
AcDbEntity
  8
03__ASM_ALL_CURVES
100
AcDbLine
 62
40
  6
CONTINUOUS
 10
4.6035043046
 20
5.0886537203
 11
4.5990556322
 21
5.0827221544
  0
LINE
  5
243
100
AcDbEntity
  8
0
100
AcDbLine
 62
7
  6
CONTINUOUS
 10
4.3222380484
 20
3.7963381762
 11
4.3067372629
 21
3.8118389618
  0
LINE
  5
244
100
AcDbEntity
  8
0
100
AcDbLine
 62
7
  6
CONTINUOUS
 10
4.4982372629
 20
3.8063389618
 11
4.4982372629
 21
4.3483389618
  0
LINE
  5
245
100
AcDbEntity
  8
0
100
AcDbLine
 62
7
  6
CONTINUOUS
 10
4.5292372629
 20
3.7658444063
 11
4.5292372629
 21
4.3888335172
  0
LINE
  5
246
100
AcDbEntity
  8
03__ASM_ALL_CURVES
100
AcDbLine
 62
40
  6
CONTINUOUS
 10
4.5723635983
 20
5.0589959034
 11
4.567914926
 21
5.0412012141
  0
LINE
  5
247
100
AcDbEntity
  8
03__ASM_ALL_CURVES
100
AcDbLine
 62
40
  6
CONTINUOUS
 10
4.7102724403
 20
5.0886537203
 11
4.7147211126
 21
5.1005168437
  0
LINE
  5
248
100
AcDbEntity
  8
03__ASM_ALL_CURVES
100
AcDbLine
 62
40
  6
CONTINUOUS
 10
4.7458618188
 20
5.0649274672
 11
4.7414131465
 21
5.0530643407
  0
LINE
  5
249
100
AcDbEntity
  8
03__ASM_ALL_CURVES
100
AcDbLine
 62
40
  6
CONTINUOUS
 10
4.7147211126
 20
5.1005168437
 11
4.7191697849
 21
5.1064484096
  0
LINE
  5
24A
100
AcDbEntity
  8
03__ASM_ALL_CURVES
100
AcDbLine
 62
40
  6
CONTINUOUS
 10
4.7414131465
 20
5.0530643407
 11
4.7369644742
 21
5.0471327774
  0
LINE
  5
24B
100
AcDbEntity
  8
03__ASM_ALL_CURVES
100
AcDbLine
 62
40
  6
CONTINUOUS
 10
4.803694559
 20
5.1123799713
 11
4.7947972144
 21
5.1005168437
  0
LINE
  5
24C
100
AcDbEntity
  8
0
100
AcDbLine
 62
7
  6
CONTINUOUS
 10
3.8676119896
 20
4.230338674
 11
3.8986119825
 21
4.2613386811
  0
LINE
  5
24D
100
AcDbEntity
  8
03__ASM_ALL_CURVES
100
AcDbLine
 62
40
  6
CONTINUOUS
 10
4.5723635983
 20
5.1064484096
 11
4.581260943
 21
5.1123799713
  0
LINE
  5
24E
100
AcDbEntity
  8
03__ASM_ALL_CURVES
100
AcDbLine
 62
40
  6
CONTINUOUS
 10
4.5990556322
 20
5.0827221544
 11
4.581260943
 21
5.0708590289
  0
LINE
  5
24F
100
AcDbEntity
  8
03__ASM_ALL_CURVES
100
AcDbLine
 62
40
  6
CONTINUOUS
 10
4.7191697849
 20
5.1064484096
 11
4.7280671296
 21
5.1123799713
  0
LINE
  5
250
100
AcDbEntity
  8
0
100
AcDbLine
 62
7
  6
CONTINUOUS
 10
4.5292372629
 20
3.7658389618
 11
4.5912372629
 21
3.7038389618
  0
LINE
  5
251
100
AcDbEntity
  8
0
100
AcDbLine
 62
7
  6
CONTINUOUS
 10
4.5912372629
 20
3.7038389618
 11
4.5912372629
 21
4.4508389618
  0
LINE
  5
252
100
AcDbEntity
  8
03__ASM_ALL_CURVES
100
AcDbLine
 62
40
  6
CONTINUOUS
 10
4.6035043046
 20
5.1005168437
 11
4.6035043046
 21
5.0886537203
  0
LINE
  5
253
100
AcDbEntity
  8
03__ASM_ALL_CURVES
100
AcDbLine
 62
40
  6
CONTINUOUS
 10
4.6524397001
 20
5.0412012141
 11
4.6524397001
 21
5.0471327774
  0
LINE
  5
254
100
AcDbEntity
  8
03__ASM_ALL_CURVES
100
AcDbLine
 62
40
  6
CONTINUOUS
 10
4.7947972144
 20
5.1005168437
 11
4.7903485421
 21
5.0827221544
  0
LINE
  5
255
100
AcDbEntity
  8
03__ASM_ALL_CURVES
100
AcDbLine
 62
40
  6
CONTINUOUS
 10
4.8926680055
 20
5.0649274672
 11
4.8882193331
 21
5.0530643407
  0
LINE
  5
256
100
AcDbEntity
  8
03__ASM_ALL_CURVES
100
AcDbLine
 62
40
  6
CONTINUOUS
 10
4.9238087117
 20
5.0886537203
 11
4.928257384
 21
5.1005168437
  0
LINE
  5
257
100
AcDbEntity
  8
03__ASM_ALL_CURVES
100
AcDbLine
 62
40
  6
CONTINUOUS
 10
4.8882193331
 20
5.0530643407
 11
4.8837706608
 21
5.0471327774
  0
LINE
  5
258
100
AcDbEntity
  8
03__ASM_ALL_CURVES
100
AcDbLine
 62
40
  6
CONTINUOUS
 10
4.928257384
 20
5.1005168437
 11
4.9327060563
 21
5.1064484096
  0
LINE
  5
259
100
AcDbEntity
  8
03__ASM_ALL_CURVES
100
AcDbLine
 62
40
  6
CONTINUOUS
 10
4.9549494179
 20
5.0530643407
 11
4.9505007456
 21
5.0471327774
  0
LINE
  5
25A
100
AcDbEntity
  8
03__ASM_ALL_CURVES
100
AcDbLine
 62
40
  6
CONTINUOUS
 10
4.7369644742
 20
5.0471327774
 11
4.7280671296
 21
5.0412012141
  0
LINE
  5
25B
100
AcDbEntity
  8
03__ASM_ALL_CURVES
100
AcDbLine
 62
40
  6
CONTINUOUS
 10
4.8570786269
 20
5.0827221544
 11
4.8659759715
 21
5.0886537203
  0
LINE
  5
25C
100
AcDbEntity
  8
03__ASM_ALL_CURVES
100
AcDbLine
 62
40
  6
CONTINUOUS
 10
4.9327060563
 20
5.1064484096
 11
4.941603401
 21
5.1123799713
  0
LINE
  5
25D
100
AcDbEntity
  8
03__ASM_ALL_CURVES
100
AcDbLine
 62
40
  6
CONTINUOUS
 10
4.8837706608
 20
5.0471327774
 11
4.8748733162
 21
5.0412012141
  0
LINE
  5
25E
100
AcDbEntity
  8
03__ASM_ALL_CURVES
100
AcDbLine
 62
40
  6
CONTINUOUS
 10
4.9505007456
 20
5.0471327774
 11
4.941603401
 21
5.0412012141
  0
LINE
  5
25F
100
AcDbEntity
  8
03__ASM_ALL_CURVES
100
AcDbLine
 62
40
  6
CONTINUOUS
 10
4.7102724403
 20
5.0649274672
 11
4.7102724403
 21
5.0886537203
  0
LINE
  5
260
100
AcDbEntity
  8
03__ASM_ALL_CURVES
100
AcDbLine
 62
40
  6
CONTINUOUS
 10
4.7458618188
 20
5.0886537203
 11
4.7458618188
 21
5.0649274672
  0
LINE
  5
261
100
AcDbEntity
  8
03__ASM_ALL_CURVES
100
AcDbLine
 62
40
  6
CONTINUOUS
 10
4.7903485421
 20
5.0827221544
 11
4.7903485421
 21
5.0708590289
  0
LINE
  5
262
100
AcDbEntity
  8
03__ASM_ALL_CURVES
100
AcDbLine
 62
40
  6
CONTINUOUS
 10
4.8615272992
 20
5.1123799713
 11
4.8570786269
 21
5.0827221544
  0
LINE
  5
263
100
AcDbEntity
  8
03__ASM_ALL_CURVES
100
AcDbLine
 62
40
  6
CONTINUOUS
 10
4.9593980903
 20
5.0649274672
 11
4.9549494179
 21
5.0530643407
  0
LINE
  5
264
100
AcDbEntity
  8
03__ASM_ALL_CURVES
100
AcDbLine
 62
40
  6
CONTINUOUS
 10
5.066166226
 20
5.1005168437
 11
5.0706148983
 21
5.1064484096
  0
LINE
  5
265
100
AcDbEntity
  8
03__ASM_ALL_CURVES
100
AcDbLine
 62
40
  6
CONTINUOUS
 10
5.0617175537
 20
5.0649274672
 11
5.0706148983
 21
5.0767905927
  0
LINE
  5
266
100
AcDbEntity
  8
03__ASM_ALL_CURVES
100
AcDbLine
 62
40
  6
CONTINUOUS
 10
5.1017556046
 20
5.094585282
 11
5.0973069322
 21
5.0886537203
  0
LINE
  5
267
100
AcDbEntity
  8
03__ASM_ALL_CURVES
100
AcDbLine
 62
40
  6
CONTINUOUS
 10
5.1062042769
 20
5.0589959034
 11
5.0973069322
 21
5.0471327774
  0
LINE
  5
268
100
AcDbEntity
  8
03__ASM_ALL_CURVES
100
AcDbLine
 62
40
  6
CONTINUOUS
 10
5.1595883447
 20
5.0530643407
 11
5.1506910001
 21
5.0412012141
  0
LINE
  5
269
100
AcDbEntity
  8
0
100
AcDbLine
 62
7
  6
CONTINUOUS
 10
4.3222380484
 20
4.3583397473
 11
4.3067372629
 21
4.3428389618
  0
LINE
  5
26A
100
AcDbEntity
  8
0
100
AcDbLine
 62
7
  6
CONTINUOUS
 10
4.5292372629
 20
4.3888389618
 11
4.5912372629
 21
4.4508389618
  0
LINE
  5
26B
100
AcDbEntity
  8
03__ASM_ALL_CURVES
100
AcDbLine
 62
40
  6
CONTINUOUS
 10
5.0706148983
 20
5.1064484096
 11
5.0795122429
 21
5.1123799713
  0
LINE
  5
26C
100
AcDbEntity
  8
03__ASM_ALL_CURVES
100
AcDbLine
 62
40
  6
CONTINUOUS
 10
5.0706148983
 20
5.0767905927
 11
5.0795122429
 21
5.0827221544
  0
LINE
  5
26D
100
AcDbEntity
  8
03__ASM_ALL_CURVES
100
AcDbLine
 62
40
  6
CONTINUOUS
 10
5.0973069322
 20
5.0886537203
 11
5.0884095876
 21
5.0827221544
  0
LINE
  5
26E
100
AcDbEntity
  8
03__ASM_ALL_CURVES
100
AcDbLine
 62
40
  6
CONTINUOUS
 10
5.0973069322
 20
5.0471327774
 11
5.0884095876
 21
5.0412012141
  0
LINE
  5
26F
100
AcDbEntity
  8
0
100
AcDbLine
 62
7
  6
CONTINUOUS
 10
4.2907372629
 20
4.3428389618
 11
4.2852372629
 21
4.3483389618
  0
LINE
  5
270
100
AcDbEntity
  8
0
100
AcDbLine
 62
7
  6
CONTINUOUS
 10
4.4982372629
 20
4.3483389618
 11
4.4921424907
 21
4.3588954168
  0
LINE
  5
271
100
AcDbEntity
  8
03__ASM_ALL_CURVES
100
AcDbLine
 62
40
  6
CONTINUOUS
 10
4.9238087117
 20
5.0649274672
 11
4.9238087117
 21
5.0886537203
  0
LINE
  5
272
100
AcDbEntity
  8
03__ASM_ALL_CURVES
100
AcDbLine
 62
40
  6
CONTINUOUS
 10
4.9593980903
 20
5.0886537203
 11
4.9593980903
 21
5.0649274672
  0
LINE
  5
273
100
AcDbEntity
  8
0
100
AcDbLine
 62
7
  6
CONTINUOUS
 10
4.4982372629
 20
3.8063389618
 11
4.4921424907
 21
3.7957825067
  0
LINE
  5
274
100
AcDbEntity
  8
03__ASM_ALL_CURVES
100
AcDbLine
 62
40
  6
CONTINUOUS
 10
6.7921896741
 20
3.4619548939
 11
6.7855166656
 21
3.4619548939
  0
LINE
  5
275
100
AcDbEntity
  8
03__ASM_ALL_CURVES
100
AcDbLine
 62
40
  6
CONTINUOUS
 10
6.9356593564
 20
3.4619548939
 11
6.9623513904
 21
3.4619548939
  0
LINE
  5
276
100
AcDbEntity
  8
0
100
AcDbLine
 62
7
  6
CONTINUOUS
 10
5.2129708017
 20
3.5883389618
 11
5.1832372629
 21
3.6398389618
  0
LINE
  5
277
100
AcDbEntity
  8
03__ASM_ALL_CURVES
100
AcDbLine
 62
40
  6
CONTINUOUS
 10
5.0083334858
 20
5.0412012141
 11
5.0083334858
 21
5.0471327774
  0
LINE
  5
278
100
AcDbEntity
  8
03__ASM_ALL_CURVES
100
AcDbLine
 62
40
  6
CONTINUOUS
 10
5.0617175537
 20
5.0589959034
 11
5.0617175537
 21
5.0649274672
  0
LINE
  5
279
100
AcDbEntity
  8
03__ASM_ALL_CURVES
100
AcDbLine
 62
40
  6
CONTINUOUS
 10
5.066166226
 20
5.094585282
 11
5.066166226
 21
5.1005168437
  0
LINE
  5
27A
100
AcDbEntity
  8
03__ASM_ALL_CURVES
100
AcDbLine
 62
40
  6
CONTINUOUS
 10
5.1017556046
 20
5.1005168437
 11
5.1017556046
 21
5.094585282
  0
LINE
  5
27B
100
AcDbEntity
  8
03__ASM_ALL_CURVES
100
AcDbLine
 62
40
  6
CONTINUOUS
 10
5.1062042769
 20
5.0649274672
 11
5.1062042769
 21
5.0589959034
  0
LINE
  5
27C
100
AcDbEntity
  8
03__ASM_ALL_CURVES
100
AcDbLine
 62
40
  6
CONTINUOUS
 10
5.1640370171
 20
5.0708590289
 11
5.1595883447
 21
5.0530643407
  0
LINE
  5
27D
100
AcDbEntity
  8
0
100
AcDbLine
 62
7
  6
CONTINUOUS
 10
4.2907372629
 20
3.8118389618
 11
4.2852372629
 21
3.8063389618
  0
LINE
  5
27E
100
AcDbEntity
  8
03__ASM_ALL_CURVES
100
AcDbLine
 62
40
  6
CONTINUOUS
 10
6.8455737419
 20
3.4886469278
 11
6.8288912207
 21
3.4886469278
  0
LINE
  5
27F
100
AcDbEntity
  8
03__ASM_ALL_CURVES
100
AcDbLine
 62
40
  6
CONTINUOUS
 10
6.7388056062
 20
3.4886469278
 11
6.722123085
 21
3.4886469278
  0
LINE
  5
280
100
AcDbEntity
  8
03__ASM_ALL_CURVES
100
AcDbLine
 62
40
  6
CONTINUOUS
 10
6.722123085
 20
3.5153389618
 11
6.7388056062
 21
3.5153389618
  0
LINE
  5
281
100
AcDbEntity
  8
03__ASM_ALL_CURVES
100
AcDbLine
 62
40
  6
CONTINUOUS
 10
6.7855166656
 20
3.5153389618
 11
6.7921896741
 21
3.5153389618
  0
LINE
  5
282
100
AcDbEntity
  8
03__ASM_ALL_CURVES
100
AcDbLine
 62
40
  6
CONTINUOUS
 10
6.8288912207
 20
3.5153389618
 11
6.8455737419
 21
3.5153389618
  0
LINE
  5
283
100
AcDbEntity
  8
03__ASM_ALL_CURVES
100
AcDbLine
 62
40
  6
CONTINUOUS
 10
6.8789387844
 20
3.5153389618
 11
6.9123038268
 21
3.5153389618
  0
LINE
  5
284
100
AcDbEntity
  8
03__ASM_ALL_CURVES
100
AcDbLine
 62
40
  6
CONTINUOUS
 10
6.9456688692
 20
3.5153389618
 11
6.9523418777
 21
3.5153389618
  0
LINE
  5
285
100
AcDbEntity
  8
0
100
AcDbLine
 62
7
  6
CONTINUOUS
 10
5.6247372629
 20
3.5883389618
 11
5.2129708017
 21
3.5883389618
  0
LINE
  5
286
100
AcDbEntity
  8
0
100
AcDbLine
 62
7
  6
CONTINUOUS
 10
5.6247372629
 20
3.5892364893
 11
5.2129708017
 21
3.5892364893
  0
LINE
  5
287
100
AcDbEntity
  8
03__ASM_ALL_CURVES
100
AcDbLine
 62
40
  6
CONTINUOUS
 10
4.7147211126
 20
5.0530643407
 11
4.7102724403
 21
5.0649274672
  0
LINE
  5
288
100
AcDbEntity
  8
03__ASM_ALL_CURVES
100
AcDbLine
 62
40
  6
CONTINUOUS
 10
4.7414131465
 20
5.1005168437
 11
4.7458618188
 21
5.0886537203
  0
LINE
  5
289
100
AcDbEntity
  8
03__ASM_ALL_CURVES
100
AcDbLine
 62
40
  6
CONTINUOUS
 10
4.7903485421
 20
5.0708590289
 11
4.7947972144
 21
5.0530643407
  0
LINE
  5
28A
100
AcDbEntity
  8
03__ASM_ALL_CURVES
100
AcDbLine
 62
40
  6
CONTINUOUS
 10
5.1640370171
 20
5.0827221544
 11
5.1640370171
 21
5.0708590289
  0
LINE
  5
28B
100
AcDbEntity
  8
0
100
AcDbLine
 62
7
  6
CONTINUOUS
 10
5.1832372629
 20
3.6398389651
 11
5.1832372629
 21
4.5148389584
  0
LINE
  5
28C
100
AcDbEntity
  8
0
100
AcDbLine
 62
7
  6
CONTINUOUS
 10
5.2129708017
 20
4.5663389618
 11
5.2129708017
 21
4.5654414343
  0
LINE
  5
28D
100
AcDbEntity
  8
0
100
AcDbLine
 62
7
  6
CONTINUOUS
 10
5.2129708017
 20
3.5892364893
 11
5.2129708017
 21
3.5883389618
  0
LINE
  5
28E
100
AcDbEntity
  8
0
100
AcDbLine
 62
7
  6
CONTINUOUS
 10
5.2129708017
 20
3.8076414343
 11
5.2129708017
 21
3.8589340168
  0
LINE
  5
28F
100
AcDbEntity
  8
0
100
AcDbLine
 62
7
  6
CONTINUOUS
 10
5.2129708017
 20
4.2957439068
 11
5.2129708017
 21
4.3470364893
  0
LINE
  5
290
100
AcDbEntity
  8
0
100
AcDbLine
 62
7
  6
CONTINUOUS
 10
5.2125821609
 20
4.5656658161
 11
5.1832372629
 21
4.5148389618
  0
LINE
  5
291
100
AcDbEntity
  8
03__ASM_ALL_CURVES
100
AcDbLine
 62
40
  6
CONTINUOUS
 10
6.043769702
 20
5.1064484096
 11
6.0526670466
 21
5.1123799713
  0
LINE
  5
292
100
AcDbEntity
  8
0
100
AcDbLine
 62
7
  6
CONTINUOUS
 10
5.8732372629
 20
3.6488389618
 11
5.6852372629
 21
3.6488389618
  0
LINE
  5
293
100
AcDbEntity
  8
THREAD
100
AcDbLine
 62
7
  6
CONTINUOUS
 10
5.9202372629
 20
3.6723389618
 11
5.8888257201
 21
3.6723389618
  0
LINE
  5
294
100
AcDbEntity
  8
0
100
AcDbLine
 62
7
  6
CONTINUOUS
 10
5.9902372629
 20
3.6728389618
 11
6.0402372629
 21
3.6728389618
  0
LINE
  5
295
100
AcDbEntity
  8
THREAD
100
AcDbLine
 62
7
  6
CONTINUOUS
 10
6.2612372629
 20
3.6863389618
 11
6.0836199488
 21
3.6863389618
  0
LINE
  5
296
100
AcDbEntity
  8
0
100
AcDbLine
 62
7
  6
CONTINUOUS
 10
4.5912372629
 20
3.7038389618
 11
5.1832372629
 21
3.7038389618
  0
LINE
  5
297
100
AcDbEntity
  8
THREAD
100
AcDbLine
 62
7
  6
CONTINUOUS
 10
6.0602372629
 20
3.7268389618
 11
6.0402372629
 21
3.7268389618
  0
LINE
  5
298
100
AcDbEntity
  8
0
100
AcDbLine
 62
7
  6
CONTINUOUS
 10
6.9912372629
 20
3.7338389618
 11
7.0412372629
 21
3.7338389618
  0
LINE
  5
299
100
AcDbEntity
  8
0
100
AcDbLine
 62
7
  6
CONTINUOUS
 10
7.1112372629
 20
3.7338389618
 11
7.1612372629
 21
3.7338389618
  0
LINE
  5
29A
100
AcDbEntity
  8
0
100
AcDbLine
 62
7
  6
CONTINUOUS
 10
7.2312372629
 20
3.7353389618
 11
7.1892372629
 21
3.7353389618
  0
LINE
  5
29B
100
AcDbEntity
  8
0
100
AcDbLine
 62
7
  6
CONTINUOUS
 10
6.9912372629
 20
3.7353389618
 11
6.9332372629
 21
3.7353389618
  0
LINE
  5
29C
100
AcDbEntity
  8
03__ASM_ALL_CURVES
100
AcDbLine
 62
40
  6
CONTINUOUS
 10
4.8882193331
 20
5.0767905927
 11
4.8926680055
 21
5.0649274672
  0
LINE
  5
29D
100
AcDbEntity
  8
03__ASM_ALL_CURVES
100
AcDbLine
 62
40
  6
CONTINUOUS
 10
4.928257384
 20
5.0530643407
 11
4.9238087117
 21
5.0649274672
  0
LINE
  5
29E
100
AcDbEntity
  8
03__ASM_ALL_CURVES
100
AcDbLine
 62
40
  6
CONTINUOUS
 10
6.1149484591
 20
5.1064484096
 11
6.1238458038
 21
5.1123799713
  0
LINE
  5
29F
100
AcDbEntity
  8
03__ASM_ALL_CURVES
100
AcDbLine
 62
40
  6
CONTINUOUS
 10
6.0704617359
 20
5.0471327774
 11
6.0615643913
 21
5.0412012141
  0
LINE
  5
2A0
100
AcDbEntity
  8
03__ASM_ALL_CURVES
100
AcDbLine
 62
40
  6
CONTINUOUS
 10
6.141640493
 20
5.0471327774
 11
6.1327431484
 21
5.0412012141
  0
LINE
  5
2A1
100
AcDbEntity
  8
0
100
AcDbLine
 62
7
  6
CONTINUOUS
 10
6.6057372629
 20
3.7493389618
 11
6.5157372629
 21
3.7493389618
  0
LINE
  5
2A2
100
AcDbEntity
  8
0
100
AcDbLine
 62
7
  6
CONTINUOUS
 10
6.3907372629
 20
3.7493389618
 11
6.3082372629
 21
3.7493389618
  0
LINE
  5
2A3
100
AcDbEntity
  8
0
100
AcDbLine
 62
7
  6
CONTINUOUS
 10
6.9332372629
 20
3.7648389618
 11
6.6212372629
 21
3.7648389618
  0
LINE
  5
2A4
100
AcDbEntity
  8
0
100
AcDbLine
 62
7
  6
CONTINUOUS
 10
7.1892372629
 20
3.7878389618
 11
7.1612372629
 21
3.7878389618
  0
LINE
  5
2A5
100
AcDbEntity
  8
0
100
AcDbLine
 62
7
  6
CONTINUOUS
 10
4.3222372629
 20
3.7963389618
 11
4.4924609846
 21
3.7963389618
  0
LINE
  5
2A6
100
AcDbEntity
  8
0
100
AcDbLine
 62
7
  6
CONTINUOUS
 10
4.5292372629
 20
3.8063389618
 11
4.4982372629
 21
3.8063389618
  0
LINE
  5
2A7
100
AcDbEntity
  8
0
100
AcDbLine
 62
7
  6
CONTINUOUS
 10
4.2852372629
 20
3.8063389618
 11
4.2792372629
 21
3.8063389618
  0
LINE
  5
2A8
100
AcDbEntity
  8
0
100
AcDbLine
 62
7
  6
CONTINUOUS
 10
5.6247372629
 20
3.8076414343
 11
5.2129708017
 21
3.8076414343
  0
LINE
  5
2A9
100
AcDbEntity
  8
0
100
AcDbLine
 62
7
  6
CONTINUOUS
 10
4.3067372629
 20
3.8118389618
 11
4.2907372629
 21
3.8118389618
  0
LINE
  5
2AA
100
AcDbEntity
  8
0
100
AcDbLine
 62
7
  6
CONTINUOUS
 10
5.6247372629
 20
3.8589340168
 11
5.2129708017
 21
3.8589340168
  0
LINE
  5
2AB
100
AcDbEntity
  8
03__ASM_ALL_CURVES
100
AcDbLine
 62
40
  6
CONTINUOUS
 10
4.5990556322
 20
5.1064484096
 11
4.6035043046
 21
5.1005168437
  0
LINE
  5
2AC
100
AcDbEntity
  8
03__ASM_ALL_CURVES
100
AcDbLine
 62
40
  6
CONTINUOUS
 10
4.6524397001
 20
5.0471327774
 11
4.6568883724
 21
5.0412012141
  0
LINE
  5
2AD
100
AcDbEntity
  8
03__ASM_ALL_CURVES
100
AcDbLine
 62
40
  6
CONTINUOUS
 10
4.7191697849
 20
5.0471327774
 11
4.7147211126
 21
5.0530643407
  0
LINE
  5
2AE
100
AcDbEntity
  8
03__ASM_ALL_CURVES
100
AcDbLine
 62
40
  6
CONTINUOUS
 10
4.9549494179
 20
5.1005168437
 11
4.9593980903
 21
5.0886537203
  0
LINE
  5
2AF
100
AcDbEntity
  8
03__ASM_ALL_CURVES
100
AcDbLine
 62
40
  6
CONTINUOUS
 10
5.1595883447
 20
5.1005168437
 11
5.1640370171
 21
5.0827221544
  0
LINE
  5
2B0
100
AcDbEntity
  8
03__ASM_ALL_CURVES
100
AcDbLine
 62
40
  6
CONTINUOUS
 10
6.0348723573
 20
5.094585282
 11
6.043769702
 21
5.1064484096
  0
LINE
  5
2B1
100
AcDbEntity
  8
03__ASM_ALL_CURVES
100
AcDbLine
 62
40
  6
CONTINUOUS
 10
6.4708422448
 20
5.1064484096
 11
6.4797395895
 21
5.1123799713
  0
LINE
  5
2B2
100
AcDbEntity
  8
0
100
AcDbLine
 62
7
  6
CONTINUOUS
 10
3.8986120672
 20
3.8933386811
 11
4.2172372629
 21
3.8933387545
  0
LINE
  5
2B3
100
AcDbEntity
  8
0
100
AcDbLine
 62
7
  6
CONTINUOUS
 10
6.3989255751
 20
3.9273389075
 11
6.4446120594
 21
3.927338918
  0
LINE
  5
2B4
100
AcDbEntity
  8
0
100
AcDbLine
 62
7
  6
CONTINUOUS
 10
6.4696120536
 20
3.9523389237
 11
6.4980680292
 21
3.9523389303
  0
LINE
  5
2B5
100
AcDbEntity
  8
03__ASM_ALL_CURVES
100
AcDbLine
 62
40
  6
CONTINUOUS
 10
4.7369644742
 20
5.1064484096
 11
4.7414131465
 21
5.1005168437
  0
LINE
  5
2B6
100
AcDbEntity
  8
03__ASM_ALL_CURVES
100
AcDbLine
 62
40
  6
CONTINUOUS
 10
4.7947972144
 20
5.0530643407
 11
4.803694559
 21
5.0412012141
  0
LINE
  5
2B7
100
AcDbEntity
  8
03__ASM_ALL_CURVES
100
AcDbLine
 62
40
  6
CONTINUOUS
 10
4.8570786269
 20
5.0471327774
 11
4.8526299546
 21
5.0530643407
  0
LINE
  5
2B8
100
AcDbEntity
  8
0
100
AcDbLine
 62
7
  6
CONTINUOUS
 10
5.6247372629
 20
3.5883389618
 11
5.6247372629
 21
3.5892364893
  0
LINE
  5
2B9
100
AcDbEntity
  8
0
100
AcDbLine
 62
7
  6
CONTINUOUS
 10
5.6247372629
 20
3.8076414343
 11
5.6247372629
 21
3.8589340168
  0
LINE
  5
2BA
100
AcDbEntity
  8
0
100
AcDbLine
 62
7
  6
CONTINUOUS
 10
5.6247372629
 20
4.2957439068
 11
5.6247372629
 21
4.3470364893
  0
LINE
  5
2BB
100
AcDbEntity
  8
0
100
AcDbLine
 62
7
  6
CONTINUOUS
 10
5.6247372629
 20
4.5654414343
 11
5.6247372629
 21
4.5663389618
  0
LINE
  5
2BC
100
AcDbEntity
  8
03__ASM_ALL_CURVES
100
AcDbLine
 62
40
  6
CONTINUOUS
 10
6.0793590805
 20
5.0589959034
 11
6.0704617359
 21
5.0471327774
  0
LINE
  5
2BD
100
AcDbEntity
  8
03__ASM_ALL_CURVES
100
AcDbLine
 62
40
  6
CONTINUOUS
 10
6.1060511145
 20
5.094585282
 11
6.1149484591
 21
5.1064484096
  0
LINE
  5
2BE
100
AcDbEntity
  8
03__ASM_ALL_CURVES
100
AcDbLine
 62
40
  6
CONTINUOUS
 10
6.1460891654
 20
5.0530643407
 11
6.141640493
 21
5.0471327774
  0
LINE
  5
2BF
100
AcDbEntity
  8
03__ASM_ALL_CURVES
100
AcDbLine
 62
40
  6
CONTINUOUS
 10
6.4975342787
 20
5.0471327774
 11
6.4886369341
 21
5.0412012141
  0
LINE
  5
2C0
100
AcDbEntity
  8
03__ASM_ALL_CURVES
100
AcDbLine
 62
40
  6
CONTINUOUS
 10
6.6220971037
 20
5.1123799713
 11
6.6131997591
 21
5.1064484096
  0
LINE
  5
2C1
100
AcDbEntity
  8
03__ASM_ALL_CURVES
100
AcDbLine
 62
40
  6
CONTINUOUS
 10
6.639891793
 20
5.0471327774
 11
6.6309944484
 21
5.0412012141
  0
LINE
  5
2C2
100
AcDbEntity
  8
03__ASM_ALL_CURVES
100
AcDbLine
 62
40
  6
CONTINUOUS
 10
6.7555572734
 20
5.1064484096
 11
6.764454618
 21
5.1123799713
  0
LINE
  5
2C3
100
AcDbEntity
  8
0
100
AcDbLine
 62
7
  6
CONTINUOUS
 10
4.4673658525
 20
4.0773389618
 11
4.3657081141
 21
4.0773389618
  0
LINE
  5
2C4
100
AcDbEntity
  8
03__ASM_ALL_CURVES
100
AcDbLine
 62
40
  6
CONTINUOUS
 10
7.5783038516
 20
4.089202088
 11
7.5716308431
 21
4.089202088
  0
LINE
  5
2C5
100
AcDbEntity
  8
03__ASM_ALL_CURVES
100
AcDbLine
 62
40
  6
CONTINUOUS
 10
7.6316879194
 20
4.1158941219
 11
7.6150053982
 21
4.1158941219
  0
LINE
  5
2C6
100
AcDbEntity
  8
03__ASM_ALL_CURVES
100
AcDbLine
 62
40
  6
CONTINUOUS
 10
7.5249197837
 20
4.1158941219
 11
7.5082372625
 21
4.1158941219
  0
LINE
  5
2C7
100
AcDbEntity
  8
03__ASM_ALL_CURVES
100
AcDbLine
 62
40
  6
CONTINUOUS
 10
7.5082372625
 20
4.1425861558
 11
7.5249197837
 21
4.1425861558
  0
LINE
  5
2C8
100
AcDbEntity
  8
03__ASM_ALL_CURVES
100
AcDbLine
 62
40
  6
CONTINUOUS
 10
7.5716308431
 20
4.1425861558
 11
7.5783038516
 21
4.1425861558
  0
LINE
  5
2C9
100
AcDbEntity
  8
03__ASM_ALL_CURVES
100
AcDbLine
 62
40
  6
CONTINUOUS
 10
7.6150053982
 20
4.1425861558
 11
7.6316879194
 21
4.1425861558
  0
LINE
  5
2CA
100
AcDbEntity
  8
03__ASM_ALL_CURVES
100
AcDbLine
 62
40
  6
CONTINUOUS
 10
7.6650529618
 20
4.1425861558
 11
7.6984180042
 21
4.1425861558
  0
LINE
  5
2CB
100
AcDbEntity
  8
03__ASM_ALL_CURVES
100
AcDbLine
 62
40
  6
CONTINUOUS
 10
6.7855166656
 20
3.4619548939
 11
6.7788436571
 21
3.4664035664
  0
LINE
  5
2CC
100
AcDbEntity
  8
03__ASM_ALL_CURVES
100
AcDbLine
 62
40
  6
CONTINUOUS
 10
6.7388056062
 20
3.5153389618
 11
6.7454786147
 21
3.5108902905
  0
LINE
  5
2CD
100
AcDbEntity
  8
03__ASM_ALL_CURVES
100
AcDbLine
 62
40
  6
CONTINUOUS
 10
4.8837706608
 20
5.0827221544
 11
4.8882193331
 21
5.0767905927
  0
LINE
  5
2CE
100
AcDbEntity
  8
03__ASM_ALL_CURVES
100
AcDbLine
 62
40
  6
CONTINUOUS
 10
4.9327060563
 20
5.0471327774
 11
4.928257384
 21
5.0530643407
  0
LINE
  5
2CF
100
AcDbEntity
  8
03__ASM_ALL_CURVES
100
AcDbLine
 62
40
  6
CONTINUOUS
 10
4.9505007456
 20
5.1064484096
 11
4.9549494179
 21
5.1005168437
  0
LINE
  5
2D0
100
AcDbEntity
  8
03__ASM_ALL_CURVES
100
AcDbLine
 62
40
  6
CONTINUOUS
 10
5.0083334858
 20
5.0471327774
 11
5.0127821581
 21
5.0412012141
  0
LINE
  5
2D1
100
AcDbEntity
  8
03__ASM_ALL_CURVES
100
AcDbLine
 62
40
  6
CONTINUOUS
 10
5.0706148983
 20
5.0471327774
 11
5.0617175537
 21
5.0589959034
  0
LINE
  5
2D2
100
AcDbEntity
  8
0
100
AcDbLine
 62
7
  6
CONTINUOUS
 10
5.6852372629
 20
3.6488389618
 11
5.6852372629
 21
4.5058389618
  0
LINE
  5
2D3
100
AcDbEntity
  8
03__ASM_ALL_CURVES
100
AcDbLine
 62
40
  6
CONTINUOUS
 10
5.8020585057
 20
5.029338088
 11
5.8020585057
 21
5.0056118356
  0
LINE
  5
2D4
100
AcDbEntity
  8
03__ASM_ALL_CURVES
100
AcDbLine
 62
40
  6
CONTINUOUS
 10
6.7822493073
 20
5.0471327774
 11
6.7733519627
 21
5.0412012141
  0
LINE
  5
2D5
100
AcDbEntity
  8
03__ASM_ALL_CURVES
100
AcDbLine
 62
40
  6
CONTINUOUS
 10
6.8534280644
 20
5.0471327774
 11
6.8445307198
 21
5.0412012141
  0
LINE
  5
2D6
100
AcDbEntity
  8
0
100
AcDbLine
 62
7
  6
CONTINUOUS
 10
6.469611996
 20
4.2023389237
 11
6.498067949
 21
4.2023389303
  0
LINE
  5
2D7
100
AcDbEntity
  8
0
100
AcDbLine
 62
7
  6
CONTINUOUS
 10
6.3985867455
 20
4.2273389074
 11
6.4446119903
 21
4.227338918
  0
LINE
  5
2D8
100
AcDbEntity
  8
0
100
AcDbLine
 62
7
  6
CONTINUOUS
 10
3.8986119825
 20
4.2613386811
 11
4.2172372629
 21
4.2613387545
  0
LINE
  5
2D9
100
AcDbEntity
  8
0
100
AcDbLine
 62
7
  6
CONTINUOUS
 10
5.6247372629
 20
4.2957439068
 11
5.2129708017
 21
4.2957439068
  0
LINE
  5
2DA
100
AcDbEntity
  8
03__ASM_ALL_CURVES
100
AcDbLine
 62
40
  6
CONTINUOUS
 10
6.7921896741
 20
3.5153389618
 11
6.7988626826
 21
3.5108902905
  0
LINE
  5
2DB
100
AcDbEntity
  8
03__ASM_ALL_CURVES
100
AcDbLine
 62
40
  6
CONTINUOUS
 10
6.8455737419
 20
3.5153389618
 11
6.8522467504
 21
3.5108902905
  0
LINE
  5
2DC
100
AcDbEntity
  8
03__ASM_ALL_CURVES
100
AcDbLine
 62
40
  6
CONTINUOUS
 10
6.9523418777
 20
3.5153389618
 11
6.9590148861
 21
3.5108902905
  0
LINE
  5
2DD
100
AcDbEntity
  8
03__ASM_ALL_CURVES
100
AcDbLine
 62
40
  6
CONTINUOUS
 10
4.5901582876
 20
5.1123799713
 11
4.5990556322
 21
5.1064484096
  0
LINE
  5
2DE
100
AcDbEntity
  8
03__ASM_ALL_CURVES
100
AcDbLine
 62
40
  6
CONTINUOUS
 10
5.0706148983
 20
5.0886537203
 11
5.066166226
 21
5.094585282
  0
LINE
  5
2DF
100
AcDbEntity
  8
03__ASM_ALL_CURVES
100
AcDbLine
 62
40
  6
CONTINUOUS
 10
5.0973069322
 20
5.0767905927
 11
5.1062042769
 21
5.0649274672
  0
LINE
  5
2E0
100
AcDbEntity
  8
03__ASM_ALL_CURVES
100
AcDbLine
 62
40
  6
CONTINUOUS
 10
5.0973069322
 20
5.1064484096
 11
5.1017556046
 21
5.1005168437
  0
LINE
  5
2E1
100
AcDbEntity
  8
03__ASM_ALL_CURVES
100
AcDbLine
 62
40
  6
CONTINUOUS
 10
5.1506910001
 20
5.1123799713
 11
5.1595883447
 21
5.1005168437
  0
LINE
  5
2E2
100
AcDbEntity
  8
THREAD
100
AcDbLine
 62
7
  6
CONTINUOUS
 10
6.0836199488
 20
3.6863389618
 11
6.0602372629
 21
3.7268389618
  0
LINE
  5
2E3
100
AcDbEntity
  8
0
100
AcDbLine
 62
7
  6
CONTINUOUS
 10
5.8732372629
 20
3.6488389618
 11
5.8732372629
 21
4.5058389618
  0
LINE
  5
2E4
100
AcDbEntity
  8
03__ASM_ALL_CURVES
100
AcDbLine
 62
40
  6
CONTINUOUS
 10
5.8732372629
 20
4.517702088
 11
5.8732372629
 21
5.0412012141
  0
LINE
  5
2E5
100
AcDbEntity
  8
THREAD
100
AcDbLine
 62
7
  6
CONTINUOUS
 10
5.8888257201
 20
3.6723389618
 11
5.8888257201
 21
4.4823389618
  0
LINE
  5
2E6
100
AcDbEntity
  8
THREAD
100
AcDbLine
 62
7
  6
CONTINUOUS
 10
5.9202372629
 20
3.6723389618
 11
5.9202372629
 21
4.4823389618
  0
LINE
  5
2E7
100
AcDbEntity
  8
03__ASM_ALL_CURVES
100
AcDbLine
 62
40
  6
CONTINUOUS
 10
5.94441602
 20
5.029338088
 11
5.94441602
 21
5.0056118356
  0
LINE
  5
2E8
100
AcDbEntity
  8
03__ASM_ALL_CURVES
100
AcDbLine
 62
40
  6
CONTINUOUS
 10
6.030423685
 20
5.0767905927
 11
6.0348723573
 21
5.094585282
  0
LINE
  5
2E9
100
AcDbEntity
  8
03__ASM_ALL_CURVES
100
AcDbLine
 62
40
  6
CONTINUOUS
 10
6.0838077529
 20
5.0767905927
 11
6.0793590805
 21
5.0589959034
  0
LINE
  5
2EA
100
AcDbEntity
  8
03__ASM_ALL_CURVES
100
AcDbLine
 62
40
  6
CONTINUOUS
 10
6.1016024421
 20
5.0767905927
 11
6.1060511145
 21
5.094585282
  0
LINE
  5
2EB
100
AcDbEntity
  8
03__ASM_ALL_CURVES
100
AcDbLine
 62
40
  6
CONTINUOUS
 10
6.1772298716
 20
5.0412012141
 11
6.1994732332
 21
5.1123799713
  0
LINE
  5
2EC
100
AcDbEntity
  8
THREAD
100
AcDbLine
 62
7
  6
CONTINUOUS
 10
6.0836199488
 20
4.4683389618
 11
6.0602372629
 21
4.4278389618
  0
LINE
  5
2ED
100
AcDbEntity
  8
03__ASM_ALL_CURVES
100
AcDbLine
 62
40
  6
CONTINUOUS
 10
6.4619449002
 20
5.094585282
 11
6.4708422448
 21
5.1064484096
  0
LINE
  5
2EE
100
AcDbEntity
  8
03__ASM_ALL_CURVES
100
AcDbLine
 62
40
  6
CONTINUOUS
 10
6.5019829511
 20
5.0530643407
 11
6.4975342787
 21
5.0471327774
  0
LINE
  5
2EF
100
AcDbEntity
  8
03__ASM_ALL_CURVES
100
AcDbLine
 62
40
  6
CONTINUOUS
 10
6.6131997591
 20
5.1064484096
 11
6.6087510868
 21
5.1005168437
  0
LINE
  5
2F0
100
AcDbEntity
  8
03__ASM_ALL_CURVES
100
AcDbLine
 62
40
  6
CONTINUOUS
 10
6.9913369064
 20
5.0471327774
 11
6.9824395618
 21
5.0412012141
  0
LINE
  5
2F1
100
AcDbEntity
  8
03__ASM_ALL_CURVES
100
AcDbLine
 62
40
  6
CONTINUOUS
 10
7.138143093
 20
5.0827221544
 11
7.1292457484
 21
5.0767905927
  0
LINE
  5
2F2
100
AcDbEntity
  8
0
100
AcDbLine
 62
7
  6
CONTINUOUS
 10
4.3067372629
 20
4.3428389618
 11
4.2907372629
 21
4.3428389618
  0
LINE
  5
2F3
100
AcDbEntity
  8
0
100
AcDbLine
 62
7
  6
CONTINUOUS
 10
5.6247372629
 20
4.3470364893
 11
5.2129708017
 21
4.3470364893
  0
LINE
  5
2F4
100
AcDbEntity
  8
0
100
AcDbLine
 62
7
  6
CONTINUOUS
 10
4.5292372629
 20
4.3483389618
 11
4.4982372629
 21
4.3483389618
  0
LINE
  5
2F5
100
AcDbEntity
  8
0
100
AcDbLine
 62
7
  6
CONTINUOUS
 10
4.2852372629
 20
4.3483389618
 11
4.2792372629
 21
4.3483389618
  0
LINE
  5
2F6
100
AcDbEntity
  8
0
100
AcDbLine
 62
7
  6
CONTINUOUS
 10
4.3222372629
 20
4.3583389618
 11
4.4924609846
 21
4.3583389618
  0
LINE
  5
2F7
100
AcDbEntity
  8
0
100
AcDbLine
 62
7
  6
CONTINUOUS
 10
7.1892372629
 20
4.3668389618
 11
7.1612372629
 21
4.3668389618
  0
LINE
  5
2F8
100
AcDbEntity
  8
0
100
AcDbLine
 62
7
  6
CONTINUOUS
 10
6.9332372629
 20
4.3898389618
 11
6.6212372629
 21
4.3898389618
  0
LINE
  5
2F9
100
AcDbEntity
  8
0
100
AcDbLine
 62
7
  6
CONTINUOUS
 10
6.6057372629
 20
4.4053389618
 11
6.5157372629
 21
4.4053389618
  0
LINE
  5
2FA
100
AcDbEntity
  8
0
100
AcDbLine
 62
7
  6
CONTINUOUS
 10
6.3907372629
 20
4.4053389618
 11
6.3082372629
 21
4.4053389618
  0
LINE
  5
2FB
100
AcDbEntity
  8
0
100
AcDbLine
 62
7
  6
CONTINUOUS
 10
7.2312372629
 20
4.4193389618
 11
7.1892372629
 21
4.4193389618
  0
LINE
  5
2FC
100
AcDbEntity
  8
0
100
AcDbLine
 62
7
  6
CONTINUOUS
 10
6.9912372629
 20
4.4193389618
 11
6.9332372629
 21
4.4193389618
  0
LINE
  5
2FD
100
AcDbEntity
  8
0
100
AcDbLine
 62
7
  6
CONTINUOUS
 10
6.9912372629
 20
4.4208389618
 11
7.0412372629
 21
4.4208389618
  0
LINE
  5
2FE
100
AcDbEntity
  8
0
100
AcDbLine
 62
7
  6
CONTINUOUS
 10
7.1112372629
 20
4.4208389618
 11
7.1612372629
 21
4.4208389618
  0
LINE
  5
2FF
100
AcDbEntity
  8
THREAD
100
AcDbLine
 62
7
  6
CONTINUOUS
 10
6.0602372629
 20
4.4278389618
 11
6.0402372629
 21
4.4278389618
  0
LINE
  5
300
100
AcDbEntity
  8
03__ASM_ALL_CURVES
100
AcDbLine
 62
40
  6
CONTINUOUS
 10
4.7280671296
 20
5.0412012141
 11
4.7191697849
 21
5.0471327774
  0
LINE
  5
301
100
AcDbEntity
  8
03__ASM_ALL_CURVES
100
AcDbLine
 62
40
  6
CONTINUOUS
 10
4.7280671296
 20
5.1123799713
 11
4.7369644742
 21
5.1064484096
  0
LINE
  5
302
100
AcDbEntity
  8
03__ASM_ALL_CURVES
100
AcDbLine
 62
40
  6
CONTINUOUS
 10
4.8659759715
 20
5.0412012141
 11
4.8570786269
 21
5.0471327774
  0
LINE
  5
303
100
AcDbEntity
  8
03__ASM_ALL_CURVES
100
AcDbLine
 62
40
  6
CONTINUOUS
 10
4.941603401
 20
5.0412012141
 11
4.9327060563
 21
5.0471327774
  0
LINE
  5
304
100
AcDbEntity
  8
03__ASM_ALL_CURVES
100
AcDbLine
 62
40
  6
CONTINUOUS
 10
4.8748733162
 20
5.0886537203
 11
4.8837706608
 21
5.0827221544
  0
LINE
  5
305
100
AcDbEntity
  8
0
100
AcDbLine
 62
7
  6
CONTINUOUS
 10
5.6852372629
 20
4.5058389618
 11
5.6251860266
 21
4.565890198
  0
LINE
  5
306
100
AcDbEntity
  8
03__ASM_ALL_CURVES
100
AcDbLine
 62
40
  6
CONTINUOUS
 10
5.9681422725
 20
5.1123799713
 11
5.9681422725
 21
5.0412012141
  0
LINE
  5
307
100
AcDbEntity
  8
0
100
AcDbLine
 62
7
  6
CONTINUOUS
 10
5.9902372629
 20
3.6728395767
 11
5.9902372629
 21
4.4818383468
  0
LINE
  5
308
100
AcDbEntity
  8
0
100
AcDbLine
 62
7
  6
CONTINUOUS
 10
6.0402372629
 20
3.6728395767
 11
6.0402372629
 21
4.4818383468
  0
LINE
  5
309
100
AcDbEntity
  8
THREAD
100
AcDbLine
 62
7
  6
CONTINUOUS
 10
6.0602372629
 20
3.7268389618
 11
6.0602372629
 21
4.4278389618
  0
LINE
  5
30A
100
AcDbEntity
  8
THREAD
100
AcDbLine
 62
7
  6
CONTINUOUS
 10
6.0836199488
 20
3.6863389618
 11
6.0836199488
 21
4.4683389618
  0
LINE
  5
30B
100
AcDbEntity
  8
03__ASM_ALL_CURVES
100
AcDbLine
 62
40
  6
CONTINUOUS
 10
6.6443404653
 20
5.0530643407
 11
6.639891793
 21
5.0471327774
  0
LINE
  5
30C
100
AcDbEntity
  8
03__ASM_ALL_CURVES
100
AcDbLine
 62
40
  6
CONTINUOUS
 10
6.7466599287
 20
5.094585282
 11
6.7555572734
 21
5.1064484096
  0
LINE
  5
30D
100
AcDbEntity
  8
0
100
AcDbLine
 62
7
  6
CONTINUOUS
 10
4.5912372629
 20
4.4508389618
 11
5.1832372629
 21
4.4508389618
  0
LINE
  5
30E
100
AcDbEntity
  8
THREAD
100
AcDbLine
 62
7
  6
CONTINUOUS
 10
6.2612372629
 20
4.4683389618
 11
6.0836199488
 21
4.4683389618
  0
LINE
  5
30F
100
AcDbEntity
  8
0
100
AcDbLine
 62
7
  6
CONTINUOUS
 10
5.9902372629
 20
4.4818389618
 11
6.0402372629
 21
4.4818389618
  0
LINE
  5
310
100
AcDbEntity
  8
THREAD
100
AcDbLine
 62
7
  6
CONTINUOUS
 10
5.9202372629
 20
4.4823389618
 11
5.8888257201
 21
4.4823389618
  0
LINE
  5
311
100
AcDbEntity
  8
0
100
AcDbLine
 62
7
  6
CONTINUOUS
 10
5.8732372629
 20
4.5058389618
 11
5.6852372629
 21
4.5058389618
  0
LINE
  5
312
100
AcDbEntity
  8
0
100
AcDbLine
 62
7
  6
CONTINUOUS
 10
5.6247372629
 20
4.5654414343
 11
5.2129708017
 21
4.5654414343
  0
LINE
  5
313
100
AcDbEntity
  8
0
100
AcDbLine
 62
7
  6
CONTINUOUS
 10
5.6247372629
 20
4.5663389618
 11
5.2129708017
 21
4.5663389618
  0
LINE
  5
314
100
AcDbEntity
  8
THREAD
100
AcDbLine
 62
7
  6
CONTINUOUS
 10
5.8888257201
 20
4.4823389618
 11
5.8732372629
 21
4.4913389618
  0
LINE
  5
315
100
AcDbEntity
  8
03__ASM_ALL_CURVES
100
AcDbLine
 62
40
  6
CONTINUOUS
 10
4.941603401
 20
5.1123799713
 11
4.9505007456
 21
5.1064484096
  0
LINE
  5
316
100
AcDbEntity
  8
03__ASM_ALL_CURVES
100
AcDbLine
 62
40
  6
CONTINUOUS
 10
5.0795122429
 20
5.0412012141
 11
5.0706148983
 21
5.0471327774
  0
LINE
  5
317
100
AcDbEntity
  8
03__ASM_ALL_CURVES
100
AcDbLine
 62
40
  6
CONTINUOUS
 10
5.0795122429
 20
5.0827221544
 11
5.0706148983
 21
5.0886537203
  0
LINE
  5
318
100
AcDbEntity
  8
03__ASM_ALL_CURVES
100
AcDbLine
 62
40
  6
CONTINUOUS
 10
5.0884095876
 20
5.0827221544
 11
5.0973069322
 21
5.0767905927
  0
LINE
  5
319
100
AcDbEntity
  8
03__ASM_ALL_CURVES
100
AcDbLine
 62
40
  6
CONTINUOUS
 10
5.0884095876
 20
5.1123799713
 11
5.0973069322
 21
5.1064484096
  0
LINE
  5
31A
100
AcDbEntity
  8
03__ASM_ALL_CURVES
100
AcDbLine
 62
40
  6
CONTINUOUS
 10
6.7788436571
 20
3.4664035664
 11
6.7721706486
 21
3.4753009109
  0
LINE
  5
31B
100
AcDbEntity
  8
03__ASM_ALL_CURVES
100
AcDbLine
 62
40
  6
CONTINUOUS
 10
6.7454786147
 20
3.5108902905
 11
6.748815119
 21
3.5064416161
  0
LINE
  5
31C
100
AcDbEntity
  8
03__ASM_ALL_CURVES
100
AcDbLine
 62
40
  6
CONTINUOUS
 10
6.791146652
 20
5.0589959034
 11
6.7822493073
 21
5.0471327774
  0
LINE
  5
31D
100
AcDbEntity
  8
03__ASM_ALL_CURVES
100
AcDbLine
 62
40
  6
CONTINUOUS
 10
6.8578767368
 20
5.0530643407
 11
6.8534280644
 21
5.0471327774
  0
LINE
  5
31E
100
AcDbEntity
  8
0
100
AcDbLine
 62
7
  6
CONTINUOUS
 10
5.6852372629
 20
3.6488389618
 11
5.6251860266
 21
3.5887877255
  0
LINE
  5
31F
100
AcDbEntity
  8
03__ASM_ALL_CURVES
100
AcDbLine
 62
40
  6
CONTINUOUS
 10
3.938790782
 20
5.0056118356
 11
3.8676120248
 21
5.0174749618
  0
LINE
  5
320
100
AcDbEntity
  8
0
100
AcDbLine
 62
7
  6
CONTINUOUS
 10
6.4446119903
 20
4.227338918
 11
6.469611996
 21
4.2023389237
  0
LINE
  5
321
100
AcDbEntity
  8
03__ASM_ALL_CURVES
100
AcDbLine
 62
40
  6
CONTINUOUS
 10
6.7988626826
 20
3.5108902905
 11
6.805535691
 21
3.5019929448
  0
LINE
  5
322
100
AcDbEntity
  8
03__ASM_ALL_CURVES
100
AcDbLine
 62
40
  6
CONTINUOUS
 10
6.8522467504
 20
3.5108902905
 11
6.8555832547
 21
3.5064416161
  0
LINE
  5
323
100
AcDbEntity
  8
03__ASM_ALL_CURVES
100
AcDbLine
 62
40
  6
CONTINUOUS
 10
6.0348723573
 20
5.0589959034
 11
6.030423685
 21
5.0767905927
  0
LINE
  5
324
100
AcDbEntity
  8
THREAD
100
AcDbLine
 62
7
  6
CONTINUOUS
 10
6.2612372629
 20
3.6863389618
 11
6.2612372629
 21
4.4683389618
  0
LINE
  5
325
100
AcDbEntity
  8
03__ASM_ALL_CURVES
100
AcDbLine
 62
40
  6
CONTINUOUS
 10
6.2706519904
 20
5.1123799713
 11
6.2706519904
 21
5.0412012141
  0
LINE
  5
326
100
AcDbEntity
  8
0
100
AcDbLine
 62
7
  6
CONTINUOUS
 10
6.3082372629
 20
3.7333389618
 11
6.3082372629
 21
4.4213389618
  0
LINE
  5
327
100
AcDbEntity
  8
03__ASM_ALL_CURVES
100
AcDbLine
 62
40
  6
CONTINUOUS
 10
6.3418307475
 20
5.1123799713
 11
6.3418307475
 21
5.0412012141
  0
LINE
  5
328
100
AcDbEntity
  8
03__ASM_ALL_CURVES
100
AcDbLine
 62
40
  6
CONTINUOUS
 10
6.4574962279
 20
5.0767905927
 11
6.4619449002
 21
5.094585282
  0
LINE
  5
329
100
AcDbEntity
  8
03__ASM_ALL_CURVES
100
AcDbLine
 62
40
  6
CONTINUOUS
 10
7.0002342511
 20
5.0589959034
 11
6.9913369064
 21
5.0471327774
  0
LINE
  5
32A
100
AcDbEntity
  8
THREAD
100
AcDbLine
 62
7
  6
CONTINUOUS
 10
5.8888257201
 20
3.6723389618
 11
5.8732372629
 21
3.6633389618
  0
LINE
  5
32B
100
AcDbEntity
  8
03__ASM_ALL_CURVES
100
AcDbLine
 62
40
  6
CONTINUOUS
 10
3.938790782
 20
5.0115433987
 11
3.8676120248
 21
5.0174749618
  0
LINE
  5
32C
100
AcDbEntity
  8
03__ASM_ALL_CURVES
100
AcDbLine
 62
40
  6
CONTINUOUS
 10
3.938790782
 20
5.009566211
 11
3.8676120248
 21
5.0174749618
  0
LINE
  5
32D
100
AcDbEntity
  8
03__ASM_ALL_CURVES
100
AcDbLine
 62
40
  6
CONTINUOUS
 10
3.938790782
 20
5.0075890233
 11
3.8676120248
 21
5.0174749618
  0
LINE
  5
32E
100
AcDbEntity
  8
THREAD
100
AcDbLine
 62
7
  6
CONTINUOUS
 10
6.3082372629
 20
4.4213389618
 11
6.2612372629
 21
4.4683389618
  0
LINE
  5
32F
100
AcDbEntity
  8
03__ASM_ALL_CURVES
100
AcDbLine
 62
40
  6
CONTINUOUS
 10
6.9590148861
 20
3.5108902905
 11
6.9623513904
 21
3.5064416161
  0
LINE
  5
330
100
AcDbEntity
  8
03__ASM_ALL_CURVES
100
AcDbLine
 62
40
  6
CONTINUOUS
 10
6.0793590805
 20
5.094585282
 11
6.0838077529
 21
5.0767905927
  0
LINE
  5
331
100
AcDbEntity
  8
03__ASM_ALL_CURVES
100
AcDbLine
 62
40
  6
CONTINUOUS
 10
6.1060511145
 20
5.0589959034
 11
6.1016024421
 21
5.0767905927
  0
LINE
  5
332
100
AcDbEntity
  8
03__ASM_ALL_CURVES
100
AcDbLine
 62
40
  6
CONTINUOUS
 10
6.3952148154
 20
5.0412012141
 11
6.3952148154
 21
5.1123799713
  0
LINE
  5
333
100
AcDbEntity
  8
03__ASM_ALL_CURVES
100
AcDbLine
 62
40
  6
CONTINUOUS
 10
6.4308041939
 20
5.0412012141
 11
6.4308041939
 21
5.1123799713
  0
LINE
  5
334
100
AcDbEntity
  8
0
100
AcDbLine
 62
7
  6
CONTINUOUS
 10
6.4446119903
 20
4.227338918
 11
6.4446120254
 21
4.185292137
  0
LINE
  5
335
100
AcDbEntity
  8
0
100
AcDbLine
 62
7
  6
CONTINUOUS
 10
6.4446120752
 20
3.9693857972
 11
6.4446120594
 21
3.927338918
  0
LINE
  5
336
100
AcDbEntity
  8
0
100
AcDbLine
 62
7
  6
CONTINUOUS
 10
6.469611996
 20
4.2023389237
 11
6.4696120145
 21
4.1863469392
  0
LINE
  5
337
100
AcDbEntity
  8
0
100
AcDbLine
 62
7
  6
CONTINUOUS
 10
6.4696120647
 20
3.9683309727
 11
6.4696120536
 21
3.9523389237
  0
LINE
  5
338
100
AcDbEntity
  8
03__ASM_ALL_CURVES
100
AcDbLine
 62
40
  6
CONTINUOUS
 10
6.5019829511
 20
5.0767905927
 11
6.5019829511
 21
5.0530643407
  0
LINE
  5
339
100
AcDbEntity
  8
03__ASM_ALL_CURVES
100
AcDbLine
 62
40
  6
CONTINUOUS
 10
7.1425917653
 20
5.0886537203
 11
7.138143093
 21
5.0827221544
  0
LINE
  5
33A
100
AcDbEntity
  8
0
100
AcDbLine
 62
7
  6
CONTINUOUS
 10
6.4446120594
 20
3.927338918
 11
6.4696120536
 21
3.9523389237
  0
LINE
  5
33B
100
AcDbEntity
  8
03__ASM_ALL_CURVES
100
AcDbLine
 62
40
  6
CONTINUOUS
 10
5.8020585057
 20
5.0056118356
 11
5.94441602
 21
5.029338088
  0
LINE
  5
33C
100
AcDbEntity
  8
03__ASM_ALL_CURVES
100
AcDbLine
 62
40
  6
CONTINUOUS
 10
5.8020585057
 20
5.0075890233
 11
5.94441602
 21
5.0273609003
  0
LINE
  5
33D
100
AcDbEntity
  8
03__ASM_ALL_CURVES
100
AcDbLine
 62
40
  6
CONTINUOUS
 10
5.8020585057
 20
5.009566211
 11
5.94441602
 21
5.0253837126
  0
LINE
  5
33E
100
AcDbEntity
  8
03__ASM_ALL_CURVES
100
AcDbLine
 62
40
  6
CONTINUOUS
 10
3.938790782
 20
5.0154977741
 11
3.8676120248
 21
5.0174749618
  0
LINE
  5
33F
100
AcDbEntity
  8
03__ASM_ALL_CURVES
100
AcDbLine
 62
40
  6
CONTINUOUS
 10
3.938790782
 20
5.0135205864
 11
3.8676120248
 21
5.0174749618
  0
LINE
  5
340
100
AcDbEntity
  8
0
100
AcDbLine
 62
7
  6
CONTINUOUS
 10
6.6212372629
 20
4.3898389618
 11
6.6057372629
 21
4.4053389618
  0
LINE
  5
341
100
AcDbEntity
  8
03__ASM_ALL_CURVES
100
AcDbLine
 62
40
  6
CONTINUOUS
 10
6.043769702
 20
5.0471327774
 11
6.0348723573
 21
5.0589959034
  0
LINE
  5
342
100
AcDbEntity
  8
03__ASM_ALL_CURVES
100
AcDbLine
 62
40
  6
CONTINUOUS
 10
6.1149484591
 20
5.0471327774
 11
6.1060511145
 21
5.0589959034
  0
LINE
  5
343
100
AcDbEntity
  8
03__ASM_ALL_CURVES
100
AcDbLine
 62
40
  6
CONTINUOUS
 10
6.0704617359
 20
5.1064484096
 11
6.0793590805
 21
5.094585282
  0
LINE
  5
344
100
AcDbEntity
  8
03__ASM_ALL_CURVES
100
AcDbLine
 62
40
  6
CONTINUOUS
 10
6.8455737419
 20
3.4886469278
 11
6.8555832547
 21
3.4619548939
  0
LINE
  5
345
100
AcDbEntity
  8
03__ASM_ALL_CURVES
100
AcDbLine
 62
40
  6
CONTINUOUS
 10
6.1994732332
 20
5.1123799713
 11
6.2217165948
 21
5.0412012141
  0
LINE
  5
346
100
AcDbEntity
  8
0
100
AcDbLine
 62
7
  6
CONTINUOUS
 10
6.6057372629
 20
3.7493389618
 11
6.6057372629
 21
4.4053389618
  0
LINE
  5
347
100
AcDbEntity
  8
03__ASM_ALL_CURVES
100
AcDbLine
 62
40
  6
CONTINUOUS
 10
6.6087510868
 20
5.1005168437
 11
6.6087510868
 21
5.094585282
  0
LINE
  5
348
100
AcDbEntity
  8
0
100
AcDbLine
 62
7
  6
CONTINUOUS
 10
6.6212372629
 20
3.7648389618
 11
6.6212372629
 21
4.3898389618
  0
LINE
  5
349
100
AcDbEntity
  8
03__ASM_ALL_CURVES
100
AcDbLine
 62
40
  6
CONTINUOUS
 10
6.6443404653
 20
5.0649274672
 11
6.6443404653
 21
5.0530643407
  0
LINE
  5
34A
100
AcDbEntity
  8
03__ASM_ALL_CURVES
100
AcDbLine
 62
40
  6
CONTINUOUS
 10
6.7422112564
 20
5.0767905927
 11
6.7466599287
 21
5.094585282
  0
LINE
  5
34B
100
AcDbEntity
  8
03__ASM_ALL_CURVES
100
AcDbLine
 62
40
  6
CONTINUOUS
 10
6.7955953243
 20
5.0767905927
 11
6.791146652
 21
5.0589959034
  0
LINE
  5
34C
100
AcDbEntity
  8
THREAD
100
AcDbLine
 62
7
  6
CONTINUOUS
 10
6.3082372629
 20
3.7333389618
 11
6.2612372629
 21
3.6863389618
  0
LINE
  5
34D
100
AcDbEntity
  8
03__ASM_ALL_CURVES
100
AcDbLine
 62
40
  6
CONTINUOUS
 10
5.8020585057
 20
5.0115433987
 11
5.94441602
 21
5.0234065249
  0
LINE
  5
34E
100
AcDbEntity
  8
03__ASM_ALL_CURVES
100
AcDbLine
 62
40
  6
CONTINUOUS
 10
5.8020585057
 20
5.0135205864
 11
5.94441602
 21
5.0214293372
  0
LINE
  5
34F
100
AcDbEntity
  8
03__ASM_ALL_CURVES
100
AcDbLine
 62
40
  6
CONTINUOUS
 10
3.938790782
 20
5.0214293372
 11
3.8676120248
 21
5.0174749618
  0
LINE
  5
350
100
AcDbEntity
  8
03__ASM_ALL_CURVES
100
AcDbLine
 62
40
  6
CONTINUOUS
 10
5.8020585057
 20
5.0154977741
 11
5.94441602
 21
5.0194521495
  0
LINE
  5
351
100
AcDbEntity
  8
03__ASM_ALL_CURVES
100
AcDbLine
 62
40
  6
CONTINUOUS
 10
3.938790782
 20
5.0194521495
 11
3.8676120248
 21
5.0174749618
  0
LINE
  5
352
100
AcDbEntity
  8
03__ASM_ALL_CURVES
100
AcDbLine
 62
40
  6
CONTINUOUS
 10
3.8676120248
 20
5.0174749618
 11
7.2256336485
 21
5.0174749618
  0
LINE
  5
353
100
AcDbEntity
  8
03__ASM_ALL_CURVES
100
AcDbLine
 62
40
  6
CONTINUOUS
 10
7.0714130082
 20
5.0412012141
 11
7.0358236296
 21
5.0412012141
  0
LINE
  5
354
100
AcDbEntity
  8
03__ASM_ALL_CURVES
100
AcDbLine
 62
40
  6
CONTINUOUS
 10
6.9824395618
 20
5.0412012141
 11
6.9646448725
 21
5.0412012141
  0
LINE
  5
355
100
AcDbEntity
  8
03__ASM_ALL_CURVES
100
AcDbLine
 62
40
  6
CONTINUOUS
 10
6.8445307198
 20
5.0412012141
 11
6.8356333752
 21
5.0412012141
  0
LINE
  5
356
100
AcDbEntity
  8
03__ASM_ALL_CURVES
100
AcDbLine
 62
40
  6
CONTINUOUS
 10
6.7733519627
 20
5.0412012141
 11
6.764454618
 21
5.0412012141
  0
LINE
  5
357
100
AcDbEntity
  8
03__ASM_ALL_CURVES
100
AcDbLine
 62
40
  6
CONTINUOUS
 10
6.6309944484
 20
5.0412012141
 11
6.6220971037
 21
5.0412012141
  0
LINE
  5
358
100
AcDbEntity
  8
03__ASM_ALL_CURVES
100
AcDbLine
 62
40
  6
CONTINUOUS
 10
6.4886369341
 20
5.0412012141
 11
6.4797395895
 21
5.0412012141
  0
LINE
  5
359
100
AcDbEntity
  8
03__ASM_ALL_CURVES
100
AcDbLine
 62
40
  6
CONTINUOUS
 10
6.1327431484
 20
5.0412012141
 11
6.1238458038
 21
5.0412012141
  0
LINE
  5
35A
100
AcDbEntity
  8
03__ASM_ALL_CURVES
100
AcDbLine
 62
40
  6
CONTINUOUS
 10
6.0615643913
 20
5.0412012141
 11
6.0526670466
 21
5.0412012141
  0
LINE
  5
35B
100
AcDbEntity
  8
03__ASM_ALL_CURVES
100
AcDbLine
 62
40
  6
CONTINUOUS
 10
5.0884095876
 20
5.0412012141
 11
5.0795122429
 21
5.0412012141
  0
LINE
  5
35C
100
AcDbEntity
  8
03__ASM_ALL_CURVES
100
AcDbLine
 62
40
  6
CONTINUOUS
 10
5.0127821581
 20
5.0412012141
 11
5.0083334858
 21
5.0412012141
  0
LINE
  5
35D
100
AcDbEntity
  8
03__ASM_ALL_CURVES
100
AcDbLine
 62
40
  6
CONTINUOUS
 10
4.8748733162
 20
5.0412012141
 11
4.8659759715
 21
5.0412012141
  0
LINE
  5
35E
100
AcDbEntity
  8
03__ASM_ALL_CURVES
100
AcDbLine
 62
40
  6
CONTINUOUS
 10
4.6568883724
 20
5.0412012141
 11
4.6524397001
 21
5.0412012141
  0
LINE
  5
35F
100
AcDbEntity
  8
03__ASM_ALL_CURVES
100
AcDbLine
 62
40
  6
CONTINUOUS
 10
4.567914926
 20
5.0412012141
 11
4.6035043046
 21
5.0412012141
  0
LINE
  5
360
100
AcDbEntity
  8
03__ASM_ALL_CURVES
100
AcDbLine
 62
40
  6
CONTINUOUS
 10
5.9681422725
 20
5.0412012141
 11
6.0037316511
 21
5.0412012141
  0
LINE
  5
361
100
AcDbEntity
  8
03__ASM_ALL_CURVES
100
AcDbLine
 62
40
  6
CONTINUOUS
 10
6.8934661153
 20
5.0412012141
 11
6.9290554939
 21
5.0412012141
  0
LINE
  5
362
100
AcDbEntity
  8
03__ASM_ALL_CURVES
100
AcDbLine
 62
40
  6
CONTINUOUS
 10
6.1861272163
 20
5.0649274672
 11
6.2128192502
 21
5.0649274672
  0
LINE
  5
363
100
AcDbEntity
  8
03__ASM_ALL_CURVES
100
AcDbLine
 62
40
  6
CONTINUOUS
 10
7.1292457484
 20
5.0767905927
 11
7.1070023868
 21
5.0767905927
  0
LINE
  5
364
100
AcDbEntity
  8
03__ASM_ALL_CURVES
100
AcDbLine
 62
40
  6
CONTINUOUS
 10
6.4841882618
 20
5.0767905927
 11
6.5019829511
 21
5.0767905927
  0
LINE
  5
365
100
AcDbEntity
  8
03__ASM_ALL_CURVES
100
AcDbLine
 62
40
  6
CONTINUOUS
 10
6.6799298439
 20
5.0767905927
 11
6.7155192225
 21
5.0767905927
  0
LINE
  5
366
100
AcDbEntity
  8
03__ASM_ALL_CURVES
100
AcDbLine
 62
40
  6
CONTINUOUS
 10
7.0358236296
 20
5.0767905927
 11
7.0580669912
 21
5.0767905927
  0
LINE
  5
367
100
AcDbEntity
  8
03__ASM_ALL_CURVES
100
AcDbLine
 62
40
  6
CONTINUOUS
 10
5.0795122429
 20
5.0827221544
 11
5.0884095876
 21
5.0827221544
  0
LINE
  5
368
100
AcDbEntity
  8
03__ASM_ALL_CURVES
100
AcDbLine
 62
40
  6
CONTINUOUS
 10
4.8659759715
 20
5.0886537203
 11
4.8748733162
 21
5.0886537203
  0
LINE
  5
369
100
AcDbEntity
  8
03__ASM_ALL_CURVES
100
AcDbLine
 62
40
  6
CONTINUOUS
 10
6.6309944484
 20
5.1123799713
 11
6.6220971037
 21
5.1123799713
  0
LINE
  5
36A
100
AcDbEntity
  8
03__ASM_ALL_CURVES
100
AcDbLine
 62
40
  6
CONTINUOUS
 10
4.8882193331
 20
5.1123799713
 11
4.8615272992
 21
5.1123799713
  0
LINE
  5
36B
100
AcDbEntity
  8
03__ASM_ALL_CURVES
100
AcDbLine
 62
40
  6
CONTINUOUS
 10
4.581260943
 20
5.1123799713
 11
4.5901582876
 21
5.1123799713
  0
LINE
  5
36C
100
AcDbEntity
  8
03__ASM_ALL_CURVES
100
AcDbLine
 62
40
  6
CONTINUOUS
 10
5.0795122429
 20
5.1123799713
 11
5.0884095876
 21
5.1123799713
  0
LINE
  5
36D
100
AcDbEntity
  8
03__ASM_ALL_CURVES
100
AcDbLine
 62
40
  6
CONTINUOUS
 10
6.0526670466
 20
5.1123799713
 11
6.0615643913
 21
5.1123799713
  0
LINE
  5
36E
100
AcDbEntity
  8
03__ASM_ALL_CURVES
100
AcDbLine
 62
40
  6
CONTINUOUS
 10
6.1238458038
 20
5.1123799713
 11
6.1327431484
 21
5.1123799713
  0
LINE
  5
36F
100
AcDbEntity
  8
03__ASM_ALL_CURVES
100
AcDbLine
 62
40
  6
CONTINUOUS
 10
6.2484086288
 20
5.1123799713
 11
6.292895352
 21
5.1123799713
  0
LINE
  5
370
100
AcDbEntity
  8
03__ASM_ALL_CURVES
100
AcDbLine
 62
40
  6
CONTINUOUS
 10
6.4797395895
 20
5.1123799713
 11
6.4886369341
 21
5.1123799713
  0
LINE
  5
371
100
AcDbEntity
  8
03__ASM_ALL_CURVES
100
AcDbLine
 62
40
  6
CONTINUOUS
 10
6.764454618
 20
5.1123799713
 11
6.7733519627
 21
5.1123799713
  0
LINE
  5
372
100
AcDbEntity
  8
03__ASM_ALL_CURVES
100
AcDbLine
 62
40
  6
CONTINUOUS
 10
6.9646448725
 20
5.1123799713
 11
6.9824395618
 21
5.1123799713
  0
LINE
  5
373
100
AcDbEntity
  8
03__ASM_ALL_CURVES
100
AcDbLine
 62
40
  6
CONTINUOUS
 10
7.0358236296
 20
5.1123799713
 11
7.0714130082
 21
5.1123799713
  0
LINE
  5
374
100
AcDbEntity
  8
03__ASM_ALL_CURVES
100
AcDbLine
 62
40
  6
CONTINUOUS
 10
7.1070023868
 20
5.1123799713
 11
7.1292457484
 21
5.1123799713
  0
LINE
  5
375
100
AcDbEntity
  8
03__ASM_ALL_CURVES
100
AcDbLine
 62
40
  6
CONTINUOUS
 10
5.8020585057
 20
5.0194521495
 11
5.94441602
 21
5.0154977741
  0
LINE
  5
376
100
AcDbEntity
  8
03__ASM_ALL_CURVES
100
AcDbLine
 62
40
  6
CONTINUOUS
 10
5.8020585057
 20
5.0214293372
 11
5.94441602
 21
5.0135205864
  0
LINE
  5
377
100
AcDbEntity
  8
03__ASM_ALL_CURVES
100
AcDbLine
 62
40
  6
CONTINUOUS
 10
5.8020585057
 20
5.0234065249
 11
5.94441602
 21
5.0115433987
  0
LINE
  5
378
100
AcDbEntity
  8
03__ASM_ALL_CURVES
100
AcDbLine
 62
40
  6
CONTINUOUS
 10
5.8020585057
 20
5.0253837126
 11
5.94441602
 21
5.009566211
  0
LINE
  5
379
100
AcDbEntity
  8
03__ASM_ALL_CURVES
100
AcDbLine
 62
40
  6
CONTINUOUS
 10
5.8020585057
 20
5.0273609003
 11
5.94441602
 21
5.0075890233
  0
LINE
  5
37A
100
AcDbEntity
  8
03__ASM_ALL_CURVES
100
AcDbLine
 62
40
  6
CONTINUOUS
 10
5.94441602
 20
5.0056118356
 11
5.8020585057
 21
5.029338088
  0
LINE
  5
37B
100
AcDbEntity
  8
03__ASM_ALL_CURVES
100
AcDbLine
 62
40
  6
CONTINUOUS
 10
6.0526670466
 20
5.0412012141
 11
6.043769702
 21
5.0471327774
  0
LINE
  5
37C
100
AcDbEntity
  8
03__ASM_ALL_CURVES
100
AcDbLine
 62
40
  6
CONTINUOUS
 10
6.1238458038
 20
5.0412012141
 11
6.1149484591
 21
5.0471327774
  0
LINE
  5
37D
100
AcDbEntity
  8
03__ASM_ALL_CURVES
100
AcDbLine
 62
40
  6
CONTINUOUS
 10
7.5716308431
 20
4.089202088
 11
7.5649578346
 21
4.0936507604
  0
LINE
  5
37E
100
AcDbEntity
  8
03__ASM_ALL_CURVES
100
AcDbLine
 62
40
  6
CONTINUOUS
 10
6.0615643913
 20
5.1123799713
 11
6.0704617359
 21
5.1064484096
  0
LINE
  5
37F
100
AcDbEntity
  8
03__ASM_ALL_CURVES
100
AcDbLine
 62
40
  6
CONTINUOUS
 10
7.5249197837
 20
4.1425861558
 11
7.5315927922
 21
4.1381374845
  0
LINE
  5
380
100
AcDbEntity
  8
03__ASM_ALL_CURVES
100
AcDbLine
 62
40
  6
CONTINUOUS
 10
6.141640493
 20
5.1064484096
 11
6.1460891654
 21
5.1005168437
  0
LINE
  5
381
100
AcDbEntity
  8
03__ASM_ALL_CURVES
100
AcDbLine
 62
40
  6
CONTINUOUS
 10
6.7721706486
 20
3.4753009109
 11
6.7688341444
 21
3.4886469278
  0
LINE
  5
382
100
AcDbEntity
  8
03__ASM_ALL_CURVES
100
AcDbLine
 62
40
  6
CONTINUOUS
 10
6.805535691
 20
3.5019929448
 11
6.8088721953
 21
3.4886469278
  0
LINE
  5
383
100
AcDbEntity
  8
03__ASM_ALL_CURVES
100
AcDbLine
 62
40
  6
CONTINUOUS
 10
6.4619449002
 20
5.0589959034
 11
6.4574962279
 21
5.0767905927
  0
LINE
  5
384
100
AcDbEntity
  8
03__ASM_ALL_CURVES
100
AcDbLine
 62
40
  6
CONTINUOUS
 10
6.6799298439
 20
5.1123799713
 11
6.6799298439
 21
5.0412012141
  0
LINE
  5
385
100
AcDbEntity
  8
03__ASM_ALL_CURVES
100
AcDbLine
 62
40
  6
CONTINUOUS
 10
6.7155192225
 20
5.1123799713
 11
6.7155192225
 21
5.0412012141
  0
LINE
  5
386
100
AcDbEntity
  8
03__ASM_ALL_CURVES
100
AcDbLine
 62
40
  6
CONTINUOUS
 10
6.722123085
 20
3.4619548939
 11
6.722123085
 21
3.5153389618
  0
LINE
  5
387
100
AcDbEntity
  8
03__ASM_ALL_CURVES
100
AcDbLine
 62
40
  6
CONTINUOUS
 10
6.748815119
 20
3.5064416161
 11
6.748815119
 21
3.4975442735
  0
LINE
  5
388
100
AcDbEntity
  8
03__ASM_ALL_CURVES
100
AcDbLine
 62
40
  6
CONTINUOUS
 10
7.0046829234
 20
5.0767905927
 11
7.0002342511
 21
5.0589959034
  0
LINE
  5
389
100
AcDbEntity
  8
0
100
AcDbLine
 62
7
  6
CONTINUOUS
 10
6.6212372629
 20
3.7648389618
 11
6.6057372629
 21
3.7493389618
  0
LINE
  5
38A
100
AcDbEntity
  8
03__ASM_ALL_CURVES
100
AcDbLine
 62
40
  6
CONTINUOUS
 10
3.938790782
 20
5.0273609003
 11
3.8676120248
 21
5.0174749618
  0
LINE
  5
38B
100
AcDbEntity
  8
03__ASM_ALL_CURVES
100
AcDbLine
 62
40
  6
CONTINUOUS
 10
3.938790782
 20
5.0253837126
 11
3.8676120248
 21
5.0174749618
  0
LINE
  5
38C
100
AcDbEntity
  8
03__ASM_ALL_CURVES
100
AcDbLine
 62
40
  6
CONTINUOUS
 10
3.938790782
 20
5.0234065249
 11
3.8676120248
 21
5.0174749618
  0
LINE
  5
38D
100
AcDbEntity
  8
03__ASM_ALL_CURVES
100
AcDbLine
 62
40
  6
CONTINUOUS
 10
7.5783038516
 20
4.1425861558
 11
7.58497686
 21
4.1381374845
  0
LINE
  5
38E
100
AcDbEntity
  8
03__ASM_ALL_CURVES
100
AcDbLine
 62
40
  6
CONTINUOUS
 10
6.1327431484
 20
5.1123799713
 11
6.141640493
 21
5.1064484096
  0
LINE
  5
38F
100
AcDbEntity
  8
03__ASM_ALL_CURVES
100
AcDbLine
 62
40
  6
CONTINUOUS
 10
7.6316879194
 20
4.1425861558
 11
7.6383609279
 21
4.1381374845
  0
LINE
  5
390
100
AcDbEntity
  8
03__ASM_ALL_CURVES
100
AcDbLine
 62
40
  6
CONTINUOUS
 10
6.4708422448
 20
5.0471327774
 11
6.4619449002
 21
5.0589959034
  0
LINE
  5
391
100
AcDbEntity
  8
03__ASM_ALL_CURVES
100
AcDbLine
 62
40
  6
CONTINUOUS
 10
6.3952148154
 20
5.1123799713
 11
6.4308041939
 21
5.0412012141
  0
LINE
  5
392
100
AcDbEntity
  8
03__ASM_ALL_CURVES
100
AcDbLine
 62
40
  6
CONTINUOUS
 10
6.8222873582
 20
5.0530643407
 11
6.8222873582
 21
5.1123799713
  0
LINE
  5
393
100
AcDbEntity
  8
03__ASM_ALL_CURVES
100
AcDbLine
 62
40
  6
CONTINUOUS
 10
6.8288912207
 20
3.4619548939
 11
6.8288912207
 21
3.5153389618
  0
LINE
  5
394
100
AcDbEntity
  8
03__ASM_ALL_CURVES
100
AcDbLine
 62
40
  6
CONTINUOUS
 10
6.8555832547
 20
3.5064416161
 11
6.8555832547
 21
3.4975442735
  0
LINE
  5
395
100
AcDbEntity
  8
03__ASM_ALL_CURVES
100
AcDbLine
 62
40
  6
CONTINUOUS
 10
6.8578767368
 20
5.1123799713
 11
6.8578767368
 21
5.0530643407
  0
LINE
  5
396
100
AcDbEntity
  8
03__ASM_ALL_CURVES
100
AcDbLine
 62
40
  6
CONTINUOUS
 10
6.8934661153
 20
5.1123799713
 11
6.8934661153
 21
5.0412012141
  0
LINE
  5
397
100
AcDbEntity
  8
03__ASM_ALL_CURVES
100
AcDbLine
 62
40
  6
CONTINUOUS
 10
6.8956213056
 20
3.5153389618
 11
6.8956213056
 21
3.4619548939
  0
LINE
  5
398
100
AcDbEntity
  8
0
100
AcDbLine
 62
7
  6
CONTINUOUS
 10
6.9332372629
 20
3.7353389618
 11
6.9332372629
 21
4.4193389618
  0
LINE
  5
399
100
AcDbEntity
  8
03__ASM_ALL_CURVES
100
AcDbLine
 62
40
  6
CONTINUOUS
 10
6.7688341444
 20
3.4886469278
 11
6.7721706486
 21
3.5019929448
  0
LINE
  5
39A
100
AcDbEntity
  8
03__ASM_ALL_CURVES
100
AcDbLine
 62
40
  6
CONTINUOUS
 10
7.5315927922
 20
4.1203427931
 11
7.5249197837
 21
4.1158941219
  0
LINE
  5
39B
100
AcDbEntity
  8
03__ASM_ALL_CURVES
100
AcDbLine
 62
40
  6
CONTINUOUS
 10
7.5649578346
 20
4.1381374845
 11
7.5716308431
 21
4.1425861558
  0
LINE
  5
39C
100
AcDbEntity
  8
03__ASM_ALL_CURVES
100
AcDbLine
 62
40
  6
CONTINUOUS
 10
3.8676120248
 20
5.0174749618
 11
3.938790782
 21
5.029338088
  0
LINE
  5
39D
100
AcDbEntity
  8
03__ASM_ALL_CURVES
100
AcDbLine
 62
40
  6
CONTINUOUS
 10
6.4797395895
 20
5.0412012141
 11
6.4708422448
 21
5.0471327774
  0
LINE
  5
39E
100
AcDbEntity
  8
03__ASM_ALL_CURVES
100
AcDbLine
 62
40
  6
CONTINUOUS
 10
6.4886369341
 20
5.1123799713
 11
6.4975342787
 21
5.1064484096
  0
LINE
  5
39F
100
AcDbEntity
  8
03__ASM_ALL_CURVES
100
AcDbLine
 62
40
  6
CONTINUOUS
 10
6.6220971037
 20
5.0412012141
 11
6.6131997591
 21
5.0471327774
  0
LINE
  5
3A0
100
AcDbEntity
  8
03__ASM_ALL_CURVES
100
AcDbLine
 62
40
  6
CONTINUOUS
 10
6.6131997591
 20
5.0886537203
 11
6.639891793
 21
5.0708590289
  0
LINE
  5
3A1
100
AcDbEntity
  8
0
100
AcDbLine
 62
7
  6
CONTINUOUS
 10
7.2462372629
 20
4.4043389618
 11
7.2312372629
 21
4.4193389618
  0
LINE
  5
3A2
100
AcDbEntity
  8
03__ASM_ALL_CURVES
100
AcDbLine
 62
40
  6
CONTINUOUS
 10
6.4975342787
 20
5.1064484096
 11
6.5019829511
 21
5.1005168437
  0
LINE
  5
3A3
100
AcDbEntity
  8
03__ASM_ALL_CURVES
100
AcDbLine
 62
40
  6
CONTINUOUS
 10
6.6131997591
 20
5.0471327774
 11
6.6043024145
 21
5.0589959034
  0
LINE
  5
3A4
100
AcDbEntity
  8
03__ASM_ALL_CURVES
100
AcDbLine
 62
40
  6
CONTINUOUS
 10
6.6087510868
 20
5.094585282
 11
6.6131997591
 21
5.0886537203
  0
LINE
  5
3A5
100
AcDbEntity
  8
03__ASM_ALL_CURVES
100
AcDbLine
 62
40
  6
CONTINUOUS
 10
6.7466599287
 20
5.0589959034
 11
6.7422112564
 21
5.0767905927
  0
LINE
  5
3A6
100
AcDbEntity
  8
03__ASM_ALL_CURVES
100
AcDbLine
 62
40
  6
CONTINUOUS
 10
6.9623513904
 20
3.5064416161
 11
6.9623513904
 21
3.4975442735
  0
LINE
  5
3A7
100
AcDbEntity
  8
03__ASM_ALL_CURVES
100
AcDbLine
 62
40
  6
CONTINUOUS
 10
6.9646448725
 20
5.0412012141
 11
6.9646448725
 21
5.1123799713
  0
LINE
  5
3A8
100
AcDbEntity
  8
0
100
AcDbLine
 62
7
  6
CONTINUOUS
 10
6.9912372629
 20
3.733839484
 11
6.9912372629
 21
4.4208384395
  0
LINE
  5
3A9
100
AcDbEntity
  8
03__ASM_ALL_CURVES
100
AcDbLine
 62
40
  6
CONTINUOUS
 10
7.0358236296
 20
5.0412012141
 11
7.0358236296
 21
5.1123799713
  0
LINE
  5
3AA
100
AcDbEntity
  8
0
100
AcDbLine
 62
7
  6
CONTINUOUS
 10
7.0412372629
 20
3.733839484
 11
7.0412372629
 21
4.4208384395
  0
LINE
  5
3AB
100
AcDbEntity
  8
03__ASM_ALL_CURVES
100
AcDbLine
 62
40
  6
CONTINUOUS
 10
6.8088721953
 20
3.4886469278
 11
6.805535691
 21
3.4753009109
  0
LINE
  5
3AC
100
AcDbEntity
  8
03__ASM_ALL_CURVES
100
AcDbLine
 62
40
  6
CONTINUOUS
 10
6.748815119
 20
3.4975442735
 11
6.7454786147
 21
3.4930955991
  0
LINE
  5
3AD
100
AcDbEntity
  8
03__ASM_ALL_CURVES
100
AcDbLine
 62
40
  6
CONTINUOUS
 10
6.7721706486
 20
3.5019929448
 11
6.7788436571
 21
3.5108902905
  0
LINE
  5
3AE
100
AcDbEntity
  8
03__ASM_ALL_CURVES
100
AcDbLine
 62
40
  6
CONTINUOUS
 10
7.58497686
 20
4.0936507604
 11
7.5783038516
 21
4.089202088
  0
LINE
  5
3AF
100
AcDbEntity
  8
03__ASM_ALL_CURVES
100
AcDbLine
 62
40
  6
CONTINUOUS
 10
7.6383609279
 20
4.1203427931
 11
7.6316879194
 21
4.1158941219
  0
LINE
  5
3B0
100
AcDbEntity
  8
03__ASM_ALL_CURVES
100
AcDbLine
 62
40
  6
CONTINUOUS
 10
6.7454786147
 20
3.4930955991
 11
6.7388056062
 21
3.4886469278
  0
LINE
  5
3B1
100
AcDbEntity
  8
03__ASM_ALL_CURVES
100
AcDbLine
 62
40
  6
CONTINUOUS
 10
6.7788436571
 20
3.5108902905
 11
6.7855166656
 21
3.5153389618
  0
LINE
  5
3B2
100
AcDbEntity
  8
03__ASM_ALL_CURVES
100
AcDbLine
 62
40
  6
CONTINUOUS
 10
6.7988626826
 20
3.4664035664
 11
6.7921896741
 21
3.4619548939
  0
LINE
  5
3B3
100
AcDbEntity
  8
03__ASM_ALL_CURVES
100
AcDbLine
 62
40
  6
CONTINUOUS
 10
6.8522467504
 20
3.4930955991
 11
6.8455737419
 21
3.4886469278
  0
LINE
  5
3B4
100
AcDbEntity
  8
03__ASM_ALL_CURVES
100
AcDbLine
 62
40
  6
CONTINUOUS
 10
6.9389958607
 20
3.5108902905
 11
6.9456688692
 21
3.5153389618
  0
LINE
  5
3B5
100
AcDbEntity
  8
03__ASM_ALL_CURVES
100
AcDbLine
 62
40
  6
CONTINUOUS
 10
6.639891793
 20
5.1064484096
 11
6.6309944484
 21
5.1123799713
  0
LINE
  5
3B6
100
AcDbEntity
  8
03__ASM_ALL_CURVES
100
AcDbLine
 62
40
  6
CONTINUOUS
 10
6.764454618
 20
5.0412012141
 11
6.7555572734
 21
5.0471327774
  0
LINE
  5
3B7
100
AcDbEntity
  8
03__ASM_ALL_CURVES
100
AcDbLine
 62
40
  6
CONTINUOUS
 10
6.8356333752
 20
5.0412012141
 11
6.8267360305
 21
5.0471327774
  0
LINE
  5
3B8
100
AcDbEntity
  8
03__ASM_ALL_CURVES
100
AcDbLine
 62
40
  6
CONTINUOUS
 10
6.7733519627
 20
5.1123799713
 11
6.7822493073
 21
5.1064484096
  0
LINE
  5
3B9
100
AcDbEntity
  8
03__ASM_ALL_CURVES
100
AcDbLine
 62
40
  6
CONTINUOUS
 10
6.639891793
 20
5.0708590289
 11
6.6443404653
 21
5.0649274672
  0
LINE
  5
3BA
100
AcDbEntity
  8
03__ASM_ALL_CURVES
100
AcDbLine
 62
40
  6
CONTINUOUS
 10
6.6443404653
 20
5.1005168437
 11
6.639891793
 21
5.1064484096
  0
LINE
  5
3BB
100
AcDbEntity
  8
03__ASM_ALL_CURVES
100
AcDbLine
 62
40
  6
CONTINUOUS
 10
6.7555572734
 20
5.0471327774
 11
6.7466599287
 21
5.0589959034
  0
LINE
  5
3BC
100
AcDbEntity
  8
03__ASM_ALL_CURVES
100
AcDbLine
 62
40
  6
CONTINUOUS
 10
6.7822493073
 20
5.1064484096
 11
6.791146652
 21
5.094585282
  0
LINE
  5
3BD
100
AcDbEntity
  8
03__ASM_ALL_CURVES
100
AcDbLine
 62
40
  6
CONTINUOUS
 10
6.8267360305
 20
5.0471327774
 11
6.8222873582
 21
5.0530643407
  0
LINE
  5
3BE
100
AcDbEntity
  8
03__ASM_ALL_CURVES
100
AcDbLine
 62
40
  6
CONTINUOUS
 10
6.791146652
 20
5.094585282
 11
6.7955953243
 21
5.0767905927
  0
LINE
  5
3BF
100
AcDbEntity
  8
03__ASM_ALL_CURVES
100
AcDbLine
 62
40
  6
CONTINUOUS
 10
7.1070023868
 20
5.0412012141
 11
7.1070023868
 21
5.1123799713
  0
LINE
  5
3C0
100
AcDbEntity
  8
0
100
AcDbLine
 62
7
  6
CONTINUOUS
 10
7.1112372629
 20
3.733839484
 11
7.1112372629
 21
4.4208384395
  0
LINE
  5
3C1
100
AcDbEntity
  8
03__ASM_ALL_CURVES
100
AcDbLine
 62
40
  6
CONTINUOUS
 10
7.1425917653
 20
5.1005168437
 11
7.1425917653
 21
5.0886537203
  0
LINE
  5
3C2
100
AcDbEntity
  8
0
100
AcDbLine
 62
7
  6
CONTINUOUS
 10
7.1612372629
 20
3.733839484
 11
7.1612372629
 21
4.4208384395
  0
LINE
  5
3C3
100
AcDbEntity
  8
0
100
AcDbLine
 62
7
  6
CONTINUOUS
 10
7.1892372629
 20
3.7353389618
 11
7.1892372629
 21
4.4193389618
  0
LINE
  5
3C4
100
AcDbEntity
  8
03__ASM_ALL_CURVES
100
AcDbLine
 62
40
  6
CONTINUOUS
 10
6.9389958607
 20
3.4753009109
 11
6.9356593564
 21
3.4619548939
  0
LINE
  5
3C5
100
AcDbEntity
  8
03__ASM_ALL_CURVES
100
AcDbLine
 62
40
  6
CONTINUOUS
 10
6.805535691
 20
3.4753009109
 11
6.7988626826
 21
3.4664035664
  0
LINE
  5
3C6
100
AcDbEntity
  8
03__ASM_ALL_CURVES
100
AcDbLine
 62
40
  6
CONTINUOUS
 10
6.8555832547
 20
3.4975442735
 11
6.8522467504
 21
3.4930955991
  0
LINE
  5
3C7
100
AcDbEntity
  8
03__ASM_ALL_CURVES
100
AcDbLine
 62
40
  6
CONTINUOUS
 10
6.9356593564
 20
3.5064416161
 11
6.9389958607
 21
3.5108902905
  0
LINE
  5
3C8
100
AcDbEntity
  8
03__ASM_ALL_CURVES
100
AcDbLine
 62
40
  6
CONTINUOUS
 10
6.9456688692
 20
3.484198255
 11
6.9389958607
 21
3.4753009109
  0
LINE
  5
3C9
100
AcDbEntity
  8
03__ASM_ALL_CURVES
100
AcDbLine
 62
40
  6
CONTINUOUS
 10
6.9623513904
 20
3.4975442735
 11
6.9590148861
 21
3.4930955991
  0
LINE
  5
3CA
100
AcDbEntity
  8
0
100
AcDbLine
 62
7
  6
CONTINUOUS
 10
7.2462372629
 20
3.7503389618
 11
7.2312372629
 21
3.7353389618
  0
LINE
  5
3CB
100
AcDbEntity
  8
03__ASM_ALL_CURVES
100
AcDbLine
 62
40
  6
CONTINUOUS
 10
6.9590148861
 20
3.4930955991
 11
6.9456688692
 21
3.484198255
  0
LINE
  5
3CC
100
AcDbEntity
  8
03__ASM_ALL_CURVES
100
AcDbLine
 62
40
  6
CONTINUOUS
 10
6.9824395618
 20
5.1123799713
 11
6.9913369064
 21
5.1064484096
  0
LINE
  5
3CD
100
AcDbEntity
  8
03__ASM_ALL_CURVES
100
AcDbLine
 62
40
  6
CONTINUOUS
 10
7.5649578346
 20
4.0936507604
 11
7.5582848261
 21
4.1025481049
  0
LINE
  5
3CE
100
AcDbEntity
  8
03__ASM_ALL_CURVES
100
AcDbLine
 62
40
  6
CONTINUOUS
 10
7.5315927922
 20
4.1381374845
 11
7.5349292964
 21
4.1336888101
  0
LINE
  5
3CF
100
AcDbEntity
  8
03__ASM_ALL_CURVES
100
AcDbLine
 62
40
  6
CONTINUOUS
 10
7.58497686
 20
4.1381374845
 11
7.5916498685
 21
4.1292401388
  0
LINE
  5
3D0
100
AcDbEntity
  8
03__ASM_ALL_CURVES
100
AcDbLine
 62
40
  6
CONTINUOUS
 10
7.6383609279
 20
4.1381374845
 11
7.6416974321
 21
4.1336888101
  0
LINE
  5
3D1
100
AcDbEntity
  8
03__ASM_ALL_CURVES
100
AcDbLine
 62
40
  6
CONTINUOUS
 10
7.0002342511
 20
5.094585282
 11
7.0046829234
 21
5.0767905927
  0
LINE
  5
3D2
100
AcDbEntity
  8
0
100
AcDbLine
 62
7
  6
CONTINUOUS
 10
7.2312372629
 20
3.7353389618
 11
7.2312372629
 21
4.4193389618
  0
LINE
  5
3D3
100
AcDbEntity
  8
0
100
AcDbLine
 62
7
  6
CONTINUOUS
 10
7.2462372629
 20
3.7503389618
 11
7.2462372629
 21
4.4043389618
  0
LINE
  5
3D4
100
AcDbEntity
  8
03__ASM_ALL_CURVES
100
AcDbLine
 62
40
  6
CONTINUOUS
 10
7.5349292964
 20
4.1247914676
 11
7.5315927922
 21
4.1203427931
  0
LINE
  5
3D5
100
AcDbEntity
  8
03__ASM_ALL_CURVES
100
AcDbLine
 62
40
  6
CONTINUOUS
 10
7.5582848261
 20
4.1292401388
 11
7.5649578346
 21
4.1381374845
  0
LINE
  5
3D6
100
AcDbEntity
  8
03__ASM_ALL_CURVES
100
AcDbLine
 62
40
  6
CONTINUOUS
 10
7.5916498685
 20
4.1025481049
 11
7.58497686
 21
4.0936507604
  0
LINE
  5
3D7
100
AcDbEntity
  8
03__ASM_ALL_CURVES
100
AcDbLine
 62
40
  6
CONTINUOUS
 10
7.1292457484
 20
5.1123799713
 11
7.138143093
 21
5.1064484096
  0
LINE
  5
3D8
100
AcDbEntity
  8
03__ASM_ALL_CURVES
100
AcDbLine
 62
40
  6
CONTINUOUS
 10
6.9913369064
 20
5.1064484096
 11
7.0002342511
 21
5.094585282
  0
LINE
  5
3D9
100
AcDbEntity
  8
03__ASM_ALL_CURVES
100
AcDbLine
 62
40
  6
CONTINUOUS
 10
7.1292457484
 20
5.0767905927
 11
7.1425917653
 21
5.0412012141
  0
LINE
  5
3DA
100
AcDbEntity
  8
03__ASM_ALL_CURVES
100
AcDbLine
 62
40
  6
CONTINUOUS
 10
7.6416974321
 20
4.1247914676
 11
7.6383609279
 21
4.1203427931
  0
LINE
  5
3DB
100
AcDbEntity
  8
03__ASM_ALL_CURVES
100
AcDbLine
 62
40
  6
CONTINUOUS
 10
7.138143093
 20
5.1064484096
 11
7.1425917653
 21
5.1005168437
  0
LINE
  5
3DC
100
AcDbEntity
  8
03__ASM_ALL_CURVES
100
AcDbLine
 62
40
  6
CONTINUOUS
 10
7.6316879194
 20
4.1158941219
 11
7.6416974321
 21
4.089202088
  0
LINE
  5
3DD
100
AcDbEntity
  8
03__ASM_ALL_CURVES
100
AcDbLine
 62
40
  6
CONTINUOUS
 10
7.5582848261
 20
4.1025481049
 11
7.5549483219
 21
4.1158941219
  0
LINE
  5
3DE
100
AcDbEntity
  8
03__ASM_ALL_CURVES
100
AcDbLine
 62
40
  6
CONTINUOUS
 10
7.5916498685
 20
4.1292401388
 11
7.5949863728
 21
4.1158941219
  0
LINE
  5
3DF
100
AcDbEntity
  8
03__ASM_ALL_CURVES
100
AcDbLine
 62
40
  6
CONTINUOUS
 10
7.5082372625
 20
4.089202088
 11
7.5082372625
 21
4.1425861558
  0
LINE
  5
3E0
100
AcDbEntity
  8
03__ASM_ALL_CURVES
100
AcDbLine
 62
40
  6
CONTINUOUS
 10
7.5349292964
 20
4.1336888101
 11
7.5349292964
 21
4.1247914676
  0
LINE
  5
3E1
100
AcDbEntity
  8
03__ASM_ALL_CURVES
100
AcDbLine
 62
40
  6
CONTINUOUS
 10
7.6150053982
 20
4.089202088
 11
7.6150053982
 21
4.1425861558
  0
LINE
  5
3E2
100
AcDbEntity
  8
03__ASM_ALL_CURVES
100
AcDbLine
 62
40
  6
CONTINUOUS
 10
7.6416974321
 20
4.1336888101
 11
7.6416974321
 21
4.1247914676
  0
LINE
  5
3E3
100
AcDbEntity
  8
03__ASM_ALL_CURVES
100
AcDbLine
 62
40
  6
CONTINUOUS
 10
7.5549483219
 20
4.1158941219
 11
7.5582848261
 21
4.1292401388
  0
LINE
  5
3E4
100
AcDbEntity
  8
03__ASM_ALL_CURVES
100
AcDbLine
 62
40
  6
CONTINUOUS
 10
7.5949863728
 20
4.1158941219
 11
7.5916498685
 21
4.1025481049
  0
LINE
  5
3E5
100
AcDbEntity
  8
03__ASM_ALL_CURVES
100
AcDbLine
 62
40
  6
CONTINUOUS
 10
7.681735483
 20
4.1425861558
 11
7.681735483
 21
4.089202088
  0
LINE
  5
3E6
100
AcDbEntity
  8
03__ASM_ALL_CURVES
100
AcDbLine
 62
40
  6
CONTINUOUS
 10
7.7351195509
 20
4.1425861558
 11
7.7351195509
 21
4.089202088
  0
ARC
  5
3E7
100
AcDbEntity
  8
0
100
AcDbCircle
 62
7
  6
CONTINUOUS
 10
4.2792372629
 20
4.2543389618
 40
0.094
100
AcDbArc
 50
90.0
 51
131.267427381
  0
ARC
  5
3E8
100
AcDbEntity
  8
0
100
AcDbCircle
 62
7
  6
CONTINUOUS
 10
4.2792372629
 20
3.9003389618
 40
0.094
100
AcDbArc
 50
228.732572619
 51
270.0
  0
SPLINE
  5
3E9
100
AcDbEntity
  8
0
100
AcDbSpline
 62
7
  6
CONTINUOUS
 70
0
 71
3
 72
15
 73
11
 74
9
 42
0.0000001
 43
0.0000001
 44
0.0000000001
 12
0.0
 22
0.1099409465
 32
0.0
 13
0.0
 23
-0.1099409465
 33
0.0
 40
0.0
 40
0.0
 40
0.0
 40
0.0
 40
0.125
 40
0.25
 40
0.375
 40
0.5
 40
0.625
 40
0.75
 40
0.875
 40
1.0
 40
1.0
 40
1.0
 40
1.0
 10
7.1112372629
 20
4.4018389618
 30
0.0
 10
7.1112372629
 20
4.4064198345
 30
0.0
 10
7.1094148784
 20
4.4155815801
 30
0.0
 10
7.1016303104
 20
4.4272320093
 30
0.0
 10
7.0899798812
 20
4.4350165773
 30
0.0
 10
7.0762372629
 20
4.437750154
 30
0.0
 10
7.0624946446
 20
4.4350165773
 30
0.0
 10
7.0508442153
 20
4.4272320093
 30
0.0
 10
7.0430596474
 20
4.4155815801
 30
0.0
 10
7.0412372629
 20
4.4064198345
 30
0.0
 10
7.0412372629
 20
4.4018389618
 30
0.0
 11
7.1112372629
 21
4.4018389618
 31
0.0
 11
7.1085730465
 21
4.4152328819
 31
0.0
 11
7.1009860002
 21
4.4265876991
 31
0.0
 11
7.089631183
 21
4.4341747454
 31
0.0
 11
7.0762372629
 21
4.4368389618
 31
0.0
 11
7.0628433427
 21
4.4341747454
 31
0.0
 11
7.0514885255
 21
4.4265876991
 31
0.0
 11
7.0439014792
 21
4.4152328819
 31
0.0
 11
7.0412372629
 21
4.4018389618
 31
0.0
  0
SPLINE
  5
3EA
100
AcDbEntity
  8
0
100
AcDbSpline
 62
7
  6
CONTINUOUS
 70
0
 71
3
 72
15
 73
11
 74
9
 42
0.0000001
 43
0.0000001
 44
0.0000000001
 12
0.0
 22
-0.1099409465
 32
0.0
 13
0.0
 23
0.1099409465
 33
0.0
 40
0.0
 40
0.0
 40
0.0
 40
0.0
 40
0.125
 40
0.25
 40
0.375
 40
0.5
 40
0.625
 40
0.75
 40
0.875
 40
1.0
 40
1.0
 40
1.0
 40
1.0
 10
7.1112372629
 20
3.7528389618
 30
0.0
 10
7.1112372629
 20
3.748258089
 30
0.0
 10
7.1094148784
 20
3.7390963435
 30
0.0
 10
7.1016303104
 20
3.7274459142
 30
0.0
 10
7.0899798812
 20
3.7196613463
 30
0.0
 10
7.0762372629
 20
3.7169277695
 30
0.0
 10
7.0624946446
 20
3.7196613463
 30
0.0
 10
7.0508442153
 20
3.7274459142
 30
0.0
 10
7.0430596474
 20
3.7390963435
 30
0.0
 10
7.0412372629
 20
3.748258089
 30
0.0
 10
7.0412372629
 20
3.7528389618
 30
0.0
 11
7.1112372629
 21
3.7528389618
 31
0.0
 11
7.1085730465
 21
3.7394450416
 31
0.0
 11
7.1009860002
 21
3.7280902244
 31
0.0
 11
7.089631183
 21
3.7205031781
 31
0.0
 11
7.0762372629
 21
3.7178389618
 31
0.0
 11
7.0628433427
 21
3.7205031781
 31
0.0
 11
7.0514885255
 21
3.7280902244
 31
0.0
 11
7.0439014792
 21
3.7394450416
 31
0.0
 11
7.0412372629
 21
3.7528389618
 31
0.0
  0
SPLINE
  5
3EB
100
AcDbEntity
  8
0
100
AcDbSpline
 62
7
  6
CONTINUOUS
 70
0
 71
3
 72
14
 73
10
 74
8
 42
0.0000001
 43
0.0000001
 44
0.0000000001
 12
0.0
 22
0.0923501321
 32
0.0
 13
-0.0445331995
 23
-0.0809161858
 33
0.0
 40
0.0
 40
0.0
 40
0.0
 40
0.0
 40
0.1488099475
 40
0.297619895
 40
0.4464298425
 40
0.59523979
 40
0.7440497375
 40
0.892859685
 40
1.0
 40
1.0
 40
1.0
 40
1.0
 10
5.9902372629
 20
4.4628389618
 30
0.0
 10
5.9902372629
 20
4.4674198345
 30
0.0
 10
5.9884148784
 20
4.4765815801
 30
0.0
 10
5.9806303104
 20
4.4882320093
 30
0.0
 10
5.9689798812
 20
4.4960165773
 30
0.0
 10
5.9552372629
 20
4.498750154
 30
0.0
 10
5.9414946446
 20
4.4960165773
 30
0.0
 10
5.930931663
 20
4.4889586186
 30
0.0
 10
5.9261582428
 20
4.4825894311
 30
0.0
 10
5.9245678091
 20
4.4796996359
 30
0.0
 11
5.9902372629
 21
4.4628389618
 31
0.0
 11
5.9875730465
 21
4.4762328819
 31
0.0
 11
5.9799860002
 21
4.4875876991
 31
0.0
 11
5.968631183
 21
4.4951747454
 31
0.0
 11
5.9552372629
 21
4.4978389618
 31
0.0
 11
5.9418433427
 21
4.4951747454
 31
0.0
 11
5.9304885255
 21
4.4875876991
 31
0.0
 11
5.9245678091
 21
4.4796996359
 31
0.0
  0
SPLINE
  5
3EC
100
AcDbEntity
  8
0
100
AcDbSpline
 62
7
  6
CONTINUOUS
 70
0
 71
3
 72
9
 73
5
 74
3
 42
0.0000001
 43
0.0000001
 44
0.0000000001
 12
-0.0084826651
 22
-0.0154128811
 32
0.0
 13
0.0
 23
-0.0175908144
 33
0.0
 40
0.0
 40
0.0
 40
0.0
 40
0.0
 40
0.2187616778
 40
1.0
 40
1.0
 40
1.0
 40
1.0
 10
5.9245678091
 20
4.4796996359
 30
0.0
 10
5.9239492485
 20
4.4785757199
 30
0.0
 10
5.9214036064
 20
4.4732834393
 30
0.0
 10
5.9202372629
 20
4.4674198345
 30
0.0
 10
5.9202372629
 20
4.4628389618
 30
0.0
 11
5.9245678091
 21
4.4796996359
 31
0.0
 11
5.9229014792
 21
4.4762328819
 31
0.0
 11
5.9202372629
 21
4.4628389618
 31
0.0
  0
SPLINE
  5
3ED
100
AcDbEntity
  8
0
100
AcDbSpline
 62
7
  6
CONTINUOUS
 70
0
 71
3
 72
14
 73
10
 74
8
 42
0.0000001
 43
0.0000001
 44
0.0000000001
 12
0.0
 22
-0.0923501321
 32
0.0
 13
-0.0445331995
 23
0.0809161858
 33
0.0
 40
0.0
 40
0.0
 40
0.0
 40
0.0
 40
0.1488099475
 40
0.297619895
 40
0.4464298425
 40
0.59523979
 40
0.7440497375
 40
0.892859685
 40
1.0
 40
1.0
 40
1.0
 40
1.0
 10
5.9902372629
 20
3.6918389618
 30
0.0
 10
5.9902372629
 20
3.687258089
 30
0.0
 10
5.9884148784
 20
3.6780963435
 30
0.0
 10
5.9806303104
 20
3.6664459142
 30
0.0
 10
5.9689798812
 20
3.6586613463
 30
0.0
 10
5.9552372629
 20
3.6559277695
 30
0.0
 10
5.9414946446
 20
3.6586613463
 30
0.0
 10
5.930931663
 20
3.6657193049
 30
0.0
 10
5.9261582428
 20
3.6720884925
 30
0.0
 10
5.9245678091
 20
3.6749782877
 30
0.0
 11
5.9902372629
 21
3.6918389618
 31
0.0
 11
5.9875730465
 21
3.6784450416
 31
0.0
 11
5.9799860002
 21
3.6670902244
 31
0.0
 11
5.968631183
 21
3.6595031781
 31
0.0
 11
5.9552372629
 21
3.6568389618
 31
0.0
 11
5.9418433427
 21
3.6595031781
 31
0.0
 11
5.9304885255
 21
3.6670902244
 31
0.0
 11
5.9245678091
 21
3.6749782877
 31
0.0
  0
SPLINE
  5
3EE
100
AcDbEntity
  8
0
100
AcDbSpline
 62
7
  6
CONTINUOUS
 70
0
 71
3
 72
9
 73
5
 74
3
 42
0.0000001
 43
0.0000001
 44
0.0000000001
 12
-0.0084826651
 22
0.0154128811
 32
0.0
 13
0.0
 23
0.0175908144
 33
0.0
 40
0.0
 40
0.0
 40
0.0
 40
0.0
 40
0.2187616778
 40
1.0
 40
1.0
 40
1.0
 40
1.0
 10
5.9245678091
 20
3.6749782877
 30
0.0
 10
5.9239492485
 20
3.6761022036
 30
0.0
 10
5.9214036064
 20
3.6813944842
 30
0.0
 10
5.9202372629
 20
3.687258089
 30
0.0
 10
5.9202372629
 20
3.6918389618
 30
0.0
 11
5.9245678091
 21
3.6749782877
 31
0.0
 11
5.9229014792
 21
3.6784450416
 31
0.0
 11
5.9202372629
 21
3.6918389618
 31
0.0
  0
SPLINE
  5
3EF
100
AcDbEntity
  8
0
100
AcDbSpline
 62
7
  6
CONTINUOUS
 70
0
 71
3
 72
16
 73
12
 74
10
 42
0.0000001
 43
0.0000001
 44
0.0000000001
 12
0.0906480335
 22
0.2719441006
 32
0.0
 13
-0.0906480335
 23
0.2719441006
 33
0.0
 40
0.0
 40
0.0
 40
0.0
 40
0.0
 40
0.1184548733
 40
0.230565332
 40
0.3393089466
 40
0.4465959239
 40
0.5535015371
 40
0.6607803311
 40
0.769505023
 40
0.8815660643
 40
1.0
 40
1.0
 40
1.0
 40
1.0
 10
4.4673658525
 20
3.7963389618
 30
0.0
 10
4.4709450863
 20
3.8070766631
 30
0.0
 10
4.4773761729
 20
3.8281627099
 30
0.0
 10
4.4848956026
 20
3.8597237648
 30
0.0
 10
4.48998383
 20
3.8906925829
 30
0.0
 10
4.4925706922
 20
3.9214756525
 30
0.0
 10
4.4925695039
 20
3.9522294534
 30
0.0
 10
4.4899806633
 20
3.9830097448
 30
0.0
 10
4.4848919286
 20
4.0139710466
 30
0.0
 10
4.4773736718
 20
4.0455235783
 30
0.0
 10
4.4709444536
 20
4.0666031584
 30
0.0
 10
4.4673658525
 20
4.0773389618
 30
0.0
 11
4.4673658525
 21
3.7963389618
 31
0.0
 11
4.4772043221
 21
3.8288379897
 31
0.0
 11
4.4845914926
 21
3.8601143801
 31
0.0
 11
4.48959611
 21
3.8908818326
 31
0.0
 11
4.4921430753
 21
3.9215304537
 31
0.0
 11
4.4921419051
 21
3.9521754022
 31
0.0
 11
4.489592965
 21
3.9828215053
 31
0.0
 11
4.484587526
 21
4.0135833286
 31
0.0
 11
4.4772027545
 21
4.0448457302
 31
0.0
 11
4.4673658525
 21
4.0773389618
 31
0.0
  0
SPLINE
  5
3F0
100
AcDbEntity
  8
0
100
AcDbSpline
 62
7
  6
CONTINUOUS
 70
0
 71
3
 72
17
 73
13
 74
11
 42
0.0000001
 43
0.0000001
 44
0.0000000001
 12
-0.1487434696
 22
0.2576312467
 32
0.0
 13
0.1487434696
 23
0.2576312467
 33
0.0
 40
0.0
 40
0.0
 40
0.0
 40
0.0
 40
0.1169386465
 40
0.2216811606
 40
0.3184580982
 40
0.4103908543
 40
0.5000417254
 40
0.5896883004
 40
0.6816074548
 40
0.7783545182
 40
0.8830694657
 40
1.0
 40
1.0
 40
1.0
 40
1.0
 10
4.3657081141
 20
3.7963389618
 30
0.0
 10
4.3599101608
 20
3.8063813115
 30
0.0
 10
4.3495703332
 20
3.825811159
 30
0.0
 10
4.3371967098
 20
3.8549132366
 30
0.0
 10
4.3285432631
 20
3.8827547993
 30
0.0
 10
4.3233861585
 20
3.9099381188
 30
0.0
 10
4.3216692781
 20
3.9368510037
 30
0.0
 10
4.3233891638
 20
3.9637623285
 30
0.0
 10
4.3285479154
 20
3.9909404691
 30
0.0
 10
4.3372007672
 20
4.0187747752
 30
0.0
 10
4.3495723546
 20
4.0478706149
 30
0.0
 10
4.359910563
 20
4.0672973087
 30
0.0
 10
4.3657081141
 20
4.0773389618
 30
0.0
 11
4.3657081141
 21
3.7963389618
 31
0.0
 11
4.3494818827
 21
3.8271106188
 31
0.0
 11
4.3373971262
 21
3.8558312554
 31
0.0
 11
4.3289444529
 21
3.883352324
 31
0.0
 11
4.3239115676
 21
3.9102340392
 31
0.0
 11
4.3222372632
 21
3.9368513952
 31
0.0
 11
4.3239145055
 21
3.9634672858
 31
0.0
 11
4.3289491522
 21
3.9903445544
 31
0.0
 11
4.3374007672
 21
4.0178566511
 31
0.0
 11
4.3494829184
 21
4.0465694868
 31
0.0
 11
4.3657081141
 21
4.0773389618
 31
0.0
  0
SPLINE
  5
3F1
100
AcDbEntity
  8
0
100
AcDbSpline
 62
7
  6
CONTINUOUS
 70
0
 71
3
 72
16
 73
12
 74
10
 42
0.0000001
 43
0.0000001
 44
0.0000000001
 12
0.0906480335
 22
0.2719441006
 32
0.0
 13
-0.0906480335
 23
0.2719441006
 33
0.0
 40
0.0
 40
0.0
 40
0.0
 40
0.0
 40
0.1184548733
 40
0.230565332
 40
0.3393089466
 40
0.4465959239
 40
0.5535015371
 40
0.6607803311
 40
0.769505023
 40
0.8815660643
 40
1.0
 40
1.0
 40
1.0
 40
1.0
 10
4.4673658525
 20
4.0773389618
 30
0.0
 10
4.4709450863
 20
4.0880766631
 30
0.0
 10
4.4773761729
 20
4.1091627099
 30
0.0
 10
4.4848956026
 20
4.1407237648
 30
0.0
 10
4.48998383
 20
4.1716925829
 30
0.0
 10
4.4925706922
 20
4.2024756525
 30
0.0
 10
4.4925695039
 20
4.2332294534
 30
0.0
 10
4.4899806633
 20
4.2640097448
 30
0.0
 10
4.4848919286
 20
4.2949710466
 30
0.0
 10
4.4773736718
 20
4.3265235783
 30
0.0
 10
4.4709444536
 20
4.3476031584
 30
0.0
 10
4.4673658525
 20
4.3583389618
 30
0.0
 11
4.4673658525
 21
4.0773389618
 31
0.0
 11
4.4772043221
 21
4.1098379897
 31
0.0
 11
4.4845914926
 21
4.1411143801
 31
0.0
 11
4.48959611
 21
4.1718818326
 31
0.0
 11
4.4921430753
 21
4.2025304537
 31
0.0
 11
4.4921419051
 21
4.2331754022
 31
0.0
 11
4.489592965
 21
4.2638215053
 31
0.0
 11
4.484587526
 21
4.2945833286
 31
0.0
 11
4.4772027545
 21
4.3258457302
 31
0.0
 11
4.4673658525
 21
4.3583389618
 31
0.0
  0
SPLINE
  5
3F2
100
AcDbEntity
  8
0
100
AcDbSpline
 62
7
  6
CONTINUOUS
 70
0
 71
3
 72
17
 73
13
 74
11
 42
0.0000001
 43
0.0000001
 44
0.0000000001
 12
-0.1487434696
 22
0.2576312467
 32
0.0
 13
0.1487434696
 23
0.2576312467
 33
0.0
 40
0.0
 40
0.0
 40
0.0
 40
0.0
 40
0.1169386465
 40
0.2216811606
 40
0.3184580982
 40
0.4103908543
 40
0.5000417254
 40
0.5896883004
 40
0.6816074548
 40
0.7783545182
 40
0.8830694657
 40
1.0
 40
1.0
 40
1.0
 40
1.0
 10
4.3657081141
 20
4.0773389618
 30
0.0
 10
4.3599101608
 20
4.0873813115
 30
0.0
 10
4.3495703332
 20
4.106811159
 30
0.0
 10
4.3371967098
 20
4.1359132366
 30
0.0
 10
4.3285432631
 20
4.1637547993
 30
0.0
 10
4.3233861585
 20
4.1909381188
 30
0.0
 10
4.3216692781
 20
4.2178510037
 30
0.0
 10
4.3233891638
 20
4.2447623285
 30
0.0
 10
4.3285479154
 20
4.2719404691
 30
0.0
 10
4.3372007672
 20
4.2997747752
 30
0.0
 10
4.3495723546
 20
4.3288706149
 30
0.0
 10
4.359910563
 20
4.3482973087
 30
0.0
 10
4.3657081141
 20
4.3583389618
 30
0.0
 11
4.3657081141
 21
4.0773389618
 31
0.0
 11
4.3494818827
 21
4.1081106188
 31
0.0
 11
4.3373971262
 21
4.1368312554
 31
0.0
 11
4.3289444529
 21
4.164352324
 31
0.0
 11
4.3239115676
 21
4.1912340392
 31
0.0
 11
4.3222372632
 21
4.2178513952
 31
0.0
 11
4.3239145055
 21
4.2444672858
 31
0.0
 11
4.3289491522
 21
4.2713445544
 31
0.0
 11
4.3374007672
 21
4.2988566511
 31
0.0
 11
4.3494829184
 21
4.3275694868
 31
0.0
 11
4.3657081141
 21
4.3583389618
 31
0.0
  0
SPLINE
  5
3F3
100
AcDbEntity
  8
0
100
AcDbSpline
 62
7
  6
CONTINUOUS
 70
0
 71
3
 72
13
 73
9
 74
7
 42
0.0000001
 43
0.0000001
 44
0.0000000001
 12
0.000024667
 22
0.093701659
 32
0.0
 13
-0.0933643623
 23
0.0
 33
0.0
 40
0.0
 40
0.0
 40
0.0
 40
0.0
 40
0.1529558924
 40
0.3132449463
 40
0.4807511726
 40
0.6528350369
 40
0.8264697036
 40
1.0
 40
1.0
 40
1.0
 40
1.0
 10
6.5157372629
 20
3.9133389608
 30
0.0
 10
6.5157385205
 20
3.9181163678
 30
0.0
 10
6.5142263665
 20
3.9278876328
 30
0.0
 10
6.5078568706
 20
3.9416274967
 30
0.0
 10
6.4977780803
 20
3.9537003695
 30
0.0
 10
6.4846758276
 20
3.9631270512
 30
0.0
 10
6.4694902551
 20
3.9691067779
 30
0.0
 10
6.458637778
 20
3.9704704021
 30
0.0
 10
6.4532372629
 20
3.9704704021
 30
0.0
 11
6.5157372629
 21
3.9133389608
 31
0.0
 11
6.5136327728
 21
3.9274636737
 31
0.0
 11
6.5074106188
 21
3.9410741316
 31
0.0
 11
6.4974269483
 21
3.9531119116
 31
0.0
 11
6.4843971207
 21
3.9625117
 31
0.0
 11
6.4693122116
 21
3.9684489923
 31
0.0
 11
6.4532372629
 21
3.9704704021
 31
0.0
  0
SPLINE
  5
3F4
100
AcDbEntity
  8
0
100
AcDbSpline
 62
7
  6
CONTINUOUS
 70
0
 71
3
 72
12
 73
8
 74
6
 42
0.0000001
 43
0.0000001
 44
0.0000000001
 12
0.0302581492
 22
-0.0622779792
 32
0.0
 13
0.0690018401
 23
0.0
 33
0.0
 40
0.0
 40
0.0
 40
0.0
 40
0.0
 40
0.1711930317
 40
0.3682336308
 40
0.5739204839
 40
0.7870821018
 40
1.0
 40
1.0
 40
1.0
 40
1.0
 10
6.3951622416
 20
3.9328708263
 30
0.0
 10
6.396888903
 20
3.9293169743
 30
0.0
 10
6.4016394001
 20
3.922174145
 30
0.0
 10
6.4117079613
 20
3.9134051541
 30
0.0
 10
6.4244190532
 20
3.9068873747
 30
0.0
 10
6.4385177996
 20
3.9030269928
 30
0.0
 10
6.4483400206
 20
3.9021816445
 30
0.0
 10
6.4532372629
 20
3.9021816445
 30
0.0
 11
6.3951622416
 21
3.9328708263
 31
0.0
 11
6.4016754515
 21
3.9230033039
 31
0.0
 11
6.4118546623
 21
3.913990017
 31
0.0
 11
6.4244342545
 21
3.9074182122
 31
0.0
 11
6.4386017441
 21
3.9034655547
 31
0.0
 11
6.4532372629
 21
3.9021816445
 31
0.0
  0
SPLINE
  5
3F5
100
AcDbEntity
  8
0
100
AcDbSpline
 62
7
  6
CONTINUOUS
 70
0
 71
3
 72
13
 73
9
 74
7
 42
0.0000001
 43
0.0000001
 44
0.0000000001
 12
-0.0301858429
 22
0.0623738377
 32
0.0
 13
-0.0691065624
 23
0.0
 33
0.0
 40
0.0
 40
0.0
 40
0.0
 40
0.0
 40
0.1205631352
 40
0.2866263855
 40
0.455471544
 40
0.6315644708
 40
0.8140744291
 40
1.0
 40
1.0
 40
1.0
 40
1.0
 10
6.511338896
 20
4.2217512526
 30
0.0
 10
6.510125796
 20
4.2242579144
 30
0.0
 10
6.5066776747
 20
4.2299456904
 30
0.0
 10
6.4993783378
 20
4.2376165099
 30
0.0
 10
6.489535533
 20
4.2442188834
 30
0.0
 10
6.4782837656
 20
4.2489750575
 30
0.0
 10
6.4660219964
 20
4.2518553793
 30
0.0
 10
6.4575201552
 20
4.2524962791
 30
0.0
 10
6.4532372629
 20
4.2524962791
 30
0.0
 11
6.511338896
 21
4.2217512526
 31
0.0
 11
6.5070224025
 21
4.2288905348
 31
0.0
 11
6.4991564694
 21
4.2372467935
 31
0.0
 11
6.4895040001
 21
4.2438026502
 31
0.0
 11
6.4783181302
 21
4.2485948501
 31
0.0
 11
6.4660485177
 21
4.2515163554
 31
0.0
 11
6.4532372629
 21
4.2524962791
 31
0.0
  0
SPLINE
  5
3F6
100
AcDbEntity
  8
0
100
AcDbSpline
 62
7
  6
CONTINUOUS
 70
0
 71
3
 72
13
 73
9
 74
7
 42
0.0000001
 43
0.0000001
 44
0.0000000001
 12
-0.000024667
 22
-0.093701659
 32
0.0
 13
0.0933643623
 23
0.0
 33
0.0
 40
0.0
 40
0.0
 40
0.0
 40
0.0
 40
0.1529558924
 40
0.3132449463
 40
0.4807511726
 40
0.6528350369
 40
0.8264697036
 40
1.0
 40
1.0
 40
1.0
 40
1.0
 10
6.3907372628
 20
4.2413389627
 30
0.0
 10
6.3907360052
 20
4.2365615557
 30
0.0
 10
6.3922481593
 20
4.2267902908
 30
0.0
 10
6.3986176552
 20
4.2130504268
 30
0.0
 10
6.4086964454
 20
4.2009775541
 30
0.0
 10
6.4217986982
 20
4.1915508723
 30
0.0
 10
6.4369842706
 20
4.1855711456
 30
0.0
 10
6.4478367477
 20
4.1842075215
 30
0.0
 10
6.4532372629
 20
4.1842075215
 30
0.0
 11
6.3907372628
 21
4.2413389627
 31
0.0
 11
6.3928417529
 21
4.2272142498
 31
0.0
 11
6.3990639069
 21
4.2136037919
 31
0.0
 11
6.4090475774
 21
4.2015660119
 31
0.0
 11
6.4220774051
 21
4.1921662236
 31
0.0
 11
6.4371623141
 21
4.1862289312
 31
0.0
 11
6.4532372629
 21
4.1842075215
 31
0.0
  0
SPLINE
  5
3F7
100
AcDbEntity
  8
0
100
AcDbSpline
 62
7
  6
CONTINUOUS
 70
0
 71
3
 72
15
 73
11
 74
9
 42
0.0000001
 43
0.0000001
 44
0.0000000001
 12
0.061767916
 22
0.0117698077
 32
0.0
 13
0.0628793182
 23
0.0
 33
0.0
 40
0.0
 40
0.0
 40
0.0
 40
0.0
 40
0.0182689732
 40
0.0761863947
 40
0.1700981788
 40
0.2950421296
 40
0.446145357
 40
0.619267833
 40
0.8060456678
 40
1.0
 40
1.0
 40
1.0
 40
1.0
 10
6.3907372629
 20
3.7493389618
 30
0.0
 10
6.3911134083
 20
3.7494106359
 30
0.0
 10
6.3926825132
 20
3.7497070264
 30
0.0
 10
6.3961901955
 20
3.7503453024
 30
0.0
 10
6.4019113488
 20
3.7513067471
 30
0.0
 10
6.4095829962
 20
3.7524402395
 30
0.0
 10
6.4189296805
 20
3.7535784737
 30
0.0
 10
6.4295982612
 20
3.7545475452
 30
0.0
 10
6.4411911287
 20
3.7551973934
 30
0.0
 10
6.4491720241
 20
3.7553486669
 30
0.0
 10
6.4532372629
 20
3.7553486669
 30
0.0
 11
6.3907372629
 21
3.7493389618
 31
0.0
 11
6.3918660429
 21
3.7495521764
 31
0.0
 11
6.3954490285
 21
3.7502040813
 31
0.0
 11
6.401272528
 21
3.7511824293
 31
0.0
 11
6.4090446349
 21
3.7523301336
 31
0.0
 11
6.418476338
 21
3.7534777694
 31
0.0
 11
6.4293176274
 21
3.7544614324
 31
0.0
 11
6.4410437307
 21
3.7551178696
 31
0.0
 11
6.4532372629
 21
3.7553486669
 31
0.0
  0
SPLINE
  5
3F8
100
AcDbEntity
  8
0
100
AcDbSpline
 62
7
  6
CONTINUOUS
 70
0
 71
3
 72
15
 73
11
 74
9
 42
0.0000001
 43
0.0000001
 44
0.0000000001
 12
-0.0628793207
 22
0.0
 32
0.0
 13
-0.0617679168
 23
0.0117698081
 33
0.0
 40
0.0
 40
0.0
 40
0.0
 40
0.0
 40
0.1935668241
 40
0.3810009123
 40
0.5538896246
 40
0.704799018
 40
0.829187501
 40
0.9231211201
 40
0.9815766793
 40
1.0
 40
1.0
 40
1.0
 40
1.0
 10
6.4532372629
 20
4.3993292566
 30
0.0
 10
6.4491801461
 20
4.3993292566
 30
0.0
 10
6.4411936233
 20
4.3994803333
 30
0.0
 10
6.4295999928
 20
4.4001300949
 30
0.0
 10
6.4189266742
 20
4.4010999068
 30
0.0
 10
6.4096004344
 20
4.4022355398
 30
0.0
 10
6.4019437876
 20
4.4033661868
 30
0.0
 10
6.3962224193
 20
4.4043269251
 30
0.0
 10
6.3926999574
 20
4.4049676189
 30
0.0
 10
6.3911165862
 20
4.4052666821
 30
0.0
 10
6.3907372629
 20
4.4053389618
 30
0.0
 11
6.4532372629
 21
4.3993292566
 31
0.0
 11
6.4410680834
 21
4.3995591333
 31
0.0
 11
6.4293007717
 21
4.4002177403
 31
0.0
 11
6.4184741492
 21
4.401200389
 31
0.0
 11
6.4090545314
 21
4.4023464444
 31
0.0
 11
6.4013168859
 21
4.4034884299
 31
0.0
 11
6.3954919087
 21
4.4044662702
 31
0.0
 11
6.3918755825
 21
4.4051239611
 31
0.0
 11
6.3907372629
 21
4.4053389618
 31
0.0
  0
SPLINE
  5
3F9
100
AcDbEntity
  8
0
100
AcDbSpline
 62
7
  6
CONTINUOUS
 70
0
 71
3
 72
15
 73
11
 74
9
 42
0.0000001
 43
0.0000001
 44
0.0000000001
 12
-0.0617679155
 22
-0.0117698076
 32
0.0
 13
-0.0628793179
 23
0.0
 33
0.0
 40
0.0
 40
0.0
 40
0.0
 40
0.0
 40
0.0182090446
 40
0.0761593252
 40
0.1701022622
 40
0.2950105204
 40
0.4461035411
 40
0.6192070876
 40
0.8060263471
 40
1.0
 40
1.0
 40
1.0
 40
1.0
 10
6.5157372629
 20
4.4053389618
 30
0.0
 10
6.5153623513
 20
4.4052675228
 30
0.0
 10
6.5137938056
 20
4.4049712293
 30
0.0
 10
6.5102860439
 20
4.404332911
 30
0.0
 10
6.504564307
 20
4.4033713559
 30
0.0
 10
6.4968929687
 20
4.4022378897
 30
0.0
 10
6.4875476414
 20
4.4010997558
 30
0.0
 10
6.4768788143
 20
4.4001305568
 30
0.0
 10
6.4652850753
 20
4.3994805693
 30
0.0
 10
6.4573029065
 20
4.3993292566
 30
0.0
 10
6.4532372629
 20
4.3993292566
 30
0.0
 11
6.5157372629
 21
4.4053389618
 31
0.0
 11
6.5146121867
 21
4.4051264406
 31
0.0
 11
6.5110271734
 21
4.4044741384
 31
0.0
 11
6.5052017441
 21
4.4034954538
 31
0.0
 11
6.4974318604
 21
4.4023480577
 31
0.0
 11
6.4880008023
 21
4.4012004347
 31
0.0
 11
6.477160708
 21
4.4002167734
 31
0.0
 11
6.4654320091
 21
4.3995600999
 31
0.0
 11
6.4532372629
 21
4.3993292566
 31
0.0
  0
SPLINE
  5
3FA
100
AcDbEntity
  8
0
100
AcDbSpline
 62
7
  6
CONTINUOUS
 70
0
 71
3
 72
15
 73
11
 74
9
 42
0.0000001
 43
0.0000001
 44
0.0000000001
 12
0.0628793207
 22
0.0
 32
0.0
 13
0.061767917
 23
-0.0117698081
 33
0.0
 40
0.0
 40
0.0
 40
0.0
 40
0.0
 40
0.1935636305
 40
0.3809756717
 40
0.5538885024
 40
0.7048048167
 40
0.8292366478
 40
0.923134125
 40
0.9815281754
 40
1.0
 40
1.0
 40
1.0
 40
1.0
 10
6.4532372629
 20
3.7553486669
 30
0.0
 10
6.4572943127
 20
3.7553486669
 30
0.0
 10
6.4652803064
 20
3.7551976027
 30
0.0
 10
6.4768739144
 20
3.7545478745
 30
0.0
 10
6.487547424
 20
3.7535780722
 30
0.0
 10
6.4968752111
 20
3.7524422465
 30
0.0
 10
6.5045321457
 20
3.7513115174
 30
0.0
 10
6.5102523859
 20
3.7503509359
 30
0.0
 10
6.5137738363
 20
3.7497104376
 30
0.0
 10
6.5153569408
 20
3.7494114317
 30
0.0
 10
6.5157372629
 20
3.7493389618
 30
0.0
 11
6.4532372629
 21
3.7553486669
 31
0.0
 11
6.4654062416
 21
3.7551187978
 31
0.0
 11
6.4771721709
 21
3.7544603006
 31
0.0
 11
6.4880003063
 21
3.753477542
 31
0.0
 11
6.4974203556
 21
3.75233143
 31
0.0
 11
6.5051606918
 21
3.7511890078
 31
0.0
 11
6.5109834224
 21
3.7502115112
 31
0.0
 11
6.5145959454
 21
3.7495545236
 31
0.0
 11
6.5157372629
 21
3.7493389618
 31
0.0
  0
SPLINE
  5
3FB
100
AcDbEntity
  8
0
100
AcDbSpline
 62
7
  6
CONTINUOUS
 70
0
 71
3
 72
13
 73
9
 74
7
 42
0.0000001
 43
0.0000001
 44
0.0000000001
 12
0.0933643617
 22
0.0
 32
0.0
 13
-0.0000246747
 23
0.0937016635
 33
0.0
 40
0.0
 40
0.0
 40
0.0
 40
0.0
 40
0.1735295987
 40
0.3471629286
 40
0.5192468862
 40
0.6867548224
 40
0.8470445252
 40
1.0
 40
1.0
 40
1.0
 40
1.0
 10
6.4532372629
 20
4.1842075215
 30
0.0
 10
6.4586377563
 20
4.1842075215
 30
0.0
 10
6.4694901694
 20
4.1855711321
 30
0.0
 10
6.4846756942
 20
4.1915508053
 30
0.0
 10
6.4977779862
 20
4.2009774574
 30
0.0
 10
6.5078568491
 20
4.2130503745
 30
0.0
 10
6.5142263693
 20
4.2267902972
 30
0.0
 10
6.5157385209
 20
4.2365615667
 30
0.0
 10
6.5157372628
 20
4.2413389608
 30
0.0
 11
6.4532372629
 21
4.1842075215
 31
0.0
 11
6.4693121479
 21
4.1862289149
 31
0.0
 11
6.4843969525
 21
4.1921661317
 31
0.0
 11
6.4974268146
 21
4.201565887
 31
0.0
 11
6.507410607
 21
4.2136037732
 31
0.0
 11
6.513632784
 21
4.2272142871
 31
0.0
 11
6.5157372628
 21
4.2413389608
 31
0.0
  0
SPLINE
  5
3FC
100
AcDbEntity
  8
0
100
AcDbSpline
 62
7
  6
CONTINUOUS
 70
0
 71
3
 72
13
 73
9
 74
7
 42
0.0000001
 43
0.0000001
 44
0.0000000001
 12
-0.0933643617
 22
0.0
 32
0.0
 13
0.0000246747
 23
-0.0937016635
 33
0.0
 40
0.0
 40
0.0
 40
0.0
 40
0.0
 40
0.1735295987
 40
0.3471629286
 40
0.5192468862
 40
0.6867548224
 40
0.8470445252
 40
1.0
 40
1.0
 40
1.0
 40
1.0
 10
6.4532372629
 20
3.9704704021
 30
0.0
 10
6.4478367695
 20
3.9704704021
 30
0.0
 10
6.4369843563
 20
3.9691067914
 30
0.0
 10
6.4217988315
 20
3.9631271182
 30
0.0
 10
6.4086965395
 20
3.9537004661
 30
0.0
 10
6.3986176767
 20
3.941627549
 30
0.0
 10
6.3922481564
 20
3.9278876264
 30
0.0
 10
6.3907360048
 20
3.9181163568
 30
0.0
 10
6.3907372629
 20
3.9133389627
 30
0.0
 11
6.4532372629
 21
3.9704704021
 31
0.0
 11
6.4371623778
 21
3.9684490086
 31
0.0
 11
6.4220775733
 21
3.9625117918
 31
0.0
 11
6.4090477112
 21
3.9531120365
 31
0.0
 11
6.3990639187
 21
3.9410741504
 31
0.0
 11
6.3928417418
 21
3.9274636365
 31
0.0
 11
6.3907372629
 21
3.9133389627
 31
0.0
  0
SPLINE
  5
3FD
100
AcDbEntity
  8
0
100
AcDbSpline
 62
7
  6
CONTINUOUS
 70
0
 71
3
 72
13
 73
9
 74
7
 42
0.0000001
 43
0.0000001
 44
0.0000000001
 12
-0.0691052941
 22
0.0
 32
0.0
 13
-0.0301866733
 23
-0.0623712528
 33
0.0
 40
0.0
 40
0.0
 40
0.0
 40
0.0
 40
0.1857021857
 40
0.3674302382
 40
0.5434165075
 40
0.7127672938
 40
0.8793294725
 40
1.0
 40
1.0
 40
1.0
 40
1.0
 10
6.4532372629
 20
4.2524962791
 30
0.0
 10
6.4489595948
 20
4.2524962791
 30
0.0
 10
6.4404811005
 20
4.2518579107
 30
0.0
 10
6.4282436239
 20
4.2489901077
 30
0.0
 10
6.4169953203
 20
4.2442497195
 30
0.0
 10
6.4071279932
 20
4.237646313
 30
0.0
 10
6.3998063543
 20
4.2299604803
 30
0.0
 10
6.3963503661
 20
4.2242611348
 30
0.0
 10
6.3951361522
 20
4.2217523441
 30
0.0
 11
6.4532372629
 21
4.2524962791
 31
0.0
 11
6.4404415427
 21
4.2515187608
 31
0.0
 11
6.428223089
 21
4.2486166827
 31
0.0
 11
6.4170389498
 21
4.2438397455
 31
0.0
 11
6.407350884
 21
4.2372745014
 31
0.0
 11
6.399457154
 21
4.2288973489
 31
0.0
 11
6.3951361522
 21
4.2217523441
 31
0.0
  0
SPLINE
  5
3FE
100
AcDbEntity
  8
0
100
AcDbSpline
 62
7
  6
CONTINUOUS
 70
0
 71
3
 72
12
 73
8
 74
6
 42
0.0000001
 43
0.0000001
 44
0.0000000001
 12
0.069008004
 22
0.0
 32
0.0
 13
0.0302521657
 23
0.0622862278
 33
0.0
 40
0.0
 40
0.0
 40
0.0
 40
0.0
 40
0.2137091176
 40
0.4266098589
 40
0.6322838521
 40
0.8302409638
 40
1.0
 40
1.0
 40
1.0
 40
1.0
 10
6.4532372629
 20
3.9021816445
 30
0.0
 10
6.4581531427
 20
3.9021816445
 30
0.0
 10
6.4679887358
 20
3.9030313093
 30
0.0
 10
6.4820976573
 20
3.9069041211
 30
0.0
 10
6.4948191108
 20
3.9134370336
 30
0.0
 10
6.5048690848
 20
3.9222135072
 30
0.0
 10
6.5096032469
 20
3.929352221
 30
0.0
 10
6.5113151064
 20
3.932876771
 30
0.0
 11
6.4532372629
 21
3.9021816445
 31
0.0
 11
6.4679280417
 21
3.9034754341
 31
0.0
 11
6.482076957
 21
3.9074325548
 31
0.0
 11
6.4946527581
 21
3.9140124321
 31
0.0
 11
6.5048674794
 21
3.9230828316
 31
0.0
 11
6.5113151064
 21
3.932876771
 31
0.0
  0
SPLINE
  5
3FF
100
AcDbEntity
  8
0
100
AcDbSpline
 62
7
  6
CONTINUOUS
 70
0
 71
3
 72
15
 73
11
 74
9
 42
0.0000001
 43
0.0000001
 44
0.0000000001
 12
0.1643031241
 22
0.1839340856
 32
0.0
 13
-0.1643031241
 23
0.1839340856
 33
0.0
 40
0.0
 40
0.0
 40
0.0
 40
0.0
 40
0.1498215377
 40
0.2783315905
 40
0.3927788038
 40
0.5000592815
 40
0.6073304266
 40
0.7217569014
 40
0.8502022558
 40
1.0
 40
1.0
 40
1.0
 40
1.0
 10
5.6247372629
 20
3.5892364893
 30
0.0
 10
5.6329426451
 20
3.5984222518
 30
0.0
 10
5.6473744246
 20
3.6162652104
 30
0.0
 10
5.6639721533
 20
3.6441236245
 30
0.0
 10
5.6739572603
 20
3.6713506985
 30
0.0
 10
5.6773182834
 20
3.6984530542
 30
0.0
 10
5.6739505097
 20
3.7255527179
 30
0.0
 10
5.6639633924
 20
3.7527704946
 30
0.0
 10
5.6473686629
 20
3.7806199549
 30
0.0
 10
5.632941342
 20
3.7984571306
 30
0.0
 10
5.6247372629
 20
3.8076414343
 30
0.0
 11
5.6247372629
 21
3.5892364893
 31
0.0
 11
5.6477057366
 21
3.6181814022
 31
0.0
 11
5.6636319215
 21
3.6455841173
 31
0.0
 11
5.6730809189
 21
3.6721818986
 31
0.0
 11
5.6762212279
 21
3.6984536626
 31
0.0
 11
5.6730746397
 21
3.7247223571
 31
0.0
 11
5.6636226075
 21
3.7513136319
 31
0.0
 11
5.6477024
 21
3.7787013649
 31
0.0
 11
5.6247372629
 21
3.8076414343
 31
0.0
  0
SPLINE
  5
400
100
AcDbEntity
  8
0
100
AcDbSpline
 62
7
  6
CONTINUOUS
 70
0
 71
3
 72
11
 73
7
 74
5
 42
0.0000001
 43
0.0000001
 44
0.0000000001
 12
-0.0551781963
 22
0.2139806584
 32
0.0
 13
-0.0
 23
0.2209804415
 33
0.0
 40
0.0
 40
0.0
 40
0.0
 40
0.0
 40
0.2591965564
 40
0.5095623962
 40
0.7555674757
 40
1.0
 40
1.0
 40
1.0
 40
1.0
 10
5.2129708017
 20
3.8589340168
 30
0.0
 10
5.2082034689
 20
3.8774217
 30
0.0
 10
5.1997217237
 20
3.9140067892
 30
0.0
 10
5.1902943679
 20
3.9688923601
 30
0.0
 10
5.1845424022
 20
4.023195692
 30
0.0
 10
5.1832450261
 20
4.0593340259
 30
0.0
 10
5.1832450261
 20
4.0773389616
 30
0.0
 11
5.2129708017
 21
3.8589340168
 31
0.0
 11
5.2001242577
 21
3.9147521443
 31
0.0
 11
5.190835089
 21
3.9692927027
 31
0.0
 11
5.1851618799
 21
4.0233581774
 31
0.0
 11
5.1832450261
 21
4.0773389616
 31
0.0
  0
SPLINE
  5
401
100
AcDbEntity
  8
0
100
AcDbSpline
 62
7
  6
CONTINUOUS
 70
0
 71
3
 72
11
 73
7
 74
5
 42
0.0000001
 43
0.0000001
 44
0.0000000001
 12
-0.0
 22
0.2209804405
 32
0.0
 13
0.0551781961
 23
0.2139806575
 33
0.0
 40
0.0
 40
0.0
 40
0.0
 40
0.0
 40
0.2444756281
 40
0.490492297
 40
0.7408132744
 40
1.0
 40
1.0
 40
1.0
 40
1.0
 10
5.1832450261
 20
4.0773389616
 30
0.0
 10
5.1832450261
 20
4.0953470723
 30
0.0
 10
5.184542778
 20
4.131489441
 30
0.0
 10
5.190295554
 20
4.1857934175
 30
0.0
 10
5.1997227814
 20
4.2406757707
 30
0.0
 10
5.2082036497
 20
4.2772569248
 30
0.0
 10
5.2129708017
 20
4.2957439068
 30
0.0
 11
5.1832450261
 21
4.0773389616
 31
0.0
 11
5.185162552
 21
4.1313292528
 31
0.0
 11
5.1908367471
 21
4.185397199
 31
0.0
 11
5.2001246863
 21
4.2399279101
 31
0.0
 11
5.2129708017
 21
4.2957439068
 31
0.0
  0
SPLINE
  5
402
100
AcDbEntity
  8
0
100
AcDbSpline
 62
7
  6
CONTINUOUS
 70
0
 71
3
 72
15
 73
11
 74
9
 42
0.0000001
 43
0.0000001
 44
0.0000000001
 12
0.1843202379
 22
0.4126856942
 32
0.0
 13
-0.1843202379
 23
0.4126856942
 33
0.0
 40
0.0
 40
0.0
 40
0.0
 40
0.0
 40
0.1377942686
 40
0.2640673782
 40
0.3836049145
 40
0.5000649493
 40
0.6165122554
 40
0.736022619
 40
0.8622283762
 40
1.0
 40
1.0
 40
1.0
 40
1.0
 10
5.6247372629
 20
3.8589340168
 30
0.0
 10
5.6332033537
 20
3.8778892579
 30
0.0
 10
5.6480348964
 20
3.9148701967
 30
0.0
 10
5.6643720117
 20
3.9704064778
 30
0.0
 10
5.6740651811
 20
4.0242372172
 30
0.0
 10
5.6772868376
 20
4.07736652
 30
0.0
 10
5.6740586475
 20
4.1304912707
 30
0.0
 10
5.6643631259
 20
4.1843050533
 30
0.0
 10
5.6480286765
 20
4.2398235485
 30
0.0
 10
5.6332019624
 20
4.2767917807
 30
0.0
 10
5.6247372629
 20
4.2957439068
 30
0.0
 11
5.6247372629
 21
3.8589340168
 31
0.0
 11
5.6477057366
 21
3.9168238427
 31
0.0
 11
5.6636319215
 21
3.9716292728
 31
0.0
 11
5.6730809189
 21
4.0248248355
 31
0.0
 11
5.6762212279
 21
4.0773683634
 31
0.0
 11
5.6730746397
 21
4.1299057524
 31
0.0
 11
5.6636226075
 21
4.183088302
 31
0.0
 11
5.6477024
 21
4.237863768
 31
0.0
 11
5.6247372629
 21
4.2957439068
 31
0.0
  0
SPLINE
  5
403
100
AcDbEntity
  8
0
100
AcDbSpline
 62
7
  6
CONTINUOUS
 70
0
 71
3
 72
11
 73
7
 74
5
 42
0.0000001
 43
0.0000001
 44
0.0000000001
 12
-0.0498847344
 22
0.0967263251
 32
0.0
 13
-0.0031142479
 23
0.1088409726
 33
0.0
 40
0.0
 40
0.0
 40
0.0
 40
0.0
 40
0.2823037165
 40
0.5470134722
 40
0.8008133682
 40
1.0
 40
1.0
 40
1.0
 40
1.0
 10
5.2129708017
 20
4.3470364893
 30
0.0
 10
5.2082765864
 20
4.3561385563
 30
0.0
 10
5.199888767
 20
4.3741593151
 30
0.0
 10
5.1903865202
 20
4.4016769688
 30
0.0
 10
5.1849402646
 20
4.4272093889
 30
0.0
 10
5.1835289476
 20
4.4436313451
 30
0.0
 10
5.1833221754
 20
4.4508579007
 30
0.0
 11
5.2129708017
 21
4.3470364893
 31
0.0
 11
5.2001242577
 21
4.374945553
 31
0.0
 11
5.190835089
 21
4.4022158322
 31
0.0
 11
5.1851618799
 21
4.4292485696
 31
0.0
 11
5.1833221754
 21
4.4508579007
 31
0.0
  0
SPLINE
  5
404
100
AcDbEntity
  8
0
100
AcDbSpline
 62
7
  6
CONTINUOUS
 70
0
 71
3
 72
8
 73
4
 74
2
 42
0.0000001
 43
0.0000001
 44
0.0000000001
 12
-0.0001539617
 22
0.0053808642
 32
0.0
 13
-0.0
 23
0.0053804353
 33
0.0
 40
0.0
 40
0.0
 40
0.0
 40
0.0
 40
1.0
 40
1.0
 40
1.0
 40
1.0
 10
5.1833221754
 20
4.4508579007
 30
0.0
 10
5.1832708549
 20
4.4526515221
 30
0.0
 10
5.1832450261
 20
4.4544454833
 30
0.0
 10
5.1832450261
 20
4.4562389617
 30
0.0
 11
5.1833221754
 21
4.4508579007
 31
0.0
 11
5.1832450261
 21
4.4562389617
 31
0.0
  0
SPLINE
  5
405
100
AcDbEntity
  8
0
100
AcDbSpline
 62
7
  6
CONTINUOUS
 70
0
 71
3
 72
11
 73
7
 74
5
 42
0.0000001
 43
0.0000001
 44
0.0000000001
 12
-0.0
 22
0.1142127284
 32
0.0
 13
0.0523509273
 23
0.1015082644
 33
0.0
 40
0.0
 40
0.0
 40
0.0
 40
0.0
 40
0.2369540013
 40
0.4788100334
 40
0.7310053343
 40
1.0
 40
1.0
 40
1.0
 40
1.0
 10
5.1832450261
 20
4.4562389617
 30
0.0
 10
5.1832450261
 20
4.465260016
 30
0.0
 10
5.1845654934
 20
4.4835134321
 30
0.0
 10
5.1903877105
 20
4.5108048513
 30
0.0
 10
5.1998897899
 20
4.5383208385
 30
0.0
 10
5.2082767617
 20
4.556339707
 30
0.0
 10
5.2129708017
 20
4.5654414343
 30
0.0
 11
5.1832450261
 21
4.4562389617
 31
0.0
 11
5.185162552
 21
4.4832341073
 31
0.0
 11
5.1908367471
 21
4.5102680804
 31
0.0
 11
5.2001246863
 21
4.5375334359
 31
0.0
 11
5.2129708017
 21
4.5654414343
 31
0.0
  0
SPLINE
  5
406
100
AcDbEntity
  8
0
100
AcDbSpline
 62
7
  6
CONTINUOUS
 70
0
 71
3
 72
15
 73
11
 74
9
 42
0.0000001
 43
0.0000001
 44
0.0000000001
 12
0.1643031241
 22
0.1839340856
 32
0.0
 13
-0.1643031241
 23
0.1839340856
 33
0.0
 40
0.0
 40
0.0
 40
0.0
 40
0.0
 40
0.1498215377
 40
0.2783315905
 40
0.3927788038
 40
0.5000592815
 40
0.6073304266
 40
0.7217569014
 40
0.8502022558
 40
1.0
 40
1.0
 40
1.0
 40
1.0
 10
5.6247372629
 20
4.3470364893
 30
0.0
 10
5.6329426451
 20
4.3562222518
 30
0.0
 10
5.6473744246
 20
4.3740652104
 30
0.0
 10
5.6639721533
 20
4.4019236245
 30
0.0
 10
5.6739572603
 20
4.4291506985
 30
0.0
 10
5.6773182834
 20
4.4562530542
 30
0.0
 10
5.6739505097
 20
4.4833527179
 30
0.0
 10
5.6639633924
 20
4.5105704946
 30
0.0
 10
5.6473686629
 20
4.5384199549
 30
0.0
 10
5.632941342
 20
4.5562571306
 30
0.0
 10
5.6247372629
 20
4.5654414343
 30
0.0
 11
5.6247372629
 21
4.3470364893
 31
0.0
 11
5.6477057366
 21
4.3759814022
 31
0.0
 11
5.6636319215
 21
4.4033841173
 31
0.0
 11
5.6730809189
 21
4.4299818986
 31
0.0
 11
5.6762212279
 21
4.4562536626
 31
0.0
 11
5.6730746397
 21
4.4825223571
 31
0.0
 11
5.6636226075
 21
4.5091136319
 31
0.0
 11
5.6477024
 21
4.5365013649
 31
0.0
 11
5.6247372629
 21
4.5654414343
 31
0.0
  0
SPLINE
  5
407
100
AcDbEntity
  8
0
100
AcDbSpline
 62
7
  6
CONTINUOUS
 70
0
 71
3
 72
13
 73
9
 74
7
 42
0.0000001
 43
0.0000001
 44
0.0000000001
 12
-0.0000236825
 22
0.0899339538
 32
0.0
 13
-0.0896102148
 23
-0.0
 33
0.0
 40
0.0
 40
0.0
 40
0.0
 40
0.0
 40
0.1550109461
 40
0.3110365198
 40
0.4729697034
 40
0.6429317374
 40
0.8197034487
 40
1.0
 40
1.0
 40
1.0
 40
1.0
 10
6.5157372628
 20
4.2413389608
 30
0.0
 10
6.5157360392
 20
4.2459858766
 30
0.0
 10
6.5143294407
 20
4.2553217996
 30
0.0
 10
6.5078971784
 20
4.2681580525
 30
0.0
 10
6.4976488499
 20
4.2788006829
 30
0.0
 10
6.4844504015
 20
4.2866431615
 30
0.0
 10
6.4693206753
 20
4.2914034703
 30
0.0
 10
6.4586227338
 20
4.2924606969
 30
0.0
 10
6.4532372629
 20
4.2924606969
 30
0.0
 11
6.5157372628
 21
4.2413389608
 31
0.0
 11
6.5136327728
 21
4.2550691798
 31
0.0
 11
6.5074106188
 21
4.2675898318
 31
0.0
 11
6.4974269483
 21
4.2781203397
 31
0.0
 11
6.4843971207
 21
4.2860061926
 31
0.0
 11
6.4693122116
 21
4.290840298
 31
0.0
 11
6.4532372629
 21
4.2924606969
 31
0.0
  0
SPLINE
  5
408
100
AcDbEntity
  8
0
100
AcDbSpline
 62
7
  6
CONTINUOUS
 70
0
 71
3
 72
13
 73
9
 74
7
 42
0.0000001
 43
0.0000001
 44
0.0000000001
 12
-0.0896102138
 22
0.0
 32
0.0
 13
-0.0000236752
 23
-0.0899339479
 33
0.0
 40
0.0
 40
0.0
 40
0.0
 40
0.0
 40
0.1802958311
 40
0.3570662208
 40
0.5270284061
 40
0.6889632559
 40
0.8449894648
 40
1.0
 40
1.0
 40
1.0
 40
1.0
 10
6.4532372629
 20
4.2924606969
 30
0.0
 10
6.4478518135
 20
4.2924606969
 30
0.0
 10
6.4371539334
 20
4.2914034806
 30
0.0
 10
6.4220242561
 20
4.2866432144
 30
0.0
 10
6.4088257727
 20
4.2788007671
 30
0.0
 10
6.3985773685
 20
4.2681581011
 30
0.0
 10
6.3921450823
 20
4.2553217933
 30
0.0
 10
6.3907384861
 20
4.2459858658
 30
0.0
 10
6.3907372628
 20
4.2413389627
 30
0.0
 11
6.4532372629
 21
4.2924606969
 31
0.0
 11
6.4371623778
 21
4.2908403111
 31
0.0
 11
6.4220775733
 21
4.2860062682
 31
0.0
 11
6.4090477112
 21
4.2781204464
 31
0.0
 11
6.3990639187
 21
4.2675898486
 31
0.0
 11
6.3928417418
 21
4.2550691446
 31
0.0
 11
6.3907372628
 21
4.2413389627
 31
0.0
  0
SPLINE
  5
409
100
AcDbEntity
  8
0
100
AcDbSpline
 62
7
  6
CONTINUOUS
 70
0
 71
3
 72
13
 73
9
 74
7
 42
0.0000001
 43
0.0000001
 44
0.0000000001
 12
0.0896102138
 22
0.0
 32
0.0
 13
0.0000236752
 23
0.0899339479
 33
0.0
 40
0.0
 40
0.0
 40
0.0
 40
0.0
 40
0.1802958311
 40
0.3570662208
 40
0.5270284061
 40
0.6889632559
 40
0.8449894648
 40
1.0
 40
1.0
 40
1.0
 40
1.0
 10
6.4532372629
 20
3.8622172266
 30
0.0
 10
6.4586227122
 20
3.8622172266
 30
0.0
 10
6.4693205923
 20
3.863274443
 30
0.0
 10
6.4844502696
 20
3.8680347092
 30
0.0
 10
6.497648753
 20
3.8758771565
 30
0.0
 10
6.5078971572
 20
3.8865198225
 30
0.0
 10
6.5143294434
 20
3.8993561302
 30
0.0
 10
6.5157360396
 20
3.9086920577
 30
0.0
 10
6.5157372629
 20
3.9133389608
 30
0.0
 11
6.4532372629
 21
3.8622172266
 31
0.0
 11
6.4693121479
 21
3.8638376124
 31
0.0
 11
6.4843969525
 21
3.8686716553
 31
0.0
 11
6.4974268146
 21
3.8765574772
 31
0.0
 11
6.507410607
 21
3.8870880749
 31
0.0
 11
6.513632784
 21
3.8996087789
 31
0.0
 11
6.5157372629
 21
3.9133389608
 31
0.0
  0
SPLINE
  5
40A
100
AcDbEntity
  8
0
100
AcDbSpline
 62
7
  6
CONTINUOUS
 70
0
 71
3
 72
13
 73
9
 74
7
 42
0.0000001
 43
0.0000001
 44
0.0000000001
 12
0.0000236825
 22
-0.0899339538
 32
0.0
 13
0.0896102148
 23
-0.0
 33
0.0
 40
0.0
 40
0.0
 40
0.0
 40
0.0
 40
0.1550109461
 40
0.3110365198
 40
0.4729697034
 40
0.6429317374
 40
0.8197034487
 40
1.0
 40
1.0
 40
1.0
 40
1.0
 10
6.3907372629
 20
3.9133389627
 30
0.0
 10
6.3907384866
 20
3.9086920469
 30
0.0
 10
6.3921450851
 20
3.8993561239
 30
0.0
 10
6.3985773473
 20
3.886519871
 30
0.0
 10
6.4088256758
 20
3.8758772406
 30
0.0
 10
6.4220241242
 20
3.868034762
 30
0.0
 10
6.4371538504
 20
3.8632744532
 30
0.0
 10
6.447851792
 20
3.8622172266
 30
0.0
 10
6.4532372629
 20
3.8622172266
 30
0.0
 11
6.3907372629
 21
3.9133389627
 31
0.0
 11
6.3928417529
 21
3.8996087437
 31
0.0
 11
6.3990639069
 21
3.8870880917
 31
0.0
 11
6.4090475774
 21
3.8765575839
 31
0.0
 11
6.4220774051
 21
3.868671731
 31
0.0
 11
6.4371623141
 21
3.8638376255
 31
0.0
 11
6.4532372629
 21
3.8622172266
 31
0.0
  0
SPLINE
  5
40B
100
AcDbEntity
  8
0
100
AcDbSpline
 62
7
  6
CONTINUOUS
 70
0
 71
3
 72
11
 73
7
 74
5
 42
0.0000001
 43
0.0000001
 44
0.0000000001
 12
-0.0523509287
 22
0.1015082672
 32
0.0
 13
-0.0
 23
0.1142127315
 33
0.0
 40
0.0
 40
0.0
 40
0.0
 40
0.0
 40
0.269004701
 40
0.5212442733
 40
0.7630879372
 40
1.0
 40
1.0
 40
1.0
 40
1.0
 10
5.2129708017
 20
3.5892364893
 30
0.0
 10
5.2082765864
 20
3.5983385563
 30
0.0
 10
5.199888767
 20
3.6163593151
 30
0.0
 10
5.1903865202
 20
3.6438769688
 30
0.0
 10
5.1845651042
 20
3.6711681665
 30
0.0
 10
5.1832450261
 20
3.6894195038
 30
0.0
 10
5.1832450261
 20
3.6984389617
 30
0.0
 11
5.2129708017
 21
3.5892364893
 31
0.0
 11
5.2001242577
 21
3.617145553
 31
0.0
 11
5.190835089
 21
3.6444158322
 31
0.0
 11
5.1851618799
 21
3.6714485696
 31
0.0
 11
5.1832450261
 21
3.6984389617
 31
0.0
  0
SPLINE
  5
40C
100
AcDbEntity
  8
0
100
AcDbSpline
 62
7
  6
CONTINUOUS
 70
0
 71
3
 72
8
 73
4
 74
2
 42
0.0000001
 43
0.0000001
 44
0.0000000001
 12
-0.0
 22
0.0053804276
 32
0.0
 13
0.0001539618
 23
0.005380857
 33
0.0
 40
0.0
 40
0.0
 40
0.0
 40
0.0
 40
1.0
 40
1.0
 40
1.0
 40
1.0
 10
5.1832450261
 20
3.6984389617
 30
0.0
 10
5.1832450261
 20
3.7002324375
 30
0.0
 10
5.1832708549
 20
3.7020263962
 30
0.0
 10
5.1833221755
 20
3.7038200152
 30
0.0
 11
5.1832450261
 21
3.6984389617
 31
0.0
 11
5.1833221755
 21
3.7038200152
 31
0.0
  0
SPLINE
  5
40D
100
AcDbEntity
  8
0
100
AcDbSpline
 62
7
  6
CONTINUOUS
 70
0
 71
3
 72
11
 73
7
 74
5
 42
0.0000001
 43
0.0000001
 44
0.0000000001
 12
0.0031142537
 22
0.1088409883
 32
0.0
 13
0.0498847366
 23
0.0967263292
 33
0.0
 40
0.0
 40
0.0
 40
0.0
 40
0.0
 40
0.1992306996
 40
0.4530435575
 40
0.7177068346
 40
1.0
 40
1.0
 40
1.0
 40
1.0
 10
5.1833221755
 20
3.7038200152
 30
0.0
 10
5.1835289938
 20
3.7110481706
 30
0.0
 10
5.1849406997
 20
3.7274721973
 30
0.0
 10
5.1903877105
 20
3.7530048513
 30
0.0
 10
5.1998897899
 20
3.7805208385
 30
0.0
 10
5.2082767617
 20
3.798539707
 30
0.0
 10
5.2129708017
 20
3.8076414343
 30
0.0
 11
5.1833221755
 21
3.7038200152
 31
0.0
 11
5.185162552
 21
3.7254341073
 31
0.0
 11
5.1908367471
 21
3.7524680804
 31
0.0
 11
5.2001246863
 21
3.7797334359
 31
0.0
 11
5.2129708017
 21
3.8076414343
 31
0.0
  0
ENDSEC
  0
SECTION
  2
OBJECTS
  0
DICTIONARY
  5
C
100
AcDbDictionary
280
0
281
1
  3
ACAD_GROUP
350
D
  3
ACAD_MLINESTYLE
350
17
  3
ACAD_LAYOUT
350
1A
  3
ACAD_PLOTSETTINGS
350
19
  3
ACAD_PLOTSTYLENAME
350
E
  0
DICTIONARY
  5
D
102
{ACAD_REACTORS
330
C
102
}
100
AcDbDictionary
280
0
281
1
  0
ACDBDICTIONARYWDFLT
  5
E
102
{ACAD_REACTORS
330
C
102
}
100
AcDbDictionary
281
1
  3
Normal
350
F
100
AcDbDictionaryWithDefault
340
F
  0
DICTIONARY
  5
17
102
{ACAD_REACTORS
330
C
102
}
100
AcDbDictionary
280
0
281
1
  3
Standard
350
18
  0
DICTIONARY
  5
19
102
{ACAD_REACTORS
330
C
102
}
100
AcDbDictionary
281
1
  0
DICTIONARY
  5
1A
102
{ACAD_REACTORS
330
C
102
}
100
AcDbDictionary
281
1
  3
Layout1
350
1E
  3
Model
350
22
  0
ACDBPLACEHOLDER
  5
F
102
{ACAD_REACTORS
330
E
102
}
  0
MLINESTYLE
  5
18
102
{ACAD_REACTORS
330
17
102
}
100
AcDbMlineStyle
  2
STANDARD
 70
0
  3

 62
256
 51
90.0
 52
90.0
 71
2
 49
0.5
 62
256
  6
BYLAYER
 49
-0.5
 62
256
  6
BYLAYER
  0
LAYOUT
  5
1E
102
{ACAD_REACTORS
330
1A
102
}
100
AcDbPlotSettings
  1

  2

  4

  6

 40
0.0
 41
0.0
 42
0.0
 43
0.0
 44
0.0
 45
0.0
 46
0.0
 47
0.0
 48
0.0
 49
0.0
140
0.0
141
0.0
142
1.0
143
1.0
 70
0
 72
0
 73
0
 74
0
  7

 75
0
147
1.0
148
0.0
149
0.0
100
AcDbLayout
  1
Layout1
 70
0
 71
0
 10
0.0
 20
0.0
 11
0.0
 21
0.0
 12
0.0
 22
0.0
 32
0.0
 14
0.0
 24
0.0
 34
0.0
 15
0.0
 25
0.0
 35
0.0
146
0.0
 13
0.0
 23
0.0
 33
0.0
 16
0.0
 26
0.0
 36
0.0
 17
0.0
 27
0.0
 37
0.0
 76
0
330
1B
331
0
345
0
346
0
  0
LAYOUT
  5
22
102
{ACAD_REACTORS
330
1A
102
}
100
AcDbPlotSettings
  1

  2

  4

  6

 40
0.0
 41
0.0
 42
0.0
 43
0.0
 44
0.0
 45
0.0
 46
0.0
 47
0.0
 48
0.0
 49
0.0
140
0.0
141
0.0
142
1.0
143
1.0
 70
0
 72
0
 73
0
 74
0
  7

 75
0
147
1.0
148
0.0
149
0.0
100
AcDbLayout
  1
Model
 70
0
 71
0
 10
0.0
 20
0.0
 11
0.0
 21
0.0
 12
0.0
 22
0.0
 32
0.0
 14
0.0
 24
0.0
 34
0.0
 15
0.0
 25
0.0
 35
0.0
146
0.0
 13
0.0
 23
0.0
 33
0.0
 16
0.0
 26
0.0
 36
0.0
 17
0.0
 27
0.0
 37
0.0
 76
0
330
1F
331
0
345
0
346
0
  0
ENDSEC
  0
EOF
