999
DXF file: LPJC-XHN.dxf
999
Pro/ENGINEER 2006240 by Parametric Technology Corporation
  0
SECTION
  2
HEADER
  9
$ACADVER
  1
AC1015
  9
$DWGCODEPAGE
  3
ANSI_1252
  9
$EXTMAX
 10
11.6929133858
 20
8.2677165354
 30
0.0
  9
$EXTMIN
 10
0.0
 20
0.0
 30
0.0
  9
$LIMMIN
 10
0.0
 20
0.0
  9
$LIMMAX
 10
11.6929133858
 20
8.2677165354
  9
$VIEWCTR
 10
5.8464566929
 20
4.1338582677
  9
$VIEWSIZE
 40
8.2677165354
  9
$CLAYER
  8
0
  9
$LTSCALE
 40
0.6431102362
  9
$CELTYPE
  6
BYLAYER
  9
$DIMSCALE
 40
1.0
  9
$DIMASZ
 40
0.1875
  9
$DIMEXO
 40
0.0730807087
  9
$DIMDLI
 40
0.4443307087
  9
$DIMEXE
 40
0.2104724409
  9
$DIMCEN
 40
0.1052362205
  9
$DIMLFAC
 40
1.0
  9
$DIMBLK
  1
_CLOSED
  9
$DIMTXT
 40
0.15625
  9
$DIMTOL
 70
0
  9
$DIMLIM
 70
0
  9
$DIMTFAC
 40
1.0
  9
$PDMODE
 70
3
  9
$PDSIZE
 40
0.3125
  9
$HANDSEED
  5
439
  9
$MEASUREMENT
 70
0
  9
$INSUNITS
 70
1
  0
ENDSEC
  0
SECTION
  2
CLASSES
  0
CLASS
  1
ACDBDICTIONARYWDFLT
  2
AcDbDictionaryWithDefault
  3
AutoCAD 2000
 90
0
280
0
281
0
  0
CLASS
  1
ACDBPLACEHOLDER
  2
AcDbPlaceHolder
  3
AutoCAD 2000
 90
0
280
0
281
0
  0
CLASS
  1
LAYOUT
  2
AcDbLayout
  3
AutoCAD 2000
 90
0
280
0
281
0
  0
ENDSEC
  0
SECTION
  2
TABLES
  0
TABLE
  2
VPORT
  5
8
100
AcDbSymbolTable
 70
2
  0
VPORT
  5
1F4
100
AcDbSymbolTableRecord
100
AcDbViewportTableRecord
  2
*ACTIVE
 70
0
 10
0.0
 20
0.0
 11
1.0
 21
1.0
 12
5.8464566929
 22
4.1338582677
 13
0.0
 23
0.0
 14
1.0
 24
1.0
 15
0.0
 25
0.0
 16
0.0
 26
0.0
 36
1.0
 17
0.0
 27
0.0
 37
0.0
 40
8.2677165354
 41
1.4142857143
 42
50.0
 43
0.0
 44
0.0
 50
0.0
 51
0.0
 71
0
 72
100
 73
1
 74
1
 75
0
 76
0
 77
0
 78
0
  0
ENDTAB
  0
TABLE
  2
LTYPE
  5
5
100
AcDbSymbolTable
 70
6
  0
LTYPE
  5
14
100
AcDbSymbolTableRecord
100
AcDbLinetypeTableRecord
  2
BYBLOCK
 70
0
  3

 72
65
 73
0
 40
0.0
  0
LTYPE
  5
15
100
AcDbSymbolTableRecord
100
AcDbLinetypeTableRecord
  2
BYLAYER
 70
0
  3

 72
65
 73
0
 40
0.0
  0
LTYPE
  5
16
100
AcDbSymbolTableRecord
100
AcDbLinetypeTableRecord
  2
CONTINUOUS
 70
64
  3
Solid line
 72
65
 73
0
 40
0.0
  0
LTYPE
  5
1F5
100
AcDbSymbolTableRecord
100
AcDbLinetypeTableRecord
  2
CENTER
 70
64
  3
____ _ ____ _ ____ _ ____ _ ____ _ ____ _ ____
 72
65
 73
4
 40
0.6
 49
0.375
 74
0
 49
-0.075
 74
0
 49
0.075
 74
0
 49
-0.075
 74
0
  0
LTYPE
  5
1F6
100
AcDbSymbolTableRecord
100
AcDbLinetypeTableRecord
  2
HIDDEN
 70
64
  3
- - - - - - - - - - - - - - - - - - - -
 72
65
 73
2
 40
0.2
 49
0.1
 74
0
 49
-0.1
 74
0
  0
LTYPE
  5
1F7
100
AcDbSymbolTableRecord
100
AcDbLinetypeTableRecord
  2
PHANTOM
 70
64
  3
_____ _ _ _____ _ _ _____ _ _ _____
 72
65
 73
6
 40
0.8
 49
0.45
 74
0
 49
-0.05
 74
0
 49
0.1
 74
0
 49
-0.05
 74
0
 49
0.1
 74
0
 49
-0.05
 74
0
  0
LTYPE
  5
1F8
100
AcDbSymbolTableRecord
100
AcDbLinetypeTableRecord
  2
DOT
 70
64
  3
. . . . . . . . . . . . . . . . . . . .
 72
65
 73
2
 40
0.2
 49
0.1
 74
0
 49
-0.1
 74
0
  0
LTYPE
  5
1F9
100
AcDbSymbolTableRecord
100
AcDbLinetypeTableRecord
  2
DASHED
 70
64
  3
- - - - - - - - - - - - - - - - - - - -
 72
65
 73
2
 40
0.2
 49
0.1
 74
0
 49
-0.1
 74
0
  0
ENDTAB
  0
TABLE
  2
LAYER
  5
2
100
AcDbSymbolTable
 70
36
  0
LAYER
  5
10
100
AcDbSymbolTableRecord
100
AcDbLayerTableRecord
  2
0
 70
0
 62
7
  6
CONTINUOUS
370
-3
390
F
  0
LAYER
  5
1FA
100
AcDbSymbolTableRecord
100
AcDbLayerTableRecord
  2
DEFAULT_1
 70
0
 62
7
  6
CENTER
370
-3
390
F
  0
LAYER
  5
1FB
100
AcDbSymbolTableRecord
100
AcDbLayerTableRecord
  2
DEFAULT_2
 70
0
 62
8
  6
HIDDEN
370
-3
390
F
  0
LAYER
  5
1FC
100
AcDbSymbolTableRecord
100
AcDbLayerTableRecord
  2
DEFAULT_3
 70
0
 62
7
  6
PHANTOM
370
-3
390
F
  0
LAYER
  5
1FD
100
AcDbSymbolTableRecord
100
AcDbLayerTableRecord
  2
_BLACK_HOLE
 70
0
 62
7
  6
CONTINUOUS
370
-3
390
F
  0
LAYER
  5
1FE
100
AcDbSymbolTableRecord
100
AcDbLayerTableRecord
  2
01_ALL_DTM_PLN
 70
0
 62
7
  6
CONTINUOUS
370
-3
390
F
  0
LAYER
  5
1FF
100
AcDbSymbolTableRecord
100
AcDbLayerTableRecord
  2
01__ASM_ALL_DTM_PLN
 70
0
 62
7
  6
CONTINUOUS
370
-3
390
F
  0
LAYER
  5
200
100
AcDbSymbolTableRecord
100
AcDbLayerTableRecord
  2
01__ASM_DEF_DTM_PLN
 70
0
 62
7
  6
CONTINUOUS
370
-3
390
F
  0
LAYER
  5
201
100
AcDbSymbolTableRecord
100
AcDbLayerTableRecord
  2
01___PRT_ALL_DTM_PLN
 70
0
 62
7
  6
CONTINUOUS
370
-3
390
F
  0
LAYER
  5
202
100
AcDbSymbolTableRecord
100
AcDbLayerTableRecord
  2
01___PRT_DEF_DTM_PLN
 70
0
 62
7
  6
CONTINUOUS
370
-3
390
F
  0
LAYER
  5
203
100
AcDbSymbolTableRecord
100
AcDbLayerTableRecord
  2
02_ALL_AXES
 70
0
 62
7
  6
CONTINUOUS
370
-3
390
F
  0
LAYER
  5
204
100
AcDbSymbolTableRecord
100
AcDbLayerTableRecord
  2
02__ASM_ALL_AXES
 70
0
 62
7
  6
CONTINUOUS
370
-3
390
F
  0
LAYER
  5
205
100
AcDbSymbolTableRecord
100
AcDbLayerTableRecord
  2
02___PRT_ALL_AXES
 70
0
 62
7
  6
CONTINUOUS
370
-3
390
F
  0
LAYER
  5
206
100
AcDbSymbolTableRecord
100
AcDbLayerTableRecord
  2
03_ALL_CURVES
 70
0
 62
7
  6
CONTINUOUS
370
-3
390
F
  0
LAYER
  5
207
100
AcDbSymbolTableRecord
100
AcDbLayerTableRecord
  2
03__ASM_ALL_CURVES
 70
0
 62
7
  6
CONTINUOUS
370
-3
390
F
  0
LAYER
  5
208
100
AcDbSymbolTableRecord
100
AcDbLayerTableRecord
  2
03___PRT_ALL_CURVES
 70
0
 62
7
  6
CONTINUOUS
370
-3
390
F
  0
LAYER
  5
209
100
AcDbSymbolTableRecord
100
AcDbLayerTableRecord
  2
04_ALL_DTM_PNT
 70
0
 62
7
  6
CONTINUOUS
370
-3
390
F
  0
LAYER
  5
20A
100
AcDbSymbolTableRecord
100
AcDbLayerTableRecord
  2
04__ASM_ALL_DTM_PNT
 70
0
 62
7
  6
CONTINUOUS
370
-3
390
F
  0
LAYER
  5
20B
100
AcDbSymbolTableRecord
100
AcDbLayerTableRecord
  2
04___PRT_ALL_DTM_PNT
 70
0
 62
7
  6
CONTINUOUS
370
-3
390
F
  0
LAYER
  5
20C
100
AcDbSymbolTableRecord
100
AcDbLayerTableRecord
  2
05_ALL_DTM_CSYS
 70
0
 62
7
  6
CONTINUOUS
370
-3
390
F
  0
LAYER
  5
20D
100
AcDbSymbolTableRecord
100
AcDbLayerTableRecord
  2
05__ASM_ALL_DTM_CSYS
 70
0
 62
7
  6
CONTINUOUS
370
-3
390
F
  0
LAYER
  5
20E
100
AcDbSymbolTableRecord
100
AcDbLayerTableRecord
  2
05__ASM_DEF_DTM_CSYS
 70
0
 62
7
  6
CONTINUOUS
370
-3
390
F
  0
LAYER
  5
20F
100
AcDbSymbolTableRecord
100
AcDbLayerTableRecord
  2
05___PRT_ALL_DTM_CSYS
 70
0
 62
7
  6
CONTINUOUS
370
-3
390
F
  0
LAYER
  5
210
100
AcDbSymbolTableRecord
100
AcDbLayerTableRecord
  2
05___PRT_DEF_DTM_CSYS
 70
0
 62
7
  6
CONTINUOUS
370
-3
390
F
  0
LAYER
  5
211
100
AcDbSymbolTableRecord
100
AcDbLayerTableRecord
  2
06_ALL_SURFS
 70
0
 62
7
  6
CONTINUOUS
370
-3
390
F
  0
LAYER
  5
212
100
AcDbSymbolTableRecord
100
AcDbLayerTableRecord
  2
06__ASM_ALL_SURFS
 70
0
 62
7
  6
CONTINUOUS
370
-3
390
F
  0
LAYER
  5
213
100
AcDbSymbolTableRecord
100
AcDbLayerTableRecord
  2
06___PRT_ALL_SURFS
 70
0
 62
7
  6
CONTINUOUS
370
-3
390
F
  0
LAYER
  5
214
100
AcDbSymbolTableRecord
100
AcDbLayerTableRecord
  2
07__ASM_ALL_SKELETONS
 70
0
 62
7
  6
CONTINUOUS
370
-3
390
F
  0
LAYER
  5
215
100
AcDbSymbolTableRecord
100
AcDbLayerTableRecord
  2
129-300_FEATURES
 70
0
 62
7
  6
CONTINUOUS
370
-3
390
F
  0
LAYER
  5
216
100
AcDbSymbolTableRecord
100
AcDbLayerTableRecord
  2
129-300_REF_GEOMETRY
 70
0
 62
7
  6
CONTINUOUS
370
-3
390
F
  0
LAYER
  5
217
100
AcDbSymbolTableRecord
100
AcDbLayerTableRecord
  2
129-301_FEATURES
 70
0
 62
7
  6
CONTINUOUS
370
-3
390
F
  0
LAYER
  5
218
100
AcDbSymbolTableRecord
100
AcDbLayerTableRecord
  2
129-301_REF_GEOMETRY
 70
0
 62
7
  6
CONTINUOUS
370
-3
390
F
  0
LAYER
  5
219
100
AcDbSymbolTableRecord
100
AcDbLayerTableRecord
  2
129-302_FEATURES
 70
0
 62
7
  6
CONTINUOUS
370
-3
390
F
  0
LAYER
  5
21A
100
AcDbSymbolTableRecord
100
AcDbLayerTableRecord
  2
129-302_REF_GEOMETRY
 70
0
 62
7
  6
CONTINUOUS
370
-3
390
F
  0
LAYER
  5
21B
100
AcDbSymbolTableRecord
100
AcDbLayerTableRecord
  2
COPY_GEO_FET
 70
0
 62
7
  6
CONTINUOUS
370
-3
390
F
  0
LAYER
  5
21C
100
AcDbSymbolTableRecord
100
AcDbLayerTableRecord
  2
COSMETIC
 70
0
 62
7
  6
CONTINUOUS
370
-3
390
F
  0
LAYER
  5
21D
100
AcDbSymbolTableRecord
100
AcDbLayerTableRecord
  2
CURVES
 70
0
 62
7
  6
CONTINUOUS
370
-3
390
F
  0
LAYER
  5
21E
100
AcDbSymbolTableRecord
100
AcDbLayerTableRecord
  2
CUT_REF_SURF
 70
0
 62
7
  6
CONTINUOUS
370
-3
390
F
  0
LAYER
  5
21F
100
AcDbSymbolTableRecord
100
AcDbLayerTableRecord
  2
DATUM
 70
0
 62
7
  6
CONTINUOUS
370
-3
390
F
  0
LAYER
  5
220
100
AcDbSymbolTableRecord
100
AcDbLayerTableRecord
  2
DATUMCURVES
 70
0
 62
7
  6
CONTINUOUS
370
-3
390
F
  0
LAYER
  5
221
100
AcDbSymbolTableRecord
100
AcDbLayerTableRecord
  2
DIMENSIONS
 70
0
 62
7
  6
CONTINUOUS
370
-3
390
F
  0
LAYER
  5
222
100
AcDbSymbolTableRecord
100
AcDbLayerTableRecord
  2
DRAWINGNOTES
 70
0
 62
7
  6
CONTINUOUS
370
-3
390
F
  0
LAYER
  5
223
100
AcDbSymbolTableRecord
100
AcDbLayerTableRecord
  2
DTM
 70
0
 62
7
  6
CONTINUOUS
370
-3
390
F
  0
LAYER
  5
224
100
AcDbSymbolTableRecord
100
AcDbLayerTableRecord
  2
DTM230
 70
0
 62
7
  6
CONTINUOUS
370
-3
390
F
  0
LAYER
  5
225
100
AcDbSymbolTableRecord
100
AcDbLayerTableRecord
  2
DTM_500001
 70
0
 62
7
  6
CONTINUOUS
370
-3
390
F
  0
LAYER
  5
226
100
AcDbSymbolTableRecord
100
AcDbLayerTableRecord
  2
DTM_500002
 70
0
 62
7
  6
CONTINUOUS
370
-3
390
F
  0
LAYER
  5
227
100
AcDbSymbolTableRecord
100
AcDbLayerTableRecord
  2
DTM_515002
 70
0
 62
7
  6
CONTINUOUS
370
-3
390
F
  0
LAYER
  5
228
100
AcDbSymbolTableRecord
100
AcDbLayerTableRecord
  2
DTM_530-102
 70
0
 62
7
  6
CONTINUOUS
370
-3
390
F
  0
LAYER
  5
229
100
AcDbSymbolTableRecord
100
AcDbLayerTableRecord
  2
DTM_SPRING_LH
 70
0
 62
7
  6
CONTINUOUS
370
-3
390
F
  0
LAYER
  5
22A
100
AcDbSymbolTableRecord
100
AcDbLayerTableRecord
  2
DTM_SPRING_RH
 70
0
 62
7
  6
CONTINUOUS
370
-3
390
F
  0
LAYER
  5
22B
100
AcDbSymbolTableRecord
100
AcDbLayerTableRecord
  2
DTM_SP_LH_CONSTR
 70
0
 62
7
  6
CONTINUOUS
370
-3
390
F
  0
LAYER
  5
22C
100
AcDbSymbolTableRecord
100
AcDbLayerTableRecord
  2
DTM_SP_RH_CONSTR
 70
0
 62
7
  6
CONTINUOUS
370
-3
390
F
  0
LAYER
  5
22D
100
AcDbSymbolTableRecord
100
AcDbLayerTableRecord
  2
GEOMETRICTOLERANCES
 70
0
 62
7
  6
CONTINUOUS
370
-3
390
F
  0
LAYER
  5
22E
100
AcDbSymbolTableRecord
100
AcDbLayerTableRecord
  2
PARAMETERDIMENSIONS
 70
0
 62
7
  6
CONTINUOUS
370
-3
390
F
  0
LAYER
  5
22F
100
AcDbSymbolTableRecord
100
AcDbLayerTableRecord
  2
PART
 70
0
 62
7
  6
CONTINUOUS
370
-3
390
F
  0
LAYER
  5
230
100
AcDbSymbolTableRecord
100
AcDbLayerTableRecord
  2
PLANE
 70
0
 62
7
  6
CONTINUOUS
370
-3
390
F
  0
LAYER
  5
231
100
AcDbSymbolTableRecord
100
AcDbLayerTableRecord
  2
S-164_NPTF_PORT
 70
0
 62
7
  6
CONTINUOUS
370
-3
390
F
  0
LAYER
  5
232
100
AcDbSymbolTableRecord
100
AcDbLayerTableRecord
  2
SUN_STD_SAE-4_PORT
 70
0
 62
7
  6
CONTINUOUS
370
-3
390
F
  0
LAYER
  5
233
100
AcDbSymbolTableRecord
100
AcDbLayerTableRecord
  2
T-8A_CAVITY
 70
0
 62
7
  6
CONTINUOUS
370
-3
390
F
  0
LAYER
  5
234
100
AcDbSymbolTableRecord
100
AcDbLayerTableRecord
  2
TEXT
 70
0
 62
7
  6
CONTINUOUS
370
-3
390
F
  0
LAYER
  5
235
100
AcDbSymbolTableRecord
100
AcDbLayerTableRecord
  2
THREAD
 70
0
 62
7
  6
CONTINUOUS
370
-3
390
F
  0
LAYER
  5
236
100
AcDbSymbolTableRecord
100
AcDbLayerTableRecord
  2
XSEC_DATUMS
 70
0
 62
7
  6
CONTINUOUS
370
-3
390
F
  0
ENDTAB
  0
TABLE
  2
STYLE
  5
3
100
AcDbSymbolTable
 70
1
  0
STYLE
  5
11
100
AcDbSymbolTableRecord
100
AcDbTextStyleTableRecord
  2
STANDARD
 70
0
 40
0.0
 41
0.8
 50
0.0
 71
0
 42
0.2
  3
txt
  4

  0
ENDTAB
  0
TABLE
  2
VIEW
  5
6
100
AcDbSymbolTable
 70
0
  0
ENDTAB
  0
TABLE
  2
UCS
  5
7
100
AcDbSymbolTable
 70
0
  0
ENDTAB
  0
TABLE
  2
APPID
  5
9
100
AcDbSymbolTable
 70
1
  0
APPID
  5
237
100
AcDbSymbolTableRecord
100
AcDbRegAppTableRecord
  2
ACAD
 70
0
  0
ENDTAB
  0
TABLE
  2
BLOCK_RECORD
  5
1
100
AcDbSymbolTable
 70
0
  0
BLOCK_RECORD
  5
1F
100
AcDbSymbolTableRecord
100
AcDbBlockTableRecord
  2
*MODEL_SPACE
  0
BLOCK_RECORD
  5
1B
100
AcDbSymbolTableRecord
100
AcDbBlockTableRecord
  2
*PAPER_SPACE
  0
ENDTAB
  0
TABLE
  2
DIMSTYLE
  5
A
100
AcDbSymbolTable
 70
1
100
AcDbDimStyleTable
 71
0
  0
DIMSTYLE
105
238
100
AcDbSymbolTableRecord
100
AcDbDimStyleTableRecord
  2
STANDARD
 70
0
  3

  4

 40
1.0
 41
0.1875
 42
0.0625
 43
0.38
 44
0.18
 45
0.0
 46
0.0
 47
0.01
 48
0.01
140
0.15625
141
0.09
142
0.0
143
25.4
144
1.0
145
0.0
146
1.0
147
0.09
 71
0.0
 72
0.0
 73
1
 74
1
 75
0
 76
0
 77
0
 78
4
170
0
171
2
172
0
173
0
174
0
175
0
176
0
177
0
178
0
270
2
271
2
272
2
273
2
274
2
275
0
280
0
281
0
282
0
283
1
284
4
285
0
286
0
287
3
288
0
340
11
  0
ENDTAB
  0
ENDSEC
  0
SECTION
  2
BLOCKS
  0
BLOCK
  5
20
100
AcDbEntity
  8
0
100
AcDbBlockBegin
  2
*MODEL_SPACE
 70
0
 10
0.0
 20
0.0
 30
0.0
  3
*MODEL_SPACE
  1

  0
ENDBLK
  5
21
100
AcDbEntity
  8
0
100
AcDbBlockEnd
  0
BLOCK
  5
1C
100
AcDbEntity
  8
0
100
AcDbBlockBegin
  2
*PAPER_SPACE
 70
0
 10
0.0
 20
0.0
 30
0.0
  3
*PAPER_SPACE
  1

  0
ENDBLK
  5
1D
100
AcDbEntity
  8
0
100
AcDbBlockEnd
  0
ENDSEC
  0
SECTION
  2
ENTITIES
  0
LINE
  5
239
100
AcDbEntity
  8
0
100
AcDbLine
 62
7
  6
CONTINUOUS
 10
3.0741774809
 20
3.6122000576
 11
3.0741774809
 21
5.2262000576
  0
LINE
  5
23A
100
AcDbEntity
  8
03__ASM_ALL_CURVES
100
AcDbLine
 62
40
  6
CONTINUOUS
 10
3.0741774809
 20
5.2262000576
 11
3.0741774809
 21
5.7250660576
  0
LINE
  5
23B
100
AcDbEntity
  8
0
100
AcDbLine
 62
7
  6
CONTINUOUS
 10
3.1411501121
 20
5.3422000576
 11
3.0741774809
 21
5.2262000576
  0
LINE
  5
23C
100
AcDbEntity
  8
0
100
AcDbLine
 62
7
  6
CONTINUOUS
 10
3.1411501121
 20
3.4962000576
 11
3.0741774809
 21
3.6122000576
  0
LINE
  5
23D
100
AcDbEntity
  8
0
100
AcDbLine
 62
7
  6
CONTINUOUS
 10
3.1411501121
 20
3.4962000576
 11
3.1411501121
 21
3.496595399
  0
LINE
  5
23E
100
AcDbEntity
  8
0
100
AcDbLine
 62
7
  6
CONTINUOUS
 10
3.1411501121
 20
3.9345047161
 11
3.1411501121
 21
3.9812907405
  0
LINE
  5
23F
100
AcDbEntity
  8
0
100
AcDbLine
 62
7
  6
CONTINUOUS
 10
3.1411501121
 20
4.8571093747
 11
3.1411501121
 21
4.903895399
  0
LINE
  5
240
100
AcDbEntity
  8
0
100
AcDbLine
 62
7
  6
CONTINUOUS
 10
3.1411501121
 20
5.3418047161
 11
3.1411501121
 21
5.3422000576
  0
LINE
  5
241
100
AcDbEntity
  8
03__ASM_ALL_CURVES
100
AcDbLine
 62
40
  6
CONTINUOUS
 10
3.2185074809
 20
5.7010110576
 11
3.2185074809
 21
5.6529010576
  0
LINE
  5
242
100
AcDbEntity
  8
03__ASM_ALL_CURVES
100
AcDbLine
 62
40
  6
CONTINUOUS
 10
3.6057509184
 20
5.7551348076
 11
3.5982337309
 21
5.7250660576
  0
LINE
  5
243
100
AcDbEntity
  8
03__ASM_ALL_CURVES
100
AcDbLine
 62
40
  6
CONTINUOUS
 10
3.5982337309
 20
5.8252952219
 11
3.6057509184
 21
5.8353181433
  0
LINE
  5
244
100
AcDbEntity
  8
03__ASM_ALL_CURVES
100
AcDbLine
 62
40
  6
CONTINUOUS
 10
3.6207852934
 20
5.7751806397
 11
3.6057509184
 21
5.7551348076
  0
LINE
  5
245
100
AcDbEntity
  8
03__ASM_ALL_CURVES
100
AcDbLine
 62
40
  6
CONTINUOUS
 10
3.6583712309
 20
5.8052493933
 11
3.6508540434
 21
5.7952264719
  0
LINE
  5
246
100
AcDbEntity
  8
03__ASM_ALL_CURVES
100
AcDbLine
 62
40
  6
CONTINUOUS
 10
3.6057509184
 20
5.8353181433
 11
3.6207852934
 21
5.8453410576
  0
LINE
  5
247
100
AcDbEntity
  8
03__ASM_ALL_CURVES
100
AcDbLine
 62
40
  6
CONTINUOUS
 10
3.8989212309
 20
5.8152723076
 11
3.8914040434
 21
5.8052493933
  0
LINE
  5
248
100
AcDbEntity
  8
03__ASM_ALL_CURVES
100
AcDbLine
 62
40
  6
CONTINUOUS
 10
3.9064384184
 20
5.7551348076
 11
3.8914040434
 21
5.7350889746
  0
LINE
  5
249
100
AcDbEntity
  8
03__ASM_ALL_CURVES
100
AcDbLine
 62
40
  6
CONTINUOUS
 10
4.1169196684
 20
5.8453410576
 11
4.1018852934
 21
5.8252952219
  0
LINE
  5
24A
100
AcDbEntity
  8
03__ASM_ALL_CURVES
100
AcDbLine
 62
40
  6
CONTINUOUS
 10
3.6508540434
 20
5.7952264719
 11
3.6207852934
 21
5.7751806397
  0
LINE
  5
24B
100
AcDbEntity
  8
03__ASM_ALL_CURVES
100
AcDbLine
 62
40
  6
CONTINUOUS
 10
3.8463009184
 20
5.8353181433
 11
3.8613352934
 21
5.8453410576
  0
LINE
  5
24C
100
AcDbEntity
  8
03__ASM_ALL_CURVES
100
AcDbLine
 62
40
  6
CONTINUOUS
 10
3.8914040434
 20
5.8052493933
 11
3.8763696684
 21
5.7952264719
  0
LINE
  5
24D
100
AcDbEntity
  8
03__ASM_ALL_CURVES
100
AcDbLine
 62
40
  6
CONTINUOUS
 10
3.6583712309
 20
5.8252952219
 11
3.6583712309
 21
5.8052493933
  0
LINE
  5
24E
100
AcDbEntity
  8
0
100
AcDbLine
 62
7
  6
CONTINUOUS
 10
4.0731774809
 20
5.4487000576
 11
4.0116896772
 21
5.3422000576
  0
LINE
  5
24F
100
AcDbEntity
  8
03__ASM_ALL_CURVES
100
AcDbLine
 62
40
  6
CONTINUOUS
 10
4.2597462309
 20
5.7451118915
 11
4.2522290434
 21
5.7350889746
  0
LINE
  5
250
100
AcDbEntity
  8
03__ASM_ALL_CURVES
100
AcDbLine
 62
40
  6
CONTINUOUS
 10
4.3198837309
 20
5.8252952219
 11
4.3274009184
 21
5.8353181433
  0
LINE
  5
251
100
AcDbEntity
  8
03__ASM_ALL_CURVES
100
AcDbLine
 62
40
  6
CONTINUOUS
 10
4.3123665434
 20
5.7651577255
 11
4.3274009184
 21
5.7852035576
  0
LINE
  5
252
100
AcDbEntity
  8
03__ASM_ALL_CURVES
100
AcDbLine
 62
40
  6
CONTINUOUS
 10
3.8914040434
 20
5.7350889746
 11
3.8763696684
 21
5.7250660576
  0
LINE
  5
253
100
AcDbEntity
  8
03__ASM_ALL_CURVES
100
AcDbLine
 62
40
  6
CONTINUOUS
 10
4.2071259184
 20
5.7952264719
 11
4.2221602934
 21
5.8052493933
  0
LINE
  5
254
100
AcDbEntity
  8
03__ASM_ALL_CURVES
100
AcDbLine
 62
40
  6
CONTINUOUS
 10
4.3274009184
 20
5.8353181433
 11
4.3424352934
 21
5.8453410576
  0
LINE
  5
255
100
AcDbEntity
  8
03__ASM_ALL_CURVES
100
AcDbLine
 62
40
  6
CONTINUOUS
 10
3.7410602934
 20
5.7250660576
 11
3.7410602934
 21
5.7350889746
  0
LINE
  5
256
100
AcDbEntity
  8
03__ASM_ALL_CURVES
100
AcDbLine
 62
40
  6
CONTINUOUS
 10
3.8989212309
 20
5.8252952219
 11
3.8989212309
 21
5.8152723076
  0
LINE
  5
257
100
AcDbEntity
  8
03__ASM_ALL_CURVES
100
AcDbLine
 62
40
  6
CONTINUOUS
 10
3.9064384184
 20
5.7651577255
 11
3.9064384184
 21
5.7551348076
  0
LINE
  5
258
100
AcDbEntity
  8
03__ASM_ALL_CURVES
100
AcDbLine
 62
40
  6
CONTINUOUS
 10
4.1018852934
 20
5.8252952219
 11
4.0943681059
 21
5.7952264719
  0
LINE
  5
259
100
AcDbEntity
  8
03__ASM_ALL_CURVES
100
AcDbLine
 62
40
  6
CONTINUOUS
 10
4.2672634184
 20
5.7651577255
 11
4.2597462309
 21
5.7451118915
  0
LINE
  5
25A
100
AcDbEntity
  8
03__ASM_ALL_CURVES
100
AcDbLine
 62
40
  6
CONTINUOUS
 10
4.3800212309
 20
5.8152723076
 11
4.3725040434
 21
5.8052493933
  0
LINE
  5
25B
100
AcDbEntity
  8
03__ASM_ALL_CURVES
100
AcDbLine
 62
40
  6
CONTINUOUS
 10
4.3875384184
 20
5.7551348076
 11
4.3725040434
 21
5.7350889746
  0
LINE
  5
25C
100
AcDbEntity
  8
03__ASM_ALL_CURVES
100
AcDbLine
 62
40
  6
CONTINUOUS
 10
4.5679509184
 20
5.8252952219
 11
4.5754681059
 21
5.8353181433
  0
LINE
  5
25D
100
AcDbEntity
  8
03__ASM_ALL_CURVES
100
AcDbLine
 62
40
  6
CONTINUOUS
 10
4.2522290434
 20
5.7350889746
 11
4.2371946684
 21
5.7250660576
  0
LINE
  5
25E
100
AcDbEntity
  8
03__ASM_ALL_CURVES
100
AcDbLine
 62
40
  6
CONTINUOUS
 10
4.3274009184
 20
5.7852035576
 11
4.3424352934
 21
5.7952264719
  0
LINE
  5
25F
100
AcDbEntity
  8
03__ASM_ALL_CURVES
100
AcDbLine
 62
40
  6
CONTINUOUS
 10
4.3725040434
 20
5.8052493933
 11
4.3574696684
 21
5.7952264719
  0
LINE
  5
260
100
AcDbEntity
  8
03__ASM_ALL_CURVES
100
AcDbLine
 62
40
  6
CONTINUOUS
 10
4.3725040434
 20
5.7350889746
 11
4.3574696684
 21
5.7250660576
  0
LINE
  5
261
100
AcDbEntity
  8
03__ASM_ALL_CURVES
100
AcDbLine
 62
40
  6
CONTINUOUS
 10
4.5754681059
 20
5.8353181433
 11
4.5905024809
 21
5.8453410576
  0
LINE
  5
262
100
AcDbEntity
  8
03__ASM_ALL_CURVES
100
AcDbLine
 62
40
  6
CONTINUOUS
 10
4.6055368559
 20
5.7350889746
 11
4.5905024809
 21
5.7250660576
  0
LINE
  5
263
100
AcDbEntity
  8
03__ASM_ALL_CURVES
100
AcDbLine
 62
40
  6
CONTINUOUS
 10
4.5679509184
 20
5.7852035576
 11
4.5905024809
 21
5.7952264719
  0
LINE
  5
264
100
AcDbEntity
  8
03__ASM_ALL_CURVES
100
AcDbLine
 62
40
  6
CONTINUOUS
 10
4.7365144043
 20
2.7289938076
 11
4.725238623
 21
2.7365109953
  0
LINE
  5
265
100
AcDbEntity
  8
0
100
AcDbLine
 62
7
  6
CONTINUOUS
 10
4.0731774809
 20
3.3897000576
 11
4.0116896772
 21
3.4962000576
  0
LINE
  5
266
100
AcDbEntity
  8
03__ASM_ALL_CURVES
100
AcDbLine
 62
40
  6
CONTINUOUS
 10
3.9891274809
 20
5.8453410576
 11
3.9891274809
 21
5.7250660576
  0
LINE
  5
267
100
AcDbEntity
  8
0
100
AcDbLine
 62
7
  6
CONTINUOUS
 10
4.0116896772
 20
3.4962000576
 11
4.0116896772
 21
5.3422000576
  0
LINE
  5
268
100
AcDbEntity
  8
0
100
AcDbLine
 62
7
  6
CONTINUOUS
 10
4.0731774809
 20
3.3897000576
 11
4.0731774809
 21
5.4487000576
  0
LINE
  5
269
100
AcDbEntity
  8
03__ASM_ALL_CURVES
100
AcDbLine
 62
40
  6
CONTINUOUS
 10
4.0943681059
 20
5.7952264719
 11
4.0943681059
 21
5.7751806397
  0
LINE
  5
26A
100
AcDbEntity
  8
03__ASM_ALL_CURVES
100
AcDbLine
 62
40
  6
CONTINUOUS
 10
4.2146431059
 20
5.8453410576
 11
4.2071259184
 21
5.7952264719
  0
LINE
  5
26B
100
AcDbEntity
  8
03__ASM_ALL_CURVES
100
AcDbLine
 62
40
  6
CONTINUOUS
 10
4.5604337309
 20
5.8052493933
 11
4.5679509184
 21
5.8252952219
  0
LINE
  5
26C
100
AcDbEntity
  8
03__ASM_ALL_CURVES
100
AcDbLine
 62
40
  6
CONTINUOUS
 10
4.5604337309
 20
5.7651577255
 11
4.5679509184
 21
5.7852035576
  0
LINE
  5
26D
100
AcDbEntity
  8
03__ASM_ALL_CURVES
100
AcDbLine
 62
40
  6
CONTINUOUS
 10
4.6130540434
 20
5.7451118915
 11
4.6055368559
 21
5.7350889746
  0
LINE
  5
26E
100
AcDbEntity
  8
03__ASM_ALL_CURVES
100
AcDbLine
 62
40
  6
CONTINUOUS
 10
4.6575839355
 20
2.8192000576
 11
4.6688597168
 21
2.8116828719
  0
LINE
  5
26F
100
AcDbEntity
  8
03__ASM_ALL_CURVES
100
AcDbLine
 62
40
  6
CONTINUOUS
 10
4.7477901855
 20
2.8192000576
 11
4.7590659668
 21
2.8116828719
  0
LINE
  5
270
100
AcDbEntity
  8
03__ASM_ALL_CURVES
100
AcDbLine
 62
40
  6
CONTINUOUS
 10
4.8379964355
 20
2.8192000576
 11
4.8492722168
 21
2.8116828719
  0
LINE
  5
271
100
AcDbEntity
  8
03__ASM_ALL_CURVES
100
AcDbLine
 62
40
  6
CONTINUOUS
 10
5.0071331543
 20
2.7289938076
 11
4.995857373
 21
2.7365109953
  0
LINE
  5
272
100
AcDbEntity
  8
03__ASM_ALL_CURVES
100
AcDbLine
 62
40
  6
CONTINUOUS
 10
5.0184089355
 20
2.7816141183
 11
5.0296847168
 21
2.7740969326
  0
LINE
  5
273
100
AcDbEntity
  8
03__ASM_ALL_CURVES
100
AcDbLine
 62
40
  6
CONTINUOUS
 10
5.0184089355
 20
2.8192000576
 11
5.0296847168
 21
2.8116828719
  0
LINE
  5
274
100
AcDbEntity
  8
03__ASM_ALL_CURVES
100
AcDbLine
 62
40
  6
CONTINUOUS
 10
4.725238623
 20
2.7365109953
 11
4.7139628418
 21
2.7515453701
  0
LINE
  5
275
100
AcDbEntity
  8
03__ASM_ALL_CURVES
100
AcDbLine
 62
40
  6
CONTINUOUS
 10
4.6688597168
 20
2.8116828719
 11
4.6744976074
 21
2.8041656808
  0
LINE
  5
276
100
AcDbEntity
  8
03__ASM_ALL_CURVES
100
AcDbLine
 62
40
  6
CONTINUOUS
 10
4.7590659668
 20
2.8116828719
 11
4.770341748
 21
2.7966484951
  0
LINE
  5
277
100
AcDbEntity
  8
03__ASM_ALL_CURVES
100
AcDbLine
 62
40
  6
CONTINUOUS
 10
4.3123665434
 20
5.7551348076
 11
4.3123665434
 21
5.7651577255
  0
LINE
  5
278
100
AcDbEntity
  8
03__ASM_ALL_CURVES
100
AcDbLine
 62
40
  6
CONTINUOUS
 10
4.3198837309
 20
5.8152723076
 11
4.3198837309
 21
5.8252952219
  0
LINE
  5
279
100
AcDbEntity
  8
0
100
AcDbLine
 62
7
  6
CONTINUOUS
 10
4.3231774809
 20
3.3897000576
 11
4.3231774809
 21
5.4487000576
  0
LINE
  5
27A
100
AcDbEntity
  8
03__ASM_ALL_CURVES
100
AcDbLine
 62
40
  6
CONTINUOUS
 10
4.6205712309
 20
5.7651577255
 11
4.6130540434
 21
5.7451118915
  0
LINE
  5
27B
100
AcDbEntity
  8
03__ASM_ALL_CURVES
100
AcDbLine
 62
40
  6
CONTINUOUS
 10
4.7258118559
 20
5.8052493933
 11
4.7408462309
 21
5.8453410576
  0
LINE
  5
27C
100
AcDbEntity
  8
03__ASM_ALL_CURVES
100
AcDbLine
 62
40
  6
CONTINUOUS
 10
4.8385696684
 20
5.7451118915
 11
4.8235352934
 21
5.7250660576
  0
LINE
  5
27D
100
AcDbEntity
  8
03__ASM_ALL_CURVES
100
AcDbLine
 62
40
  6
CONTINUOUS
 10
6.9256091164
 20
2.7289938076
 11
6.9143333352
 21
2.7289938076
  0
LINE
  5
27E
100
AcDbEntity
  8
03__ASM_ALL_CURVES
100
AcDbLine
 62
40
  6
CONTINUOUS
 10
5.0184089355
 20
2.7289938076
 11
5.0071331543
 21
2.7289938076
  0
LINE
  5
27F
100
AcDbEntity
  8
03__ASM_ALL_CURVES
100
AcDbLine
 62
40
  6
CONTINUOUS
 10
4.7477901855
 20
2.7289938076
 11
4.7365144043
 21
2.7289938076
  0
LINE
  5
280
100
AcDbEntity
  8
03__ASM_ALL_CURVES
100
AcDbLine
 62
40
  6
CONTINUOUS
 10
7.1680384133
 20
2.7289938076
 11
7.2131415383
 21
2.7289938076
  0
LINE
  5
281
100
AcDbEntity
  8
03__ASM_ALL_CURVES
100
AcDbLine
 62
40
  6
CONTINUOUS
 10
7.0158153664
 20
2.7740969326
 11
6.9876259133
 21
2.7740969326
  0
LINE
  5
282
100
AcDbEntity
  8
03__ASM_ALL_CURVES
100
AcDbLine
 62
40
  6
CONTINUOUS
 10
6.8354028664
 20
2.7740969326
 11
6.8072134133
 21
2.7740969326
  0
LINE
  5
283
100
AcDbEntity
  8
03__ASM_ALL_CURVES
100
AcDbLine
 62
40
  6
CONTINUOUS
 10
4.8379964355
 20
2.7740969326
 11
4.8098069824
 21
2.7740969326
  0
LINE
  5
284
100
AcDbEntity
  8
03__ASM_ALL_CURVES
100
AcDbLine
 62
40
  6
CONTINUOUS
 10
4.6575839355
 20
2.7740969326
 11
4.6293944824
 21
2.7740969326
  0
LINE
  5
285
100
AcDbEntity
  8
03__ASM_ALL_CURVES
100
AcDbLine
 62
40
  6
CONTINUOUS
 10
5.0071331543
 20
2.7816141183
 11
5.0184089355
 21
2.7816141183
  0
LINE
  5
286
100
AcDbEntity
  8
03__ASM_ALL_CURVES
100
AcDbLine
 62
40
  6
CONTINUOUS
 10
4.6293944824
 20
2.8192000576
 11
4.6575839355
 21
2.8192000576
  0
LINE
  5
287
100
AcDbEntity
  8
03__ASM_ALL_CURVES
100
AcDbLine
 62
40
  6
CONTINUOUS
 10
4.7365144043
 20
2.8192000576
 11
4.7477901855
 21
2.8192000576
  0
LINE
  5
288
100
AcDbEntity
  8
03__ASM_ALL_CURVES
100
AcDbLine
 62
40
  6
CONTINUOUS
 10
4.8098069824
 20
2.8192000576
 11
4.8379964355
 21
2.8192000576
  0
LINE
  5
289
100
AcDbEntity
  8
03__ASM_ALL_CURVES
100
AcDbLine
 62
40
  6
CONTINUOUS
 10
4.8943753418
 20
2.8192000576
 11
4.950754248
 21
2.8192000576
  0
LINE
  5
28A
100
AcDbEntity
  8
03__ASM_ALL_CURVES
100
AcDbLine
 62
40
  6
CONTINUOUS
 10
5.0071331543
 20
2.8192000576
 11
5.0184089355
 21
2.8192000576
  0
LINE
  5
28B
100
AcDbEntity
  8
03__ASM_ALL_CURVES
100
AcDbLine
 62
40
  6
CONTINUOUS
 10
6.8072134133
 20
2.8192000576
 11
6.8354028664
 21
2.8192000576
  0
LINE
  5
28C
100
AcDbEntity
  8
03__ASM_ALL_CURVES
100
AcDbLine
 62
40
  6
CONTINUOUS
 10
6.9143333352
 20
2.8192000576
 11
6.9256091164
 21
2.8192000576
  0
LINE
  5
28D
100
AcDbEntity
  8
03__ASM_ALL_CURVES
100
AcDbLine
 62
40
  6
CONTINUOUS
 10
6.9876259133
 20
2.8192000576
 11
7.0158153664
 21
2.8192000576
  0
LINE
  5
28E
100
AcDbEntity
  8
03__ASM_ALL_CURVES
100
AcDbLine
 62
40
  6
CONTINUOUS
 10
7.0721942727
 20
2.8192000576
 11
7.1285731789
 21
2.8192000576
  0
LINE
  5
28F
100
AcDbEntity
  8
03__ASM_ALL_CURVES
100
AcDbLine
 62
40
  6
CONTINUOUS
 10
7.1849520852
 20
2.8192000576
 11
7.1962278664
 21
2.8192000576
  0
LINE
  5
290
100
AcDbEntity
  8
03__ASM_ALL_CURVES
100
AcDbLine
 62
40
  6
CONTINUOUS
 10
4.8492722168
 20
2.8116828719
 11
4.8549101074
 21
2.8041656808
  0
LINE
  5
291
100
AcDbEntity
  8
03__ASM_ALL_CURVES
100
AcDbLine
 62
40
  6
CONTINUOUS
 10
4.995857373
 20
2.7365109953
 11
4.9902194824
 21
2.744028183
  0
LINE
  5
292
100
AcDbEntity
  8
03__ASM_ALL_CURVES
100
AcDbLine
 62
40
  6
CONTINUOUS
 10
5.0296847168
 20
2.7740969326
 11
5.040960498
 21
2.7590625585
  0
LINE
  5
293
100
AcDbEntity
  8
03__ASM_ALL_CURVES
100
AcDbLine
 62
40
  6
CONTINUOUS
 10
5.0296847168
 20
2.8116828719
 11
5.0353226074
 21
2.8041656808
  0
LINE
  5
294
100
AcDbEntity
  8
0
100
AcDbLine
 62
7
  6
CONTINUOUS
 10
4.3731774809
 20
3.3897000576
 11
4.3731774809
 21
5.4487000576
  0
LINE
  5
295
100
AcDbEntity
  8
03__ASM_ALL_CURVES
100
AcDbLine
 62
40
  6
CONTINUOUS
 10
4.3800212309
 20
5.8252952219
 11
4.3800212309
 21
5.8152723076
  0
LINE
  5
296
100
AcDbEntity
  8
03__ASM_ALL_CURVES
100
AcDbLine
 62
40
  6
CONTINUOUS
 10
4.3875384184
 20
5.7651577255
 11
4.3875384184
 21
5.7551348076
  0
LINE
  5
297
100
AcDbEntity
  8
03__ASM_ALL_CURVES
100
AcDbLine
 62
40
  6
CONTINUOUS
 10
4.4627102934
 20
5.7250660576
 11
4.4627102934
 21
5.7350889746
  0
LINE
  5
298
100
AcDbEntity
  8
0
100
AcDbLine
 62
7
  6
CONTINUOUS
 10
4.4761774809
 20
5.4122000576
 11
4.4761774809
 21
3.4262000576
  0
LINE
  5
299
100
AcDbEntity
  8
0
100
AcDbLine
 62
7
  6
CONTINUOUS
 10
4.4971774809
 20
3.3897000576
 11
4.4971774809
 21
5.4487000576
  0
LINE
  5
29A
100
AcDbEntity
  8
03__ASM_ALL_CURVES
100
AcDbLine
 62
40
  6
CONTINUOUS
 10
4.5604337309
 20
5.7651577255
 11
4.5604337309
 21
5.8052493933
  0
LINE
  5
29B
100
AcDbEntity
  8
03__ASM_ALL_CURVES
100
AcDbLine
 62
40
  6
CONTINUOUS
 10
4.7107774809
 20
5.7250660576
 11
4.7182946684
 21
5.7751806397
  0
LINE
  5
29C
100
AcDbEntity
  8
03__ASM_ALL_CURVES
100
AcDbLine
 62
40
  6
CONTINUOUS
 10
4.7182946684
 20
5.7751806397
 11
4.7258118559
 21
5.8052493933
  0
LINE
  5
29D
100
AcDbEntity
  8
03__ASM_ALL_CURVES
100
AcDbLine
 62
40
  6
CONTINUOUS
 10
4.8460868559
 20
5.7751806397
 11
4.8385696684
 21
5.7451118915
  0
LINE
  5
29E
100
AcDbEntity
  8
03__ASM_ALL_CURVES
100
AcDbLine
 62
40
  6
CONTINUOUS
 10
5.7054096688
 20
5.8353181433
 11
5.7204440438
 21
5.8453410576
  0
LINE
  5
29F
100
AcDbEntity
  8
03__ASM_ALL_CURVES
100
AcDbLine
 62
40
  6
CONTINUOUS
 10
5.8256846688
 20
5.8353181433
 11
5.8407190438
 21
5.8453410576
  0
LINE
  5
2A0
100
AcDbEntity
  8
03__ASM_ALL_CURVES
100
AcDbLine
 62
40
  6
CONTINUOUS
 10
5.7505127938
 20
5.7350889746
 11
5.7354784188
 21
5.7250660576
  0
LINE
  5
2A1
100
AcDbEntity
  8
03__ASM_ALL_CURVES
100
AcDbLine
 62
40
  6
CONTINUOUS
 10
4.8379964355
 20
2.7740969326
 11
4.8549101074
 21
2.7289938076
  0
LINE
  5
2A2
100
AcDbEntity
  8
03__ASM_ALL_CURVES
100
AcDbLine
 62
40
  6
CONTINUOUS
 10
4.7139628418
 20
2.7515453701
 11
4.7083249511
 21
2.7740969326
  0
LINE
  5
2A3
100
AcDbEntity
  8
03__ASM_ALL_CURVES
100
AcDbLine
 62
40
  6
CONTINUOUS
 10
4.770341748
 20
2.7966484951
 11
4.7759796386
 21
2.7740969326
  0
LINE
  5
2A4
100
AcDbEntity
  8
03__ASM_ALL_CURVES
100
AcDbLine
 62
40
  6
CONTINUOUS
 10
4.0943681059
 20
5.7751806397
 11
4.1018852934
 21
5.7451118915
  0
LINE
  5
2A5
100
AcDbEntity
  8
0
100
AcDbLine
 62
7
  6
CONTINUOUS
 10
4.5741774809
 20
3.3897000576
 11
4.5741774809
 21
5.4487000576
  0
LINE
  5
2A6
100
AcDbEntity
  8
03__ASM_ALL_CURVES
100
AcDbLine
 62
40
  6
CONTINUOUS
 10
4.6293944824
 20
2.7289938076
 11
4.6293944824
 21
2.8192000576
  0
LINE
  5
2A7
100
AcDbEntity
  8
129-300_FEATURES
100
AcDbLine
 62
7
  6
CONTINUOUS
 10
4.6454802391
 20
3.5132000576
 11
4.6454802391
 21
5.3252000576
  0
LINE
  5
2A8
100
AcDbEntity
  8
03__ASM_ALL_CURVES
100
AcDbLine
 62
40
  6
CONTINUOUS
 10
4.6744976074
 20
2.8041656808
 11
4.6744976074
 21
2.7891313094
  0
LINE
  5
2A9
100
AcDbEntity
  8
0
100
AcDbLine
 62
7
  6
CONTINUOUS
 10
5.2631774809
 20
5.4467000576
 11
5.1930294232
 21
5.3252000576
  0
LINE
  5
2AA
100
AcDbEntity
  8
03__ASM_ALL_CURVES
100
AcDbLine
 62
40
  6
CONTINUOUS
 10
5.8707877938
 20
5.7350889746
 11
5.8557534188
 21
5.7250660576
  0
LINE
  5
2AB
100
AcDbEntity
  8
03__ASM_ALL_CURVES
100
AcDbLine
 62
40
  6
CONTINUOUS
 10
4.8098069824
 20
2.7289938076
 11
4.8098069824
 21
2.8192000576
  0
LINE
  5
2AC
100
AcDbEntity
  8
03__ASM_ALL_CURVES
100
AcDbLine
 62
40
  6
CONTINUOUS
 10
4.8460868559
 20
5.7952264719
 11
4.8460868559
 21
5.7751806397
  0
LINE
  5
2AD
100
AcDbEntity
  8
03__ASM_ALL_CURVES
100
AcDbLine
 62
40
  6
CONTINUOUS
 10
4.8549101074
 20
2.8041656808
 11
4.8549101074
 21
2.7891313094
  0
LINE
  5
2AE
100
AcDbEntity
  8
03__ASM_ALL_CURVES
100
AcDbLine
 62
40
  6
CONTINUOUS
 10
4.9225647949
 20
2.8192000576
 11
4.9225647949
 21
2.7289938076
  0
LINE
  5
2AF
100
AcDbEntity
  8
03__ASM_ALL_CURVES
100
AcDbLine
 62
40
  6
CONTINUOUS
 10
5.6903752938
 20
5.8152723076
 11
5.7054096688
 21
5.8353181433
  0
LINE
  5
2B0
100
AcDbEntity
  8
03__ASM_ALL_CURVES
100
AcDbLine
 62
40
  6
CONTINUOUS
 10
5.7655471688
 20
5.7551348076
 11
5.7505127938
 21
5.7350889746
  0
LINE
  5
2B1
100
AcDbEntity
  8
03__ASM_ALL_CURVES
100
AcDbLine
 62
40
  6
CONTINUOUS
 10
5.8106502938
 20
5.8152723076
 11
5.8256846688
 21
5.8353181433
  0
LINE
  5
2B2
100
AcDbEntity
  8
03__ASM_ALL_CURVES
100
AcDbLine
 62
40
  6
CONTINUOUS
 10
5.8783049813
 20
5.7451118915
 11
5.8707877938
 21
5.7350889746
  0
LINE
  5
2B3
100
AcDbEntity
  8
03__ASM_ALL_CURVES
100
AcDbLine
 62
40
  6
CONTINUOUS
 10
6.4270596688
 20
5.8353181433
 11
6.4420940438
 21
5.8453410576
  0
LINE
  5
2B4
100
AcDbEntity
  8
03__ASM_ALL_CURVES
100
AcDbLine
 62
40
  6
CONTINUOUS
 10
6.4721627938
 20
5.7350889746
 11
6.4571284188
 21
5.7250660576
  0
LINE
  5
2B5
100
AcDbEntity
  8
0
100
AcDbLine
 62
7
  6
CONTINUOUS
 10
4.5741774809
 20
3.3897000576
 11
4.4971774809
 21
3.3897000576
  0
LINE
  5
2B6
100
AcDbEntity
  8
0
100
AcDbLine
 62
7
  6
CONTINUOUS
 10
4.0731774809
 20
3.3897000576
 11
4.3731774809
 21
3.3897000576
  0
LINE
  5
2B7
100
AcDbEntity
  8
0
100
AcDbLine
 62
7
  6
CONTINUOUS
 10
5.3851774809
 20
3.3917000576
 11
5.2631774809
 21
3.3917000576
  0
LINE
  5
2B8
100
AcDbEntity
  8
0
100
AcDbLine
 62
7
  6
CONTINUOUS
 10
5.5351774809
 20
3.4652000576
 11
5.5851774809
 21
3.4652000576
  0
LINE
  5
2B9
100
AcDbEntity
  8
THREAD
100
AcDbLine
 62
7
  6
CONTINUOUS
 10
5.4321774809
 20
3.4657000576
 11
5.3851774809
 21
3.4657000576
  0
LINE
  5
2BA
100
AcDbEntity
  8
0
100
AcDbLine
 62
7
  6
CONTINUOUS
 10
5.2631774809
 20
3.3917000576
 11
5.1930294232
 21
3.5132000576
  0
LINE
  5
2BB
100
AcDbEntity
  8
03__ASM_ALL_CURVES
100
AcDbLine
 62
40
  6
CONTINUOUS
 10
4.2597462309
 20
5.7852035576
 11
4.2672634184
 21
5.7651577255
  0
LINE
  5
2BC
100
AcDbEntity
  8
03__ASM_ALL_CURVES
100
AcDbLine
 62
40
  6
CONTINUOUS
 10
5.0353226074
 20
2.8041656808
 11
5.0353226074
 21
2.7966484951
  0
LINE
  5
2BD
100
AcDbEntity
  8
03__ASM_ALL_CURVES
100
AcDbLine
 62
40
  6
CONTINUOUS
 10
5.040960498
 20
2.7590625585
 11
5.040960498
 21
2.7515453701
  0
LINE
  5
2BE
100
AcDbEntity
  8
0
100
AcDbLine
 62
7
  6
CONTINUOUS
 10
5.1930294232
 20
3.5132000576
 11
5.1930294232
 21
5.3252000576
  0
LINE
  5
2BF
100
AcDbEntity
  8
03__ASM_ALL_CURVES
100
AcDbLine
 62
40
  6
CONTINUOUS
 10
4.7083249511
 20
2.7740969326
 11
4.7139628418
 21
2.7966484951
  0
LINE
  5
2C0
100
AcDbEntity
  8
03__ASM_ALL_CURVES
100
AcDbLine
 62
40
  6
CONTINUOUS
 10
4.7759796386
 20
2.7740969326
 11
4.770341748
 21
2.7515453701
  0
LINE
  5
2C1
100
AcDbEntity
  8
THREAD
100
AcDbLine
 62
7
  6
CONTINUOUS
 10
5.6361996949
 20
5.3607000576
 11
5.6061774809
 21
5.3087000576
  0
LINE
  5
2C2
100
AcDbEntity
  8
0
100
AcDbLine
 62
7
  6
CONTINUOUS
 10
4.6454802391
 20
3.5132000576
 11
4.5741774809
 21
3.3897000576
  0
LINE
  5
2C3
100
AcDbEntity
  8
03__ASM_ALL_CURVES
100
AcDbLine
 62
40
  6
CONTINUOUS
 10
6.6826440438
 20
5.8453410576
 11
6.6676096688
 21
5.8353181433
  0
LINE
  5
2C4
100
AcDbEntity
  8
03__ASM_ALL_CURVES
100
AcDbLine
 62
40
  6
CONTINUOUS
 10
6.7127127938
 20
5.7350889746
 11
6.6976784188
 21
5.7250660576
  0
LINE
  5
2C5
100
AcDbEntity
  8
03__ASM_ALL_CURVES
100
AcDbLine
 62
40
  6
CONTINUOUS
 10
6.9081596688
 20
5.8353181433
 11
6.9231940438
 21
5.8453410576
  0
LINE
  5
2C6
100
AcDbEntity
  8
THREAD
100
AcDbLine
 62
7
  6
CONTINUOUS
 10
6.1056774809
 20
3.4777000576
 11
5.6361996949
 21
3.4777000576
  0
LINE
  5
2C7
100
AcDbEntity
  8
0
100
AcDbLine
 62
7
  6
CONTINUOUS
 10
4.4971774809
 20
3.4777000576
 11
4.4761774809
 21
3.4777000576
  0
LINE
  5
2C8
100
AcDbEntity
  8
0
100
AcDbLine
 62
7
  6
CONTINUOUS
 10
4.0116896772
 20
3.4962000576
 11
3.1411501121
 21
3.4962000576
  0
LINE
  5
2C9
100
AcDbEntity
  8
0
100
AcDbLine
 62
7
  6
CONTINUOUS
 10
4.0116896772
 20
3.496595399
 11
3.1411501121
 21
3.496595399
  0
LINE
  5
2CA
100
AcDbEntity
  8
0
100
AcDbLine
 62
7
  6
CONTINUOUS
 10
5.1930294232
 20
3.5132000576
 11
4.6764802391
 21
3.5132000576
  0
LINE
  5
2CB
100
AcDbEntity
  8
THREAD
100
AcDbLine
 62
7
  6
CONTINUOUS
 10
6.3101774809
 20
3.5752000576
 11
6.2031774809
 21
3.5752000576
  0
LINE
  5
2CC
100
AcDbEntity
  8
0
100
AcDbLine
 62
7
  6
CONTINUOUS
 10
7.5411774809
 20
3.6077000576
 11
7.5911774809
 21
3.6077000576
  0
LINE
  5
2CD
100
AcDbEntity
  8
0
100
AcDbLine
 62
7
  6
CONTINUOUS
 10
7.6941774809
 20
3.6077000576
 11
7.7441774809
 21
3.6077000576
  0
LINE
  5
2CE
100
AcDbEntity
  8
0
100
AcDbLine
 62
7
  6
CONTINUOUS
 10
7.4471774809
 20
3.6082000576
 11
7.5411774809
 21
3.6082000576
  0
LINE
  5
2CF
100
AcDbEntity
  8
0
100
AcDbLine
 62
7
  6
CONTINUOUS
 10
7.7841774809
 20
3.6082000576
 11
7.8541774809
 21
3.6082000576
  0
LINE
  5
2D0
100
AcDbEntity
  8
03__ASM_ALL_CURVES
100
AcDbLine
 62
40
  6
CONTINUOUS
 10
6.9143333352
 20
2.7289938076
 11
6.9030575539
 21
2.7365109953
  0
LINE
  5
2D1
100
AcDbEntity
  8
03__ASM_ALL_CURVES
100
AcDbLine
 62
40
  6
CONTINUOUS
 10
6.8354028664
 20
2.8192000576
 11
6.8466786477
 21
2.8116828719
  0
LINE
  5
2D2
100
AcDbEntity
  8
03__ASM_ALL_CURVES
100
AcDbLine
 62
40
  6
CONTINUOUS
 10
3.6508540434
 20
5.8353181433
 11
3.6583712309
 21
5.8252952219
  0
LINE
  5
2D3
100
AcDbEntity
  8
03__ASM_ALL_CURVES
100
AcDbLine
 62
40
  6
CONTINUOUS
 10
3.7410602934
 20
5.7350889746
 11
3.7485774809
 21
5.7250660576
  0
LINE
  5
2D4
100
AcDbEntity
  8
03__ASM_ALL_CURVES
100
AcDbLine
 62
40
  6
CONTINUOUS
 10
3.8463009184
 20
5.7350889746
 11
3.8387837309
 21
5.7451118915
  0
LINE
  5
2D5
100
AcDbEntity
  8
03__ASM_ALL_CURVES
100
AcDbLine
 62
40
  6
CONTINUOUS
 10
3.8914040434
 20
5.7852035576
 11
3.9064384184
 21
5.7651577255
  0
LINE
  5
2D6
100
AcDbEntity
  8
03__ASM_ALL_CURVES
100
AcDbLine
 62
40
  6
CONTINUOUS
 10
4.5679509184
 20
5.7451118915
 11
4.5604337309
 21
5.7651577255
  0
LINE
  5
2D7
100
AcDbEntity
  8
03__ASM_ALL_CURVES
100
AcDbLine
 62
40
  6
CONTINUOUS
 10
5.2408474809
 20
5.7010110576
 11
5.2408474809
 21
5.6529010576
  0
LINE
  5
2D8
100
AcDbEntity
  8
0
100
AcDbLine
 62
7
  6
CONTINUOUS
 10
5.2631774809
 20
3.3917000576
 11
5.2631774809
 21
5.4467000576
  0
LINE
  5
2D9
100
AcDbEntity
  8
0
100
AcDbLine
 62
7
  6
CONTINUOUS
 10
5.3851774809
 20
3.3917000576
 11
5.3851774809
 21
5.4467000576
  0
LINE
  5
2DA
100
AcDbEntity
  8
03__ASM_ALL_CURVES
100
AcDbLine
 62
40
  6
CONTINUOUS
 10
5.3851774809
 20
5.4727550576
 11
5.3851774809
 21
5.7250660576
  0
LINE
  5
2DB
100
AcDbEntity
  8
03__ASM_ALL_CURVES
100
AcDbLine
 62
40
  6
CONTINUOUS
 10
5.6828581063
 20
5.7852035576
 11
5.6903752938
 21
5.8152723076
  0
LINE
  5
2DC
100
AcDbEntity
  8
03__ASM_ALL_CURVES
100
AcDbLine
 62
40
  6
CONTINUOUS
 10
5.7730643563
 20
5.7852035576
 11
5.7655471688
 21
5.7551348076
  0
LINE
  5
2DD
100
AcDbEntity
  8
03__ASM_ALL_CURVES
100
AcDbLine
 62
40
  6
CONTINUOUS
 10
6.4120252938
 20
5.8152723076
 11
6.4270596688
 21
5.8353181433
  0
LINE
  5
2DE
100
AcDbEntity
  8
03__ASM_ALL_CURVES
100
AcDbLine
 62
40
  6
CONTINUOUS
 10
6.9532627938
 20
5.7350889746
 11
6.9382284188
 21
5.7250660576
  0
LINE
  5
2DF
100
AcDbEntity
  8
03__ASM_ALL_CURVES
100
AcDbLine
 62
40
  6
CONTINUOUS
 10
7.0735377938
 20
5.7350889746
 11
7.0585034188
 21
5.7250660576
  0
LINE
  5
2E0
100
AcDbEntity
  8
0
100
AcDbLine
 62
7
  6
CONTINUOUS
 10
7.7841774809
 20
3.6957000576
 11
7.7441774809
 21
3.6957000576
  0
LINE
  5
2E1
100
AcDbEntity
  8
0
100
AcDbLine
 62
7
  6
CONTINUOUS
 10
7.4471774809
 20
3.7012000576
 11
7.4161774809
 21
3.7012000576
  0
LINE
  5
2E2
100
AcDbEntity
  8
0
100
AcDbLine
 62
7
  6
CONTINUOUS
 10
7.1041774809
 20
3.7012000576
 11
6.3231774809
 21
3.7012000576
  0
LINE
  5
2E3
100
AcDbEntity
  8
03__ASM_ALL_CURVES
100
AcDbLine
 62
40
  6
CONTINUOUS
 10
6.9256091164
 20
2.8192000576
 11
6.9368848977
 21
2.8116828719
  0
LINE
  5
2E4
100
AcDbEntity
  8
03__ASM_ALL_CURVES
100
AcDbLine
 62
40
  6
CONTINUOUS
 10
7.0158153664
 20
2.8192000576
 11
7.0270911477
 21
2.8116828719
  0
LINE
  5
2E5
100
AcDbEntity
  8
03__ASM_ALL_CURVES
100
AcDbLine
 62
40
  6
CONTINUOUS
 10
7.1962278664
 20
2.8192000576
 11
7.2075036477
 21
2.8116828719
  0
LINE
  5
2E6
100
AcDbEntity
  8
03__ASM_ALL_CURVES
100
AcDbLine
 62
40
  6
CONTINUOUS
 10
3.8914040434
 20
5.8353181433
 11
3.8989212309
 21
5.8252952219
  0
LINE
  5
2E7
100
AcDbEntity
  8
03__ASM_ALL_CURVES
100
AcDbLine
 62
40
  6
CONTINUOUS
 10
4.1018852934
 20
5.7451118915
 11
4.1169196684
 21
5.7250660576
  0
LINE
  5
2E8
100
AcDbEntity
  8
03__ASM_ALL_CURVES
100
AcDbLine
 62
40
  6
CONTINUOUS
 10
4.2071259184
 20
5.7350889746
 11
4.1996087309
 21
5.7451118915
  0
LINE
  5
2E9
100
AcDbEntity
  8
THREAD
100
AcDbLine
 62
7
  6
CONTINUOUS
 10
5.6361996949
 20
3.4777000576
 11
5.6061774809
 21
3.5297000576
  0
LINE
  5
2EA
100
AcDbEntity
  8
0
100
AcDbLine
 62
7
  6
CONTINUOUS
 10
4.6454802391
 20
5.3252000576
 11
4.5741774809
 21
5.4487000576
  0
LINE
  5
2EB
100
AcDbEntity
  8
03__ASM_ALL_CURVES
100
AcDbLine
 62
40
  6
CONTINUOUS
 10
4.6130540434
 20
5.7852035576
 11
4.6205712309
 21
5.7651577255
  0
LINE
  5
2EC
100
AcDbEntity
  8
03__ASM_ALL_CURVES
100
AcDbLine
 62
40
  6
CONTINUOUS
 10
4.8385696684
 20
5.8252952219
 11
4.8460868559
 21
5.7952264719
  0
LINE
  5
2ED
100
AcDbEntity
  8
THREAD
100
AcDbLine
 62
7
  6
CONTINUOUS
 10
5.4321774809
 20
3.4657000576
 11
5.4321774809
 21
5.3727000576
  0
LINE
  5
2EE
100
AcDbEntity
  8
03__ASM_ALL_CURVES
100
AcDbLine
 62
40
  6
CONTINUOUS
 10
5.5295074809
 20
5.7010110576
 11
5.5295074809
 21
5.6529010576
  0
LINE
  5
2EF
100
AcDbEntity
  8
0
100
AcDbLine
 62
7
  6
CONTINUOUS
 10
5.5351774809
 20
3.4652000576
 11
5.5351774809
 21
5.3732000576
  0
LINE
  5
2F0
100
AcDbEntity
  8
03__ASM_ALL_CURVES
100
AcDbLine
 62
40
  6
CONTINUOUS
 10
5.5776174813
 20
5.8453410576
 11
5.5776174813
 21
5.7250660576
  0
LINE
  5
2F1
100
AcDbEntity
  8
0
100
AcDbLine
 62
7
  6
CONTINUOUS
 10
5.5851774809
 20
3.4652000576
 11
5.5851774809
 21
5.3732000576
  0
LINE
  5
2F2
100
AcDbEntity
  8
0
100
AcDbLine
 62
7
  6
CONTINUOUS
 10
5.6061774809
 20
3.5297000576
 11
5.6061774809
 21
5.3087000576
  0
LINE
  5
2F3
100
AcDbEntity
  8
03__ASM_ALL_CURVES
100
AcDbLine
 62
40
  6
CONTINUOUS
 10
5.8031331063
 20
5.7852035576
 11
5.8106502938
 21
5.8152723076
  0
LINE
  5
2F4
100
AcDbEntity
  8
03__ASM_ALL_CURVES
100
AcDbLine
 62
40
  6
CONTINUOUS
 10
5.9309252938
 20
5.7250660576
 11
5.9685112313
 21
5.8453410576
  0
LINE
  5
2F5
100
AcDbEntity
  8
03__ASM_ALL_CURVES
100
AcDbLine
 62
40
  6
CONTINUOUS
 10
6.4796799813
 20
5.7451118915
 11
6.4721627938
 21
5.7350889746
  0
LINE
  5
2F6
100
AcDbEntity
  8
03__ASM_ALL_CURVES
100
AcDbLine
 62
40
  6
CONTINUOUS
 10
6.6676096688
 20
5.8353181433
 11
6.6600924813
 21
5.8252952219
  0
LINE
  5
2F7
100
AcDbEntity
  8
03__ASM_ALL_CURVES
100
AcDbLine
 62
40
  6
CONTINUOUS
 10
7.3065706063
 20
5.7350889746
 11
7.2915362313
 21
5.7250660576
  0
LINE
  5
2F8
100
AcDbEntity
  8
03__ASM_ALL_CURVES
100
AcDbLine
 62
40
  6
CONTINUOUS
 10
7.5546377938
 20
5.7952264719
 11
7.5396034188
 21
5.7852035576
  0
LINE
  5
2F9
100
AcDbEntity
  8
0
100
AcDbLine
 62
7
  6
CONTINUOUS
 10
4.0116896772
 20
3.9345047161
 11
3.1411501121
 21
3.9345047161
  0
LINE
  5
2FA
100
AcDbEntity
  8
0
100
AcDbLine
 62
7
  6
CONTINUOUS
 10
4.0116896772
 20
3.9812907405
 11
3.1411501121
 21
3.9812907405
  0
LINE
  5
2FB
100
AcDbEntity
  8
03__ASM_ALL_CURVES
100
AcDbLine
 62
40
  6
CONTINUOUS
 10
4.2522290434
 20
5.7952264719
 11
4.2597462309
 21
5.7852035576
  0
LINE
  5
2FC
100
AcDbEntity
  8
03__ASM_ALL_CURVES
100
AcDbLine
 62
40
  6
CONTINUOUS
 10
4.3274009184
 20
5.7350889746
 11
4.3123665434
 21
5.7551348076
  0
LINE
  5
2FD
100
AcDbEntity
  8
03__ASM_ALL_CURVES
100
AcDbLine
 62
40
  6
CONTINUOUS
 10
4.3274009184
 20
5.8052493933
 11
4.3198837309
 21
5.8152723076
  0
LINE
  5
2FE
100
AcDbEntity
  8
03__ASM_ALL_CURVES
100
AcDbLine
 62
40
  6
CONTINUOUS
 10
4.3725040434
 20
5.7852035576
 11
4.3875384184
 21
5.7651577255
  0
LINE
  5
2FF
100
AcDbEntity
  8
03__ASM_ALL_CURVES
100
AcDbLine
 62
40
  6
CONTINUOUS
 10
4.3725040434
 20
5.8353181433
 11
4.3800212309
 21
5.8252952219
  0
LINE
  5
300
100
AcDbEntity
  8
03__ASM_ALL_CURVES
100
AcDbLine
 62
40
  6
CONTINUOUS
 10
4.4627102934
 20
5.7350889746
 11
4.4702274809
 21
5.7250660576
  0
LINE
  5
301
100
AcDbEntity
  8
THREAD
100
AcDbLine
 62
7
  6
CONTINUOUS
 10
5.6361996949
 20
3.4777000576
 11
5.6361996949
 21
5.3607000576
  0
LINE
  5
302
100
AcDbEntity
  8
03__ASM_ALL_CURVES
100
AcDbLine
 62
40
  6
CONTINUOUS
 10
6.7202299813
 20
5.7451118915
 11
6.7127127938
 21
5.7350889746
  0
LINE
  5
303
100
AcDbEntity
  8
03__ASM_ALL_CURVES
100
AcDbLine
 62
40
  6
CONTINUOUS
 10
6.8931252938
 20
5.8152723076
 11
6.9081596688
 21
5.8353181433
  0
LINE
  5
304
100
AcDbEntity
  8
03__ASM_ALL_CURVES
100
AcDbLine
 62
40
  6
CONTINUOUS
 10
4.6744976074
 20
2.7891313094
 11
4.6688597168
 21
2.7816141183
  0
LINE
  5
305
100
AcDbEntity
  8
03__ASM_ALL_CURVES
100
AcDbLine
 62
40
  6
CONTINUOUS
 10
4.7139628418
 20
2.7966484951
 11
4.725238623
 21
2.8116828719
  0
LINE
  5
306
100
AcDbEntity
  8
03__ASM_ALL_CURVES
100
AcDbLine
 62
40
  6
CONTINUOUS
 10
4.5754681059
 20
5.7350889746
 11
4.5679509184
 21
5.7451118915
  0
LINE
  5
307
100
AcDbEntity
  8
03__ASM_ALL_CURVES
100
AcDbLine
 62
40
  6
CONTINUOUS
 10
6.9030575539
 20
2.7365109953
 11
6.8917817727
 21
2.7515453701
  0
LINE
  5
308
100
AcDbEntity
  8
03__ASM_ALL_CURVES
100
AcDbLine
 62
40
  6
CONTINUOUS
 10
6.8466786477
 20
2.8116828719
 11
6.8523165383
 21
2.8041656808
  0
LINE
  5
309
100
AcDbEntity
  8
03__ASM_ALL_CURVES
100
AcDbLine
 62
40
  6
CONTINUOUS
 10
4.6055368559
 20
5.8353181433
 11
4.6130540434
 21
5.8252952219
  0
LINE
  5
30A
100
AcDbEntity
  8
03__ASM_ALL_CURVES
100
AcDbLine
 62
40
  6
CONTINUOUS
 10
6.9368848977
 20
2.8116828719
 11
6.9481606789
 21
2.7966484951
  0
LINE
  5
30B
100
AcDbEntity
  8
03__ASM_ALL_CURVES
100
AcDbLine
 62
40
  6
CONTINUOUS
 10
6.4045081063
 20
5.7852035576
 11
6.4120252938
 21
5.8152723076
  0
LINE
  5
30C
100
AcDbEntity
  8
03__ASM_ALL_CURVES
100
AcDbLine
 62
40
  6
CONTINUOUS
 10
6.9682971688
 20
5.7551348076
 11
6.9532627938
 21
5.7350889746
  0
LINE
  5
30D
100
AcDbEntity
  8
03__ASM_ALL_CURVES
100
AcDbLine
 62
40
  6
CONTINUOUS
 10
4.770341748
 20
2.7515453701
 11
4.7590659668
 21
2.7365109953
  0
LINE
  5
30E
100
AcDbEntity
  8
03__ASM_ALL_CURVES
100
AcDbLine
 62
40
  6
CONTINUOUS
 10
4.8549101074
 20
2.7891313094
 11
4.8492722168
 21
2.7816141183
  0
LINE
  5
30F
100
AcDbEntity
  8
03__ASM_ALL_CURVES
100
AcDbLine
 62
40
  6
CONTINUOUS
 10
7.0810549813
 20
5.7451118915
 11
7.0735377938
 21
5.7350889746
  0
LINE
  5
310
100
AcDbEntity
  8
03__ASM_ALL_CURVES
100
AcDbLine
 62
40
  6
CONTINUOUS
 10
8.2635731839
 20
4.4432550576
 11
8.2522974026
 21
4.4432550576
  0
LINE
  5
311
100
AcDbEntity
  8
03__ASM_ALL_CURVES
100
AcDbLine
 62
40
  6
CONTINUOUS
 10
8.3537794339
 20
4.4883581826
 11
8.3255899807
 21
4.4883581826
  0
LINE
  5
312
100
AcDbEntity
  8
03__ASM_ALL_CURVES
100
AcDbLine
 62
40
  6
CONTINUOUS
 10
8.1733669339
 20
4.4883581826
 11
8.1451774807
 21
4.4883581826
  0
LINE
  5
313
100
AcDbEntity
  8
03__ASM_ALL_CURVES
100
AcDbLine
 62
40
  6
CONTINUOUS
 10
3.6358196684
 20
5.8453410576
 11
3.6508540434
 21
5.8353181433
  0
LINE
  5
314
100
AcDbEntity
  8
03__ASM_ALL_CURVES
100
AcDbLine
 62
40
  6
CONTINUOUS
 10
3.8613352934
 20
5.7250660576
 11
3.8463009184
 21
5.7350889746
  0
LINE
  5
315
100
AcDbEntity
  8
03__ASM_ALL_CURVES
100
AcDbLine
 62
40
  6
CONTINUOUS
 10
3.8763696684
 20
5.7952264719
 11
3.8914040434
 21
5.7852035576
  0
LINE
  5
316
100
AcDbEntity
  8
03__ASM_ALL_CURVES
100
AcDbLine
 62
40
  6
CONTINUOUS
 10
3.8763696684
 20
5.8453410576
 11
3.8914040434
 21
5.8353181433
  0
LINE
  5
317
100
AcDbEntity
  8
03__ASM_ALL_CURVES
100
AcDbLine
 62
40
  6
CONTINUOUS
 10
7.0270911477
 20
2.8116828719
 11
7.0327290383
 21
2.8041656808
  0
LINE
  5
318
100
AcDbEntity
  8
03__ASM_ALL_CURVES
100
AcDbLine
 62
40
  6
CONTINUOUS
 10
4.8235352934
 20
5.8453410576
 11
4.8385696684
 21
5.8252952219
  0
LINE
  5
319
100
AcDbEntity
  8
03__ASM_ALL_CURVES
100
AcDbLine
 62
40
  6
CONTINUOUS
 10
6.0887862313
 20
5.8453410576
 11
6.0887862313
 21
5.7250660576
  0
LINE
  5
31A
100
AcDbEntity
  8
THREAD
100
AcDbLine
 62
7
  6
CONTINUOUS
 10
6.1056774809
 20
3.4777000576
 11
6.1056774809
 21
5.3607000576
  0
LINE
  5
31B
100
AcDbEntity
  8
THREAD
100
AcDbLine
 62
7
  6
CONTINUOUS
 10
6.2031774809
 20
3.5752000576
 11
6.2031774809
 21
5.2632000576
  0
LINE
  5
31C
100
AcDbEntity
  8
03__ASM_ALL_CURVES
100
AcDbLine
 62
40
  6
CONTINUOUS
 10
6.2090612313
 20
5.8453410576
 11
6.2090612313
 21
5.7250660576
  0
LINE
  5
31D
100
AcDbEntity
  8
03__ASM_ALL_CURVES
100
AcDbLine
 62
40
  6
CONTINUOUS
 10
5.0353226074
 20
2.7966484951
 11
5.0296847168
 21
2.7891313094
  0
LINE
  5
31E
100
AcDbEntity
  8
03__ASM_ALL_CURVES
100
AcDbLine
 62
40
  6
CONTINUOUS
 10
5.040960498
 20
2.7515453701
 11
5.0296847168
 21
2.7365109953
  0
LINE
  5
31F
100
AcDbEntity
  8
03__ASM_ALL_CURVES
100
AcDbLine
 62
40
  6
CONTINUOUS
 10
7.3216049813
 20
5.7551348076
 11
7.3065706063
 21
5.7350889746
  0
LINE
  5
320
100
AcDbEntity
  8
03__ASM_ALL_CURVES
100
AcDbLine
 62
40
  6
CONTINUOUS
 10
8.1451774807
 20
4.5334613076
 11
8.1733669339
 21
4.5334613076
  0
LINE
  5
321
100
AcDbEntity
  8
03__ASM_ALL_CURVES
100
AcDbLine
 62
40
  6
CONTINUOUS
 10
8.2522974026
 20
4.5334613076
 11
8.2635731839
 21
4.5334613076
  0
LINE
  5
322
100
AcDbEntity
  8
03__ASM_ALL_CURVES
100
AcDbLine
 62
40
  6
CONTINUOUS
 10
8.3255899807
 20
4.5334613076
 11
8.3537794339
 21
4.5334613076
  0
LINE
  5
323
100
AcDbEntity
  8
03__ASM_ALL_CURVES
100
AcDbLine
 62
40
  6
CONTINUOUS
 10
8.4101583401
 20
4.5334613076
 11
8.4665372464
 21
4.5334613076
  0
LINE
  5
324
100
AcDbEntity
  8
03__ASM_ALL_CURVES
100
AcDbLine
 62
40
  6
CONTINUOUS
 10
4.2221602934
 20
5.7250660576
 11
4.2071259184
 21
5.7350889746
  0
LINE
  5
325
100
AcDbEntity
  8
03__ASM_ALL_CURVES
100
AcDbLine
 62
40
  6
CONTINUOUS
 10
4.3424352934
 20
5.7250660576
 11
4.3274009184
 21
5.7350889746
  0
LINE
  5
326
100
AcDbEntity
  8
03__ASM_ALL_CURVES
100
AcDbLine
 62
40
  6
CONTINUOUS
 10
4.2371946684
 20
5.8052493933
 11
4.2522290434
 21
5.7952264719
  0
LINE
  5
327
100
AcDbEntity
  8
03__ASM_ALL_CURVES
100
AcDbLine
 62
40
  6
CONTINUOUS
 10
4.3424352934
 20
5.7952264719
 11
4.3274009184
 21
5.8052493933
  0
LINE
  5
328
100
AcDbEntity
  8
03__ASM_ALL_CURVES
100
AcDbLine
 62
40
  6
CONTINUOUS
 10
7.2075036477
 20
2.8116828719
 11
7.2131415383
 21
2.8041656808
  0
LINE
  5
329
100
AcDbEntity
  8
03__ASM_ALL_CURVES
100
AcDbLine
 62
40
  6
CONTINUOUS
 10
5.6903752938
 20
5.7551348076
 11
5.6828581063
 21
5.7852035576
  0
LINE
  5
32A
100
AcDbEntity
  8
03__ASM_ALL_CURVES
100
AcDbLine
 62
40
  6
CONTINUOUS
 10
5.7655471688
 20
5.8152723076
 11
5.7730643563
 21
5.7852035576
  0
LINE
  5
32B
100
AcDbEntity
  8
03__ASM_ALL_CURVES
100
AcDbLine
 62
40
  6
CONTINUOUS
 10
5.8106502938
 20
5.7551348076
 11
5.8031331063
 21
5.7852035576
  0
LINE
  5
32C
100
AcDbEntity
  8
03__ASM_ALL_CURVES
100
AcDbLine
 62
40
  6
CONTINUOUS
 10
6.2992674813
 20
5.7250660576
 11
6.2992674813
 21
5.8453410576
  0
LINE
  5
32D
100
AcDbEntity
  8
0
100
AcDbLine
 62
7
  6
CONTINUOUS
 10
6.3101774809
 20
3.5752000576
 11
6.3101774809
 21
5.2632000576
  0
LINE
  5
32E
100
AcDbEntity
  8
0
100
AcDbLine
 62
7
  6
CONTINUOUS
 10
6.3231774809
 20
3.5882000576
 11
6.3231774809
 21
5.2502000576
  0
LINE
  5
32F
100
AcDbEntity
  8
03__ASM_ALL_CURVES
100
AcDbLine
 62
40
  6
CONTINUOUS
 10
6.3594049813
 20
5.7250660576
 11
6.3594049813
 21
5.8453410576
  0
LINE
  5
330
100
AcDbEntity
  8
03__ASM_ALL_CURVES
100
AcDbLine
 62
40
  6
CONTINUOUS
 10
7.5621549813
 20
5.8052493933
 11
7.5546377938
 21
5.7952264719
  0
LINE
  5
331
100
AcDbEntity
  8
03__ASM_ALL_CURVES
100
AcDbLine
 62
40
  6
CONTINUOUS
 10
4.6688597168
 20
2.7816141183
 11
4.6575839355
 21
2.7740969326
  0
LINE
  5
332
100
AcDbEntity
  8
03__ASM_ALL_CURVES
100
AcDbLine
 62
40
  6
CONTINUOUS
 10
4.725238623
 20
2.8116828719
 11
4.7365144043
 21
2.8192000576
  0
LINE
  5
333
100
AcDbEntity
  8
0
100
AcDbLine
 62
7
  6
CONTINUOUS
 10
4.0116896772
 20
4.8571093747
 11
3.1411501121
 21
4.8571093747
  0
LINE
  5
334
100
AcDbEntity
  8
0
100
AcDbLine
 62
7
  6
CONTINUOUS
 10
4.0116896772
 20
4.903895399
 11
3.1411501121
 21
4.903895399
  0
LINE
  5
335
100
AcDbEntity
  8
03__ASM_ALL_CURVES
100
AcDbLine
 62
40
  6
CONTINUOUS
 10
4.3574696684
 20
5.7952264719
 11
4.3725040434
 21
5.7852035576
  0
LINE
  5
336
100
AcDbEntity
  8
03__ASM_ALL_CURVES
100
AcDbLine
 62
40
  6
CONTINUOUS
 10
4.3574696684
 20
5.8453410576
 11
4.3725040434
 21
5.8353181433
  0
LINE
  5
337
100
AcDbEntity
  8
03__ASM_ALL_CURVES
100
AcDbLine
 62
40
  6
CONTINUOUS
 10
4.5905024809
 20
5.7250660576
 11
4.5754681059
 21
5.7350889746
  0
LINE
  5
338
100
AcDbEntity
  8
03__ASM_ALL_CURVES
100
AcDbLine
 62
40
  6
CONTINUOUS
 10
4.5905024809
 20
5.8453410576
 11
4.6055368559
 21
5.8353181433
  0
LINE
  5
339
100
AcDbEntity
  8
03__ASM_ALL_CURVES
100
AcDbLine
 62
40
  6
CONTINUOUS
 10
7.0158153664
 20
2.7740969326
 11
7.0327290383
 21
2.7289938076
  0
LINE
  5
33A
100
AcDbEntity
  8
03__ASM_ALL_CURVES
100
AcDbLine
 62
40
  6
CONTINUOUS
 10
5.9685112313
 20
5.8453410576
 11
6.0060971688
 21
5.7250660576
  0
LINE
  5
33B
100
AcDbEntity
  8
03__ASM_ALL_CURVES
100
AcDbLine
 62
40
  6
CONTINUOUS
 10
6.4796799813
 20
5.7852035576
 11
6.4796799813
 21
5.7451118915
  0
LINE
  5
33C
100
AcDbEntity
  8
03__ASM_ALL_CURVES
100
AcDbLine
 62
40
  6
CONTINUOUS
 10
6.6600924813
 20
5.8252952219
 11
6.6600924813
 21
5.8152723076
  0
LINE
  5
33D
100
AcDbEntity
  8
03__ASM_ALL_CURVES
100
AcDbLine
 62
40
  6
CONTINUOUS
 10
6.8856081063
 20
5.7852035576
 11
6.8931252938
 21
5.8152723076
  0
LINE
  5
33E
100
AcDbEntity
  8
03__ASM_ALL_CURVES
100
AcDbLine
 62
40
  6
CONTINUOUS
 10
6.9758143563
 20
5.7852035576
 11
6.9682971688
 21
5.7551348076
  0
LINE
  5
33F
100
AcDbEntity
  8
THREAD
100
AcDbLine
 62
7
  6
CONTINUOUS
 10
6.2031774809
 20
3.5752000576
 11
6.1056774809
 21
3.4777000576
  0
LINE
  5
340
100
AcDbEntity
  8
0
100
AcDbLine
 62
7
  6
CONTINUOUS
 10
6.3231774809
 20
3.5882000576
 11
6.3101774809
 21
3.5752000576
  0
LINE
  5
341
100
AcDbEntity
  8
03__ASM_ALL_CURVES
100
AcDbLine
 62
40
  6
CONTINUOUS
 10
4.7590659668
 20
2.7365109953
 11
4.7477901855
 21
2.7289938076
  0
LINE
  5
342
100
AcDbEntity
  8
03__ASM_ALL_CURVES
100
AcDbLine
 62
40
  6
CONTINUOUS
 10
4.8492722168
 20
2.7816141183
 11
4.8379964355
 21
2.7740969326
  0
LINE
  5
343
100
AcDbEntity
  8
03__ASM_ALL_CURVES
100
AcDbLine
 62
40
  6
CONTINUOUS
 10
4.995857373
 20
2.8116828719
 11
5.0071331543
 21
2.8192000576
  0
LINE
  5
344
100
AcDbEntity
  8
03__ASM_ALL_CURVES
100
AcDbLine
 62
40
  6
CONTINUOUS
 10
5.0296847168
 20
2.7891313094
 11
5.0184089355
 21
2.7816141183
  0
LINE
  5
345
100
AcDbEntity
  8
03__ASM_ALL_CURVES
100
AcDbLine
 62
40
  6
CONTINUOUS
 10
5.0296847168
 20
2.7365109953
 11
5.0184089355
 21
2.7289938076
  0
LINE
  5
346
100
AcDbEntity
  8
0
100
AcDbLine
 62
7
  6
CONTINUOUS
 10
7.4471774809
 20
5.1372000576
 11
7.4161774809
 21
5.1372000576
  0
LINE
  5
347
100
AcDbEntity
  8
0
100
AcDbLine
 62
7
  6
CONTINUOUS
 10
7.1041774809
 20
5.1372000576
 11
6.3231774809
 21
5.1372000576
  0
LINE
  5
348
100
AcDbEntity
  8
0
100
AcDbLine
 62
7
  6
CONTINUOUS
 10
7.7841774809
 20
5.1427000576
 11
7.7441774809
 21
5.1427000576
  0
LINE
  5
349
100
AcDbEntity
  8
03__ASM_ALL_CURVES
100
AcDbLine
 62
40
  6
CONTINUOUS
 10
5.7054096688
 20
5.7350889746
 11
5.6903752938
 21
5.7551348076
  0
LINE
  5
34A
100
AcDbEntity
  8
03__ASM_ALL_CURVES
100
AcDbLine
 62
40
  6
CONTINUOUS
 10
6.8917817727
 20
2.7515453701
 11
6.886143882
 21
2.7740969326
  0
LINE
  5
34B
100
AcDbEntity
  8
03__ASM_ALL_CURVES
100
AcDbLine
 62
40
  6
CONTINUOUS
 10
6.9481606789
 20
2.7966484951
 11
6.9537985695
 21
2.7740969326
  0
LINE
  5
34C
100
AcDbEntity
  8
03__ASM_ALL_CURVES
100
AcDbLine
 62
40
  6
CONTINUOUS
 10
6.7202299813
 20
5.7651577255
 11
6.7202299813
 21
5.7451118915
  0
LINE
  5
34D
100
AcDbEntity
  8
03__ASM_ALL_CURVES
100
AcDbLine
 62
40
  6
CONTINUOUS
 10
6.7803674813
 20
5.8453410576
 11
6.7803674813
 21
5.7250660576
  0
LINE
  5
34E
100
AcDbEntity
  8
03__ASM_ALL_CURVES
100
AcDbLine
 62
40
  6
CONTINUOUS
 10
6.8072134133
 20
2.7289938076
 11
6.8072134133
 21
2.8192000576
  0
LINE
  5
34F
100
AcDbEntity
  8
03__ASM_ALL_CURVES
100
AcDbLine
 62
40
  6
CONTINUOUS
 10
6.8405049813
 20
5.8453410576
 11
6.8405049813
 21
5.7250660576
  0
LINE
  5
350
100
AcDbEntity
  8
03__ASM_ALL_CURVES
100
AcDbLine
 62
40
  6
CONTINUOUS
 10
6.8523165383
 20
2.8041656808
 11
6.8523165383
 21
2.7891313094
  0
LINE
  5
351
100
AcDbEntity
  8
0
100
AcDbLine
 62
7
  6
CONTINUOUS
 10
7.4471774809
 20
5.2302000576
 11
7.5411774809
 21
5.2302000576
  0
LINE
  5
352
100
AcDbEntity
  8
0
100
AcDbLine
 62
7
  6
CONTINUOUS
 10
7.7841774809
 20
5.2302000576
 11
7.8541774809
 21
5.2302000576
  0
LINE
  5
353
100
AcDbEntity
  8
0
100
AcDbLine
 62
7
  6
CONTINUOUS
 10
7.5411774809
 20
5.2307000576
 11
7.5911774809
 21
5.2307000576
  0
LINE
  5
354
100
AcDbEntity
  8
0
100
AcDbLine
 62
7
  6
CONTINUOUS
 10
7.6941774809
 20
5.2307000576
 11
7.7441774809
 21
5.2307000576
  0
LINE
  5
355
100
AcDbEntity
  8
THREAD
100
AcDbLine
 62
7
  6
CONTINUOUS
 10
6.3101774809
 20
5.2632000576
 11
6.2031774809
 21
5.2632000576
  0
LINE
  5
356
100
AcDbEntity
  8
0
100
AcDbLine
 62
7
  6
CONTINUOUS
 10
5.1930294232
 20
5.3252000576
 11
4.6454802391
 21
5.3252000576
  0
LINE
  5
357
100
AcDbEntity
  8
0
100
AcDbLine
 62
7
  6
CONTINUOUS
 10
4.0116896772
 20
5.3418047161
 11
3.1411501121
 21
5.3418047161
  0
LINE
  5
358
100
AcDbEntity
  8
0
100
AcDbLine
 62
7
  6
CONTINUOUS
 10
4.0116896772
 20
5.3422000576
 11
3.1411501121
 21
5.3422000576
  0
LINE
  5
359
100
AcDbEntity
  8
THREAD
100
AcDbLine
 62
7
  6
CONTINUOUS
 10
6.1056774809
 20
5.3607000576
 11
5.6361996949
 21
5.3607000576
  0
LINE
  5
35A
100
AcDbEntity
  8
0
100
AcDbLine
 62
7
  6
CONTINUOUS
 10
4.4971774809
 20
5.3607000576
 11
4.4761774809
 21
5.3607000576
  0
LINE
  5
35B
100
AcDbEntity
  8
03__ASM_ALL_CURVES
100
AcDbLine
 62
40
  6
CONTINUOUS
 10
3.2185074809
 20
5.6569102243
 11
3.0741774809
 21
5.6769560576
  0
LINE
  5
35C
100
AcDbEntity
  8
03__ASM_ALL_CURVES
100
AcDbLine
 62
40
  6
CONTINUOUS
 10
3.2185074809
 20
5.6529010576
 11
3.0741774809
 21
5.6769560576
  0
LINE
  5
35D
100
AcDbEntity
  8
03__ASM_ALL_CURVES
100
AcDbLine
 62
40
  6
CONTINUOUS
 10
4.5905024809
 20
5.7952264719
 11
4.6130540434
 21
5.7852035576
  0
LINE
  5
35E
100
AcDbEntity
  8
THREAD
100
AcDbLine
 62
7
  6
CONTINUOUS
 10
6.2031774809
 20
5.2632000576
 11
6.1056774809
 21
5.3607000576
  0
LINE
  5
35F
100
AcDbEntity
  8
0
100
AcDbLine
 62
7
  6
CONTINUOUS
 10
6.3231774809
 20
5.2502000576
 11
6.3101774809
 21
5.2632000576
  0
LINE
  5
360
100
AcDbEntity
  8
03__ASM_ALL_CURVES
100
AcDbLine
 62
40
  6
CONTINUOUS
 10
5.8256846688
 20
5.7350889746
 11
5.8106502938
 21
5.7551348076
  0
LINE
  5
361
100
AcDbEntity
  8
03__ASM_ALL_CURVES
100
AcDbLine
 62
40
  6
CONTINUOUS
 10
5.7505127938
 20
5.8353181433
 11
5.7655471688
 21
5.8152723076
  0
LINE
  5
362
100
AcDbEntity
  8
03__ASM_ALL_CURVES
100
AcDbLine
 62
40
  6
CONTINUOUS
 10
5.8707877938
 20
5.8353181433
 11
5.8783049813
 21
5.8252952219
  0
LINE
  5
363
100
AcDbEntity
  8
03__ASM_ALL_CURVES
100
AcDbLine
 62
40
  6
CONTINUOUS
 10
6.4120252938
 20
5.7551348076
 11
6.4045081063
 21
5.7852035576
  0
LINE
  5
364
100
AcDbEntity
  8
03__ASM_ALL_CURVES
100
AcDbLine
 62
40
  6
CONTINUOUS
 10
6.9876259133
 20
2.7289938076
 11
6.9876259133
 21
2.8192000576
  0
LINE
  5
365
100
AcDbEntity
  8
03__ASM_ALL_CURVES
100
AcDbLine
 62
40
  6
CONTINUOUS
 10
7.0209174813
 20
5.7451118915
 11
7.0209174813
 21
5.8453410576
  0
LINE
  5
366
100
AcDbEntity
  8
03__ASM_ALL_CURVES
100
AcDbLine
 62
40
  6
CONTINUOUS
 10
7.0327290383
 20
2.8041656808
 11
7.0327290383
 21
2.7891313094
  0
LINE
  5
367
100
AcDbEntity
  8
03__ASM_ALL_CURVES
100
AcDbLine
 62
40
  6
CONTINUOUS
 10
7.0810549813
 20
5.8453410576
 11
7.0810549813
 21
5.7451118915
  0
LINE
  5
368
100
AcDbEntity
  8
03__ASM_ALL_CURVES
100
AcDbLine
 62
40
  6
CONTINUOUS
 10
7.3291221688
 20
5.7852035576
 11
7.3216049813
 21
5.7551348076
  0
LINE
  5
369
100
AcDbEntity
  8
03__ASM_ALL_CURVES
100
AcDbLine
 62
40
  6
CONTINUOUS
 10
8.1846427151
 20
4.4958753683
 11
8.1733669339
 21
4.4883581826
  0
LINE
  5
36A
100
AcDbEntity
  8
03__ASM_ALL_CURVES
100
AcDbLine
 62
40
  6
CONTINUOUS
 10
8.2410216214
 20
4.5259441219
 11
8.2522974026
 21
4.5334613076
  0
LINE
  5
36B
100
AcDbEntity
  8
03__ASM_ALL_CURVES
100
AcDbLine
 62
40
  6
CONTINUOUS
 10
8.2748489651
 20
4.4507722453
 11
8.2635731839
 21
4.4432550576
  0
LINE
  5
36C
100
AcDbEntity
  8
03__ASM_ALL_CURVES
100
AcDbLine
 62
40
  6
CONTINUOUS
 10
8.3650552151
 20
4.4958753683
 11
8.3537794339
 21
4.4883581826
  0
LINE
  5
36D
100
AcDbEntity
  8
THREAD
100
AcDbLine
 62
7
  6
CONTINUOUS
 10
5.4321774809
 20
5.3727000576
 11
5.3851774809
 21
5.3727000576
  0
LINE
  5
36E
100
AcDbEntity
  8
0
100
AcDbLine
 62
7
  6
CONTINUOUS
 10
5.5351774809
 20
5.3732000576
 11
5.5851774809
 21
5.3732000576
  0
LINE
  5
36F
100
AcDbEntity
  8
0
100
AcDbLine
 62
7
  6
CONTINUOUS
 10
5.3851774809
 20
5.4467000576
 11
5.2631774809
 21
5.4467000576
  0
LINE
  5
370
100
AcDbEntity
  8
0
100
AcDbLine
 62
7
  6
CONTINUOUS
 10
4.5741774809
 20
5.4487000576
 11
4.4971774809
 21
5.4487000576
  0
LINE
  5
371
100
AcDbEntity
  8
0
100
AcDbLine
 62
7
  6
CONTINUOUS
 10
4.0731774809
 20
5.4487000576
 11
4.3731774809
 21
5.4487000576
  0
LINE
  5
372
100
AcDbEntity
  8
03__ASM_ALL_CURVES
100
AcDbLine
 62
40
  6
CONTINUOUS
 10
3.2185074809
 20
5.6689377243
 11
3.0741774809
 21
5.6769560576
  0
LINE
  5
373
100
AcDbEntity
  8
03__ASM_ALL_CURVES
100
AcDbLine
 62
40
  6
CONTINUOUS
 10
3.2185074809
 20
5.6649285576
 11
3.0741774809
 21
5.6769560576
  0
LINE
  5
374
100
AcDbEntity
  8
03__ASM_ALL_CURVES
100
AcDbLine
 62
40
  6
CONTINUOUS
 10
3.2185074809
 20
5.6609193909
 11
3.0741774809
 21
5.6769560576
  0
LINE
  5
375
100
AcDbEntity
  8
03__ASM_ALL_CURVES
100
AcDbLine
 62
40
  6
CONTINUOUS
 10
5.7204440438
 20
5.7250660576
 11
5.7054096688
 21
5.7350889746
  0
LINE
  5
376
100
AcDbEntity
  8
03__ASM_ALL_CURVES
100
AcDbLine
 62
40
  6
CONTINUOUS
 10
5.8407190438
 20
5.7250660576
 11
5.8256846688
 21
5.7350889746
  0
LINE
  5
377
100
AcDbEntity
  8
03__ASM_ALL_CURVES
100
AcDbLine
 62
40
  6
CONTINUOUS
 10
5.7354784188
 20
5.8453410576
 11
5.7505127938
 21
5.8353181433
  0
LINE
  5
378
100
AcDbEntity
  8
03__ASM_ALL_CURVES
100
AcDbLine
 62
40
  6
CONTINUOUS
 10
6.2992674813
 20
5.8453410576
 11
6.3594049813
 21
5.7250660576
  0
LINE
  5
379
100
AcDbEntity
  8
03__ASM_ALL_CURVES
100
AcDbLine
 62
40
  6
CONTINUOUS
 10
7.1003837258
 20
2.8192000576
 11
7.1003837258
 21
2.7289938076
  0
LINE
  5
37A
100
AcDbEntity
  8
03__ASM_ALL_CURVES
100
AcDbLine
 62
40
  6
CONTINUOUS
 10
7.1411924813
 20
5.8453410576
 11
7.1411924813
 21
5.7250660576
  0
LINE
  5
37B
100
AcDbEntity
  8
03__ASM_ALL_CURVES
100
AcDbLine
 62
40
  6
CONTINUOUS
 10
7.2131415383
 20
2.8041656808
 11
7.2131415383
 21
2.7891313094
  0
LINE
  5
37C
100
AcDbEntity
  8
03__ASM_ALL_CURVES
100
AcDbLine
 62
40
  6
CONTINUOUS
 10
7.2614674813
 20
5.7250660576
 11
7.2614674813
 21
5.8453410576
  0
LINE
  5
37D
100
AcDbEntity
  8
03__ASM_ALL_CURVES
100
AcDbLine
 62
40
  6
CONTINUOUS
 10
6.886143882
 20
2.7740969326
 11
6.8917817727
 21
2.7966484951
  0
LINE
  5
37E
100
AcDbEntity
  8
03__ASM_ALL_CURVES
100
AcDbLine
 62
40
  6
CONTINUOUS
 10
6.9537985695
 20
2.7740969326
 11
6.9481606789
 21
2.7515453701
  0
LINE
  5
37F
100
AcDbEntity
  8
03__ASM_ALL_CURVES
100
AcDbLine
 62
40
  6
CONTINUOUS
 10
5.2408474809
 20
5.6529010576
 11
5.5295074809
 21
5.7010110576
  0
LINE
  5
380
100
AcDbEntity
  8
03__ASM_ALL_CURVES
100
AcDbLine
 62
40
  6
CONTINUOUS
 10
5.2408474809
 20
5.6569102243
 11
5.5295074809
 21
5.6970018909
  0
LINE
  5
381
100
AcDbEntity
  8
03__ASM_ALL_CURVES
100
AcDbLine
 62
40
  6
CONTINUOUS
 10
5.2408474809
 20
5.6609193909
 11
5.5295074809
 21
5.6929927243
  0
LINE
  5
382
100
AcDbEntity
  8
03__ASM_ALL_CURVES
100
AcDbLine
 62
40
  6
CONTINUOUS
 10
5.2408474809
 20
5.6649285576
 11
5.5295074809
 21
5.6889835576
  0
LINE
  5
383
100
AcDbEntity
  8
03__ASM_ALL_CURVES
100
AcDbLine
 62
40
  6
CONTINUOUS
 10
5.2408474809
 20
5.6689377243
 11
5.5295074809
 21
5.6849743909
  0
LINE
  5
384
100
AcDbEntity
  8
03__ASM_ALL_CURVES
100
AcDbLine
 62
40
  6
CONTINUOUS
 10
5.2408474809
 20
5.6729468909
 11
5.5295074809
 21
5.6809652243
  0
LINE
  5
385
100
AcDbEntity
  8
03__ASM_ALL_CURVES
100
AcDbLine
 62
40
  6
CONTINUOUS
 10
3.2185074809
 20
5.6809652243
 11
3.0741774809
 21
5.6769560576
  0
LINE
  5
386
100
AcDbEntity
  8
03__ASM_ALL_CURVES
100
AcDbLine
 62
40
  6
CONTINUOUS
 10
3.0741774809
 20
5.6769560576
 11
7.6944574809
 21
5.6769560576
  0
LINE
  5
387
100
AcDbEntity
  8
03__ASM_ALL_CURVES
100
AcDbLine
 62
40
  6
CONTINUOUS
 10
7.4418799813
 20
5.7250660576
 11
7.3817424813
 21
5.7250660576
  0
LINE
  5
388
100
AcDbEntity
  8
03__ASM_ALL_CURVES
100
AcDbLine
 62
40
  6
CONTINUOUS
 10
7.2915362313
 20
5.7250660576
 11
7.2614674813
 21
5.7250660576
  0
LINE
  5
389
100
AcDbEntity
  8
03__ASM_ALL_CURVES
100
AcDbLine
 62
40
  6
CONTINUOUS
 10
7.0585034188
 20
5.7250660576
 11
7.0434690438
 21
5.7250660576
  0
LINE
  5
38A
100
AcDbEntity
  8
03__ASM_ALL_CURVES
100
AcDbLine
 62
40
  6
CONTINUOUS
 10
6.9382284188
 20
5.7250660576
 11
6.9231940438
 21
5.7250660576
  0
LINE
  5
38B
100
AcDbEntity
  8
03__ASM_ALL_CURVES
100
AcDbLine
 62
40
  6
CONTINUOUS
 10
6.6976784188
 20
5.7250660576
 11
6.6826440438
 21
5.7250660576
  0
LINE
  5
38C
100
AcDbEntity
  8
03__ASM_ALL_CURVES
100
AcDbLine
 62
40
  6
CONTINUOUS
 10
6.4571284188
 20
5.7250660576
 11
6.4420940438
 21
5.7250660576
  0
LINE
  5
38D
100
AcDbEntity
  8
03__ASM_ALL_CURVES
100
AcDbLine
 62
40
  6
CONTINUOUS
 10
5.8557534188
 20
5.7250660576
 11
5.8407190438
 21
5.7250660576
  0
LINE
  5
38E
100
AcDbEntity
  8
03__ASM_ALL_CURVES
100
AcDbLine
 62
40
  6
CONTINUOUS
 10
5.7354784188
 20
5.7250660576
 11
5.7204440438
 21
5.7250660576
  0
LINE
  5
38F
100
AcDbEntity
  8
03__ASM_ALL_CURVES
100
AcDbLine
 62
40
  6
CONTINUOUS
 10
4.4702274809
 20
5.7250660576
 11
4.4627102934
 21
5.7250660576
  0
LINE
  5
390
100
AcDbEntity
  8
03__ASM_ALL_CURVES
100
AcDbLine
 62
40
  6
CONTINUOUS
 10
4.3574696684
 20
5.7250660576
 11
4.3424352934
 21
5.7250660576
  0
LINE
  5
391
100
AcDbEntity
  8
03__ASM_ALL_CURVES
100
AcDbLine
 62
40
  6
CONTINUOUS
 10
4.2371946684
 20
5.7250660576
 11
4.2221602934
 21
5.7250660576
  0
LINE
  5
392
100
AcDbEntity
  8
03__ASM_ALL_CURVES
100
AcDbLine
 62
40
  6
CONTINUOUS
 10
3.8763696684
 20
5.7250660576
 11
3.8613352934
 21
5.7250660576
  0
LINE
  5
393
100
AcDbEntity
  8
03__ASM_ALL_CURVES
100
AcDbLine
 62
40
  6
CONTINUOUS
 10
3.7485774809
 20
5.7250660576
 11
3.7410602934
 21
5.7250660576
  0
LINE
  5
394
100
AcDbEntity
  8
03__ASM_ALL_CURVES
100
AcDbLine
 62
40
  6
CONTINUOUS
 10
3.5982337309
 20
5.7250660576
 11
3.6583712309
 21
5.7250660576
  0
LINE
  5
395
100
AcDbEntity
  8
03__ASM_ALL_CURVES
100
AcDbLine
 62
40
  6
CONTINUOUS
 10
5.5776174813
 20
5.7250660576
 11
5.6377549813
 21
5.7250660576
  0
LINE
  5
396
100
AcDbEntity
  8
03__ASM_ALL_CURVES
100
AcDbLine
 62
40
  6
CONTINUOUS
 10
7.1411924813
 20
5.7250660576
 11
7.2013299813
 21
5.7250660576
  0
LINE
  5
397
100
AcDbEntity
  8
03__ASM_ALL_CURVES
100
AcDbLine
 62
40
  6
CONTINUOUS
 10
5.9459596688
 20
5.7651577255
 11
5.9910627938
 21
5.7651577255
  0
LINE
  5
398
100
AcDbEntity
  8
03__ASM_ALL_CURVES
100
AcDbLine
 62
40
  6
CONTINUOUS
 10
3.2185074809
 20
5.6729468909
 11
3.0741774809
 21
5.6769560576
  0
LINE
  5
399
100
AcDbEntity
  8
03__ASM_ALL_CURVES
100
AcDbLine
 62
40
  6
CONTINUOUS
 10
5.2408474809
 20
5.6809652243
 11
5.5295074809
 21
5.6729468909
  0
LINE
  5
39A
100
AcDbEntity
  8
03__ASM_ALL_CURVES
100
AcDbLine
 62
40
  6
CONTINUOUS
 10
5.2408474809
 20
5.6849743909
 11
5.5295074809
 21
5.6689377243
  0
LINE
  5
39B
100
AcDbEntity
  8
03__ASM_ALL_CURVES
100
AcDbLine
 62
40
  6
CONTINUOUS
 10
5.2408474809
 20
5.6889835576
 11
5.5295074809
 21
5.6649285576
  0
LINE
  5
39C
100
AcDbEntity
  8
03__ASM_ALL_CURVES
100
AcDbLine
 62
40
  6
CONTINUOUS
 10
5.2408474809
 20
5.6929927243
 11
5.5295074809
 21
5.6609193909
  0
LINE
  5
39D
100
AcDbEntity
  8
03__ASM_ALL_CURVES
100
AcDbLine
 62
40
  6
CONTINUOUS
 10
5.2408474809
 20
5.6970018909
 11
5.5295074809
 21
5.6569102243
  0
LINE
  5
39E
100
AcDbEntity
  8
03__ASM_ALL_CURVES
100
AcDbLine
 62
40
  6
CONTINUOUS
 10
5.5295074809
 20
5.6529010576
 11
5.2408474809
 21
5.7010110576
  0
LINE
  5
39F
100
AcDbEntity
  8
03__ASM_ALL_CURVES
100
AcDbLine
 62
40
  6
CONTINUOUS
 10
5.8557534188
 20
5.8453410576
 11
5.8707877938
 21
5.8353181433
  0
LINE
  5
3A0
100
AcDbEntity
  8
03__ASM_ALL_CURVES
100
AcDbLine
 62
40
  6
CONTINUOUS
 10
8.2522974026
 20
4.4432550576
 11
8.2410216214
 21
4.4507722453
  0
LINE
  5
3A1
100
AcDbEntity
  8
03__ASM_ALL_CURVES
100
AcDbLine
 62
40
  6
CONTINUOUS
 10
6.4270596688
 20
5.7350889746
 11
6.4120252938
 21
5.7551348076
  0
LINE
  5
3A2
100
AcDbEntity
  8
03__ASM_ALL_CURVES
100
AcDbLine
 62
40
  6
CONTINUOUS
 10
6.4721627938
 20
5.8353181433
 11
6.4796799813
 21
5.8252952219
  0
LINE
  5
3A3
100
AcDbEntity
  8
03__ASM_ALL_CURVES
100
AcDbLine
 62
40
  6
CONTINUOUS
 10
6.8931252938
 20
5.7551348076
 11
6.8856081063
 21
5.7852035576
  0
LINE
  5
3A4
100
AcDbEntity
  8
0
100
AcDbLine
 62
7
  6
CONTINUOUS
 10
7.3121774809
 20
4.861072762
 11
7.3121774809
 21
4.8130010254
  0
LINE
  5
3A5
100
AcDbEntity
  8
0
100
AcDbLine
 62
7
  6
CONTINUOUS
 10
7.3121774809
 20
3.9773241573
 11
7.3121774809
 21
4.025399104
  0
LINE
  5
3A6
100
AcDbEntity
  8
0
100
AcDbLine
 62
7
  6
CONTINUOUS
 10
7.3121774809
 20
4.2727179547
 11
7.3121774809
 21
4.565605642
  0
LINE
  5
3A7
100
AcDbEntity
  8
0
100
AcDbLine
 62
7
  6
CONTINUOUS
 10
7.3201774809
 20
3.9785496096
 11
7.3201774809
 21
4.0230243997
  0
LINE
  5
3A8
100
AcDbEntity
  8
0
100
AcDbLine
 62
7
  6
CONTINUOUS
 10
7.3201774809
 20
4.2752906891
 11
7.3201774809
 21
4.563119227
  0
LINE
  5
3A9
100
AcDbEntity
  8
0
100
AcDbLine
 62
7
  6
CONTINUOUS
 10
7.3201774809
 20
4.8153757767
 11
7.3201774809
 21
4.8598563579
  0
LINE
  5
3AA
100
AcDbEntity
  8
0
100
AcDbLine
 62
7
  6
CONTINUOUS
 10
7.3761774809
 20
4.3158509981
 11
7.3761774809
 21
4.5226369604
  0
LINE
  5
3AB
100
AcDbEntity
  8
03__ASM_ALL_CURVES
100
AcDbLine
 62
40
  6
CONTINUOUS
 10
7.3817424813
 20
5.7250660576
 11
7.3817424813
 21
5.8453410576
  0
LINE
  5
3AC
100
AcDbEntity
  8
0
100
AcDbLine
 62
7
  6
CONTINUOUS
 10
7.3831774809
 20
4.3243406967
 11
7.3831774809
 21
4.5140370606
  0
LINE
  5
3AD
100
AcDbEntity
  8
0
100
AcDbLine
 62
7
  6
CONTINUOUS
 10
7.3931774809
 20
4.338728633
 11
7.3931774809
 21
4.4997790167
  0
LINE
  5
3AE
100
AcDbEntity
  8
0
100
AcDbLine
 62
7
  6
CONTINUOUS
 10
7.4001774809
 20
4.3517625894
 11
7.4001774809
 21
4.4866032742
  0
LINE
  5
3AF
100
AcDbEntity
  8
0
100
AcDbLine
 62
7
  6
CONTINUOUS
 10
7.4471774809
 20
5.230190555
 11
7.4471774809
 21
3.6082095602
  0
LINE
  5
3B0
100
AcDbEntity
  8
03__ASM_ALL_CURVES
100
AcDbLine
 62
40
  6
CONTINUOUS
 10
7.5020174813
 20
5.7250660576
 11
7.5020174813
 21
5.8453410576
  0
LINE
  5
3B1
100
AcDbEntity
  8
03__ASM_ALL_CURVES
100
AcDbLine
 62
40
  6
CONTINUOUS
 10
3.2185074809
 20
5.6929927243
 11
3.0741774809
 21
5.6769560576
  0
LINE
  5
3B2
100
AcDbEntity
  8
03__ASM_ALL_CURVES
100
AcDbLine
 62
40
  6
CONTINUOUS
 10
3.2185074809
 20
5.6889835576
 11
3.0741774809
 21
5.6769560576
  0
LINE
  5
3B3
100
AcDbEntity
  8
03__ASM_ALL_CURVES
100
AcDbLine
 62
40
  6
CONTINUOUS
 10
3.2185074809
 20
5.6849743909
 11
3.0741774809
 21
5.6769560576
  0
LINE
  5
3B4
100
AcDbEntity
  8
03__ASM_ALL_CURVES
100
AcDbLine
 62
40
  6
CONTINUOUS
 10
7.5396034188
 20
5.7852035576
 11
7.5020174813
 21
5.7852035576
  0
LINE
  5
3B5
100
AcDbEntity
  8
03__ASM_ALL_CURVES
100
AcDbLine
 62
40
  6
CONTINUOUS
 10
6.4496112313
 20
5.7852035576
 11
6.4796799813
 21
5.7852035576
  0
LINE
  5
3B6
100
AcDbEntity
  8
03__ASM_ALL_CURVES
100
AcDbLine
 62
40
  6
CONTINUOUS
 10
6.7803674813
 20
5.7852035576
 11
6.8405049813
 21
5.7852035576
  0
LINE
  5
3B7
100
AcDbEntity
  8
03__ASM_ALL_CURVES
100
AcDbLine
 62
40
  6
CONTINUOUS
 10
7.3817424813
 20
5.7852035576
 11
7.4193284188
 21
5.7852035576
  0
LINE
  5
3B8
100
AcDbEntity
  8
03__ASM_ALL_CURVES
100
AcDbLine
 62
40
  6
CONTINUOUS
 10
3.8613352934
 20
5.7952264719
 11
3.8763696684
 21
5.7952264719
  0
LINE
  5
3B9
100
AcDbEntity
  8
03__ASM_ALL_CURVES
100
AcDbLine
 62
40
  6
CONTINUOUS
 10
4.3424352934
 20
5.7952264719
 11
4.3574696684
 21
5.7952264719
  0
LINE
  5
3BA
100
AcDbEntity
  8
03__ASM_ALL_CURVES
100
AcDbLine
 62
40
  6
CONTINUOUS
 10
4.2221602934
 20
5.8052493933
 11
4.2371946684
 21
5.8052493933
  0
LINE
  5
3BB
100
AcDbEntity
  8
03__ASM_ALL_CURVES
100
AcDbLine
 62
40
  6
CONTINUOUS
 10
6.6976784188
 20
5.8453410576
 11
6.6826440438
 21
5.8453410576
  0
LINE
  5
3BC
100
AcDbEntity
  8
03__ASM_ALL_CURVES
100
AcDbLine
 62
40
  6
CONTINUOUS
 10
4.7408462309
 20
5.8453410576
 11
4.6807087309
 21
5.8453410576
  0
LINE
  5
3BD
100
AcDbEntity
  8
03__ASM_ALL_CURVES
100
AcDbLine
 62
40
  6
CONTINUOUS
 10
4.2597462309
 20
5.8453410576
 11
4.2146431059
 21
5.8453410576
  0
LINE
  5
3BE
100
AcDbEntity
  8
03__ASM_ALL_CURVES
100
AcDbLine
 62
40
  6
CONTINUOUS
 10
3.6207852934
 20
5.8453410576
 11
3.6358196684
 21
5.8453410576
  0
LINE
  5
3BF
100
AcDbEntity
  8
03__ASM_ALL_CURVES
100
AcDbLine
 62
40
  6
CONTINUOUS
 10
3.8613352934
 20
5.8453410576
 11
3.8763696684
 21
5.8453410576
  0
LINE
  5
3C0
100
AcDbEntity
  8
03__ASM_ALL_CURVES
100
AcDbLine
 62
40
  6
CONTINUOUS
 10
4.3424352934
 20
5.8453410576
 11
4.3574696684
 21
5.8453410576
  0
LINE
  5
3C1
100
AcDbEntity
  8
03__ASM_ALL_CURVES
100
AcDbLine
 62
40
  6
CONTINUOUS
 10
5.7204440438
 20
5.8453410576
 11
5.7354784188
 21
5.8453410576
  0
LINE
  5
3C2
100
AcDbEntity
  8
03__ASM_ALL_CURVES
100
AcDbLine
 62
40
  6
CONTINUOUS
 10
5.8407190438
 20
5.8453410576
 11
5.8557534188
 21
5.8453410576
  0
LINE
  5
3C3
100
AcDbEntity
  8
03__ASM_ALL_CURVES
100
AcDbLine
 62
40
  6
CONTINUOUS
 10
6.0512002938
 20
5.8453410576
 11
6.1263721688
 21
5.8453410576
  0
LINE
  5
3C4
100
AcDbEntity
  8
03__ASM_ALL_CURVES
100
AcDbLine
 62
40
  6
CONTINUOUS
 10
6.4420940438
 20
5.8453410576
 11
6.4571284188
 21
5.8453410576
  0
LINE
  5
3C5
100
AcDbEntity
  8
03__ASM_ALL_CURVES
100
AcDbLine
 62
40
  6
CONTINUOUS
 10
6.9231940438
 20
5.8453410576
 11
6.9382284188
 21
5.8453410576
  0
LINE
  5
3C6
100
AcDbEntity
  8
03__ASM_ALL_CURVES
100
AcDbLine
 62
40
  6
CONTINUOUS
 10
7.2614674813
 20
5.8453410576
 11
7.2915362313
 21
5.8453410576
  0
LINE
  5
3C7
100
AcDbEntity
  8
03__ASM_ALL_CURVES
100
AcDbLine
 62
40
  6
CONTINUOUS
 10
7.3817424813
 20
5.8453410576
 11
7.4418799813
 21
5.8453410576
  0
LINE
  5
3C8
100
AcDbEntity
  8
03__ASM_ALL_CURVES
100
AcDbLine
 62
40
  6
CONTINUOUS
 10
7.5020174813
 20
5.8453410576
 11
7.5396034188
 21
5.8453410576
  0
LINE
  5
3C9
100
AcDbEntity
  8
03__ASM_ALL_CURVES
100
AcDbLine
 62
40
  6
CONTINUOUS
 10
8.1733669339
 20
4.5334613076
 11
8.1846427151
 21
4.5259441219
  0
LINE
  5
3CA
100
AcDbEntity
  8
03__ASM_ALL_CURVES
100
AcDbLine
 62
40
  6
CONTINUOUS
 10
6.4420940438
 20
5.7250660576
 11
6.4270596688
 21
5.7350889746
  0
LINE
  5
3CB
100
AcDbEntity
  8
03__ASM_ALL_CURVES
100
AcDbLine
 62
40
  6
CONTINUOUS
 10
8.2635731839
 20
4.5334613076
 11
8.2748489651
 21
4.5259441219
  0
LINE
  5
3CC
100
AcDbEntity
  8
03__ASM_ALL_CURVES
100
AcDbLine
 62
40
  6
CONTINUOUS
 10
8.3537794339
 20
4.5334613076
 11
8.3650552151
 21
4.5259441219
  0
LINE
  5
3CD
100
AcDbEntity
  8
03__ASM_ALL_CURVES
100
AcDbLine
 62
40
  6
CONTINUOUS
 10
6.4571284188
 20
5.8453410576
 11
6.4721627938
 21
5.8353181433
  0
LINE
  5
3CE
100
AcDbEntity
  8
03__ASM_ALL_CURVES
100
AcDbLine
 62
40
  6
CONTINUOUS
 10
6.6826440438
 20
5.7250660576
 11
6.6676096688
 21
5.7350889746
  0
LINE
  5
3CF
100
AcDbEntity
  8
03__ASM_ALL_CURVES
100
AcDbLine
 62
40
  6
CONTINUOUS
 10
6.6676096688
 20
5.7350889746
 11
6.6525752938
 21
5.7551348076
  0
LINE
  5
3D0
100
AcDbEntity
  8
03__ASM_ALL_CURVES
100
AcDbLine
 62
40
  6
CONTINUOUS
 10
6.6600924813
 20
5.8152723076
 11
6.6676096688
 21
5.8052493933
  0
LINE
  5
3D1
100
AcDbEntity
  8
03__ASM_ALL_CURVES
100
AcDbLine
 62
40
  6
CONTINUOUS
 10
6.7127127938
 20
5.7751806397
 11
6.7202299813
 21
5.7651577255
  0
LINE
  5
3D2
100
AcDbEntity
  8
03__ASM_ALL_CURVES
100
AcDbLine
 62
40
  6
CONTINUOUS
 10
6.7202299813
 20
5.8252952219
 11
6.7127127938
 21
5.8353181433
  0
LINE
  5
3D3
100
AcDbEntity
  8
03__ASM_ALL_CURVES
100
AcDbLine
 62
40
  6
CONTINUOUS
 10
6.9682971688
 20
5.8152723076
 11
6.9758143563
 21
5.7852035576
  0
LINE
  5
3D4
100
AcDbEntity
  8
0
100
AcDbLine
 62
7
  6
CONTINUOUS
 10
7.5411774809
 20
3.6077000576
 11
7.5411774809
 21
5.2307000576
  0
LINE
  5
3D5
100
AcDbEntity
  8
03__ASM_ALL_CURVES
100
AcDbLine
 62
40
  6
CONTINUOUS
 10
7.5621549813
 20
5.8252952219
 11
7.5621549813
 21
5.8052493933
  0
LINE
  5
3D6
100
AcDbEntity
  8
0
100
AcDbLine
 62
7
  6
CONTINUOUS
 10
7.5911774809
 20
3.6077000576
 11
7.5911774809
 21
5.2307000576
  0
LINE
  5
3D7
100
AcDbEntity
  8
0
100
AcDbLine
 62
7
  6
CONTINUOUS
 10
7.6941774809
 20
3.6077000576
 11
7.6941774809
 21
5.2307000576
  0
LINE
  5
3D8
100
AcDbEntity
  8
03__ASM_ALL_CURVES
100
AcDbLine
 62
40
  6
CONTINUOUS
 10
7.1736763039
 20
2.7515453701
 11
7.1680384133
 21
2.7289938076
  0
LINE
  5
3D9
100
AcDbEntity
  8
03__ASM_ALL_CURVES
100
AcDbLine
 62
40
  6
CONTINUOUS
 10
6.8523165383
 20
2.7891313094
 11
6.8466786477
 21
2.7816141183
  0
LINE
  5
3DA
100
AcDbEntity
  8
03__ASM_ALL_CURVES
100
AcDbLine
 62
40
  6
CONTINUOUS
 10
6.8917817727
 20
2.7966484951
 11
6.9030575539
 21
2.8116828719
  0
LINE
  5
3DB
100
AcDbEntity
  8
03__ASM_ALL_CURVES
100
AcDbLine
 62
40
  6
CONTINUOUS
 10
8.1902806057
 20
4.5033925594
 11
8.1846427151
 21
4.4958753683
  0
LINE
  5
3DC
100
AcDbEntity
  8
03__ASM_ALL_CURVES
100
AcDbLine
 62
40
  6
CONTINUOUS
 10
8.2297458401
 20
4.5109097451
 11
8.2410216214
 21
4.5259441219
  0
LINE
  5
3DD
100
AcDbEntity
  8
03__ASM_ALL_CURVES
100
AcDbLine
 62
40
  6
CONTINUOUS
 10
6.9481606789
 20
2.7515453701
 11
6.9368848977
 21
2.7365109953
  0
LINE
  5
3DE
100
AcDbEntity
  8
03__ASM_ALL_CURVES
100
AcDbLine
 62
40
  6
CONTINUOUS
 10
8.2861247464
 20
4.4658066201
 11
8.2748489651
 21
4.4507722453
  0
LINE
  5
3DF
100
AcDbEntity
  8
03__ASM_ALL_CURVES
100
AcDbLine
 62
40
  6
CONTINUOUS
 10
7.0327290383
 20
2.7891313094
 11
7.0270911477
 21
2.7816141183
  0
LINE
  5
3E0
100
AcDbEntity
  8
03__ASM_ALL_CURVES
100
AcDbLine
 62
40
  6
CONTINUOUS
 10
6.8466786477
 20
2.7816141183
 11
6.8354028664
 21
2.7740969326
  0
LINE
  5
3E1
100
AcDbEntity
  8
03__ASM_ALL_CURVES
100
AcDbLine
 62
40
  6
CONTINUOUS
 10
6.9030575539
 20
2.8116828719
 11
6.9143333352
 21
2.8192000576
  0
LINE
  5
3E2
100
AcDbEntity
  8
03__ASM_ALL_CURVES
100
AcDbLine
 62
40
  6
CONTINUOUS
 10
3.0741774809
 20
5.6769560576
 11
3.2185074809
 21
5.7010110576
  0
LINE
  5
3E3
100
AcDbEntity
  8
03__ASM_ALL_CURVES
100
AcDbLine
 62
40
  6
CONTINUOUS
 10
3.2185074809
 20
5.6970018909
 11
3.0741774809
 21
5.6769560576
  0
LINE
  5
3E4
100
AcDbEntity
  8
03__ASM_ALL_CURVES
100
AcDbLine
 62
40
  6
CONTINUOUS
 10
6.6676096688
 20
5.8052493933
 11
6.7127127938
 21
5.7751806397
  0
LINE
  5
3E5
100
AcDbEntity
  8
03__ASM_ALL_CURVES
100
AcDbLine
 62
40
  6
CONTINUOUS
 10
6.7127127938
 20
5.8353181433
 11
6.6976784188
 21
5.8453410576
  0
LINE
  5
3E6
100
AcDbEntity
  8
03__ASM_ALL_CURVES
100
AcDbLine
 62
40
  6
CONTINUOUS
 10
6.9231940438
 20
5.7250660576
 11
6.9081596688
 21
5.7350889746
  0
LINE
  5
3E7
100
AcDbEntity
  8
03__ASM_ALL_CURVES
100
AcDbLine
 62
40
  6
CONTINUOUS
 10
7.0434690438
 20
5.7250660576
 11
7.0284346688
 21
5.7350889746
  0
LINE
  5
3E8
100
AcDbEntity
  8
03__ASM_ALL_CURVES
100
AcDbLine
 62
40
  6
CONTINUOUS
 10
6.9081596688
 20
5.7350889746
 11
6.8931252938
 21
5.7551348076
  0
LINE
  5
3E9
100
AcDbEntity
  8
03__ASM_ALL_CURVES
100
AcDbLine
 62
40
  6
CONTINUOUS
 10
7.0284346688
 20
5.7350889746
 11
7.0209174813
 21
5.7451118915
  0
LINE
  5
3EA
100
AcDbEntity
  8
03__ASM_ALL_CURVES
100
AcDbLine
 62
40
  6
CONTINUOUS
 10
6.9532627938
 20
5.8353181433
 11
6.9682971688
 21
5.8152723076
  0
LINE
  5
3EB
100
AcDbEntity
  8
03__ASM_ALL_CURVES
100
AcDbLine
 62
40
  6
CONTINUOUS
 10
7.3216049813
 20
5.8152723076
 11
7.3291221688
 21
5.7852035576
  0
LINE
  5
3EC
100
AcDbEntity
  8
0
100
AcDbLine
 62
7
  6
CONTINUOUS
 10
7.7441774809
 20
3.6077000576
 11
7.7441774809
 21
5.2307000576
  0
LINE
  5
3ED
100
AcDbEntity
  8
0
100
AcDbLine
 62
7
  6
CONTINUOUS
 10
7.7841774809
 20
5.230190555
 11
7.7841774809
 21
3.6082095602
  0
LINE
  5
3EE
100
AcDbEntity
  8
0
100
AcDbLine
 62
7
  6
CONTINUOUS
 10
7.8541774809
 20
3.6082000576
 11
7.8541774809
 21
5.2302000576
  0
LINE
  5
3EF
100
AcDbEntity
  8
0
100
AcDbLine
 62
7
  6
CONTINUOUS
 10
7.8851774809
 20
3.6392136909
 11
7.8851774809
 21
5.1991864243
  0
LINE
  5
3F0
100
AcDbEntity
  8
03__ASM_ALL_CURVES
100
AcDbLine
 62
40
  6
CONTINUOUS
 10
8.3706931057
 20
4.5033925594
 11
8.3650552151
 21
4.4958753683
  0
LINE
  5
3F1
100
AcDbEntity
  8
03__ASM_ALL_CURVES
100
AcDbLine
 62
40
  6
CONTINUOUS
 10
7.1680384133
 20
2.8041656808
 11
7.1736763039
 21
2.8116828719
  0
LINE
  5
3F2
100
AcDbEntity
  8
03__ASM_ALL_CURVES
100
AcDbLine
 62
40
  6
CONTINUOUS
 10
7.1849520852
 20
2.7665797442
 11
7.1736763039
 21
2.7515453701
  0
LINE
  5
3F3
100
AcDbEntity
  8
03__ASM_ALL_CURVES
100
AcDbLine
 62
40
  6
CONTINUOUS
 10
7.2131415383
 20
2.7891313094
 11
7.2075036477
 21
2.7816141183
  0
LINE
  5
3F4
100
AcDbEntity
  8
0
100
AcDbLine
 62
7
  6
CONTINUOUS
 10
7.8541774809
 20
3.6082000576
 11
7.8851774809
 21
3.6392000576
  0
LINE
  5
3F5
100
AcDbEntity
  8
03__ASM_ALL_CURVES
100
AcDbLine
 62
40
  6
CONTINUOUS
 10
6.9368848977
 20
2.7365109953
 11
6.9256091164
 21
2.7289938076
  0
LINE
  5
3F6
100
AcDbEntity
  8
03__ASM_ALL_CURVES
100
AcDbLine
 62
40
  6
CONTINUOUS
 10
7.0270911477
 20
2.7816141183
 11
7.0158153664
 21
2.7740969326
  0
LINE
  5
3F7
100
AcDbEntity
  8
03__ASM_ALL_CURVES
100
AcDbLine
 62
40
  6
CONTINUOUS
 10
7.1736763039
 20
2.8116828719
 11
7.1849520852
 21
2.8192000576
  0
LINE
  5
3F8
100
AcDbEntity
  8
03__ASM_ALL_CURVES
100
AcDbLine
 62
40
  6
CONTINUOUS
 10
7.2075036477
 20
2.7816141183
 11
7.1849520852
 21
2.7665797442
  0
LINE
  5
3F9
100
AcDbEntity
  8
03__ASM_ALL_CURVES
100
AcDbLine
 62
40
  6
CONTINUOUS
 10
6.9382284188
 20
5.8453410576
 11
6.9532627938
 21
5.8353181433
  0
LINE
  5
3FA
100
AcDbEntity
  8
0
100
AcDbLine
 62
7
  6
CONTINUOUS
 10
7.8541774809
 20
5.2302000576
 11
7.8851774809
 21
5.1992000576
  0
LINE
  5
3FB
100
AcDbEntity
  8
03__ASM_ALL_CURVES
100
AcDbLine
 62
40
  6
CONTINUOUS
 10
8.2410216214
 20
4.4507722453
 11
8.2297458401
 21
4.4658066201
  0
LINE
  5
3FC
100
AcDbEntity
  8
03__ASM_ALL_CURVES
100
AcDbLine
 62
40
  6
CONTINUOUS
 10
8.1846427151
 20
4.5259441219
 11
8.1902806057
 21
4.5184269308
  0
LINE
  5
3FD
100
AcDbEntity
  8
03__ASM_ALL_CURVES
100
AcDbLine
 62
40
  6
CONTINUOUS
 10
8.2748489651
 20
4.5259441219
 11
8.2861247464
 21
4.5109097451
  0
LINE
  5
3FE
100
AcDbEntity
  8
03__ASM_ALL_CURVES
100
AcDbLine
 62
40
  6
CONTINUOUS
 10
8.2241079495
 20
4.4883581826
 11
8.2297458401
 21
4.5109097451
  0
LINE
  5
3FF
100
AcDbEntity
  8
03__ASM_ALL_CURVES
100
AcDbLine
 62
40
  6
CONTINUOUS
 10
7.2915362313
 20
5.8453410576
 11
7.3065706063
 21
5.8353181433
  0
LINE
  5
400
100
AcDbEntity
  8
03__ASM_ALL_CURVES
100
AcDbLine
 62
40
  6
CONTINUOUS
 10
7.5396034188
 20
5.8453410576
 11
7.5546377938
 21
5.8353181433
  0
LINE
  5
401
100
AcDbEntity
  8
03__ASM_ALL_CURVES
100
AcDbLine
 62
40
  6
CONTINUOUS
 10
7.3065706063
 20
5.8353181433
 11
7.3216049813
 21
5.8152723076
  0
LINE
  5
402
100
AcDbEntity
  8
03__ASM_ALL_CURVES
100
AcDbLine
 62
40
  6
CONTINUOUS
 10
8.3650552151
 20
4.5259441219
 11
8.3706931057
 21
4.5184269308
  0
LINE
  5
403
100
AcDbEntity
  8
03__ASM_ALL_CURVES
100
AcDbLine
 62
40
  6
CONTINUOUS
 10
7.5396034188
 20
5.7852035576
 11
7.5621549813
 21
5.7250660576
  0
LINE
  5
404
100
AcDbEntity
  8
03__ASM_ALL_CURVES
100
AcDbLine
 62
40
  6
CONTINUOUS
 10
8.1451774807
 20
4.4432550576
 11
8.1451774807
 21
4.5334613076
  0
LINE
  5
405
100
AcDbEntity
  8
03__ASM_ALL_CURVES
100
AcDbLine
 62
40
  6
CONTINUOUS
 10
8.1902806057
 20
4.5184269308
 11
8.1902806057
 21
4.5033925594
  0
LINE
  5
406
100
AcDbEntity
  8
03__ASM_ALL_CURVES
100
AcDbLine
 62
40
  6
CONTINUOUS
 10
8.3255899807
 20
4.4432550576
 11
8.3255899807
 21
4.5334613076
  0
LINE
  5
407
100
AcDbEntity
  8
03__ASM_ALL_CURVES
100
AcDbLine
 62
40
  6
CONTINUOUS
 10
8.291762637
 20
4.4883581826
 11
8.2861247464
 21
4.4658066201
  0
LINE
  5
408
100
AcDbEntity
  8
03__ASM_ALL_CURVES
100
AcDbLine
 62
40
  6
CONTINUOUS
 10
7.5546377938
 20
5.8353181433
 11
7.5621549813
 21
5.8252952219
  0
LINE
  5
409
100
AcDbEntity
  8
03__ASM_ALL_CURVES
100
AcDbLine
 62
40
  6
CONTINUOUS
 10
8.3537794339
 20
4.4883581826
 11
8.3706931057
 21
4.4432550576
  0
LINE
  5
40A
100
AcDbEntity
  8
03__ASM_ALL_CURVES
100
AcDbLine
 62
40
  6
CONTINUOUS
 10
8.2297458401
 20
4.4658066201
 11
8.2241079495
 21
4.4883581826
  0
LINE
  5
40B
100
AcDbEntity
  8
03__ASM_ALL_CURVES
100
AcDbLine
 62
40
  6
CONTINUOUS
 10
8.2861247464
 20
4.5109097451
 11
8.291762637
 21
4.4883581826
  0
LINE
  5
40C
100
AcDbEntity
  8
03__ASM_ALL_CURVES
100
AcDbLine
 62
40
  6
CONTINUOUS
 10
8.3706931057
 20
4.5184269308
 11
8.3706931057
 21
4.5033925594
  0
LINE
  5
40D
100
AcDbEntity
  8
03__ASM_ALL_CURVES
100
AcDbLine
 62
40
  6
CONTINUOUS
 10
8.4383477932
 20
4.5334613076
 11
8.4383477932
 21
4.4432550576
  0
LINE
  5
40E
100
AcDbEntity
  8
03__ASM_ALL_CURVES
100
AcDbLine
 62
40
  6
CONTINUOUS
 10
8.5285540432
 20
4.5334613076
 11
8.5285540432
 21
4.4432550576
  0
CIRCLE
  5
40F
100
AcDbEntity
  8
0
100
AcDbCircle
 62
7
  6
CONTINUOUS
 10
7.2601774809
 20
4.4192000576
 40
0.156
  0
ARC
  5
410
100
AcDbEntity
  8
0
100
AcDbCircle
 62
7
  6
CONTINUOUS
 10
7.1661774809
 20
4.4192000576
 40
0.1405
100
AcDbArc
 50
279.3498235622
 51
80.6214475805
  0
ARC
  5
411
100
AcDbEntity
  8
0
100
AcDbCircle
 62
7
  6
CONTINUOUS
 10
5.5785414521
 20
3.5252000576
 40
0.028
100
AcDbArc
 50
9.2483578148
 51
76.1357483967
  0
ARC
  5
412
100
AcDbEntity
  8
0
100
AcDbCircle
 62
7
  6
CONTINUOUS
 10
5.5785414521
 20
5.3132000576
 40
0.028
100
AcDbArc
 50
283.8642516033
 51
350.7516421852
  0
SPLINE
  5
413
100
AcDbEntity
  8
0
100
AcDbSpline
 62
7
  6
CONTINUOUS
 70
0
 71
3
 72
15
 73
11
 74
9
 42
0.0000001
 43
0.0000001
 44
0.0000000001
 12
0.0
 22
0.1617702498
 32
0.0
 13
0.0
 23
-0.1617702498
 33
0.0
 40
0.0
 40
0.0
 40
0.0
 40
0.0
 40
0.125
 40
0.25
 40
0.375
 40
0.5
 40
0.625
 40
0.75
 40
0.875
 40
1.0
 40
1.0
 40
1.0
 40
1.0
 10
7.6941774809
 20
5.1942000576
 30
0.0
 10
7.6941774809
 20
5.2009404847
 30
0.0
 10
7.6914959723
 20
5.2144213388
 30
0.0
 10
7.6800415366
 20
5.2315641133
 30
0.0
 10
7.6628987621
 20
5.243018549
 30
0.0
 10
7.6426774809
 20
5.2470408119
 30
0.0
 10
7.6224561997
 20
5.243018549
 30
0.0
 10
7.6053134252
 20
5.2315641133
 30
0.0
 10
7.5938589895
 20
5.2144213388
 30
0.0
 10
7.5911774809
 20
5.2009404847
 30
0.0
 10
7.5911774809
 20
5.1942000576
 30
0.0
 11
7.6941774809
 21
5.1942000576
 31
0.0
 11
7.6902572768
 21
5.2139082544
 31
0.0
 11
7.6790934801
 21
5.2306160568
 31
0.0
 11
7.6623856777
 21
5.2417798535
 31
0.0
 11
7.6426774809
 21
5.2457000576
 31
0.0
 11
7.6229692841
 21
5.2417798535
 31
0.0
 11
7.6062614817
 21
5.2306160568
 31
0.0
 11
7.595097685
 21
5.2139082544
 31
0.0
 11
7.5911774809
 21
5.1942000576
 31
0.0
  0
SPLINE
  5
414
100
AcDbEntity
  8
0
100
AcDbSpline
 62
7
  6
CONTINUOUS
 70
0
 71
3
 72
15
 73
11
 74
9
 42
0.0000001
 43
0.0000001
 44
0.0000000001
 12
0.0
 22
-0.1617702498
 32
0.0
 13
0.0
 23
0.1617702498
 33
0.0
 40
0.0
 40
0.0
 40
0.0
 40
0.0
 40
0.125
 40
0.25
 40
0.375
 40
0.5
 40
0.625
 40
0.75
 40
0.875
 40
1.0
 40
1.0
 40
1.0
 40
1.0
 10
7.6941774809
 20
3.6442000576
 30
0.0
 10
7.6941774809
 20
3.6374596305
 30
0.0
 10
7.6914959723
 20
3.6239787764
 30
0.0
 10
7.6800415366
 20
3.6068360019
 30
0.0
 10
7.6628987621
 20
3.5953815662
 30
0.0
 10
7.6426774809
 20
3.5913593033
 30
0.0
 10
7.6224561997
 20
3.5953815662
 30
0.0
 10
7.6053134252
 20
3.6068360019
 30
0.0
 10
7.5938589895
 20
3.6239787764
 30
0.0
 10
7.5911774809
 20
3.6374596305
 30
0.0
 10
7.5911774809
 20
3.6442000576
 30
0.0
 11
7.6941774809
 21
3.6442000576
 31
0.0
 11
7.6902572768
 21
3.6244918608
 31
0.0
 11
7.6790934801
 21
3.6077840584
 31
0.0
 11
7.6623856777
 21
3.5966202617
 31
0.0
 11
7.6426774809
 21
3.5927000576
 31
0.0
 11
7.6229692841
 21
3.5966202617
 31
0.0
 11
7.6062614817
 21
3.6077840584
 31
0.0
 11
7.595097685
 21
3.6244918608
 31
0.0
 11
7.5911774809
 21
3.6442000576
 31
0.0
  0
SPLINE
  5
415
100
AcDbEntity
  8
0
100
AcDbSpline
 62
7
  6
CONTINUOUS
 70
0
 71
3
 72
15
 73
11
 74
9
 42
0.0000001
 43
0.0000001
 44
0.0000000001
 12
0.0
 22
0.1617702498
 32
0.0
 13
-0.0
 23
-0.1617702498
 33
0.0
 40
0.0
 40
0.0
 40
0.0
 40
0.0
 40
0.125
 40
0.25
 40
0.375
 40
0.5
 40
0.625
 40
0.75
 40
0.875
 40
1.0
 40
1.0
 40
1.0
 40
1.0
 10
5.5351774809
 20
5.3367000576
 30
0.0
 10
5.5351774809
 20
5.3434404847
 30
0.0
 10
5.5324959723
 20
5.3569213388
 30
0.0
 10
5.5210415366
 20
5.3740641133
 30
0.0
 10
5.5038987621
 20
5.385518549
 30
0.0
 10
5.4836774809
 20
5.3895408119
 30
0.0
 10
5.4634561997
 20
5.385518549
 30
0.0
 10
5.4463134252
 20
5.3740641133
 30
0.0
 10
5.4348589895
 20
5.3569213388
 30
0.0
 10
5.4321774809
 20
5.3434404847
 30
0.0
 10
5.4321774809
 20
5.3367000576
 30
0.0
 11
5.5351774809
 21
5.3367000576
 31
0.0
 11
5.5312572768
 21
5.3564082544
 31
0.0
 11
5.5200934801
 21
5.3731160568
 31
0.0
 11
5.5033856777
 21
5.3842798535
 31
0.0
 11
5.4836774809
 21
5.3882000576
 31
0.0
 11
5.4639692841
 21
5.3842798535
 31
0.0
 11
5.4472614817
 21
5.3731160568
 31
0.0
 11
5.436097685
 21
5.3564082544
 31
0.0
 11
5.4321774809
 21
5.3367000576
 31
0.0
  0
SPLINE
  5
416
100
AcDbEntity
  8
0
100
AcDbSpline
 62
7
  6
CONTINUOUS
 70
0
 71
3
 72
15
 73
11
 74
9
 42
0.0000001
 43
0.0000001
 44
0.0000000001
 12
0.0
 22
-0.1617702498
 32
0.0
 13
-0.0
 23
0.1617702498
 33
0.0
 40
0.0
 40
0.0
 40
0.0
 40
0.0
 40
0.125
 40
0.25
 40
0.375
 40
0.5
 40
0.625
 40
0.75
 40
0.875
 40
1.0
 40
1.0
 40
1.0
 40
1.0
 10
5.5351774809
 20
3.5017000576
 30
0.0
 10
5.5351774809
 20
3.4949596305
 30
0.0
 10
5.5324959723
 20
3.4814787764
 30
0.0
 10
5.5210415366
 20
3.4643360019
 30
0.0
 10
5.5038987621
 20
3.4528815662
 30
0.0
 10
5.4836774809
 20
3.4488593033
 30
0.0
 10
5.4634561997
 20
3.4528815662
 30
0.0
 10
5.4463134252
 20
3.4643360019
 30
0.0
 10
5.4348589895
 20
3.4814787764
 30
0.0
 10
5.4321774809
 20
3.4949596305
 30
0.0
 10
5.4321774809
 20
3.5017000576
 30
0.0
 11
5.5351774809
 21
3.5017000576
 31
0.0
 11
5.5312572768
 21
3.4819918608
 31
0.0
 11
5.5200934801
 21
3.4652840584
 31
0.0
 11
5.5033856777
 21
3.4541202617
 31
0.0
 11
5.4836774809
 21
3.4502000576
 31
0.0
 11
5.4639692841
 21
3.4541202617
 31
0.0
 11
5.4472614817
 21
3.4652840584
 31
0.0
 11
5.436097685
 21
3.4819918608
 31
0.0
 11
5.4321774809
 21
3.5017000576
 31
0.0
  0
SPLINE
  5
417
100
AcDbEntity
  8
0
100
AcDbSpline
 62
7
  6
CONTINUOUS
 70
0
 71
3
 72
15
 73
11
 74
9
 42
0.0000001
 43
0.0000001
 44
0.0000000001
 12
0.0
 22
0.1617702498
 32
0.0
 13
-0.0
 23
-0.1617702498
 33
0.0
 40
0.0
 40
0.0
 40
0.0
 40
0.0
 40
0.125
 40
0.25
 40
0.375
 40
0.5
 40
0.625
 40
0.75
 40
0.875
 40
1.0
 40
1.0
 40
1.0
 40
1.0
 10
4.4761774809
 20
5.4122000576
 30
0.0
 10
4.4761774809
 20
5.4189404847
 30
0.0
 10
4.4734959723
 20
5.4324213388
 30
0.0
 10
4.4620415366
 20
5.4495641133
 30
0.0
 10
4.4448987621
 20
5.461018549
 30
0.0
 10
4.4246774809
 20
5.4650408119
 30
0.0
 10
4.4044561997
 20
5.461018549
 30
0.0
 10
4.3873134252
 20
5.4495641133
 30
0.0
 10
4.3758589895
 20
5.4324213388
 30
0.0
 10
4.3731774809
 20
5.4189404847
 30
0.0
 10
4.3731774809
 20
5.4122000576
 30
0.0
 11
4.4761774809
 21
5.4122000576
 31
0.0
 11
4.4722572768
 21
5.4319082544
 31
0.0
 11
4.4610934801
 21
5.4486160568
 31
0.0
 11
4.4443856777
 21
5.4597798535
 31
0.0
 11
4.4246774809
 21
5.4637000576
 31
0.0
 11
4.4049692841
 21
5.4597798535
 31
0.0
 11
4.3882614817
 21
5.4486160568
 31
0.0
 11
4.377097685
 21
5.4319082544
 31
0.0
 11
4.3731774809
 21
5.4122000576
 31
0.0
  0
SPLINE
  5
418
100
AcDbEntity
  8
0
100
AcDbSpline
 62
7
  6
CONTINUOUS
 70
0
 71
3
 72
15
 73
11
 74
9
 42
0.0000001
 43
0.0000001
 44
0.0000000001
 12
0.0
 22
-0.1617702498
 32
0.0
 13
-0.0
 23
0.1617702498
 33
0.0
 40
0.0
 40
0.0
 40
0.0
 40
0.0
 40
0.125
 40
0.25
 40
0.375
 40
0.5
 40
0.625
 40
0.75
 40
0.875
 40
1.0
 40
1.0
 40
1.0
 40
1.0
 10
4.4761774809
 20
3.4262000576
 30
0.0
 10
4.4761774809
 20
3.4194596305
 30
0.0
 10
4.4734959723
 20
3.4059787764
 30
0.0
 10
4.4620415366
 20
3.3888360019
 30
0.0
 10
4.4448987621
 20
3.3773815662
 30
0.0
 10
4.4246774809
 20
3.3733593033
 30
0.0
 10
4.4044561997
 20
3.3773815662
 30
0.0
 10
4.3873134252
 20
3.3888360019
 30
0.0
 10
4.3758589895
 20
3.4059787764
 30
0.0
 10
4.3731774809
 20
3.4194596305
 30
0.0
 10
4.3731774809
 20
3.4262000576
 30
0.0
 11
4.4761774809
 21
3.4262000576
 31
0.0
 11
4.4722572768
 21
3.4064918608
 31
0.0
 11
4.4610934801
 21
3.3897840584
 31
0.0
 11
4.4443856777
 21
3.3786202617
 31
0.0
 11
4.4246774809
 21
3.3747000576
 31
0.0
 11
4.4049692841
 21
3.3786202617
 31
0.0
 11
4.3882614817
 21
3.3897840584
 31
0.0
 11
4.377097685
 21
3.4064918608
 31
0.0
 11
4.3731774809
 21
3.4262000576
 31
0.0
  0
SPLINE
  5
419
100
AcDbEntity
  8
0
100
AcDbSpline
 62
7
  6
CONTINUOUS
 70
0
 71
3
 72
14
 73
10
 74
8
 42
0.0000001
 43
0.0000001
 44
0.0000000001
 12
0.1227388978
 22
-0.0080035754
 32
0.0
 13
0.0008507457
 23
-0.1238841341
 33
0.0
 40
0.0
 40
0.0
 40
0.0
 40
0.0
 40
0.1437376623
 40
0.3608968763
 40
0.546157235
 40
0.7005609232
 40
0.8302495778
 40
0.9448528723
 40
1.0
 40
1.0
 40
1.0
 40
1.0
 10
7.2046861928
 20
4.8607588393
 30
0.0
 10
7.2105669269
 20
4.8603753675
 30
0.0
 10
7.2253146
 20
4.8591481003
 30
0.0
 10
7.247514155
 20
4.8560440299
 30
0.0
 10
7.2697172087
 20
4.8504573667
 30
0.0
 10
7.287441469
 20
4.8426507533
 30
0.0
 10
7.300343951
 20
4.8320663584
 30
0.0
 10
7.3059311922
 20
4.8206292349
 30
0.0
 10
7.3066544116
 20
4.8136415403
 30
0.0
 10
7.3066700503
 20
4.8113642556
 30
0.0
 11
7.2046861928
 21
4.8607588393
 31
0.0
 11
7.2223018748
 21
4.8592670888
 31
0.0
 11
7.2487202376
 21
4.8553530164
 31
0.0
 11
7.2707342659
 21
4.8494809188
 31
0.0
 11
7.2879215067
 21
4.8414076407
 31
0.0
 11
7.2998887278
 21
4.8308639583
 31
0.0
 11
7.3059265438
 21
4.8181285521
 31
0.0
 11
7.3066700503
 21
4.8113642556
 31
0.0
  0
SPLINE
  5
41A
100
AcDbEntity
  8
0
100
AcDbSpline
 62
7
  6
CONTINUOUS
 70
0
 71
3
 72
8
 73
4
 74
2
 42
0.0000001
 43
0.0000001
 44
0.0000000001
 12
0.000001923
 22
-0.0002800187
 32
0.0
 13
-0.0000002797
 23
-0.0002800816
 33
0.0
 40
0.0
 40
0.0
 40
0.0
 40
0.0
 40
1.0
 40
1.0
 40
1.0
 40
1.0
 10
7.3066700503
 20
4.8113642556
 30
0.0
 10
7.3066706913
 20
4.811270916
 30
0.0
 10
7.3066709639
 20
4.8111775644
 30
0.0
 10
7.3066708707
 20
4.8110842039
 30
0.0
 11
7.3066700503
 21
4.8113642556
 31
0.0
 11
7.3066708707
 21
4.8110842039
 31
0.0
  0
SPLINE
  5
41B
100
AcDbEntity
  8
0
100
AcDbSpline
 62
7
  6
CONTINUOUS
 70
0
 71
3
 72
8
 73
4
 74
2
 42
0.0000001
 43
0.0000001
 44
0.0000000001
 12
0.0000002622
 22
-0.0002778263
 32
0.0
 13
-0.0000019054
 23
-0.0002777642
 33
0.0
 40
0.0
 40
0.0
 40
0.0
 40
0.0
 40
1.0
 40
1.0
 40
1.0
 40
1.0
 10
7.3066708821
 20
4.0273136491
 30
0.0
 10
7.3066709695
 20
4.0272210403
 30
0.0
 10
7.3066706969
 20
4.0271284404
 30
0.0
 10
7.3066700618
 20
4.0270358523
 30
0.0
 11
7.3066708821
 21
4.0273136491
 31
0.0
 11
7.3066700618
 21
4.0270358523
 31
0.0
  0
SPLINE
  5
41C
100
AcDbEntity
  8
0
100
AcDbSpline
 62
7
  6
CONTINUOUS
 70
0
 71
3
 72
14
 73
10
 74
8
 42
0.0000001
 43
0.0000001
 44
0.0000000001
 12
-0.000849708
 22
-0.123865154
 32
0.0
 13
-0.1227222491
 23
-0.0080061006
 33
0.0
 40
0.0
 40
0.0
 40
0.0
 40
0.0
 40
0.0550151019
 40
0.1694603791
 40
0.2989292219
 40
0.4530452414
 40
0.6379452975
 40
0.8547653728
 40
1.0
 40
1.0
 40
1.0
 40
1.0
 10
7.3066700618
 20
4.0270358523
 30
0.0
 10
7.3066544795
 20
4.0247643676
 30
0.0
 10
7.305934299
 20
4.0177896566
 30
0.0
 10
7.300368974
 20
4.0063691323
 30
0.0
 10
7.2875028822
 20
3.9957877687
 30
0.0
 10
7.2698212379
 20
3.987978673
 30
0.0
 10
7.2476647663
 20
3.9823852954
 30
0.0
 10
7.2254374931
 20
3.9792642276
 30
0.0
 10
7.2106447192
 20
3.9780299836
 30
0.0
 10
7.2047035458
 20
3.9776423959
 30
0.0
 11
7.3066700618
 21
4.0270358523
 31
0.0
 11
7.3059302528
 21
4.0202884577
 31
0.0
 11
7.2999126424
 21
4.0075671002
 31
0.0
 11
7.2879793534
 21
3.9970290842
 31
0.0
 11
7.2708346126
 21
3.988954617
 31
0.0
 11
7.2488710451
 21
3.9830772824
 31
0.0
 11
7.2224998717
 21
3.9791540302
 31
0.0
 11
7.2047035458
 21
3.9776423959
 31
0.0
  0
SPLINE
  5
41D
100
AcDbEntity
  8
0
100
AcDbSpline
 62
7
  6
CONTINUOUS
 70
0
 71
3
 72
14
 73
10
 74
8
 42
0.0000001
 43
0.0000001
 44
0.0000000001
 12
-0.2174036545
 22
0.0
 32
0.0
 13
0.000134384
 23
-0.218235612
 33
0.0
 40
0.0
 40
0.0
 40
0.0
 40
0.0
 40
0.1590178562
 40
0.3170069555
 40
0.4717498287
 40
0.6198008871
 40
0.7577303451
 40
0.8839535806
 40
1.0
 40
1.0
 40
1.0
 40
1.0
 10
7.2601774809
 20
4.0339343013
 30
0.0
 10
7.2486537932
 20
4.0339343013
 30
0.0
 10
7.2256198578
 20
4.0317217683
 30
0.0
 10
7.1926465123
 20
4.021955978
 30
0.0
 10
7.1628571131
 20
4.0063955585
 30
0.0
 10
7.1378564945
 20
3.9861641634
 30
0.0
 10
7.1189572943
 20
3.9627113182
 30
0.0
 10
7.1070771909
 20
3.937520504
 30
0.0
 10
7.1041722821
 20
3.9199392028
 30
0.0
 10
7.1041774804
 20
3.9114973823
 30
0.0
 11
7.2601774809
 21
4.0339343013
 31
0.0
 11
7.2257656499
 21
4.0306200452
 31
0.0
 11
7.1928383468
 21
4.0208457363
 31
0.0
 11
7.1630510671
 21
4.0052098907
 31
0.0
 11
7.1381160181
 21
3.9848571003
 31
0.0
 11
7.1194722322
 21
3.9613711145
 31
0.0
 11
7.1080255654
 21
3.9364311095
 31
0.0
 11
7.1041774804
 21
3.9114973823
 31
0.0
  0
SPLINE
  5
41E
100
AcDbEntity
  8
0
100
AcDbSpline
 62
7
  6
CONTINUOUS
 70
0
 71
3
 72
14
 73
10
 74
8
 42
0.0000001
 43
0.0000001
 44
0.0000000001
 12
0.2174036538
 22
0.0
 32
0.0
 13
-0.0001343782
 23
0.2182356118
 33
0.0
 40
0.0
 40
0.0
 40
0.0
 40
0.0
 40
0.1590172011
 40
0.3170058297
 40
0.4717483082
 40
0.6197991931
 40
0.7577289398
 40
0.8839528223
 40
1.0
 40
1.0
 40
1.0
 40
1.0
 10
7.2601774809
 20
4.8044658139
 30
0.0
 10
7.2717011211
 20
4.8044658139
 30
0.0
 10
7.2947349741
 20
4.8066783298
 30
0.0
 10
7.3277082226
 20
4.8164440523
 30
0.0
 10
7.3574975794
 20
4.8320043863
 30
0.0
 10
7.382498226
 20
4.8522357123
 30
0.0
 10
7.4013975202
 20
4.8756885531
 30
0.0
 10
7.4132777346
 20
4.9008794533
 30
0.0
 10
7.4161826795
 20
4.9184608579
 30
0.0
 10
7.4161774814
 20
4.9269027335
 30
0.0
 11
7.2601774809
 21
4.8044658139
 31
0.0
 11
7.2945891713
 21
4.8077800427
 31
0.0
 11
7.3275163869
 21
4.8175542863
 31
0.0
 11
7.3573036171
 21
4.8331900414
 31
0.0
 11
7.3822386828
 21
4.8535427515
 31
0.0
 11
7.4008825676
 21
4.8770287388
 31
0.0
 11
7.4123293478
 21
4.9019688464
 31
0.0
 11
7.4161774814
 21
4.9269027335
 31
0.0
  0
SPLINE
  5
41F
100
AcDbEntity
  8
0
100
AcDbSpline
 62
7
  6
CONTINUOUS
 70
0
 71
3
 72
11
 73
7
 74
5
 42
0.0000001
 43
0.0000001
 44
0.0000000001
 12
0.0992955001
 22
-0.0529794512
 32
0.0
 13
0.1123799887
 23
0.0
 33
0.0
 40
0.0
 40
0.0
 40
0.0
 40
0.0
 40
0.218085281
 40
0.4653296692
 40
0.7285456562
 40
1.0
 40
1.0
 40
1.0
 40
1.0
 10
7.1511089521
 20
3.9954160395
 30
0.0
 10
7.1583272477
 20
3.9915646933
 30
0.0
 10
7.174462761
 20
3.9847815706
 30
0.0
 10
7.2009256998
 20
3.9778151912
 30
0.0
 10
7.2299665492
 20
3.9736275335
 30
0.0
 10
7.2500088022
 20
3.9727075656
 30
0.0
 10
7.2601774809
 20
3.9727075656
 30
0.0
 11
7.1511089521
 21
3.9954160395
 31
0.0
 11
7.1736200485
 21
3.9857192041
 31
0.0
 11
7.2004434895
 21
3.9784716452
 31
0.0
 11
7.22970522
 21
3.9741426815
 31
0.0
 11
7.2601774809
 21
3.9727075656
 31
0.0
  0
SPLINE
  5
420
100
AcDbEntity
  8
0
100
AcDbSpline
 62
7
  6
CONTINUOUS
 70
0
 71
3
 72
11
 73
7
 74
5
 42
0.0000001
 43
0.0000001
 44
0.0000000001
 12
-0.1123843554
 22
0.0
 32
0.0
 13
-0.0992993054
 23
-0.0529845227
 33
0.0
 40
0.0
 40
0.0
 40
0.0
 40
0.0
 40
0.271031661
 40
0.5338803703
 40
0.7808694587
 40
1.0
 40
1.0
 40
1.0
 40
1.0
 10
7.2601774809
 20
4.8656925496
 30
0.0
 10
7.2500242414
 20
4.8656925496
 30
0.0
 10
7.2300108673
 20
4.8647752681
 30
0.0
 10
7.2010069461
 20
4.8605996203
 30
0.0
 10
7.1745248242
 20
4.8536407947
 30
0.0
 10
7.1583584102
 20
4.8468522494
 30
0.0
 10
7.15110524
 20
4.8429820737
 30
0.0
 11
7.2601774809
 21
4.8656925496
 31
0.0
 11
7.2297513814
 21
4.8642618436
 31
0.0
 11
7.2005282985
 21
4.859945836
 31
0.0
 11
7.1737280953
 21
4.8527181432
 31
0.0
 11
7.15110524
 21
4.8429820737
 31
0.0
  0
SPLINE
  5
421
100
AcDbEntity
  8
0
100
AcDbSpline
 62
7
  6
CONTINUOUS
 70
0
 71
3
 72
14
 73
10
 74
8
 42
0.0000001
 43
0.0000001
 44
0.0000000001
 12
0.0001343628
 22
0.218235613
 32
0.0
 13
-0.2174036516
 23
0.0
 33
0.0
 40
0.0
 40
0.0
 40
0.0
 40
0.0
 40
0.1160495366
 40
0.2422755693
 40
0.380205849
 40
0.5282560033
 40
0.6829988886
 40
0.8409868615
 40
1.0
 40
1.0
 40
1.0
 40
1.0
 10
7.4161774816
 20
3.9114973801
 30
0.0
 10
7.4161826791
 20
3.9199394274
 30
0.0
 10
7.4132776202
 20
3.9375211628
 30
0.0
 10
7.4013970633
 20
3.9627123147
 30
0.0
 10
7.3824974992
 20
3.9861651184
 30
0.0
 10
7.357496714
 20
4.00639629
 30
0.0
 10
7.3277073309
 20
4.0219564203
 30
0.0
 10
7.2947343327
 20
4.0317218757
 30
0.0
 10
7.2717008265
 20
4.0339343013
 30
0.0
 10
7.2601774809
 20
4.0339343013
 30
0.0
 11
7.4161774816
 21
3.9114973801
 31
0.0
 11
7.4123291965
 21
3.9364317641
 31
0.0
 11
7.4008820477
 21
3.9613722166
 31
0.0
 11
7.3822379063
 21
3.9848581477
 31
0.0
 11
7.35730283
 21
4.005210593
 31
0.0
 11
7.3275154313
 21
4.0208462168
 31
0.0
 11
7.2945882999
 21
4.0306202421
 31
0.0
 11
7.2601774809
 21
4.0339343013
 31
0.0
  0
SPLINE
  5
422
100
AcDbEntity
  8
0
100
AcDbSpline
 62
7
  6
CONTINUOUS
 70
0
 71
3
 72
14
 73
10
 74
8
 42
0.0000001
 43
0.0000001
 44
0.0000000001
 12
-0.0001343562
 22
-0.2182356124
 32
0.0
 13
0.2174036509
 23
-0.0
 33
0.0
 40
0.0
 40
0.0
 40
0.0
 40
0.0
 40
0.1160503238
 40
0.2422770617
 40
0.3802076205
 40
0.5282575277
 40
0.6829999936
 40
0.840987514
 40
1.0
 40
1.0
 40
1.0
 40
1.0
 10
7.1041774802
 20
4.9269027358
 30
0.0
 10
7.1041722828
 20
4.9184606313
 30
0.0
 10
7.1070773796
 20
4.900878786
 30
0.0
 10
7.1189580532
 20
4.8756875443
 30
0.0
 10
7.1378577132
 20
4.852234749
 30
0.0
 10
7.1628585211
 20
4.8320036531
 30
0.0
 10
7.1926478564
 20
4.8164436106
 30
0.0
 10
7.2256207574
 20
4.8066782226
 30
0.0
 10
7.2486541826
 20
4.8044658139
 30
0.0
 10
7.2601774809
 20
4.8044658139
 30
0.0
 11
7.1041774802
 21
4.9269027358
 31
0.0
 11
7.1080258157
 21
4.9019681859
 31
0.0
 11
7.1194730862
 21
4.8770276205
 31
0.0
 11
7.1381173282
 21
4.853541692
 31
0.0
 11
7.1630524101
 21
4.8331893386
 31
0.0
 11
7.1928397543
 21
4.8175538075
 31
0.0
 11
7.2257668018
 21
4.8077798459
 31
0.0
 11
7.2601774809
 21
4.8044658139
 31
0.0
  0
SPLINE
  5
423
100
AcDbEntity
  8
0
100
AcDbSpline
 62
7
  6
CONTINUOUS
 70
0
 71
3
 72
10
 73
6
 74
4
 42
0.0000001
 43
0.0000001
 44
0.0000000001
 12
0.0603624343
 22
0.0
 32
0.0
 13
0.0591557945
 23
0.0121901564
 33
0.0
 40
0.0
 40
0.0
 40
0.0
 40
0.0
 40
0.5045170701
 40
0.9937992532
 40
1.0
 40
1.0
 40
1.0
 40
1.0
 10
7.2601774809
 20
3.9727075656
 30
0.0
 10
7.2703287737
 20
3.9727075656
 30
0.0
 10
7.2903382534
 20
3.9736244969
 30
0.0
 10
7.3102881499
 20
3.9764960471
 30
0.0
 10
7.320059818
 20
3.9785020565
 30
0.0
 10
7.320182088
 20
3.9785272525
 30
0.0
 11
7.2601774809
 21
3.9727075656
 31
0.0
 11
7.2905977601
 21
3.9741377161
 31
0.0
 11
7.3198152241
 21
3.9784519392
 31
0.0
 11
7.320182088
 21
3.9785272525
 31
0.0
  0
SPLINE
  5
424
100
AcDbEntity
  8
0
100
AcDbSpline
 62
7
  6
CONTINUOUS
 70
0
 71
3
 72
9
 73
5
 74
3
 42
0.0000001
 43
0.0000001
 44
0.0000000001
 12
0.0509827149
 22
0.0105059407
 32
0.0
 13
0.045965558
 23
0.0245267193
 33
0.0
 40
0.0
 40
0.0
 40
0.0
 40
0.0
 40
0.5262808701
 40
1.0
 40
1.0
 40
1.0
 40
1.0
 10
7.320182088
 20
3.9785272525
 30
0.0
 10
7.3291258305
 20
3.9803702777
 30
0.0
 10
7.3459369459
 20
3.9848047128
 30
0.0
 10
7.361992079
 20
3.991545446
 30
0.0
 10
7.3692503337
 20
3.9954183714
 30
0.0
 11
7.320182088
 21
3.9785272525
 31
0.0
 11
7.3466111818
 21
3.9856765734
 31
0.0
 11
7.3692503337
 21
3.9954183714
 31
0.0
  0
SPLINE
  5
425
100
AcDbEntity
  8
0
100
AcDbSpline
 62
7
  6
CONTINUOUS
 70
0
 71
3
 72
9
 73
5
 74
3
 42
0.0000001
 43
0.0000001
 44
0.0000000001
 12
-0.0459624248
 22
0.0245234855
 32
0.0
 13
-0.0509791647
 23
0.0105052103
 33
0.0
 40
0.0
 40
0.0
 40
0.0
 40
0.0
 40
0.4712515306
 40
1.0
 40
1.0
 40
1.0
 40
1.0
 10
7.3692462122
 20
4.8429839665
 30
0.0
 10
7.3620262579
 20
4.8468362099
 30
0.0
 10
7.3459753681
 20
4.853583405
 30
0.0
 10
7.3291659821
 20
4.8580215595
 30
0.0
 10
7.3201809304
 20
4.8598730974
 30
0.0
 11
7.3692462122
 21
4.8429839665
 31
0.0
 11
7.3467297998
 21
4.8526826748
 31
0.0
 11
7.3201809304
 21
4.8598730974
 31
0.0
  0
SPLINE
  5
426
100
AcDbEntity
  8
0
100
AcDbSpline
 62
7
  6
CONTINUOUS
 70
0
 71
3
 72
10
 73
6
 74
4
 42
0.0000001
 43
0.0000001
 44
0.0000000001
 12
-0.0591545214
 22
0.0121898954
 32
0.0
 13
-0.060361174
 23
-0.0
 33
0.0
 40
0.0
 40
0.0
 40
0.0
 40
0.0
 40
0.0046179052
 40
0.4946409783
 40
1.0
 40
1.0
 40
1.0
 40
1.0
 10
7.3201809304
 20
4.8598730974
 30
0.0
 10
7.3200898737
 20
4.8598918613
 30
0.0
 10
7.3103353886
 20
4.8618962884
 30
0.0
 10
7.2903864811
 20
4.8647726982
 30
0.0
 10
7.2703455022
 20
4.8656925496
 30
0.0
 10
7.2601774809
 20
4.8656925496
 30
0.0
 11
7.3201809304
 21
4.8598730974
 31
0.0
 11
7.3199077306
 21
4.8599292368
 31
0.0
 11
7.2906477761
 21
4.8642576217
 31
0.0
 11
7.2601774809
 21
4.8656925496
 31
0.0
  0
SPLINE
  5
427
100
AcDbEntity
  8
0
100
AcDbSpline
 62
7
  6
CONTINUOUS
 70
0
 71
3
 72
23
 73
19
 74
17
 42
0.0000001
 43
0.0000001
 44
0.0000000001
 12
-0.3072991383
 22
-0.066766989
 32
0.0
 13
-0.3072991391
 23
0.0667669889
 33
0.0
 40
0.0
 40
0.0
 40
0.0
 40
0.0
 40
0.0097611232
 40
0.0386445207
 40
0.0852731206
 40
0.1476587938
 40
0.223342144
 40
0.3094760686
 40
0.4029009765
 40
0.5000636728
 40
0.5972441022
 40
0.6907002158
 40
0.7768520539
 40
0.8525155297
 40
0.9148502624
 40
0.9614181579
 40
0.990257558
 40
1.0
 40
1.0
 40
1.0
 40
1.0
 10
7.4161774809
 20
5.1372000576
 30
0.0
 10
7.4151776193
 20
5.1369828173
 30
0.0
 10
7.411217503
 20
5.1361302807
 30
0.0
 10
7.4024649534
 20
5.1343151794
 30
0.0
 10
7.3882679898
 20
5.1315924607
 30
0.0
 10
7.3691757539
 20
5.1283675377
 30
0.0
 10
7.3458952439
 20
5.1251220252
 30
0.0
 10
7.3192777767
 20
5.122349147
 30
0.0
 10
7.2903227228
 20
5.1204833016
 30
0.0
 10
7.2601555929
 20
5.1198257753
 30
0.0
 10
7.2299852283
 20
5.1204852171
 30
0.0
 10
7.2010233072
 20
5.1223535802
 30
0.0
 10
7.1744030118
 20
5.1251289216
 30
0.0
 10
7.1511282508
 20
5.1283754834
 30
0.0
 10
7.1320498111
 20
5.1315992769
 30
0.0
 10
7.1178689748
 20
5.1343194503
 30
0.0
 10
7.1091291191
 20
5.1361320649
 30
0.0
 10
7.1051754289
 20
5.1369832331
 30
0.0
 10
7.1041774809
 20
5.1372000576
 30
0.0
 11
7.4161774809
 21
5.1372000576
 31
0.0
 11
7.4131766585
 21
5.1365540486
 31
0.0
 11
7.4042829036
 21
5.1347099267
 31
0.0
 11
7.3898819024
 21
5.1319491277
 31
0.0
 11
7.3705371867
 21
5.1286838592
 31
0.0
 11
7.3469645958
 21
5.1254011644
 31
0.0
 11
7.3200235229
 21
5.1225986279
 31
0.0
 11
7.2907048844
 21
5.1207126536
 31
0.0
 11
7.2601574581
 21
5.1200481156
 31
0.0
 11
7.2296044972
 21
5.1207146386
 31
0.0
 11
7.2002762001
 21
5.1226033299
 31
0.0
 11
7.1733297497
 21
5.1254086163
 31
0.0
 11
7.149763605
 21
5.1286922873
 31
0.0
 11
7.1304348852
 21
5.1319560755
 31
0.0
 11
7.1160527355
 21
5.1347138186
 31
0.0
 11
7.1071725578
 21
5.136555274
 31
0.0
 11
7.1041774809
 21
5.1372000576
 31
0.0
  0
SPLINE
  5
428
100
AcDbEntity
  8
0
100
AcDbSpline
 62
7
  6
CONTINUOUS
 70
0
 71
3
 72
23
 73
19
 74
17
 42
0.0000001
 43
0.0000001
 44
0.0000000001
 12
0.3072991383
 22
0.066766989
 32
0.0
 13
0.3072991391
 23
-0.0667669889
 33
0.0
 40
0.0
 40
0.0
 40
0.0
 40
0.0
 40
0.0097611232
 40
0.0386445207
 40
0.0852731206
 40
0.1476587938
 40
0.223342144
 40
0.3094760686
 40
0.4029009765
 40
0.5000636728
 40
0.5972441022
 40
0.6907002158
 40
0.7768520539
 40
0.8525155297
 40
0.9148502624
 40
0.9614181579
 40
0.990257558
 40
1.0
 40
1.0
 40
1.0
 40
1.0
 10
7.1041774809
 20
3.7012000576
 30
0.0
 10
7.1051773425
 20
3.7014172979
 30
0.0
 10
7.1091374588
 20
3.7022698345
 30
0.0
 10
7.1178900083
 20
3.7040849358
 30
0.0
 10
7.132086972
 20
3.7068076545
 30
0.0
 10
7.1511792079
 20
3.7100325775
 30
0.0
 10
7.1744597179
 20
3.71327809
 30
0.0
 10
7.2010771851
 20
3.7160509682
 30
0.0
 10
7.2300322389
 20
3.7179168136
 30
0.0
 10
7.2601993688
 20
3.7185743399
 30
0.0
 10
7.2903697335
 20
3.7179148981
 30
0.0
 10
7.3193316545
 20
3.716046535
 30
0.0
 10
7.34595195
 20
3.7132711936
 30
0.0
 10
7.369226711
 20
3.7100246318
 30
0.0
 10
7.3883051507
 20
3.7068008383
 30
0.0
 10
7.4024859869
 20
3.7040806649
 30
0.0
 10
7.4112258427
 20
3.7022680503
 30
0.0
 10
7.4151795329
 20
3.7014168821
 30
0.0
 10
7.4161774809
 20
3.7012000576
 30
0.0
 11
7.1041774809
 21
3.7012000576
 31
0.0
 11
7.1071783033
 21
3.7018460666
 31
0.0
 11
7.1160720582
 21
3.7036901885
 31
0.0
 11
7.1304730594
 21
3.7064509875
 31
0.0
 11
7.149817775
 21
3.709716256
 31
0.0
 11
7.173390366
 21
3.7129989507
 31
0.0
 11
7.2003314389
 21
3.7158014873
 31
0.0
 11
7.2296500774
 21
3.7176874616
 31
0.0
 11
7.2601975037
 21
3.7183519996
 31
0.0
 11
7.2907504646
 21
3.7176854766
 31
0.0
 11
7.3200787617
 21
3.7157967853
 31
0.0
 11
7.3470252121
 21
3.7129914989
 31
0.0
 11
7.3705913568
 21
3.7097078279
 31
0.0
 11
7.3899200765
 21
3.7064440396
 31
0.0
 11
7.4043022262
 21
3.7036862966
 31
0.0
 11
7.413182404
 21
3.7018448412
 31
0.0
 11
7.4161774809
 21
3.7012000576
 31
0.0
  0
SPLINE
  5
429
100
AcDbEntity
  8
0
100
AcDbSpline
 62
7
  6
CONTINUOUS
 70
0
 71
3
 72
14
 73
10
 74
8
 42
0.0000001
 43
0.0000001
 44
0.0000000001
 12
-0.000125867
 22
0.2044130028
 32
0.0
 13
-0.2036337395
 23
-0.0
 33
0.0
 40
0.0
 40
0.0
 40
0.0
 40
0.0
 40
0.1182322401
 40
0.2384026826
 40
0.3678235868
 40
0.5104885803
 40
0.6659646052
 40
0.8306778655
 40
1.0
 40
1.0
 40
1.0
 40
1.0
 10
7.4161774814
 20
4.9269027335
 30
0.0
 10
7.4161725209
 20
4.9349588025
 30
0.0
 10
7.4135978143
 20
4.9512405348
 30
0.0
 10
7.4015345881
 20
4.9736075598
 30
0.0
 10
7.3821919338
 20
4.9923941571
 30
0.0
 10
7.3569011192
 20
5.0070763989
 30
0.0
 10
7.3271126457
 20
5.0175124663
 30
0.0
 10
7.2943704057
 20
5.0237192114
 30
0.0
 10
7.271670714
 20
5.0250831297
 30
0.0
 10
7.2601774809
 20
5.0250831297
 30
0.0
 11
7.4161774814
 21
4.9269027335
 31
0.0
 11
7.4123289761
 21
4.9506692209
 31
0.0
 11
7.4008824364
 21
4.9722977821
 31
0.0
 11
7.3822392619
 21
4.9909254429
 31
0.0
 11
7.3573034408
 21
5.0058314492
 31
0.0
 11
7.3275161812
 21
5.0165592251
 31
0.0
 11
7.29459191
 21
5.022962578
 31
0.0
 11
7.2601774809
 21
5.0250831297
 31
0.0
  0
SPLINE
  5
42A
100
AcDbEntity
  8
0
100
AcDbSpline
 62
7
  6
CONTINUOUS
 70
0
 71
3
 72
14
 73
10
 74
8
 42
0.0000001
 43
0.0000001
 44
0.0000000001
 12
0.2036337383
 22
0.0
 32
0.0
 13
0.0001258525
 23
0.2044130049
 33
0.0
 40
0.0
 40
0.0
 40
0.0
 40
0.0
 40
0.1693213295
 40
0.3340342981
 40
0.4895102439
 40
0.6321752397
 40
0.7615961952
 40
0.8817668857
 40
1.0
 40
1.0
 40
1.0
 40
1.0
 10
7.2601774809
 20
3.8133169855
 30
0.0
 10
7.2716706593
 20
3.8133169855
 30
0.0
 10
7.294370276
 20
3.814680893
 30
0.0
 10
7.3271124414
 20
3.8208875977
 30
0.0
 10
7.3569009029
 20
3.8313236204
 30
0.0
 10
7.3821917405
 20
3.8460058163
 30
0.0
 10
7.4015344544
 20
3.8647923789
 30
0.0
 10
7.413597781
 20
3.8871594431
 30
0.0
 10
7.4161725216
 20
3.9034412514
 30
0.0
 10
7.4161774816
 20
3.9114973801
 30
0.0
 11
7.2601774809
 21
3.8133169855
 31
0.0
 11
7.2945917469
 21
3.8154375168
 31
0.0
 11
7.3275159648
 21
3.8218408315
 31
0.0
 11
7.3573032225
 21
3.8325685644
 31
0.0
 11
7.3822390709
 21
3.8474745257
 31
0.0
 11
7.4008822982
 21
3.8661021483
 31
0.0
 11
7.4123289187
 21
3.8877307236
 31
0.0
 11
7.4161774816
 21
3.9114973801
 31
0.0
  0
SPLINE
  5
42B
100
AcDbEntity
  8
0
100
AcDbSpline
 62
7
  6
CONTINUOUS
 70
0
 71
3
 72
14
 73
10
 74
8
 42
0.0000001
 43
0.0000001
 44
0.0000000001
 12
0.0001258724
 22
-0.2044130026
 32
0.0
 13
0.2036337396
 23
0.0
 33
0.0
 40
0.0
 40
0.0
 40
0.0
 40
0.0
 40
0.1182319771
 40
0.2384024232
 40
0.3678233679
 40
0.5104883976
 40
0.6659644686
 40
0.8306777968
 40
1.0
 40
1.0
 40
1.0
 40
1.0
 10
7.1041774804
 20
3.9114973823
 30
0.0
 10
7.1041824411
 20
3.9034413312
 30
0.0
 10
7.1067571383
 20
3.8871596164
 30
0.0
 10
7.1188203415
 20
3.8647925959
 30
0.0
 10
7.1381629908
 20
3.8460059845
 30
0.0
 10
7.1634538086
 20
3.8313237308
 30
0.0
 10
7.1932422903
 20
3.8208876551
 30
0.0
 10
7.2259845421
 20
3.8146809049
 30
0.0
 10
7.2486842431
 20
3.8133169855
 30
0.0
 10
7.2601774809
 20
3.8133169855
 30
0.0
 11
7.1041774804
 21
3.9114973823
 31
0.0
 11
7.1080259684
 21
3.8877309456
 31
0.0
 11
7.1194724935
 21
3.8661023759
 31
0.0
 11
7.1381156642
 21
3.8474746996
 31
0.0
 11
7.1630514871
 21
3.8325686818
 31
0.0
 11
7.1928387536
 21
3.8218408974
 31
0.0
 11
7.2257630378
 21
3.815437539
 31
0.0
 11
7.2601774809
 21
3.8133169855
 31
0.0
  0
SPLINE
  5
42C
100
AcDbEntity
  8
0
100
AcDbSpline
 62
7
  6
CONTINUOUS
 70
0
 71
3
 72
14
 73
10
 74
8
 42
0.0000001
 43
0.0000001
 44
0.0000000001
 12
-0.2036337381
 22
0.0
 32
0.0
 13
-0.0001258464
 23
-0.2044130048
 33
0.0
 40
0.0
 40
0.0
 40
0.0
 40
0.0
 40
0.1693212398
 40
0.3340341273
 40
0.4895100158
 40
0.6321749678
 40
0.7615958757
 40
0.8817665611
 40
1.0
 40
1.0
 40
1.0
 40
1.0
 10
7.2601774809
 20
5.0250831297
 30
0.0
 10
7.2486843085
 20
5.0250831297
 30
0.0
 10
7.2259847035
 20
5.0237192236
 30
0.0
 10
7.1932425529
 20
5.0175125252
 30
0.0
 10
7.1634541011
 20
5.007076513
 30
0.0
 10
7.1381632674
 20
4.9923943317
 30
0.0
 10
7.1188205471
 20
4.9736077863
 30
0.0
 10
7.1067571922
 20
4.9512407164
 30
0.0
 10
7.1041824399
 20
4.9349588866
 30
0.0
 10
7.1041774802
 20
4.9269027358
 30
0.0
 11
7.2601774809
 21
5.0250831297
 31
0.0
 11
7.2257632331
 21
5.0229626007
 31
0.0
 11
7.1928390307
 21
5.0165592928
 31
0.0
 11
7.1630517816
 21
5.0058315705
 31
0.0
 11
7.1381159352
 21
4.9909256235
 31
0.0
 11
7.119472703
 21
4.9722980196
 31
0.0
 11
7.1080260644
 21
4.950669455
 31
0.0
 11
7.1041774802
 21
4.9269027358
 31
0.0
  0
SPLINE
  5
42D
100
AcDbEntity
  8
129-300_FEATURES
100
AcDbSpline
 62
7
  6
CONTINUOUS
 70
0
 71
3
 72
8
 73
4
 74
2
 42
0.0000001
 43
0.0000001
 44
0.0000000001
 12
0.0011824575
 22
0.0000202297
 32
0.0
 13
0.0011824833
 23
0.0000186872
 33
0.0
 40
0.0
 40
0.0
 40
0.0
 40
0.0
 40
1.0
 40
1.0
 40
1.0
 40
1.0
 10
4.6454802391
 20
3.5132000576
 30
0.0
 10
4.6458743916
 20
3.5132068008
 30
0.0
 10
4.6462685486
 20
3.513213287
 30
0.0
 10
4.6466627097
 20
3.5132195161
 30
0.0
 11
4.6454802391
 21
3.5132000576
 31
0.0
 11
4.6466627097
 21
3.5132195161
 31
0.0
  0
SPLINE
  5
42E
100
AcDbEntity
  8
129-300_FEATURES
100
AcDbSpline
 62
7
  6
CONTINUOUS
 70
0
 71
3
 72
8
 73
4
 74
2
 42
0.0000001
 43
0.0000001
 44
0.0000000001
 12
0.0015939361
 22
0.0000251895
 32
0.0
 13
0.0015939785
 23
0.0000223864
 33
0.0
 40
0.0
 40
0.0
 40
0.0
 40
0.0
 40
1.0
 40
1.0
 40
1.0
 40
1.0
 10
4.6466627097
 20
3.5132195161
 30
0.0
 10
4.6471940218
 20
3.5132279126
 30
0.0
 10
4.6477253413
 20
3.5132358419
 30
0.0
 10
4.6482566674
 20
3.5132433041
 30
0.0
 11
4.6466627097
 21
3.5132195161
 31
0.0
 11
4.6482566674
 21
3.5132433041
 31
0.0
  0
SPLINE
  5
42F
100
AcDbEntity
  8
129-300_FEATURES
100
AcDbSpline
 62
7
  6
CONTINUOUS
 70
0
 71
3
 72
8
 73
4
 74
2
 42
0.0000001
 43
0.0000001
 44
0.0000000001
 12
0.0017467917
 22
0.0000245326
 32
0.0
 13
0.0017468361
 23
0.0000211656
 33
0.0
 40
0.0
 40
0.0
 40
0.0
 40
0.0
 40
1.0
 40
1.0
 40
1.0
 40
1.0
 10
4.6482566674
 20
3.5132433041
 30
0.0
 10
4.6488389313
 20
3.5132514816
 30
0.0
 10
4.6494212032
 20
3.513259098
 30
0.0
 10
4.6500034819
 20
3.5132661532
 30
0.0
 11
4.6482566674
 21
3.5132433041
 31
0.0
 11
4.6500034819
 21
3.5132661532
 31
0.0
  0
SPLINE
  5
430
100
AcDbEntity
  8
129-300_FEATURES
100
AcDbSpline
 62
7
  6
CONTINUOUS
 70
0
 71
3
 72
9
 73
5
 74
3
 42
0.0000001
 43
0.0000001
 44
0.0000000001
 12
0.0109762118
 22
0.0001329933
 32
0.0
 13
0.0109770086
 23
0.0
 33
0.0
 40
0.0
 40
0.0
 40
0.0
 40
0.0
 40
0.4599939475
 40
1.0
 40
1.0
 40
1.0
 40
1.0
 10
4.6500034819
 20
3.5132661532
 30
0.0
 10
4.6516864789
 20
3.5132865452
 30
0.0
 10
4.6553453406
 20
3.5133206837
 30
0.0
 10
4.6590043554
 20
3.5133326556
 30
0.0
 10
4.6609802391
 20
3.5133326556
 30
0.0
 11
4.6500034819
 21
3.5132661532
 31
0.0
 11
4.6550526198
 21
3.5133132619
 31
0.0
 11
4.6609802391
 21
3.5133326556
 31
0.0
  0
SPLINE
  5
431
100
AcDbEntity
  8
129-300_FEATURES
100
AcDbSpline
 62
7
  6
CONTINUOUS
 70
0
 71
3
 72
10
 73
6
 74
4
 42
0.0000001
 43
0.0000001
 44
0.0000000001
 12
0.0103943095
 22
0.0
 32
0.0
 13
0.0103936321
 23
-0.0001192507
 33
0.0
 40
0.0
 40
0.0
 40
0.0
 40
0.0
 40
0.4605960977
 40
0.876186926
 40
1.0
 40
1.0
 40
1.0
 40
1.0
 10
4.6609802391
 20
3.5133326556
 30
0.0
 10
4.6625760986
 20
3.5133326556
 30
0.0
 10
4.665611891
 20
3.5133246333
 30
0.0
 10
4.6690765714
 20
3.5132980617
 30
0.0
 10
4.6709453753
 20
3.5132779473
 30
0.0
 10
4.6713743312
 20
3.5132730257
 30
0.0
 11
4.6609802391
 21
3.5133326556
 31
0.0
 11
4.6657678008
 21
3.5133200044
 31
0.0
 11
4.6700874535
 21
3.5132868767
 31
0.0
 11
4.6713743312
 21
3.5132730257
 31
0.0
  0
SPLINE
  5
432
100
AcDbEntity
  8
129-300_FEATURES
100
AcDbSpline
 62
7
  6
CONTINUOUS
 70
0
 71
3
 72
8
 73
4
 74
2
 42
0.0000001
 43
0.0000001
 44
0.0000000001
 12
0.0013882507
 22
-0.000015928
 32
0.0
 13
0.0013882245
 23
-0.0000180547
 33
0.0
 40
0.0
 40
0.0
 40
0.0
 40
0.0
 40
1.0
 40
1.0
 40
1.0
 40
1.0
 10
4.6713743312
 20
3.5132730257
 30
0.0
 10
4.6718370814
 20
3.5132677163
 30
0.0
 10
4.6722998275
 20
3.5132620525
 30
0.0
 10
4.672762569
 20
3.5132560343
 30
0.0
 11
4.6713743312
 21
3.5132730257
 31
0.0
 11
4.672762569
 21
3.5132560343
 31
0.0
  0
SPLINE
  5
433
100
AcDbEntity
  8
129-300_FEATURES
100
AcDbSpline
 62
7
  6
CONTINUOUS
 70
0
 71
3
 72
9
 73
5
 74
3
 42
0.0000001
 43
0.0000001
 44
0.0000000001
 12
0.002161536
 22
-0.000028112
 32
0.0
 13
0.0021614621
 23
-0.000033267
 33
0.0
 40
0.0
 40
0.0
 40
0.0
 40
0.0
 40
0.3421409224
 40
1.0
 40
1.0
 40
1.0
 40
1.0
 10
4.672762569
 20
3.5132560343
 30
0.0
 10
4.6730090856
 20
3.5132528282
 30
0.0
 10
4.6737295938
 20
3.5132431636
 30
0.0
 10
4.6744500899
 20
3.5132326397
 30
0.0
 10
4.6749240691
 20
3.5132253447
 30
0.0
 11
4.672762569
 21
3.5132560343
 31
0.0
 11
4.6735021149
 21
3.5132461143
 31
0.0
 11
4.6749240691
 21
3.5132253447
 31
0.0
  0
SPLINE
  5
434
100
AcDbEntity
  8
129-300_FEATURES
100
AcDbSpline
 62
7
  6
CONTINUOUS
 70
0
 71
3
 72
8
 73
4
 74
2
 42
0.0000001
 43
0.0000001
 44
0.0000000001
 12
0.0006856988
 22
-0.0000105536
 32
0.0
 13
0.0006856906
 23
-0.0000110723
 33
0.0
 40
0.0
 40
0.0
 40
0.0
 40
0.0
 40
1.0
 40
1.0
 40
1.0
 40
1.0
 10
4.6749240691
 20
3.5132253447
 30
0.0
 10
4.6751526353
 20
3.5132218268
 30
0.0
 10
4.6753812003
 20
3.5132182225
 30
0.0
 10
4.6756097638
 20
3.5132145318
 30
0.0
 11
4.6749240691
 21
3.5132253447
 31
0.0
 11
4.6756097638
 21
3.5132145318
 31
0.0
  0
SPLINE
  5
435
100
AcDbEntity
  8
129-300_FEATURES
100
AcDbSpline
 62
7
  6
CONTINUOUS
 70
0
 71
3
 72
9
 73
5
 74
3
 42
0.0000001
 43
0.0000001
 44
0.0000000001
 12
0.0008704823
 22
-0.0000140562
 32
0.0
 13
0.0008704683
 23
-0.0000148921
 33
0.0
 40
0.0
 40
0.0
 40
0.0
 40
0.0
 40
0.1398383997
 40
1.0
 40
1.0
 40
1.0
 40
1.0
 10
4.6756097638
 20
3.5132145318
 30
0.0
 10
4.6756503394
 20
3.5132138766
 30
0.0
 10
4.6759404999
 20
3.5132091717
 30
0.0
 10
4.676230658
 20
3.5132043275
 30
0.0
 10
4.6764802391
 20
3.5132000576
 30
0.0
 11
4.6756097638
 21
3.5132145318
 31
0.0
 11
4.6757314905
 21
3.513212558
 31
0.0
 11
4.6764802391
 21
3.5132000576
 31
0.0
  0
SPLINE
  5
436
100
AcDbEntity
  8
0
100
AcDbSpline
 62
7
  6
CONTINUOUS
 70
0
 71
3
 72
15
 73
11
 74
9
 42
0.0000001
 43
0.0000001
 44
0.0000000001
 12
-0.2344928018
 22
0.8560668082
 32
0.0
 13
0.2344928018
 23
0.8560668082
 33
0.0
 40
0.0
 40
0.0
 40
0.0
 40
0.0
 40
0.130867655
 40
0.2559934432
 40
0.3784643323
 40
0.5000493322
 40
0.6216294027
 40
0.7440877225
 40
0.8691603039
 40
1.0
 40
1.0
 40
1.0
 40
1.0
 10
3.1411501121
 20
3.9812907405
 30
0.0
 10
3.1309209377
 20
4.0186345591
 30
0.0
 10
3.1127483046
 20
4.0922096598
 30
0.0
 10
3.092497906
 20
4.2024144434
 30
0.0
 10
3.0801402831
 20
4.3110373022
 30
0.0
 10
3.0759670122
 20
4.4192424571
 30
0.0
 10
3.0801467051
 20
4.5274436225
 30
0.0
 10
3.0925075201
 20
4.6360450142
 30
0.0
 10
3.1127558623
 20
4.7462218747
 30
0.0
 10
3.1309231231
 20
4.8197735344
 30
0.0
 10
3.1411501121
 20
4.8571093747
 30
0.0
 11
3.1411501121
 21
3.9812907405
 31
0.0
 11
3.113510263
 21
4.094112768
 31
0.0
 11
3.0936226594
 21
4.2033795422
 31
0.0
 11
3.0814663428
 21
4.3114030972
 31
0.0
 11
3.0773558143
 21
4.4192438711
 31
0.0
 11
3.0814726482
 21
4.5270800259
 31
0.0
 11
3.0936332291
 21
4.6350918739
 31
0.0
 11
3.1135154694
 21
4.744311622
 31
0.0
 11
3.1411501121
 21
4.8571093747
 31
0.0
  0
SPLINE
  5
437
100
AcDbEntity
  8
0
100
AcDbSpline
 62
7
  6
CONTINUOUS
 70
0
 71
3
 72
15
 73
11
 74
9
 42
0.0000001
 43
0.0000001
 44
0.0000000001
 12
-0.2213747391
 22
0.4040882383
 32
0.0
 13
0.2213747391
 23
0.4040882383
 33
0.0
 40
0.0
 40
0.0
 40
0.0
 40
0.0
 40
0.1363385306
 40
0.2625242499
 40
0.3826814249
 40
0.5000474403
 40
0.6174094987
 40
0.7375563123
 40
0.8636900968
 40
1.0
 40
1.0
 40
1.0
 40
1.0
 10
3.1411501121
 20
4.903895399
 30
0.0
 10
3.1310894766
 20
4.9222596646
 30
0.0
 10
3.1131422731
 20
4.9584434403
 30
0.0
 10
3.0927208253
 20
5.0136941581
 30
0.0
 10
3.0801966459
 20
5.0683172007
 30
0.0
 10
3.0759504606
 20
5.1228714482
 30
0.0
 10
3.0802031651
 20
5.1774235458
 30
0.0
 10
3.0927304345
 20
5.2320353295
 30
0.0
 10
3.1131496013
 20
5.2872718056
 30
0.0
 10
3.131091589
 20
5.3234443066
 30
0.0
 10
3.1411501121
 20
5.3418047161
 30
0.0
 11
3.1411501121
 21
4.903895399
 31
0.0
 11
3.113510263
 21
4.9603064128
 31
0.0
 11
3.0936226594
 21
5.0149397999
 31
0.0
 11
3.0814663428
 21
5.0689515774
 31
0.0
 11
3.0773558143
 21
5.1228719643
 31
0.0
 11
3.0814726482
 21
5.1767900417
 31
0.0
 11
3.0936332291
 21
5.2307959658
 31
0.0
 11
3.1135154694
 21
5.2854058398
 31
0.0
 11
3.1411501121
 21
5.3418047161
 31
0.0
  0
SPLINE
  5
438
100
AcDbEntity
  8
0
100
AcDbSpline
 62
7
  6
CONTINUOUS
 70
0
 71
3
 72
15
 73
11
 74
9
 42
0.0000001
 43
0.0000001
 44
0.0000000001
 12
-0.2213747391
 22
0.4040882383
 32
0.0
 13
0.2213747391
 23
0.4040882383
 33
0.0
 40
0.0
 40
0.0
 40
0.0
 40
0.0
 40
0.1363385306
 40
0.2625242499
 40
0.3826814249
 40
0.5000474403
 40
0.6174094987
 40
0.7375563123
 40
0.8636900968
 40
1.0
 40
1.0
 40
1.0
 40
1.0
 10
3.1411501121
 20
3.496595399
 30
0.0
 10
3.1310894766
 20
3.5149596646
 30
0.0
 10
3.1131422731
 20
3.5511434403
 30
0.0
 10
3.0927208253
 20
3.6063941581
 30
0.0
 10
3.0801966459
 20
3.6610172007
 30
0.0
 10
3.0759504606
 20
3.7155714482
 30
0.0
 10
3.0802031651
 20
3.7701235458
 30
0.0
 10
3.0927304345
 20
3.8247353295
 30
0.0
 10
3.1131496013
 20
3.8799718056
 30
0.0
 10
3.131091589
 20
3.9161443066
 30
0.0
 10
3.1411501121
 20
3.9345047161
 30
0.0
 11
3.1411501121
 21
3.496595399
 31
0.0
 11
3.113510263
 21
3.5530064128
 31
0.0
 11
3.0936226594
 21
3.6076397999
 31
0.0
 11
3.0814663428
 21
3.6616515774
 31
0.0
 11
3.0773558143
 21
3.7155719643
 31
0.0
 11
3.0814726482
 21
3.7694900417
 31
0.0
 11
3.0936332291
 21
3.8234959658
 31
0.0
 11
3.1135154694
 21
3.8781058398
 31
0.0
 11
3.1411501121
 21
3.9345047161
 31
0.0
  0
ENDSEC
  0
SECTION
  2
OBJECTS
  0
DICTIONARY
  5
C
100
AcDbDictionary
280
0
281
1
  3
ACAD_GROUP
350
D
  3
ACAD_MLINESTYLE
350
17
  3
ACAD_LAYOUT
350
1A
  3
ACAD_PLOTSETTINGS
350
19
  3
ACAD_PLOTSTYLENAME
350
E
  0
DICTIONARY
  5
D
102
{ACAD_REACTORS
330
C
102
}
100
AcDbDictionary
280
0
281
1
  0
ACDBDICTIONARYWDFLT
  5
E
102
{ACAD_REACTORS
330
C
102
}
100
AcDbDictionary
281
1
  3
Normal
350
F
100
AcDbDictionaryWithDefault
340
F
  0
DICTIONARY
  5
17
102
{ACAD_REACTORS
330
C
102
}
100
AcDbDictionary
280
0
281
1
  3
Standard
350
18
  0
DICTIONARY
  5
19
102
{ACAD_REACTORS
330
C
102
}
100
AcDbDictionary
281
1
  0
DICTIONARY
  5
1A
102
{ACAD_REACTORS
330
C
102
}
100
AcDbDictionary
281
1
  3
Layout1
350
1E
  3
Model
350
22
  0
ACDBPLACEHOLDER
  5
F
102
{ACAD_REACTORS
330
E
102
}
  0
MLINESTYLE
  5
18
102
{ACAD_REACTORS
330
17
102
}
100
AcDbMlineStyle
  2
STANDARD
 70
0
  3

 62
256
 51
90.0
 52
90.0
 71
2
 49
0.5
 62
256
  6
BYLAYER
 49
-0.5
 62
256
  6
BYLAYER
  0
LAYOUT
  5
1E
102
{ACAD_REACTORS
330
1A
102
}
100
AcDbPlotSettings
  1

  2

  4

  6

 40
0.0
 41
0.0
 42
0.0
 43
0.0
 44
0.0
 45
0.0
 46
0.0
 47
0.0
 48
0.0
 49
0.0
140
0.0
141
0.0
142
1.0
143
1.0
 70
0
 72
0
 73
0
 74
0
  7

 75
0
147
1.0
148
0.0
149
0.0
100
AcDbLayout
  1
Layout1
 70
0
 71
0
 10
0.0
 20
0.0
 11
0.0
 21
0.0
 12
0.0
 22
0.0
 32
0.0
 14
0.0
 24
0.0
 34
0.0
 15
0.0
 25
0.0
 35
0.0
146
0.0
 13
0.0
 23
0.0
 33
0.0
 16
0.0
 26
0.0
 36
0.0
 17
0.0
 27
0.0
 37
0.0
 76
0
330
1B
331
0
345
0
346
0
  0
LAYOUT
  5
22
102
{ACAD_REACTORS
330
1A
102
}
100
AcDbPlotSettings
  1

  2

  4

  6

 40
0.0
 41
0.0
 42
0.0
 43
0.0
 44
0.0
 45
0.0
 46
0.0
 47
0.0
 48
0.0
 49
0.0
140
0.0
141
0.0
142
1.0
143
1.0
 70
0
 72
0
 73
0
 74
0
  7

 75
0
147
1.0
148
0.0
149
0.0
100
AcDbLayout
  1
Model
 70
0
 71
0
 10
0.0
 20
0.0
 11
0.0
 21
0.0
 12
0.0
 22
0.0
 32
0.0
 14
0.0
 24
0.0
 34
0.0
 15
0.0
 25
0.0
 35
0.0
146
0.0
 13
0.0
 23
0.0
 33
0.0
 16
0.0
 26
0.0
 36
0.0
 17
0.0
 27
0.0
 37
0.0
 76
0
330
1F
331
0
345
0
346
0
  0
ENDSEC
  0
EOF
