999
DXF file: LPHC-XHN.dxf
999
Pro/ENGINEER 2006240 by Parametric Technology Corporation
  0
SECTION
  2
HEADER
  9
$ACADVER
  1
AC1015
  9
$DWGCODEPAGE
  3
ANSI_1252
  9
$EXTMAX
 10
11.6929133858
 20
8.2677165354
 30
0.0
  9
$EXTMIN
 10
0.0
 20
0.0
 30
0.0
  9
$LIMMIN
 10
0.0
 20
0.0
  9
$LIMMAX
 10
11.6929133858
 20
8.2677165354
  9
$VIEWCTR
 10
5.8464566929
 20
4.1338582677
  9
$VIEWSIZE
 40
8.2677165354
  9
$CLAYER
  8
0
  9
$LTSCALE
 40
0.6431102362
  9
$CELTYPE
  6
BYLAYER
  9
$DIMSCALE
 40
1.0
  9
$DIMASZ
 40
0.1875
  9
$DIMEXO
 40
0.0730807087
  9
$DIMDLI
 40
0.4443307087
  9
$DIMEXE
 40
0.2104724409
  9
$DIMCEN
 40
0.1052362205
  9
$DIMLFAC
 40
1.0
  9
$DIMBLK
  1
_CLOSED
  9
$DIMTXT
 40
0.15625
  9
$DIMTOL
 70
0
  9
$DIMLIM
 70
0
  9
$DIMTFAC
 40
1.0
  9
$PDMODE
 70
3
  9
$PDSIZE
 40
0.3125
  9
$HANDSEED
  5
405
  9
$MEASUREMENT
 70
0
  9
$INSUNITS
 70
1
  0
ENDSEC
  0
SECTION
  2
CLASSES
  0
CLASS
  1
ACDBDICTIONARYWDFLT
  2
AcDbDictionaryWithDefault
  3
AutoCAD 2000
 90
0
280
0
281
0
  0
CLASS
  1
ACDBPLACEHOLDER
  2
AcDbPlaceHolder
  3
AutoCAD 2000
 90
0
280
0
281
0
  0
CLASS
  1
LAYOUT
  2
AcDbLayout
  3
AutoCAD 2000
 90
0
280
0
281
0
  0
ENDSEC
  0
SECTION
  2
TABLES
  0
TABLE
  2
VPORT
  5
8
100
AcDbSymbolTable
 70
2
  0
VPORT
  5
1F4
100
AcDbSymbolTableRecord
100
AcDbViewportTableRecord
  2
*ACTIVE
 70
0
 10
0.0
 20
0.0
 11
1.0
 21
1.0
 12
5.8464566929
 22
4.1338582677
 13
0.0
 23
0.0
 14
1.0
 24
1.0
 15
0.0
 25
0.0
 16
0.0
 26
0.0
 36
1.0
 17
0.0
 27
0.0
 37
0.0
 40
8.2677165354
 41
1.4142857143
 42
50.0
 43
0.0
 44
0.0
 50
0.0
 51
0.0
 71
0
 72
100
 73
1
 74
1
 75
0
 76
0
 77
0
 78
0
  0
ENDTAB
  0
TABLE
  2
LTYPE
  5
5
100
AcDbSymbolTable
 70
6
  0
LTYPE
  5
14
100
AcDbSymbolTableRecord
100
AcDbLinetypeTableRecord
  2
BYBLOCK
 70
0
  3

 72
65
 73
0
 40
0.0
  0
LTYPE
  5
15
100
AcDbSymbolTableRecord
100
AcDbLinetypeTableRecord
  2
BYLAYER
 70
0
  3

 72
65
 73
0
 40
0.0
  0
LTYPE
  5
16
100
AcDbSymbolTableRecord
100
AcDbLinetypeTableRecord
  2
CONTINUOUS
 70
64
  3
Solid line
 72
65
 73
0
 40
0.0
  0
LTYPE
  5
1F5
100
AcDbSymbolTableRecord
100
AcDbLinetypeTableRecord
  2
CENTER
 70
64
  3
____ _ ____ _ ____ _ ____ _ ____ _ ____ _ ____
 72
65
 73
4
 40
0.6
 49
0.375
 74
0
 49
-0.075
 74
0
 49
0.075
 74
0
 49
-0.075
 74
0
  0
LTYPE
  5
1F6
100
AcDbSymbolTableRecord
100
AcDbLinetypeTableRecord
  2
HIDDEN
 70
64
  3
- - - - - - - - - - - - - - - - - - - -
 72
65
 73
2
 40
0.2
 49
0.1
 74
0
 49
-0.1
 74
0
  0
LTYPE
  5
1F7
100
AcDbSymbolTableRecord
100
AcDbLinetypeTableRecord
  2
PHANTOM
 70
64
  3
_____ _ _ _____ _ _ _____ _ _ _____
 72
65
 73
6
 40
0.8
 49
0.45
 74
0
 49
-0.05
 74
0
 49
0.1
 74
0
 49
-0.05
 74
0
 49
0.1
 74
0
 49
-0.05
 74
0
  0
LTYPE
  5
1F8
100
AcDbSymbolTableRecord
100
AcDbLinetypeTableRecord
  2
DOT
 70
64
  3
. . . . . . . . . . . . . . . . . . . .
 72
65
 73
2
 40
0.2
 49
0.1
 74
0
 49
-0.1
 74
0
  0
LTYPE
  5
1F9
100
AcDbSymbolTableRecord
100
AcDbLinetypeTableRecord
  2
DASHED
 70
64
  3
- - - - - - - - - - - - - - - - - - - -
 72
65
 73
2
 40
0.2
 49
0.1
 74
0
 49
-0.1
 74
0
  0
ENDTAB
  0
TABLE
  2
LAYER
  5
2
100
AcDbSymbolTable
 70
36
  0
LAYER
  5
10
100
AcDbSymbolTableRecord
100
AcDbLayerTableRecord
  2
0
 70
0
 62
7
  6
CONTINUOUS
370
-3
390
F
  0
LAYER
  5
1FA
100
AcDbSymbolTableRecord
100
AcDbLayerTableRecord
  2
DEFAULT_1
 70
0
 62
7
  6
CENTER
370
-3
390
F
  0
LAYER
  5
1FB
100
AcDbSymbolTableRecord
100
AcDbLayerTableRecord
  2
DEFAULT_2
 70
0
 62
8
  6
HIDDEN
370
-3
390
F
  0
LAYER
  5
1FC
100
AcDbSymbolTableRecord
100
AcDbLayerTableRecord
  2
DEFAULT_3
 70
0
 62
7
  6
PHANTOM
370
-3
390
F
  0
LAYER
  5
1FD
100
AcDbSymbolTableRecord
100
AcDbLayerTableRecord
  2
01_ALL_DTM_PLN
 70
0
 62
7
  6
CONTINUOUS
370
-3
390
F
  0
LAYER
  5
1FE
100
AcDbSymbolTableRecord
100
AcDbLayerTableRecord
  2
01__ASM_ALL_DTM_PLN
 70
0
 62
7
  6
CONTINUOUS
370
-3
390
F
  0
LAYER
  5
1FF
100
AcDbSymbolTableRecord
100
AcDbLayerTableRecord
  2
01__ASM_DEF_DTM_PLN
 70
0
 62
7
  6
CONTINUOUS
370
-3
390
F
  0
LAYER
  5
200
100
AcDbSymbolTableRecord
100
AcDbLayerTableRecord
  2
01___PRT_ALL_DTM_PLN
 70
0
 62
7
  6
CONTINUOUS
370
-3
390
F
  0
LAYER
  5
201
100
AcDbSymbolTableRecord
100
AcDbLayerTableRecord
  2
01___PRT_DEF_DTM_PLN
 70
0
 62
7
  6
CONTINUOUS
370
-3
390
F
  0
LAYER
  5
202
100
AcDbSymbolTableRecord
100
AcDbLayerTableRecord
  2
02_ALL_AXES
 70
0
 62
7
  6
CONTINUOUS
370
-3
390
F
  0
LAYER
  5
203
100
AcDbSymbolTableRecord
100
AcDbLayerTableRecord
  2
02__ASM_ALL_AXES
 70
0
 62
7
  6
CONTINUOUS
370
-3
390
F
  0
LAYER
  5
204
100
AcDbSymbolTableRecord
100
AcDbLayerTableRecord
  2
02___PRT_ALL_AXES
 70
0
 62
7
  6
CONTINUOUS
370
-3
390
F
  0
LAYER
  5
205
100
AcDbSymbolTableRecord
100
AcDbLayerTableRecord
  2
03_ALL_CURVES
 70
0
 62
7
  6
CONTINUOUS
370
-3
390
F
  0
LAYER
  5
206
100
AcDbSymbolTableRecord
100
AcDbLayerTableRecord
  2
03__ASM_ALL_CURVES
 70
0
 62
7
  6
CONTINUOUS
370
-3
390
F
  0
LAYER
  5
207
100
AcDbSymbolTableRecord
100
AcDbLayerTableRecord
  2
03___PRT_ALL_CURVES
 70
0
 62
7
  6
CONTINUOUS
370
-3
390
F
  0
LAYER
  5
208
100
AcDbSymbolTableRecord
100
AcDbLayerTableRecord
  2
04_ALL_DTM_PNT
 70
0
 62
7
  6
CONTINUOUS
370
-3
390
F
  0
LAYER
  5
209
100
AcDbSymbolTableRecord
100
AcDbLayerTableRecord
  2
04__ASM_ALL_DTM_PNT
 70
0
 62
7
  6
CONTINUOUS
370
-3
390
F
  0
LAYER
  5
20A
100
AcDbSymbolTableRecord
100
AcDbLayerTableRecord
  2
04___PRT_ALL_DTM_PNT
 70
0
 62
7
  6
CONTINUOUS
370
-3
390
F
  0
LAYER
  5
20B
100
AcDbSymbolTableRecord
100
AcDbLayerTableRecord
  2
05_ALL_DTM_CSYS
 70
0
 62
7
  6
CONTINUOUS
370
-3
390
F
  0
LAYER
  5
20C
100
AcDbSymbolTableRecord
100
AcDbLayerTableRecord
  2
05__ASM_ALL_DTM_CSYS
 70
0
 62
7
  6
CONTINUOUS
370
-3
390
F
  0
LAYER
  5
20D
100
AcDbSymbolTableRecord
100
AcDbLayerTableRecord
  2
05__ASM_DEF_DTM_CSYS
 70
0
 62
7
  6
CONTINUOUS
370
-3
390
F
  0
LAYER
  5
20E
100
AcDbSymbolTableRecord
100
AcDbLayerTableRecord
  2
05___PRT_ALL_DTM_CSYS
 70
0
 62
7
  6
CONTINUOUS
370
-3
390
F
  0
LAYER
  5
20F
100
AcDbSymbolTableRecord
100
AcDbLayerTableRecord
  2
05___PRT_DEF_DTM_CSYS
 70
0
 62
7
  6
CONTINUOUS
370
-3
390
F
  0
LAYER
  5
210
100
AcDbSymbolTableRecord
100
AcDbLayerTableRecord
  2
06_ALL_SURFS
 70
0
 62
7
  6
CONTINUOUS
370
-3
390
F
  0
LAYER
  5
211
100
AcDbSymbolTableRecord
100
AcDbLayerTableRecord
  2
06__ASM_ALL_SURFS
 70
0
 62
7
  6
CONTINUOUS
370
-3
390
F
  0
LAYER
  5
212
100
AcDbSymbolTableRecord
100
AcDbLayerTableRecord
  2
06___PRT_ALL_SURFS
 70
0
 62
7
  6
CONTINUOUS
370
-3
390
F
  0
LAYER
  5
213
100
AcDbSymbolTableRecord
100
AcDbLayerTableRecord
  2
07__ASM_ALL_SKELETONS
 70
0
 62
7
  6
CONTINUOUS
370
-3
390
F
  0
LAYER
  5
214
100
AcDbSymbolTableRecord
100
AcDbLayerTableRecord
  2
128-014_FEATURES
 70
0
 62
7
  6
CONTINUOUS
370
-3
390
F
  0
LAYER
  5
215
100
AcDbSymbolTableRecord
100
AcDbLayerTableRecord
  2
128-014_REF_GEOMETRY
 70
0
 62
7
  6
CONTINUOUS
370
-3
390
F
  0
LAYER
  5
216
100
AcDbSymbolTableRecord
100
AcDbLayerTableRecord
  2
128-300_FEATURES
 70
0
 62
7
  6
CONTINUOUS
370
-3
390
F
  0
LAYER
  5
217
100
AcDbSymbolTableRecord
100
AcDbLayerTableRecord
  2
128-300_REF_GEOMETRY
 70
0
 62
7
  6
CONTINUOUS
370
-3
390
F
  0
LAYER
  5
218
100
AcDbSymbolTableRecord
100
AcDbLayerTableRecord
  2
128-301_FEATURES
 70
0
 62
7
  6
CONTINUOUS
370
-3
390
F
  0
LAYER
  5
219
100
AcDbSymbolTableRecord
100
AcDbLayerTableRecord
  2
128-301_REF_GEOMETRY
 70
0
 62
7
  6
CONTINUOUS
370
-3
390
F
  0
LAYER
  5
21A
100
AcDbSymbolTableRecord
100
AcDbLayerTableRecord
  2
128-302_FEATURES
 70
0
 62
7
  6
CONTINUOUS
370
-3
390
F
  0
LAYER
  5
21B
100
AcDbSymbolTableRecord
100
AcDbLayerTableRecord
  2
128-302_REF_GEOMETRY
 70
0
 62
7
  6
CONTINUOUS
370
-3
390
F
  0
LAYER
  5
21C
100
AcDbSymbolTableRecord
100
AcDbLayerTableRecord
  2
COPY_GEO_FET
 70
0
 62
7
  6
CONTINUOUS
370
-3
390
F
  0
LAYER
  5
21D
100
AcDbSymbolTableRecord
100
AcDbLayerTableRecord
  2
COSMETIC
 70
0
 62
7
  6
CONTINUOUS
370
-3
390
F
  0
LAYER
  5
21E
100
AcDbSymbolTableRecord
100
AcDbLayerTableRecord
  2
CURVES
 70
0
 62
7
  6
CONTINUOUS
370
-3
390
F
  0
LAYER
  5
21F
100
AcDbSymbolTableRecord
100
AcDbLayerTableRecord
  2
CUT_REF_SURF
 70
0
 62
7
  6
CONTINUOUS
370
-3
390
F
  0
LAYER
  5
220
100
AcDbSymbolTableRecord
100
AcDbLayerTableRecord
  2
DATUM
 70
0
 62
7
  6
CONTINUOUS
370
-3
390
F
  0
LAYER
  5
221
100
AcDbSymbolTableRecord
100
AcDbLayerTableRecord
  2
DATUMCURVES
 70
0
 62
7
  6
CONTINUOUS
370
-3
390
F
  0
LAYER
  5
222
100
AcDbSymbolTableRecord
100
AcDbLayerTableRecord
  2
DIMENSIONS
 70
0
 62
7
  6
CONTINUOUS
370
-3
390
F
  0
LAYER
  5
223
100
AcDbSymbolTableRecord
100
AcDbLayerTableRecord
  2
DRAWINGNOTES
 70
0
 62
7
  6
CONTINUOUS
370
-3
390
F
  0
LAYER
  5
224
100
AcDbSymbolTableRecord
100
AcDbLayerTableRecord
  2
DTM
 70
0
 62
7
  6
CONTINUOUS
370
-3
390
F
  0
LAYER
  5
225
100
AcDbSymbolTableRecord
100
AcDbLayerTableRecord
  2
DTM230
 70
0
 62
7
  6
CONTINUOUS
370
-3
390
F
  0
LAYER
  5
226
100
AcDbSymbolTableRecord
100
AcDbLayerTableRecord
  2
DTM_500001
 70
0
 62
7
  6
CONTINUOUS
370
-3
390
F
  0
LAYER
  5
227
100
AcDbSymbolTableRecord
100
AcDbLayerTableRecord
  2
DTM_500002
 70
0
 62
7
  6
CONTINUOUS
370
-3
390
F
  0
LAYER
  5
228
100
AcDbSymbolTableRecord
100
AcDbLayerTableRecord
  2
DTM_515002
 70
0
 62
7
  6
CONTINUOUS
370
-3
390
F
  0
LAYER
  5
229
100
AcDbSymbolTableRecord
100
AcDbLayerTableRecord
  2
DTM_525001
 70
0
 62
7
  6
CONTINUOUS
370
-3
390
F
  0
LAYER
  5
22A
100
AcDbSymbolTableRecord
100
AcDbLayerTableRecord
  2
DTM_SPRING_RH
 70
0
 62
7
  6
CONTINUOUS
370
-3
390
F
  0
LAYER
  5
22B
100
AcDbSymbolTableRecord
100
AcDbLayerTableRecord
  2
DTM_SP_RH_CONSTR
 70
0
 62
7
  6
CONTINUOUS
370
-3
390
F
  0
LAYER
  5
22C
100
AcDbSymbolTableRecord
100
AcDbLayerTableRecord
  2
GEOMETRICTOLERANCES
 70
0
 62
7
  6
CONTINUOUS
370
-3
390
F
  0
LAYER
  5
22D
100
AcDbSymbolTableRecord
100
AcDbLayerTableRecord
  2
PARAMETERDIMENSIONS
 70
0
 62
7
  6
CONTINUOUS
370
-3
390
F
  0
LAYER
  5
22E
100
AcDbSymbolTableRecord
100
AcDbLayerTableRecord
  2
PLANE
 70
0
 62
7
  6
CONTINUOUS
370
-3
390
F
  0
LAYER
  5
22F
100
AcDbSymbolTableRecord
100
AcDbLayerTableRecord
  2
PORT_PER_S-164
 70
0
 62
7
  6
CONTINUOUS
370
-3
390
F
  0
LAYER
  5
230
100
AcDbSymbolTableRecord
100
AcDbLayerTableRecord
  2
SUN_STD_SAE-4_PORT
 70
0
 62
7
  6
CONTINUOUS
370
-3
390
F
  0
LAYER
  5
231
100
AcDbSymbolTableRecord
100
AcDbLayerTableRecord
  2
T-8A_CAVITY
 70
0
 62
7
  6
CONTINUOUS
370
-3
390
F
  0
LAYER
  5
232
100
AcDbSymbolTableRecord
100
AcDbLayerTableRecord
  2
T-8A_CAVITY-INCOMPLETE
 70
0
 62
7
  6
CONTINUOUS
370
-3
390
F
  0
LAYER
  5
233
100
AcDbSymbolTableRecord
100
AcDbLayerTableRecord
  2
TEXT
 70
0
 62
7
  6
CONTINUOUS
370
-3
390
F
  0
LAYER
  5
234
100
AcDbSymbolTableRecord
100
AcDbLayerTableRecord
  2
THREAD
 70
0
 62
7
  6
CONTINUOUS
370
-3
390
F
  0
ENDTAB
  0
TABLE
  2
STYLE
  5
3
100
AcDbSymbolTable
 70
1
  0
STYLE
  5
11
100
AcDbSymbolTableRecord
100
AcDbTextStyleTableRecord
  2
STANDARD
 70
0
 40
0.0
 41
0.8
 50
0.0
 71
0
 42
0.2
  3
txt
  4

  0
ENDTAB
  0
TABLE
  2
VIEW
  5
6
100
AcDbSymbolTable
 70
0
  0
ENDTAB
  0
TABLE
  2
UCS
  5
7
100
AcDbSymbolTable
 70
0
  0
ENDTAB
  0
TABLE
  2
APPID
  5
9
100
AcDbSymbolTable
 70
1
  0
APPID
  5
235
100
AcDbSymbolTableRecord
100
AcDbRegAppTableRecord
  2
ACAD
 70
0
  0
ENDTAB
  0
TABLE
  2
BLOCK_RECORD
  5
1
100
AcDbSymbolTable
 70
0
  0
BLOCK_RECORD
  5
1F
100
AcDbSymbolTableRecord
100
AcDbBlockTableRecord
  2
*MODEL_SPACE
  0
BLOCK_RECORD
  5
1B
100
AcDbSymbolTableRecord
100
AcDbBlockTableRecord
  2
*PAPER_SPACE
  0
ENDTAB
  0
TABLE
  2
DIMSTYLE
  5
A
100
AcDbSymbolTable
 70
1
100
AcDbDimStyleTable
 71
0
  0
DIMSTYLE
105
236
100
AcDbSymbolTableRecord
100
AcDbDimStyleTableRecord
  2
STANDARD
 70
0
  3

  4

 40
1.0
 41
0.1875
 42
0.0625
 43
0.38
 44
0.18
 45
0.0
 46
0.0
 47
0.01
 48
0.01
140
0.15625
141
0.09
142
0.0
143
25.4
144
1.0
145
0.0
146
1.0
147
0.09
 71
0.0
 72
0.0
 73
1
 74
1
 75
0
 76
0
 77
0
 78
4
170
0
171
2
172
0
173
0
174
0
175
0
176
0
177
0
178
0
270
2
271
2
272
2
273
2
274
2
275
0
280
0
281
0
282
0
283
1
284
4
285
0
286
0
287
3
288
0
340
11
  0
ENDTAB
  0
ENDSEC
  0
SECTION
  2
BLOCKS
  0
BLOCK
  5
20
100
AcDbEntity
  8
0
100
AcDbBlockBegin
  2
*MODEL_SPACE
 70
0
 10
0.0
 20
0.0
 30
0.0
  3
*MODEL_SPACE
  1

  0
ENDBLK
  5
21
100
AcDbEntity
  8
0
100
AcDbBlockEnd
  0
BLOCK
  5
1C
100
AcDbEntity
  8
0
100
AcDbBlockBegin
  2
*PAPER_SPACE
 70
0
 10
0.0
 20
0.0
 30
0.0
  3
*PAPER_SPACE
  1

  0
ENDBLK
  5
1D
100
AcDbEntity
  8
0
100
AcDbBlockEnd
  0
ENDSEC
  0
SECTION
  2
ENTITIES
  0
LINE
  5
237
100
AcDbEntity
  8
0
100
AcDbLine
 62
7
  6
CONTINUOUS
 10
3.6209321681
 20
3.7102583076
 11
3.6209321681
 21
4.9502583076
  0
LINE
  5
238
100
AcDbEntity
  8
03__ASM_ALL_CURVES
100
AcDbLine
 62
40
  6
CONTINUOUS
 10
3.6209321681
 20
4.9502583076
 11
3.6209321681
 21
5.3414203076
  0
LINE
  5
239
100
AcDbEntity
  8
0
100
AcDbLine
 62
7
  6
CONTINUOUS
 10
3.6723163421
 20
3.6212583076
 11
3.6723163421
 21
3.6216193087
  0
LINE
  5
23A
100
AcDbEntity
  8
0
100
AcDbLine
 62
7
  6
CONTINUOUS
 10
3.6723163421
 20
3.9563473065
 11
3.6723163421
 21
3.9955303098
  0
LINE
  5
23B
100
AcDbEntity
  8
0
100
AcDbLine
 62
7
  6
CONTINUOUS
 10
3.6723163421
 20
4.6649863054
 11
3.6723163421
 21
4.7041693087
  0
LINE
  5
23C
100
AcDbEntity
  8
0
100
AcDbLine
 62
7
  6
CONTINUOUS
 10
3.6723163421
 20
5.0388973065
 11
3.6723163421
 21
5.0392583076
  0
LINE
  5
23D
100
AcDbEntity
  8
0
100
AcDbLine
 62
7
  6
CONTINUOUS
 10
3.6723163421
 20
5.0392583076
 11
3.6209321681
 21
4.9502583076
  0
LINE
  5
23E
100
AcDbEntity
  8
0
100
AcDbLine
 62
7
  6
CONTINUOUS
 10
3.6723163421
 20
3.6212583076
 11
3.6209321681
 21
3.7102583076
  0
LINE
  5
23F
100
AcDbEntity
  8
03__ASM_ALL_CURVES
100
AcDbLine
 62
40
  6
CONTINUOUS
 10
3.7296821681
 20
5.3232953076
 11
3.7296821681
 21
5.2870453076
  0
LINE
  5
240
100
AcDbEntity
  8
03__ASM_ALL_CURVES
100
AcDbLine
 62
40
  6
CONTINUOUS
 10
4.2324009181
 20
5.4169411391
 11
4.2380649806
 21
5.4244932261
  0
LINE
  5
241
100
AcDbEntity
  8
03__ASM_ALL_CURVES
100
AcDbLine
 62
40
  6
CONTINUOUS
 10
4.2267368556
 20
5.3716286418
 11
4.2380649806
 21
5.3867328076
  0
LINE
  5
242
100
AcDbEntity
  8
03__ASM_ALL_CURVES
100
AcDbLine
 62
40
  6
CONTINUOUS
 10
4.2777134181
 20
5.4093890576
 11
4.2720493556
 21
5.4018369761
  0
LINE
  5
243
100
AcDbEntity
  8
03__ASM_ALL_CURVES
100
AcDbLine
 62
40
  6
CONTINUOUS
 10
4.2833774806
 20
5.3640765576
 11
4.2720493556
 21
5.3489723912
  0
LINE
  5
244
100
AcDbEntity
  8
03__ASM_ALL_CURVES
100
AcDbLine
 62
40
  6
CONTINUOUS
 10
4.2380649806
 20
5.4244932261
 11
4.2493931056
 21
5.4320453076
  0
LINE
  5
245
100
AcDbEntity
  8
03__ASM_ALL_CURVES
100
AcDbLine
 62
40
  6
CONTINUOUS
 10
4.0738071681
 20
5.4320453076
 11
4.0738071681
 21
5.3414203076
  0
LINE
  5
246
100
AcDbEntity
  8
03__ASM_ALL_CURVES
100
AcDbLine
 62
40
  6
CONTINUOUS
 10
4.1587681056
 20
5.3414203076
 11
4.1587681056
 21
5.3489723912
  0
LINE
  5
247
100
AcDbEntity
  8
03__ASM_ALL_CURVES
100
AcDbLine
 62
40
  6
CONTINUOUS
 10
4.5439243556
 20
5.4320453076
 11
4.5042759181
 21
5.3640765576
  0
LINE
  5
248
100
AcDbEntity
  8
03__ASM_ALL_CURVES
100
AcDbLine
 62
40
  6
CONTINUOUS
 10
4.4419712306
 20
5.4320453076
 11
4.4306431056
 21
5.4169411391
  0
LINE
  5
249
100
AcDbEntity
  8
03__ASM_ALL_CURVES
100
AcDbLine
 62
40
  6
CONTINUOUS
 10
4.2380649806
 20
5.3867328076
 11
4.2493931056
 21
5.3942848891
  0
LINE
  5
24A
100
AcDbEntity
  8
03__ASM_ALL_CURVES
100
AcDbLine
 62
40
  6
CONTINUOUS
 10
4.2720493556
 20
5.4018369761
 11
4.2607212306
 21
5.3942848891
  0
LINE
  5
24B
100
AcDbEntity
  8
03__ASM_ALL_CURVES
100
AcDbLine
 62
40
  6
CONTINUOUS
 10
4.2720493556
 20
5.3489723912
 11
4.2607212306
 21
5.3414203076
  0
LINE
  5
24C
100
AcDbEntity
  8
03__ASM_ALL_CURVES
100
AcDbLine
 62
40
  6
CONTINUOUS
 10
4.2267368556
 20
5.3640765576
 11
4.2267368556
 21
5.3716286418
  0
LINE
  5
24D
100
AcDbEntity
  8
03__ASM_ALL_CURVES
100
AcDbLine
 62
40
  6
CONTINUOUS
 10
4.2324009181
 20
5.4093890576
 11
4.2324009181
 21
5.4169411391
  0
LINE
  5
24E
100
AcDbEntity
  8
03__ASM_ALL_CURVES
100
AcDbLine
 62
40
  6
CONTINUOUS
 10
4.2777134181
 20
5.4169411391
 11
4.2777134181
 21
5.4093890576
  0
LINE
  5
24F
100
AcDbEntity
  8
03__ASM_ALL_CURVES
100
AcDbLine
 62
40
  6
CONTINUOUS
 10
4.2833774806
 20
5.3716286418
 11
4.2833774806
 21
5.3640765576
  0
LINE
  5
250
100
AcDbEntity
  8
03__ASM_ALL_CURVES
100
AcDbLine
 62
40
  6
CONTINUOUS
 10
4.3456821681
 20
5.4320453076
 11
4.3456821681
 21
5.3414203076
  0
LINE
  5
251
100
AcDbEntity
  8
03__ASM_ALL_CURVES
100
AcDbLine
 62
40
  6
CONTINUOUS
 10
4.4306431056
 20
5.4169411391
 11
4.4249790431
 21
5.3942848891
  0
LINE
  5
252
100
AcDbEntity
  8
03__ASM_ALL_CURVES
100
AcDbLine
 62
40
  6
CONTINUOUS
 10
4.6458774806
 20
5.3716286418
 11
4.6402134181
 21
5.3565244747
  0
LINE
  5
253
100
AcDbEntity
  8
0
100
AcDbLine
 62
7
  6
CONTINUOUS
 10
4.4069321681
 20
5.1097583076
 11
4.3662289742
 21
5.0392583076
  0
LINE
  5
254
100
AcDbEntity
  8
03__ASM_ALL_CURVES
100
AcDbLine
 62
40
  6
CONTINUOUS
 10
4.6402134181
 20
5.3565244747
 11
4.6345493556
 21
5.3489723912
  0
LINE
  5
255
100
AcDbEntity
  8
03__ASM_ALL_CURVES
100
AcDbLine
 62
40
  6
CONTINUOUS
 10
4.7818149806
 20
5.4169411391
 11
4.7874790431
 21
5.4244932261
  0
LINE
  5
256
100
AcDbEntity
  8
03__ASM_ALL_CURVES
100
AcDbLine
 62
40
  6
CONTINUOUS
 10
4.6005649806
 20
5.3942848891
 11
4.6118931056
 21
5.4018369761
  0
LINE
  5
257
100
AcDbEntity
  8
03__ASM_ALL_CURVES
100
AcDbLine
 62
40
  6
CONTINUOUS
 10
4.6345493556
 20
5.3489723912
 11
4.6232212306
 21
5.3414203076
  0
LINE
  5
258
100
AcDbEntity
  8
03__ASM_ALL_CURVES
100
AcDbLine
 62
40
  6
CONTINUOUS
 10
4.7874790431
 20
5.4244932261
 11
4.7988071681
 21
5.4320453076
  0
LINE
  5
259
100
AcDbEntity
  8
0
100
AcDbLine
 62
7
  6
CONTINUOUS
 10
4.4069321681
 20
3.5507583076
 11
4.3662289742
 21
3.6212583076
  0
LINE
  5
25A
100
AcDbEntity
  8
0
100
AcDbLine
 62
7
  6
CONTINUOUS
 10
4.3662289742
 20
3.6212583076
 11
4.3662289742
 21
5.0392583076
  0
LINE
  5
25B
100
AcDbEntity
  8
0
100
AcDbLine
 62
7
  6
CONTINUOUS
 10
4.4069321681
 20
3.5507583076
 11
4.4069321681
 21
5.1097583076
  0
LINE
  5
25C
100
AcDbEntity
  8
03__ASM_ALL_CURVES
100
AcDbLine
 62
40
  6
CONTINUOUS
 10
4.4249790431
 20
5.3942848891
 11
4.4249790431
 21
5.3791807234
  0
LINE
  5
25D
100
AcDbEntity
  8
03__ASM_ALL_CURVES
100
AcDbLine
 62
40
  6
CONTINUOUS
 10
4.6062290431
 20
5.4320453076
 11
4.6005649806
 21
5.3942848891
  0
LINE
  5
25E
100
AcDbEntity
  8
03__ASM_ALL_CURVES
100
AcDbLine
 62
40
  6
CONTINUOUS
 10
4.7761509181
 20
5.4018369761
 11
4.7818149806
 21
5.4169411391
  0
LINE
  5
25F
100
AcDbEntity
  8
03__ASM_ALL_CURVES
100
AcDbLine
 62
40
  6
CONTINUOUS
 10
4.8214634181
 20
5.4018369761
 11
4.8157993556
 21
5.3867328076
  0
LINE
  5
260
100
AcDbEntity
  8
03__ASM_ALL_CURVES
100
AcDbLine
 62
40
  6
CONTINUOUS
 10
4.8214634181
 20
5.3716286418
 11
4.8157993556
 21
5.3565244747
  0
LINE
  5
261
100
AcDbEntity
  8
03__ASM_ALL_CURVES
100
AcDbLine
 62
40
  6
CONTINUOUS
 10
4.8157993556
 20
5.3565244747
 11
4.8101352931
 21
5.3489723912
  0
LINE
  5
262
100
AcDbEntity
  8
03__ASM_ALL_CURVES
100
AcDbLine
 62
40
  6
CONTINUOUS
 10
4.9857212306
 20
5.3565244747
 11
4.9743931056
 21
5.3414203076
  0
LINE
  5
263
100
AcDbEntity
  8
03__ASM_ALL_CURVES
100
AcDbLine
 62
40
  6
CONTINUOUS
 10
4.8101352931
 20
5.3489723912
 11
4.7988071681
 21
5.3414203076
  0
LINE
  5
264
100
AcDbEntity
  8
03__ASM_ALL_CURVES
100
AcDbLine
 62
40
  6
CONTINUOUS
 10
4.8157993556
 20
5.3867328076
 11
4.7988071681
 21
5.3791807234
  0
LINE
  5
265
100
AcDbEntity
  8
03__ASM_ALL_CURVES
100
AcDbLine
 62
40
  6
CONTINUOUS
 10
5.0885913542
 20
3.1422895576
 11
5.0800952604
 21
3.1479536203
  0
LINE
  5
266
100
AcDbEntity
  8
03__ASM_ALL_CURVES
100
AcDbLine
 62
40
  6
CONTINUOUS
 10
5.0291186979
 20
3.2102583076
 11
5.0376147917
 21
3.2045942464
  0
LINE
  5
267
100
AcDbEntity
  8
03__ASM_ALL_CURVES
100
AcDbLine
 62
40
  6
CONTINUOUS
 10
4.5439243556
 20
5.3414203076
 11
4.5439243556
 21
5.4320453076
  0
LINE
  5
268
100
AcDbEntity
  8
0
100
AcDbLine
 62
7
  6
CONTINUOUS
 10
4.6209321681
 20
3.5507583076
 11
4.6209321681
 21
5.1097583076
  0
LINE
  5
269
100
AcDbEntity
  8
0
100
AcDbLine
 62
7
  6
CONTINUOUS
 10
4.6709321681
 20
3.5507583076
 11
4.6709321681
 21
5.1097583076
  0
LINE
  5
26A
100
AcDbEntity
  8
03__ASM_ALL_CURVES
100
AcDbLine
 62
40
  6
CONTINUOUS
 10
4.8950962306
 20
5.3791807234
 11
4.9007602931
 21
5.4018369761
  0
LINE
  5
26B
100
AcDbEntity
  8
03__ASM_ALL_CURVES
100
AcDbLine
 62
40
  6
CONTINUOUS
 10
4.9007602931
 20
5.4018369761
 11
4.9120884181
 21
5.4320453076
  0
LINE
  5
26C
100
AcDbEntity
  8
03__ASM_ALL_CURVES
100
AcDbLine
 62
40
  6
CONTINUOUS
 10
6.4192114296
 20
3.1422895576
 11
6.4107153359
 21
3.1422895576
  0
LINE
  5
26D
100
AcDbEntity
  8
03__ASM_ALL_CURVES
100
AcDbLine
 62
40
  6
CONTINUOUS
 10
5.3009936979
 20
3.1422895576
 11
5.2924976042
 21
3.1422895576
  0
LINE
  5
26E
100
AcDbEntity
  8
03__ASM_ALL_CURVES
100
AcDbLine
 62
40
  6
CONTINUOUS
 10
5.0970874479
 20
3.1422895576
 11
5.0885913542
 21
3.1422895576
  0
LINE
  5
26F
100
AcDbEntity
  8
03__ASM_ALL_CURVES
100
AcDbLine
 62
40
  6
CONTINUOUS
 10
6.6018774452
 20
3.1422895576
 11
6.6358618202
 21
3.1422895576
  0
LINE
  5
270
100
AcDbEntity
  8
03__ASM_ALL_CURVES
100
AcDbLine
 62
40
  6
CONTINUOUS
 10
5.0970874479
 20
3.2102583076
 11
5.1055835417
 21
3.2045942464
  0
LINE
  5
271
100
AcDbEntity
  8
03__ASM_ALL_CURVES
100
AcDbLine
 62
40
  6
CONTINUOUS
 10
5.1650561979
 20
3.2102583076
 11
5.1735522917
 21
3.2045942464
  0
LINE
  5
272
100
AcDbEntity
  8
03__ASM_ALL_CURVES
100
AcDbLine
 62
40
  6
CONTINUOUS
 10
5.2924976042
 20
3.1422895576
 11
5.2840015104
 21
3.1479536203
  0
LINE
  5
273
100
AcDbEntity
  8
03__ASM_ALL_CURVES
100
AcDbLine
 62
40
  6
CONTINUOUS
 10
5.3009936979
 20
3.1819379937
 11
5.3094897917
 21
3.1762739326
  0
LINE
  5
274
100
AcDbEntity
  8
03__ASM_ALL_CURVES
100
AcDbLine
 62
40
  6
CONTINUOUS
 10
5.3009936979
 20
3.2102583076
 11
5.3094897917
 21
3.2045942464
  0
LINE
  5
275
100
AcDbEntity
  8
03__ASM_ALL_CURVES
100
AcDbLine
 62
40
  6
CONTINUOUS
 10
5.0800952604
 20
3.1479536203
 11
5.0715991667
 21
3.1592817451
  0
LINE
  5
276
100
AcDbEntity
  8
03__ASM_ALL_CURVES
100
AcDbLine
 62
40
  6
CONTINUOUS
 10
5.0376147917
 20
3.2045942464
 11
5.0418628385
 21
3.1989301812
  0
LINE
  5
277
100
AcDbEntity
  8
03__ASM_ALL_CURVES
100
AcDbLine
 62
40
  6
CONTINUOUS
 10
5.1055835417
 20
3.2045942464
 11
5.1140796354
 21
3.1932661201
  0
LINE
  5
278
100
AcDbEntity
  8
03__ASM_ALL_CURVES
100
AcDbLine
 62
40
  6
CONTINUOUS
 10
5.1735522917
 20
3.2045942464
 11
5.1778003385
 21
3.1989301812
  0
LINE
  5
279
100
AcDbEntity
  8
03__ASM_ALL_CURVES
100
AcDbLine
 62
40
  6
CONTINUOUS
 10
4.7025181056
 20
5.3414203076
 11
4.7025181056
 21
5.3489723912
  0
LINE
  5
27A
100
AcDbEntity
  8
0
100
AcDbLine
 62
7
  6
CONTINUOUS
 10
4.7739321681
 20
5.0732583076
 11
4.7739321681
 21
3.5872583076
  0
LINE
  5
27B
100
AcDbEntity
  8
0
100
AcDbLine
 62
7
  6
CONTINUOUS
 10
4.7949321681
 20
3.5507583076
 11
4.7949321681
 21
5.1097583076
  0
LINE
  5
27C
100
AcDbEntity
  8
03__ASM_ALL_CURVES
100
AcDbLine
 62
40
  6
CONTINUOUS
 10
4.8214634181
 20
5.4018369761
 11
4.8214634181
 21
5.3716286418
  0
LINE
  5
27D
100
AcDbEntity
  8
03__ASM_ALL_CURVES
100
AcDbLine
 62
40
  6
CONTINUOUS
 10
4.8894321681
 20
5.3414203076
 11
4.8950962306
 21
5.3791807234
  0
LINE
  5
27E
100
AcDbEntity
  8
03__ASM_ALL_CURVES
100
AcDbLine
 62
40
  6
CONTINUOUS
 10
4.9913852931
 20
5.3791807234
 11
4.9857212306
 21
5.3565244747
  0
LINE
  5
27F
100
AcDbEntity
  8
03__ASM_ALL_CURVES
100
AcDbLine
 62
40
  6
CONTINUOUS
 10
5.6742212299
 20
5.4244932261
 11
5.6855493549
 21
5.4320453076
  0
LINE
  5
280
100
AcDbEntity
  8
03__ASM_ALL_CURVES
100
AcDbLine
 62
40
  6
CONTINUOUS
 10
5.7648462299
 20
5.4244932261
 11
5.7761743549
 21
5.4320453076
  0
LINE
  5
281
100
AcDbEntity
  8
03__ASM_ALL_CURVES
100
AcDbLine
 62
40
  6
CONTINUOUS
 10
6.4871801796
 20
3.1762739326
 11
6.4659399452
 21
3.1762739326
  0
LINE
  5
282
100
AcDbEntity
  8
03__ASM_ALL_CURVES
100
AcDbLine
 62
40
  6
CONTINUOUS
 10
6.3512426796
 20
3.1762739326
 11
6.3300024452
 21
3.1762739326
  0
LINE
  5
283
100
AcDbEntity
  8
03__ASM_ALL_CURVES
100
AcDbLine
 62
40
  6
CONTINUOUS
 10
5.1650561979
 20
3.1762739326
 11
5.1438159635
 21
3.1762739326
  0
LINE
  5
284
100
AcDbEntity
  8
03__ASM_ALL_CURVES
100
AcDbLine
 62
40
  6
CONTINUOUS
 10
5.0291186979
 20
3.1762739326
 11
5.0078784635
 21
3.1762739326
  0
LINE
  5
285
100
AcDbEntity
  8
03__ASM_ALL_CURVES
100
AcDbLine
 62
40
  6
CONTINUOUS
 10
5.2924976042
 20
3.1819379937
 11
5.3009936979
 21
3.1819379937
  0
LINE
  5
286
100
AcDbEntity
  8
03__ASM_ALL_CURVES
100
AcDbLine
 62
40
  6
CONTINUOUS
 10
5.0078784635
 20
3.2102583076
 11
5.0291186979
 21
3.2102583076
  0
LINE
  5
287
100
AcDbEntity
  8
03__ASM_ALL_CURVES
100
AcDbLine
 62
40
  6
CONTINUOUS
 10
5.0885913542
 20
3.2102583076
 11
5.0970874479
 21
3.2102583076
  0
LINE
  5
288
100
AcDbEntity
  8
03__ASM_ALL_CURVES
100
AcDbLine
 62
40
  6
CONTINUOUS
 10
5.1438159635
 20
3.2102583076
 11
5.1650561979
 21
3.2102583076
  0
LINE
  5
289
100
AcDbEntity
  8
03__ASM_ALL_CURVES
100
AcDbLine
 62
40
  6
CONTINUOUS
 10
5.2075366667
 20
3.2102583076
 11
5.2500171354
 21
3.2102583076
  0
LINE
  5
28A
100
AcDbEntity
  8
03__ASM_ALL_CURVES
100
AcDbLine
 62
40
  6
CONTINUOUS
 10
5.2924976042
 20
3.2102583076
 11
5.3009936979
 21
3.2102583076
  0
LINE
  5
28B
100
AcDbEntity
  8
03__ASM_ALL_CURVES
100
AcDbLine
 62
40
  6
CONTINUOUS
 10
6.3300024452
 20
3.2102583076
 11
6.3512426796
 21
3.2102583076
  0
LINE
  5
28C
100
AcDbEntity
  8
03__ASM_ALL_CURVES
100
AcDbLine
 62
40
  6
CONTINUOUS
 10
6.4107153359
 20
3.2102583076
 11
6.4192114296
 21
3.2102583076
  0
LINE
  5
28D
100
AcDbEntity
  8
03__ASM_ALL_CURVES
100
AcDbLine
 62
40
  6
CONTINUOUS
 10
6.4659399452
 20
3.2102583076
 11
6.4871801796
 21
3.2102583076
  0
LINE
  5
28E
100
AcDbEntity
  8
03__ASM_ALL_CURVES
100
AcDbLine
 62
40
  6
CONTINUOUS
 10
6.5296606484
 20
3.2102583076
 11
6.5721411171
 21
3.2102583076
  0
LINE
  5
28F
100
AcDbEntity
  8
03__ASM_ALL_CURVES
100
AcDbLine
 62
40
  6
CONTINUOUS
 10
6.6146215859
 20
3.2102583076
 11
6.6231176796
 21
3.2102583076
  0
LINE
  5
290
100
AcDbEntity
  8
03__ASM_ALL_CURVES
100
AcDbLine
 62
40
  6
CONTINUOUS
 10
5.2840015104
 20
3.1479536203
 11
5.2797534635
 21
3.1536176829
  0
LINE
  5
291
100
AcDbEntity
  8
03__ASM_ALL_CURVES
100
AcDbLine
 62
40
  6
CONTINUOUS
 10
5.3094897917
 20
3.1762739326
 11
5.3179858854
 21
3.1649458083
  0
LINE
  5
292
100
AcDbEntity
  8
03__ASM_ALL_CURVES
100
AcDbLine
 62
40
  6
CONTINUOUS
 10
5.3094897917
 20
3.2045942464
 11
5.3137378385
 21
3.1989301812
  0
LINE
  5
293
100
AcDbEntity
  8
03__ASM_ALL_CURVES
100
AcDbLine
 62
40
  6
CONTINUOUS
 10
5.1650561979
 20
3.1762739326
 11
5.1778003385
 21
3.1422895576
  0
LINE
  5
294
100
AcDbEntity
  8
03__ASM_ALL_CURVES
100
AcDbLine
 62
40
  6
CONTINUOUS
 10
4.4249790431
 20
5.3791807234
 11
4.4306431056
 21
5.3565244747
  0
LINE
  5
295
100
AcDbEntity
  8
03__ASM_ALL_CURVES
100
AcDbLine
 62
40
  6
CONTINUOUS
 10
5.0715991667
 20
3.1592817451
 11
5.0673511198
 21
3.1762739326
  0
LINE
  5
296
100
AcDbEntity
  8
0
100
AcDbLine
 62
7
  6
CONTINUOUS
 10
4.8569321681
 20
3.5507583076
 11
4.8569321681
 21
5.1097583076
  0
LINE
  5
297
100
AcDbEntity
  8
0
100
AcDbLine
 62
7
  6
CONTINUOUS
 10
4.9282349264
 20
3.6742583076
 11
4.9282349264
 21
4.9862583076
  0
LINE
  5
298
100
AcDbEntity
  8
03__ASM_ALL_CURVES
100
AcDbLine
 62
40
  6
CONTINUOUS
 10
4.9913852931
 20
5.3942848891
 11
4.9913852931
 21
5.3791807234
  0
LINE
  5
299
100
AcDbEntity
  8
0
100
AcDbLine
 62
7
  6
CONTINUOUS
 10
5.3469321681
 20
5.1082583076
 11
5.2764954353
 21
4.9862583076
  0
LINE
  5
29A
100
AcDbEntity
  8
03__ASM_ALL_CURVES
100
AcDbLine
 62
40
  6
CONTINUOUS
 10
5.7082056049
 20
5.3489723912
 11
5.6968774799
 21
5.3414203076
  0
LINE
  5
29B
100
AcDbEntity
  8
03__ASM_ALL_CURVES
100
AcDbLine
 62
40
  6
CONTINUOUS
 10
5.7988306049
 20
5.3489723912
 11
5.7875024799
 21
5.3414203076
  0
LINE
  5
29C
100
AcDbEntity
  8
03__ASM_ALL_CURVES
100
AcDbLine
 62
40
  6
CONTINUOUS
 10
5.1140796354
 20
3.1932661201
 11
5.1183276823
 21
3.1762739326
  0
LINE
  5
29D
100
AcDbEntity
  8
03__ASM_ALL_CURVES
100
AcDbLine
 62
40
  6
CONTINUOUS
 10
5.0078784635
 20
3.1422895576
 11
5.0078784635
 21
3.2102583076
  0
LINE
  5
29E
100
AcDbEntity
  8
03__ASM_ALL_CURVES
100
AcDbLine
 62
40
  6
CONTINUOUS
 10
5.0418628385
 20
3.1989301812
 11
5.0418628385
 21
3.1876020589
  0
LINE
  5
29F
100
AcDbEntity
  8
03__ASM_ALL_CURVES
100
AcDbLine
 62
40
  6
CONTINUOUS
 10
5.1438159635
 20
3.1422895576
 11
5.1438159635
 21
3.2102583076
  0
LINE
  5
2A0
100
AcDbEntity
  8
03__ASM_ALL_CURVES
100
AcDbLine
 62
40
  6
CONTINUOUS
 10
5.6628931049
 20
5.4093890576
 11
5.6742212299
 21
5.4244932261
  0
LINE
  5
2A1
100
AcDbEntity
  8
03__ASM_ALL_CURVES
100
AcDbLine
 62
40
  6
CONTINUOUS
 10
5.7195337299
 20
5.3640765576
 11
5.7082056049
 21
5.3489723912
  0
LINE
  5
2A2
100
AcDbEntity
  8
03__ASM_ALL_CURVES
100
AcDbLine
 62
40
  6
CONTINUOUS
 10
5.7535181049
 20
5.4093890576
 11
5.7648462299
 21
5.4244932261
  0
LINE
  5
2A3
100
AcDbEntity
  8
03__ASM_ALL_CURVES
100
AcDbLine
 62
40
  6
CONTINUOUS
 10
5.8044946674
 20
5.3565244747
 11
5.7988306049
 21
5.3489723912
  0
LINE
  5
2A4
100
AcDbEntity
  8
03__ASM_ALL_CURVES
100
AcDbLine
 62
40
  6
CONTINUOUS
 10
6.2179712299
 20
5.4244932261
 11
6.2292993549
 21
5.4320453076
  0
LINE
  5
2A5
100
AcDbEntity
  8
0
100
AcDbLine
 62
7
  6
CONTINUOUS
 10
4.8569321681
 20
3.5507583076
 11
4.7949321681
 21
3.5507583076
  0
LINE
  5
2A6
100
AcDbEntity
  8
0
100
AcDbLine
 62
7
  6
CONTINUOUS
 10
4.4069321681
 20
3.5507583076
 11
4.6709321681
 21
3.5507583076
  0
LINE
  5
2A7
100
AcDbEntity
  8
0
100
AcDbLine
 62
7
  6
CONTINUOUS
 10
5.4329321681
 20
3.5522583076
 11
5.3469321681
 21
3.5522583076
  0
LINE
  5
2A8
100
AcDbEntity
  8
0
100
AcDbLine
 62
7
  6
CONTINUOUS
 10
5.5829321681
 20
3.6122583076
 11
5.6329321681
 21
3.6122583076
  0
LINE
  5
2A9
100
AcDbEntity
  8
THREAD
100
AcDbLine
 62
7
  6
CONTINUOUS
 10
5.4799321681
 20
3.6127583076
 11
5.4329321681
 21
3.6127583076
  0
LINE
  5
2AA
100
AcDbEntity
  8
0
100
AcDbLine
 62
7
  6
CONTINUOUS
 10
4.3662289742
 20
3.6212583076
 11
3.6723163421
 21
3.6212583076
  0
LINE
  5
2AB
100
AcDbEntity
  8
0
100
AcDbLine
 62
7
  6
CONTINUOUS
 10
4.3662289742
 20
3.6216193087
 11
3.6723163421
 21
3.6216193087
  0
LINE
  5
2AC
100
AcDbEntity
  8
THREAD
100
AcDbLine
 62
7
  6
CONTINUOUS
 10
5.9809321681
 20
3.6287583076
 11
5.6806449811
 21
3.6287583076
  0
LINE
  5
2AD
100
AcDbEntity
  8
0
100
AcDbLine
 62
7
  6
CONTINUOUS
 10
4.7949321681
 20
3.6387583076
 11
4.7739321681
 21
3.6387583076
  0
LINE
  5
2AE
100
AcDbEntity
  8
03__ASM_ALL_CURVES
100
AcDbLine
 62
40
  6
CONTINUOUS
 10
4.1587681056
 20
5.3489723912
 11
4.1644321681
 21
5.3414203076
  0
LINE
  5
2AF
100
AcDbEntity
  8
0
100
AcDbLine
 62
7
  6
CONTINUOUS
 10
5.3469321681
 20
3.5522583076
 11
5.2764954353
 21
3.6742583076
  0
LINE
  5
2B0
100
AcDbEntity
  8
03__ASM_ALL_CURVES
100
AcDbLine
 62
40
  6
CONTINUOUS
 10
4.6402134181
 20
5.3867328076
 11
4.6458774806
 21
5.3716286418
  0
LINE
  5
2B1
100
AcDbEntity
  8
03__ASM_ALL_CURVES
100
AcDbLine
 62
40
  6
CONTINUOUS
 10
5.1778003385
 20
3.1989301812
 11
5.1778003385
 21
3.1876020589
  0
LINE
  5
2B2
100
AcDbEntity
  8
03__ASM_ALL_CURVES
100
AcDbLine
 62
40
  6
CONTINUOUS
 10
5.228776901
 20
3.2102583076
 11
5.228776901
 21
3.1422895576
  0
LINE
  5
2B3
100
AcDbEntity
  8
0
100
AcDbLine
 62
7
  6
CONTINUOUS
 10
5.2764954353
 20
3.6742583076
 11
5.2764954353
 21
4.9862583076
  0
LINE
  5
2B4
100
AcDbEntity
  8
03__ASM_ALL_CURVES
100
AcDbLine
 62
40
  6
CONTINUOUS
 10
5.3137378385
 20
3.1989301812
 11
5.3137378385
 21
3.1932661201
  0
LINE
  5
2B5
100
AcDbEntity
  8
03__ASM_ALL_CURVES
100
AcDbLine
 62
40
  6
CONTINUOUS
 10
5.3179858854
 20
3.1649458083
 11
5.3179858854
 21
3.1592817451
  0
LINE
  5
2B6
100
AcDbEntity
  8
03__ASM_ALL_CURVES
100
AcDbLine
 62
40
  6
CONTINUOUS
 10
5.3241821681
 20
5.3232953076
 11
5.3241821681
 21
5.2870453076
  0
LINE
  5
2B7
100
AcDbEntity
  8
THREAD
100
AcDbLine
 62
7
  6
CONTINUOUS
 10
5.6806449811
 20
5.0317583076
 11
5.6529321681
 21
4.9837583076
  0
LINE
  5
2B8
100
AcDbEntity
  8
03__ASM_ALL_CURVES
100
AcDbLine
 62
40
  6
CONTINUOUS
 10
6.2519556049
 20
5.3489723912
 11
6.2406274799
 21
5.3414203076
  0
LINE
  5
2B9
100
AcDbEntity
  8
03__ASM_ALL_CURVES
100
AcDbLine
 62
40
  6
CONTINUOUS
 10
6.4105493549
 20
5.4320453076
 11
6.3992212299
 21
5.4244932261
  0
LINE
  5
2BA
100
AcDbEntity
  8
03__ASM_ALL_CURVES
100
AcDbLine
 62
40
  6
CONTINUOUS
 10
6.4332056049
 20
5.3489723912
 11
6.4218774799
 21
5.3414203076
  0
LINE
  5
2BB
100
AcDbEntity
  8
03__ASM_ALL_CURVES
100
AcDbLine
 62
40
  6
CONTINUOUS
 10
6.5804712299
 20
5.4244932261
 11
6.5917993549
 21
5.4320453076
  0
LINE
  5
2BC
100
AcDbEntity
  8
0
100
AcDbLine
 62
7
  6
CONTINUOUS
 10
5.2764954353
 20
3.6742583076
 11
4.9282349264
 21
3.6742583076
  0
LINE
  5
2BD
100
AcDbEntity
  8
THREAD
100
AcDbLine
 62
7
  6
CONTINUOUS
 10
6.1389321681
 20
3.6897583076
 11
6.0419321681
 21
3.6897583076
  0
LINE
  5
2BE
100
AcDbEntity
  8
0
100
AcDbLine
 62
7
  6
CONTINUOUS
 10
6.9439321681
 20
3.7062583076
 11
6.9939321681
 21
3.7062583076
  0
LINE
  5
2BF
100
AcDbEntity
  8
0
100
AcDbLine
 62
7
  6
CONTINUOUS
 10
7.0969321681
 20
3.7062583076
 11
7.1469321681
 21
3.7062583076
  0
LINE
  5
2C0
100
AcDbEntity
  8
0
100
AcDbLine
 62
7
  6
CONTINUOUS
 10
6.8639321681
 20
3.7067583076
 11
6.9439321681
 21
3.7067583076
  0
LINE
  5
2C1
100
AcDbEntity
  8
0
100
AcDbLine
 62
7
  6
CONTINUOUS
 10
7.1679321681
 20
3.7067583076
 11
7.2149321681
 21
3.7067583076
  0
LINE
  5
2C2
100
AcDbEntity
  8
0
100
AcDbLine
 62
7
  6
CONTINUOUS
 10
7.1679321681
 20
3.7942583076
 11
7.1469321681
 21
3.7942583076
  0
LINE
  5
2C3
100
AcDbEntity
  8
0
100
AcDbLine
 62
7
  6
CONTINUOUS
 10
6.6204321681
 20
3.8007583076
 11
6.1519321681
 21
3.8007583076
  0
LINE
  5
2C4
100
AcDbEntity
  8
03__ASM_ALL_CURVES
100
AcDbLine
 62
40
  6
CONTINUOUS
 10
6.4107153359
 20
3.1422895576
 11
6.4022192421
 21
3.1479536203
  0
LINE
  5
2C5
100
AcDbEntity
  8
03__ASM_ALL_CURVES
100
AcDbLine
 62
40
  6
CONTINUOUS
 10
6.3512426796
 20
3.2102583076
 11
6.3597387734
 21
3.2045942464
  0
LINE
  5
2C6
100
AcDbEntity
  8
03__ASM_ALL_CURVES
100
AcDbLine
 62
40
  6
CONTINUOUS
 10
6.4192114296
 20
3.2102583076
 11
6.4277075234
 21
3.2045942464
  0
LINE
  5
2C7
100
AcDbEntity
  8
03__ASM_ALL_CURVES
100
AcDbLine
 62
40
  6
CONTINUOUS
 10
6.4871801796
 20
3.2102583076
 11
6.4956762734
 21
3.2045942464
  0
LINE
  5
2C8
100
AcDbEntity
  8
03__ASM_ALL_CURVES
100
AcDbLine
 62
40
  6
CONTINUOUS
 10
4.2380649806
 20
5.3489723912
 11
4.2267368556
 21
5.3640765576
  0
LINE
  5
2C9
100
AcDbEntity
  8
03__ASM_ALL_CURVES
100
AcDbLine
 62
40
  6
CONTINUOUS
 10
4.2380649806
 20
5.4018369761
 11
4.2324009181
 21
5.4093890576
  0
LINE
  5
2CA
100
AcDbEntity
  8
03__ASM_ALL_CURVES
100
AcDbLine
 62
40
  6
CONTINUOUS
 10
4.2720493556
 20
5.3867328076
 11
4.2833774806
 21
5.3716286418
  0
LINE
  5
2CB
100
AcDbEntity
  8
03__ASM_ALL_CURVES
100
AcDbLine
 62
40
  6
CONTINUOUS
 10
4.2720493556
 20
5.4244932261
 11
4.2777134181
 21
5.4169411391
  0
LINE
  5
2CC
100
AcDbEntity
  8
03__ASM_ALL_CURVES
100
AcDbLine
 62
40
  6
CONTINUOUS
 10
4.7818149806
 20
5.3867328076
 11
4.7761509181
 21
5.4018369761
  0
LINE
  5
2CD
100
AcDbEntity
  8
03__ASM_ALL_CURVES
100
AcDbLine
 62
40
  6
CONTINUOUS
 10
4.8157993556
 20
5.4169411391
 11
4.8214634181
 21
5.4018369761
  0
LINE
  5
2CE
100
AcDbEntity
  8
03__ASM_ALL_CURVES
100
AcDbLine
 62
40
  6
CONTINUOUS
 10
4.9857212306
 20
5.4169411391
 11
4.9913852931
 21
5.3942848891
  0
LINE
  5
2CF
100
AcDbEntity
  8
0
100
AcDbLine
 62
7
  6
CONTINUOUS
 10
5.3469321681
 20
3.5522583076
 11
5.3469321681
 21
5.1082583076
  0
LINE
  5
2D0
100
AcDbEntity
  8
0
100
AcDbLine
 62
7
  6
CONTINUOUS
 10
5.4329321681
 20
3.5522583076
 11
5.4329321681
 21
5.1082583076
  0
LINE
  5
2D1
100
AcDbEntity
  8
03__ASM_ALL_CURVES
100
AcDbLine
 62
40
  6
CONTINUOUS
 10
5.4329321681
 20
5.1278833076
 11
5.4329321681
 21
5.3414203076
  0
LINE
  5
2D2
100
AcDbEntity
  8
THREAD
100
AcDbLine
 62
7
  6
CONTINUOUS
 10
5.4799321681
 20
3.6127583076
 11
5.4799321681
 21
5.0477583076
  0
LINE
  5
2D3
100
AcDbEntity
  8
03__ASM_ALL_CURVES
100
AcDbLine
 62
40
  6
CONTINUOUS
 10
5.0673511198
 20
3.1762739326
 11
5.0715991667
 21
3.1932661201
  0
LINE
  5
2D4
100
AcDbEntity
  8
03__ASM_ALL_CURVES
100
AcDbLine
 62
40
  6
CONTINUOUS
 10
5.6572290424
 20
5.3867328076
 11
5.6628931049
 21
5.4093890576
  0
LINE
  5
2D5
100
AcDbEntity
  8
03__ASM_ALL_CURVES
100
AcDbLine
 62
40
  6
CONTINUOUS
 10
5.1183276823
 20
3.1762739326
 11
5.1140796354
 21
3.1592817451
  0
LINE
  5
2D6
100
AcDbEntity
  8
03__ASM_ALL_CURVES
100
AcDbLine
 62
40
  6
CONTINUOUS
 10
5.7251977924
 20
5.3867328076
 11
5.7195337299
 21
5.3640765576
  0
LINE
  5
2D7
100
AcDbEntity
  8
03__ASM_ALL_CURVES
100
AcDbLine
 62
40
  6
CONTINUOUS
 10
5.7478540424
 20
5.3867328076
 11
5.7535181049
 21
5.4093890576
  0
LINE
  5
2D8
100
AcDbEntity
  8
0
100
AcDbLine
 62
7
  6
CONTINUOUS
 10
4.9282349264
 20
3.6742583076
 11
4.8569321681
 21
3.5507583076
  0
LINE
  5
2D9
100
AcDbEntity
  8
03__ASM_ALL_CURVES
100
AcDbLine
 62
40
  6
CONTINUOUS
 10
6.2066431049
 20
5.4093890576
 11
6.2179712299
 21
5.4244932261
  0
LINE
  5
2DA
100
AcDbEntity
  8
03__ASM_ALL_CURVES
100
AcDbLine
 62
40
  6
CONTINUOUS
 10
6.6144556049
 20
5.3489723912
 11
6.6031274799
 21
5.3414203076
  0
LINE
  5
2DB
100
AcDbEntity
  8
03__ASM_ALL_CURVES
100
AcDbLine
 62
40
  6
CONTINUOUS
 10
6.7050806049
 20
5.3489723912
 11
6.6937524799
 21
5.3414203076
  0
LINE
  5
2DC
100
AcDbEntity
  8
0
100
AcDbLine
 62
7
  6
CONTINUOUS
 10
4.3662289742
 20
3.9563473065
 11
3.6723163421
 21
3.9563473065
  0
LINE
  5
2DD
100
AcDbEntity
  8
03__ASM_ALL_CURVES
100
AcDbLine
 62
40
  6
CONTINUOUS
 10
6.6231176796
 20
3.2102583076
 11
6.6316137734
 21
3.2045942464
  0
LINE
  5
2DE
100
AcDbEntity
  8
03__ASM_ALL_CURVES
100
AcDbLine
 62
40
  6
CONTINUOUS
 10
4.4306431056
 20
5.3565244747
 11
4.4419712306
 21
5.3414203076
  0
LINE
  5
2DF
100
AcDbEntity
  8
03__ASM_ALL_CURVES
100
AcDbLine
 62
40
  6
CONTINUOUS
 10
4.6005649806
 20
5.3489723912
 11
4.5949009181
 21
5.3565244747
  0
LINE
  5
2E0
100
AcDbEntity
  8
THREAD
100
AcDbLine
 62
7
  6
CONTINUOUS
 10
5.6806449811
 20
3.6287583076
 11
5.6529321681
 21
3.6767583076
  0
LINE
  5
2E1
100
AcDbEntity
  8
0
100
AcDbLine
 62
7
  6
CONTINUOUS
 10
4.9282349264
 20
4.9862583076
 11
4.8569321681
 21
5.1097583076
  0
LINE
  5
2E2
100
AcDbEntity
  8
03__ASM_ALL_CURVES
100
AcDbLine
 62
40
  6
CONTINUOUS
 10
5.5416821681
 20
5.3232953076
 11
5.5416821681
 21
5.2870453076
  0
LINE
  5
2E3
100
AcDbEntity
  8
03__ASM_ALL_CURVES
100
AcDbLine
 62
40
  6
CONTINUOUS
 10
5.5779321674
 20
5.4320453076
 11
5.5779321674
 21
5.3414203076
  0
LINE
  5
2E4
100
AcDbEntity
  8
0
100
AcDbLine
 62
7
  6
CONTINUOUS
 10
5.5829321681
 20
3.6122583076
 11
5.5829321681
 21
5.0482583076
  0
LINE
  5
2E5
100
AcDbEntity
  8
0
100
AcDbLine
 62
7
  6
CONTINUOUS
 10
5.6329321681
 20
3.6122583076
 11
5.6329321681
 21
5.0482583076
  0
LINE
  5
2E6
100
AcDbEntity
  8
0
100
AcDbLine
 62
7
  6
CONTINUOUS
 10
5.6529321681
 20
3.6767583076
 11
5.6529321681
 21
4.9837583076
  0
LINE
  5
2E7
100
AcDbEntity
  8
03__ASM_ALL_CURVES
100
AcDbLine
 62
40
  6
CONTINUOUS
 10
5.8441431049
 20
5.3414203076
 11
5.8724634174
 21
5.4320453076
  0
LINE
  5
2E8
100
AcDbEntity
  8
03__ASM_ALL_CURVES
100
AcDbLine
 62
40
  6
CONTINUOUS
 10
6.2576196674
 20
5.3565244747
 11
6.2519556049
 21
5.3489723912
  0
LINE
  5
2E9
100
AcDbEntity
  8
03__ASM_ALL_CURVES
100
AcDbLine
 62
40
  6
CONTINUOUS
 10
6.3992212299
 20
5.4244932261
 11
6.3935571674
 21
5.4169411391
  0
LINE
  5
2EA
100
AcDbEntity
  8
03__ASM_ALL_CURVES
100
AcDbLine
 62
40
  6
CONTINUOUS
 10
6.8806665424
 20
5.3489723912
 11
6.8693384174
 21
5.3414203076
  0
LINE
  5
2EB
100
AcDbEntity
  8
03__ASM_ALL_CURVES
100
AcDbLine
 62
40
  6
CONTINUOUS
 10
7.0675806049
 20
5.3942848891
 11
7.0562524799
 21
5.3867328076
  0
LINE
  5
2EC
100
AcDbEntity
  8
0
100
AcDbLine
 62
7
  6
CONTINUOUS
 10
4.3662289742
 20
3.9955303098
 11
3.6723163421
 21
3.9955303098
  0
LINE
  5
2ED
100
AcDbEntity
  8
03__ASM_ALL_CURVES
100
AcDbLine
 62
40
  6
CONTINUOUS
 10
4.6345493556
 20
5.3942848891
 11
4.6402134181
 21
5.3867328076
  0
LINE
  5
2EE
100
AcDbEntity
  8
03__ASM_ALL_CURVES
100
AcDbLine
 62
40
  6
CONTINUOUS
 10
4.7025181056
 20
5.3489723912
 11
4.7081821681
 21
5.3414203076
  0
LINE
  5
2EF
100
AcDbEntity
  8
03__ASM_ALL_CURVES
100
AcDbLine
 62
40
  6
CONTINUOUS
 10
6.4022192421
 20
3.1479536203
 11
6.3937231484
 21
3.1592817451
  0
LINE
  5
2F0
100
AcDbEntity
  8
03__ASM_ALL_CURVES
100
AcDbLine
 62
40
  6
CONTINUOUS
 10
6.3597387734
 20
3.2045942464
 11
6.3639868202
 21
3.1989301812
  0
LINE
  5
2F1
100
AcDbEntity
  8
03__ASM_ALL_CURVES
100
AcDbLine
 62
40
  6
CONTINUOUS
 10
4.7874790431
 20
5.3489723912
 11
4.7818149806
 21
5.3565244747
  0
LINE
  5
2F2
100
AcDbEntity
  8
03__ASM_ALL_CURVES
100
AcDbLine
 62
40
  6
CONTINUOUS
 10
6.4277075234
 20
3.2045942464
 11
6.4362036171
 21
3.1932661201
  0
LINE
  5
2F3
100
AcDbEntity
  8
THREAD
100
AcDbLine
 62
7
  6
CONTINUOUS
 10
5.6806449811
 20
3.6287583076
 11
5.6806449811
 21
5.0317583076
  0
LINE
  5
2F4
100
AcDbEntity
  8
03__ASM_ALL_CURVES
100
AcDbLine
 62
40
  6
CONTINUOUS
 10
6.4388696674
 20
5.3565244747
 11
6.4332056049
 21
5.3489723912
  0
LINE
  5
2F5
100
AcDbEntity
  8
03__ASM_ALL_CURVES
100
AcDbLine
 62
40
  6
CONTINUOUS
 10
6.5691431049
 20
5.4093890576
 11
6.5804712299
 21
5.4244932261
  0
LINE
  5
2F6
100
AcDbEntity
  8
03__ASM_ALL_CURVES
100
AcDbLine
 62
40
  6
CONTINUOUS
 10
6.6257837299
 20
5.3640765576
 11
6.6144556049
 21
5.3489723912
  0
LINE
  5
2F7
100
AcDbEntity
  8
03__ASM_ALL_CURVES
100
AcDbLine
 62
40
  6
CONTINUOUS
 10
4.2493931056
 20
5.3414203076
 11
4.2380649806
 21
5.3489723912
  0
LINE
  5
2F8
100
AcDbEntity
  8
03__ASM_ALL_CURVES
100
AcDbLine
 62
40
  6
CONTINUOUS
 10
4.8101352931
 20
5.4244932261
 11
4.8157993556
 21
5.4169411391
  0
LINE
  5
2F9
100
AcDbEntity
  8
03__ASM_ALL_CURVES
100
AcDbLine
 62
40
  6
CONTINUOUS
 10
6.4956762734
 20
3.2045942464
 11
6.4999243202
 21
3.1989301812
  0
LINE
  5
2FA
100
AcDbEntity
  8
03__ASM_ALL_CURVES
100
AcDbLine
 62
40
  6
CONTINUOUS
 10
6.6316137734
 20
3.2045942464
 11
6.6358618202
 21
3.1989301812
  0
LINE
  5
2FB
100
AcDbEntity
  8
03__ASM_ALL_CURVES
100
AcDbLine
 62
40
  6
CONTINUOUS
 10
5.9630884174
 20
5.4320453076
 11
5.9630884174
 21
5.3414203076
  0
LINE
  5
2FC
100
AcDbEntity
  8
THREAD
100
AcDbLine
 62
7
  6
CONTINUOUS
 10
5.9809321681
 20
3.6287583076
 11
5.9809321681
 21
5.0317583076
  0
LINE
  5
2FD
100
AcDbEntity
  8
03__ASM_ALL_CURVES
100
AcDbLine
 62
40
  6
CONTINUOUS
 10
6.2009790424
 20
5.3867328076
 11
6.2066431049
 21
5.4093890576
  0
LINE
  5
2FE
100
AcDbEntity
  8
03__ASM_ALL_CURVES
100
AcDbLine
 62
40
  6
CONTINUOUS
 10
5.0418628385
 20
3.1876020589
 11
5.0376147917
 21
3.1819379937
  0
LINE
  5
2FF
100
AcDbEntity
  8
03__ASM_ALL_CURVES
100
AcDbLine
 62
40
  6
CONTINUOUS
 10
5.0715991667
 20
3.1932661201
 11
5.0800952604
 21
3.2045942464
  0
LINE
  5
300
100
AcDbEntity
  8
03__ASM_ALL_CURVES
100
AcDbLine
 62
40
  6
CONTINUOUS
 10
6.7107446674
 20
5.3565244747
 11
6.7050806049
 21
5.3489723912
  0
LINE
  5
301
100
AcDbEntity
  8
03__ASM_ALL_CURVES
100
AcDbLine
 62
40
  6
CONTINUOUS
 10
5.1140796354
 20
3.1592817451
 11
5.1055835417
 21
3.1479536203
  0
LINE
  5
302
100
AcDbEntity
  8
03__ASM_ALL_CURVES
100
AcDbLine
 62
40
  6
CONTINUOUS
 10
5.1778003385
 20
3.1876020589
 11
5.1735522917
 21
3.1819379937
  0
LINE
  5
303
100
AcDbEntity
  8
03__ASM_ALL_CURVES
100
AcDbLine
 62
40
  6
CONTINUOUS
 10
7.7821411529
 20
4.3483833076
 11
7.7736450591
 21
4.3483833076
  0
LINE
  5
304
100
AcDbEntity
  8
03__ASM_ALL_CURVES
100
AcDbLine
 62
40
  6
CONTINUOUS
 10
7.8501099029
 20
4.3823676826
 11
7.8288696685
 21
4.3823676826
  0
LINE
  5
305
100
AcDbEntity
  8
03__ASM_ALL_CURVES
100
AcDbLine
 62
40
  6
CONTINUOUS
 10
7.7141724029
 20
4.3823676826
 11
7.6929321685
 21
4.3823676826
  0
LINE
  5
306
100
AcDbEntity
  8
03__ASM_ALL_CURVES
100
AcDbLine
 62
40
  6
CONTINUOUS
 10
7.6929321685
 20
4.4163520576
 11
7.7141724029
 21
4.4163520576
  0
LINE
  5
307
100
AcDbEntity
  8
03__ASM_ALL_CURVES
100
AcDbLine
 62
40
  6
CONTINUOUS
 10
7.7736450591
 20
4.4163520576
 11
7.7821411529
 21
4.4163520576
  0
LINE
  5
308
100
AcDbEntity
  8
03__ASM_ALL_CURVES
100
AcDbLine
 62
40
  6
CONTINUOUS
 10
7.8288696685
 20
4.4163520576
 11
7.8501099029
 21
4.4163520576
  0
LINE
  5
309
100
AcDbEntity
  8
03__ASM_ALL_CURVES
100
AcDbLine
 62
40
  6
CONTINUOUS
 10
7.8925903716
 20
4.4163520576
 11
7.9350708404
 21
4.4163520576
  0
LINE
  5
30A
100
AcDbEntity
  8
03__ASM_ALL_CURVES
100
AcDbLine
 62
40
  6
CONTINUOUS
 10
4.2493931056
 20
5.3942848891
 11
4.2380649806
 21
5.4018369761
  0
LINE
  5
30B
100
AcDbEntity
  8
03__ASM_ALL_CURVES
100
AcDbLine
 62
40
  6
CONTINUOUS
 10
4.2607212306
 20
5.3942848891
 11
4.2720493556
 21
5.3867328076
  0
LINE
  5
30C
100
AcDbEntity
  8
03__ASM_ALL_CURVES
100
AcDbLine
 62
40
  6
CONTINUOUS
 10
4.2607212306
 20
5.4320453076
 11
4.2720493556
 21
5.4244932261
  0
LINE
  5
30D
100
AcDbEntity
  8
03__ASM_ALL_CURVES
100
AcDbLine
 62
40
  6
CONTINUOUS
 10
4.9743931056
 20
5.4320453076
 11
4.9857212306
 21
5.4169411391
  0
LINE
  5
30E
100
AcDbEntity
  8
03__ASM_ALL_CURVES
100
AcDbLine
 62
40
  6
CONTINUOUS
 10
5.6628931049
 20
5.3640765576
 11
5.6572290424
 21
5.3867328076
  0
LINE
  5
30F
100
AcDbEntity
  8
THREAD
100
AcDbLine
 62
7
  6
CONTINUOUS
 10
6.0419321681
 20
3.6897583076
 11
6.0419321681
 21
4.9707583076
  0
LINE
  5
310
100
AcDbEntity
  8
03__ASM_ALL_CURVES
100
AcDbLine
 62
40
  6
CONTINUOUS
 10
6.0537134174
 20
5.4320453076
 11
6.0537134174
 21
5.3414203076
  0
LINE
  5
311
100
AcDbEntity
  8
03__ASM_ALL_CURVES
100
AcDbLine
 62
40
  6
CONTINUOUS
 10
6.1216821674
 20
5.3414203076
 11
6.1216821674
 21
5.4320453076
  0
LINE
  5
312
100
AcDbEntity
  8
0
100
AcDbLine
 62
7
  6
CONTINUOUS
 10
6.1389321681
 20
3.6897583076
 11
6.1389321681
 21
4.9707583076
  0
LINE
  5
313
100
AcDbEntity
  8
03__ASM_ALL_CURVES
100
AcDbLine
 62
40
  6
CONTINUOUS
 10
6.8919946674
 20
5.3640765576
 11
6.8806665424
 21
5.3489723912
  0
LINE
  5
314
100
AcDbEntity
  8
03__ASM_ALL_CURVES
100
AcDbLine
 62
40
  6
CONTINUOUS
 10
5.3137378385
 20
3.1932661201
 11
5.3094897917
 21
3.1876020589
  0
LINE
  5
315
100
AcDbEntity
  8
03__ASM_ALL_CURVES
100
AcDbLine
 62
40
  6
CONTINUOUS
 10
5.3179858854
 20
3.1592817451
 11
5.3094897917
 21
3.1479536203
  0
LINE
  5
316
100
AcDbEntity
  8
03__ASM_ALL_CURVES
100
AcDbLine
 62
40
  6
CONTINUOUS
 10
7.0732446674
 20
5.4018369761
 11
7.0675806049
 21
5.3942848891
  0
LINE
  5
317
100
AcDbEntity
  8
0
100
AcDbLine
 62
7
  6
CONTINUOUS
 10
6.8509321681
 20
4.9407583076
 11
6.8639321681
 21
4.9537583076
  0
LINE
  5
318
100
AcDbEntity
  8
03__ASM_ALL_CURVES
100
AcDbLine
 62
40
  6
CONTINUOUS
 10
4.6118931056
 20
5.3414203076
 11
4.6005649806
 21
5.3489723912
  0
LINE
  5
319
100
AcDbEntity
  8
03__ASM_ALL_CURVES
100
AcDbLine
 62
40
  6
CONTINUOUS
 10
4.6232212306
 20
5.4018369761
 11
4.6345493556
 21
5.3942848891
  0
LINE
  5
31A
100
AcDbEntity
  8
03__ASM_ALL_CURVES
100
AcDbLine
 62
40
  6
CONTINUOUS
 10
4.7988071681
 20
5.3414203076
 11
4.7874790431
 21
5.3489723912
  0
LINE
  5
31B
100
AcDbEntity
  8
0
100
AcDbLine
 62
7
  6
CONTINUOUS
 10
6.8509321681
 20
3.7197583076
 11
6.8639321681
 21
3.7067583076
  0
LINE
  5
31C
100
AcDbEntity
  8
03__ASM_ALL_CURVES
100
AcDbLine
 62
40
  6
CONTINUOUS
 10
6.4871801796
 20
3.1762739326
 11
6.4999243202
 21
3.1422895576
  0
LINE
  5
31D
100
AcDbEntity
  8
03__ASM_ALL_CURVES
100
AcDbLine
 62
40
  6
CONTINUOUS
 10
5.7195337299
 20
5.4093890576
 11
5.7251977924
 21
5.3867328076
  0
LINE
  5
31E
100
AcDbEntity
  8
03__ASM_ALL_CURVES
100
AcDbLine
 62
40
  6
CONTINUOUS
 10
5.7535181049
 20
5.3640765576
 11
5.7478540424
 21
5.3867328076
  0
LINE
  5
31F
100
AcDbEntity
  8
03__ASM_ALL_CURVES
100
AcDbLine
 62
40
  6
CONTINUOUS
 10
6.3937231484
 20
3.1592817451
 11
6.3894751015
 21
3.1762739326
  0
LINE
  5
320
100
AcDbEntity
  8
0
100
AcDbLine
 62
7
  6
CONTINUOUS
 10
6.1519321681
 20
3.7027583076
 11
6.1519321681
 21
4.9577583076
  0
LINE
  5
321
100
AcDbEntity
  8
03__ASM_ALL_CURVES
100
AcDbLine
 62
40
  6
CONTINUOUS
 10
6.1669946674
 20
5.3414203076
 11
6.1669946674
 21
5.4320453076
  0
LINE
  5
322
100
AcDbEntity
  8
03__ASM_ALL_CURVES
100
AcDbLine
 62
40
  6
CONTINUOUS
 10
6.2576196674
 20
5.3867328076
 11
6.2576196674
 21
5.3565244747
  0
LINE
  5
323
100
AcDbEntity
  8
03__ASM_ALL_CURVES
100
AcDbLine
 62
40
  6
CONTINUOUS
 10
6.5634790424
 20
5.3867328076
 11
6.5691431049
 21
5.4093890576
  0
LINE
  5
324
100
AcDbEntity
  8
03__ASM_ALL_CURVES
100
AcDbLine
 62
40
  6
CONTINUOUS
 10
5.0376147917
 20
3.1819379937
 11
5.0291186979
 21
3.1762739326
  0
LINE
  5
325
100
AcDbEntity
  8
03__ASM_ALL_CURVES
100
AcDbLine
 62
40
  6
CONTINUOUS
 10
5.0800952604
 20
3.2045942464
 11
5.0885913542
 21
3.2102583076
  0
LINE
  5
326
100
AcDbEntity
  8
0
100
AcDbLine
 62
7
  6
CONTINUOUS
 10
4.3662289742
 20
4.6649863054
 11
3.6723163421
 21
4.6649863054
  0
LINE
  5
327
100
AcDbEntity
  8
0
100
AcDbLine
 62
7
  6
CONTINUOUS
 10
4.3662289742
 20
4.7041693087
 11
3.6723163421
 21
4.7041693087
  0
LINE
  5
328
100
AcDbEntity
  8
03__ASM_ALL_CURVES
100
AcDbLine
 62
40
  6
CONTINUOUS
 10
4.7988071681
 20
5.4320453076
 11
4.8101352931
 21
5.4244932261
  0
LINE
  5
329
100
AcDbEntity
  8
03__ASM_ALL_CURVES
100
AcDbLine
 62
40
  6
CONTINUOUS
 10
5.8724634174
 20
5.4320453076
 11
5.9007837299
 21
5.3414203076
  0
LINE
  5
32A
100
AcDbEntity
  8
03__ASM_ALL_CURVES
100
AcDbLine
 62
40
  6
CONTINUOUS
 10
6.4362036171
 20
3.1932661201
 11
6.440451664
 21
3.1762739326
  0
LINE
  5
32B
100
AcDbEntity
  8
03__ASM_ALL_CURVES
100
AcDbLine
 62
40
  6
CONTINUOUS
 10
6.3300024452
 20
3.1422895576
 11
6.3300024452
 21
3.2102583076
  0
LINE
  5
32C
100
AcDbEntity
  8
03__ASM_ALL_CURVES
100
AcDbLine
 62
40
  6
CONTINUOUS
 10
6.3639868202
 20
3.1989301812
 11
6.3639868202
 21
3.1876020589
  0
LINE
  5
32D
100
AcDbEntity
  8
03__ASM_ALL_CURVES
100
AcDbLine
 62
40
  6
CONTINUOUS
 10
6.3935571674
 20
5.4169411391
 11
6.3935571674
 21
5.4093890576
  0
LINE
  5
32E
100
AcDbEntity
  8
03__ASM_ALL_CURVES
100
AcDbLine
 62
40
  6
CONTINUOUS
 10
6.4388696674
 20
5.3716286418
 11
6.4388696674
 21
5.3565244747
  0
LINE
  5
32F
100
AcDbEntity
  8
03__ASM_ALL_CURVES
100
AcDbLine
 62
40
  6
CONTINUOUS
 10
6.4659399452
 20
3.1422895576
 11
6.4659399452
 21
3.2102583076
  0
LINE
  5
330
100
AcDbEntity
  8
03__ASM_ALL_CURVES
100
AcDbLine
 62
40
  6
CONTINUOUS
 10
6.6314477924
 20
5.3867328076
 11
6.6257837299
 21
5.3640765576
  0
LINE
  5
331
100
AcDbEntity
  8
THREAD
100
AcDbLine
 62
7
  6
CONTINUOUS
 10
6.0419321681
 20
3.6897583076
 11
5.9809321681
 21
3.6287583076
  0
LINE
  5
332
100
AcDbEntity
  8
0
100
AcDbLine
 62
7
  6
CONTINUOUS
 10
6.1519321681
 20
3.7027583076
 11
6.1389321681
 21
3.6897583076
  0
LINE
  5
333
100
AcDbEntity
  8
03__ASM_ALL_CURVES
100
AcDbLine
 62
40
  6
CONTINUOUS
 10
5.1055835417
 20
3.1479536203
 11
5.0970874479
 21
3.1422895576
  0
LINE
  5
334
100
AcDbEntity
  8
03__ASM_ALL_CURVES
100
AcDbLine
 62
40
  6
CONTINUOUS
 10
5.1735522917
 20
3.1819379937
 11
5.1650561979
 21
3.1762739326
  0
LINE
  5
335
100
AcDbEntity
  8
03__ASM_ALL_CURVES
100
AcDbLine
 62
40
  6
CONTINUOUS
 10
5.2840015104
 20
3.2045942464
 11
5.2924976042
 21
3.2102583076
  0
LINE
  5
336
100
AcDbEntity
  8
03__ASM_ALL_CURVES
100
AcDbLine
 62
40
  6
CONTINUOUS
 10
5.3094897917
 20
3.1876020589
 11
5.3009936979
 21
3.1819379937
  0
LINE
  5
337
100
AcDbEntity
  8
03__ASM_ALL_CURVES
100
AcDbLine
 62
40
  6
CONTINUOUS
 10
5.3094897917
 20
3.1479536203
 11
5.3009936979
 21
3.1422895576
  0
LINE
  5
338
100
AcDbEntity
  8
0
100
AcDbLine
 62
7
  6
CONTINUOUS
 10
6.6204321681
 20
4.8597583076
 11
6.1519321681
 21
4.8597583076
  0
LINE
  5
339
100
AcDbEntity
  8
0
100
AcDbLine
 62
7
  6
CONTINUOUS
 10
7.1679321681
 20
4.8662583076
 11
7.1469321681
 21
4.8662583076
  0
LINE
  5
33A
100
AcDbEntity
  8
0
100
AcDbLine
 62
7
  6
CONTINUOUS
 10
6.8639321681
 20
4.9537583076
 11
6.9439321681
 21
4.9537583076
  0
LINE
  5
33B
100
AcDbEntity
  8
0
100
AcDbLine
 62
7
  6
CONTINUOUS
 10
7.1679321681
 20
4.9537583076
 11
7.2149321681
 21
4.9537583076
  0
LINE
  5
33C
100
AcDbEntity
  8
0
100
AcDbLine
 62
7
  6
CONTINUOUS
 10
6.9439321681
 20
4.9542583076
 11
6.9939321681
 21
4.9542583076
  0
LINE
  5
33D
100
AcDbEntity
  8
0
100
AcDbLine
 62
7
  6
CONTINUOUS
 10
7.0969321681
 20
4.9542583076
 11
7.1469321681
 21
4.9542583076
  0
LINE
  5
33E
100
AcDbEntity
  8
03__ASM_ALL_CURVES
100
AcDbLine
 62
40
  6
CONTINUOUS
 10
3.7296821681
 20
5.2870453076
 11
3.6209321681
 21
5.3051703076
  0
LINE
  5
33F
100
AcDbEntity
  8
03__ASM_ALL_CURVES
100
AcDbLine
 62
40
  6
CONTINUOUS
 10
4.7988071681
 20
5.3791807234
 11
4.7818149806
 21
5.3867328076
  0
LINE
  5
340
100
AcDbEntity
  8
THREAD
100
AcDbLine
 62
7
  6
CONTINUOUS
 10
6.0419321681
 20
4.9707583076
 11
5.9809321681
 21
5.0317583076
  0
LINE
  5
341
100
AcDbEntity
  8
03__ASM_ALL_CURVES
100
AcDbLine
 62
40
  6
CONTINUOUS
 10
5.6742212299
 20
5.3489723912
 11
5.6628931049
 21
5.3640765576
  0
LINE
  5
342
100
AcDbEntity
  8
03__ASM_ALL_CURVES
100
AcDbLine
 62
40
  6
CONTINUOUS
 10
5.7648462299
 20
5.3489723912
 11
5.7535181049
 21
5.3640765576
  0
LINE
  5
343
100
AcDbEntity
  8
03__ASM_ALL_CURVES
100
AcDbLine
 62
40
  6
CONTINUOUS
 10
5.7082056049
 20
5.4244932261
 11
5.7195337299
 21
5.4093890576
  0
LINE
  5
344
100
AcDbEntity
  8
03__ASM_ALL_CURVES
100
AcDbLine
 62
40
  6
CONTINUOUS
 10
6.2066431049
 20
5.3640765576
 11
6.2009790424
 21
5.3867328076
  0
LINE
  5
345
100
AcDbEntity
  8
03__ASM_ALL_CURVES
100
AcDbLine
 62
40
  6
CONTINUOUS
 10
6.4841821674
 20
5.4320453076
 11
6.4841821674
 21
5.3414203076
  0
LINE
  5
346
100
AcDbEntity
  8
03__ASM_ALL_CURVES
100
AcDbLine
 62
40
  6
CONTINUOUS
 10
6.4999243202
 20
3.1989301812
 11
6.4999243202
 21
3.1876020589
  0
LINE
  5
347
100
AcDbEntity
  8
03__ASM_ALL_CURVES
100
AcDbLine
 62
40
  6
CONTINUOUS
 10
6.5294946674
 20
5.4320453076
 11
6.5294946674
 21
5.3414203076
  0
LINE
  5
348
100
AcDbEntity
  8
03__ASM_ALL_CURVES
100
AcDbLine
 62
40
  6
CONTINUOUS
 10
6.5509008827
 20
3.2102583076
 11
6.5509008827
 21
3.1422895576
  0
LINE
  5
349
100
AcDbEntity
  8
03__ASM_ALL_CURVES
100
AcDbLine
 62
40
  6
CONTINUOUS
 10
6.6358618202
 20
3.1989301812
 11
6.6358618202
 21
3.1876020589
  0
LINE
  5
34A
100
AcDbEntity
  8
03__ASM_ALL_CURVES
100
AcDbLine
 62
40
  6
CONTINUOUS
 10
6.8976587299
 20
5.3867328076
 11
6.8919946674
 21
5.3640765576
  0
LINE
  5
34B
100
AcDbEntity
  8
03__ASM_ALL_CURVES
100
AcDbLine
 62
40
  6
CONTINUOUS
 10
6.3894751015
 20
3.1762739326
 11
6.3937231484
 21
3.1932661201
  0
LINE
  5
34C
100
AcDbEntity
  8
THREAD
100
AcDbLine
 62
7
  6
CONTINUOUS
 10
6.1389321681
 20
4.9707583076
 11
6.0419321681
 21
4.9707583076
  0
LINE
  5
34D
100
AcDbEntity
  8
0
100
AcDbLine
 62
7
  6
CONTINUOUS
 10
5.2764954353
 20
4.9862583076
 11
4.9282349264
 21
4.9862583076
  0
LINE
  5
34E
100
AcDbEntity
  8
0
100
AcDbLine
 62
7
  6
CONTINUOUS
 10
4.7949321681
 20
5.0217583076
 11
4.7739321681
 21
5.0217583076
  0
LINE
  5
34F
100
AcDbEntity
  8
THREAD
100
AcDbLine
 62
7
  6
CONTINUOUS
 10
5.9809321681
 20
5.0317583076
 11
5.6806449811
 21
5.0317583076
  0
LINE
  5
350
100
AcDbEntity
  8
0
100
AcDbLine
 62
7
  6
CONTINUOUS
 10
4.3662289742
 20
5.0388973065
 11
3.6723163421
 21
5.0388973065
  0
LINE
  5
351
100
AcDbEntity
  8
0
100
AcDbLine
 62
7
  6
CONTINUOUS
 10
4.3662289742
 20
5.0392583076
 11
3.6723163421
 21
5.0392583076
  0
LINE
  5
352
100
AcDbEntity
  8
THREAD
100
AcDbLine
 62
7
  6
CONTINUOUS
 10
5.4799321681
 20
5.0477583076
 11
5.4329321681
 21
5.0477583076
  0
LINE
  5
353
100
AcDbEntity
  8
0
100
AcDbLine
 62
7
  6
CONTINUOUS
 10
5.5829321681
 20
5.0482583076
 11
5.6329321681
 21
5.0482583076
  0
LINE
  5
354
100
AcDbEntity
  8
0
100
AcDbLine
 62
7
  6
CONTINUOUS
 10
5.4329321681
 20
5.1082583076
 11
5.3469321681
 21
5.1082583076
  0
LINE
  5
355
100
AcDbEntity
  8
0
100
AcDbLine
 62
7
  6
CONTINUOUS
 10
4.8569321681
 20
5.1097583076
 11
4.7949321681
 21
5.1097583076
  0
LINE
  5
356
100
AcDbEntity
  8
0
100
AcDbLine
 62
7
  6
CONTINUOUS
 10
4.4069321681
 20
5.1097583076
 11
4.6709321681
 21
5.1097583076
  0
LINE
  5
357
100
AcDbEntity
  8
03__ASM_ALL_CURVES
100
AcDbLine
 62
40
  6
CONTINUOUS
 10
3.7296821681
 20
5.2961078076
 11
3.6209321681
 21
5.3051703076
  0
LINE
  5
358
100
AcDbEntity
  8
03__ASM_ALL_CURVES
100
AcDbLine
 62
40
  6
CONTINUOUS
 10
3.7296821681
 20
5.2930869743
 11
3.6209321681
 21
5.3051703076
  0
LINE
  5
359
100
AcDbEntity
  8
03__ASM_ALL_CURVES
100
AcDbLine
 62
40
  6
CONTINUOUS
 10
3.7296821681
 20
5.2900661409
 11
3.6209321681
 21
5.3051703076
  0
LINE
  5
35A
100
AcDbEntity
  8
03__ASM_ALL_CURVES
100
AcDbLine
 62
40
  6
CONTINUOUS
 10
5.6855493549
 20
5.3414203076
 11
5.6742212299
 21
5.3489723912
  0
LINE
  5
35B
100
AcDbEntity
  8
0
100
AcDbLine
 62
7
  6
CONTINUOUS
 10
6.1519321681
 20
4.9577583076
 11
6.1389321681
 21
4.9707583076
  0
LINE
  5
35C
100
AcDbEntity
  8
03__ASM_ALL_CURVES
100
AcDbLine
 62
40
  6
CONTINUOUS
 10
5.7988306049
 20
5.4244932261
 11
5.8044946674
 21
5.4169411391
  0
LINE
  5
35D
100
AcDbEntity
  8
03__ASM_ALL_CURVES
100
AcDbLine
 62
40
  6
CONTINUOUS
 10
6.1216821674
 20
5.4320453076
 11
6.1669946674
 21
5.3414203076
  0
LINE
  5
35E
100
AcDbEntity
  8
03__ASM_ALL_CURVES
100
AcDbLine
 62
40
  6
CONTINUOUS
 10
6.6654321674
 20
5.3565244747
 11
6.6654321674
 21
5.4320453076
  0
LINE
  5
35F
100
AcDbEntity
  8
03__ASM_ALL_CURVES
100
AcDbLine
 62
40
  6
CONTINUOUS
 10
6.7107446674
 20
5.4320453076
 11
6.7107446674
 21
5.3565244747
  0
LINE
  5
360
100
AcDbEntity
  8
03__ASM_ALL_CURVES
100
AcDbLine
 62
40
  6
CONTINUOUS
 10
6.7560571674
 20
5.4320453076
 11
6.7560571674
 21
5.3414203076
  0
LINE
  5
361
100
AcDbEntity
  8
0
100
AcDbLine
 62
7
  6
CONTINUOUS
 10
6.7769321681
 20
4.2317065884
 11
6.7769321681
 21
4.4288984907
  0
LINE
  5
362
100
AcDbEntity
  8
03__ASM_ALL_CURVES
100
AcDbLine
 62
40
  6
CONTINUOUS
 10
6.440451664
 20
3.1762739326
 11
6.4362036171
 21
3.1592817451
  0
LINE
  5
363
100
AcDbEntity
  8
03__ASM_ALL_CURVES
100
AcDbLine
 62
40
  6
CONTINUOUS
 10
7.7226684966
 20
4.3880317437
 11
7.7141724029
 21
4.3823676826
  0
LINE
  5
364
100
AcDbEntity
  8
03__ASM_ALL_CURVES
100
AcDbLine
 62
40
  6
CONTINUOUS
 10
7.7651489654
 20
4.4106879964
 11
7.7736450591
 21
4.4163520576
  0
LINE
  5
365
100
AcDbEntity
  8
03__ASM_ALL_CURVES
100
AcDbLine
 62
40
  6
CONTINUOUS
 10
3.7296821681
 20
5.3021494743
 11
3.6209321681
 21
5.3051703076
  0
LINE
  5
366
100
AcDbEntity
  8
03__ASM_ALL_CURVES
100
AcDbLine
 62
40
  6
CONTINUOUS
 10
3.7296821681
 20
5.2991286409
 11
3.6209321681
 21
5.3051703076
  0
LINE
  5
367
100
AcDbEntity
  8
03__ASM_ALL_CURVES
100
AcDbLine
 62
40
  6
CONTINUOUS
 10
5.3241821681
 20
5.3112119743
 11
5.5416821681
 21
5.2991286409
  0
LINE
  5
368
100
AcDbEntity
  8
03__ASM_ALL_CURVES
100
AcDbLine
 62
40
  6
CONTINUOUS
 10
5.3241821681
 20
5.3142328076
 11
5.5416821681
 21
5.2961078076
  0
LINE
  5
369
100
AcDbEntity
  8
03__ASM_ALL_CURVES
100
AcDbLine
 62
40
  6
CONTINUOUS
 10
5.3241821681
 20
5.3172536409
 11
5.5416821681
 21
5.2930869743
  0
LINE
  5
36A
100
AcDbEntity
  8
03__ASM_ALL_CURVES
100
AcDbLine
 62
40
  6
CONTINUOUS
 10
5.3241821681
 20
5.3202744743
 11
5.5416821681
 21
5.2900661409
  0
LINE
  5
36B
100
AcDbEntity
  8
03__ASM_ALL_CURVES
100
AcDbLine
 62
40
  6
CONTINUOUS
 10
5.5416821681
 20
5.2870453076
 11
5.3241821681
 21
5.3232953076
  0
LINE
  5
36C
100
AcDbEntity
  8
03__ASM_ALL_CURVES
100
AcDbLine
 62
40
  6
CONTINUOUS
 10
5.7761743549
 20
5.3414203076
 11
5.7648462299
 21
5.3489723912
  0
LINE
  5
36D
100
AcDbEntity
  8
03__ASM_ALL_CURVES
100
AcDbLine
 62
40
  6
CONTINUOUS
 10
5.6968774799
 20
5.4320453076
 11
5.7082056049
 21
5.4244932261
  0
LINE
  5
36E
100
AcDbEntity
  8
03__ASM_ALL_CURVES
100
AcDbLine
 62
40
  6
CONTINUOUS
 10
5.7875024799
 20
5.4320453076
 11
5.7988306049
 21
5.4244932261
  0
LINE
  5
36F
100
AcDbEntity
  8
03__ASM_ALL_CURVES
100
AcDbLine
 62
40
  6
CONTINUOUS
 10
6.2179712299
 20
5.3489723912
 11
6.2066431049
 21
5.3640765576
  0
LINE
  5
370
100
AcDbEntity
  8
03__ASM_ALL_CURVES
100
AcDbLine
 62
40
  6
CONTINUOUS
 10
6.5691431049
 20
5.3640765576
 11
6.5634790424
 21
5.3867328076
  0
LINE
  5
371
100
AcDbEntity
  8
0
100
AcDbLine
 62
7
  6
CONTINUOUS
 10
6.8299321681
 20
4.2866065472
 11
6.8299321681
 21
4.3738961223
  0
LINE
  5
372
100
AcDbEntity
  8
0
100
AcDbLine
 62
7
  6
CONTINUOUS
 10
6.8369321681
 20
4.3085176072
 11
6.8369321681
 21
4.3520134783
  0
LINE
  5
373
100
AcDbEntity
  8
0
100
AcDbLine
 62
7
  6
CONTINUOUS
 10
6.8379321681
 20
3.8010664709
 11
6.8379321681
 21
4.3121959157
  0
LINE
  5
374
100
AcDbEntity
  8
0
100
AcDbLine
 62
7
  6
CONTINUOUS
 10
6.8379321681
 20
4.3483206995
 11
6.8379321681
 21
4.8594501443
  0
LINE
  5
375
100
AcDbEntity
  8
03__ASM_ALL_CURVES
100
AcDbLine
 62
40
  6
CONTINUOUS
 10
6.8466821674
 20
5.3414203076
 11
6.8466821674
 21
5.4320453076
  0
LINE
  5
376
100
AcDbEntity
  8
0
100
AcDbLine
 62
7
  6
CONTINUOUS
 10
6.8509321681
 20
4.9407583076
 11
6.8509321681
 21
3.7197583076
  0
LINE
  5
377
100
AcDbEntity
  8
0
100
AcDbLine
 62
7
  6
CONTINUOUS
 10
6.8639321681
 20
4.9537583076
 11
6.8639321681
 21
3.7067583076
  0
LINE
  5
378
100
AcDbEntity
  8
03__ASM_ALL_CURVES
100
AcDbLine
 62
40
  6
CONTINUOUS
 10
6.9373071674
 20
5.3414203076
 11
6.9373071674
 21
5.4320453076
  0
LINE
  5
379
100
AcDbEntity
  8
0
100
AcDbLine
 62
7
  6
CONTINUOUS
 10
6.9439321681
 20
3.7062583076
 11
6.9439321681
 21
4.9542583076
  0
LINE
  5
37A
100
AcDbEntity
  8
03__ASM_ALL_CURVES
100
AcDbLine
 62
40
  6
CONTINUOUS
 10
6.6061254921
 20
3.1592817451
 11
6.6018774452
 21
3.1422895576
  0
LINE
  5
37B
100
AcDbEntity
  8
03__ASM_ALL_CURVES
100
AcDbLine
 62
40
  6
CONTINUOUS
 10
6.3639868202
 20
3.1876020589
 11
6.3597387734
 21
3.1819379937
  0
LINE
  5
37C
100
AcDbEntity
  8
03__ASM_ALL_CURVES
100
AcDbLine
 62
40
  6
CONTINUOUS
 10
6.3937231484
 20
3.1932661201
 11
6.4022192421
 21
3.2045942464
  0
LINE
  5
37D
100
AcDbEntity
  8
03__ASM_ALL_CURVES
100
AcDbLine
 62
40
  6
CONTINUOUS
 10
7.7906372466
 20
4.3540473703
 11
7.7821411529
 21
4.3483833076
  0
LINE
  5
37E
100
AcDbEntity
  8
03__ASM_ALL_CURVES
100
AcDbLine
 62
40
  6
CONTINUOUS
 10
7.8586059966
 20
4.3880317437
 11
7.8501099029
 21
4.3823676826
  0
LINE
  5
37F
100
AcDbEntity
  8
03__ASM_ALL_CURVES
100
AcDbLine
 62
40
  6
CONTINUOUS
 10
5.3241821681
 20
5.2870453076
 11
5.5416821681
 21
5.3232953076
  0
LINE
  5
380
100
AcDbEntity
  8
03__ASM_ALL_CURVES
100
AcDbLine
 62
40
  6
CONTINUOUS
 10
5.3241821681
 20
5.2900661409
 11
5.5416821681
 21
5.3202744743
  0
LINE
  5
381
100
AcDbEntity
  8
03__ASM_ALL_CURVES
100
AcDbLine
 62
40
  6
CONTINUOUS
 10
5.3241821681
 20
5.2930869743
 11
5.5416821681
 21
5.3172536409
  0
LINE
  5
382
100
AcDbEntity
  8
03__ASM_ALL_CURVES
100
AcDbLine
 62
40
  6
CONTINUOUS
 10
5.3241821681
 20
5.2961078076
 11
5.5416821681
 21
5.3142328076
  0
LINE
  5
383
100
AcDbEntity
  8
03__ASM_ALL_CURVES
100
AcDbLine
 62
40
  6
CONTINUOUS
 10
5.3241821681
 20
5.2991286409
 11
5.5416821681
 21
5.3112119743
  0
LINE
  5
384
100
AcDbEntity
  8
03__ASM_ALL_CURVES
100
AcDbLine
 62
40
  6
CONTINUOUS
 10
3.7296821681
 20
5.3112119743
 11
3.6209321681
 21
5.3051703076
  0
LINE
  5
385
100
AcDbEntity
  8
03__ASM_ALL_CURVES
100
AcDbLine
 62
40
  6
CONTINUOUS
 10
5.3241821681
 20
5.3021494743
 11
5.5416821681
 21
5.3081911409
  0
LINE
  5
386
100
AcDbEntity
  8
03__ASM_ALL_CURVES
100
AcDbLine
 62
40
  6
CONTINUOUS
 10
3.7296821681
 20
5.3081911409
 11
3.6209321681
 21
5.3051703076
  0
LINE
  5
387
100
AcDbEntity
  8
03__ASM_ALL_CURVES
100
AcDbLine
 62
40
  6
CONTINUOUS
 10
3.6209321681
 20
5.3051703076
 11
7.1729321681
 21
5.3051703076
  0
LINE
  5
388
100
AcDbEntity
  8
03__ASM_ALL_CURVES
100
AcDbLine
 62
40
  6
CONTINUOUS
 10
6.9826196674
 20
5.3414203076
 11
6.9373071674
 21
5.3414203076
  0
LINE
  5
389
100
AcDbEntity
  8
03__ASM_ALL_CURVES
100
AcDbLine
 62
40
  6
CONTINUOUS
 10
6.8693384174
 20
5.3414203076
 11
6.8466821674
 21
5.3414203076
  0
LINE
  5
38A
100
AcDbEntity
  8
03__ASM_ALL_CURVES
100
AcDbLine
 62
40
  6
CONTINUOUS
 10
6.6937524799
 20
5.3414203076
 11
6.6824243549
 21
5.3414203076
  0
LINE
  5
38B
100
AcDbEntity
  8
03__ASM_ALL_CURVES
100
AcDbLine
 62
40
  6
CONTINUOUS
 10
6.6031274799
 20
5.3414203076
 11
6.5917993549
 21
5.3414203076
  0
LINE
  5
38C
100
AcDbEntity
  8
03__ASM_ALL_CURVES
100
AcDbLine
 62
40
  6
CONTINUOUS
 10
6.4218774799
 20
5.3414203076
 11
6.4105493549
 21
5.3414203076
  0
LINE
  5
38D
100
AcDbEntity
  8
03__ASM_ALL_CURVES
100
AcDbLine
 62
40
  6
CONTINUOUS
 10
6.2406274799
 20
5.3414203076
 11
6.2292993549
 21
5.3414203076
  0
LINE
  5
38E
100
AcDbEntity
  8
03__ASM_ALL_CURVES
100
AcDbLine
 62
40
  6
CONTINUOUS
 10
5.7875024799
 20
5.3414203076
 11
5.7761743549
 21
5.3414203076
  0
LINE
  5
38F
100
AcDbEntity
  8
03__ASM_ALL_CURVES
100
AcDbLine
 62
40
  6
CONTINUOUS
 10
5.6968774799
 20
5.3414203076
 11
5.6855493549
 21
5.3414203076
  0
LINE
  5
390
100
AcDbEntity
  8
03__ASM_ALL_CURVES
100
AcDbLine
 62
40
  6
CONTINUOUS
 10
4.7081821681
 20
5.3414203076
 11
4.7025181056
 21
5.3414203076
  0
LINE
  5
391
100
AcDbEntity
  8
03__ASM_ALL_CURVES
100
AcDbLine
 62
40
  6
CONTINUOUS
 10
4.6232212306
 20
5.3414203076
 11
4.6118931056
 21
5.3414203076
  0
LINE
  5
392
100
AcDbEntity
  8
03__ASM_ALL_CURVES
100
AcDbLine
 62
40
  6
CONTINUOUS
 10
4.2607212306
 20
5.3414203076
 11
4.2493931056
 21
5.3414203076
  0
LINE
  5
393
100
AcDbEntity
  8
03__ASM_ALL_CURVES
100
AcDbLine
 62
40
  6
CONTINUOUS
 10
4.1644321681
 20
5.3414203076
 11
4.1587681056
 21
5.3414203076
  0
LINE
  5
394
100
AcDbEntity
  8
03__ASM_ALL_CURVES
100
AcDbLine
 62
40
  6
CONTINUOUS
 10
5.5779321674
 20
5.3414203076
 11
5.6232446674
 21
5.3414203076
  0
LINE
  5
395
100
AcDbEntity
  8
03__ASM_ALL_CURVES
100
AcDbLine
 62
40
  6
CONTINUOUS
 10
6.7560571674
 20
5.3414203076
 11
6.8013696674
 21
5.3414203076
  0
LINE
  5
396
100
AcDbEntity
  8
03__ASM_ALL_CURVES
100
AcDbLine
 62
40
  6
CONTINUOUS
 10
4.5042759181
 20
5.3640765576
 11
4.5552524806
 21
5.3640765576
  0
LINE
  5
397
100
AcDbEntity
  8
03__ASM_ALL_CURVES
100
AcDbLine
 62
40
  6
CONTINUOUS
 10
5.8554712299
 20
5.3716286418
 11
5.8894556049
 21
5.3716286418
  0
LINE
  5
398
100
AcDbEntity
  8
03__ASM_ALL_CURVES
100
AcDbLine
 62
40
  6
CONTINUOUS
 10
7.0562524799
 20
5.3867328076
 11
7.0279321674
 21
5.3867328076
  0
LINE
  5
399
100
AcDbEntity
  8
03__ASM_ALL_CURVES
100
AcDbLine
 62
40
  6
CONTINUOUS
 10
6.2349634174
 20
5.3867328076
 11
6.2576196674
 21
5.3867328076
  0
LINE
  5
39A
100
AcDbEntity
  8
03__ASM_ALL_CURVES
100
AcDbLine
 62
40
  6
CONTINUOUS
 10
6.4841821674
 20
5.3867328076
 11
6.5294946674
 21
5.3867328076
  0
LINE
  5
39B
100
AcDbEntity
  8
03__ASM_ALL_CURVES
100
AcDbLine
 62
40
  6
CONTINUOUS
 10
6.9373071674
 20
5.3867328076
 11
6.9656274799
 21
5.3867328076
  0
LINE
  5
39C
100
AcDbEntity
  8
03__ASM_ALL_CURVES
100
AcDbLine
 62
40
  6
CONTINUOUS
 10
4.2493931056
 20
5.3942848891
 11
4.2607212306
 21
5.3942848891
  0
LINE
  5
39D
100
AcDbEntity
  8
03__ASM_ALL_CURVES
100
AcDbLine
 62
40
  6
CONTINUOUS
 10
4.6118931056
 20
5.4018369761
 11
4.6232212306
 21
5.4018369761
  0
LINE
  5
39E
100
AcDbEntity
  8
03__ASM_ALL_CURVES
100
AcDbLine
 62
40
  6
CONTINUOUS
 10
6.4218774799
 20
5.4320453076
 11
6.4105493549
 21
5.4320453076
  0
LINE
  5
39F
100
AcDbEntity
  8
03__ASM_ALL_CURVES
100
AcDbLine
 62
40
  6
CONTINUOUS
 10
4.9120884181
 20
5.4320453076
 11
4.8667759181
 21
5.4320453076
  0
LINE
  5
3A0
100
AcDbEntity
  8
03__ASM_ALL_CURVES
100
AcDbLine
 62
40
  6
CONTINUOUS
 10
4.6402134181
 20
5.4320453076
 11
4.6062290431
 21
5.4320453076
  0
LINE
  5
3A1
100
AcDbEntity
  8
03__ASM_ALL_CURVES
100
AcDbLine
 62
40
  6
CONTINUOUS
 10
4.2493931056
 20
5.4320453076
 11
4.2607212306
 21
5.4320453076
  0
LINE
  5
3A2
100
AcDbEntity
  8
03__ASM_ALL_CURVES
100
AcDbLine
 62
40
  6
CONTINUOUS
 10
5.6855493549
 20
5.4320453076
 11
5.6968774799
 21
5.4320453076
  0
LINE
  5
3A3
100
AcDbEntity
  8
03__ASM_ALL_CURVES
100
AcDbLine
 62
40
  6
CONTINUOUS
 10
5.7761743549
 20
5.4320453076
 11
5.7875024799
 21
5.4320453076
  0
LINE
  5
3A4
100
AcDbEntity
  8
03__ASM_ALL_CURVES
100
AcDbLine
 62
40
  6
CONTINUOUS
 10
5.9347681049
 20
5.4320453076
 11
5.9914087299
 21
5.4320453076
  0
LINE
  5
3A5
100
AcDbEntity
  8
03__ASM_ALL_CURVES
100
AcDbLine
 62
40
  6
CONTINUOUS
 10
6.2292993549
 20
5.4320453076
 11
6.2406274799
 21
5.4320453076
  0
LINE
  5
3A6
100
AcDbEntity
  8
03__ASM_ALL_CURVES
100
AcDbLine
 62
40
  6
CONTINUOUS
 10
6.5917993549
 20
5.4320453076
 11
6.6031274799
 21
5.4320453076
  0
LINE
  5
3A7
100
AcDbEntity
  8
03__ASM_ALL_CURVES
100
AcDbLine
 62
40
  6
CONTINUOUS
 10
6.8466821674
 20
5.4320453076
 11
6.8693384174
 21
5.4320453076
  0
LINE
  5
3A8
100
AcDbEntity
  8
03__ASM_ALL_CURVES
100
AcDbLine
 62
40
  6
CONTINUOUS
 10
6.9373071674
 20
5.4320453076
 11
6.9826196674
 21
5.4320453076
  0
LINE
  5
3A9
100
AcDbEntity
  8
03__ASM_ALL_CURVES
100
AcDbLine
 62
40
  6
CONTINUOUS
 10
7.0279321674
 20
5.4320453076
 11
7.0562524799
 21
5.4320453076
  0
LINE
  5
3AA
100
AcDbEntity
  8
03__ASM_ALL_CURVES
100
AcDbLine
 62
40
  6
CONTINUOUS
 10
5.3241821681
 20
5.3081911409
 11
5.5416821681
 21
5.3021494743
  0
LINE
  5
3AB
100
AcDbEntity
  8
03__ASM_ALL_CURVES
100
AcDbLine
 62
40
  6
CONTINUOUS
 10
6.2292993549
 20
5.3414203076
 11
6.2179712299
 21
5.3489723912
  0
LINE
  5
3AC
100
AcDbEntity
  8
03__ASM_ALL_CURVES
100
AcDbLine
 62
40
  6
CONTINUOUS
 10
7.7736450591
 20
4.3483833076
 11
7.7651489654
 21
4.3540473703
  0
LINE
  5
3AD
100
AcDbEntity
  8
03__ASM_ALL_CURVES
100
AcDbLine
 62
40
  6
CONTINUOUS
 10
7.7141724029
 20
4.4163520576
 11
7.7226684966
 21
4.4106879964
  0
LINE
  5
3AE
100
AcDbEntity
  8
03__ASM_ALL_CURVES
100
AcDbLine
 62
40
  6
CONTINUOUS
 10
6.2519556049
 20
5.4244932261
 11
6.2576196674
 21
5.4169411391
  0
LINE
  5
3AF
100
AcDbEntity
  8
03__ASM_ALL_CURVES
100
AcDbLine
 62
40
  6
CONTINUOUS
 10
6.3992212299
 20
5.3489723912
 11
6.3878931049
 21
5.3640765576
  0
LINE
  5
3B0
100
AcDbEntity
  8
03__ASM_ALL_CURVES
100
AcDbLine
 62
40
  6
CONTINUOUS
 10
6.3935571674
 20
5.4093890576
 11
6.3992212299
 21
5.4018369761
  0
LINE
  5
3B1
100
AcDbEntity
  8
03__ASM_ALL_CURVES
100
AcDbLine
 62
40
  6
CONTINUOUS
 10
6.4332056049
 20
5.3791807234
 11
6.4388696674
 21
5.3716286418
  0
LINE
  5
3B2
100
AcDbEntity
  8
03__ASM_ALL_CURVES
100
AcDbLine
 62
40
  6
CONTINUOUS
 10
6.6257837299
 20
5.4093890576
 11
6.6314477924
 21
5.3867328076
  0
LINE
  5
3B3
100
AcDbEntity
  8
0
100
AcDbLine
 62
7
  6
CONTINUOUS
 10
6.9939321681
 20
3.7062583076
 11
6.9939321681
 21
4.9542583076
  0
LINE
  5
3B4
100
AcDbEntity
  8
03__ASM_ALL_CURVES
100
AcDbLine
 62
40
  6
CONTINUOUS
 10
7.0279321674
 20
5.3414203076
 11
7.0279321674
 21
5.4320453076
  0
LINE
  5
3B5
100
AcDbEntity
  8
03__ASM_ALL_CURVES
100
AcDbLine
 62
40
  6
CONTINUOUS
 10
7.0732446674
 20
5.4169411391
 11
7.0732446674
 21
5.4018369761
  0
LINE
  5
3B6
100
AcDbEntity
  8
0
100
AcDbLine
 62
7
  6
CONTINUOUS
 10
7.0969321681
 20
3.7062583076
 11
7.0969321681
 21
4.9542583076
  0
LINE
  5
3B7
100
AcDbEntity
  8
03__ASM_ALL_CURVES
100
AcDbLine
 62
40
  6
CONTINUOUS
 10
6.4362036171
 20
3.1592817451
 11
6.4277075234
 21
3.1479536203
  0
LINE
  5
3B8
100
AcDbEntity
  8
03__ASM_ALL_CURVES
100
AcDbLine
 62
40
  6
CONTINUOUS
 10
6.4999243202
 20
3.1876020589
 11
6.4956762734
 21
3.1819379937
  0
LINE
  5
3B9
100
AcDbEntity
  8
03__ASM_ALL_CURVES
100
AcDbLine
 62
40
  6
CONTINUOUS
 10
6.6018774452
 20
3.1989301812
 11
6.6061254921
 21
3.2045942464
  0
LINE
  5
3BA
100
AcDbEntity
  8
03__ASM_ALL_CURVES
100
AcDbLine
 62
40
  6
CONTINUOUS
 10
6.6146215859
 20
3.1706098694
 11
6.6061254921
 21
3.1592817451
  0
LINE
  5
3BB
100
AcDbEntity
  8
03__ASM_ALL_CURVES
100
AcDbLine
 62
40
  6
CONTINUOUS
 10
6.6358618202
 20
3.1876020589
 11
6.6316137734
 21
3.1819379937
  0
LINE
  5
3BC
100
AcDbEntity
  8
03__ASM_ALL_CURVES
100
AcDbLine
 62
40
  6
CONTINUOUS
 10
6.3597387734
 20
3.1819379937
 11
6.3512426796
 21
3.1762739326
  0
LINE
  5
3BD
100
AcDbEntity
  8
03__ASM_ALL_CURVES
100
AcDbLine
 62
40
  6
CONTINUOUS
 10
6.4022192421
 20
3.2045942464
 11
6.4107153359
 21
3.2102583076
  0
LINE
  5
3BE
100
AcDbEntity
  8
03__ASM_ALL_CURVES
100
AcDbLine
 62
40
  6
CONTINUOUS
 10
6.4277075234
 20
3.1479536203
 11
6.4192114296
 21
3.1422895576
  0
LINE
  5
3BF
100
AcDbEntity
  8
03__ASM_ALL_CURVES
100
AcDbLine
 62
40
  6
CONTINUOUS
 10
6.4956762734
 20
3.1819379937
 11
6.4871801796
 21
3.1762739326
  0
LINE
  5
3C0
100
AcDbEntity
  8
03__ASM_ALL_CURVES
100
AcDbLine
 62
40
  6
CONTINUOUS
 10
3.7296821681
 20
5.3202744743
 11
3.6209321681
 21
5.3051703076
  0
LINE
  5
3C1
100
AcDbEntity
  8
03__ASM_ALL_CURVES
100
AcDbLine
 62
40
  6
CONTINUOUS
 10
3.7296821681
 20
5.3172536409
 11
3.6209321681
 21
5.3051703076
  0
LINE
  5
3C2
100
AcDbEntity
  8
03__ASM_ALL_CURVES
100
AcDbLine
 62
40
  6
CONTINUOUS
 10
3.7296821681
 20
5.3142328076
 11
3.6209321681
 21
5.3051703076
  0
LINE
  5
3C3
100
AcDbEntity
  8
03__ASM_ALL_CURVES
100
AcDbLine
 62
40
  6
CONTINUOUS
 10
6.2406274799
 20
5.4320453076
 11
6.2519556049
 21
5.4244932261
  0
LINE
  5
3C4
100
AcDbEntity
  8
03__ASM_ALL_CURVES
100
AcDbLine
 62
40
  6
CONTINUOUS
 10
7.7821411529
 20
4.4163520576
 11
7.7906372466
 21
4.4106879964
  0
LINE
  5
3C5
100
AcDbEntity
  8
03__ASM_ALL_CURVES
100
AcDbLine
 62
40
  6
CONTINUOUS
 10
6.4105493549
 20
5.3414203076
 11
6.3992212299
 21
5.3489723912
  0
LINE
  5
3C6
100
AcDbEntity
  8
03__ASM_ALL_CURVES
100
AcDbLine
 62
40
  6
CONTINUOUS
 10
7.8501099029
 20
4.4163520576
 11
7.8586059966
 21
4.4106879964
  0
LINE
  5
3C7
100
AcDbEntity
  8
03__ASM_ALL_CURVES
100
AcDbLine
 62
40
  6
CONTINUOUS
 10
6.3992212299
 20
5.4018369761
 11
6.4332056049
 21
5.3791807234
  0
LINE
  5
3C8
100
AcDbEntity
  8
03__ASM_ALL_CURVES
100
AcDbLine
 62
40
  6
CONTINUOUS
 10
6.4332056049
 20
5.4244932261
 11
6.4218774799
 21
5.4320453076
  0
LINE
  5
3C9
100
AcDbEntity
  8
03__ASM_ALL_CURVES
100
AcDbLine
 62
40
  6
CONTINUOUS
 10
6.5917993549
 20
5.3414203076
 11
6.5804712299
 21
5.3489723912
  0
LINE
  5
3CA
100
AcDbEntity
  8
03__ASM_ALL_CURVES
100
AcDbLine
 62
40
  6
CONTINUOUS
 10
6.4388696674
 20
5.4169411391
 11
6.4332056049
 21
5.4244932261
  0
LINE
  5
3CB
100
AcDbEntity
  8
03__ASM_ALL_CURVES
100
AcDbLine
 62
40
  6
CONTINUOUS
 10
6.5804712299
 20
5.3489723912
 11
6.5691431049
 21
5.3640765576
  0
LINE
  5
3CC
100
AcDbEntity
  8
03__ASM_ALL_CURVES
100
AcDbLine
 62
40
  6
CONTINUOUS
 10
6.6710962299
 20
5.3489723912
 11
6.6654321674
 21
5.3565244747
  0
LINE
  5
3CD
100
AcDbEntity
  8
03__ASM_ALL_CURVES
100
AcDbLine
 62
40
  6
CONTINUOUS
 10
6.6144556049
 20
5.4244932261
 11
6.6257837299
 21
5.4093890576
  0
LINE
  5
3CE
100
AcDbEntity
  8
03__ASM_ALL_CURVES
100
AcDbLine
 62
40
  6
CONTINUOUS
 10
6.8919946674
 20
5.4093890576
 11
6.8976587299
 21
5.3867328076
  0
LINE
  5
3CF
100
AcDbEntity
  8
0
100
AcDbLine
 62
7
  6
CONTINUOUS
 10
7.1469321681
 20
3.7062583076
 11
7.1469321681
 21
4.9542583076
  0
LINE
  5
3D0
100
AcDbEntity
  8
0
100
AcDbLine
 62
7
  6
CONTINUOUS
 10
7.1679321681
 20
4.9537510019
 11
7.1679321681
 21
3.7067656133
  0
LINE
  5
3D1
100
AcDbEntity
  8
0
100
AcDbLine
 62
7
  6
CONTINUOUS
 10
7.2149321681
 20
3.7067583076
 11
7.2149321681
 21
4.9537583076
  0
LINE
  5
3D2
100
AcDbEntity
  8
0
100
AcDbLine
 62
7
  6
CONTINUOUS
 10
7.2459321681
 20
3.7377583076
 11
7.2459321681
 21
4.9227583076
  0
LINE
  5
3D3
100
AcDbEntity
  8
03__ASM_ALL_CURVES
100
AcDbLine
 62
40
  6
CONTINUOUS
 10
7.7269165435
 20
4.3936958089
 11
7.7226684966
 21
4.3880317437
  0
LINE
  5
3D4
100
AcDbEntity
  8
03__ASM_ALL_CURVES
100
AcDbLine
 62
40
  6
CONTINUOUS
 10
7.7566528716
 20
4.3993598701
 11
7.7651489654
 21
4.4106879964
  0
LINE
  5
3D5
100
AcDbEntity
  8
0
100
AcDbLine
 62
7
  6
CONTINUOUS
 10
7.2149321681
 20
3.7067583076
 11
7.2459321681
 21
3.7377583076
  0
LINE
  5
3D6
100
AcDbEntity
  8
03__ASM_ALL_CURVES
100
AcDbLine
 62
40
  6
CONTINUOUS
 10
6.6061254921
 20
3.2045942464
 11
6.6146215859
 21
3.2102583076
  0
LINE
  5
3D7
100
AcDbEntity
  8
03__ASM_ALL_CURVES
100
AcDbLine
 62
40
  6
CONTINUOUS
 10
6.6316137734
 20
3.1819379937
 11
6.6146215859
 21
3.1706098694
  0
LINE
  5
3D8
100
AcDbEntity
  8
03__ASM_ALL_CURVES
100
AcDbLine
 62
40
  6
CONTINUOUS
 10
3.6209321681
 20
5.3051703076
 11
3.7296821681
 21
5.3232953076
  0
LINE
  5
3D9
100
AcDbEntity
  8
03__ASM_ALL_CURVES
100
AcDbLine
 62
40
  6
CONTINUOUS
 10
6.6824243549
 20
5.3414203076
 11
6.6710962299
 21
5.3489723912
  0
LINE
  5
3DA
100
AcDbEntity
  8
03__ASM_ALL_CURVES
100
AcDbLine
 62
40
  6
CONTINUOUS
 10
6.6031274799
 20
5.4320453076
 11
6.6144556049
 21
5.4244932261
  0
LINE
  5
3DB
100
AcDbEntity
  8
0
100
AcDbLine
 62
7
  6
CONTINUOUS
 10
7.2149321681
 20
4.9537583076
 11
7.2459321681
 21
4.9227583076
  0
LINE
  5
3DC
100
AcDbEntity
  8
03__ASM_ALL_CURVES
100
AcDbLine
 62
40
  6
CONTINUOUS
 10
7.7991333404
 20
4.3653754951
 11
7.7906372466
 21
4.3540473703
  0
LINE
  5
3DD
100
AcDbEntity
  8
03__ASM_ALL_CURVES
100
AcDbLine
 62
40
  6
CONTINUOUS
 10
7.8628540435
 20
4.3936958089
 11
7.8586059966
 21
4.3880317437
  0
LINE
  5
3DE
100
AcDbEntity
  8
03__ASM_ALL_CURVES
100
AcDbLine
 62
40
  6
CONTINUOUS
 10
6.8693384174
 20
5.4320453076
 11
6.8806665424
 21
5.4244932261
  0
LINE
  5
3DF
100
AcDbEntity
  8
03__ASM_ALL_CURVES
100
AcDbLine
 62
40
  6
CONTINUOUS
 10
7.0562524799
 20
5.4320453076
 11
7.0675806049
 21
5.4244932261
  0
LINE
  5
3E0
100
AcDbEntity
  8
03__ASM_ALL_CURVES
100
AcDbLine
 62
40
  6
CONTINUOUS
 10
6.8806665424
 20
5.4244932261
 11
6.8919946674
 21
5.4093890576
  0
LINE
  5
3E1
100
AcDbEntity
  8
03__ASM_ALL_CURVES
100
AcDbLine
 62
40
  6
CONTINUOUS
 10
7.7651489654
 20
4.3540473703
 11
7.7566528716
 21
4.3653754951
  0
LINE
  5
3E2
100
AcDbEntity
  8
03__ASM_ALL_CURVES
100
AcDbLine
 62
40
  6
CONTINUOUS
 10
7.7226684966
 20
4.4106879964
 11
7.7269165435
 21
4.4050239312
  0
LINE
  5
3E3
100
AcDbEntity
  8
03__ASM_ALL_CURVES
100
AcDbLine
 62
40
  6
CONTINUOUS
 10
7.0562524799
 20
5.3867328076
 11
7.0732446674
 21
5.3414203076
  0
LINE
  5
3E4
100
AcDbEntity
  8
03__ASM_ALL_CURVES
100
AcDbLine
 62
40
  6
CONTINUOUS
 10
7.7906372466
 20
4.4106879964
 11
7.7991333404
 21
4.3993598701
  0
LINE
  5
3E5
100
AcDbEntity
  8
03__ASM_ALL_CURVES
100
AcDbLine
 62
40
  6
CONTINUOUS
 10
7.0675806049
 20
5.4244932261
 11
7.0732446674
 21
5.4169411391
  0
LINE
  5
3E6
100
AcDbEntity
  8
03__ASM_ALL_CURVES
100
AcDbLine
 62
40
  6
CONTINUOUS
 10
7.8586059966
 20
4.4106879964
 11
7.8628540435
 21
4.4050239312
  0
LINE
  5
3E7
100
AcDbEntity
  8
03__ASM_ALL_CURVES
100
AcDbLine
 62
40
  6
CONTINUOUS
 10
7.6929321685
 20
4.3483833076
 11
7.6929321685
 21
4.4163520576
  0
LINE
  5
3E8
100
AcDbEntity
  8
03__ASM_ALL_CURVES
100
AcDbLine
 62
40
  6
CONTINUOUS
 10
7.7269165435
 20
4.4050239312
 11
7.7269165435
 21
4.3936958089
  0
LINE
  5
3E9
100
AcDbEntity
  8
03__ASM_ALL_CURVES
100
AcDbLine
 62
40
  6
CONTINUOUS
 10
7.7524048248
 20
4.3823676826
 11
7.7566528716
 21
4.3993598701
  0
LINE
  5
3EA
100
AcDbEntity
  8
03__ASM_ALL_CURVES
100
AcDbLine
 62
40
  6
CONTINUOUS
 10
7.8033813873
 20
4.3823676826
 11
7.7991333404
 21
4.3653754951
  0
LINE
  5
3EB
100
AcDbEntity
  8
03__ASM_ALL_CURVES
100
AcDbLine
 62
40
  6
CONTINUOUS
 10
7.8501099029
 20
4.3823676826
 11
7.8628540435
 21
4.3483833076
  0
LINE
  5
3EC
100
AcDbEntity
  8
03__ASM_ALL_CURVES
100
AcDbLine
 62
40
  6
CONTINUOUS
 10
7.7566528716
 20
4.3653754951
 11
7.7524048248
 21
4.3823676826
  0
LINE
  5
3ED
100
AcDbEntity
  8
03__ASM_ALL_CURVES
100
AcDbLine
 62
40
  6
CONTINUOUS
 10
7.7991333404
 20
4.3993598701
 11
7.8033813873
 21
4.3823676826
  0
LINE
  5
3EE
100
AcDbEntity
  8
03__ASM_ALL_CURVES
100
AcDbLine
 62
40
  6
CONTINUOUS
 10
7.8288696685
 20
4.3483833076
 11
7.8288696685
 21
4.4163520576
  0
LINE
  5
3EF
100
AcDbEntity
  8
03__ASM_ALL_CURVES
100
AcDbLine
 62
40
  6
CONTINUOUS
 10
7.8628540435
 20
4.4050239312
 11
7.8628540435
 21
4.3936958089
  0
LINE
  5
3F0
100
AcDbEntity
  8
03__ASM_ALL_CURVES
100
AcDbLine
 62
40
  6
CONTINUOUS
 10
7.913830606
 20
4.4163520576
 11
7.913830606
 21
4.3483833076
  0
LINE
  5
3F1
100
AcDbEntity
  8
03__ASM_ALL_CURVES
100
AcDbLine
 62
40
  6
CONTINUOUS
 10
7.981799356
 20
4.4163520576
 11
7.981799356
 21
4.3483833076
  0
CIRCLE
  5
3F2
100
AcDbEntity
  8
0
100
AcDbCircle
 62
7
  6
CONTINUOUS
 10
6.7299321681
 20
4.3302583076
 40
0.1095
  0
ARC
  5
3F3
100
AcDbEntity
  8
0
100
AcDbCircle
 62
7
  6
CONTINUOUS
 10
6.6679321681
 20
4.3302583076
 40
0.094
100
AcDbArc
 50
273.5003085673
 51
86.5832836168
  0
ARC
  5
3F4
100
AcDbEntity
  8
0
100
AcDbCircle
 62
7
  6
CONTINUOUS
 10
5.6252961395
 20
3.6722583076
 40
0.028
100
AcDbArc
 50
9.2483578672
 51
74.165711505
  0
ARC
  5
3F5
100
AcDbEntity
  8
0
100
AcDbCircle
 62
7
  6
CONTINUOUS
 10
5.6252961395
 20
4.9882583076
 40
0.028
100
AcDbArc
 50
285.834288495
 51
350.7516421328
  0
ARC
  5
3F6
100
AcDbEntity
  8
0
100
AcDbCircle
 62
7
  6
CONTINUOUS
 10
6.8379321681
 20
3.7877583076
 40
0.013
100
AcDbArc
 50
0.000005453
 51
83.3741904352
  0
ARC
  5
3F7
100
AcDbEntity
  8
0
100
AcDbCircle
 62
7
  6
CONTINUOUS
 10
6.8379321681
 20
4.8727583076
 40
0.013
100
AcDbArc
 50
276.6258095648
 51
359.999994547
  0
SPLINE
  5
3F8
100
AcDbEntity
  8
0
100
AcDbSpline
 62
7
  6
CONTINUOUS
 70
0
 71
3
 72
15
 73
11
 74
9
 42
0.0000001
 43
0.0000001
 44
0.0000000001
 12
0.0
 22
0.1617702498
 32
0.0
 13
0.0
 23
-0.1617702498
 33
0.0
 40
0.0
 40
0.0
 40
0.0
 40
0.0
 40
0.125
 40
0.25
 40
0.375
 40
0.5
 40
0.625
 40
0.75
 40
0.875
 40
1.0
 40
1.0
 40
1.0
 40
1.0
 10
7.0969321681
 20
4.9177583076
 30
0.0
 10
7.0969321681
 20
4.9244987347
 30
0.0
 10
7.0942506595
 20
4.9379795888
 30
0.0
 10
7.0827962238
 20
4.9551223633
 30
0.0
 10
7.0656534494
 20
4.966576799
 30
0.0
 10
7.0454321681
 20
4.9705990619
 30
0.0
 10
7.0252108869
 20
4.966576799
 30
0.0
 10
7.0080681124
 20
4.9551223633
 30
0.0
 10
6.9966136767
 20
4.9379795888
 30
0.0
 10
6.9939321681
 20
4.9244987347
 30
0.0
 10
6.9939321681
 20
4.9177583076
 30
0.0
 11
7.0969321681
 21
4.9177583076
 31
0.0
 11
7.0930119641
 21
4.9374665044
 31
0.0
 11
7.0818481674
 21
4.9541743068
 31
0.0
 11
7.0651403649
 21
4.9653381035
 31
0.0
 11
7.0454321681
 21
4.9692583076
 31
0.0
 11
7.0257239714
 21
4.9653381035
 31
0.0
 11
7.0090161689
 21
4.9541743068
 31
0.0
 11
6.9978523722
 21
4.9374665044
 31
0.0
 11
6.9939321681
 21
4.9177583076
 31
0.0
  0
SPLINE
  5
3F9
100
AcDbEntity
  8
0
100
AcDbSpline
 62
7
  6
CONTINUOUS
 70
0
 71
3
 72
15
 73
11
 74
9
 42
0.0000001
 43
0.0000001
 44
0.0000000001
 12
0.0
 22
-0.1617702498
 32
0.0
 13
0.0
 23
0.1617702498
 33
0.0
 40
0.0
 40
0.0
 40
0.0
 40
0.0
 40
0.125
 40
0.25
 40
0.375
 40
0.5
 40
0.625
 40
0.75
 40
0.875
 40
1.0
 40
1.0
 40
1.0
 40
1.0
 10
7.0969321681
 20
3.7427583076
 30
0.0
 10
7.0969321681
 20
3.7360178805
 30
0.0
 10
7.0942506595
 20
3.7225370264
 30
0.0
 10
7.0827962238
 20
3.7053942519
 30
0.0
 10
7.0656534494
 20
3.6939398162
 30
0.0
 10
7.0454321681
 20
3.6899175533
 30
0.0
 10
7.0252108869
 20
3.6939398162
 30
0.0
 10
7.0080681124
 20
3.7053942519
 30
0.0
 10
6.9966136767
 20
3.7225370264
 30
0.0
 10
6.9939321681
 20
3.7360178805
 30
0.0
 10
6.9939321681
 20
3.7427583076
 30
0.0
 11
7.0969321681
 21
3.7427583076
 31
0.0
 11
7.0930119641
 21
3.7230501108
 31
0.0
 11
7.0818481674
 21
3.7063423084
 31
0.0
 11
7.0651403649
 21
3.6951785117
 31
0.0
 11
7.0454321681
 21
3.6912583076
 31
0.0
 11
7.0257239714
 21
3.6951785117
 31
0.0
 11
7.0090161689
 21
3.7063423084
 31
0.0
 11
6.9978523722
 21
3.7230501108
 31
0.0
 11
6.9939321681
 21
3.7427583076
 31
0.0
  0
SPLINE
  5
3FA
100
AcDbEntity
  8
0
100
AcDbSpline
 62
7
  6
CONTINUOUS
 70
0
 71
3
 72
15
 73
11
 74
9
 42
0.0000001
 43
0.0000001
 44
0.0000000001
 12
0.0
 22
0.1617702498
 32
0.0
 13
0.0
 23
-0.1617702498
 33
0.0
 40
0.0
 40
0.0
 40
0.0
 40
0.0
 40
0.125
 40
0.25
 40
0.375
 40
0.5
 40
0.625
 40
0.75
 40
0.875
 40
1.0
 40
1.0
 40
1.0
 40
1.0
 10
5.5829321681
 20
5.0117583076
 30
0.0
 10
5.5829321681
 20
5.0184987347
 30
0.0
 10
5.5802506595
 20
5.0319795888
 30
0.0
 10
5.5687962238
 20
5.0491223633
 30
0.0
 10
5.5516534494
 20
5.060576799
 30
0.0
 10
5.5314321681
 20
5.0645990619
 30
0.0
 10
5.5112108869
 20
5.060576799
 30
0.0
 10
5.4940681124
 20
5.0491223633
 30
0.0
 10
5.4826136767
 20
5.0319795888
 30
0.0
 10
5.4799321681
 20
5.0184987347
 30
0.0
 10
5.4799321681
 20
5.0117583076
 30
0.0
 11
5.5829321681
 21
5.0117583076
 31
0.0
 11
5.5790119641
 21
5.0314665044
 31
0.0
 11
5.5678481674
 21
5.0481743068
 31
0.0
 11
5.5511403649
 21
5.0593381035
 31
0.0
 11
5.5314321681
 21
5.0632583076
 31
0.0
 11
5.5117239714
 21
5.0593381035
 31
0.0
 11
5.4950161689
 21
5.0481743068
 31
0.0
 11
5.4838523722
 21
5.0314665044
 31
0.0
 11
5.4799321681
 21
5.0117583076
 31
0.0
  0
SPLINE
  5
3FB
100
AcDbEntity
  8
0
100
AcDbSpline
 62
7
  6
CONTINUOUS
 70
0
 71
3
 72
15
 73
11
 74
9
 42
0.0000001
 43
0.0000001
 44
0.0000000001
 12
0.0
 22
-0.1617702498
 32
0.0
 13
0.0
 23
0.1617702498
 33
0.0
 40
0.0
 40
0.0
 40
0.0
 40
0.0
 40
0.125
 40
0.25
 40
0.375
 40
0.5
 40
0.625
 40
0.75
 40
0.875
 40
1.0
 40
1.0
 40
1.0
 40
1.0
 10
5.5829321681
 20
3.6487583076
 30
0.0
 10
5.5829321681
 20
3.6420178805
 30
0.0
 10
5.5802506595
 20
3.6285370264
 30
0.0
 10
5.5687962238
 20
3.6113942519
 30
0.0
 10
5.5516534494
 20
3.5999398162
 30
0.0
 10
5.5314321681
 20
3.5959175533
 30
0.0
 10
5.5112108869
 20
3.5999398162
 30
0.0
 10
5.4940681124
 20
3.6113942519
 30
0.0
 10
5.4826136767
 20
3.6285370264
 30
0.0
 10
5.4799321681
 20
3.6420178805
 30
0.0
 10
5.4799321681
 20
3.6487583076
 30
0.0
 11
5.5829321681
 21
3.6487583076
 31
0.0
 11
5.5790119641
 21
3.6290501108
 31
0.0
 11
5.5678481674
 21
3.6123423084
 31
0.0
 11
5.5511403649
 21
3.6011785117
 31
0.0
 11
5.5314321681
 21
3.5972583076
 31
0.0
 11
5.5117239714
 21
3.6011785117
 31
0.0
 11
5.4950161689
 21
3.6123423084
 31
0.0
 11
5.4838523722
 21
3.6290501108
 31
0.0
 11
5.4799321681
 21
3.6487583076
 31
0.0
  0
SPLINE
  5
3FC
100
AcDbEntity
  8
0
100
AcDbSpline
 62
7
  6
CONTINUOUS
 70
0
 71
3
 72
15
 73
11
 74
9
 42
0.0000001
 43
0.0000001
 44
0.0000000001
 12
0.0
 22
0.1617702498
 32
0.0
 13
0.0
 23
-0.1617702498
 33
0.0
 40
0.0
 40
0.0
 40
0.0
 40
0.0
 40
0.125
 40
0.25
 40
0.375
 40
0.5
 40
0.625
 40
0.75
 40
0.875
 40
1.0
 40
1.0
 40
1.0
 40
1.0
 10
4.7739321681
 20
5.0732583076
 30
0.0
 10
4.7739321681
 20
5.0799987347
 30
0.0
 10
4.7712506595
 20
5.0934795888
 30
0.0
 10
4.7597962238
 20
5.1106223633
 30
0.0
 10
4.7426534494
 20
5.122076799
 30
0.0
 10
4.7224321681
 20
5.1260990619
 30
0.0
 10
4.7022108869
 20
5.122076799
 30
0.0
 10
4.6850681124
 20
5.1106223633
 30
0.0
 10
4.6736136767
 20
5.0934795888
 30
0.0
 10
4.6709321681
 20
5.0799987347
 30
0.0
 10
4.6709321681
 20
5.0732583076
 30
0.0
 11
4.7739321681
 21
5.0732583076
 31
0.0
 11
4.7700119641
 21
5.0929665044
 31
0.0
 11
4.7588481674
 21
5.1096743068
 31
0.0
 11
4.7421403649
 21
5.1208381035
 31
0.0
 11
4.7224321681
 21
5.1247583076
 31
0.0
 11
4.7027239714
 21
5.1208381035
 31
0.0
 11
4.6860161689
 21
5.1096743068
 31
0.0
 11
4.6748523722
 21
5.0929665044
 31
0.0
 11
4.6709321681
 21
5.0732583076
 31
0.0
  0
SPLINE
  5
3FD
100
AcDbEntity
  8
0
100
AcDbSpline
 62
7
  6
CONTINUOUS
 70
0
 71
3
 72
15
 73
11
 74
9
 42
0.0000001
 43
0.0000001
 44
0.0000000001
 12
0.0
 22
-0.1617702498
 32
0.0
 13
0.0
 23
0.1617702498
 33
0.0
 40
0.0
 40
0.0
 40
0.0
 40
0.0
 40
0.125
 40
0.25
 40
0.375
 40
0.5
 40
0.625
 40
0.75
 40
0.875
 40
1.0
 40
1.0
 40
1.0
 40
1.0
 10
4.7739321681
 20
3.5872583076
 30
0.0
 10
4.7739321681
 20
3.5805178805
 30
0.0
 10
4.7712506595
 20
3.5670370264
 30
0.0
 10
4.7597962238
 20
3.5498942519
 30
0.0
 10
4.7426534494
 20
3.5384398162
 30
0.0
 10
4.7224321681
 20
3.5344175533
 30
0.0
 10
4.7022108869
 20
3.5384398162
 30
0.0
 10
4.6850681124
 20
3.5498942519
 30
0.0
 10
4.6736136767
 20
3.5670370264
 30
0.0
 10
4.6709321681
 20
3.5805178805
 30
0.0
 10
4.6709321681
 20
3.5872583076
 30
0.0
 11
4.7739321681
 21
3.5872583076
 31
0.0
 11
4.7700119641
 21
3.5675501108
 31
0.0
 11
4.7588481674
 21
3.5508423084
 31
0.0
 11
4.7421403649
 21
3.5396785117
 31
0.0
 11
4.7224321681
 21
3.5357583076
 31
0.0
 11
4.7027239714
 21
3.5396785117
 31
0.0
 11
4.6860161689
 21
3.5508423084
 31
0.0
 11
4.6748523722
 21
3.5675501108
 31
0.0
 11
4.6709321681
 21
3.5872583076
 31
0.0
  0
SPLINE
  5
3FE
100
AcDbEntity
  8
0
100
AcDbSpline
 62
7
  6
CONTINUOUS
 70
0
 71
3
 72
22
 73
18
 74
16
 42
0.0000001
 43
0.0000001
 44
0.0000000001
 12
-0.2146128386
 22
-0.0437992141
 32
0.0
 13
-0.2144978941
 23
0.0443579525
 33
0.0
 40
0.0
 40
0.0
 40
0.0
 40
0.0
 40
0.0264838995
 40
0.0714596575
 40
0.1329615182
 40
0.208499886
 40
0.2951549742
 40
0.3896659901
 40
0.4883729151
 40
0.5874194339
 40
0.6829128946
 40
0.771113927
 40
0.8486751298
 40
0.9126213405
 40
0.9604083965
 40
0.9900030649
 40
1.0
 40
1.0
 40
1.0
 40
1.0
 10
6.8379321681
 20
4.8594501443
 30
0.0
 10
6.8360375732
 20
4.8590634863
 30
0.0
 10
6.8309203399
 20
4.858045447
 30
0.0
 10
6.8213739505
 20
4.8562798636
 30
0.0
 10
6.8082580917
 20
4.8541313783
 30
0.0
 10
6.7920724277
 20
4.8519278106
 30
0.0
 10
6.7734242535
 20
4.8500102208
 30
0.0
 10
6.7530278866
 20
4.8486834212
 30
0.0
 10
6.7316891178
 20
4.8481642615
 30
0.0
 10
6.7102755157
 20
4.848539466
 30
0.0
 10
6.6896617727
 20
4.8497467951
 30
0.0
 10
6.6706717731
 20
4.8515879874
 30
0.0
 10
6.6540398422
 20
4.853768324
 30
0.0
 10
6.6403906395
 20
4.8559486647
 30
0.0
 10
6.6302381422
 20
4.8577962276
 30
0.0
 10
6.6239788059
 20
4.8590303538
 30
0.0
 10
6.621146942
 20
4.8596104931
 30
0.0
 10
6.6204321681
 20
4.8597583076
 30
0.0
 11
6.8379321681
 21
4.8594501443
 31
0.0
 11
6.8322426981
 21
4.8583183842
 31
0.0
 11
6.8225555414
 21
4.8565273351
 31
0.0
 11
6.8092613479
 21
4.85435097
 31
0.0
 11
6.7928666316
 21
4.8521210737
 31
0.0
 11
6.7739852989
 21
4.8501820312
 31
0.0
 11
6.7533274487
 21
4.8488403543
 31
0.0
 11
6.7317133908
 21
4.848315421
 31
0.0
 11
6.7100218937
 21
4.8486948216
 31
0.0
 11
6.6891409962
 21
4.8499158099
 31
0.0
 11
6.6699116675
 21
4.8517776845
 31
0.0
 11
6.6530667605
 21
4.8539837041
 31
0.0
 11
6.6392353253
 21
4.8561916848
 31
0.0
 11
6.6289372221
 21
4.8580650706
 31
0.0
 11
6.6225773131
 21
4.859318857
 31
0.0
 11
6.6204321681
 21
4.8597583076
 31
0.0
  0
SPLINE
  5
3FF
100
AcDbEntity
  8
0
100
AcDbSpline
 62
7
  6
CONTINUOUS
 70
0
 71
3
 72
9
 73
5
 74
3
 42
0.0000001
 43
0.0000001
 44
0.0000000001
 12
-0.001476174
 22
-0.0004767299
 32
0.0
 13
-0.0015202601
 23
-0.0003102619
 33
0.0
 40
0.0
 40
0.0
 40
0.0
 40
0.0
 40
0.2667107193
 40
1.0
 40
1.0
 40
1.0
 40
1.0
 10
6.8394321681
 20
4.859845136
 30
0.0
 10
6.839300931
 20
4.859802753
 30
0.0
 10
6.8388064377
 20
4.8596508439
 30
0.0
 10
6.8383037649
 20
4.8595259815
 30
0.0
 10
6.8379321681
 20
4.8594501443
 30
0.0
 11
6.8394321681
 21
4.859845136
 31
0.0
 11
6.8390365758
 21
4.8597236454
 31
0.0
 11
6.8379321681
 21
4.8594501443
 31
0.0
  0
SPLINE
  5
400
100
AcDbEntity
  8
0
100
AcDbSpline
 62
7
  6
CONTINUOUS
 70
0
 71
3
 72
9
 73
5
 74
3
 42
0.0000001
 43
0.0000001
 44
0.0000000001
 12
0.0015202598
 22
-0.0003102619
 32
0.0
 13
0.0014761738
 23
-0.0004767299
 33
0.0
 40
0.0
 40
0.0
 40
0.0
 40
0.0
 40
0.7335137772
 40
1.0
 40
1.0
 40
1.0
 40
1.0
 10
6.8379321681
 20
3.8010664709
 30
0.0
 10
6.8383038786
 20
3.8009906105
 30
0.0
 10
6.8388065503
 20
3.8008657415
 30
0.0
 10
6.8393010415
 20
3.8007138265
 30
0.0
 10
6.8394321681
 20
3.8006714792
 30
0.0
 11
6.8379321681
 21
3.8010664709
 31
0.0
 11
6.8390369104
 21
3.8007928723
 31
0.0
 11
6.8394321681
 21
3.8006714792
 31
0.0
  0
SPLINE
  5
401
100
AcDbEntity
  8
0
100
AcDbSpline
 62
7
  6
CONTINUOUS
 70
0
 71
3
 72
22
 73
18
 74
16
 42
0.0000001
 43
0.0000001
 44
0.0000000001
 12
0.2144978945
 22
0.0443579527
 32
0.0
 13
0.2146128395
 23
-0.0437992143
 33
0.0
 40
0.0
 40
0.0
 40
0.0
 40
0.0
 40
0.0100133513
 40
0.0396453261
 40
0.0874818477
 40
0.151464349
 40
0.2290292577
 40
0.3171966587
 40
0.4126472582
 40
0.5116722128
 40
0.6103991885
 40
0.7049481154
 40
0.7916260707
 40
0.8671506873
 40
0.9286109515
 40
0.9735405642
 40
1.0
 40
1.0
 40
1.0
 40
1.0
 10
6.6204321681
 20
3.8007583076
 30
0.0
 10
6.6211481157
 20
3.8009063649
 30
0.0
 10
6.623983824
 20
3.8014872826
 30
0.0
 10
6.6302505688
 20
3.8027227839
 30
0.0
 10
6.6404119631
 20
3.8045716517
 30
0.0
 10
6.6540677219
 20
3.8067523751
 30
0.0
 10
6.6707002381
 20
3.8089318276
 30
0.0
 10
6.6896850399
 20
3.810771518
 30
0.0
 10
6.7102916737
 20
3.8119776659
 30
0.0
 10
6.7317020415
 20
3.8123523073
 30
0.0
 10
6.7530434584
 20
3.8118325854
 30
0.0
 10
6.7734456734
 20
3.8105046836
 30
0.0
 10
6.7920971757
 20
3.8085858656
 30
0.0
 10
6.8082803834
 20
3.8063818472
 30
0.0
 10
6.8213888506
 20
3.8042340939
 30
0.0
 10
6.830927151
 20
3.8024698284
 30
0.0
 10
6.8360393232
 20
3.8014527718
 30
0.0
 10
6.8379321681
 20
3.8010664709
 30
0.0
 11
6.6204321681
 21
3.8007583076
 31
0.0
 11
6.622580837
 21
3.8011984733
 31
0.0
 11
6.6289487798
 21
3.802453756
 31
0.0
 11
6.6392575993
 21
3.804328771
 31
0.0
 11
6.6530969891
 21
3.8065373468
 31
0.0
 11
6.6699428263
 21
3.8087425158
 31
0.0
 11
6.6891649194
 21
3.8106026826
 31
0.0
 11
6.7100364898
 21
3.811822354
 31
0.0
 11
6.7317232733
 21
3.8122011601
 31
0.0
 11
6.7533417096
 21
3.8116756173
 31
0.0
 11
6.7740077992
 21
3.8103326771
 31
0.0
 11
6.7928940235
 21
3.8083922374
 31
0.0
 11
6.8092856491
 21
3.8061619663
 31
0.0
 11
6.8225707736
 21
3.803986599
 31
0.0
 11
6.8322479588
 21
3.8021972117
 31
0.0
 11
6.8379321681
 21
3.8010664709
 31
0.0
  0
SPLINE
  5
402
100
AcDbEntity
  8
0
100
AcDbSpline
 62
7
  6
CONTINUOUS
 70
0
 71
3
 72
15
 73
11
 74
9
 42
0.0000001
 43
0.0000001
 44
0.0000000001
 12
-0.1684866262
 22
0.3090653096
 32
0.0
 13
0.1684866262
 23
0.3090653096
 33
0.0
 40
0.0
 40
0.0
 40
0.0
 40
0.0
 40
0.1361861867
 40
0.2623602305
 40
0.3825822181
 40
0.50004626
 40
0.6175064396
 40
0.737718306
 40
0.8638418781
 40
1.0
 40
1.0
 40
1.0
 40
1.0
 10
3.6723163421
 20
3.6216193087
 30
0.0
 10
3.664667825
 20
3.6356494507
 30
0.0
 10
3.6510222328
 20
3.6633040097
 30
0.0
 10
3.6355014353
 20
3.7055312097
 30
0.0
 10
3.6259834803
 20
3.7472905858
 30
0.0
 10
3.6227570786
 20
3.7889992414
 30
0.0
 10
3.625988307
 20
3.8307062985
 30
0.0
 10
3.6355085587
 20
3.8724573129
 30
0.0
 10
3.6510276748
 20
3.9146739027
 30
0.0
 10
3.6646694012
 20
3.9423200558
 30
0.0
 10
3.6723163421
 20
3.9563473065
 30
0.0
 11
3.6723163421
 21
3.6216193087
 31
0.0
 11
3.6513103725
 21
3.6647105087
 31
0.0
 11
3.6361910291
 21
3.7064720311
 31
0.0
 11
3.626949555
 21
3.7477696574
 31
0.0
 11
3.6238250017
 21
3.7889996272
 31
0.0
 11
3.6269542251
 21
3.8302278793
 31
0.0
 11
3.6361988605
 21
3.8715211472
 31
0.0
 11
3.6513142546
 21
3.9132652044
 31
0.0
 11
3.6723163421
 21
3.9563473065
 31
0.0
  0
SPLINE
  5
403
100
AcDbEntity
  8
0
100
AcDbSpline
 62
7
  6
CONTINUOUS
 70
0
 71
3
 72
15
 73
11
 74
9
 42
0.0000001
 43
0.0000001
 44
0.0000000001
 12
-0.1783968506
 22
0.654488479
 32
0.0
 13
0.1783968506
 23
0.654488479
 33
0.0
 40
0.0
 40
0.0
 40
0.0
 40
0.0
 40
0.1307633826
 40
0.2558882418
 40
0.378404165
 40
0.500048086
 40
0.6216872073
 40
0.7441908788
 40
0.8692640326
 40
1.0
 40
1.0
 40
1.0
 40
1.0
 10
3.6723163421
 20
3.9955303098
 30
0.0
 10
3.6645404169
 20
4.024058019
 30
0.0
 10
3.6507250231
 20
4.0802824904
 30
0.0
 10
3.6353336388
 20
4.1645098413
 30
0.0
 10
3.625941148
 20
4.2475554706
 30
0.0
 10
3.6227695067
 20
4.3302898942
 30
0.0
 10
3.6259459035
 20
4.4130213483
 30
0.0
 10
3.6353407653
 20
4.4960510265
 30
0.0
 10
3.6507306334
 20
4.5802575748
 30
0.0
 10
3.6645420471
 20
4.6364645772
 30
0.0
 10
3.6723163421
 20
4.6649863054
 30
0.0
 11
3.6723163421
 21
3.9955303098
 31
0.0
 11
3.6513103725
 21
4.0817127097
 31
0.0
 11
3.6361910291
 21
4.1652357546
 31
0.0
 11
3.626949555
 21
4.2478310071
 31
0.0
 11
3.6238250017
 21
4.3302909468
 31
0.0
 11
3.6269542251
 21
4.4127474511
 31
0.0
 11
3.6361988605
 21
4.4953339867
 31
0.0
 11
3.6513142546
 21
4.5788221012
 31
0.0
 11
3.6723163421
 21
4.6649863054
 31
0.0
  0
SPLINE
  5
404
100
AcDbEntity
  8
0
100
AcDbSpline
 62
7
  6
CONTINUOUS
 70
0
 71
3
 72
15
 73
11
 74
9
 42
0.0000001
 43
0.0000001
 44
0.0000000001
 12
-0.1684866262
 22
0.3090653096
 32
0.0
 13
0.1684866262
 23
0.3090653096
 33
0.0
 40
0.0
 40
0.0
 40
0.0
 40
0.0
 40
0.1361861867
 40
0.2623602305
 40
0.3825822181
 40
0.50004626
 40
0.6175064396
 40
0.737718306
 40
0.8638418781
 40
1.0
 40
1.0
 40
1.0
 40
1.0
 10
3.6723163421
 20
4.7041693087
 30
0.0
 10
3.664667825
 20
4.7181994507
 30
0.0
 10
3.6510222328
 20
4.7458540097
 30
0.0
 10
3.6355014353
 20
4.7880812097
 30
0.0
 10
3.6259834803
 20
4.8298405858
 30
0.0
 10
3.6227570786
 20
4.8715492414
 30
0.0
 10
3.625988307
 20
4.9132562985
 30
0.0
 10
3.6355085587
 20
4.9550073129
 30
0.0
 10
3.6510276748
 20
4.9972239027
 30
0.0
 10
3.6646694012
 20
5.0248700558
 30
0.0
 10
3.6723163421
 20
5.0388973065
 30
0.0
 11
3.6723163421
 21
4.7041693087
 31
0.0
 11
3.6513103725
 21
4.7472605087
 31
0.0
 11
3.6361910291
 21
4.7890220311
 31
0.0
 11
3.626949555
 21
4.8303196574
 31
0.0
 11
3.6238250017
 21
4.8715496272
 31
0.0
 11
3.6269542251
 21
4.9127778793
 31
0.0
 11
3.6361988605
 21
4.9540711472
 31
0.0
 11
3.6513142546
 21
4.9958152044
 31
0.0
 11
3.6723163421
 21
5.0388973065
 31
0.0
  0
ENDSEC
  0
SECTION
  2
OBJECTS
  0
DICTIONARY
  5
C
100
AcDbDictionary
280
0
281
1
  3
ACAD_GROUP
350
D
  3
ACAD_MLINESTYLE
350
17
  3
ACAD_LAYOUT
350
1A
  3
ACAD_PLOTSETTINGS
350
19
  3
ACAD_PLOTSTYLENAME
350
E
  0
DICTIONARY
  5
D
102
{ACAD_REACTORS
330
C
102
}
100
AcDbDictionary
280
0
281
1
  0
ACDBDICTIONARYWDFLT
  5
E
102
{ACAD_REACTORS
330
C
102
}
100
AcDbDictionary
281
1
  3
Normal
350
F
100
AcDbDictionaryWithDefault
340
F
  0
DICTIONARY
  5
17
102
{ACAD_REACTORS
330
C
102
}
100
AcDbDictionary
280
0
281
1
  3
Standard
350
18
  0
DICTIONARY
  5
19
102
{ACAD_REACTORS
330
C
102
}
100
AcDbDictionary
281
1
  0
DICTIONARY
  5
1A
102
{ACAD_REACTORS
330
C
102
}
100
AcDbDictionary
281
1
  3
Layout1
350
1E
  3
Model
350
22
  0
ACDBPLACEHOLDER
  5
F
102
{ACAD_REACTORS
330
E
102
}
  0
MLINESTYLE
  5
18
102
{ACAD_REACTORS
330
17
102
}
100
AcDbMlineStyle
  2
STANDARD
 70
0
  3

 62
256
 51
90.0
 52
90.0
 71
2
 49
0.5
 62
256
  6
BYLAYER
 49
-0.5
 62
256
  6
BYLAYER
  0
LAYOUT
  5
1E
102
{ACAD_REACTORS
330
1A
102
}
100
AcDbPlotSettings
  1

  2

  4

  6

 40
0.0
 41
0.0
 42
0.0
 43
0.0
 44
0.0
 45
0.0
 46
0.0
 47
0.0
 48
0.0
 49
0.0
140
0.0
141
0.0
142
1.0
143
1.0
 70
0
 72
0
 73
0
 74
0
  7

 75
0
147
1.0
148
0.0
149
0.0
100
AcDbLayout
  1
Layout1
 70
0
 71
0
 10
0.0
 20
0.0
 11
0.0
 21
0.0
 12
0.0
 22
0.0
 32
0.0
 14
0.0
 24
0.0
 34
0.0
 15
0.0
 25
0.0
 35
0.0
146
0.0
 13
0.0
 23
0.0
 33
0.0
 16
0.0
 26
0.0
 36
0.0
 17
0.0
 27
0.0
 37
0.0
 76
0
330
1B
331
0
345
0
346
0
  0
LAYOUT
  5
22
102
{ACAD_REACTORS
330
1A
102
}
100
AcDbPlotSettings
  1

  2

  4

  6

 40
0.0
 41
0.0
 42
0.0
 43
0.0
 44
0.0
 45
0.0
 46
0.0
 47
0.0
 48
0.0
 49
0.0
140
0.0
141
0.0
142
1.0
143
1.0
 70
0
 72
0
 73
0
 74
0
  7

 75
0
147
1.0
148
0.0
149
0.0
100
AcDbLayout
  1
Model
 70
0
 71
0
 10
0.0
 20
0.0
 11
0.0
 21
0.0
 12
0.0
 22
0.0
 32
0.0
 14
0.0
 24
0.0
 34
0.0
 15
0.0
 25
0.0
 35
0.0
146
0.0
 13
0.0
 23
0.0
 33
0.0
 16
0.0
 26
0.0
 36
0.0
 17
0.0
 27
0.0
 37
0.0
 76
0
330
1F
331
0
345
0
346
0
  0
ENDSEC
  0
EOF
