999
DXF file: LPFC-XHN.dxf
999
Pro/ENGINEER 2006240 by Parametric Technology Corporation
  0
SECTION
  2
HEADER
  9
$ACADVER
  1
AC1015
  9
$DWGCODEPAGE
  3
ANSI_1252
  9
$EXTMAX
 10
11.6929133858
 20
8.2677165354
 30
0.0
  9
$EXTMIN
 10
0.0
 20
0.0
 30
0.0
  9
$LIMMIN
 10
0.0
 20
0.0
  9
$LIMMAX
 10
11.6929133858
 20
8.2677165354
  9
$VIEWCTR
 10
5.8464566929
 20
4.1338582677
  9
$VIEWSIZE
 40
8.2677165354
  9
$CLAYER
  8
0
  9
$LTSCALE
 40
0.6431102362
  9
$CELTYPE
  6
BYLAYER
  9
$DIMSCALE
 40
1.0
  9
$DIMASZ
 40
0.1875
  9
$DIMEXO
 40
0.0730807087
  9
$DIMDLI
 40
0.4443307087
  9
$DIMEXE
 40
0.2104724409
  9
$DIMCEN
 40
0.1052362205
  9
$DIMLFAC
 40
1.0
  9
$DIMBLK
  1
_CLOSED
  9
$DIMTXT
 40
0.15625
  9
$DIMTOL
 70
0
  9
$DIMLIM
 70
0
  9
$DIMTFAC
 40
1.0
  9
$PDMODE
 70
3
  9
$PDSIZE
 40
0.3125
  9
$HANDSEED
  5
422
  9
$MEASUREMENT
 70
0
  9
$INSUNITS
 70
1
  0
ENDSEC
  0
SECTION
  2
CLASSES
  0
CLASS
  1
ACDBDICTIONARYWDFLT
  2
AcDbDictionaryWithDefault
  3
AutoCAD 2000
 90
0
280
0
281
0
  0
CLASS
  1
ACDBPLACEHOLDER
  2
AcDbPlaceHolder
  3
AutoCAD 2000
 90
0
280
0
281
0
  0
CLASS
  1
LAYOUT
  2
AcDbLayout
  3
AutoCAD 2000
 90
0
280
0
281
0
  0
ENDSEC
  0
SECTION
  2
TABLES
  0
TABLE
  2
VPORT
  5
8
100
AcDbSymbolTable
 70
2
  0
VPORT
  5
1F4
100
AcDbSymbolTableRecord
100
AcDbViewportTableRecord
  2
*ACTIVE
 70
0
 10
0.0
 20
0.0
 11
1.0
 21
1.0
 12
5.8464566929
 22
4.1338582677
 13
0.0
 23
0.0
 14
1.0
 24
1.0
 15
0.0
 25
0.0
 16
0.0
 26
0.0
 36
1.0
 17
0.0
 27
0.0
 37
0.0
 40
8.2677165354
 41
1.4142857143
 42
50.0
 43
0.0
 44
0.0
 50
0.0
 51
0.0
 71
0
 72
100
 73
1
 74
1
 75
0
 76
0
 77
0
 78
0
  0
ENDTAB
  0
TABLE
  2
LTYPE
  5
5
100
AcDbSymbolTable
 70
6
  0
LTYPE
  5
14
100
AcDbSymbolTableRecord
100
AcDbLinetypeTableRecord
  2
BYBLOCK
 70
0
  3

 72
65
 73
0
 40
0.0
  0
LTYPE
  5
15
100
AcDbSymbolTableRecord
100
AcDbLinetypeTableRecord
  2
BYLAYER
 70
0
  3

 72
65
 73
0
 40
0.0
  0
LTYPE
  5
16
100
AcDbSymbolTableRecord
100
AcDbLinetypeTableRecord
  2
CONTINUOUS
 70
64
  3
Solid line
 72
65
 73
0
 40
0.0
  0
LTYPE
  5
1F5
100
AcDbSymbolTableRecord
100
AcDbLinetypeTableRecord
  2
CENTER
 70
64
  3
____ _ ____ _ ____ _ ____ _ ____ _ ____ _ ____
 72
65
 73
4
 40
0.6
 49
0.375
 74
0
 49
-0.075
 74
0
 49
0.075
 74
0
 49
-0.075
 74
0
  0
LTYPE
  5
1F6
100
AcDbSymbolTableRecord
100
AcDbLinetypeTableRecord
  2
HIDDEN
 70
64
  3
- - - - - - - - - - - - - - - - - - - -
 72
65
 73
2
 40
0.2
 49
0.1
 74
0
 49
-0.1
 74
0
  0
LTYPE
  5
1F7
100
AcDbSymbolTableRecord
100
AcDbLinetypeTableRecord
  2
PHANTOM
 70
64
  3
_____ _ _ _____ _ _ _____ _ _ _____
 72
65
 73
6
 40
0.8
 49
0.45
 74
0
 49
-0.05
 74
0
 49
0.1
 74
0
 49
-0.05
 74
0
 49
0.1
 74
0
 49
-0.05
 74
0
  0
LTYPE
  5
1F8
100
AcDbSymbolTableRecord
100
AcDbLinetypeTableRecord
  2
DOT
 70
64
  3
. . . . . . . . . . . . . . . . . . . .
 72
65
 73
2
 40
0.2
 49
0.1
 74
0
 49
-0.1
 74
0
  0
LTYPE
  5
1F9
100
AcDbSymbolTableRecord
100
AcDbLinetypeTableRecord
  2
DASHED
 70
64
  3
- - - - - - - - - - - - - - - - - - - -
 72
65
 73
2
 40
0.2
 49
0.1
 74
0
 49
-0.1
 74
0
  0
ENDTAB
  0
TABLE
  2
LAYER
  5
2
100
AcDbSymbolTable
 70
36
  0
LAYER
  5
10
100
AcDbSymbolTableRecord
100
AcDbLayerTableRecord
  2
0
 70
0
 62
7
  6
CONTINUOUS
370
-3
390
F
  0
LAYER
  5
1FA
100
AcDbSymbolTableRecord
100
AcDbLayerTableRecord
  2
DEFAULT_1
 70
0
 62
7
  6
CENTER
370
-3
390
F
  0
LAYER
  5
1FB
100
AcDbSymbolTableRecord
100
AcDbLayerTableRecord
  2
DEFAULT_2
 70
0
 62
8
  6
HIDDEN
370
-3
390
F
  0
LAYER
  5
1FC
100
AcDbSymbolTableRecord
100
AcDbLayerTableRecord
  2
DEFAULT_3
 70
0
 62
7
  6
PHANTOM
370
-3
390
F
  0
LAYER
  5
1FD
100
AcDbSymbolTableRecord
100
AcDbLayerTableRecord
  2
_BLACK_HOLE
 70
0
 62
7
  6
CONTINUOUS
370
-3
390
F
  0
LAYER
  5
1FE
100
AcDbSymbolTableRecord
100
AcDbLayerTableRecord
  2
01_ALL_DTM_PLN
 70
0
 62
7
  6
CONTINUOUS
370
-3
390
F
  0
LAYER
  5
1FF
100
AcDbSymbolTableRecord
100
AcDbLayerTableRecord
  2
01__ASM_ALL_DTM_PLN
 70
0
 62
7
  6
CONTINUOUS
370
-3
390
F
  0
LAYER
  5
200
100
AcDbSymbolTableRecord
100
AcDbLayerTableRecord
  2
01__ASM_DEF_DTM_PLN
 70
0
 62
7
  6
CONTINUOUS
370
-3
390
F
  0
LAYER
  5
201
100
AcDbSymbolTableRecord
100
AcDbLayerTableRecord
  2
01___PRT_ALL_DTM_PLN
 70
0
 62
7
  6
CONTINUOUS
370
-3
390
F
  0
LAYER
  5
202
100
AcDbSymbolTableRecord
100
AcDbLayerTableRecord
  2
01___PRT_DEF_DTM_PLN
 70
0
 62
7
  6
CONTINUOUS
370
-3
390
F
  0
LAYER
  5
203
100
AcDbSymbolTableRecord
100
AcDbLayerTableRecord
  2
02_ALL_AXES
 70
0
 62
7
  6
CONTINUOUS
370
-3
390
F
  0
LAYER
  5
204
100
AcDbSymbolTableRecord
100
AcDbLayerTableRecord
  2
02__ASM_ALL_AXES
 70
0
 62
7
  6
CONTINUOUS
370
-3
390
F
  0
LAYER
  5
205
100
AcDbSymbolTableRecord
100
AcDbLayerTableRecord
  2
02___PRT_ALL_AXES
 70
0
 62
7
  6
CONTINUOUS
370
-3
390
F
  0
LAYER
  5
206
100
AcDbSymbolTableRecord
100
AcDbLayerTableRecord
  2
03_ALL_CURVES
 70
0
 62
7
  6
CONTINUOUS
370
-3
390
F
  0
LAYER
  5
207
100
AcDbSymbolTableRecord
100
AcDbLayerTableRecord
  2
03__ASM_ALL_CURVES
 70
0
 62
7
  6
CONTINUOUS
370
-3
390
F
  0
LAYER
  5
208
100
AcDbSymbolTableRecord
100
AcDbLayerTableRecord
  2
03___PRT_ALL_CURVES
 70
0
 62
7
  6
CONTINUOUS
370
-3
390
F
  0
LAYER
  5
209
100
AcDbSymbolTableRecord
100
AcDbLayerTableRecord
  2
04_ALL_DTM_PNT
 70
0
 62
7
  6
CONTINUOUS
370
-3
390
F
  0
LAYER
  5
20A
100
AcDbSymbolTableRecord
100
AcDbLayerTableRecord
  2
04__ASM_ALL_DTM_PNT
 70
0
 62
7
  6
CONTINUOUS
370
-3
390
F
  0
LAYER
  5
20B
100
AcDbSymbolTableRecord
100
AcDbLayerTableRecord
  2
04___PRT_ALL_DTM_PNT
 70
0
 62
7
  6
CONTINUOUS
370
-3
390
F
  0
LAYER
  5
20C
100
AcDbSymbolTableRecord
100
AcDbLayerTableRecord
  2
05_ALL_DTM_CSYS
 70
0
 62
7
  6
CONTINUOUS
370
-3
390
F
  0
LAYER
  5
20D
100
AcDbSymbolTableRecord
100
AcDbLayerTableRecord
  2
05__ASM_ALL_DTM_CSYS
 70
0
 62
7
  6
CONTINUOUS
370
-3
390
F
  0
LAYER
  5
20E
100
AcDbSymbolTableRecord
100
AcDbLayerTableRecord
  2
05__ASM_DEF_DTM_CSYS
 70
0
 62
7
  6
CONTINUOUS
370
-3
390
F
  0
LAYER
  5
20F
100
AcDbSymbolTableRecord
100
AcDbLayerTableRecord
  2
05___PRT_ALL_DTM_CSYS
 70
0
 62
7
  6
CONTINUOUS
370
-3
390
F
  0
LAYER
  5
210
100
AcDbSymbolTableRecord
100
AcDbLayerTableRecord
  2
05___PRT_DEF_DTM_CSYS
 70
0
 62
7
  6
CONTINUOUS
370
-3
390
F
  0
LAYER
  5
211
100
AcDbSymbolTableRecord
100
AcDbLayerTableRecord
  2
06_ALL_SURFS
 70
0
 62
7
  6
CONTINUOUS
370
-3
390
F
  0
LAYER
  5
212
100
AcDbSymbolTableRecord
100
AcDbLayerTableRecord
  2
06__ASM_ALL_SURFS
 70
0
 62
7
  6
CONTINUOUS
370
-3
390
F
  0
LAYER
  5
213
100
AcDbSymbolTableRecord
100
AcDbLayerTableRecord
  2
06___PRT_ALL_SURFS
 70
0
 62
7
  6
CONTINUOUS
370
-3
390
F
  0
LAYER
  5
214
100
AcDbSymbolTableRecord
100
AcDbLayerTableRecord
  2
07__ASM_ALL_SKELETONS
 70
0
 62
7
  6
CONTINUOUS
370
-3
390
F
  0
LAYER
  5
215
100
AcDbSymbolTableRecord
100
AcDbLayerTableRecord
  2
125-021_FEATURES
 70
0
 62
7
  6
CONTINUOUS
370
-3
390
F
  0
LAYER
  5
216
100
AcDbSymbolTableRecord
100
AcDbLayerTableRecord
  2
125-021_REF_GEOMETRY
 70
0
 62
7
  6
CONTINUOUS
370
-3
390
F
  0
LAYER
  5
217
100
AcDbSymbolTableRecord
100
AcDbLayerTableRecord
  2
125-089_FEATURES
 70
0
 62
7
  6
CONTINUOUS
370
-3
390
F
  0
LAYER
  5
218
100
AcDbSymbolTableRecord
100
AcDbLayerTableRecord
  2
125-089_REF_GEOMETRY
 70
0
 62
7
  6
CONTINUOUS
370
-3
390
F
  0
LAYER
  5
219
100
AcDbSymbolTableRecord
100
AcDbLayerTableRecord
  2
125-094_FEATURES
 70
0
 62
7
  6
CONTINUOUS
370
-3
390
F
  0
LAYER
  5
21A
100
AcDbSymbolTableRecord
100
AcDbLayerTableRecord
  2
125-094_REF_GEOMETRY
 70
0
 62
7
  6
CONTINUOUS
370
-3
390
F
  0
LAYER
  5
21B
100
AcDbSymbolTableRecord
100
AcDbLayerTableRecord
  2
127-310_FEATURES
 70
0
 62
7
  6
CONTINUOUS
370
-3
390
F
  0
LAYER
  5
21C
100
AcDbSymbolTableRecord
100
AcDbLayerTableRecord
  2
127-310_REF_GEOMETRY
 70
0
 62
7
  6
CONTINUOUS
370
-3
390
F
  0
LAYER
  5
21D
100
AcDbSymbolTableRecord
100
AcDbLayerTableRecord
  2
127-311_FEATURES
 70
0
 62
7
  6
CONTINUOUS
370
-3
390
F
  0
LAYER
  5
21E
100
AcDbSymbolTableRecord
100
AcDbLayerTableRecord
  2
127-311_REF_GEOMETRY
 70
0
 62
7
  6
CONTINUOUS
370
-3
390
F
  0
LAYER
  5
21F
100
AcDbSymbolTableRecord
100
AcDbLayerTableRecord
  2
127-312_FEATURES
 70
0
 62
7
  6
CONTINUOUS
370
-3
390
F
  0
LAYER
  5
220
100
AcDbSymbolTableRecord
100
AcDbLayerTableRecord
  2
127-312_REF_GEOMETRY
 70
0
 62
7
  6
CONTINUOUS
370
-3
390
F
  0
LAYER
  5
221
100
AcDbSymbolTableRecord
100
AcDbLayerTableRecord
  2
COPY_GEO_FET
 70
0
 62
7
  6
CONTINUOUS
370
-3
390
F
  0
LAYER
  5
222
100
AcDbSymbolTableRecord
100
AcDbLayerTableRecord
  2
COSMETIC
 70
0
 62
7
  6
CONTINUOUS
370
-3
390
F
  0
LAYER
  5
223
100
AcDbSymbolTableRecord
100
AcDbLayerTableRecord
  2
CURVES
 70
0
 62
7
  6
CONTINUOUS
370
-3
390
F
  0
LAYER
  5
224
100
AcDbSymbolTableRecord
100
AcDbLayerTableRecord
  2
CUT_REF_SURF
 70
0
 62
7
  6
CONTINUOUS
370
-3
390
F
  0
LAYER
  5
225
100
AcDbSymbolTableRecord
100
AcDbLayerTableRecord
  2
DATUM
 70
0
 62
7
  6
CONTINUOUS
370
-3
390
F
  0
LAYER
  5
226
100
AcDbSymbolTableRecord
100
AcDbLayerTableRecord
  2
DATUMCURVES
 70
0
 62
7
  6
CONTINUOUS
370
-3
390
F
  0
LAYER
  5
227
100
AcDbSymbolTableRecord
100
AcDbLayerTableRecord
  2
DATUM_ADDED_230
 70
0
 62
7
  6
CONTINUOUS
370
-3
390
F
  0
LAYER
  5
228
100
AcDbSymbolTableRecord
100
AcDbLayerTableRecord
  2
DIMENSIONS
 70
0
 62
7
  6
CONTINUOUS
370
-3
390
F
  0
LAYER
  5
229
100
AcDbSymbolTableRecord
100
AcDbLayerTableRecord
  2
DRAWINGNOTES
 70
0
 62
7
  6
CONTINUOUS
370
-3
390
F
  0
LAYER
  5
22A
100
AcDbSymbolTableRecord
100
AcDbLayerTableRecord
  2
DTM
 70
0
 62
7
  6
CONTINUOUS
370
-3
390
F
  0
LAYER
  5
22B
100
AcDbSymbolTableRecord
100
AcDbLayerTableRecord
  2
DTM230
 70
0
 62
7
  6
CONTINUOUS
370
-3
390
F
  0
LAYER
  5
22C
100
AcDbSymbolTableRecord
100
AcDbLayerTableRecord
  2
DTM_500001
 70
0
 62
7
  6
CONTINUOUS
370
-3
390
F
  0
LAYER
  5
22D
100
AcDbSymbolTableRecord
100
AcDbLayerTableRecord
  2
DTM_500002
 70
0
 62
7
  6
CONTINUOUS
370
-3
390
F
  0
LAYER
  5
22E
100
AcDbSymbolTableRecord
100
AcDbLayerTableRecord
  2
DTM_515002
 70
0
 62
7
  6
CONTINUOUS
370
-3
390
F
  0
LAYER
  5
22F
100
AcDbSymbolTableRecord
100
AcDbLayerTableRecord
  2
DTM_SPRING_RH
 70
0
 62
7
  6
CONTINUOUS
370
-3
390
F
  0
LAYER
  5
230
100
AcDbSymbolTableRecord
100
AcDbLayerTableRecord
  2
DTM_SP_RH_CONSTR
 70
0
 62
7
  6
CONTINUOUS
370
-3
390
F
  0
LAYER
  5
231
100
AcDbSymbolTableRecord
100
AcDbLayerTableRecord
  2
GEOMETRICTOLERANCES
 70
0
 62
7
  6
CONTINUOUS
370
-3
390
F
  0
LAYER
  5
232
100
AcDbSymbolTableRecord
100
AcDbLayerTableRecord
  2
PARAMETERDIMENSIONS
 70
0
 62
7
  6
CONTINUOUS
370
-3
390
F
  0
LAYER
  5
233
100
AcDbSymbolTableRecord
100
AcDbLayerTableRecord
  2
PLANE
 70
0
 62
7
  6
CONTINUOUS
370
-3
390
F
  0
LAYER
  5
234
100
AcDbSymbolTableRecord
100
AcDbLayerTableRecord
  2
S-151_METRIC_ORING_BOSS_PORT
 70
0
 62
7
  6
CONTINUOUS
370
-3
390
F
  0
LAYER
  5
235
100
AcDbSymbolTableRecord
100
AcDbLayerTableRecord
  2
S-164_NPTF_PORT
 70
0
 62
7
  6
CONTINUOUS
370
-3
390
F
  0
LAYER
  5
236
100
AcDbSymbolTableRecord
100
AcDbLayerTableRecord
  2
S-186_BSPP_PORT
 70
0
 62
7
  6
CONTINUOUS
370
-3
390
F
  0
LAYER
  5
237
100
AcDbSymbolTableRecord
100
AcDbLayerTableRecord
  2
SUN_STD_SAE-4_PORT
 70
0
 62
7
  6
CONTINUOUS
370
-3
390
F
  0
LAYER
  5
238
100
AcDbSymbolTableRecord
100
AcDbLayerTableRecord
  2
T-8A_CAVITY
 70
0
 62
7
  6
CONTINUOUS
370
-3
390
F
  0
LAYER
  5
239
100
AcDbSymbolTableRecord
100
AcDbLayerTableRecord
  2
T-8A_CAVITY-INCOMPLETE
 70
0
 62
7
  6
CONTINUOUS
370
-3
390
F
  0
LAYER
  5
23A
100
AcDbSymbolTableRecord
100
AcDbLayerTableRecord
  2
T-8A_CAVITY-INCOMPLETE_REF_GEOM
 70
0
 62
7
  6
CONTINUOUS
370
-3
390
F
  0
LAYER
  5
23B
100
AcDbSymbolTableRecord
100
AcDbLayerTableRecord
  2
T-8A_CAVITY_REF_GEOMETRY
 70
0
 62
7
  6
CONTINUOUS
370
-3
390
F
  0
LAYER
  5
23C
100
AcDbSymbolTableRecord
100
AcDbLayerTableRecord
  2
TEXT
 70
0
 62
7
  6
CONTINUOUS
370
-3
390
F
  0
LAYER
  5
23D
100
AcDbSymbolTableRecord
100
AcDbLayerTableRecord
  2
THREAD
 70
0
 62
7
  6
CONTINUOUS
370
-3
390
F
  0
ENDTAB
  0
TABLE
  2
STYLE
  5
3
100
AcDbSymbolTable
 70
1
  0
STYLE
  5
11
100
AcDbSymbolTableRecord
100
AcDbTextStyleTableRecord
  2
STANDARD
 70
0
 40
0.0
 41
0.8
 50
0.0
 71
0
 42
0.2
  3
txt
  4

  0
ENDTAB
  0
TABLE
  2
VIEW
  5
6
100
AcDbSymbolTable
 70
0
  0
ENDTAB
  0
TABLE
  2
UCS
  5
7
100
AcDbSymbolTable
 70
0
  0
ENDTAB
  0
TABLE
  2
APPID
  5
9
100
AcDbSymbolTable
 70
1
  0
APPID
  5
23E
100
AcDbSymbolTableRecord
100
AcDbRegAppTableRecord
  2
ACAD
 70
0
  0
ENDTAB
  0
TABLE
  2
BLOCK_RECORD
  5
1
100
AcDbSymbolTable
 70
0
  0
BLOCK_RECORD
  5
1F
100
AcDbSymbolTableRecord
100
AcDbBlockTableRecord
  2
*MODEL_SPACE
  0
BLOCK_RECORD
  5
1B
100
AcDbSymbolTableRecord
100
AcDbBlockTableRecord
  2
*PAPER_SPACE
  0
ENDTAB
  0
TABLE
  2
DIMSTYLE
  5
A
100
AcDbSymbolTable
 70
1
100
AcDbDimStyleTable
 71
0
  0
DIMSTYLE
105
23F
100
AcDbSymbolTableRecord
100
AcDbDimStyleTableRecord
  2
STANDARD
 70
0
  3

  4

 40
1.0
 41
0.1875
 42
0.0625
 43
0.38
 44
0.18
 45
0.0
 46
0.0
 47
0.01
 48
0.01
140
0.15625
141
0.09
142
0.0
143
25.4
144
1.0
145
0.0
146
1.0
147
0.09
 71
0.0
 72
0.0
 73
1
 74
1
 75
0
 76
0
 77
0
 78
4
170
0
171
2
172
0
173
0
174
0
175
0
176
0
177
0
178
0
270
2
271
2
272
2
273
2
274
2
275
0
280
0
281
0
282
0
283
1
284
4
285
0
286
0
287
3
288
0
340
11
  0
ENDTAB
  0
ENDSEC
  0
SECTION
  2
BLOCKS
  0
BLOCK
  5
20
100
AcDbEntity
  8
0
100
AcDbBlockBegin
  2
*MODEL_SPACE
 70
0
 10
0.0
 20
0.0
 30
0.0
  3
*MODEL_SPACE
  1

  0
ENDBLK
  5
21
100
AcDbEntity
  8
0
100
AcDbBlockEnd
  0
BLOCK
  5
1C
100
AcDbEntity
  8
0
100
AcDbBlockBegin
  2
*PAPER_SPACE
 70
0
 10
0.0
 20
0.0
 30
0.0
  3
*PAPER_SPACE
  1

  0
ENDBLK
  5
1D
100
AcDbEntity
  8
0
100
AcDbBlockEnd
  0
ENDSEC
  0
SECTION
  2
ENTITIES
  0
LINE
  5
240
100
AcDbEntity
  8
0
100
AcDbLine
 62
7
  6
CONTINUOUS
 10
4.1746399519
 20
3.5934727005
 11
4.1292954495
 21
3.6720116826
  0
LINE
  5
241
100
AcDbEntity
  8
0
100
AcDbLine
 62
7
  6
CONTINUOUS
 10
4.1292954495
 20
3.6720116826
 11
4.1292954495
 21
4.7820116826
  0
LINE
  5
242
100
AcDbEntity
  8
03__ASM_ALL_CURVES
100
AcDbLine
 62
40
  6
CONTINUOUS
 10
4.1292954495
 20
4.7820116826
 11
4.1292954495
 21
5.0801356826
  0
LINE
  5
243
100
AcDbEntity
  8
0
100
AcDbLine
 62
7
  6
CONTINUOUS
 10
4.1749061207
 20
3.5930116826
 11
4.1749061207
 21
3.5936263731
  0
LINE
  5
244
100
AcDbEntity
  8
0
100
AcDbLine
 62
7
  6
CONTINUOUS
 10
4.1749061207
 20
3.8861469921
 11
4.1749061207
 21
3.9344910637
  0
LINE
  5
245
100
AcDbEntity
  8
0
100
AcDbLine
 62
7
  6
CONTINUOUS
 10
4.1749061207
 20
4.5195323015
 11
4.1749061207
 21
4.5678763731
  0
LINE
  5
246
100
AcDbEntity
  8
0
100
AcDbLine
 62
7
  6
CONTINUOUS
 10
4.1749061207
 20
4.8603969921
 11
4.1749061207
 21
4.8610116826
  0
LINE
  5
247
100
AcDbEntity
  8
0
100
AcDbLine
 62
7
  6
CONTINUOUS
 10
4.1746399519
 20
4.8605506647
 11
4.1292954495
 21
4.7820116826
  0
LINE
  5
248
100
AcDbEntity
  8
03__ASM_ALL_CURVES
100
AcDbLine
 62
40
  6
CONTINUOUS
 10
4.2117954495
 20
5.0663856826
 11
4.2117954495
 21
5.0388856826
  0
LINE
  5
249
100
AcDbEntity
  8
03__ASM_ALL_CURVES
100
AcDbLine
 62
40
  6
CONTINUOUS
 10
4.6277329495
 20
5.1316981826
 11
4.6234360745
 21
5.1259690173
  0
LINE
  5
24A
100
AcDbEntity
  8
03__ASM_ALL_CURVES
100
AcDbLine
 62
40
  6
CONTINUOUS
 10
4.6320298245
 20
5.0973231826
 11
4.6234360745
 21
5.0858648494
  0
LINE
  5
24B
100
AcDbEntity
  8
03__ASM_ALL_CURVES
100
AcDbLine
 62
40
  6
CONTINUOUS
 10
4.5976548245
 20
5.1431565173
 11
4.6062485745
 21
5.1488856826
  0
LINE
  5
24C
100
AcDbEntity
  8
03__ASM_ALL_CURVES
100
AcDbLine
 62
40
  6
CONTINUOUS
 10
4.4730454495
 20
5.1488856826
 11
4.4730454495
 21
5.0801356826
  0
LINE
  5
24D
100
AcDbEntity
  8
03__ASM_ALL_CURVES
100
AcDbLine
 62
40
  6
CONTINUOUS
 10
4.5374985745
 20
5.0801356826
 11
4.5374985745
 21
5.0858648494
  0
LINE
  5
24E
100
AcDbEntity
  8
03__ASM_ALL_CURVES
100
AcDbLine
 62
40
  6
CONTINUOUS
 10
4.6835923245
 20
5.1087815152
 11
4.6878891995
 21
5.1259690173
  0
LINE
  5
24F
100
AcDbEntity
  8
03__ASM_ALL_CURVES
100
AcDbLine
 62
40
  6
CONTINUOUS
 10
4.6878891995
 20
5.1259690173
 11
4.6964829495
 21
5.1488856826
  0
LINE
  5
250
100
AcDbEntity
  8
03__ASM_ALL_CURVES
100
AcDbLine
 62
40
  6
CONTINUOUS
 10
4.7523423245
 20
5.1488856826
 11
4.7437485745
 21
5.1374273479
  0
LINE
  5
251
100
AcDbEntity
  8
03__ASM_ALL_CURVES
100
AcDbLine
 62
40
  6
CONTINUOUS
 10
4.8339829495
 20
5.1316981826
 11
4.8296860745
 21
5.1259690173
  0
LINE
  5
252
100
AcDbEntity
  8
03__ASM_ALL_CURVES
100
AcDbLine
 62
40
  6
CONTINUOUS
 10
4.8382798245
 20
5.0973231826
 11
4.8296860745
 21
5.0858648494
  0
LINE
  5
253
100
AcDbEntity
  8
03__ASM_ALL_CURVES
100
AcDbLine
 62
40
  6
CONTINUOUS
 10
4.6234360745
 20
5.1259690173
 11
4.6148423245
 21
5.1202398479
  0
LINE
  5
254
100
AcDbEntity
  8
03__ASM_ALL_CURVES
100
AcDbLine
 62
40
  6
CONTINUOUS
 10
4.6234360745
 20
5.0858648494
 11
4.6148423245
 21
5.0801356826
  0
LINE
  5
255
100
AcDbEntity
  8
03__ASM_ALL_CURVES
100
AcDbLine
 62
40
  6
CONTINUOUS
 10
4.8039048245
 20
5.1431565173
 11
4.8124985745
 21
5.1488856826
  0
LINE
  5
256
100
AcDbEntity
  8
03__ASM_ALL_CURVES
100
AcDbLine
 62
40
  6
CONTINUOUS
 10
4.6277329495
 20
5.1374273479
 11
4.6277329495
 21
5.1316981826
  0
LINE
  5
257
100
AcDbEntity
  8
03__ASM_ALL_CURVES
100
AcDbLine
 62
40
  6
CONTINUOUS
 10
4.6320298245
 20
5.1030523499
 11
4.6320298245
 21
5.0973231826
  0
LINE
  5
258
100
AcDbEntity
  8
0
100
AcDbLine
 62
7
  6
CONTINUOUS
 10
4.6368698236
 20
3.5930116826
 11
4.6368698236
 21
3.5936263731
  0
LINE
  5
259
100
AcDbEntity
  8
0
100
AcDbLine
 62
7
  6
CONTINUOUS
 10
4.6368698236
 20
3.8861469921
 11
4.6368698236
 21
3.9344910637
  0
LINE
  5
25A
100
AcDbEntity
  8
0
100
AcDbLine
 62
7
  6
CONTINUOUS
 10
4.6368698236
 20
4.5195323015
 11
4.6368698236
 21
4.5678763731
  0
LINE
  5
25B
100
AcDbEntity
  8
0
100
AcDbLine
 62
7
  6
CONTINUOUS
 10
4.6368698236
 20
4.8603969921
 11
4.6368698236
 21
4.8610116826
  0
LINE
  5
25C
100
AcDbEntity
  8
03__ASM_ALL_CURVES
100
AcDbLine
 62
40
  6
CONTINUOUS
 10
4.6792954495
 20
5.0801356826
 11
4.6835923245
 21
5.1087815152
  0
LINE
  5
25D
100
AcDbEntity
  8
03__ASM_ALL_CURVES
100
AcDbLine
 62
40
  6
CONTINUOUS
 10
4.7437485745
 20
5.1374273479
 11
4.7394516995
 21
5.1202398479
  0
LINE
  5
25E
100
AcDbEntity
  8
03__ASM_ALL_CURVES
100
AcDbLine
 62
40
  6
CONTINUOUS
 10
4.8984360745
 20
5.1488856826
 11
4.8683579495
 21
5.0973231826
  0
LINE
  5
25F
100
AcDbEntity
  8
03__ASM_ALL_CURVES
100
AcDbLine
 62
40
  6
CONTINUOUS
 10
4.8296860745
 20
5.1259690173
 11
4.8210923245
 21
5.1202398479
  0
LINE
  5
260
100
AcDbEntity
  8
03__ASM_ALL_CURVES
100
AcDbLine
 62
40
  6
CONTINUOUS
 10
4.8296860745
 20
5.0858648494
 11
4.8210923245
 21
5.0801356826
  0
LINE
  5
261
100
AcDbEntity
  8
0
100
AcDbLine
 62
7
  6
CONTINUOUS
 10
4.6922954495
 20
3.6890116826
 11
4.6922954495
 21
4.7650116826
  0
LINE
  5
262
100
AcDbEntity
  8
03__ASM_ALL_CURVES
100
AcDbLine
 62
40
  6
CONTINUOUS
 10
4.7394516995
 20
5.1202398479
 11
4.7394516995
 21
5.1087815152
  0
LINE
  5
263
100
AcDbEntity
  8
03__ASM_ALL_CURVES
100
AcDbLine
 62
40
  6
CONTINUOUS
 10
5.0316391995
 20
5.1259690173
 11
5.0402329495
 21
5.1488856826
  0
LINE
  5
264
100
AcDbEntity
  8
03__ASM_ALL_CURVES
100
AcDbLine
 62
40
  6
CONTINUOUS
 10
5.0789048245
 20
5.1374273479
 11
5.0832016995
 21
5.1431565173
  0
LINE
  5
265
100
AcDbEntity
  8
03__ASM_ALL_CURVES
100
AcDbLine
 62
40
  6
CONTINUOUS
 10
5.1046860745
 20
5.0915940163
 11
5.1003891995
 21
5.0858648494
  0
LINE
  5
266
100
AcDbEntity
  8
03__ASM_ALL_CURVES
100
AcDbLine
 62
40
  6
CONTINUOUS
 10
5.1648423245
 20
5.0915940163
 11
5.1562485745
 21
5.0801356826
  0
LINE
  5
267
100
AcDbEntity
  8
03__ASM_ALL_CURVES
100
AcDbLine
 62
40
  6
CONTINUOUS
 10
5.0832016995
 20
5.1431565173
 11
5.0917954495
 21
5.1488856826
  0
LINE
  5
268
100
AcDbEntity
  8
03__ASM_ALL_CURVES
100
AcDbLine
 62
40
  6
CONTINUOUS
 10
5.1003891995
 20
5.0858648494
 11
5.0917954495
 21
5.0801356826
  0
LINE
  5
269
100
AcDbEntity
  8
03__ASM_ALL_CURVES
100
AcDbLine
 62
40
  6
CONTINUOUS
 10
5.1046860745
 20
5.1145106826
 11
5.0917954495
 21
5.1087815152
  0
LINE
  5
26A
100
AcDbEntity
  8
03__ASM_ALL_CURVES
100
AcDbLine
 62
40
  6
CONTINUOUS
 10
5.1778989655
 20
3.4254491826
 11
5.171453653
 21
3.4297460577
  0
LINE
  5
26B
100
AcDbEntity
  8
03__ASM_ALL_CURVES
100
AcDbLine
 62
40
  6
CONTINUOUS
 10
5.132781778
 20
3.4770116826
 11
5.1392270905
 21
3.4727148086
  0
LINE
  5
26C
100
AcDbEntity
  8
03__ASM_ALL_CURVES
100
AcDbLine
 62
40
  6
CONTINUOUS
 10
5.184344278
 20
3.4770116826
 11
5.1907895905
 21
3.4727148086
  0
LINE
  5
26D
100
AcDbEntity
  8
03__ASM_ALL_CURVES
100
AcDbLine
 62
40
  6
CONTINUOUS
 10
5.235906778
 20
3.4770116826
 11
5.2423520905
 21
3.4727148086
  0
LINE
  5
26E
100
AcDbEntity
  8
03__ASM_ALL_CURVES
100
AcDbLine
 62
40
  6
CONTINUOUS
 10
5.171453653
 20
3.4297460577
 11
5.1650083405
 21
3.4383398076
  0
LINE
  5
26F
100
AcDbEntity
  8
03__ASM_ALL_CURVES
100
AcDbLine
 62
40
  6
CONTINUOUS
 10
5.1392270905
 20
3.4727148086
 11
5.1424497467
 21
3.4684179316
  0
LINE
  5
270
100
AcDbEntity
  8
03__ASM_ALL_CURVES
100
AcDbLine
 62
40
  6
CONTINUOUS
 10
4.8339829495
 20
5.1374273479
 11
4.8339829495
 21
5.1316981826
  0
LINE
  5
271
100
AcDbEntity
  8
03__ASM_ALL_CURVES
100
AcDbLine
 62
40
  6
CONTINUOUS
 10
4.8382798245
 20
5.1030523499
 11
4.8382798245
 21
5.0973231826
  0
LINE
  5
272
100
AcDbEntity
  8
0
100
AcDbLine
 62
7
  6
CONTINUOUS
 10
4.8792954495
 20
3.6890116826
 11
4.8792954495
 21
4.7650116826
  0
LINE
  5
273
100
AcDbEntity
  8
03__ASM_ALL_CURVES
100
AcDbLine
 62
40
  6
CONTINUOUS
 10
4.8984360745
 20
5.0801356826
 11
4.8984360745
 21
5.1488856826
  0
LINE
  5
274
100
AcDbEntity
  8
0
100
AcDbLine
 62
7
  6
CONTINUOUS
 10
4.9292954495
 20
3.6905116826
 11
4.9292954495
 21
4.7635116826
  0
LINE
  5
275
100
AcDbEntity
  8
03__ASM_ALL_CURVES
100
AcDbLine
 62
40
  6
CONTINUOUS
 10
5.0230454495
 20
5.0801356826
 11
5.0273423245
 21
5.1087815152
  0
LINE
  5
276
100
AcDbEntity
  8
03__ASM_ALL_CURVES
100
AcDbLine
 62
40
  6
CONTINUOUS
 10
5.0273423245
 20
5.1087815152
 11
5.0316391995
 21
5.1259690173
  0
LINE
  5
277
100
AcDbEntity
  8
03__ASM_ALL_CURVES
100
AcDbLine
 62
40
  6
CONTINUOUS
 10
5.0746079495
 20
5.1259690173
 11
5.0789048245
 21
5.1374273479
  0
LINE
  5
278
100
AcDbEntity
  8
03__ASM_ALL_CURVES
100
AcDbLine
 62
40
  6
CONTINUOUS
 10
5.1089829495
 20
5.1259690173
 11
5.1046860745
 21
5.1145106826
  0
LINE
  5
279
100
AcDbEntity
  8
03__ASM_ALL_CURVES
100
AcDbLine
 62
40
  6
CONTINUOUS
 10
5.1089829495
 20
5.1030523499
 11
5.1046860745
 21
5.0915940163
  0
LINE
  5
27A
100
AcDbEntity
  8
03__ASM_ALL_CURVES
100
AcDbLine
 62
40
  6
CONTINUOUS
 10
6.2559556178
 20
3.4254491826
 11
6.2495103053
 21
3.4254491826
  0
LINE
  5
27B
100
AcDbEntity
  8
03__ASM_ALL_CURVES
100
AcDbLine
 62
40
  6
CONTINUOUS
 10
5.339031778
 20
3.4254491826
 11
5.3325864655
 21
3.4254491826
  0
LINE
  5
27C
100
AcDbEntity
  8
03__ASM_ALL_CURVES
100
AcDbLine
 62
40
  6
CONTINUOUS
 10
5.184344278
 20
3.4254491826
 11
5.1778989655
 21
3.4254491826
  0
LINE
  5
27D
100
AcDbEntity
  8
03__ASM_ALL_CURVES
100
AcDbLine
 62
40
  6
CONTINUOUS
 10
6.3945298366
 20
3.4254491826
 11
6.4203110866
 21
3.4254491826
  0
LINE
  5
27E
100
AcDbEntity
  8
03__ASM_ALL_CURVES
100
AcDbLine
 62
40
  6
CONTINUOUS
 10
5.3325864655
 20
3.4254491826
 11
5.326141153
 21
3.4297460577
  0
LINE
  5
27F
100
AcDbEntity
  8
03__ASM_ALL_CURVES
100
AcDbLine
 62
40
  6
CONTINUOUS
 10
5.339031778
 20
3.4555273066
 11
5.3454770905
 21
3.4512304326
  0
LINE
  5
280
100
AcDbEntity
  8
03__ASM_ALL_CURVES
100
AcDbLine
 62
40
  6
CONTINUOUS
 10
5.339031778
 20
3.4770116826
 11
5.3454770905
 21
3.4727148086
  0
LINE
  5
281
100
AcDbEntity
  8
03__ASM_ALL_CURVES
100
AcDbLine
 62
40
  6
CONTINUOUS
 10
5.1907895905
 20
3.4727148086
 11
5.197234903
 21
3.4641210576
  0
LINE
  5
282
100
AcDbEntity
  8
03__ASM_ALL_CURVES
100
AcDbLine
 62
40
  6
CONTINUOUS
 10
5.2423520905
 20
3.4727148086
 11
5.2455747467
 21
3.4684179316
  0
LINE
  5
283
100
AcDbEntity
  8
03__ASM_ALL_CURVES
100
AcDbLine
 62
40
  6
CONTINUOUS
 10
5.326141153
 20
3.4297460577
 11
5.3229184967
 21
3.4340429329
  0
LINE
  5
284
100
AcDbEntity
  8
03__ASM_ALL_CURVES
100
AcDbLine
 62
40
  6
CONTINUOUS
 10
5.3454770905
 20
3.4512304326
 11
5.351922403
 21
3.4426366831
  0
LINE
  5
285
100
AcDbEntity
  8
03__ASM_ALL_CURVES
100
AcDbLine
 62
40
  6
CONTINUOUS
 10
4.9499985745
 20
5.0801356826
 11
4.9499985745
 21
5.0858648494
  0
LINE
  5
286
100
AcDbEntity
  8
0
100
AcDbLine
 62
7
  6
CONTINUOUS
 10
4.9992954495
 20
4.7445116826
 11
4.9992954495
 21
3.7095116826
  0
LINE
  5
287
100
AcDbEntity
  8
0
100
AcDbLine
 62
7
  6
CONTINUOUS
 10
5.0202954495
 20
3.6892616826
 11
5.0202954495
 21
4.7647616826
  0
LINE
  5
288
100
AcDbEntity
  8
0
100
AcDbLine
 62
7
  6
CONTINUOUS
 10
5.0652954495
 20
3.6892616826
 11
5.0652954495
 21
4.7647616826
  0
LINE
  5
289
100
AcDbEntity
  8
03__ASM_ALL_CURVES
100
AcDbLine
 62
40
  6
CONTINUOUS
 10
5.1691391995
 20
5.1087815152
 11
5.1648423245
 21
5.0915940163
  0
LINE
  5
28A
100
AcDbEntity
  8
03__ASM_ALL_CURVES
100
AcDbLine
 62
40
  6
CONTINUOUS
 10
5.6873423241
 20
5.1431565173
 11
5.6959360741
 21
5.1488856826
  0
LINE
  5
28B
100
AcDbEntity
  8
03__ASM_ALL_CURVES
100
AcDbLine
 62
40
  6
CONTINUOUS
 10
5.7560923241
 20
5.1431565173
 11
5.7646860741
 21
5.1488856826
  0
LINE
  5
28C
100
AcDbEntity
  8
03__ASM_ALL_CURVES
100
AcDbLine
 62
40
  6
CONTINUOUS
 10
6.3075181178
 20
3.4512304326
 11
6.2914048366
 21
3.4512304326
  0
LINE
  5
28D
100
AcDbEntity
  8
03__ASM_ALL_CURVES
100
AcDbLine
 62
40
  6
CONTINUOUS
 10
6.2043931178
 20
3.4512304326
 11
6.1882798366
 21
3.4512304326
  0
LINE
  5
28E
100
AcDbEntity
  8
03__ASM_ALL_CURVES
100
AcDbLine
 62
40
  6
CONTINUOUS
 10
5.235906778
 20
3.4512304326
 11
5.2197934967
 21
3.4512304326
  0
LINE
  5
28F
100
AcDbEntity
  8
03__ASM_ALL_CURVES
100
AcDbLine
 62
40
  6
CONTINUOUS
 10
5.132781778
 20
3.4512304326
 11
5.1166684967
 21
3.4512304326
  0
LINE
  5
290
100
AcDbEntity
  8
03__ASM_ALL_CURVES
100
AcDbLine
 62
40
  6
CONTINUOUS
 10
5.3325864655
 20
3.4555273066
 11
5.339031778
 21
3.4555273066
  0
LINE
  5
291
100
AcDbEntity
  8
03__ASM_ALL_CURVES
100
AcDbLine
 62
40
  6
CONTINUOUS
 10
5.1166684967
 20
3.4770116826
 11
5.132781778
 21
3.4770116826
  0
LINE
  5
292
100
AcDbEntity
  8
03__ASM_ALL_CURVES
100
AcDbLine
 62
40
  6
CONTINUOUS
 10
5.1778989655
 20
3.4770116826
 11
5.184344278
 21
3.4770116826
  0
LINE
  5
293
100
AcDbEntity
  8
03__ASM_ALL_CURVES
100
AcDbLine
 62
40
  6
CONTINUOUS
 10
5.2197934967
 20
3.4770116826
 11
5.235906778
 21
3.4770116826
  0
LINE
  5
294
100
AcDbEntity
  8
03__ASM_ALL_CURVES
100
AcDbLine
 62
40
  6
CONTINUOUS
 10
5.2681333405
 20
3.4770116826
 11
5.300359903
 21
3.4770116826
  0
LINE
  5
295
100
AcDbEntity
  8
03__ASM_ALL_CURVES
100
AcDbLine
 62
40
  6
CONTINUOUS
 10
5.3325864655
 20
3.4770116826
 11
5.339031778
 21
3.4770116826
  0
LINE
  5
296
100
AcDbEntity
  8
03__ASM_ALL_CURVES
100
AcDbLine
 62
40
  6
CONTINUOUS
 10
6.1882798366
 20
3.4770116826
 11
6.2043931178
 21
3.4770116826
  0
LINE
  5
297
100
AcDbEntity
  8
03__ASM_ALL_CURVES
100
AcDbLine
 62
40
  6
CONTINUOUS
 10
6.2495103053
 20
3.4770116826
 11
6.2559556178
 21
3.4770116826
  0
LINE
  5
298
100
AcDbEntity
  8
03__ASM_ALL_CURVES
100
AcDbLine
 62
40
  6
CONTINUOUS
 10
6.2914048366
 20
3.4770116826
 11
6.3075181178
 21
3.4770116826
  0
LINE
  5
299
100
AcDbEntity
  8
03__ASM_ALL_CURVES
100
AcDbLine
 62
40
  6
CONTINUOUS
 10
6.3397446803
 20
3.4770116826
 11
6.3719712428
 21
3.4770116826
  0
LINE
  5
29A
100
AcDbEntity
  8
03__ASM_ALL_CURVES
100
AcDbLine
 62
40
  6
CONTINUOUS
 10
6.4041978053
 20
3.4770116826
 11
6.4106431178
 21
3.4770116826
  0
LINE
  5
29B
100
AcDbEntity
  8
03__ASM_ALL_CURVES
100
AcDbLine
 62
40
  6
CONTINUOUS
 10
5.3454770905
 20
3.4727148086
 11
5.3486997467
 21
3.4684179316
  0
LINE
  5
29C
100
AcDbEntity
  8
03__ASM_ALL_CURVES
100
AcDbLine
 62
40
  6
CONTINUOUS
 10
5.235906778
 20
3.4512304326
 11
5.2455747467
 21
3.4254491826
  0
LINE
  5
29D
100
AcDbEntity
  8
03__ASM_ALL_CURVES
100
AcDbLine
 62
40
  6
CONTINUOUS
 10
4.7394516995
 20
5.1087815152
 11
4.7437485745
 21
5.0915940163
  0
LINE
  5
29E
100
AcDbEntity
  8
03__ASM_ALL_CURVES
100
AcDbLine
 62
40
  6
CONTINUOUS
 10
5.1650083405
 20
3.4383398076
 11
5.1617856842
 21
3.4512304326
  0
LINE
  5
29F
100
AcDbEntity
  8
03__ASM_ALL_CURVES
100
AcDbLine
 62
40
  6
CONTINUOUS
 10
5.197234903
 20
3.4641210576
 11
5.2004575592
 21
3.4512304326
  0
LINE
  5
2A0
100
AcDbEntity
  8
127-310_FEATURES
100
AcDbLine
 62
7
  6
CONTINUOUS
 10
5.0866643976
 20
3.7693460986
 11
5.0866643976
 21
4.6850116826
  0
LINE
  5
2A1
100
AcDbEntity
  8
03__ASM_ALL_CURVES
100
AcDbLine
 62
40
  6
CONTINUOUS
 10
5.1089829495
 20
5.1259690173
 11
5.1089829495
 21
5.1030523499
  0
LINE
  5
2A2
100
AcDbEntity
  8
03__ASM_ALL_CURVES
100
AcDbLine
 62
40
  6
CONTINUOUS
 10
5.1166684967
 20
3.4254491826
 11
5.1166684967
 21
3.4770116826
  0
LINE
  5
2A3
100
AcDbEntity
  8
03__ASM_ALL_CURVES
100
AcDbLine
 62
40
  6
CONTINUOUS
 10
5.1424497467
 20
3.4684179316
 11
5.1424497467
 21
3.4598241836
  0
LINE
  5
2A4
100
AcDbEntity
  8
03__ASM_ALL_CURVES
100
AcDbLine
 62
40
  6
CONTINUOUS
 10
5.1691391995
 20
5.1202398479
 11
5.1691391995
 21
5.1087815152
  0
LINE
  5
2A5
100
AcDbEntity
  8
0
100
AcDbLine
 62
7
  6
CONTINUOUS
 10
4.6922954495
 20
3.6890116826
 11
4.6371359924
 21
3.5934727005
  0
LINE
  5
2A6
100
AcDbEntity
  8
03__ASM_ALL_CURVES
100
AcDbLine
 62
40
  6
CONTINUOUS
 10
5.7131235741
 20
5.0858648494
 11
5.7045298241
 21
5.0801356826
  0
LINE
  5
2A7
100
AcDbEntity
  8
03__ASM_ALL_CURVES
100
AcDbLine
 62
40
  6
CONTINUOUS
 10
5.7818735741
 20
5.0858648494
 11
5.7732798241
 21
5.0801356826
  0
LINE
  5
2A8
100
AcDbEntity
  8
0
100
AcDbLine
 62
7
  6
CONTINUOUS
 10
4.6368698236
 20
3.5930116826
 11
4.1749061207
 21
3.5930116826
  0
LINE
  5
2A9
100
AcDbEntity
  8
0
100
AcDbLine
 62
7
  6
CONTINUOUS
 10
4.6368698236
 20
3.5936263731
 11
4.1749061207
 21
3.5936263731
  0
LINE
  5
2AA
100
AcDbEntity
  8
0
100
AcDbLine
 62
7
  6
CONTINUOUS
 10
4.6922954495
 20
4.7650116826
 11
4.6371359924
 21
4.8605506647
  0
LINE
  5
2AB
100
AcDbEntity
  8
03__ASM_ALL_CURVES
100
AcDbLine
 62
40
  6
CONTINUOUS
 10
5.2197934967
 20
3.4254491826
 11
5.2197934967
 21
3.4770116826
  0
LINE
  5
2AC
100
AcDbEntity
  8
03__ASM_ALL_CURVES
100
AcDbLine
 62
40
  6
CONTINUOUS
 10
5.2455747467
 20
3.4684179316
 11
5.2455747467
 21
3.4598241836
  0
LINE
  5
2AD
100
AcDbEntity
  8
03__ASM_ALL_CURVES
100
AcDbLine
 62
40
  6
CONTINUOUS
 10
5.2842466217
 20
3.4770116826
 11
5.2842466217
 21
3.4254491826
  0
LINE
  5
2AE
100
AcDbEntity
  8
0
100
AcDbLine
 62
7
  6
CONTINUOUS
 10
5.0807517729
 20
3.7469454668
 11
5.0652954495
 21
3.6892616826
  0
LINE
  5
2AF
100
AcDbEntity
  8
03__ASM_ALL_CURVES
100
AcDbLine
 62
40
  6
CONTINUOUS
 10
5.6787485741
 20
5.1316981826
 11
5.6873423241
 21
5.1431565173
  0
LINE
  5
2B0
100
AcDbEntity
  8
03__ASM_ALL_CURVES
100
AcDbLine
 62
40
  6
CONTINUOUS
 10
5.7217173241
 20
5.0973231826
 11
5.7131235741
 21
5.0858648494
  0
LINE
  5
2B1
100
AcDbEntity
  8
03__ASM_ALL_CURVES
100
AcDbLine
 62
40
  6
CONTINUOUS
 10
5.7474985741
 20
5.1316981826
 11
5.7560923241
 21
5.1431565173
  0
LINE
  5
2B2
100
AcDbEntity
  8
03__ASM_ALL_CURVES
100
AcDbLine
 62
40
  6
CONTINUOUS
 10
5.7861704491
 20
5.0915940163
 11
5.7818735741
 21
5.0858648494
  0
LINE
  5
2B3
100
AcDbEntity
  8
03__ASM_ALL_CURVES
100
AcDbLine
 62
40
  6
CONTINUOUS
 10
6.0998423241
 20
5.1431565173
 11
6.1084360741
 21
5.1488856826
  0
LINE
  5
2B4
100
AcDbEntity
  8
0
100
AcDbLine
 62
7
  6
CONTINUOUS
 10
5.5042954495
 20
3.6890116826
 11
5.4392954495
 21
3.6890116826
  0
LINE
  5
2B5
100
AcDbEntity
  8
0
100
AcDbLine
 62
7
  6
CONTINUOUS
 10
4.8792954495
 20
3.6890116826
 11
4.6922954495
 21
3.6890116826
  0
LINE
  5
2B6
100
AcDbEntity
  8
0
100
AcDbLine
 62
7
  6
CONTINUOUS
 10
5.0652954495
 20
3.6892616826
 11
5.0202954495
 21
3.6892616826
  0
LINE
  5
2B7
100
AcDbEntity
  8
0
100
AcDbLine
 62
7
  6
CONTINUOUS
 10
4.8792954495
 20
3.6905116826
 11
4.9292954495
 21
3.6905116826
  0
LINE
  5
2B8
100
AcDbEntity
  8
THREAD
100
AcDbLine
 62
7
  6
CONTINUOUS
 10
5.5512954495
 20
3.7125116826
 11
5.5198839067
 21
3.7125116826
  0
LINE
  5
2B9
100
AcDbEntity
  8
0
100
AcDbLine
 62
7
  6
CONTINUOUS
 10
5.6212954495
 20
3.7150116826
 11
5.6712954495
 21
3.7150116826
  0
LINE
  5
2BA
100
AcDbEntity
  8
THREAD
100
AcDbLine
 62
7
  6
CONTINUOUS
 10
5.9852954495
 20
3.7310116826
 11
5.7142347597
 21
3.7310116826
  0
LINE
  5
2BB
100
AcDbEntity
  8
0
100
AcDbLine
 62
7
  6
CONTINUOUS
 10
5.0202954495
 20
3.7445116826
 11
4.9992954495
 21
3.7445116826
  0
LINE
  5
2BC
100
AcDbEntity
  8
THREAD
100
AcDbLine
 62
7
  6
CONTINUOUS
 10
5.6850785711
 20
3.7690116826
 11
5.6712954495
 21
3.7690116826
  0
LINE
  5
2BD
100
AcDbEntity
  8
0
100
AcDbLine
 62
7
  6
CONTINUOUS
 10
5.4178595141
 20
3.7690116826
 11
5.1080279529
 21
3.7690116826
  0
LINE
  5
2BE
100
AcDbEntity
  8
THREAD
100
AcDbLine
 62
7
  6
CONTINUOUS
 10
6.1132954495
 20
3.7750116826
 11
6.0292954495
 21
3.7750116826
  0
LINE
  5
2BF
100
AcDbEntity
  8
0
100
AcDbLine
 62
7
  6
CONTINUOUS
 10
6.8632954495
 20
3.7905116826
 11
6.8212954495
 21
3.7905116826
  0
LINE
  5
2C0
100
AcDbEntity
  8
0
100
AcDbLine
 62
7
  6
CONTINUOUS
 10
6.6197954495
 20
3.7905116826
 11
6.5697954495
 21
3.7905116826
  0
LINE
  5
2C1
100
AcDbEntity
  8
0
100
AcDbLine
 62
7
  6
CONTINUOUS
 10
6.6232954495
 20
3.7910116826
 11
6.6732954495
 21
3.7910116826
  0
LINE
  5
2C2
100
AcDbEntity
  8
0
100
AcDbLine
 62
7
  6
CONTINUOUS
 10
6.7432954495
 20
3.7910116826
 11
6.7932954495
 21
3.7910116826
  0
LINE
  5
2C3
100
AcDbEntity
  8
03__ASM_ALL_CURVES
100
AcDbLine
 62
40
  6
CONTINUOUS
 10
4.5374985745
 20
5.0858648494
 11
4.5417954495
 21
5.0801356826
  0
LINE
  5
2C4
100
AcDbEntity
  8
0
100
AcDbLine
 62
7
  6
CONTINUOUS
 10
5.0866643976
 20
4.6850116826
 11
5.0652954495
 21
4.7647616826
  0
LINE
  5
2C5
100
AcDbEntity
  8
0
100
AcDbLine
 62
7
  6
CONTINUOUS
 10
5.4392954495
 20
3.6890116826
 11
5.4178595141
 21
3.7690116826
  0
LINE
  5
2C6
100
AcDbEntity
  8
03__ASM_ALL_CURVES
100
AcDbLine
 62
40
  6
CONTINUOUS
 10
5.3486997467
 20
3.4684179316
 11
5.3486997467
 21
3.4641210576
  0
LINE
  5
2C7
100
AcDbEntity
  8
03__ASM_ALL_CURVES
100
AcDbLine
 62
40
  6
CONTINUOUS
 10
5.351922403
 20
3.4426366831
 11
5.351922403
 21
3.4383398076
  0
LINE
  5
2C8
100
AcDbEntity
  8
0
100
AcDbLine
 62
7
  6
CONTINUOUS
 10
5.4178595141
 20
3.7690116826
 11
5.4178595141
 21
4.6850116826
  0
LINE
  5
2C9
100
AcDbEntity
  8
03__ASM_ALL_CURVES
100
AcDbLine
 62
40
  6
CONTINUOUS
 10
5.4217954495
 20
5.0663856826
 11
5.4217954495
 21
5.0388856826
  0
LINE
  5
2CA
100
AcDbEntity
  8
0
100
AcDbLine
 62
7
  6
CONTINUOUS
 10
5.4392954495
 20
3.6890116826
 11
5.4392954495
 21
4.7650116826
  0
LINE
  5
2CB
100
AcDbEntity
  8
03__ASM_ALL_CURVES
100
AcDbLine
 62
40
  6
CONTINUOUS
 10
5.1617856842
 20
3.4512304326
 11
5.1650083405
 21
3.4641210576
  0
LINE
  5
2CC
100
AcDbEntity
  8
03__ASM_ALL_CURVES
100
AcDbLine
 62
40
  6
CONTINUOUS
 10
5.2004575592
 20
3.4512304326
 11
5.197234903
 21
3.4383398076
  0
LINE
  5
2CD
100
AcDbEntity
  8
0
100
AcDbLine
 62
7
  6
CONTINUOUS
 10
5.4392954495
 20
4.7650116826
 11
5.4178595141
 21
4.6850116826
  0
LINE
  5
2CE
100
AcDbEntity
  8
03__ASM_ALL_CURVES
100
AcDbLine
 62
40
  6
CONTINUOUS
 10
6.1256235741
 20
5.0858648494
 11
6.1170298241
 21
5.0801356826
  0
LINE
  5
2CF
100
AcDbEntity
  8
03__ASM_ALL_CURVES
100
AcDbLine
 62
40
  6
CONTINUOUS
 10
6.2459360741
 20
5.1488856826
 11
6.2373423241
 21
5.1431565173
  0
LINE
  5
2D0
100
AcDbEntity
  8
03__ASM_ALL_CURVES
100
AcDbLine
 62
40
  6
CONTINUOUS
 10
6.2631235741
 20
5.0858648494
 11
6.2545298241
 21
5.0801356826
  0
LINE
  5
2D1
100
AcDbEntity
  8
03__ASM_ALL_CURVES
100
AcDbLine
 62
40
  6
CONTINUOUS
 10
6.3748423241
 20
5.1431565173
 11
6.3834360741
 21
5.1488856826
  0
LINE
  5
2D2
100
AcDbEntity
  8
0
100
AcDbLine
 62
7
  6
CONTINUOUS
 10
6.7932954495
 20
3.8450116826
 11
6.8212954495
 21
3.8450116826
  0
LINE
  5
2D3
100
AcDbEntity
  8
0
100
AcDbLine
 62
7
  6
CONTINUOUS
 10
6.1292954495
 20
3.8530116826
 11
6.3942954495
 21
3.8530116826
  0
LINE
  5
2D4
100
AcDbEntity
  8
0
100
AcDbLine
 62
7
  6
CONTINUOUS
 10
6.5502954495
 20
3.8530116826
 11
6.5662954495
 21
3.8530116826
  0
LINE
  5
2D5
100
AcDbEntity
  8
0
100
AcDbLine
 62
7
  6
CONTINUOUS
 10
4.6368698236
 20
3.8861469921
 11
4.1749061207
 21
3.8861469921
  0
LINE
  5
2D6
100
AcDbEntity
  8
03__ASM_ALL_CURVES
100
AcDbLine
 62
40
  6
CONTINUOUS
 10
6.2495103053
 20
3.4254491826
 11
6.2430649928
 21
3.4297460577
  0
LINE
  5
2D7
100
AcDbEntity
  8
03__ASM_ALL_CURVES
100
AcDbLine
 62
40
  6
CONTINUOUS
 10
6.2043931178
 20
3.4770116826
 11
6.2108384303
 21
3.4727148086
  0
LINE
  5
2D8
100
AcDbEntity
  8
03__ASM_ALL_CURVES
100
AcDbLine
 62
40
  6
CONTINUOUS
 10
6.2559556178
 20
3.4770116826
 11
6.2624009303
 21
3.4727148086
  0
LINE
  5
2D9
100
AcDbEntity
  8
03__ASM_ALL_CURVES
100
AcDbLine
 62
40
  6
CONTINUOUS
 10
6.3075181178
 20
3.4770116826
 11
6.3139634303
 21
3.4727148086
  0
LINE
  5
2DA
100
AcDbEntity
  8
03__ASM_ALL_CURVES
100
AcDbLine
 62
40
  6
CONTINUOUS
 10
4.5976548245
 20
5.0858648494
 11
4.5933579495
 21
5.0915940163
  0
LINE
  5
2DB
100
AcDbEntity
  8
03__ASM_ALL_CURVES
100
AcDbLine
 62
40
  6
CONTINUOUS
 10
4.6234360745
 20
5.1145106826
 11
4.6320298245
 21
5.1030523499
  0
LINE
  5
2DC
100
AcDbEntity
  8
03__ASM_ALL_CURVES
100
AcDbLine
 62
40
  6
CONTINUOUS
 10
4.6234360745
 20
5.1431565173
 11
4.6277329495
 21
5.1374273479
  0
LINE
  5
2DD
100
AcDbEntity
  8
03__ASM_ALL_CURVES
100
AcDbLine
 62
40
  6
CONTINUOUS
 10
4.7437485745
 20
5.0915940163
 11
4.7523423245
 21
5.0801356826
  0
LINE
  5
2DE
100
AcDbEntity
  8
03__ASM_ALL_CURVES
100
AcDbLine
 62
40
  6
CONTINUOUS
 10
5.0789048245
 20
5.1145106826
 11
5.0746079495
 21
5.1259690173
  0
LINE
  5
2DF
100
AcDbEntity
  8
03__ASM_ALL_CURVES
100
AcDbLine
 62
40
  6
CONTINUOUS
 10
5.1648423245
 20
5.1374273479
 11
5.1691391995
 21
5.1202398479
  0
LINE
  5
2E0
100
AcDbEntity
  8
0
100
AcDbLine
 62
7
  6
CONTINUOUS
 10
5.5042954495
 20
3.6890116826
 11
5.5042954495
 21
4.7650116826
  0
LINE
  5
2E1
100
AcDbEntity
  8
03__ASM_ALL_CURVES
100
AcDbLine
 62
40
  6
CONTINUOUS
 10
5.5042954495
 20
4.7787616826
 11
5.5042954495
 21
5.0801356826
  0
LINE
  5
2E2
100
AcDbEntity
  8
THREAD
100
AcDbLine
 62
7
  6
CONTINUOUS
 10
5.5198839067
 20
3.7125116826
 11
5.5198839067
 21
4.7415116826
  0
LINE
  5
2E3
100
AcDbEntity
  8
THREAD
100
AcDbLine
 62
7
  6
CONTINUOUS
 10
5.5512954495
 20
3.7125116826
 11
5.5512954495
 21
4.7415116826
  0
LINE
  5
2E4
100
AcDbEntity
  8
03__ASM_ALL_CURVES
100
AcDbLine
 62
40
  6
CONTINUOUS
 10
5.6744516991
 20
5.1145106826
 11
5.6787485741
 21
5.1316981826
  0
LINE
  5
2E5
100
AcDbEntity
  8
03__ASM_ALL_CURVES
100
AcDbLine
 62
40
  6
CONTINUOUS
 10
5.7260141991
 20
5.1145106826
 11
5.7217173241
 21
5.0973231826
  0
LINE
  5
2E6
100
AcDbEntity
  8
03__ASM_ALL_CURVES
100
AcDbLine
 62
40
  6
CONTINUOUS
 10
5.7432016991
 20
5.1145106826
 11
5.7474985741
 21
5.1316981826
  0
LINE
  5
2E7
100
AcDbEntity
  8
THREAD
100
AcDbLine
 62
7
  6
CONTINUOUS
 10
5.7142347597
 20
4.7230116826
 11
5.6959038887
 21
4.6912616826
  0
LINE
  5
2E8
100
AcDbEntity
  8
03__ASM_ALL_CURVES
100
AcDbLine
 62
40
  6
CONTINUOUS
 10
6.0912485741
 20
5.1316981826
 11
6.0998423241
 21
5.1431565173
  0
LINE
  5
2E9
100
AcDbEntity
  8
03__ASM_ALL_CURVES
100
AcDbLine
 62
40
  6
CONTINUOUS
 10
6.4006235741
 20
5.0858648494
 11
6.3920298241
 21
5.0801356826
  0
LINE
  5
2EA
100
AcDbEntity
  8
03__ASM_ALL_CURVES
100
AcDbLine
 62
40
  6
CONTINUOUS
 10
6.4693735741
 20
5.0858648494
 11
6.4607798241
 21
5.0801356826
  0
LINE
  5
2EB
100
AcDbEntity
  8
0
100
AcDbLine
 62
7
  6
CONTINUOUS
 10
4.6368698236
 20
3.9344910637
 11
4.1749061207
 21
3.9344910637
  0
LINE
  5
2EC
100
AcDbEntity
  8
03__ASM_ALL_CURVES
100
AcDbLine
 62
40
  6
CONTINUOUS
 10
6.4106431178
 20
3.4770116826
 11
6.4170884303
 21
3.4727148086
  0
LINE
  5
2ED
100
AcDbEntity
  8
03__ASM_ALL_CURVES
100
AcDbLine
 62
40
  6
CONTINUOUS
 10
4.8039048245
 20
5.0858648494
 11
4.7996079495
 21
5.0915940163
  0
LINE
  5
2EE
100
AcDbEntity
  8
03__ASM_ALL_CURVES
100
AcDbLine
 62
40
  6
CONTINUOUS
 10
4.8296860745
 20
5.1145106826
 11
4.8382798245
 21
5.1030523499
  0
LINE
  5
2EF
100
AcDbEntity
  8
03__ASM_ALL_CURVES
100
AcDbLine
 62
40
  6
CONTINUOUS
 10
4.8296860745
 20
5.1431565173
 11
4.8339829495
 21
5.1374273479
  0
LINE
  5
2F0
100
AcDbEntity
  8
THREAD
100
AcDbLine
 62
7
  6
CONTINUOUS
 10
5.7142347597
 20
3.7310116826
 11
5.6959038887
 21
3.7627616826
  0
LINE
  5
2F1
100
AcDbEntity
  8
03__ASM_ALL_CURVES
100
AcDbLine
 62
40
  6
CONTINUOUS
 10
5.1046860745
 20
5.1374273479
 11
5.1089829495
 21
5.1259690173
  0
LINE
  5
2F2
100
AcDbEntity
  8
03__ASM_ALL_CURVES
100
AcDbLine
 62
40
  6
CONTINUOUS
 10
5.5867954495
 20
5.0663856826
 11
5.5867954495
 21
5.0388856826
  0
LINE
  5
2F3
100
AcDbEntity
  8
03__ASM_ALL_CURVES
100
AcDbLine
 62
40
  6
CONTINUOUS
 10
5.6142954491
 20
5.1488856826
 11
5.6142954491
 21
5.0801356826
  0
LINE
  5
2F4
100
AcDbEntity
  8
0
100
AcDbLine
 62
7
  6
CONTINUOUS
 10
5.6212954495
 20
3.7150116826
 11
5.6212954495
 21
4.7390116826
  0
LINE
  5
2F5
100
AcDbEntity
  8
0
100
AcDbLine
 62
7
  6
CONTINUOUS
 10
5.6712954495
 20
3.7150116826
 11
5.6712954495
 21
4.7390116826
  0
LINE
  5
2F6
100
AcDbEntity
  8
THREAD
100
AcDbLine
 62
7
  6
CONTINUOUS
 10
5.6850785711
 20
3.7690116826
 11
5.6850785711
 21
4.6850116826
  0
LINE
  5
2F7
100
AcDbEntity
  8
03__ASM_ALL_CURVES
100
AcDbLine
 62
40
  6
CONTINUOUS
 10
5.8162485741
 20
5.0801356826
 11
5.8377329491
 21
5.1488856826
  0
LINE
  5
2F8
100
AcDbEntity
  8
03__ASM_ALL_CURVES
100
AcDbLine
 62
40
  6
CONTINUOUS
 10
6.1299204491
 20
5.0915940163
 11
6.1256235741
 21
5.0858648494
  0
LINE
  5
2F9
100
AcDbEntity
  8
03__ASM_ALL_CURVES
100
AcDbLine
 62
40
  6
CONTINUOUS
 10
6.2373423241
 20
5.1431565173
 11
6.2330454491
 21
5.1374273479
  0
LINE
  5
2FA
100
AcDbEntity
  8
03__ASM_ALL_CURVES
100
AcDbLine
 62
40
  6
CONTINUOUS
 10
6.2674204491
 20
5.0915940163
 11
6.2631235741
 21
5.0858648494
  0
LINE
  5
2FB
100
AcDbEntity
  8
03__ASM_ALL_CURVES
100
AcDbLine
 62
40
  6
CONTINUOUS
 10
6.6025766991
 20
5.0858648494
 11
6.5939829491
 21
5.0801356826
  0
LINE
  5
2FC
100
AcDbEntity
  8
03__ASM_ALL_CURVES
100
AcDbLine
 62
40
  6
CONTINUOUS
 10
6.7443735741
 20
5.1202398479
 11
6.7357798241
 21
5.1145106826
  0
LINE
  5
2FD
100
AcDbEntity
  8
03__ASM_ALL_CURVES
100
AcDbLine
 62
40
  6
CONTINUOUS
 10
4.9499985745
 20
5.0858648494
 11
4.9542954495
 21
5.0801356826
  0
LINE
  5
2FE
100
AcDbEntity
  8
03__ASM_ALL_CURVES
100
AcDbLine
 62
40
  6
CONTINUOUS
 10
6.2430649928
 20
3.4297460577
 11
6.2366196803
 21
3.4383398076
  0
LINE
  5
2FF
100
AcDbEntity
  8
03__ASM_ALL_CURVES
100
AcDbLine
 62
40
  6
CONTINUOUS
 10
6.2108384303
 20
3.4727148086
 11
6.2140610866
 21
3.4684179316
  0
LINE
  5
300
100
AcDbEntity
  8
03__ASM_ALL_CURVES
100
AcDbLine
 62
40
  6
CONTINUOUS
 10
6.2624009303
 20
3.4727148086
 11
6.2688462428
 21
3.4641210576
  0
LINE
  5
301
100
AcDbEntity
  8
THREAD
100
AcDbLine
 62
7
  6
CONTINUOUS
 10
5.6959038887
 20
3.7627616826
 11
5.6959038887
 21
4.6912616826
  0
LINE
  5
302
100
AcDbEntity
  8
THREAD
100
AcDbLine
 62
7
  6
CONTINUOUS
 10
5.7142347597
 20
3.7310116826
 11
5.7142347597
 21
4.7230116826
  0
LINE
  5
303
100
AcDbEntity
  8
03__ASM_ALL_CURVES
100
AcDbLine
 62
40
  6
CONTINUOUS
 10
6.3662485741
 20
5.1316981826
 11
6.3748423241
 21
5.1431565173
  0
LINE
  5
304
100
AcDbEntity
  8
03__ASM_ALL_CURVES
100
AcDbLine
 62
40
  6
CONTINUOUS
 10
5.1424497467
 20
3.4598241836
 11
5.1392270905
 21
3.4555273066
  0
LINE
  5
305
100
AcDbEntity
  8
03__ASM_ALL_CURVES
100
AcDbLine
 62
40
  6
CONTINUOUS
 10
5.1650083405
 20
3.4641210576
 11
5.171453653
 21
3.4727148086
  0
LINE
  5
306
100
AcDbEntity
  8
03__ASM_ALL_CURVES
100
AcDbLine
 62
40
  6
CONTINUOUS
 10
6.4092173241
 20
5.0973231826
 11
6.4006235741
 21
5.0858648494
  0
LINE
  5
307
100
AcDbEntity
  8
03__ASM_ALL_CURVES
100
AcDbLine
 62
40
  6
CONTINUOUS
 10
7.3219712309
 20
4.2407616826
 11
7.3155259184
 21
4.2407616826
  0
LINE
  5
308
100
AcDbEntity
  8
03__ASM_ALL_CURVES
100
AcDbLine
 62
40
  6
CONTINUOUS
 10
7.3735337309
 20
4.2665429326
 11
7.3574204497
 21
4.2665429326
  0
LINE
  5
309
100
AcDbEntity
  8
03__ASM_ALL_CURVES
100
AcDbLine
 62
40
  6
CONTINUOUS
 10
7.2704087309
 20
4.2665429326
 11
7.2542954497
 21
4.2665429326
  0
LINE
  5
30A
100
AcDbEntity
  8
03__ASM_ALL_CURVES
100
AcDbLine
 62
40
  6
CONTINUOUS
 10
7.2542954497
 20
4.2923241826
 11
7.2704087309
 21
4.2923241826
  0
LINE
  5
30B
100
AcDbEntity
  8
03__ASM_ALL_CURVES
100
AcDbLine
 62
40
  6
CONTINUOUS
 10
7.3155259184
 20
4.2923241826
 11
7.3219712309
 21
4.2923241826
  0
LINE
  5
30C
100
AcDbEntity
  8
03__ASM_ALL_CURVES
100
AcDbLine
 62
40
  6
CONTINUOUS
 10
7.3574204497
 20
4.2923241826
 11
7.3735337309
 21
4.2923241826
  0
LINE
  5
30D
100
AcDbEntity
  8
03__ASM_ALL_CURVES
100
AcDbLine
 62
40
  6
CONTINUOUS
 10
7.4057602934
 20
4.2923241826
 11
7.4379868559
 21
4.2923241826
  0
LINE
  5
30E
100
AcDbEntity
  8
03__ASM_ALL_CURVES
100
AcDbLine
 62
40
  6
CONTINUOUS
 10
4.6062485745
 20
5.0801356826
 11
4.5976548245
 21
5.0858648494
  0
LINE
  5
30F
100
AcDbEntity
  8
03__ASM_ALL_CURVES
100
AcDbLine
 62
40
  6
CONTINUOUS
 10
5.0832016995
 20
5.0858648494
 11
5.0789048245
 21
5.0915940163
  0
LINE
  5
310
100
AcDbEntity
  8
03__ASM_ALL_CURVES
100
AcDbLine
 62
40
  6
CONTINUOUS
 10
6.3139634303
 20
3.4727148086
 11
6.3171860866
 21
3.4684179316
  0
LINE
  5
311
100
AcDbEntity
  8
03__ASM_ALL_CURVES
100
AcDbLine
 62
40
  6
CONTINUOUS
 10
5.1003891995
 20
5.1431565173
 11
5.1046860745
 21
5.1374273479
  0
LINE
  5
312
100
AcDbEntity
  8
03__ASM_ALL_CURVES
100
AcDbLine
 62
40
  6
CONTINUOUS
 10
5.1562485745
 20
5.1488856826
 11
5.1648423245
 21
5.1374273479
  0
LINE
  5
313
100
AcDbEntity
  8
03__ASM_ALL_CURVES
100
AcDbLine
 62
40
  6
CONTINUOUS
 10
6.4170884303
 20
3.4727148086
 11
6.4203110866
 21
3.4684179316
  0
LINE
  5
314
100
AcDbEntity
  8
03__ASM_ALL_CURVES
100
AcDbLine
 62
40
  6
CONTINUOUS
 10
5.9064829491
 20
5.1488856826
 11
5.9064829491
 21
5.0801356826
  0
LINE
  5
315
100
AcDbEntity
  8
03__ASM_ALL_CURVES
100
AcDbLine
 62
40
  6
CONTINUOUS
 10
6.0869516991
 20
5.1145106826
 11
6.0912485741
 21
5.1316981826
  0
LINE
  5
316
100
AcDbEntity
  8
03__ASM_ALL_CURVES
100
AcDbLine
 62
40
  6
CONTINUOUS
 10
5.197234903
 20
3.4383398076
 11
5.1907895905
 21
3.4297460577
  0
LINE
  5
317
100
AcDbEntity
  8
03__ASM_ALL_CURVES
100
AcDbLine
 62
40
  6
CONTINUOUS
 10
5.2455747467
 20
3.4598241836
 11
5.2423520905
 21
3.4555273066
  0
LINE
  5
318
100
AcDbEntity
  8
03__ASM_ALL_CURVES
100
AcDbLine
 62
40
  6
CONTINUOUS
 10
6.4736704491
 20
5.0915940163
 11
6.4693735741
 21
5.0858648494
  0
LINE
  5
319
100
AcDbEntity
  8
03__ASM_ALL_CURVES
100
AcDbLine
 62
40
  6
CONTINUOUS
 10
5.3486997467
 20
3.4641210576
 11
5.3454770905
 21
3.4598241836
  0
LINE
  5
31A
100
AcDbEntity
  8
03__ASM_ALL_CURVES
100
AcDbLine
 62
40
  6
CONTINUOUS
 10
4.6148423245
 20
5.1202398479
 11
4.6234360745
 21
5.1145106826
  0
LINE
  5
31B
100
AcDbEntity
  8
03__ASM_ALL_CURVES
100
AcDbLine
 62
40
  6
CONTINUOUS
 10
4.6148423245
 20
5.1488856826
 11
4.6234360745
 21
5.1431565173
  0
LINE
  5
31C
100
AcDbEntity
  8
03__ASM_ALL_CURVES
100
AcDbLine
 62
40
  6
CONTINUOUS
 10
4.8124985745
 20
5.0801356826
 11
4.8039048245
 21
5.0858648494
  0
LINE
  5
31D
100
AcDbEntity
  8
03__ASM_ALL_CURVES
100
AcDbLine
 62
40
  6
CONTINUOUS
 10
5.6787485741
 20
5.0973231826
 11
5.6744516991
 21
5.1145106826
  0
LINE
  5
31E
100
AcDbEntity
  8
03__ASM_ALL_CURVES
100
AcDbLine
 62
40
  6
CONTINUOUS
 10
5.7217173241
 20
5.1316981826
 11
5.7260141991
 21
5.1145106826
  0
LINE
  5
31F
100
AcDbEntity
  8
03__ASM_ALL_CURVES
100
AcDbLine
 62
40
  6
CONTINUOUS
 10
5.9752329491
 20
5.1488856826
 11
5.9752329491
 21
5.0801356826
  0
LINE
  5
320
100
AcDbEntity
  8
THREAD
100
AcDbLine
 62
7
  6
CONTINUOUS
 10
5.9852954495
 20
3.7310116826
 11
5.9852954495
 21
4.7230116826
  0
LINE
  5
321
100
AcDbEntity
  8
03__ASM_ALL_CURVES
100
AcDbLine
 62
40
  6
CONTINUOUS
 10
6.0267954491
 20
5.0801356826
 11
6.0267954491
 21
5.1488856826
  0
LINE
  5
322
100
AcDbEntity
  8
THREAD
100
AcDbLine
 62
7
  6
CONTINUOUS
 10
6.0292954495
 20
3.7750116826
 11
6.0292954495
 21
4.6790116826
  0
LINE
  5
323
100
AcDbEntity
  8
03__ASM_ALL_CURVES
100
AcDbLine
 62
40
  6
CONTINUOUS
 10
6.0611704491
 20
5.0801356826
 11
6.0611704491
 21
5.1488856826
  0
LINE
  5
324
100
AcDbEntity
  8
03__ASM_ALL_CURVES
100
AcDbLine
 62
40
  6
CONTINUOUS
 10
5.351922403
 20
3.4383398076
 11
5.3454770905
 21
3.4297460577
  0
LINE
  5
325
100
AcDbEntity
  8
03__ASM_ALL_CURVES
100
AcDbLine
 62
40
  6
CONTINUOUS
 10
6.6111704491
 20
5.0973231826
 11
6.6025766991
 21
5.0858648494
  0
LINE
  5
326
100
AcDbEntity
  8
03__ASM_ALL_CURVES
100
AcDbLine
 62
40
  6
CONTINUOUS
 10
6.7486704491
 20
5.1259690173
 11
6.7443735741
 21
5.1202398479
  0
LINE
  5
327
100
AcDbEntity
  8
0
100
AcDbLine
 62
7
  6
CONTINUOUS
 10
4.6368698236
 20
4.5195323015
 11
4.1749061207
 21
4.5195323015
  0
LINE
  5
328
100
AcDbEntity
  8
THREAD
100
AcDbLine
 62
7
  6
CONTINUOUS
 10
5.5198839067
 20
4.7415116826
 11
5.5042954495
 21
4.7505116826
  0
LINE
  5
329
100
AcDbEntity
  8
03__ASM_ALL_CURVES
100
AcDbLine
 62
40
  6
CONTINUOUS
 10
4.8210923245
 20
5.1202398479
 11
4.8296860745
 21
5.1145106826
  0
LINE
  5
32A
100
AcDbEntity
  8
03__ASM_ALL_CURVES
100
AcDbLine
 62
40
  6
CONTINUOUS
 10
4.8210923245
 20
5.1488856826
 11
4.8296860745
 21
5.1431565173
  0
LINE
  5
32B
100
AcDbEntity
  8
03__ASM_ALL_CURVES
100
AcDbLine
 62
40
  6
CONTINUOUS
 10
5.0917954495
 20
5.0801356826
 11
5.0832016995
 21
5.0858648494
  0
LINE
  5
32C
100
AcDbEntity
  8
0
100
AcDbLine
 62
7
  6
CONTINUOUS
 10
6.5697954495
 20
3.7905116826
 11
6.5662954495
 21
3.7940116826
  0
LINE
  5
32D
100
AcDbEntity
  8
03__ASM_ALL_CURVES
100
AcDbLine
 62
40
  6
CONTINUOUS
 10
6.3075181178
 20
3.4512304326
 11
6.3171860866
 21
3.4254491826
  0
LINE
  5
32E
100
AcDbEntity
  8
03__ASM_ALL_CURVES
100
AcDbLine
 62
40
  6
CONTINUOUS
 10
5.7474985741
 20
5.0973231826
 11
5.7432016991
 21
5.1145106826
  0
LINE
  5
32F
100
AcDbEntity
  8
03__ASM_ALL_CURVES
100
AcDbLine
 62
40
  6
CONTINUOUS
 10
6.2366196803
 20
3.4383398076
 11
6.2333970241
 21
3.4512304326
  0
LINE
  5
330
100
AcDbEntity
  8
03__ASM_ALL_CURVES
100
AcDbLine
 62
40
  6
CONTINUOUS
 10
6.2688462428
 20
3.4641210576
 11
6.2720688991
 21
3.4512304326
  0
LINE
  5
331
100
AcDbEntity
  8
0
100
AcDbLine
 62
7
  6
CONTINUOUS
 10
6.1132954495
 20
3.7750116826
 11
6.1132954495
 21
4.6790116826
  0
LINE
  5
332
100
AcDbEntity
  8
0
100
AcDbLine
 62
7
  6
CONTINUOUS
 10
6.1292954495
 20
3.7910116826
 11
6.1292954495
 21
4.6630116826
  0
LINE
  5
333
100
AcDbEntity
  8
03__ASM_ALL_CURVES
100
AcDbLine
 62
40
  6
CONTINUOUS
 10
6.1299204491
 20
5.1145106826
 11
6.1299204491
 21
5.0915940163
  0
LINE
  5
334
100
AcDbEntity
  8
03__ASM_ALL_CURVES
100
AcDbLine
 62
40
  6
CONTINUOUS
 10
6.1882798366
 20
3.4254491826
 11
6.1882798366
 21
3.4770116826
  0
LINE
  5
335
100
AcDbEntity
  8
03__ASM_ALL_CURVES
100
AcDbLine
 62
40
  6
CONTINUOUS
 10
6.3619516991
 20
5.1145106826
 11
6.3662485741
 21
5.1316981826
  0
LINE
  5
336
100
AcDbEntity
  8
0
100
AcDbLine
 62
7
  6
CONTINUOUS
 10
6.5697954495
 20
4.6635116826
 11
6.5662954495
 21
4.6600116826
  0
LINE
  5
337
100
AcDbEntity
  8
03__ASM_ALL_CURVES
100
AcDbLine
 62
40
  6
CONTINUOUS
 10
5.1392270905
 20
3.4555273066
 11
5.132781778
 21
3.4512304326
  0
LINE
  5
338
100
AcDbEntity
  8
03__ASM_ALL_CURVES
100
AcDbLine
 62
40
  6
CONTINUOUS
 10
5.171453653
 20
3.4727148086
 11
5.1778989655
 21
3.4770116826
  0
LINE
  5
339
100
AcDbEntity
  8
03__ASM_ALL_CURVES
100
AcDbLine
 62
40
  6
CONTINUOUS
 10
5.1907895905
 20
3.4297460577
 11
5.184344278
 21
3.4254491826
  0
LINE
  5
33A
100
AcDbEntity
  8
03__ASM_ALL_CURVES
100
AcDbLine
 62
40
  6
CONTINUOUS
 10
5.2423520905
 20
3.4555273066
 11
5.235906778
 21
3.4512304326
  0
LINE
  5
33B
100
AcDbEntity
  8
THREAD
100
AcDbLine
 62
7
  6
CONTINUOUS
 10
5.5198839067
 20
3.7125116826
 11
5.5042954495
 21
3.7035116826
  0
LINE
  5
33C
100
AcDbEntity
  8
0
100
AcDbLine
 62
7
  6
CONTINUOUS
 10
4.6368698236
 20
4.5678763731
 11
4.1749061207
 21
4.5678763731
  0
LINE
  5
33D
100
AcDbEntity
  8
0
100
AcDbLine
 62
7
  6
CONTINUOUS
 10
6.1292954495
 20
4.6010116826
 11
6.3942954495
 21
4.6010116826
  0
LINE
  5
33E
100
AcDbEntity
  8
0
100
AcDbLine
 62
7
  6
CONTINUOUS
 10
6.5502954495
 20
4.6010116826
 11
6.5662954495
 21
4.6010116826
  0
LINE
  5
33F
100
AcDbEntity
  8
0
100
AcDbLine
 62
7
  6
CONTINUOUS
 10
6.7932954495
 20
4.6090116826
 11
6.8212954495
 21
4.6090116826
  0
LINE
  5
340
100
AcDbEntity
  8
0
100
AcDbLine
 62
7
  6
CONTINUOUS
 10
6.6232954495
 20
4.6630116826
 11
6.6732954495
 21
4.6630116826
  0
LINE
  5
341
100
AcDbEntity
  8
0
100
AcDbLine
 62
7
  6
CONTINUOUS
 10
6.7432954495
 20
4.6630116826
 11
6.7932954495
 21
4.6630116826
  0
LINE
  5
342
100
AcDbEntity
  8
0
100
AcDbLine
 62
7
  6
CONTINUOUS
 10
6.8632954495
 20
4.6635116826
 11
6.8212954495
 21
4.6635116826
  0
LINE
  5
343
100
AcDbEntity
  8
0
100
AcDbLine
 62
7
  6
CONTINUOUS
 10
6.6197954495
 20
4.6635116826
 11
6.5697954495
 21
4.6635116826
  0
LINE
  5
344
100
AcDbEntity
  8
THREAD
100
AcDbLine
 62
7
  6
CONTINUOUS
 10
6.1132954495
 20
4.6790116826
 11
6.0292954495
 21
4.6790116826
  0
LINE
  5
345
100
AcDbEntity
  8
03__ASM_ALL_CURVES
100
AcDbLine
 62
40
  6
CONTINUOUS
 10
5.0917954495
 20
5.1488856826
 11
5.1003891995
 21
5.1431565173
  0
LINE
  5
346
100
AcDbEntity
  8
03__ASM_ALL_CURVES
100
AcDbLine
 62
40
  6
CONTINUOUS
 10
5.6873423241
 20
5.0858648494
 11
5.6787485741
 21
5.0973231826
  0
LINE
  5
347
100
AcDbEntity
  8
03__ASM_ALL_CURVES
100
AcDbLine
 62
40
  6
CONTINUOUS
 10
5.8377329491
 20
5.1488856826
 11
5.8592173241
 21
5.0801356826
  0
LINE
  5
348
100
AcDbEntity
  8
03__ASM_ALL_CURVES
100
AcDbLine
 62
40
  6
CONTINUOUS
 10
6.2140610866
 20
3.4684179316
 11
6.2140610866
 21
3.4598241836
  0
LINE
  5
349
100
AcDbEntity
  8
03__ASM_ALL_CURVES
100
AcDbLine
 62
40
  6
CONTINUOUS
 10
6.2330454491
 20
5.1374273479
 11
6.2330454491
 21
5.1316981826
  0
LINE
  5
34A
100
AcDbEntity
  8
03__ASM_ALL_CURVES
100
AcDbLine
 62
40
  6
CONTINUOUS
 10
6.2674204491
 20
5.1030523499
 11
6.2674204491
 21
5.0915940163
  0
LINE
  5
34B
100
AcDbEntity
  8
03__ASM_ALL_CURVES
100
AcDbLine
 62
40
  6
CONTINUOUS
 10
6.2914048366
 20
3.4254491826
 11
6.2914048366
 21
3.4770116826
  0
LINE
  5
34C
100
AcDbEntity
  8
03__ASM_ALL_CURVES
100
AcDbLine
 62
40
  6
CONTINUOUS
 10
6.3017954491
 20
5.1488856826
 11
6.3017954491
 21
5.0801356826
  0
LINE
  5
34D
100
AcDbEntity
  8
03__ASM_ALL_CURVES
100
AcDbLine
 62
40
  6
CONTINUOUS
 10
6.3171860866
 20
3.4684179316
 11
6.3171860866
 21
3.4598241836
  0
LINE
  5
34E
100
AcDbEntity
  8
03__ASM_ALL_CURVES
100
AcDbLine
 62
40
  6
CONTINUOUS
 10
6.4135141991
 20
5.1145106826
 11
6.4092173241
 21
5.0973231826
  0
LINE
  5
34F
100
AcDbEntity
  8
03__ASM_ALL_CURVES
100
AcDbLine
 62
40
  6
CONTINUOUS
 10
5.326141153
 20
3.4727148086
 11
5.3325864655
 21
3.4770116826
  0
LINE
  5
350
100
AcDbEntity
  8
03__ASM_ALL_CURVES
100
AcDbLine
 62
40
  6
CONTINUOUS
 10
5.3454770905
 20
3.4598241836
 11
5.339031778
 21
3.4555273066
  0
LINE
  5
351
100
AcDbEntity
  8
03__ASM_ALL_CURVES
100
AcDbLine
 62
40
  6
CONTINUOUS
 10
5.3454770905
 20
3.4297460577
 11
5.339031778
 21
3.4254491826
  0
LINE
  5
352
100
AcDbEntity
  8
THREAD
100
AcDbLine
 62
7
  6
CONTINUOUS
 10
5.6850785711
 20
4.6850116826
 11
5.6712954495
 21
4.6850116826
  0
LINE
  5
353
100
AcDbEntity
  8
0
100
AcDbLine
 62
7
  6
CONTINUOUS
 10
5.4178595141
 20
4.6850116826
 11
5.0866643976
 21
4.6850116826
  0
LINE
  5
354
100
AcDbEntity
  8
0
100
AcDbLine
 62
7
  6
CONTINUOUS
 10
5.0202954495
 20
4.7095116826
 11
4.9992954495
 21
4.7095116826
  0
LINE
  5
355
100
AcDbEntity
  8
THREAD
100
AcDbLine
 62
7
  6
CONTINUOUS
 10
5.9852954495
 20
4.7230116826
 11
5.7142347597
 21
4.7230116826
  0
LINE
  5
356
100
AcDbEntity
  8
0
100
AcDbLine
 62
7
  6
CONTINUOUS
 10
5.6212954495
 20
4.7390116826
 11
5.6712954495
 21
4.7390116826
  0
LINE
  5
357
100
AcDbEntity
  8
THREAD
100
AcDbLine
 62
7
  6
CONTINUOUS
 10
5.5512954495
 20
4.7415116826
 11
5.5198839067
 21
4.7415116826
  0
LINE
  5
358
100
AcDbEntity
  8
0
100
AcDbLine
 62
7
  6
CONTINUOUS
 10
4.8792954495
 20
4.7635116826
 11
4.9292954495
 21
4.7635116826
  0
LINE
  5
359
100
AcDbEntity
  8
0
100
AcDbLine
 62
7
  6
CONTINUOUS
 10
5.0652954495
 20
4.7647616826
 11
5.0202954495
 21
4.7647616826
  0
LINE
  5
35A
100
AcDbEntity
  8
0
100
AcDbLine
 62
7
  6
CONTINUOUS
 10
5.5042954495
 20
4.7650116826
 11
5.4392954495
 21
4.7650116826
  0
LINE
  5
35B
100
AcDbEntity
  8
0
100
AcDbLine
 62
7
  6
CONTINUOUS
 10
4.8792954495
 20
4.7650116826
 11
4.6922954495
 21
4.7650116826
  0
LINE
  5
35C
100
AcDbEntity
  8
03__ASM_ALL_CURVES
100
AcDbLine
 62
40
  6
CONTINUOUS
 10
4.2117954495
 20
5.0388856826
 11
4.1292954495
 21
5.0526356826
  0
LINE
  5
35D
100
AcDbEntity
  8
03__ASM_ALL_CURVES
100
AcDbLine
 62
40
  6
CONTINUOUS
 10
5.0917954495
 20
5.1087815152
 11
5.0789048245
 21
5.1145106826
  0
LINE
  5
35E
100
AcDbEntity
  8
THREAD
100
AcDbLine
 62
7
  6
CONTINUOUS
 10
6.0292954495
 20
4.6790116826
 11
5.9852954495
 21
4.7230116826
  0
LINE
  5
35F
100
AcDbEntity
  8
0
100
AcDbLine
 62
7
  6
CONTINUOUS
 10
6.1292954495
 20
4.6630116826
 11
6.1132954495
 21
4.6790116826
  0
LINE
  5
360
100
AcDbEntity
  8
03__ASM_ALL_CURVES
100
AcDbLine
 62
40
  6
CONTINUOUS
 10
5.7560923241
 20
5.0858648494
 11
5.7474985741
 21
5.0973231826
  0
LINE
  5
361
100
AcDbEntity
  8
03__ASM_ALL_CURVES
100
AcDbLine
 62
40
  6
CONTINUOUS
 10
5.7131235741
 20
5.1431565173
 11
5.7217173241
 21
5.1316981826
  0
LINE
  5
362
100
AcDbEntity
  8
03__ASM_ALL_CURVES
100
AcDbLine
 62
40
  6
CONTINUOUS
 10
5.7818735741
 20
5.1431565173
 11
5.7861704491
 21
5.1374273479
  0
LINE
  5
363
100
AcDbEntity
  8
03__ASM_ALL_CURVES
100
AcDbLine
 62
40
  6
CONTINUOUS
 10
6.0912485741
 20
5.0973231826
 11
6.0869516991
 21
5.1145106826
  0
LINE
  5
364
100
AcDbEntity
  8
03__ASM_ALL_CURVES
100
AcDbLine
 62
40
  6
CONTINUOUS
 10
6.3361704491
 20
5.1488856826
 11
6.3361704491
 21
5.0801356826
  0
LINE
  5
365
100
AcDbEntity
  8
03__ASM_ALL_CURVES
100
AcDbLine
 62
40
  6
CONTINUOUS
 10
6.3558579616
 20
3.4770116826
 11
6.3558579616
 21
3.4254491826
  0
LINE
  5
366
100
AcDbEntity
  8
03__ASM_ALL_CURVES
100
AcDbLine
 62
40
  6
CONTINUOUS
 10
6.4203110866
 20
3.4684179316
 11
6.4203110866
 21
3.4598241836
  0
LINE
  5
367
100
AcDbEntity
  8
03__ASM_ALL_CURVES
100
AcDbLine
 62
40
  6
CONTINUOUS
 10
6.4392954491
 20
5.0915940163
 11
6.4392954491
 21
5.1488856826
  0
LINE
  5
368
100
AcDbEntity
  8
03__ASM_ALL_CURVES
100
AcDbLine
 62
40
  6
CONTINUOUS
 10
6.6154673241
 20
5.1145106826
 11
6.6111704491
 21
5.0973231826
  0
LINE
  5
369
100
AcDbEntity
  8
03__ASM_ALL_CURVES
100
AcDbLine
 62
40
  6
CONTINUOUS
 10
6.2333970241
 20
3.4512304326
 11
6.2366196803
 21
3.4641210576
  0
LINE
  5
36A
100
AcDbEntity
  8
THREAD
100
AcDbLine
 62
7
  6
CONTINUOUS
 10
6.0292954495
 20
3.7750116826
 11
5.9852954495
 21
3.7310116826
  0
LINE
  5
36B
100
AcDbEntity
  8
0
100
AcDbLine
 62
7
  6
CONTINUOUS
 10
6.1292954495
 20
3.7910116826
 11
6.1132954495
 21
3.7750116826
  0
LINE
  5
36C
100
AcDbEntity
  8
0
100
AcDbLine
 62
7
  6
CONTINUOUS
 10
4.6368698236
 20
4.8603969921
 11
4.1749061207
 21
4.8603969921
  0
LINE
  5
36D
100
AcDbEntity
  8
0
100
AcDbLine
 62
7
  6
CONTINUOUS
 10
4.6368698236
 20
4.8610116826
 11
4.1749061207
 21
4.8610116826
  0
LINE
  5
36E
100
AcDbEntity
  8
03__ASM_ALL_CURVES
100
AcDbLine
 62
40
  6
CONTINUOUS
 10
4.2117954495
 20
5.0457606826
 11
4.1292954495
 21
5.0526356826
  0
LINE
  5
36F
100
AcDbEntity
  8
03__ASM_ALL_CURVES
100
AcDbLine
 62
40
  6
CONTINUOUS
 10
4.2117954495
 20
5.0434690159
 11
4.1292954495
 21
5.0526356826
  0
LINE
  5
370
100
AcDbEntity
  8
03__ASM_ALL_CURVES
100
AcDbLine
 62
40
  6
CONTINUOUS
 10
4.2117954495
 20
5.0411773493
 11
4.1292954495
 21
5.0526356826
  0
LINE
  5
371
100
AcDbEntity
  8
03__ASM_ALL_CURVES
100
AcDbLine
 62
40
  6
CONTINUOUS
 10
5.6959360741
 20
5.0801356826
 11
5.6873423241
 21
5.0858648494
  0
LINE
  5
372
100
AcDbEntity
  8
03__ASM_ALL_CURVES
100
AcDbLine
 62
40
  6
CONTINUOUS
 10
5.7646860741
 20
5.0801356826
 11
5.7560923241
 21
5.0858648494
  0
LINE
  5
373
100
AcDbEntity
  8
03__ASM_ALL_CURVES
100
AcDbLine
 62
40
  6
CONTINUOUS
 10
6.0267954491
 20
5.1488856826
 11
6.0611704491
 21
5.0801356826
  0
LINE
  5
374
100
AcDbEntity
  8
03__ASM_ALL_CURVES
100
AcDbLine
 62
40
  6
CONTINUOUS
 10
6.4736704491
 20
5.1488856826
 11
6.4736704491
 21
5.0915940163
  0
LINE
  5
375
100
AcDbEntity
  8
0
100
AcDbLine
 62
7
  6
CONTINUOUS
 10
6.5042954495
 20
4.1561013561
 11
6.5042954495
 21
4.2979178652
  0
LINE
  5
376
100
AcDbEntity
  8
03__ASM_ALL_CURVES
100
AcDbLine
 62
40
  6
CONTINUOUS
 10
6.5080454491
 20
5.1488856826
 11
6.5080454491
 21
5.0801356826
  0
LINE
  5
377
100
AcDbEntity
  8
0
100
AcDbLine
 62
7
  6
CONTINUOUS
 10
6.5662954495
 20
3.7940116826
 11
6.5662954495
 21
4.6600116826
  0
LINE
  5
378
100
AcDbEntity
  8
0
100
AcDbLine
 62
7
  6
CONTINUOUS
 10
6.5697954495
 20
3.7905116826
 11
6.5697954495
 21
4.6635116826
  0
LINE
  5
379
100
AcDbEntity
  8
03__ASM_ALL_CURVES
100
AcDbLine
 62
40
  6
CONTINUOUS
 10
6.2720688991
 20
3.4512304326
 11
6.2688462428
 21
3.4383398076
  0
LINE
  5
37A
100
AcDbEntity
  8
03__ASM_ALL_CURVES
100
AcDbLine
 62
40
  6
CONTINUOUS
 10
4.1292954495
 20
5.0526356826
 11
6.8242954495
 21
5.0526356826
  0
LINE
  5
37B
100
AcDbEntity
  8
03__ASM_ALL_CURVES
100
AcDbLine
 62
40
  6
CONTINUOUS
 10
4.2117954495
 20
5.0503440159
 11
4.1292954495
 21
5.0526356826
  0
LINE
  5
37C
100
AcDbEntity
  8
03__ASM_ALL_CURVES
100
AcDbLine
 62
40
  6
CONTINUOUS
 10
5.4217954495
 20
5.0549273493
 11
5.5867954495
 21
5.0503440159
  0
LINE
  5
37D
100
AcDbEntity
  8
03__ASM_ALL_CURVES
100
AcDbLine
 62
40
  6
CONTINUOUS
 10
4.2117954495
 20
5.0480523493
 11
4.1292954495
 21
5.0526356826
  0
LINE
  5
37E
100
AcDbEntity
  8
03__ASM_ALL_CURVES
100
AcDbLine
 62
40
  6
CONTINUOUS
 10
5.4217954495
 20
5.0572190159
 11
5.5867954495
 21
5.0480523493
  0
LINE
  5
37F
100
AcDbEntity
  8
03__ASM_ALL_CURVES
100
AcDbLine
 62
40
  6
CONTINUOUS
 10
5.4217954495
 20
5.0595106826
 11
5.5867954495
 21
5.0457606826
  0
LINE
  5
380
100
AcDbEntity
  8
03__ASM_ALL_CURVES
100
AcDbLine
 62
40
  6
CONTINUOUS
 10
5.4217954495
 20
5.0618023493
 11
5.5867954495
 21
5.0434690159
  0
LINE
  5
381
100
AcDbEntity
  8
03__ASM_ALL_CURVES
100
AcDbLine
 62
40
  6
CONTINUOUS
 10
5.4217954495
 20
5.0640940159
 11
5.5867954495
 21
5.0411773493
  0
LINE
  5
382
100
AcDbEntity
  8
03__ASM_ALL_CURVES
100
AcDbLine
 62
40
  6
CONTINUOUS
 10
5.5867954495
 20
5.0388856826
 11
5.4217954495
 21
5.0663856826
  0
LINE
  5
383
100
AcDbEntity
  8
03__ASM_ALL_CURVES
100
AcDbLine
 62
40
  6
CONTINUOUS
 10
5.7045298241
 20
5.1488856826
 11
5.7131235741
 21
5.1431565173
  0
LINE
  5
384
100
AcDbEntity
  8
03__ASM_ALL_CURVES
100
AcDbLine
 62
40
  6
CONTINUOUS
 10
5.7732798241
 20
5.1488856826
 11
5.7818735741
 21
5.1431565173
  0
LINE
  5
385
100
AcDbEntity
  8
03__ASM_ALL_CURVES
100
AcDbLine
 62
40
  6
CONTINUOUS
 10
6.0998423241
 20
5.0858648494
 11
6.0912485741
 21
5.0973231826
  0
LINE
  5
386
100
AcDbEntity
  8
03__ASM_ALL_CURVES
100
AcDbLine
 62
40
  6
CONTINUOUS
 10
6.3662485741
 20
5.0973231826
 11
6.3619516991
 21
5.1145106826
  0
LINE
  5
387
100
AcDbEntity
  8
03__ASM_ALL_CURVES
100
AcDbLine
 62
40
  6
CONTINUOUS
 10
6.5767954491
 20
5.0801356826
 11
6.5767954491
 21
5.1488856826
  0
LINE
  5
388
100
AcDbEntity
  8
0
100
AcDbLine
 62
7
  6
CONTINUOUS
 10
6.6197954495
 20
3.7905116826
 11
6.6197954495
 21
4.6635116826
  0
LINE
  5
389
100
AcDbEntity
  8
0
100
AcDbLine
 62
7
  6
CONTINUOUS
 10
6.6232954495
 20
3.7910123455
 11
6.6232954495
 21
4.6630110197
  0
LINE
  5
38A
100
AcDbEntity
  8
03__ASM_ALL_CURVES
100
AcDbLine
 62
40
  6
CONTINUOUS
 10
6.6455454491
 20
5.0801356826
 11
6.6455454491
 21
5.1488856826
  0
LINE
  5
38B
100
AcDbEntity
  8
0
100
AcDbLine
 62
7
  6
CONTINUOUS
 10
6.6732954495
 20
3.7910123455
 11
6.6732954495
 21
4.6630110197
  0
LINE
  5
38C
100
AcDbEntity
  8
03__ASM_ALL_CURVES
100
AcDbLine
 62
40
  6
CONTINUOUS
 10
6.3977524928
 20
3.4383398076
 11
6.3945298366
 21
3.4254491826
  0
LINE
  5
38D
100
AcDbEntity
  8
03__ASM_ALL_CURVES
100
AcDbLine
 62
40
  6
CONTINUOUS
 10
6.2140610866
 20
3.4598241836
 11
6.2108384303
 21
3.4555273066
  0
LINE
  5
38E
100
AcDbEntity
  8
03__ASM_ALL_CURVES
100
AcDbLine
 62
40
  6
CONTINUOUS
 10
6.2366196803
 20
3.4641210576
 11
6.2430649928
 21
3.4727148086
  0
LINE
  5
38F
100
AcDbEntity
  8
03__ASM_ALL_CURVES
100
AcDbLine
 62
40
  6
CONTINUOUS
 10
6.2688462428
 20
3.4383398076
 11
6.2624009303
 21
3.4297460577
  0
LINE
  5
390
100
AcDbEntity
  8
03__ASM_ALL_CURVES
100
AcDbLine
 62
40
  6
CONTINUOUS
 10
7.2768540434
 20
4.2708398066
 11
7.2704087309
 21
4.2665429326
  0
LINE
  5
391
100
AcDbEntity
  8
03__ASM_ALL_CURVES
100
AcDbLine
 62
40
  6
CONTINUOUS
 10
7.3090806059
 20
4.2880273086
 11
7.3155259184
 21
4.2923241826
  0
LINE
  5
392
100
AcDbEntity
  8
03__ASM_ALL_CURVES
100
AcDbLine
 62
40
  6
CONTINUOUS
 10
7.3284165434
 20
4.2450585577
 11
7.3219712309
 21
4.2407616826
  0
LINE
  5
393
100
AcDbEntity
  8
03__ASM_ALL_CURVES
100
AcDbLine
 62
40
  6
CONTINUOUS
 10
7.3799790434
 20
4.2708398066
 11
7.3735337309
 21
4.2665429326
  0
LINE
  5
394
100
AcDbEntity
  8
03__ASM_ALL_CURVES
100
AcDbLine
 62
40
  6
CONTINUOUS
 10
5.4217954495
 20
5.0388856826
 11
5.5867954495
 21
5.0663856826
  0
LINE
  5
395
100
AcDbEntity
  8
03__ASM_ALL_CURVES
100
AcDbLine
 62
40
  6
CONTINUOUS
 10
5.4217954495
 20
5.0411773493
 11
5.5867954495
 21
5.0640940159
  0
LINE
  5
396
100
AcDbEntity
  8
03__ASM_ALL_CURVES
100
AcDbLine
 62
40
  6
CONTINUOUS
 10
5.4217954495
 20
5.0434690159
 11
5.5867954495
 21
5.0618023493
  0
LINE
  5
397
100
AcDbEntity
  8
03__ASM_ALL_CURVES
100
AcDbLine
 62
40
  6
CONTINUOUS
 10
5.4217954495
 20
5.0457606826
 11
5.5867954495
 21
5.0595106826
  0
LINE
  5
398
100
AcDbEntity
  8
03__ASM_ALL_CURVES
100
AcDbLine
 62
40
  6
CONTINUOUS
 10
5.4217954495
 20
5.0480523493
 11
5.5867954495
 21
5.0572190159
  0
LINE
  5
399
100
AcDbEntity
  8
03__ASM_ALL_CURVES
100
AcDbLine
 62
40
  6
CONTINUOUS
 10
4.2117954495
 20
5.0572190159
 11
4.1292954495
 21
5.0526356826
  0
LINE
  5
39A
100
AcDbEntity
  8
03__ASM_ALL_CURVES
100
AcDbLine
 62
40
  6
CONTINUOUS
 10
5.4217954495
 20
5.0503440159
 11
5.5867954495
 21
5.0549273493
  0
LINE
  5
39B
100
AcDbEntity
  8
03__ASM_ALL_CURVES
100
AcDbLine
 62
40
  6
CONTINUOUS
 10
4.2117954495
 20
5.0549273493
 11
4.1292954495
 21
5.0526356826
  0
LINE
  5
39C
100
AcDbEntity
  8
03__ASM_ALL_CURVES
100
AcDbLine
 62
40
  6
CONTINUOUS
 10
6.6799204491
 20
5.0801356826
 11
6.6455454491
 21
5.0801356826
  0
LINE
  5
39D
100
AcDbEntity
  8
03__ASM_ALL_CURVES
100
AcDbLine
 62
40
  6
CONTINUOUS
 10
6.5939829491
 20
5.0801356826
 11
6.5767954491
 21
5.0801356826
  0
LINE
  5
39E
100
AcDbEntity
  8
03__ASM_ALL_CURVES
100
AcDbLine
 62
40
  6
CONTINUOUS
 10
6.4607798241
 20
5.0801356826
 11
6.4521860741
 21
5.0801356826
  0
LINE
  5
39F
100
AcDbEntity
  8
03__ASM_ALL_CURVES
100
AcDbLine
 62
40
  6
CONTINUOUS
 10
6.3920298241
 20
5.0801356826
 11
6.3834360741
 21
5.0801356826
  0
LINE
  5
3A0
100
AcDbEntity
  8
03__ASM_ALL_CURVES
100
AcDbLine
 62
40
  6
CONTINUOUS
 10
6.2545298241
 20
5.0801356826
 11
6.2459360741
 21
5.0801356826
  0
LINE
  5
3A1
100
AcDbEntity
  8
03__ASM_ALL_CURVES
100
AcDbLine
 62
40
  6
CONTINUOUS
 10
6.1170298241
 20
5.0801356826
 11
6.1084360741
 21
5.0801356826
  0
LINE
  5
3A2
100
AcDbEntity
  8
03__ASM_ALL_CURVES
100
AcDbLine
 62
40
  6
CONTINUOUS
 10
5.7732798241
 20
5.0801356826
 11
5.7646860741
 21
5.0801356826
  0
LINE
  5
3A3
100
AcDbEntity
  8
03__ASM_ALL_CURVES
100
AcDbLine
 62
40
  6
CONTINUOUS
 10
5.7045298241
 20
5.0801356826
 11
5.6959360741
 21
5.0801356826
  0
LINE
  5
3A4
100
AcDbEntity
  8
03__ASM_ALL_CURVES
100
AcDbLine
 62
40
  6
CONTINUOUS
 10
4.9542954495
 20
5.0801356826
 11
4.9499985745
 21
5.0801356826
  0
LINE
  5
3A5
100
AcDbEntity
  8
03__ASM_ALL_CURVES
100
AcDbLine
 62
40
  6
CONTINUOUS
 10
4.8210923245
 20
5.0801356826
 11
4.8124985745
 21
5.0801356826
  0
LINE
  5
3A6
100
AcDbEntity
  8
03__ASM_ALL_CURVES
100
AcDbLine
 62
40
  6
CONTINUOUS
 10
4.6148423245
 20
5.0801356826
 11
4.6062485745
 21
5.0801356826
  0
LINE
  5
3A7
100
AcDbEntity
  8
03__ASM_ALL_CURVES
100
AcDbLine
 62
40
  6
CONTINUOUS
 10
4.5417954495
 20
5.0801356826
 11
4.5374985745
 21
5.0801356826
  0
LINE
  5
3A8
100
AcDbEntity
  8
03__ASM_ALL_CURVES
100
AcDbLine
 62
40
  6
CONTINUOUS
 10
5.6142954491
 20
5.0801356826
 11
5.6486704491
 21
5.0801356826
  0
LINE
  5
3A9
100
AcDbEntity
  8
03__ASM_ALL_CURVES
100
AcDbLine
 62
40
  6
CONTINUOUS
 10
6.5080454491
 20
5.0801356826
 11
6.5424204491
 21
5.0801356826
  0
LINE
  5
3AA
100
AcDbEntity
  8
03__ASM_ALL_CURVES
100
AcDbLine
 62
40
  6
CONTINUOUS
 10
4.8683579495
 20
5.0973231826
 11
4.9070298245
 21
5.0973231826
  0
LINE
  5
3AB
100
AcDbEntity
  8
03__ASM_ALL_CURVES
100
AcDbLine
 62
40
  6
CONTINUOUS
 10
5.8248423241
 20
5.1030523499
 11
5.8506235741
 21
5.1030523499
  0
LINE
  5
3AC
100
AcDbEntity
  8
03__ASM_ALL_CURVES
100
AcDbLine
 62
40
  6
CONTINUOUS
 10
6.7357798241
 20
5.1145106826
 11
6.7142954491
 21
5.1145106826
  0
LINE
  5
3AD
100
AcDbEntity
  8
03__ASM_ALL_CURVES
100
AcDbLine
 62
40
  6
CONTINUOUS
 10
6.1127329491
 20
5.1145106826
 11
6.1299204491
 21
5.1145106826
  0
LINE
  5
3AE
100
AcDbEntity
  8
03__ASM_ALL_CURVES
100
AcDbLine
 62
40
  6
CONTINUOUS
 10
6.3017954491
 20
5.1145106826
 11
6.3361704491
 21
5.1145106826
  0
LINE
  5
3AF
100
AcDbEntity
  8
03__ASM_ALL_CURVES
100
AcDbLine
 62
40
  6
CONTINUOUS
 10
6.6455454491
 20
5.1145106826
 11
6.6670298241
 21
5.1145106826
  0
LINE
  5
3B0
100
AcDbEntity
  8
03__ASM_ALL_CURVES
100
AcDbLine
 62
40
  6
CONTINUOUS
 10
4.6062485745
 20
5.1202398479
 11
4.6148423245
 21
5.1202398479
  0
LINE
  5
3B1
100
AcDbEntity
  8
03__ASM_ALL_CURVES
100
AcDbLine
 62
40
  6
CONTINUOUS
 10
4.8124985745
 20
5.1202398479
 11
4.8210923245
 21
5.1202398479
  0
LINE
  5
3B2
100
AcDbEntity
  8
03__ASM_ALL_CURVES
100
AcDbLine
 62
40
  6
CONTINUOUS
 10
6.2545298241
 20
5.1488856826
 11
6.2459360741
 21
5.1488856826
  0
LINE
  5
3B3
100
AcDbEntity
  8
03__ASM_ALL_CURVES
100
AcDbLine
 62
40
  6
CONTINUOUS
 10
5.0402329495
 20
5.1488856826
 11
5.0058579495
 21
5.1488856826
  0
LINE
  5
3B4
100
AcDbEntity
  8
03__ASM_ALL_CURVES
100
AcDbLine
 62
40
  6
CONTINUOUS
 10
4.6964829495
 20
5.1488856826
 11
4.6621079495
 21
5.1488856826
  0
LINE
  5
3B5
100
AcDbEntity
  8
03__ASM_ALL_CURVES
100
AcDbLine
 62
40
  6
CONTINUOUS
 10
4.6062485745
 20
5.1488856826
 11
4.6148423245
 21
5.1488856826
  0
LINE
  5
3B6
100
AcDbEntity
  8
03__ASM_ALL_CURVES
100
AcDbLine
 62
40
  6
CONTINUOUS
 10
4.8124985745
 20
5.1488856826
 11
4.8210923245
 21
5.1488856826
  0
LINE
  5
3B7
100
AcDbEntity
  8
03__ASM_ALL_CURVES
100
AcDbLine
 62
40
  6
CONTINUOUS
 10
5.6959360741
 20
5.1488856826
 11
5.7045298241
 21
5.1488856826
  0
LINE
  5
3B8
100
AcDbEntity
  8
03__ASM_ALL_CURVES
100
AcDbLine
 62
40
  6
CONTINUOUS
 10
5.7646860741
 20
5.1488856826
 11
5.7732798241
 21
5.1488856826
  0
LINE
  5
3B9
100
AcDbEntity
  8
03__ASM_ALL_CURVES
100
AcDbLine
 62
40
  6
CONTINUOUS
 10
5.8849985741
 20
5.1488856826
 11
5.9279673241
 21
5.1488856826
  0
LINE
  5
3BA
100
AcDbEntity
  8
03__ASM_ALL_CURVES
100
AcDbLine
 62
40
  6
CONTINUOUS
 10
6.1084360741
 20
5.1488856826
 11
6.1170298241
 21
5.1488856826
  0
LINE
  5
3BB
100
AcDbEntity
  8
03__ASM_ALL_CURVES
100
AcDbLine
 62
40
  6
CONTINUOUS
 10
6.3834360741
 20
5.1488856826
 11
6.3920298241
 21
5.1488856826
  0
LINE
  5
3BC
100
AcDbEntity
  8
03__ASM_ALL_CURVES
100
AcDbLine
 62
40
  6
CONTINUOUS
 10
6.5767954491
 20
5.1488856826
 11
6.5939829491
 21
5.1488856826
  0
LINE
  5
3BD
100
AcDbEntity
  8
03__ASM_ALL_CURVES
100
AcDbLine
 62
40
  6
CONTINUOUS
 10
6.6455454491
 20
5.1488856826
 11
6.6799204491
 21
5.1488856826
  0
LINE
  5
3BE
100
AcDbEntity
  8
03__ASM_ALL_CURVES
100
AcDbLine
 62
40
  6
CONTINUOUS
 10
6.7142954491
 20
5.1488856826
 11
6.7357798241
 21
5.1488856826
  0
LINE
  5
3BF
100
AcDbEntity
  8
03__ASM_ALL_CURVES
100
AcDbLine
 62
40
  6
CONTINUOUS
 10
7.3155259184
 20
4.2407616826
 11
7.3090806059
 21
4.2450585577
  0
LINE
  5
3C0
100
AcDbEntity
  8
03__ASM_ALL_CURVES
100
AcDbLine
 62
40
  6
CONTINUOUS
 10
7.2704087309
 20
4.2923241826
 11
7.2768540434
 21
4.2880273086
  0
LINE
  5
3C1
100
AcDbEntity
  8
03__ASM_ALL_CURVES
100
AcDbLine
 62
40
  6
CONTINUOUS
 10
6.1084360741
 20
5.0801356826
 11
6.0998423241
 21
5.0858648494
  0
LINE
  5
3C2
100
AcDbEntity
  8
03__ASM_ALL_CURVES
100
AcDbLine
 62
40
  6
CONTINUOUS
 10
7.3219712309
 20
4.2923241826
 11
7.3284165434
 21
4.2880273086
  0
LINE
  5
3C3
100
AcDbEntity
  8
03__ASM_ALL_CURVES
100
AcDbLine
 62
40
  6
CONTINUOUS
 10
7.3735337309
 20
4.2923241826
 11
7.3799790434
 21
4.2880273086
  0
LINE
  5
3C4
100
AcDbEntity
  8
03__ASM_ALL_CURVES
100
AcDbLine
 62
40
  6
CONTINUOUS
 10
6.1170298241
 20
5.1488856826
 11
6.1256235741
 21
5.1431565173
  0
LINE
  5
3C5
100
AcDbEntity
  8
0
100
AcDbLine
 62
7
  6
CONTINUOUS
 10
6.6232954495
 20
4.6600116826
 11
6.6197954495
 21
4.6635116826
  0
LINE
  5
3C6
100
AcDbEntity
  8
03__ASM_ALL_CURVES
100
AcDbLine
 62
40
  6
CONTINUOUS
 10
6.1256235741
 20
5.1431565173
 11
6.1299204491
 21
5.1374273479
  0
LINE
  5
3C7
100
AcDbEntity
  8
03__ASM_ALL_CURVES
100
AcDbLine
 62
40
  6
CONTINUOUS
 10
6.2373423241
 20
5.0858648494
 11
6.2287485741
 21
5.0973231826
  0
LINE
  5
3C8
100
AcDbEntity
  8
03__ASM_ALL_CURVES
100
AcDbLine
 62
40
  6
CONTINUOUS
 10
6.2330454491
 20
5.1316981826
 11
6.2373423241
 21
5.1259690173
  0
LINE
  5
3C9
100
AcDbEntity
  8
03__ASM_ALL_CURVES
100
AcDbLine
 62
40
  6
CONTINUOUS
 10
6.2631235741
 20
5.1087815152
 11
6.2674204491
 21
5.1030523499
  0
LINE
  5
3CA
100
AcDbEntity
  8
03__ASM_ALL_CURVES
100
AcDbLine
 62
40
  6
CONTINUOUS
 10
6.2674204491
 20
5.1374273479
 11
6.2631235741
 21
5.1431565173
  0
LINE
  5
3CB
100
AcDbEntity
  8
03__ASM_ALL_CURVES
100
AcDbLine
 62
40
  6
CONTINUOUS
 10
6.4092173241
 20
5.1316981826
 11
6.4135141991
 21
5.1145106826
  0
LINE
  5
3CC
100
AcDbEntity
  8
03__ASM_ALL_CURVES
100
AcDbLine
 62
40
  6
CONTINUOUS
 10
6.7142954491
 20
5.0801356826
 11
6.7142954491
 21
5.1488856826
  0
LINE
  5
3CD
100
AcDbEntity
  8
0
100
AcDbLine
 62
7
  6
CONTINUOUS
 10
6.7432954495
 20
3.7910123455
 11
6.7432954495
 21
4.6630110197
  0
LINE
  5
3CE
100
AcDbEntity
  8
03__ASM_ALL_CURVES
100
AcDbLine
 62
40
  6
CONTINUOUS
 10
6.7486704491
 20
5.1374273479
 11
6.7486704491
 21
5.1259690173
  0
LINE
  5
3CF
100
AcDbEntity
  8
0
100
AcDbLine
 62
7
  6
CONTINUOUS
 10
6.7932954495
 20
3.7910123455
 11
6.7932954495
 21
4.6630110197
  0
LINE
  5
3D0
100
AcDbEntity
  8
0
100
AcDbLine
 62
7
  6
CONTINUOUS
 10
6.8212954495
 20
3.7905116826
 11
6.8212954495
 21
4.6635116826
  0
LINE
  5
3D1
100
AcDbEntity
  8
03__ASM_ALL_CURVES
100
AcDbLine
 62
40
  6
CONTINUOUS
 10
6.3171860866
 20
3.4598241836
 11
6.3139634303
 21
3.4555273066
  0
LINE
  5
3D2
100
AcDbEntity
  8
03__ASM_ALL_CURVES
100
AcDbLine
 62
40
  6
CONTINUOUS
 10
6.3945298366
 20
3.4684179316
 11
6.3977524928
 21
3.4727148086
  0
LINE
  5
3D3
100
AcDbEntity
  8
03__ASM_ALL_CURVES
100
AcDbLine
 62
40
  6
CONTINUOUS
 10
6.4041978053
 20
3.4469335571
 11
6.3977524928
 21
3.4383398076
  0
LINE
  5
3D4
100
AcDbEntity
  8
03__ASM_ALL_CURVES
100
AcDbLine
 62
40
  6
CONTINUOUS
 10
6.4203110866
 20
3.4598241836
 11
6.4170884303
 21
3.4555273066
  0
LINE
  5
3D5
100
AcDbEntity
  8
0
100
AcDbLine
 62
7
  6
CONTINUOUS
 10
6.6232954495
 20
3.7940116826
 11
6.6197954495
 21
3.7905116826
  0
LINE
  5
3D6
100
AcDbEntity
  8
03__ASM_ALL_CURVES
100
AcDbLine
 62
40
  6
CONTINUOUS
 10
6.2108384303
 20
3.4555273066
 11
6.2043931178
 21
3.4512304326
  0
LINE
  5
3D7
100
AcDbEntity
  8
03__ASM_ALL_CURVES
100
AcDbLine
 62
40
  6
CONTINUOUS
 10
6.2430649928
 20
3.4727148086
 11
6.2495103053
 21
3.4770116826
  0
LINE
  5
3D8
100
AcDbEntity
  8
03__ASM_ALL_CURVES
100
AcDbLine
 62
40
  6
CONTINUOUS
 10
6.2624009303
 20
3.4297460577
 11
6.2559556178
 21
3.4254491826
  0
LINE
  5
3D9
100
AcDbEntity
  8
03__ASM_ALL_CURVES
100
AcDbLine
 62
40
  6
CONTINUOUS
 10
6.3139634303
 20
3.4555273066
 11
6.3075181178
 21
3.4512304326
  0
LINE
  5
3DA
100
AcDbEntity
  8
03__ASM_ALL_CURVES
100
AcDbLine
 62
40
  6
CONTINUOUS
 10
6.3977524928
 20
3.4727148086
 11
6.4041978053
 21
3.4770116826
  0
LINE
  5
3DB
100
AcDbEntity
  8
03__ASM_ALL_CURVES
100
AcDbLine
 62
40
  6
CONTINUOUS
 10
4.2117954495
 20
5.0640940159
 11
4.1292954495
 21
5.0526356826
  0
LINE
  5
3DC
100
AcDbEntity
  8
03__ASM_ALL_CURVES
100
AcDbLine
 62
40
  6
CONTINUOUS
 10
4.2117954495
 20
5.0618023493
 11
4.1292954495
 21
5.0526356826
  0
LINE
  5
3DD
100
AcDbEntity
  8
03__ASM_ALL_CURVES
100
AcDbLine
 62
40
  6
CONTINUOUS
 10
4.2117954495
 20
5.0595106826
 11
4.1292954495
 21
5.0526356826
  0
LINE
  5
3DE
100
AcDbEntity
  8
03__ASM_ALL_CURVES
100
AcDbLine
 62
40
  6
CONTINUOUS
 10
6.2459360741
 20
5.0801356826
 11
6.2373423241
 21
5.0858648494
  0
LINE
  5
3DF
100
AcDbEntity
  8
03__ASM_ALL_CURVES
100
AcDbLine
 62
40
  6
CONTINUOUS
 10
6.2373423241
 20
5.1259690173
 11
6.2631235741
 21
5.1087815152
  0
LINE
  5
3E0
100
AcDbEntity
  8
03__ASM_ALL_CURVES
100
AcDbLine
 62
40
  6
CONTINUOUS
 10
6.2631235741
 20
5.1431565173
 11
6.2545298241
 21
5.1488856826
  0
LINE
  5
3E1
100
AcDbEntity
  8
03__ASM_ALL_CURVES
100
AcDbLine
 62
40
  6
CONTINUOUS
 10
6.3834360741
 20
5.0801356826
 11
6.3748423241
 21
5.0858648494
  0
LINE
  5
3E2
100
AcDbEntity
  8
0
100
AcDbLine
 62
7
  6
CONTINUOUS
 10
6.8792954495
 20
4.6475116826
 11
6.8632954495
 21
4.6635116826
  0
LINE
  5
3E3
100
AcDbEntity
  8
03__ASM_ALL_CURVES
100
AcDbLine
 62
40
  6
CONTINUOUS
 10
6.3748423241
 20
5.0858648494
 11
6.3662485741
 21
5.0973231826
  0
LINE
  5
3E4
100
AcDbEntity
  8
03__ASM_ALL_CURVES
100
AcDbLine
 62
40
  6
CONTINUOUS
 10
6.4006235741
 20
5.1431565173
 11
6.4092173241
 21
5.1316981826
  0
LINE
  5
3E5
100
AcDbEntity
  8
03__ASM_ALL_CURVES
100
AcDbLine
 62
40
  6
CONTINUOUS
 10
6.4435923241
 20
5.0858648494
 11
6.4392954491
 21
5.0915940163
  0
LINE
  5
3E6
100
AcDbEntity
  8
03__ASM_ALL_CURVES
100
AcDbLine
 62
40
  6
CONTINUOUS
 10
6.6111704491
 20
5.1316981826
 11
6.6154673241
 21
5.1145106826
  0
LINE
  5
3E7
100
AcDbEntity
  8
0
100
AcDbLine
 62
7
  6
CONTINUOUS
 10
6.8632954495
 20
3.7905116826
 11
6.8632954495
 21
4.6635116826
  0
LINE
  5
3E8
100
AcDbEntity
  8
0
100
AcDbLine
 62
7
  6
CONTINUOUS
 10
6.8792954495
 20
3.8065116826
 11
6.8792954495
 21
4.6475116826
  0
LINE
  5
3E9
100
AcDbEntity
  8
0
100
AcDbLine
 62
7
  6
CONTINUOUS
 10
6.8792954495
 20
3.8065116826
 11
6.8632954495
 21
3.7905116826
  0
LINE
  5
3EA
100
AcDbEntity
  8
03__ASM_ALL_CURVES
100
AcDbLine
 62
40
  6
CONTINUOUS
 10
6.4170884303
 20
3.4555273066
 11
6.4041978053
 21
3.4469335571
  0
LINE
  5
3EB
100
AcDbEntity
  8
03__ASM_ALL_CURVES
100
AcDbLine
 62
40
  6
CONTINUOUS
 10
4.1292954495
 20
5.0526356826
 11
4.2117954495
 21
5.0663856826
  0
LINE
  5
3EC
100
AcDbEntity
  8
03__ASM_ALL_CURVES
100
AcDbLine
 62
40
  6
CONTINUOUS
 10
6.4521860741
 20
5.0801356826
 11
6.4435923241
 21
5.0858648494
  0
LINE
  5
3ED
100
AcDbEntity
  8
03__ASM_ALL_CURVES
100
AcDbLine
 62
40
  6
CONTINUOUS
 10
6.3920298241
 20
5.1488856826
 11
6.4006235741
 21
5.1431565173
  0
LINE
  5
3EE
100
AcDbEntity
  8
03__ASM_ALL_CURVES
100
AcDbLine
 62
40
  6
CONTINUOUS
 10
7.2800766997
 20
4.2751366836
 11
7.2768540434
 21
4.2708398066
  0
LINE
  5
3EF
100
AcDbEntity
  8
03__ASM_ALL_CURVES
100
AcDbLine
 62
40
  6
CONTINUOUS
 10
7.3026352934
 20
4.2794335576
 11
7.3090806059
 21
4.2880273086
  0
LINE
  5
3F0
100
AcDbEntity
  8
03__ASM_ALL_CURVES
100
AcDbLine
 62
40
  6
CONTINUOUS
 10
7.3348618559
 20
4.2536523076
 11
7.3284165434
 21
4.2450585577
  0
LINE
  5
3F1
100
AcDbEntity
  8
03__ASM_ALL_CURVES
100
AcDbLine
 62
40
  6
CONTINUOUS
 10
6.5939829491
 20
5.1488856826
 11
6.6025766991
 21
5.1431565173
  0
LINE
  5
3F2
100
AcDbEntity
  8
03__ASM_ALL_CURVES
100
AcDbLine
 62
40
  6
CONTINUOUS
 10
6.7357798241
 20
5.1488856826
 11
6.7443735741
 21
5.1431565173
  0
LINE
  5
3F3
100
AcDbEntity
  8
03__ASM_ALL_CURVES
100
AcDbLine
 62
40
  6
CONTINUOUS
 10
6.6025766991
 20
5.1431565173
 11
6.6111704491
 21
5.1316981826
  0
LINE
  5
3F4
100
AcDbEntity
  8
03__ASM_ALL_CURVES
100
AcDbLine
 62
40
  6
CONTINUOUS
 10
7.3090806059
 20
4.2450585577
 11
7.3026352934
 21
4.2536523076
  0
LINE
  5
3F5
100
AcDbEntity
  8
03__ASM_ALL_CURVES
100
AcDbLine
 62
40
  6
CONTINUOUS
 10
7.2768540434
 20
4.2880273086
 11
7.2800766997
 21
4.2837304316
  0
LINE
  5
3F6
100
AcDbEntity
  8
03__ASM_ALL_CURVES
100
AcDbLine
 62
40
  6
CONTINUOUS
 10
7.3284165434
 20
4.2880273086
 11
7.3348618559
 21
4.2794335576
  0
LINE
  5
3F7
100
AcDbEntity
  8
03__ASM_ALL_CURVES
100
AcDbLine
 62
40
  6
CONTINUOUS
 10
7.3799790434
 20
4.2880273086
 11
7.3832016997
 21
4.2837304316
  0
LINE
  5
3F8
100
AcDbEntity
  8
03__ASM_ALL_CURVES
100
AcDbLine
 62
40
  6
CONTINUOUS
 10
6.7443735741
 20
5.1431565173
 11
6.7486704491
 21
5.1374273479
  0
LINE
  5
3F9
100
AcDbEntity
  8
03__ASM_ALL_CURVES
100
AcDbLine
 62
40
  6
CONTINUOUS
 10
6.7357798241
 20
5.1145106826
 11
6.7486704491
 21
5.0801356826
  0
LINE
  5
3FA
100
AcDbEntity
  8
03__ASM_ALL_CURVES
100
AcDbLine
 62
40
  6
CONTINUOUS
 10
7.3832016997
 20
4.2751366836
 11
7.3799790434
 21
4.2708398066
  0
LINE
  5
3FB
100
AcDbEntity
  8
03__ASM_ALL_CURVES
100
AcDbLine
 62
40
  6
CONTINUOUS
 10
7.2542954497
 20
4.2407616826
 11
7.2542954497
 21
4.2923241826
  0
LINE
  5
3FC
100
AcDbEntity
  8
03__ASM_ALL_CURVES
100
AcDbLine
 62
40
  6
CONTINUOUS
 10
7.2800766997
 20
4.2837304316
 11
7.2800766997
 21
4.2751366836
  0
LINE
  5
3FD
100
AcDbEntity
  8
03__ASM_ALL_CURVES
100
AcDbLine
 62
40
  6
CONTINUOUS
 10
7.2994126372
 20
4.2665429326
 11
7.3026352934
 21
4.2794335576
  0
LINE
  5
3FE
100
AcDbEntity
  8
03__ASM_ALL_CURVES
100
AcDbLine
 62
40
  6
CONTINUOUS
 10
7.3380845122
 20
4.2665429326
 11
7.3348618559
 21
4.2536523076
  0
LINE
  5
3FF
100
AcDbEntity
  8
03__ASM_ALL_CURVES
100
AcDbLine
 62
40
  6
CONTINUOUS
 10
7.3735337309
 20
4.2665429326
 11
7.3832016997
 21
4.2407616826
  0
LINE
  5
400
100
AcDbEntity
  8
03__ASM_ALL_CURVES
100
AcDbLine
 62
40
  6
CONTINUOUS
 10
7.3026352934
 20
4.2536523076
 11
7.2994126372
 21
4.2665429326
  0
LINE
  5
401
100
AcDbEntity
  8
03__ASM_ALL_CURVES
100
AcDbLine
 62
40
  6
CONTINUOUS
 10
7.3348618559
 20
4.2794335576
 11
7.3380845122
 21
4.2665429326
  0
LINE
  5
402
100
AcDbEntity
  8
03__ASM_ALL_CURVES
100
AcDbLine
 62
40
  6
CONTINUOUS
 10
7.3574204497
 20
4.2407616826
 11
7.3574204497
 21
4.2923241826
  0
LINE
  5
403
100
AcDbEntity
  8
03__ASM_ALL_CURVES
100
AcDbLine
 62
40
  6
CONTINUOUS
 10
7.3832016997
 20
4.2837304316
 11
7.3832016997
 21
4.2751366836
  0
LINE
  5
404
100
AcDbEntity
  8
03__ASM_ALL_CURVES
100
AcDbLine
 62
40
  6
CONTINUOUS
 10
7.4218735747
 20
4.2923241826
 11
7.4218735747
 21
4.2407616826
  0
LINE
  5
405
100
AcDbEntity
  8
03__ASM_ALL_CURVES
100
AcDbLine
 62
40
  6
CONTINUOUS
 10
7.4734360747
 20
4.2923241826
 11
7.4734360747
 21
4.2407616826
  0
CIRCLE
  5
406
100
AcDbEntity
  8
0
100
AcDbCircle
 62
7
  6
CONTINUOUS
 10
6.4722954495
 20
4.2270116826
 40
0.078
  0
ARC
  5
407
100
AcDbEntity
  8
THREAD
100
AcDbCircle
 62
7
  6
CONTINUOUS
 10
5.6850785711
 20
3.7565116826
 40
0.0125
100
AcDbArc
 50
29.9999999998
 51
90.0
  0
ARC
  5
408
100
AcDbEntity
  8
THREAD
100
AcDbCircle
 62
7
  6
CONTINUOUS
 10
5.6850785711
 20
4.6975116826
 40
0.0125
100
AcDbArc
 50
270.0
 51
330.0000000054
  0
SPLINE
  5
409
100
AcDbEntity
  8
0
100
AcDbSpline
 62
7
  6
CONTINUOUS
 70
0
 71
3
 72
15
 73
11
 74
9
 42
0.0000001
 43
0.0000001
 44
0.0000000001
 12
0.0
 22
0.1099409465
 32
0.0
 13
0.0
 23
-0.1099409465
 33
0.0
 40
0.0
 40
0.0
 40
0.0
 40
0.0
 40
0.125
 40
0.25
 40
0.375
 40
0.5
 40
0.625
 40
0.75
 40
0.875
 40
1.0
 40
1.0
 40
1.0
 40
1.0
 10
6.7432954495
 20
4.6440116826
 30
0.0
 10
6.7432954495
 20
4.6485925554
 30
0.0
 10
6.741473065
 20
4.6577543009
 30
0.0
 10
6.733688497
 20
4.6694047302
 30
0.0
 10
6.7220380678
 20
4.6771892981
 30
0.0
 10
6.7082954495
 20
4.6799228748
 30
0.0
 10
6.6945528312
 20
4.6771892981
 30
0.0
 10
6.6829024019
 20
4.6694047302
 30
0.0
 10
6.675117834
 20
4.6577543009
 30
0.0
 10
6.6732954495
 20
4.6485925554
 30
0.0
 10
6.6732954495
 20
4.6440116826
 30
0.0
 11
6.7432954495
 21
4.6440116826
 31
0.0
 11
6.7406312331
 21
4.6574056027
 31
0.0
 11
6.7330441868
 21
4.6687604199
 31
0.0
 11
6.7216893696
 21
4.6763474662
 31
0.0
 11
6.7082954495
 21
4.6790116826
 31
0.0
 11
6.6949015293
 21
4.6763474662
 31
0.0
 11
6.6835467121
 21
4.6687604199
 31
0.0
 11
6.6759596658
 21
4.6574056027
 31
0.0
 11
6.6732954495
 21
4.6440116826
 31
0.0
  0
SPLINE
  5
40A
100
AcDbEntity
  8
0
100
AcDbSpline
 62
7
  6
CONTINUOUS
 70
0
 71
3
 72
15
 73
11
 74
9
 42
0.0000001
 43
0.0000001
 44
0.0000000001
 12
0.0
 22
-0.1099409465
 32
0.0
 13
0.0
 23
0.1099409465
 33
0.0
 40
0.0
 40
0.0
 40
0.0
 40
0.0
 40
0.125
 40
0.25
 40
0.375
 40
0.5
 40
0.625
 40
0.75
 40
0.875
 40
1.0
 40
1.0
 40
1.0
 40
1.0
 10
6.7432954495
 20
3.8100116826
 30
0.0
 10
6.7432954495
 20
3.8054308098
 30
0.0
 10
6.741473065
 20
3.7962690643
 30
0.0
 10
6.733688497
 20
3.784618635
 30
0.0
 10
6.7220380678
 20
3.7768340671
 30
0.0
 10
6.7082954495
 20
3.7741004903
 30
0.0
 10
6.6945528312
 20
3.7768340671
 30
0.0
 10
6.6829024019
 20
3.784618635
 30
0.0
 10
6.675117834
 20
3.7962690643
 30
0.0
 10
6.6732954495
 20
3.8054308098
 30
0.0
 10
6.6732954495
 20
3.8100116826
 30
0.0
 11
6.7432954495
 21
3.8100116826
 31
0.0
 11
6.7406312331
 21
3.7966177625
 31
0.0
 11
6.7330441868
 21
3.7852629453
 31
0.0
 11
6.7216893696
 21
3.777675899
 31
0.0
 11
6.7082954495
 21
3.7750116826
 31
0.0
 11
6.6949015293
 21
3.777675899
 31
0.0
 11
6.6835467121
 21
3.7852629453
 31
0.0
 11
6.6759596658
 21
3.7966177625
 31
0.0
 11
6.6732954495
 21
3.8100116826
 31
0.0
  0
SPLINE
  5
40B
100
AcDbEntity
  8
0
100
AcDbSpline
 62
7
  6
CONTINUOUS
 70
0
 71
3
 72
14
 73
10
 74
8
 42
0.0000001
 43
0.0000001
 44
0.0000000001
 12
0.0
 22
0.0916172274
 32
0.0
 13
-0.045846371
 23
-0.079336773
 33
0.0
 40
0.0
 40
0.0
 40
0.0
 40
0.0
 40
0.1500003733
 40
0.3000007465
 40
0.4500011198
 40
0.6000014931
 40
0.7500018663
 40
0.9000022396
 40
1.0
 40
1.0
 40
1.0
 40
1.0
 10
5.6212954495
 20
4.7200116826
 30
0.0
 10
5.6212954495
 20
4.7245925554
 30
0.0
 10
5.619473065
 20
4.7337543009
 30
0.0
 10
5.611688497
 20
4.7454047302
 30
0.0
 10
5.6000380678
 20
4.7531892981
 30
0.0
 10
5.5862954495
 20
4.7559228748
 30
0.0
 10
5.5725528312
 20
4.7531892981
 30
0.0
 10
5.5621969585
 20
4.7462697252
 30
0.0
 10
5.5575142772
 20
4.7401552933
 30
0.0
 10
5.555986099
 20
4.7375107934
 30
0.0
 11
5.6212954495
 21
4.7200116826
 31
0.0
 11
5.6186312331
 21
4.7334056027
 31
0.0
 11
5.6110441868
 21
4.7447604199
 31
0.0
 11
5.5996893696
 21
4.7523474662
 31
0.0
 11
5.5862954495
 21
4.7550116826
 31
0.0
 11
5.5729015293
 21
4.7523474662
 31
0.0
 11
5.5615467121
 21
4.7447604199
 31
0.0
 11
5.555986099
 21
4.7375107934
 31
0.0
  0
SPLINE
  5
40C
100
AcDbEntity
  8
0
100
AcDbSpline
 62
7
  6
CONTINUOUS
 70
0
 71
3
 72
9
 73
5
 74
3
 42
0.0000001
 43
0.0000001
 44
0.0000000001
 12
-0.0091694111
 22
-0.0158675915
 32
0.0
 13
0.0
 23
-0.0183237191
 33
0.0
 40
0.0
 40
0.0
 40
0.0
 40
0.0
 40
0.2500093315
 40
1.0
 40
1.0
 40
1.0
 40
1.0
 10
5.555986099
 20
4.7375107934
 30
0.0
 10
5.5552219529
 20
4.7361884448
 30
0.0
 10
5.5525103876
 20
4.7307004617
 30
0.0
 10
5.5512954495
 20
4.7245925554
 30
0.0
 10
5.5512954495
 20
4.7200116826
 30
0.0
 11
5.555986099
 21
4.7375107934
 31
0.0
 11
5.5539596658
 21
4.7334056027
 31
0.0
 11
5.5512954495
 21
4.7200116826
 31
0.0
  0
SPLINE
  5
40D
100
AcDbEntity
  8
0
100
AcDbSpline
 62
7
  6
CONTINUOUS
 70
0
 71
3
 72
14
 73
10
 74
8
 42
0.0000001
 43
0.0000001
 44
0.0000000001
 12
0.0
 22
-0.0916172274
 32
0.0
 13
-0.045846371
 23
0.079336773
 33
0.0
 40
0.0
 40
0.0
 40
0.0
 40
0.0
 40
0.1500003733
 40
0.3000007465
 40
0.4500011198
 40
0.6000014931
 40
0.7500018663
 40
0.9000022396
 40
1.0
 40
1.0
 40
1.0
 40
1.0
 10
5.6212954495
 20
3.7340116826
 30
0.0
 10
5.6212954495
 20
3.7294308098
 30
0.0
 10
5.619473065
 20
3.7202690643
 30
0.0
 10
5.611688497
 20
3.708618635
 30
0.0
 10
5.6000380678
 20
3.7008340671
 30
0.0
 10
5.5862954495
 20
3.6981004903
 30
0.0
 10
5.5725528312
 20
3.7008340671
 30
0.0
 10
5.5621969585
 20
3.70775364
 30
0.0
 10
5.5575142772
 20
3.7138680719
 30
0.0
 10
5.555986099
 20
3.7165125718
 30
0.0
 11
5.6212954495
 21
3.7340116826
 31
0.0
 11
5.6186312331
 21
3.7206177625
 31
0.0
 11
5.6110441868
 21
3.7092629453
 31
0.0
 11
5.5996893696
 21
3.701675899
 31
0.0
 11
5.5862954495
 21
3.6990116826
 31
0.0
 11
5.5729015293
 21
3.701675899
 31
0.0
 11
5.5615467121
 21
3.7092629453
 31
0.0
 11
5.555986099
 21
3.7165125718
 31
0.0
  0
SPLINE
  5
40E
100
AcDbEntity
  8
0
100
AcDbSpline
 62
7
  6
CONTINUOUS
 70
0
 71
3
 72
9
 73
5
 74
3
 42
0.0000001
 43
0.0000001
 44
0.0000000001
 12
-0.0091694111
 22
0.0158675915
 32
0.0
 13
0.0
 23
0.0183237191
 33
0.0
 40
0.0
 40
0.0
 40
0.0
 40
0.0
 40
0.2500093315
 40
1.0
 40
1.0
 40
1.0
 40
1.0
 10
5.555986099
 20
3.7165125718
 30
0.0
 10
5.5552219529
 20
3.7178349204
 30
0.0
 10
5.5525103876
 20
3.7233229035
 30
0.0
 10
5.5512954495
 20
3.7294308098
 30
0.0
 10
5.5512954495
 20
3.7340116826
 30
0.0
 11
5.555986099
 21
3.7165125718
 31
0.0
 11
5.5539596658
 21
3.7206177625
 31
0.0
 11
5.5512954495
 21
3.7340116826
 31
0.0
  0
SPLINE
  5
40F
100
AcDbEntity
  8
0
100
AcDbSpline
 62
7
  6
CONTINUOUS
 70
0
 71
3
 72
15
 73
11
 74
9
 42
0.0000001
 43
0.0000001
 44
0.0000000001
 12
0.0
 22
0.1099409465
 32
0.0
 13
-0.0
 23
-0.1099409465
 33
0.0
 40
0.0
 40
0.0
 40
0.0
 40
0.0
 40
0.125
 40
0.25
 40
0.375
 40
0.5
 40
0.625
 40
0.75
 40
0.875
 40
1.0
 40
1.0
 40
1.0
 40
1.0
 10
4.9992954495
 20
4.7445116826
 30
0.0
 10
4.9992954495
 20
4.7490925554
 30
0.0
 10
4.997473065
 20
4.7582543009
 30
0.0
 10
4.989688497
 20
4.7699047302
 30
0.0
 10
4.9780380678
 20
4.7776892981
 30
0.0
 10
4.9642954495
 20
4.7804228748
 30
0.0
 10
4.9505528312
 20
4.7776892981
 30
0.0
 10
4.9389024019
 20
4.7699047302
 30
0.0
 10
4.931117834
 20
4.7582543009
 30
0.0
 10
4.9292954495
 20
4.7490925554
 30
0.0
 10
4.9292954495
 20
4.7445116826
 30
0.0
 11
4.9992954495
 21
4.7445116826
 31
0.0
 11
4.9966312331
 21
4.7579056027
 31
0.0
 11
4.9890441868
 21
4.7692604199
 31
0.0
 11
4.9776893696
 21
4.7768474662
 31
0.0
 11
4.9642954495
 21
4.7795116826
 31
0.0
 11
4.9509015293
 21
4.7768474662
 31
0.0
 11
4.9395467121
 21
4.7692604199
 31
0.0
 11
4.9319596658
 21
4.7579056027
 31
0.0
 11
4.9292954495
 21
4.7445116826
 31
0.0
  0
SPLINE
  5
410
100
AcDbEntity
  8
0
100
AcDbSpline
 62
7
  6
CONTINUOUS
 70
0
 71
3
 72
15
 73
11
 74
9
 42
0.0000001
 43
0.0000001
 44
0.0000000001
 12
0.0
 22
-0.1099409465
 32
0.0
 13
-0.0
 23
0.1099409465
 33
0.0
 40
0.0
 40
0.0
 40
0.0
 40
0.0
 40
0.125
 40
0.25
 40
0.375
 40
0.5
 40
0.625
 40
0.75
 40
0.875
 40
1.0
 40
1.0
 40
1.0
 40
1.0
 10
4.9992954495
 20
3.7095116826
 30
0.0
 10
4.9992954495
 20
3.7049308098
 30
0.0
 10
4.997473065
 20
3.6957690643
 30
0.0
 10
4.989688497
 20
3.684118635
 30
0.0
 10
4.9780380678
 20
3.6763340671
 30
0.0
 10
4.9642954495
 20
3.6736004903
 30
0.0
 10
4.9505528312
 20
3.6763340671
 30
0.0
 10
4.9389024019
 20
3.684118635
 30
0.0
 10
4.931117834
 20
3.6957690643
 30
0.0
 10
4.9292954495
 20
3.7049308098
 30
0.0
 10
4.9292954495
 20
3.7095116826
 30
0.0
 11
4.9992954495
 21
3.7095116826
 31
0.0
 11
4.9966312331
 21
3.6961177625
 31
0.0
 11
4.9890441868
 21
3.6847629453
 31
0.0
 11
4.9776893696
 21
3.677175899
 31
0.0
 11
4.9642954495
 21
3.6745116826
 31
0.0
 11
4.9509015293
 21
3.677175899
 31
0.0
 11
4.9395467121
 21
3.6847629453
 31
0.0
 11
4.9319596658
 21
3.6961177625
 31
0.0
 11
4.9292954495
 21
3.7095116826
 31
0.0
  0
SPLINE
  5
411
100
AcDbEntity
  8
0
100
AcDbSpline
 62
7
  6
CONTINUOUS
 70
0
 71
3
 72
11
 73
7
 74
5
 42
0.0000001
 43
0.0000001
 44
0.0000000001
 12
0.0491825023
 22
0.0
 32
0.0
 13
0.0353053096
 23
-0.034352711
 33
0.0
 40
0.0
 40
0.0
 40
0.0
 40
0.0
 40
0.2634262803
 40
0.5337091681
 40
0.8019467143
 40
1.0
 40
1.0
 40
1.0
 40
1.0
 10
6.4342954495
 20
4.1681294211
 30
0.0
 10
6.438614104
 20
4.1681294211
 30
0.0
 10
6.4473904479
 20
4.1672105502
 30
0.0
 10
6.459982921
 20
4.1631201666
 30
0.0
 10
6.4705332898
 20
4.1570734449
 30
0.0
 10
6.4764232663
 20
4.152148128
 30
0.0
 10
6.4787540438
 20
4.1498802389
 30
0.0
 11
6.4342954495
 21
4.1681294211
 31
0.0
 11
6.4471812641
 21
4.1667830273
 31
0.0
 11
6.4598279962
 21
4.1626880261
 31
0.0
 11
6.4712774903
 21
4.1561341254
 31
0.0
 11
6.4787540438
 21
4.1498802389
 31
0.0
  0
SPLINE
  5
412
100
AcDbEntity
  8
0
100
AcDbSpline
 62
7
  6
CONTINUOUS
 70
0
 71
3
 72
8
 73
4
 74
2
 42
0.0000001
 43
0.0000001
 44
0.0000000001
 12
-0.0116261481
 22
0.0
 32
0.0
 13
-0.0114522036
 23
-0.0021604707
 33
0.0
 40
0.0
 40
0.0
 40
0.0
 40
0.0
 40
1.0
 40
1.0
 40
1.0
 40
1.0
 10
6.4342954495
 20
4.1681294211
 30
0.0
 10
6.4304200668
 20
4.1681294211
 30
0.0
 10
6.4265340843
 20
4.1677642024
 30
0.0
 10
6.4227166831
 20
4.1670440455
 30
0.0
 11
6.4342954495
 21
4.1681294211
 31
0.0
 11
6.4227166831
 21
4.1670440455
 31
0.0
  0
SPLINE
  5
413
100
AcDbEntity
  8
0
100
AcDbSpline
 62
7
  6
CONTINUOUS
 70
0
 71
3
 72
8
 73
4
 74
2
 42
0.0000001
 43
0.0000001
 44
0.0000000001
 12
0.0114462814
 22
-0.002158196
 32
0.0
 13
0.0116200157
 23
0.0
 33
0.0
 40
0.0
 40
0.0
 40
0.0
 40
0.0
 40
1.0
 40
1.0
 40
1.0
 40
1.0
 10
6.4227227741
 20
4.2869781661
 30
0.0
 10
6.4265382012
 20
4.2862587674
 30
0.0
 10
6.4304221109
 20
4.2858939441
 30
0.0
 10
6.4342954495
 20
4.2858939441
 30
0.0
 11
6.4227227741
 21
4.2869781661
 31
0.0
 11
6.4342954495
 21
4.2858939441
 31
0.0
  0
SPLINE
  5
414
100
AcDbEntity
  8
0
100
AcDbSpline
 62
7
  6
CONTINUOUS
 70
0
 71
3
 72
11
 73
7
 74
5
 42
0.0000001
 43
0.0000001
 44
0.0000000001
 12
-0.0353061177
 22
-0.0343579847
 32
0.0
 13
-0.0491866425
 23
0.0
 33
0.0
 40
0.0
 40
0.0
 40
0.0
 40
0.0
 40
0.1976939749
 40
0.4656794135
 40
0.7361958059
 40
1.0
 40
1.0
 40
1.0
 40
1.0
 10
6.4787570764
 20
4.3041460773
 30
0.0
 10
6.4764304742
 20
4.3018819551
 30
0.0
 10
6.4705487297
 20
4.2969615828
 30
0.0
 10
6.4600055396
 20
4.2909132071
 30
0.0
 10
6.4474078835
 20
4.2868153671
 30
0.0
 10
6.4386206637
 20
4.2858939441
 30
0.0
 10
6.4342954495
 20
4.2858939441
 30
0.0
 11
6.4787570764
 21
4.3041460773
 31
0.0
 11
6.4712946468
 21
4.297901535
 31
0.0
 11
6.4598576606
 21
4.2913485112
 31
0.0
 11
6.447200623
 21
4.2872444245
 31
0.0
 11
6.4342954495
 21
4.2858939441
 31
0.0
  0
SPLINE
  5
415
100
AcDbEntity
  8
0
100
AcDbSpline
 62
7
  6
CONTINUOUS
 70
0
 71
3
 72
21
 73
17
 74
15
 42
0.0000001
 43
0.0000001
 44
0.0000000001
 12
0.1538241878
 22
-0.0320810267
 32
0.0
 13
0.1538241899
 23
0.0320810268
 33
0.0
 40
0.0
 40
0.0
 40
0.0
 40
0.0
 40
0.0125713878
 40
0.0505366358
 40
0.1108576316
 40
0.1887929575
 40
0.2838628972
 40
0.3902953086
 40
0.499950768
 40
0.6096869373
 40
0.7162042868
 40
0.8112055134
 40
0.8891097768
 40
0.9495104275
 40
0.9874505007
 40
1.0
 40
1.0
 40
1.0
 40
1.0
 10
6.3942954495
 20
4.6010116826
 30
0.0
 10
6.394940044
 20
4.6008772483
 30
0.0
 10
6.3975325832
 20
4.6003429664
 30
0.0
 10
6.4032307507
 20
4.5992254891
 30
0.0
 10
6.4123212846
 20
4.5976212468
 30
0.0
 10
6.4244121201
 20
4.5958275538
 30
0.0
 10
6.4389605923
 20
4.5941913863
 30
0.0
 10
6.4552243428
 20
4.5930549143
 30
0.0
 10
6.4722919353
 20
4.5926519878
 30
0.0
 10
6.4893639977
 20
4.5930545938
 30
0.0
 10
6.5056328125
 20
4.5941915942
 30
0.0
 10
6.5201804836
 20
4.5958278692
 30
0.0
 10
6.5322702873
 20
4.597621323
 30
0.0
 10
6.541362027
 20
4.5992258066
 30
0.0
 10
6.5470618546
 20
4.6003436873
 30
0.0
 10
6.5496519773
 20
4.6008774823
 30
0.0
 10
6.5502954495
 20
4.6010116826
 30
0.0
 11
6.3942954495
 21
4.6010116826
 31
0.0
 11
6.3962301878
 21
4.6006129728
 31
0.0
 11
6.4020843619
 21
4.5994651654
 31
0.0
 11
6.4114187833
 21
4.5978188676
 31
0.0
 11
6.4235327787
 21
4.5960236039
 31
0.0
 11
6.4383782235
 21
4.5943567223
 31
0.0
 11
6.4550618738
 21
4.5931933262
 31
0.0
 11
6.472287711
 21
4.5927875703
 31
0.0
 11
6.489526237
 21
4.593193195
 31
0.0
 11
6.5062231895
 21
4.5943576933
 31
0.0
 11
6.5210578818
 21
4.5960235724
 31
0.0
 11
6.5331670613
 21
4.5978180379
 31
0.0
 11
6.5425138044
 21
4.5994665354
 31
0.0
 11
6.5483640814
 21
4.600613659
 31
0.0
 11
6.5502954495
 21
4.6010116826
 31
0.0
  0
SPLINE
  5
416
100
AcDbEntity
  8
0
100
AcDbSpline
 62
7
  6
CONTINUOUS
 70
0
 71
3
 72
21
 73
17
 74
15
 42
0.0000001
 43
0.0000001
 44
0.0000000001
 12
0.1538241899
 22
0.0320810268
 32
0.0
 13
0.1538241878
 23
-0.0320810267
 33
0.0
 40
0.0
 40
0.0
 40
0.0
 40
0.0
 40
0.0125494993
 40
0.0504895725
 40
0.1108902232
 40
0.1887944866
 40
0.2837957132
 40
0.3903130627
 40
0.500049232
 40
0.6097046914
 40
0.7161371028
 40
0.8112070425
 40
0.8891423684
 40
0.9494633642
 40
0.9874286122
 40
1.0
 40
1.0
 40
1.0
 40
1.0
 10
6.3942954495
 20
3.8530116826
 30
0.0
 10
6.3949389217
 20
3.8531458829
 30
0.0
 10
6.3975290443
 20
3.8536796778
 30
0.0
 10
6.4032288719
 20
3.8547975586
 30
0.0
 10
6.4123206117
 20
3.8564020422
 30
0.0
 10
6.4244104153
 20
3.858195496
 30
0.0
 10
6.4389580864
 20
3.859831771
 30
0.0
 10
6.4552269012
 20
3.8609687714
 30
0.0
 10
6.4722989636
 20
3.8613713773
 30
0.0
 10
6.4893665562
 20
3.8609684509
 30
0.0
 10
6.5056303066
 20
3.8598319789
 30
0.0
 10
6.5201787789
 20
3.8581958114
 30
0.0
 10
6.5322696143
 20
3.8564021184
 30
0.0
 10
6.5413601482
 20
3.8547978761
 30
0.0
 10
6.5470583157
 20
3.8536803988
 30
0.0
 10
6.549650855
 20
3.8531461169
 30
0.0
 10
6.5502954495
 20
3.8530116826
 30
0.0
 11
6.3942954495
 21
3.8530116826
 31
0.0
 11
6.3962268175
 21
3.8534097062
 31
0.0
 11
6.4020770945
 21
3.8545568298
 31
0.0
 11
6.4114238377
 21
3.8562053273
 31
0.0
 11
6.4235330171
 21
3.8579997928
 31
0.0
 11
6.4383677094
 21
3.8596656719
 31
0.0
 11
6.4550646619
 21
3.8608301702
 31
0.0
 11
6.472303188
 21
3.8612357948
 31
0.0
 11
6.4895290252
 21
3.860830039
 31
0.0
 11
6.5062126754
 21
3.8596666429
 31
0.0
 11
6.5210581202
 21
3.8579997613
 31
0.0
 11
6.5331721156
 21
3.8562044976
 31
0.0
 11
6.5425065371
 21
3.8545581998
 31
0.0
 11
6.5483607112
 21
3.8534103924
 31
0.0
 11
6.5502954495
 21
3.8530116826
 31
0.0
  0
SPLINE
  5
417
100
AcDbEntity
  8
127-310_FEATURES
100
AcDbSpline
 62
7
  6
CONTINUOUS
 70
0
 71
3
 72
13
 73
9
 74
7
 42
0.0000001
 43
0.0000001
 44
0.0000000001
 12
0.020101211
 22
-0.0000068994
 32
0.0
 13
0.0200928334
 23
-0.0005804902
 33
0.0
 40
0.0
 40
0.0
 40
0.0
 40
0.0
 40
0.210821465
 40
0.416040742
 40
0.607430819
 40
0.7793529971
 40
0.9231133797
 40
1.0
 40
1.0
 40
1.0
 40
1.0
 10
5.0866643976
 20
3.7693460986
 30
0.0
 10
5.0880769865
 20
3.7693456137
 30
0.0
 10
5.090864632
 20
3.769336003
 30
0.0
 10
5.0949345032
 20
3.769297363
 30
0.0
 10
5.0987434743
 20
3.769239525
 30
0.0
 10
5.1021403769
 20
3.769170449
 30
0.0
 10
5.1047699501
 20
3.7691053366
 30
0.0
 10
5.1062478035
 20
3.7690642119
 30
0.0
 10
5.1067627602
 20
3.7690493346
 30
0.0
 11
5.0866643976
 21
3.7693460986
 31
0.0
 11
5.0909021396
 21
3.7693315457
 31
0.0
 11
5.0950271104
 21
3.7692924354
 31
0.0
 11
5.0988738402
 21
3.7692340668
 31
0.0
 11
5.1023289707
 21
3.7691638378
 31
0.0
 11
5.1052178436
 21
3.7690923228
 31
0.0
 11
5.1067627602
 21
3.7690493346
 31
0.0
  0
SPLINE
  5
418
100
AcDbEntity
  8
127-310_FEATURES
100
AcDbSpline
 62
7
  6
CONTINUOUS
 70
0
 71
3
 72
8
 73
4
 74
2
 42
0.0000001
 43
0.0000001
 44
0.0000000001
 12
0.0004288873
 22
-0.0000123907
 32
0.0
 13
0.0004288799
 23
-0.0000126435
 33
0.0
 40
0.0
 40
0.0
 40
0.0
 40
0.0
 40
1.0
 40
1.0
 40
1.0
 40
1.0
 10
5.1067627602
 20
3.7690493346
 30
0.0
 10
5.1069057226
 20
3.7690452044
 30
0.0
 10
5.1070486838
 20
3.769041032
 30
0.0
 10
5.1071916437
 20
3.7690368175
 30
0.0
 11
5.1067627602
 21
3.7690493346
 31
0.0
 11
5.1071916437
 21
3.7690368175
 31
0.0
  0
SPLINE
  5
419
100
AcDbEntity
  8
127-310_FEATURES
100
AcDbSpline
 62
7
  6
CONTINUOUS
 70
0
 71
3
 72
9
 73
5
 74
3
 42
0.0000001
 43
0.0000001
 44
0.0000000001
 12
0.0008363235
 22
-0.0000246551
 32
0.0
 13
0.0008362946
 23
-0.0000256142
 33
0.0
 40
0.0
 40
0.0
 40
0.0
 40
0.0
 40
0.0699755317
 40
1.0
 40
1.0
 40
1.0
 40
1.0
 10
5.1071916437
 20
3.7690368175
 30
0.0
 10
5.1072111511
 20
3.7690362424
 30
0.0
 10
5.1074899253
 20
3.7690280128
 30
0.0
 10
5.1077686947
 20
3.7690196232
 30
0.0
 10
5.1080279529
 20
3.7690116826
 30
0.0
 11
5.1071916437
 21
3.7690368175
 31
0.0
 11
5.1072501659
 21
3.7690350899
 31
0.0
 11
5.1080279529
 21
3.7690116826
 31
0.0
  0
SPLINE
  5
41A
100
AcDbEntity
  8
127-310_FEATURES
100
AcDbSpline
 62
7
  6
CONTINUOUS
 70
0
 71
3
 72
8
 73
4
 74
2
 42
0.0000001
 43
0.0000001
 44
0.0000000001
 12
0.0002650782
 22
0.0010184961
 32
0.0
 13
0.0002653818
 23
0.001018417
 33
0.0
 40
0.0
 40
0.0
 40
0.0
 40
0.0
 40
1.0
 40
1.0
 40
1.0
 40
1.0
 10
5.0807517729
 20
3.7469454668
 30
0.0
 10
5.0808401323
 20
3.7472849655
 30
0.0
 10
5.0809285421
 20
3.7476244511
 30
0.0
 10
5.0810170027
 20
3.7479639235
 30
0.0
 11
5.0807517729
 21
3.7469454668
 31
0.0
 11
5.0810170027
 21
3.7479639235
 31
0.0
  0
SPLINE
  5
41B
100
AcDbEntity
  8
127-310_FEATURES
100
AcDbSpline
 62
7
  6
CONTINUOUS
 70
0
 71
3
 72
12
 73
8
 74
6
 42
0.0000001
 43
0.0000001
 44
0.0000000001
 12
0.0055766691
 22
0.0214007704
 32
0.0
 13
0.0057217683
 23
0.0213624336
 33
0.0
 40
0.0
 40
0.0
 40
0.0
 40
0.0
 40
0.0012924664
 40
0.1431341589
 40
0.3647494705
 40
0.6538862259
 40
1.0
 40
1.0
 40
1.0
 40
1.0
 10
5.0810170027
 20
3.7479639235
 30
0.0
 10
5.0810194052
 20
3.7479731434
 30
0.0
 10
5.08128548
 20
3.7489942027
 30
0.0
 10
5.0819646905
 20
3.7515958681
 30
0.0
 10
5.0831853352
 20
3.7562492337
 30
0.0
 10
5.0847984154
 20
3.7623564515
 30
0.0
 10
5.08600427
 20
3.7668814877
 30
0.0
 10
5.0866643976
 20
3.7693460986
 30
0.0
 11
5.0810170027
 21
3.7479639235
 31
0.0
 11
5.0810242105
 21
3.7479915832
 31
0.0
 11
5.0818166024
 21
3.7510267427
 31
0.0
 11
5.0830602016
 21
3.7557674616
 31
0.0
 11
5.0846932202
 21
3.7619498066
 31
0.0
 11
5.0866643976
 21
3.7693460986
 31
0.0
  0
SPLINE
  5
41C
100
AcDbEntity
  8
0
100
AcDbSpline
 62
7
  6
CONTINUOUS
 70
0
 71
3
 72
15
 73
11
 74
9
 42
0.0000001
 43
0.0000001
 44
0.0000000001
 12
-0.144303637
 22
0.2708573861
 32
0.0
 13
0.144303637
 23
0.2708573861
 33
0.0
 40
0.0
 40
0.0
 40
0.0
 40
0.0
 40
0.1355060615
 40
0.2616268072
 40
0.3821382325
 40
0.5000411188
 40
0.6179405518
 40
0.7384429083
 40
0.8645194725
 40
1.0
 40
1.0
 40
1.0
 40
1.0
 10
4.1749061207
 20
3.5936263731
 30
0.0
 10
4.1683881149
 20
3.6058606457
 30
0.0
 10
4.1567548499
 20
3.6300156265
 30
0.0
 10
4.1435468676
 20
3.6668980553
 30
0.0
 10
4.1354503977
 20
3.7034171918
 30
0.0
 10
4.1327080025
 20
3.7398990243
 30
0.0
 10
4.1354540322
 20
3.776379629
 30
0.0
 10
4.1435522617
 20
3.8128923751
 30
0.0
 10
4.156759003
 20
3.8497665808
 30
0.0
 10
4.1683893431
 20
3.8739150249
 30
0.0
 10
4.1749061207
 20
3.8861469921
 30
0.0
 11
4.1749061207
 21
3.5936263731
 31
0.0
 11
4.1570324705
 21
3.631176194
 31
0.0
 11
4.1441496899
 21
3.6676757591
 31
0.0
 11
4.1362765705
 21
3.7038129416
 31
0.0
 11
4.1336160504
 21
3.7398993284
 31
0.0
 11
4.1362800928
 21
3.7759843926
 31
0.0
 11
4.1441556059
 21
3.8121182049
 31
0.0
 11
4.1570354861
 21
3.8486044146
 31
0.0
 11
4.1749061207
 21
3.8861469921
 31
0.0
  0
SPLINE
  5
41D
100
AcDbEntity
  8
0
100
AcDbSpline
 62
7
  6
CONTINUOUS
 70
0
 71
3
 72
15
 73
11
 74
9
 42
0.0000001
 43
0.0000001
 44
0.0000000001
 12
0.144303637
 22
0.2708573861
 32
0.0
 13
-0.144303637
 23
0.2708573861
 33
0.0
 40
0.0
 40
0.0
 40
0.0
 40
0.0
 40
0.1355060615
 40
0.2616268072
 40
0.3821382325
 40
0.5000411188
 40
0.6179405518
 40
0.7384429083
 40
0.8645194725
 40
1.0
 40
1.0
 40
1.0
 40
1.0
 10
4.6368698236
 20
3.5936263731
 30
0.0
 10
4.6433878295
 20
3.6058606457
 30
0.0
 10
4.6550210944
 20
3.6300156265
 30
0.0
 10
4.6682290768
 20
3.6668980553
 30
0.0
 10
4.6763255467
 20
3.7034171918
 30
0.0
 10
4.6790679419
 20
3.7398990243
 30
0.0
 10
4.6763219122
 20
3.776379629
 30
0.0
 10
4.6682236827
 20
3.8128923751
 30
0.0
 10
4.6550169414
 20
3.8497665808
 30
0.0
 10
4.6433866012
 20
3.8739150249
 30
0.0
 10
4.6368698236
 20
3.8861469921
 30
0.0
 11
4.6368698236
 21
3.5936263731
 31
0.0
 11
4.6547434739
 21
3.631176194
 31
0.0
 11
4.6676262545
 21
3.6676757591
 31
0.0
 11
4.6754993739
 21
3.7038129416
 31
0.0
 11
4.678159894
 21
3.7398993284
 31
0.0
 11
4.6754958515
 21
3.7759843926
 31
0.0
 11
4.6676203384
 21
3.8121182049
 31
0.0
 11
4.6547404583
 21
3.8486044146
 31
0.0
 11
4.6368698236
 21
3.8861469921
 31
0.0
  0
SPLINE
  5
41E
100
AcDbEntity
  8
0
100
AcDbSpline
 62
7
  6
CONTINUOUS
 70
0
 71
3
 72
15
 73
11
 74
9
 42
0.0000001
 43
0.0000001
 44
0.0000000001
 12
-0.1524995809
 22
0.5724822844
 32
0.0
 13
0.1524995809
 23
0.5724822844
 33
0.0
 40
0.0
 40
0.0
 40
0.0
 40
0.0
 40
0.1303027146
 40
0.2554233163
 40
0.3781382012
 40
0.500042666
 40
0.6219428883
 40
0.7446469008
 40
0.8697222521
 40
1.0
 40
1.0
 40
1.0
 40
1.0
 10
4.1749061207
 20
3.9344910637
 30
0.0
 10
4.1682824176
 20
3.9593563956
 30
0.0
 10
4.1565106258
 20
4.0084355202
 30
0.0
 10
4.1434103878
 20
4.0820011402
 30
0.0
 10
4.1354163082
 20
4.15463923
 30
0.0
 10
4.1327179985
 20
4.2270361603
 30
0.0
 10
4.1354198917
 20
4.2994307978
 30
0.0
 10
4.1434157822
 20
4.3720566688
 30
0.0
 10
4.1565149003
 20
4.4456061668
 30
0.0
 10
4.1682836868
 20
4.494671734
 30
0.0
 10
4.1749061207
 20
4.5195323015
 30
0.0
 11
4.1749061207
 21
3.9344910637
 31
0.0
 11
4.1570324705
 21
4.0095907054
 31
0.0
 11
4.1441496899
 21
4.0825898356
 31
0.0
 11
4.1362765705
 21
4.1548642005
 31
0.0
 11
4.1336160504
 21
4.2270369741
 31
0.0
 11
4.1362800928
 21
4.2992071026
 31
0.0
 11
4.1441556059
 21
4.3714747273
 31
0.0
 11
4.1570354861
 21
4.4444471466
 31
0.0
 11
4.1749061207
 21
4.5195323015
 31
0.0
  0
SPLINE
  5
41F
100
AcDbEntity
  8
0
100
AcDbSpline
 62
7
  6
CONTINUOUS
 70
0
 71
3
 72
15
 73
11
 74
9
 42
0.0000001
 43
0.0000001
 44
0.0000000001
 12
0.1524995809
 22
0.5724822844
 32
0.0
 13
-0.1524995809
 23
0.5724822844
 33
0.0
 40
0.0
 40
0.0
 40
0.0
 40
0.0
 40
0.1303027146
 40
0.2554233163
 40
0.3781382012
 40
0.500042666
 40
0.6219428883
 40
0.7446469008
 40
0.8697222521
 40
1.0
 40
1.0
 40
1.0
 40
1.0
 10
4.6368698236
 20
3.9344910637
 30
0.0
 10
4.6434935268
 20
3.9593563956
 30
0.0
 10
4.6552653185
 20
4.0084355202
 30
0.0
 10
4.6683655566
 20
4.0820011402
 30
0.0
 10
4.6763596361
 20
4.15463923
 30
0.0
 10
4.6790579458
 20
4.2270361603
 30
0.0
 10
4.6763560527
 20
4.2994307978
 30
0.0
 10
4.6683601622
 20
4.3720566688
 30
0.0
 10
4.6552610441
 20
4.4456061668
 30
0.0
 10
4.6434922576
 20
4.494671734
 30
0.0
 10
4.6368698236
 20
4.5195323015
 30
0.0
 11
4.6368698236
 21
3.9344910637
 31
0.0
 11
4.6547434739
 21
4.0095907054
 31
0.0
 11
4.6676262545
 21
4.0825898356
 31
0.0
 11
4.6754993739
 21
4.1548642005
 31
0.0
 11
4.678159894
 21
4.2270369741
 31
0.0
 11
4.6754958515
 21
4.2992071026
 31
0.0
 11
4.6676203384
 21
4.3714747273
 31
0.0
 11
4.6547404583
 21
4.4444471466
 31
0.0
 11
4.6368698236
 21
4.5195323015
 31
0.0
  0
SPLINE
  5
420
100
AcDbEntity
  8
0
100
AcDbSpline
 62
7
  6
CONTINUOUS
 70
0
 71
3
 72
15
 73
11
 74
9
 42
0.0000001
 43
0.0000001
 44
0.0000000001
 12
-0.144303637
 22
0.2708573861
 32
0.0
 13
0.144303637
 23
0.2708573861
 33
0.0
 40
0.0
 40
0.0
 40
0.0
 40
0.0
 40
0.1355060615
 40
0.2616268072
 40
0.3821382325
 40
0.5000411188
 40
0.6179405518
 40
0.7384429083
 40
0.8645194725
 40
1.0
 40
1.0
 40
1.0
 40
1.0
 10
4.1749061207
 20
4.5678763731
 30
0.0
 10
4.1683881149
 20
4.5801106457
 30
0.0
 10
4.1567548499
 20
4.6042656265
 30
0.0
 10
4.1435468676
 20
4.6411480553
 30
0.0
 10
4.1354503977
 20
4.6776671918
 30
0.0
 10
4.1327080025
 20
4.7141490243
 30
0.0
 10
4.1354540322
 20
4.750629629
 30
0.0
 10
4.1435522617
 20
4.7871423751
 30
0.0
 10
4.156759003
 20
4.8240165808
 30
0.0
 10
4.1683893431
 20
4.8481650249
 30
0.0
 10
4.1749061207
 20
4.8603969921
 30
0.0
 11
4.1749061207
 21
4.5678763731
 31
0.0
 11
4.1570324705
 21
4.605426194
 31
0.0
 11
4.1441496899
 21
4.6419257591
 31
0.0
 11
4.1362765705
 21
4.6780629416
 31
0.0
 11
4.1336160504
 21
4.7141493284
 31
0.0
 11
4.1362800928
 21
4.7502343926
 31
0.0
 11
4.1441556059
 21
4.7863682049
 31
0.0
 11
4.1570354861
 21
4.8228544146
 31
0.0
 11
4.1749061207
 21
4.8603969921
 31
0.0
  0
SPLINE
  5
421
100
AcDbEntity
  8
0
100
AcDbSpline
 62
7
  6
CONTINUOUS
 70
0
 71
3
 72
15
 73
11
 74
9
 42
0.0000001
 43
0.0000001
 44
0.0000000001
 12
0.144303637
 22
0.2708573861
 32
0.0
 13
-0.144303637
 23
0.2708573861
 33
0.0
 40
0.0
 40
0.0
 40
0.0
 40
0.0
 40
0.1355060615
 40
0.2616268072
 40
0.3821382325
 40
0.5000411188
 40
0.6179405518
 40
0.7384429083
 40
0.8645194725
 40
1.0
 40
1.0
 40
1.0
 40
1.0
 10
4.6368698236
 20
4.5678763731
 30
0.0
 10
4.6433878295
 20
4.5801106457
 30
0.0
 10
4.6550210944
 20
4.6042656265
 30
0.0
 10
4.6682290768
 20
4.6411480553
 30
0.0
 10
4.6763255467
 20
4.6776671918
 30
0.0
 10
4.6790679419
 20
4.7141490243
 30
0.0
 10
4.6763219122
 20
4.750629629
 30
0.0
 10
4.6682236827
 20
4.7871423751
 30
0.0
 10
4.6550169414
 20
4.8240165808
 30
0.0
 10
4.6433866012
 20
4.8481650249
 30
0.0
 10
4.6368698236
 20
4.8603969921
 30
0.0
 11
4.6368698236
 21
4.5678763731
 31
0.0
 11
4.6547434739
 21
4.605426194
 31
0.0
 11
4.6676262545
 21
4.6419257591
 31
0.0
 11
4.6754993739
 21
4.6780629416
 31
0.0
 11
4.678159894
 21
4.7141493284
 31
0.0
 11
4.6754958515
 21
4.7502343926
 31
0.0
 11
4.6676203384
 21
4.7863682049
 31
0.0
 11
4.6547404583
 21
4.8228544146
 31
0.0
 11
4.6368698236
 21
4.8603969921
 31
0.0
  0
ENDSEC
  0
SECTION
  2
OBJECTS
  0
DICTIONARY
  5
C
100
AcDbDictionary
280
0
281
1
  3
ACAD_GROUP
350
D
  3
ACAD_MLINESTYLE
350
17
  3
ACAD_LAYOUT
350
1A
  3
ACAD_PLOTSETTINGS
350
19
  3
ACAD_PLOTSTYLENAME
350
E
  0
DICTIONARY
  5
D
102
{ACAD_REACTORS
330
C
102
}
100
AcDbDictionary
280
0
281
1
  0
ACDBDICTIONARYWDFLT
  5
E
102
{ACAD_REACTORS
330
C
102
}
100
AcDbDictionary
281
1
  3
Normal
350
F
100
AcDbDictionaryWithDefault
340
F
  0
DICTIONARY
  5
17
102
{ACAD_REACTORS
330
C
102
}
100
AcDbDictionary
280
0
281
1
  3
Standard
350
18
  0
DICTIONARY
  5
19
102
{ACAD_REACTORS
330
C
102
}
100
AcDbDictionary
281
1
  0
DICTIONARY
  5
1A
102
{ACAD_REACTORS
330
C
102
}
100
AcDbDictionary
281
1
  3
Layout1
350
1E
  3
Model
350
22
  0
ACDBPLACEHOLDER
  5
F
102
{ACAD_REACTORS
330
E
102
}
  0
MLINESTYLE
  5
18
102
{ACAD_REACTORS
330
17
102
}
100
AcDbMlineStyle
  2
STANDARD
 70
0
  3

 62
256
 51
90.0
 52
90.0
 71
2
 49
0.5
 62
256
  6
BYLAYER
 49
-0.5
 62
256
  6
BYLAYER
  0
LAYOUT
  5
1E
102
{ACAD_REACTORS
330
1A
102
}
100
AcDbPlotSettings
  1

  2

  4

  6

 40
0.0
 41
0.0
 42
0.0
 43
0.0
 44
0.0
 45
0.0
 46
0.0
 47
0.0
 48
0.0
 49
0.0
140
0.0
141
0.0
142
1.0
143
1.0
 70
0
 72
0
 73
0
 74
0
  7

 75
0
147
1.0
148
0.0
149
0.0
100
AcDbLayout
  1
Layout1
 70
0
 71
0
 10
0.0
 20
0.0
 11
0.0
 21
0.0
 12
0.0
 22
0.0
 32
0.0
 14
0.0
 24
0.0
 34
0.0
 15
0.0
 25
0.0
 35
0.0
146
0.0
 13
0.0
 23
0.0
 33
0.0
 16
0.0
 26
0.0
 36
0.0
 17
0.0
 27
0.0
 37
0.0
 76
0
330
1B
331
0
345
0
346
0
  0
LAYOUT
  5
22
102
{ACAD_REACTORS
330
1A
102
}
100
AcDbPlotSettings
  1

  2

  4

  6

 40
0.0
 41
0.0
 42
0.0
 43
0.0
 44
0.0
 45
0.0
 46
0.0
 47
0.0
 48
0.0
 49
0.0
140
0.0
141
0.0
142
1.0
143
1.0
 70
0
 72
0
 73
0
 74
0
  7

 75
0
147
1.0
148
0.0
149
0.0
100
AcDbLayout
  1
Model
 70
0
 71
0
 10
0.0
 20
0.0
 11
0.0
 21
0.0
 12
0.0
 22
0.0
 32
0.0
 14
0.0
 24
0.0
 34
0.0
 15
0.0
 25
0.0
 35
0.0
146
0.0
 13
0.0
 23
0.0
 33
0.0
 16
0.0
 26
0.0
 36
0.0
 17
0.0
 27
0.0
 37
0.0
 76
0
330
1F
331
0
345
0
346
0
  0
ENDSEC
  0
EOF
