999
DXF file: LPDC-XHN.dxf
999
Pro/ENGINEER 2006240 by Parametric Technology Corporation
  0
SECTION
  2
HEADER
  9
$ACADVER
  1
AC1015
  9
$DWGCODEPAGE
  3
ANSI_1252
  9
$EXTMAX
 10
11.6929133858
 20
8.2677165354
 30
0.0
  9
$EXTMIN
 10
0.0
 20
0.0
 30
0.0
  9
$LIMMIN
 10
0.0
 20
0.0
  9
$LIMMAX
 10
11.6929133858
 20
8.2677165354
  9
$VIEWCTR
 10
5.8464566929
 20
4.1338582677
  9
$VIEWSIZE
 40
8.2677165354
  9
$CLAYER
  8
0
  9
$LTSCALE
 40
0.6431102362
  9
$CELTYPE
  6
BYLAYER
  9
$DIMSCALE
 40
1.0
  9
$DIMASZ
 40
0.1875
  9
$DIMEXO
 40
0.0730807087
  9
$DIMDLI
 40
0.4443307087
  9
$DIMEXE
 40
0.2104724409
  9
$DIMCEN
 40
0.1052362205
  9
$DIMLFAC
 40
1.0
  9
$DIMBLK
  1
_CLOSED
  9
$DIMTXT
 40
0.15625
  9
$DIMTOL
 70
0
  9
$DIMLIM
 70
0
  9
$DIMTFAC
 40
1.0
  9
$PDMODE
 70
3
  9
$PDSIZE
 40
0.3125
  9
$HANDSEED
  5
44A
  9
$MEASUREMENT
 70
0
  9
$INSUNITS
 70
1
  0
ENDSEC
  0
SECTION
  2
CLASSES
  0
CLASS
  1
ACDBDICTIONARYWDFLT
  2
AcDbDictionaryWithDefault
  3
AutoCAD 2000
 90
0
280
0
281
0
  0
CLASS
  1
ACDBPLACEHOLDER
  2
AcDbPlaceHolder
  3
AutoCAD 2000
 90
0
280
0
281
0
  0
CLASS
  1
LAYOUT
  2
AcDbLayout
  3
AutoCAD 2000
 90
0
280
0
281
0
  0
ENDSEC
  0
SECTION
  2
TABLES
  0
TABLE
  2
VPORT
  5
8
100
AcDbSymbolTable
 70
2
  0
VPORT
  5
1F4
100
AcDbSymbolTableRecord
100
AcDbViewportTableRecord
  2
*ACTIVE
 70
0
 10
0.0
 20
0.0
 11
1.0
 21
1.0
 12
5.8464566929
 22
4.1338582677
 13
0.0
 23
0.0
 14
1.0
 24
1.0
 15
0.0
 25
0.0
 16
0.0
 26
0.0
 36
1.0
 17
0.0
 27
0.0
 37
0.0
 40
8.2677165354
 41
1.4142857143
 42
50.0
 43
0.0
 44
0.0
 50
0.0
 51
0.0
 71
0
 72
100
 73
1
 74
1
 75
0
 76
0
 77
0
 78
0
  0
ENDTAB
  0
TABLE
  2
LTYPE
  5
5
100
AcDbSymbolTable
 70
6
  0
LTYPE
  5
14
100
AcDbSymbolTableRecord
100
AcDbLinetypeTableRecord
  2
BYBLOCK
 70
0
  3

 72
65
 73
0
 40
0.0
  0
LTYPE
  5
15
100
AcDbSymbolTableRecord
100
AcDbLinetypeTableRecord
  2
BYLAYER
 70
0
  3

 72
65
 73
0
 40
0.0
  0
LTYPE
  5
16
100
AcDbSymbolTableRecord
100
AcDbLinetypeTableRecord
  2
CONTINUOUS
 70
64
  3
Solid line
 72
65
 73
0
 40
0.0
  0
LTYPE
  5
1F5
100
AcDbSymbolTableRecord
100
AcDbLinetypeTableRecord
  2
CENTER
 70
64
  3
____ _ ____ _ ____ _ ____ _ ____ _ ____ _ ____
 72
65
 73
4
 40
0.6
 49
0.375
 74
0
 49
-0.075
 74
0
 49
0.075
 74
0
 49
-0.075
 74
0
  0
LTYPE
  5
1F6
100
AcDbSymbolTableRecord
100
AcDbLinetypeTableRecord
  2
HIDDEN
 70
64
  3
- - - - - - - - - - - - - - - - - - - -
 72
65
 73
2
 40
0.2
 49
0.1
 74
0
 49
-0.1
 74
0
  0
LTYPE
  5
1F7
100
AcDbSymbolTableRecord
100
AcDbLinetypeTableRecord
  2
PHANTOM
 70
64
  3
_____ _ _ _____ _ _ _____ _ _ _____
 72
65
 73
6
 40
0.8
 49
0.45
 74
0
 49
-0.05
 74
0
 49
0.1
 74
0
 49
-0.05
 74
0
 49
0.1
 74
0
 49
-0.05
 74
0
  0
LTYPE
  5
1F8
100
AcDbSymbolTableRecord
100
AcDbLinetypeTableRecord
  2
DOT
 70
64
  3
. . . . . . . . . . . . . . . . . . . .
 72
65
 73
2
 40
0.2
 49
0.1
 74
0
 49
-0.1
 74
0
  0
LTYPE
  5
1F9
100
AcDbSymbolTableRecord
100
AcDbLinetypeTableRecord
  2
DASHED
 70
64
  3
- - - - - - - - - - - - - - - - - - - -
 72
65
 73
2
 40
0.2
 49
0.1
 74
0
 49
-0.1
 74
0
  0
ENDTAB
  0
TABLE
  2
LAYER
  5
2
100
AcDbSymbolTable
 70
36
  0
LAYER
  5
10
100
AcDbSymbolTableRecord
100
AcDbLayerTableRecord
  2
0
 70
0
 62
7
  6
CONTINUOUS
370
-3
390
F
  0
LAYER
  5
1FA
100
AcDbSymbolTableRecord
100
AcDbLayerTableRecord
  2
DEFAULT_1
 70
0
 62
7
  6
CENTER
370
-3
390
F
  0
LAYER
  5
1FB
100
AcDbSymbolTableRecord
100
AcDbLayerTableRecord
  2
DEFAULT_2
 70
0
 62
8
  6
HIDDEN
370
-3
390
F
  0
LAYER
  5
1FC
100
AcDbSymbolTableRecord
100
AcDbLayerTableRecord
  2
DEFAULT_3
 70
0
 62
7
  6
PHANTOM
370
-3
390
F
  0
LAYER
  5
1FD
100
AcDbSymbolTableRecord
100
AcDbLayerTableRecord
  2
_BLACK_HOLE
 70
0
 62
7
  6
CONTINUOUS
370
-3
390
F
  0
LAYER
  5
1FE
100
AcDbSymbolTableRecord
100
AcDbLayerTableRecord
  2
01_ALL_DTM_PLN
 70
0
 62
7
  6
CONTINUOUS
370
-3
390
F
  0
LAYER
  5
1FF
100
AcDbSymbolTableRecord
100
AcDbLayerTableRecord
  2
01__ASM_ALL_DTM_PLN
 70
0
 62
7
  6
CONTINUOUS
370
-3
390
F
  0
LAYER
  5
200
100
AcDbSymbolTableRecord
100
AcDbLayerTableRecord
  2
01__ASM_DEF_DTM_PLN
 70
0
 62
7
  6
CONTINUOUS
370
-3
390
F
  0
LAYER
  5
201
100
AcDbSymbolTableRecord
100
AcDbLayerTableRecord
  2
01___PRT_ALL_DTM_PLN
 70
0
 62
7
  6
CONTINUOUS
370
-3
390
F
  0
LAYER
  5
202
100
AcDbSymbolTableRecord
100
AcDbLayerTableRecord
  2
01___PRT_DEF_DTM_PLN
 70
0
 62
7
  6
CONTINUOUS
370
-3
390
F
  0
LAYER
  5
203
100
AcDbSymbolTableRecord
100
AcDbLayerTableRecord
  2
02_ALL_AXES
 70
0
 62
7
  6
CONTINUOUS
370
-3
390
F
  0
LAYER
  5
204
100
AcDbSymbolTableRecord
100
AcDbLayerTableRecord
  2
02__ASM_ALL_AXES
 70
0
 62
7
  6
CONTINUOUS
370
-3
390
F
  0
LAYER
  5
205
100
AcDbSymbolTableRecord
100
AcDbLayerTableRecord
  2
02___PRT_ALL_AXES
 70
0
 62
7
  6
CONTINUOUS
370
-3
390
F
  0
LAYER
  5
206
100
AcDbSymbolTableRecord
100
AcDbLayerTableRecord
  2
03_ALL_CURVES
 70
0
 62
7
  6
CONTINUOUS
370
-3
390
F
  0
LAYER
  5
207
100
AcDbSymbolTableRecord
100
AcDbLayerTableRecord
  2
03__ASM_ALL_CURVES
 70
0
 62
7
  6
CONTINUOUS
370
-3
390
F
  0
LAYER
  5
208
100
AcDbSymbolTableRecord
100
AcDbLayerTableRecord
  2
03___PRT_ALL_CURVES
 70
0
 62
7
  6
CONTINUOUS
370
-3
390
F
  0
LAYER
  5
209
100
AcDbSymbolTableRecord
100
AcDbLayerTableRecord
  2
04_ALL_DTM_PNT
 70
0
 62
7
  6
CONTINUOUS
370
-3
390
F
  0
LAYER
  5
20A
100
AcDbSymbolTableRecord
100
AcDbLayerTableRecord
  2
04__ASM_ALL_DTM_PNT
 70
0
 62
7
  6
CONTINUOUS
370
-3
390
F
  0
LAYER
  5
20B
100
AcDbSymbolTableRecord
100
AcDbLayerTableRecord
  2
04___PRT_ALL_DTM_PNT
 70
0
 62
7
  6
CONTINUOUS
370
-3
390
F
  0
LAYER
  5
20C
100
AcDbSymbolTableRecord
100
AcDbLayerTableRecord
  2
05_ALL_DTM_CSYS
 70
0
 62
7
  6
CONTINUOUS
370
-3
390
F
  0
LAYER
  5
20D
100
AcDbSymbolTableRecord
100
AcDbLayerTableRecord
  2
05__ASM_ALL_DTM_CSYS
 70
0
 62
7
  6
CONTINUOUS
370
-3
390
F
  0
LAYER
  5
20E
100
AcDbSymbolTableRecord
100
AcDbLayerTableRecord
  2
05__ASM_DEF_DTM_CSYS
 70
0
 62
7
  6
CONTINUOUS
370
-3
390
F
  0
LAYER
  5
20F
100
AcDbSymbolTableRecord
100
AcDbLayerTableRecord
  2
05___PRT_ALL_DTM_CSYS
 70
0
 62
7
  6
CONTINUOUS
370
-3
390
F
  0
LAYER
  5
210
100
AcDbSymbolTableRecord
100
AcDbLayerTableRecord
  2
05___PRT_DEF_DTM_CSYS
 70
0
 62
7
  6
CONTINUOUS
370
-3
390
F
  0
LAYER
  5
211
100
AcDbSymbolTableRecord
100
AcDbLayerTableRecord
  2
06_ALL_SURFS
 70
0
 62
7
  6
CONTINUOUS
370
-3
390
F
  0
LAYER
  5
212
100
AcDbSymbolTableRecord
100
AcDbLayerTableRecord
  2
06__ASM_ALL_SURFS
 70
0
 62
7
  6
CONTINUOUS
370
-3
390
F
  0
LAYER
  5
213
100
AcDbSymbolTableRecord
100
AcDbLayerTableRecord
  2
06___PRT_ALL_SURFS
 70
0
 62
7
  6
CONTINUOUS
370
-3
390
F
  0
LAYER
  5
214
100
AcDbSymbolTableRecord
100
AcDbLayerTableRecord
  2
07__ASM_ALL_SKELETONS
 70
0
 62
7
  6
CONTINUOUS
370
-3
390
F
  0
LAYER
  5
215
100
AcDbSymbolTableRecord
100
AcDbLayerTableRecord
  2
126-300_HEX_FEATURES
 70
0
 62
7
  6
CONTINUOUS
370
-3
390
F
  0
LAYER
  5
216
100
AcDbSymbolTableRecord
100
AcDbLayerTableRecord
  2
126-300_REF_GEOMETRY
 70
0
 62
7
  6
CONTINUOUS
370
-3
390
F
  0
LAYER
  5
217
100
AcDbSymbolTableRecord
100
AcDbLayerTableRecord
  2
126-301_HEX_FEATURES
 70
0
 62
7
  6
CONTINUOUS
370
-3
390
F
  0
LAYER
  5
218
100
AcDbSymbolTableRecord
100
AcDbLayerTableRecord
  2
126-301_REF_GEOMETRY
 70
0
 62
7
  6
CONTINUOUS
370
-3
390
F
  0
LAYER
  5
219
100
AcDbSymbolTableRecord
100
AcDbLayerTableRecord
  2
126-302_HEX_FEATURES
 70
0
 62
7
  6
CONTINUOUS
370
-3
390
F
  0
LAYER
  5
21A
100
AcDbSymbolTableRecord
100
AcDbLayerTableRecord
  2
126-302_REF_GEOMETRY
 70
0
 62
7
  6
CONTINUOUS
370
-3
390
F
  0
LAYER
  5
21B
100
AcDbSymbolTableRecord
100
AcDbLayerTableRecord
  2
126-303_HEX_FEATURES
 70
0
 62
7
  6
CONTINUOUS
370
-3
390
F
  0
LAYER
  5
21C
100
AcDbSymbolTableRecord
100
AcDbLayerTableRecord
  2
126-303_REF_GEOMETRY
 70
0
 62
7
  6
CONTINUOUS
370
-3
390
F
  0
LAYER
  5
21D
100
AcDbSymbolTableRecord
100
AcDbLayerTableRecord
  2
BSPP_PORT_PER_S-186
 70
0
 62
7
  6
CONTINUOUS
370
-3
390
F
  0
LAYER
  5
21E
100
AcDbSymbolTableRecord
100
AcDbLayerTableRecord
  2
COPY_GEO_FET
 70
0
 62
7
  6
CONTINUOUS
370
-3
390
F
  0
LAYER
  5
21F
100
AcDbSymbolTableRecord
100
AcDbLayerTableRecord
  2
COSMETIC
 70
0
 62
7
  6
CONTINUOUS
370
-3
390
F
  0
LAYER
  5
220
100
AcDbSymbolTableRecord
100
AcDbLayerTableRecord
  2
COSMETICS
 70
0
 62
7
  6
CONTINUOUS
370
-3
390
F
  0
LAYER
  5
221
100
AcDbSymbolTableRecord
100
AcDbLayerTableRecord
  2
CURVES
 70
0
 62
7
  6
CONTINUOUS
370
-3
390
F
  0
LAYER
  5
222
100
AcDbSymbolTableRecord
100
AcDbLayerTableRecord
  2
CUT_REF_SURF
 70
0
 62
7
  6
CONTINUOUS
370
-3
390
F
  0
LAYER
  5
223
100
AcDbSymbolTableRecord
100
AcDbLayerTableRecord
  2
DATUM
 70
0
 62
7
  6
CONTINUOUS
370
-3
390
F
  0
LAYER
  5
224
100
AcDbSymbolTableRecord
100
AcDbLayerTableRecord
  2
DATUMCURVES
 70
0
 62
7
  6
CONTINUOUS
370
-3
390
F
  0
LAYER
  5
225
100
AcDbSymbolTableRecord
100
AcDbLayerTableRecord
  2
DIMENSIONS
 70
0
 62
7
  6
CONTINUOUS
370
-3
390
F
  0
LAYER
  5
226
100
AcDbSymbolTableRecord
100
AcDbLayerTableRecord
  2
DRAWINGNOTES
 70
0
 62
7
  6
CONTINUOUS
370
-3
390
F
  0
LAYER
  5
227
100
AcDbSymbolTableRecord
100
AcDbLayerTableRecord
  2
DTM
 70
0
 62
7
  6
CONTINUOUS
370
-3
390
F
  0
LAYER
  5
228
100
AcDbSymbolTableRecord
100
AcDbLayerTableRecord
  2
DTM_500002
 70
0
 62
7
  6
CONTINUOUS
370
-3
390
F
  0
LAYER
  5
229
100
AcDbSymbolTableRecord
100
AcDbLayerTableRecord
  2
DTM_515002
 70
0
 62
7
  6
CONTINUOUS
370
-3
390
F
  0
LAYER
  5
22A
100
AcDbSymbolTableRecord
100
AcDbLayerTableRecord
  2
DTM_SPRING_RH
 70
0
 62
7
  6
CONTINUOUS
370
-3
390
F
  0
LAYER
  5
22B
100
AcDbSymbolTableRecord
100
AcDbLayerTableRecord
  2
DTM_SP_RH_CONSTR
 70
0
 62
7
  6
CONTINUOUS
370
-3
390
F
  0
LAYER
  5
22C
100
AcDbSymbolTableRecord
100
AcDbLayerTableRecord
  2
GEOMETRICTOLERANCES
 70
0
 62
7
  6
CONTINUOUS
370
-3
390
F
  0
LAYER
  5
22D
100
AcDbSymbolTableRecord
100
AcDbLayerTableRecord
  2
LAY0001
 70
0
 62
7
  6
CONTINUOUS
370
-3
390
F
  0
LAYER
  5
22E
100
AcDbSymbolTableRecord
100
AcDbLayerTableRecord
  2
NPTF_PORT_PER_S-164
 70
0
 62
7
  6
CONTINUOUS
370
-3
390
F
  0
LAYER
  5
22F
100
AcDbSymbolTableRecord
100
AcDbLayerTableRecord
  2
PARAMETERDIMENSIONS
 70
0
 62
7
  6
CONTINUOUS
370
-3
390
F
  0
LAYER
  5
230
100
AcDbSymbolTableRecord
100
AcDbLayerTableRecord
  2
PLANE
 70
0
 62
7
  6
CONTINUOUS
370
-3
390
F
  0
LAYER
  5
231
100
AcDbSymbolTableRecord
100
AcDbLayerTableRecord
  2
STD_SAE-4_PORT
 70
0
 62
7
  6
CONTINUOUS
370
-3
390
F
  0
LAYER
  5
232
100
AcDbSymbolTableRecord
100
AcDbLayerTableRecord
  2
T-8A_CAVITY
 70
0
 62
7
  6
CONTINUOUS
370
-3
390
F
  0
LAYER
  5
233
100
AcDbSymbolTableRecord
100
AcDbLayerTableRecord
  2
T-8A_CAVITY_REF_GEOMETRY
 70
0
 62
7
  6
CONTINUOUS
370
-3
390
F
  0
LAYER
  5
234
100
AcDbSymbolTableRecord
100
AcDbLayerTableRecord
  2
TEXT
 70
0
 62
7
  6
CONTINUOUS
370
-3
390
F
  0
LAYER
  5
235
100
AcDbSymbolTableRecord
100
AcDbLayerTableRecord
  2
THREAD
 70
0
 62
7
  6
CONTINUOUS
370
-3
390
F
  0
LAYER
  5
236
100
AcDbSymbolTableRecord
100
AcDbLayerTableRecord
  2
XSEC_DATUMS
 70
0
 62
7
  6
CONTINUOUS
370
-3
390
F
  0
ENDTAB
  0
TABLE
  2
STYLE
  5
3
100
AcDbSymbolTable
 70
1
  0
STYLE
  5
11
100
AcDbSymbolTableRecord
100
AcDbTextStyleTableRecord
  2
STANDARD
 70
0
 40
0.0
 41
0.8
 50
0.0
 71
0
 42
0.2
  3
txt
  4

  0
ENDTAB
  0
TABLE
  2
VIEW
  5
6
100
AcDbSymbolTable
 70
0
  0
ENDTAB
  0
TABLE
  2
UCS
  5
7
100
AcDbSymbolTable
 70
0
  0
ENDTAB
  0
TABLE
  2
APPID
  5
9
100
AcDbSymbolTable
 70
1
  0
APPID
  5
237
100
AcDbSymbolTableRecord
100
AcDbRegAppTableRecord
  2
ACAD
 70
0
  0
ENDTAB
  0
TABLE
  2
BLOCK_RECORD
  5
1
100
AcDbSymbolTable
 70
0
  0
BLOCK_RECORD
  5
1F
100
AcDbSymbolTableRecord
100
AcDbBlockTableRecord
  2
*MODEL_SPACE
  0
BLOCK_RECORD
  5
1B
100
AcDbSymbolTableRecord
100
AcDbBlockTableRecord
  2
*PAPER_SPACE
  0
ENDTAB
  0
TABLE
  2
DIMSTYLE
  5
A
100
AcDbSymbolTable
 70
1
100
AcDbDimStyleTable
 71
0
  0
DIMSTYLE
105
238
100
AcDbSymbolTableRecord
100
AcDbDimStyleTableRecord
  2
STANDARD
 70
0
  3

  4

 40
1.0
 41
0.1875
 42
0.0625
 43
0.38
 44
0.18
 45
0.0
 46
0.0
 47
0.01
 48
0.01
140
0.15625
141
0.09
142
0.0
143
25.4
144
1.0
145
0.0
146
1.0
147
0.09
 71
0.0
 72
0.0
 73
1
 74
1
 75
0
 76
0
 77
0
 78
4
170
0
171
2
172
0
173
0
174
0
175
0
176
0
177
0
178
0
270
2
271
2
272
2
273
2
274
2
275
0
280
0
281
0
282
0
283
1
284
4
285
0
286
0
287
3
288
0
340
11
  0
ENDTAB
  0
ENDSEC
  0
SECTION
  2
BLOCKS
  0
BLOCK
  5
20
100
AcDbEntity
  8
0
100
AcDbBlockBegin
  2
*MODEL_SPACE
 70
0
 10
0.0
 20
0.0
 30
0.0
  3
*MODEL_SPACE
  1

  0
ENDBLK
  5
21
100
AcDbEntity
  8
0
100
AcDbBlockEnd
  0
BLOCK
  5
1C
100
AcDbEntity
  8
0
100
AcDbBlockBegin
  2
*PAPER_SPACE
 70
0
 10
0.0
 20
0.0
 30
0.0
  3
*PAPER_SPACE
  1

  0
ENDBLK
  5
1D
100
AcDbEntity
  8
0
100
AcDbBlockEnd
  0
ENDSEC
  0
SECTION
  2
ENTITIES
  0
LINE
  5
239
100
AcDbEntity
  8
0
100
AcDbLine
 62
7
  6
CONTINUOUS
 10
4.3343923497
 20
3.6162663282
 11
4.3007173247
 21
3.6745931826
  0
LINE
  5
23A
100
AcDbEntity
  8
0
100
AcDbLine
 62
7
  6
CONTINUOUS
 10
4.3007173247
 20
3.6745931826
 11
4.3007173247
 21
4.5345931826
  0
LINE
  5
23B
100
AcDbEntity
  8
03__ASM_ALL_CURVES
100
AcDbLine
 62
40
  6
CONTINUOUS
 10
4.3007173247
 20
4.5345931826
 11
4.3007173247
 21
5.0496791826
  0
LINE
  5
23C
100
AcDbEntity
  8
0
100
AcDbLine
 62
7
  6
CONTINUOUS
 10
4.3347809905
 20
3.6155931826
 11
4.3347809905
 21
3.6164907101
  0
LINE
  5
23D
100
AcDbEntity
  8
0
100
AcDbLine
 62
7
  6
CONTINUOUS
 10
4.3347809905
 20
3.8348956551
 11
4.3347809905
 21
3.8861882376
  0
LINE
  5
23E
100
AcDbEntity
  8
0
100
AcDbLine
 62
7
  6
CONTINUOUS
 10
4.3347809905
 20
4.3229981276
 11
4.3347809905
 21
4.3742907101
  0
LINE
  5
23F
100
AcDbEntity
  8
0
100
AcDbLine
 62
7
  6
CONTINUOUS
 10
4.3347809905
 20
4.5926956551
 11
4.3347809905
 21
4.5935931826
  0
LINE
  5
240
100
AcDbEntity
  8
03__ASM_ALL_CURVES
100
AcDbLine
 62
40
  6
CONTINUOUS
 10
4.3569673247
 20
5.0403041826
 11
4.3569673247
 21
5.0215541826
  0
LINE
  5
241
100
AcDbEntity
  8
0
100
AcDbLine
 62
7
  6
CONTINUOUS
 10
4.3343923497
 20
4.592920037
 11
4.3007173247
 21
4.5345931826
  0
LINE
  5
242
100
AcDbEntity
  8
03__ASM_ALL_CURVES
100
AcDbLine
 62
40
  6
CONTINUOUS
 10
4.7676548247
 20
5.0965541815
 11
4.7711704497
 21
5.1012416837
  0
LINE
  5
243
100
AcDbEntity
  8
03__ASM_ALL_CURVES
100
AcDbLine
 62
40
  6
CONTINUOUS
 10
4.7641391997
 20
5.0684291832
 11
4.7711704497
 21
5.0778041826
  0
LINE
  5
244
100
AcDbEntity
  8
03__ASM_ALL_CURVES
100
AcDbLine
 62
40
  6
CONTINUOUS
 10
4.7957798247
 20
5.0918666826
 11
4.7922641997
 21
5.0871791837
  0
LINE
  5
245
100
AcDbEntity
  8
03__ASM_ALL_CURVES
100
AcDbLine
 62
40
  6
CONTINUOUS
 10
4.7992954497
 20
5.0637416826
 11
4.7922641997
 21
5.0543666827
  0
LINE
  5
246
100
AcDbEntity
  8
03__ASM_ALL_CURVES
100
AcDbLine
 62
40
  6
CONTINUOUS
 10
4.8414829497
 20
5.1059291826
 11
4.8344516997
 21
5.0965541815
  0
LINE
  5
247
100
AcDbEntity
  8
03__ASM_ALL_CURVES
100
AcDbLine
 62
40
  6
CONTINUOUS
 10
4.7711704497
 20
5.1012416837
 11
4.7782016997
 21
5.1059291826
  0
LINE
  5
248
100
AcDbEntity
  8
03__ASM_ALL_CURVES
100
AcDbLine
 62
40
  6
CONTINUOUS
 10
4.6129673247
 20
5.1059291826
 11
4.6129673247
 21
5.0496791826
  0
LINE
  5
249
100
AcDbEntity
  8
03__ASM_ALL_CURVES
100
AcDbLine
 62
40
  6
CONTINUOUS
 10
4.6657016997
 20
5.0496791826
 11
4.6657016997
 21
5.0543666827
  0
LINE
  5
24A
100
AcDbEntity
  8
03__ASM_ALL_CURVES
100
AcDbLine
 62
40
  6
CONTINUOUS
 10
4.8344516997
 20
5.0965541815
 11
4.8309360747
 21
5.0824916815
  0
LINE
  5
24B
100
AcDbEntity
  8
03__ASM_ALL_CURVES
100
AcDbLine
 62
40
  6
CONTINUOUS
 10
4.8801548247
 20
5.0965541815
 11
4.8836704497
 21
5.1012416837
  0
LINE
  5
24C
100
AcDbEntity
  8
03__ASM_ALL_CURVES
100
AcDbLine
 62
40
  6
CONTINUOUS
 10
4.8907016997
 20
5.073116682
 11
4.8836704497
 21
5.0637416826
  0
LINE
  5
24D
100
AcDbEntity
  8
03__ASM_ALL_CURVES
100
AcDbLine
 62
40
  6
CONTINUOUS
 10
4.9082798247
 20
5.0871791837
 11
4.9047641997
 21
5.0824916815
  0
LINE
  5
24E
100
AcDbEntity
  8
03__ASM_ALL_CURVES
100
AcDbLine
 62
40
  6
CONTINUOUS
 10
4.9399204497
 20
5.0965541815
 11
4.9434360747
 21
5.1012416837
  0
LINE
  5
24F
100
AcDbEntity
  8
03__ASM_ALL_CURVES
100
AcDbLine
 62
40
  6
CONTINUOUS
 10
4.9610141997
 20
5.0590541829
 11
4.9574985747
 21
5.0543666827
  0
LINE
  5
250
100
AcDbEntity
  8
03__ASM_ALL_CURVES
100
AcDbLine
 62
40
  6
CONTINUOUS
 10
4.7711704497
 20
5.0778041826
 11
4.7782016997
 21
5.0824916815
  0
LINE
  5
251
100
AcDbEntity
  8
03__ASM_ALL_CURVES
100
AcDbLine
 62
40
  6
CONTINUOUS
 10
4.7922641997
 20
5.0871791837
 11
4.7852329497
 21
5.0824916815
  0
LINE
  5
252
100
AcDbEntity
  8
03__ASM_ALL_CURVES
100
AcDbLine
 62
40
  6
CONTINUOUS
 10
4.7922641997
 20
5.0543666827
 11
4.7852329497
 21
5.0496791826
  0
LINE
  5
253
100
AcDbEntity
  8
03__ASM_ALL_CURVES
100
AcDbLine
 62
40
  6
CONTINUOUS
 10
4.8836704497
 20
5.1012416837
 11
4.8907016997
 21
5.1059291826
  0
LINE
  5
254
100
AcDbEntity
  8
03__ASM_ALL_CURVES
100
AcDbLine
 62
40
  6
CONTINUOUS
 10
4.9047641997
 20
5.0824916815
 11
4.8907016997
 21
5.073116682
  0
LINE
  5
255
100
AcDbEntity
  8
03__ASM_ALL_CURVES
100
AcDbLine
 62
40
  6
CONTINUOUS
 10
4.9434360747
 20
5.1012416837
 11
4.9504673247
 21
5.1059291826
  0
LINE
  5
256
100
AcDbEntity
  8
0
100
AcDbLine
 62
7
  6
CONTINUOUS
 10
4.7082173247
 20
3.6155931826
 11
4.7082173247
 21
3.6164907101
  0
LINE
  5
257
100
AcDbEntity
  8
0
100
AcDbLine
 62
7
  6
CONTINUOUS
 10
4.7082173247
 20
3.8348956551
 11
4.7082173247
 21
3.8861882376
  0
LINE
  5
258
100
AcDbEntity
  8
0
100
AcDbLine
 62
7
  6
CONTINUOUS
 10
4.7082173247
 20
4.3229981276
 11
4.7082173247
 21
4.3742907101
  0
LINE
  5
259
100
AcDbEntity
  8
0
100
AcDbLine
 62
7
  6
CONTINUOUS
 10
4.7082173247
 20
4.5926956551
 11
4.7082173247
 21
4.5935931826
  0
LINE
  5
25A
100
AcDbEntity
  8
03__ASM_ALL_CURVES
100
AcDbLine
 62
40
  6
CONTINUOUS
 10
4.7254673247
 20
5.1059291826
 11
4.7254673247
 21
5.0496791826
  0
LINE
  5
25B
100
AcDbEntity
  8
03__ASM_ALL_CURVES
100
AcDbLine
 62
40
  6
CONTINUOUS
 10
4.7641391997
 20
5.0637416826
 11
4.7641391997
 21
5.0684291832
  0
LINE
  5
25C
100
AcDbEntity
  8
03__ASM_ALL_CURVES
100
AcDbLine
 62
40
  6
CONTINUOUS
 10
4.7676548247
 20
5.0918666826
 11
4.7676548247
 21
5.0965541815
  0
LINE
  5
25D
100
AcDbEntity
  8
0
100
AcDbLine
 62
7
  6
CONTINUOUS
 10
4.7687173247
 20
3.6760931826
 11
4.7687173247
 21
4.5330931826
  0
LINE
  5
25E
100
AcDbEntity
  8
03__ASM_ALL_CURVES
100
AcDbLine
 62
40
  6
CONTINUOUS
 10
4.8836704497
 20
5.0637416826
 11
4.8801548247
 21
5.0496791826
  0
LINE
  5
25F
100
AcDbEntity
  8
03__ASM_ALL_CURVES
100
AcDbLine
 62
40
  6
CONTINUOUS
 10
4.9364048247
 20
5.0871791837
 11
4.9399204497
 21
5.0965541815
  0
LINE
  5
260
100
AcDbEntity
  8
03__ASM_ALL_CURVES
100
AcDbLine
 62
40
  6
CONTINUOUS
 10
4.9645298247
 20
5.0871791837
 11
4.9610141997
 21
5.0778041826
  0
LINE
  5
261
100
AcDbEntity
  8
03__ASM_ALL_CURVES
100
AcDbLine
 62
40
  6
CONTINUOUS
 10
4.9645298247
 20
5.0684291832
 11
4.9610141997
 21
5.0590541829
  0
LINE
  5
262
100
AcDbEntity
  8
03__ASM_ALL_CURVES
100
AcDbLine
 62
40
  6
CONTINUOUS
 10
5.0524204497
 20
5.0965541815
 11
5.0559360747
 21
5.1012416837
  0
LINE
  5
263
100
AcDbEntity
  8
03__ASM_ALL_CURVES
100
AcDbLine
 62
40
  6
CONTINUOUS
 10
5.0735141997
 20
5.0590541829
 11
5.0699985747
 21
5.0543666827
  0
LINE
  5
264
100
AcDbEntity
  8
03__ASM_ALL_CURVES
100
AcDbLine
 62
40
  6
CONTINUOUS
 10
4.9574985747
 20
5.0543666827
 11
4.9504673247
 21
5.0496791826
  0
LINE
  5
265
100
AcDbEntity
  8
03__ASM_ALL_CURVES
100
AcDbLine
 62
40
  6
CONTINUOUS
 10
5.0559360747
 20
5.1012416837
 11
5.0629673247
 21
5.1059291826
  0
LINE
  5
266
100
AcDbEntity
  8
03__ASM_ALL_CURVES
100
AcDbLine
 62
40
  6
CONTINUOUS
 10
5.0699985747
 20
5.0543666827
 11
5.0629673247
 21
5.0496791826
  0
LINE
  5
267
100
AcDbEntity
  8
03__ASM_ALL_CURVES
100
AcDbLine
 62
40
  6
CONTINUOUS
 10
4.9610141997
 20
5.0778041826
 11
4.9504673247
 21
5.073116682
  0
LINE
  5
268
100
AcDbEntity
  8
03__ASM_ALL_CURVES
100
AcDbLine
 62
40
  6
CONTINUOUS
 10
5.0735141997
 20
5.0778041826
 11
5.0629673247
 21
5.073116682
  0
LINE
  5
269
100
AcDbEntity
  8
03__ASM_ALL_CURVES
100
AcDbLine
 62
40
  6
CONTINUOUS
 10
5.1715747508
 20
3.4684056826
 11
5.1663013133
 21
3.4719213077
  0
LINE
  5
26A
100
AcDbEntity
  8
03__ASM_ALL_CURVES
100
AcDbLine
 62
40
  6
CONTINUOUS
 10
5.1346606883
 20
3.5105931826
 11
5.1399341258
 21
3.5070775584
  0
LINE
  5
26B
100
AcDbEntity
  8
0
100
AcDbLine
 62
7
  6
CONTINUOUS
 10
4.8407173247
 20
3.6760931826
 11
4.8321952867
 21
3.6854406351
  0
LINE
  5
26C
100
AcDbEntity
  8
03__ASM_ALL_CURVES
100
AcDbLine
 62
40
  6
CONTINUOUS
 10
4.7957798247
 20
5.0965541815
 11
4.7957798247
 21
5.0918666826
  0
LINE
  5
26D
100
AcDbEntity
  8
03__ASM_ALL_CURVES
100
AcDbLine
 62
40
  6
CONTINUOUS
 10
4.7992954497
 20
5.0684291832
 11
4.7992954497
 21
5.0637416826
  0
LINE
  5
26E
100
AcDbEntity
  8
0
100
AcDbLine
 62
7
  6
CONTINUOUS
 10
4.8207173247
 20
3.6760931826
 11
4.8207173247
 21
4.5330931826
  0
LINE
  5
26F
100
AcDbEntity
  8
0
100
AcDbLine
 62
7
  6
CONTINUOUS
 10
4.8292393626
 20
3.6854406351
 11
4.8292393626
 21
4.5237457301
  0
LINE
  5
270
100
AcDbEntity
  8
03__ASM_ALL_CURVES
100
AcDbLine
 62
40
  6
CONTINUOUS
 10
4.8309360747
 20
5.0824916815
 11
4.8309360747
 21
5.073116682
  0
LINE
  5
271
100
AcDbEntity
  8
0
100
AcDbLine
 62
7
  6
CONTINUOUS
 10
4.8321952867
 20
3.6854406351
 11
4.8321952867
 21
4.5237457301
  0
LINE
  5
272
100
AcDbEntity
  8
0
100
AcDbLine
 62
7
  6
CONTINUOUS
 10
4.8407173247
 20
3.6760931826
 11
4.8407173247
 21
4.5330931826
  0
LINE
  5
273
100
AcDbEntity
  8
0
100
AcDbLine
 62
7
  6
CONTINUOUS
 10
4.8937173247
 20
3.6760931826
 11
4.8937173247
 21
4.5330931826
  0
LINE
  5
274
100
AcDbEntity
  8
03__ASM_ALL_CURVES
100
AcDbLine
 62
40
  6
CONTINUOUS
 10
5.0489048247
 20
5.0871791837
 11
5.0524204497
 21
5.0965541815
  0
LINE
  5
275
100
AcDbEntity
  8
03__ASM_ALL_CURVES
100
AcDbLine
 62
40
  6
CONTINUOUS
 10
5.0770298247
 20
5.0871791837
 11
5.0735141997
 21
5.0778041826
  0
LINE
  5
276
100
AcDbEntity
  8
03__ASM_ALL_CURVES
100
AcDbLine
 62
40
  6
CONTINUOUS
 10
5.0770298247
 20
5.0684291832
 11
5.0735141997
 21
5.0590541829
  0
LINE
  5
277
100
AcDbEntity
  8
03__ASM_ALL_CURVES
100
AcDbLine
 62
40
  6
CONTINUOUS
 10
5.1262485747
 20
5.0871791837
 11
5.1332798247
 21
5.1059291826
  0
LINE
  5
278
100
AcDbEntity
  8
03__ASM_ALL_CURVES
100
AcDbLine
 62
40
  6
CONTINUOUS
 10
5.1789829497
 20
5.0590541829
 11
5.1719516997
 21
5.0496791826
  0
LINE
  5
279
100
AcDbEntity
  8
03__ASM_ALL_CURVES
100
AcDbLine
 62
40
  6
CONTINUOUS
 10
5.1768481883
 20
3.5105931826
 11
5.1821216258
 21
3.5070775584
  0
LINE
  5
27A
100
AcDbEntity
  8
03__ASM_ALL_CURVES
100
AcDbLine
 62
40
  6
CONTINUOUS
 10
5.2190356883
 20
3.5105931826
 11
5.2243091258
 21
3.5070775584
  0
LINE
  5
27B
100
AcDbEntity
  8
03__ASM_ALL_CURVES
100
AcDbLine
 62
40
  6
CONTINUOUS
 10
5.2981372508
 20
3.4684056826
 11
5.2928638133
 21
3.4719213077
  0
LINE
  5
27C
100
AcDbEntity
  8
03__ASM_ALL_CURVES
100
AcDbLine
 62
40
  6
CONTINUOUS
 10
5.3034106883
 20
3.4930150568
 11
5.3086841258
 21
3.4894994326
  0
LINE
  5
27D
100
AcDbEntity
  8
03__ASM_ALL_CURVES
100
AcDbLine
 62
40
  6
CONTINUOUS
 10
5.3034106883
 20
3.5105931826
 11
5.3086841258
 21
3.5070775584
  0
LINE
  5
27E
100
AcDbEntity
  8
03__ASM_ALL_CURVES
100
AcDbLine
 62
40
  6
CONTINUOUS
 10
5.1399341258
 20
3.5070775584
 11
5.1425708446
 21
3.5035619318
  0
LINE
  5
27F
100
AcDbEntity
  8
03__ASM_ALL_CURVES
100
AcDbLine
 62
40
  6
CONTINUOUS
 10
5.1663013133
 20
3.4719213077
 11
5.1610278758
 21
3.4789525576
  0
LINE
  5
280
100
AcDbEntity
  8
03__ASM_ALL_CURVES
100
AcDbLine
 62
40
  6
CONTINUOUS
 10
5.1821216258
 20
3.5070775584
 11
5.1873950633
 21
3.5000463076
  0
LINE
  5
281
100
AcDbEntity
  8
03__ASM_ALL_CURVES
100
AcDbLine
 62
40
  6
CONTINUOUS
 10
5.2243091258
 20
3.5070775584
 11
5.2269458446
 21
3.5035619318
  0
LINE
  5
282
100
AcDbEntity
  8
03__ASM_ALL_CURVES
100
AcDbLine
 62
40
  6
CONTINUOUS
 10
4.9082798247
 20
5.0965541815
 11
4.9082798247
 21
5.0871791837
  0
LINE
  5
283
100
AcDbEntity
  8
0
100
AcDbLine
 62
7
  6
CONTINUOUS
 10
4.9437173247
 20
3.6765938333
 11
4.9437173247
 21
4.5325925319
  0
LINE
  5
284
100
AcDbEntity
  8
03__ASM_ALL_CURVES
100
AcDbLine
 62
40
  6
CONTINUOUS
 10
4.9645298247
 20
5.0871791837
 11
4.9645298247
 21
5.0684291832
  0
LINE
  5
285
100
AcDbEntity
  8
03__ASM_ALL_CURVES
100
AcDbLine
 62
40
  6
CONTINUOUS
 10
5.0032016997
 20
5.0496791826
 11
5.0032016997
 21
5.0543666827
  0
LINE
  5
286
100
AcDbEntity
  8
0
100
AcDbLine
 62
7
  6
CONTINUOUS
 10
5.0137173247
 20
4.4900931826
 11
5.0137173247
 21
3.7190931826
  0
LINE
  5
287
100
AcDbEntity
  8
03__ASM_ALL_CURVES
100
AcDbLine
 62
40
  6
CONTINUOUS
 10
5.1192173247
 20
5.0496791826
 11
5.1227329497
 21
5.073116682
  0
LINE
  5
288
100
AcDbEntity
  8
03__ASM_ALL_CURVES
100
AcDbLine
 62
40
  6
CONTINUOUS
 10
5.1227329497
 20
5.073116682
 11
5.1262485747
 21
5.0871791837
  0
LINE
  5
289
100
AcDbEntity
  8
03__ASM_ALL_CURVES
100
AcDbLine
 62
40
  6
CONTINUOUS
 10
5.1824985747
 20
5.073116682
 11
5.1789829497
 21
5.0590541829
  0
LINE
  5
28A
100
AcDbEntity
  8
0
100
AcDbLine
 62
7
  6
CONTINUOUS
 10
4.8407173247
 20
4.5330931826
 11
4.8321952867
 21
4.5237457301
  0
LINE
  5
28B
100
AcDbEntity
  8
03__ASM_ALL_CURVES
100
AcDbLine
 62
40
  6
CONTINUOUS
 10
6.3981665313
 20
3.4684056826
 11
6.3928930938
 21
3.4684056826
  0
LINE
  5
28C
100
AcDbEntity
  8
03__ASM_ALL_CURVES
100
AcDbLine
 62
40
  6
CONTINUOUS
 10
5.3034106883
 20
3.4684056826
 11
5.2981372508
 21
3.4684056826
  0
LINE
  5
28D
100
AcDbEntity
  8
03__ASM_ALL_CURVES
100
AcDbLine
 62
40
  6
CONTINUOUS
 10
5.1768481883
 20
3.4684056826
 11
5.1715747508
 21
3.4684056826
  0
LINE
  5
28E
100
AcDbEntity
  8
03__ASM_ALL_CURVES
100
AcDbLine
 62
40
  6
CONTINUOUS
 10
6.5115454376
 20
3.4684056826
 11
6.5326391876
 21
3.4684056826
  0
LINE
  5
28F
100
AcDbEntity
  8
03__ASM_ALL_CURVES
100
AcDbLine
 62
40
  6
CONTINUOUS
 10
6.4403540313
 20
3.4894994326
 11
6.4271704376
 21
3.4894994326
  0
LINE
  5
290
100
AcDbEntity
  8
03__ASM_ALL_CURVES
100
AcDbLine
 62
40
  6
CONTINUOUS
 10
6.3559790313
 20
3.4894994326
 11
6.3427954376
 21
3.4894994326
  0
LINE
  5
291
100
AcDbEntity
  8
03__ASM_ALL_CURVES
100
AcDbLine
 62
40
  6
CONTINUOUS
 10
5.2190356883
 20
3.4894994326
 11
5.2058520946
 21
3.4894994326
  0
LINE
  5
292
100
AcDbEntity
  8
03__ASM_ALL_CURVES
100
AcDbLine
 62
40
  6
CONTINUOUS
 10
5.1346606883
 20
3.4894994326
 11
5.1214770946
 21
3.4894994326
  0
LINE
  5
293
100
AcDbEntity
  8
03__ASM_ALL_CURVES
100
AcDbLine
 62
40
  6
CONTINUOUS
 10
5.2981372508
 20
3.4930150568
 11
5.3034106883
 21
3.4930150568
  0
LINE
  5
294
100
AcDbEntity
  8
03__ASM_ALL_CURVES
100
AcDbLine
 62
40
  6
CONTINUOUS
 10
5.2928638133
 20
3.4719213077
 11
5.2902270946
 21
3.4754369328
  0
LINE
  5
295
100
AcDbEntity
  8
03__ASM_ALL_CURVES
100
AcDbLine
 62
40
  6
CONTINUOUS
 10
5.3086841258
 20
3.4894994326
 11
5.3139575633
 21
3.482468183
  0
LINE
  5
296
100
AcDbEntity
  8
03__ASM_ALL_CURVES
100
AcDbLine
 62
40
  6
CONTINUOUS
 10
5.3086841258
 20
3.5070775584
 11
5.3113208446
 21
3.5035619318
  0
LINE
  5
297
100
AcDbEntity
  8
03__ASM_ALL_CURVES
100
AcDbLine
 62
40
  6
CONTINUOUS
 10
5.2190356883
 20
3.4894994326
 11
5.2269458446
 21
3.4684056826
  0
LINE
  5
298
100
AcDbEntity
  8
03__ASM_ALL_CURVES
100
AcDbLine
 62
40
  6
CONTINUOUS
 10
5.1610278758
 20
3.4789525576
 11
5.1583911571
 21
3.4894994326
  0
LINE
  5
299
100
AcDbEntity
  8
03__ASM_ALL_CURVES
100
AcDbLine
 62
40
  6
CONTINUOUS
 10
5.1873950633
 20
3.5000463076
 11
5.1900317821
 21
3.4894994326
  0
LINE
  5
29A
100
AcDbEntity
  8
0
100
AcDbLine
 62
7
  6
CONTINUOUS
 10
5.0217173247
 20
3.7305931826
 11
5.0217173247
 21
4.4785931826
  0
LINE
  5
29B
100
AcDbEntity
  8
0
100
AcDbLine
 62
7
  6
CONTINUOUS
 10
5.0347173247
 20
3.6760931826
 11
5.0347173247
 21
4.5330931826
  0
LINE
  5
29C
100
AcDbEntity
  8
03__ASM_ALL_CURVES
100
AcDbLine
 62
40
  6
CONTINUOUS
 10
5.0770298247
 20
5.0871791837
 11
5.0770298247
 21
5.0684291832
  0
LINE
  5
29D
100
AcDbEntity
  8
0
100
AcDbLine
 62
7
  6
CONTINUOUS
 10
5.0847173247
 20
3.6760931826
 11
5.0847173247
 21
4.5330931826
  0
LINE
  5
29E
100
AcDbEntity
  8
0
100
AcDbLine
 62
7
  6
CONTINUOUS
 10
5.1076269806
 20
3.7615931826
 11
5.1076269806
 21
4.4475931826
  0
LINE
  5
29F
100
AcDbEntity
  8
03__ASM_ALL_CURVES
100
AcDbLine
 62
40
  6
CONTINUOUS
 10
5.1214770946
 20
3.4684056826
 11
5.1214770946
 21
3.5105931826
  0
LINE
  5
2A0
100
AcDbEntity
  8
03__ASM_ALL_CURVES
100
AcDbLine
 62
40
  6
CONTINUOUS
 10
5.62248295
 20
5.1012416837
 11
5.6295142
 21
5.1059291826
  0
LINE
  5
2A1
100
AcDbEntity
  8
03__ASM_ALL_CURVES
100
AcDbLine
 62
40
  6
CONTINUOUS
 10
5.67873295
 20
5.1012416837
 11
5.6857642
 21
5.1059291826
  0
LINE
  5
2A2
100
AcDbEntity
  8
03__ASM_ALL_CURVES
100
AcDbLine
 62
40
  6
CONTINUOUS
 10
5.6435767
 20
5.0543666827
 11
5.63654545
 21
5.0496791826
  0
LINE
  5
2A3
100
AcDbEntity
  8
03__ASM_ALL_CURVES
100
AcDbLine
 62
40
  6
CONTINUOUS
 10
5.6998267
 20
5.0543666827
 11
5.69279545
 21
5.0496791826
  0
LINE
  5
2A4
100
AcDbEntity
  8
03__ASM_ALL_CURVES
100
AcDbLine
 62
40
  6
CONTINUOUS
 10
5.1214770946
 20
3.5105931826
 11
5.1346606883
 21
3.5105931826
  0
LINE
  5
2A5
100
AcDbEntity
  8
03__ASM_ALL_CURVES
100
AcDbLine
 62
40
  6
CONTINUOUS
 10
5.1715747508
 20
3.5105931826
 11
5.1768481883
 21
3.5105931826
  0
LINE
  5
2A6
100
AcDbEntity
  8
03__ASM_ALL_CURVES
100
AcDbLine
 62
40
  6
CONTINUOUS
 10
5.2058520946
 20
3.5105931826
 11
5.2190356883
 21
3.5105931826
  0
LINE
  5
2A7
100
AcDbEntity
  8
03__ASM_ALL_CURVES
100
AcDbLine
 62
40
  6
CONTINUOUS
 10
5.2454028758
 20
3.5105931826
 11
5.2717700633
 21
3.5105931826
  0
LINE
  5
2A8
100
AcDbEntity
  8
03__ASM_ALL_CURVES
100
AcDbLine
 62
40
  6
CONTINUOUS
 10
5.2981372508
 20
3.5105931826
 11
5.3034106883
 21
3.5105931826
  0
LINE
  5
2A9
100
AcDbEntity
  8
03__ASM_ALL_CURVES
100
AcDbLine
 62
40
  6
CONTINUOUS
 10
6.3427954376
 20
3.5105931826
 11
6.3559790313
 21
3.5105931826
  0
LINE
  5
2AA
100
AcDbEntity
  8
03__ASM_ALL_CURVES
100
AcDbLine
 62
40
  6
CONTINUOUS
 10
6.3928930938
 20
3.5105931826
 11
6.3981665313
 21
3.5105931826
  0
LINE
  5
2AB
100
AcDbEntity
  8
03__ASM_ALL_CURVES
100
AcDbLine
 62
40
  6
CONTINUOUS
 10
6.4271704376
 20
3.5105931826
 11
6.4403540313
 21
3.5105931826
  0
LINE
  5
2AC
100
AcDbEntity
  8
03__ASM_ALL_CURVES
100
AcDbLine
 62
40
  6
CONTINUOUS
 10
6.4667212188
 20
3.5105931826
 11
6.4930884063
 21
3.5105931826
  0
LINE
  5
2AD
100
AcDbEntity
  8
03__ASM_ALL_CURVES
100
AcDbLine
 62
40
  6
CONTINUOUS
 10
6.5194555938
 20
3.5105931826
 11
6.5247290313
 21
3.5105931826
  0
LINE
  5
2AE
100
AcDbEntity
  8
0
100
AcDbLine
 62
7
  6
CONTINUOUS
 10
4.7082173247
 20
3.6155931826
 11
4.3347809905
 21
3.6155931826
  0
LINE
  5
2AF
100
AcDbEntity
  8
0
100
AcDbLine
 62
7
  6
CONTINUOUS
 10
4.7082173247
 20
3.6164907101
 11
4.3347809905
 21
3.6164907101
  0
LINE
  5
2B0
100
AcDbEntity
  8
03__ASM_ALL_CURVES
100
AcDbLine
 62
40
  6
CONTINUOUS
 10
4.8309360747
 20
5.073116682
 11
4.8344516997
 21
5.0590541829
  0
LINE
  5
2B1
100
AcDbEntity
  8
03__ASM_ALL_CURVES
100
AcDbLine
 62
40
  6
CONTINUOUS
 10
5.1425708446
 20
3.5035619318
 11
5.1425708446
 21
3.4965306834
  0
LINE
  5
2B2
100
AcDbEntity
  8
03__ASM_ALL_CURVES
100
AcDbLine
 62
40
  6
CONTINUOUS
 10
5.1824985747
 20
5.0824916815
 11
5.1824985747
 21
5.073116682
  0
LINE
  5
2B3
100
AcDbEntity
  8
03__ASM_ALL_CURVES
100
AcDbLine
 62
40
  6
CONTINUOUS
 10
5.2058520946
 20
3.4684056826
 11
5.2058520946
 21
3.5105931826
  0
LINE
  5
2B4
100
AcDbEntity
  8
03__ASM_ALL_CURVES
100
AcDbLine
 62
40
  6
CONTINUOUS
 10
5.2269458446
 20
3.5035619318
 11
5.2269458446
 21
3.4965306834
  0
LINE
  5
2B5
100
AcDbEntity
  8
03__ASM_ALL_CURVES
100
AcDbLine
 62
40
  6
CONTINUOUS
 10
5.6154517
 20
5.0918666826
 11
5.62248295
 21
5.1012416837
  0
LINE
  5
2B6
100
AcDbEntity
  8
03__ASM_ALL_CURVES
100
AcDbLine
 62
40
  6
CONTINUOUS
 10
5.65060795
 20
5.0637416826
 11
5.6435767
 21
5.0543666827
  0
LINE
  5
2B7
100
AcDbEntity
  8
03__ASM_ALL_CURVES
100
AcDbLine
 62
40
  6
CONTINUOUS
 10
5.6717017
 20
5.0918666826
 11
5.67873295
 21
5.1012416837
  0
LINE
  5
2B8
100
AcDbEntity
  8
03__ASM_ALL_CURVES
100
AcDbLine
 62
40
  6
CONTINUOUS
 10
5.95998295
 20
5.1012416837
 11
5.9670142
 21
5.1059291826
  0
LINE
  5
2B9
100
AcDbEntity
  8
0
100
AcDbLine
 62
7
  6
CONTINUOUS
 10
5.4877173247
 20
3.6760931826
 11
5.4327173247
 21
3.6760931826
  0
LINE
  5
2BA
100
AcDbEntity
  8
0
100
AcDbLine
 62
7
  6
CONTINUOUS
 10
5.0847173247
 20
3.6760931826
 11
5.0347173247
 21
3.6760931826
  0
LINE
  5
2BB
100
AcDbEntity
  8
0
100
AcDbLine
 62
7
  6
CONTINUOUS
 10
4.8937173247
 20
3.6760931826
 11
4.8407173247
 21
3.6760931826
  0
LINE
  5
2BC
100
AcDbEntity
  8
0
100
AcDbLine
 62
7
  6
CONTINUOUS
 10
4.8207173247
 20
3.6760931826
 11
4.7687173247
 21
3.6760931826
  0
LINE
  5
2BD
100
AcDbEntity
  8
0
100
AcDbLine
 62
7
  6
CONTINUOUS
 10
4.8937173247
 20
3.6765931826
 11
4.9437173247
 21
3.6765931826
  0
LINE
  5
2BE
100
AcDbEntity
  8
THREAD
100
AcDbLine
 62
7
  6
CONTINUOUS
 10
5.5347173247
 20
3.6995931826
 11
5.5033057819
 21
3.6995931826
  0
LINE
  5
2BF
100
AcDbEntity
  8
0
100
AcDbLine
 62
7
  6
CONTINUOUS
 10
5.6047173247
 20
3.7000931826
 11
5.6547173247
 21
3.7000931826
  0
LINE
  5
2C0
100
AcDbEntity
  8
THREAD
100
AcDbLine
 62
7
  6
CONTINUOUS
 10
5.9432173247
 20
3.7170931826
 11
5.6960792846
 21
3.7170931826
  0
LINE
  5
2C1
100
AcDbEntity
  8
0
100
AcDbLine
 62
7
  6
CONTINUOUS
 10
5.0217173247
 20
3.7305931826
 11
5.0137173247
 21
3.7305931826
  0
LINE
  5
2C2
100
AcDbEntity
  8
0
100
AcDbLine
 62
7
  6
CONTINUOUS
 10
4.7687173247
 20
4.5330931826
 11
4.7086660884
 21
4.5931444188
  0
LINE
  5
2C3
100
AcDbEntity
  8
0
100
AcDbLine
 62
7
  6
CONTINUOUS
 10
4.8292393626
 20
4.5237457301
 11
4.8207173247
 21
4.5330931826
  0
LINE
  5
2C4
100
AcDbEntity
  8
0
100
AcDbLine
 62
7
  6
CONTINUOUS
 10
5.1076269806
 20
4.4475931826
 11
5.0847173247
 21
4.5330931826
  0
LINE
  5
2C5
100
AcDbEntity
  8
03__ASM_ALL_CURVES
100
AcDbLine
 62
40
  6
CONTINUOUS
 10
5.2585864696
 20
3.5105931826
 11
5.2585864696
 21
3.4684056826
  0
LINE
  5
2C6
100
AcDbEntity
  8
03__ASM_ALL_CURVES
100
AcDbLine
 62
40
  6
CONTINUOUS
 10
5.3113208446
 20
3.5035619318
 11
5.3113208446
 21
3.5000463076
  0
LINE
  5
2C7
100
AcDbEntity
  8
03__ASM_ALL_CURVES
100
AcDbLine
 62
40
  6
CONTINUOUS
 10
5.3139575633
 20
3.482468183
 11
5.3139575633
 21
3.4789525576
  0
LINE
  5
2C8
100
AcDbEntity
  8
0
100
AcDbLine
 62
7
  6
CONTINUOUS
 10
5.1076269806
 20
3.7615931826
 11
5.0847173247
 21
3.6760931826
  0
LINE
  5
2C9
100
AcDbEntity
  8
03__ASM_ALL_CURVES
100
AcDbLine
 62
40
  6
CONTINUOUS
 10
5.703342325
 20
5.0590541829
 11
5.6998267
 21
5.0543666827
  0
LINE
  5
2CA
100
AcDbEntity
  8
03__ASM_ALL_CURVES
100
AcDbLine
 62
40
  6
CONTINUOUS
 10
5.9810767
 20
5.0543666827
 11
5.97404545
 21
5.0496791826
  0
LINE
  5
2CB
100
AcDbEntity
  8
03__ASM_ALL_CURVES
100
AcDbLine
 62
40
  6
CONTINUOUS
 10
6.0795142
 20
5.1059291826
 11
6.07248295
 21
5.1012416837
  0
LINE
  5
2CC
100
AcDbEntity
  8
03__ASM_ALL_CURVES
100
AcDbLine
 62
40
  6
CONTINUOUS
 10
6.0935767
 20
5.0543666827
 11
6.08654545
 21
5.0496791826
  0
LINE
  5
2CD
100
AcDbEntity
  8
03__ASM_ALL_CURVES
100
AcDbLine
 62
40
  6
CONTINUOUS
 10
6.18498295
 20
5.1012416837
 11
6.1920142
 21
5.1059291826
  0
LINE
  5
2CE
100
AcDbEntity
  8
THREAD
100
AcDbLine
 62
7
  6
CONTINUOUS
 10
5.6672117712
 20
3.7540931826
 11
5.6547173247
 21
3.7540931826
  0
LINE
  5
2CF
100
AcDbEntity
  8
THREAD
100
AcDbLine
 62
7
  6
CONTINUOUS
 10
6.1657173247
 20
3.7615931826
 11
5.9877173247
 21
3.7615931826
  0
LINE
  5
2D0
100
AcDbEntity
  8
0
100
AcDbLine
 62
7
  6
CONTINUOUS
 10
5.4098076687
 20
3.7615931826
 11
5.1562173247
 21
3.7615931826
  0
LINE
  5
2D1
100
AcDbEntity
  8
0
100
AcDbLine
 62
7
  6
CONTINUOUS
 10
5.1252173247
 20
3.7615931826
 11
5.1076269806
 21
3.7615931826
  0
LINE
  5
2D2
100
AcDbEntity
  8
0
100
AcDbLine
 62
7
  6
CONTINUOUS
 10
6.8467173247
 20
3.7620931826
 11
6.7997173247
 21
3.7620931826
  0
LINE
  5
2D3
100
AcDbEntity
  8
0
100
AcDbLine
 62
7
  6
CONTINUOUS
 10
6.6487173247
 20
3.7620931826
 11
6.5857173247
 21
3.7620931826
  0
LINE
  5
2D4
100
AcDbEntity
  8
0
100
AcDbLine
 62
7
  6
CONTINUOUS
 10
6.6537173247
 20
3.7625931826
 11
6.7037173247
 21
3.7625931826
  0
LINE
  5
2D5
100
AcDbEntity
  8
0
100
AcDbLine
 62
7
  6
CONTINUOUS
 10
6.7737173247
 20
3.8165931826
 11
6.7947173247
 21
3.8165931826
  0
LINE
  5
2D6
100
AcDbEntity
  8
0
100
AcDbLine
 62
7
  6
CONTINUOUS
 10
6.1757173247
 20
3.8245931826
 11
6.4092173247
 21
3.8245931826
  0
LINE
  5
2D7
100
AcDbEntity
  8
0
100
AcDbLine
 62
7
  6
CONTINUOUS
 10
6.5182173247
 20
3.8245931826
 11
6.5807173247
 21
3.8245931826
  0
LINE
  5
2D8
100
AcDbEntity
  8
0
100
AcDbLine
 62
7
  6
CONTINUOUS
 10
4.7082173247
 20
3.8348956551
 11
4.3347809905
 21
3.8348956551
  0
LINE
  5
2D9
100
AcDbEntity
  8
03__ASM_ALL_CURVES
100
AcDbLine
 62
40
  6
CONTINUOUS
 10
4.6657016997
 20
5.0543666827
 11
4.6692173247
 21
5.0496791826
  0
LINE
  5
2DA
100
AcDbEntity
  8
03__ASM_ALL_CURVES
100
AcDbLine
 62
40
  6
CONTINUOUS
 10
4.9399204497
 20
5.0778041826
 11
4.9364048247
 21
5.0871791837
  0
LINE
  5
2DB
100
AcDbEntity
  8
03__ASM_ALL_CURVES
100
AcDbLine
 62
40
  6
CONTINUOUS
 10
4.9610141997
 20
5.0965541815
 11
4.9645298247
 21
5.0871791837
  0
LINE
  5
2DC
100
AcDbEntity
  8
0
100
AcDbLine
 62
7
  6
CONTINUOUS
 10
5.4327173247
 20
3.6760931826
 11
5.4098076687
 21
3.7615931826
  0
LINE
  5
2DD
100
AcDbEntity
  8
0
100
AcDbLine
 62
7
  6
CONTINUOUS
 10
5.4098076687
 20
3.7615931826
 11
5.4098076687
 21
4.4475931826
  0
LINE
  5
2DE
100
AcDbEntity
  8
03__ASM_ALL_CURVES
100
AcDbLine
 62
40
  6
CONTINUOUS
 10
5.4314673247
 20
5.0403041826
 11
5.4314673247
 21
5.0215541826
  0
LINE
  5
2DF
100
AcDbEntity
  8
0
100
AcDbLine
 62
7
  6
CONTINUOUS
 10
5.4327173247
 20
3.6760931826
 11
5.4327173247
 21
4.5330931826
  0
LINE
  5
2E0
100
AcDbEntity
  8
03__ASM_ALL_CURVES
100
AcDbLine
 62
40
  6
CONTINUOUS
 10
5.1583911571
 20
3.4894994326
 11
5.1610278758
 21
3.5000463076
  0
LINE
  5
2E1
100
AcDbEntity
  8
03__ASM_ALL_CURVES
100
AcDbLine
 62
40
  6
CONTINUOUS
 10
5.1900317821
 20
3.4894994326
 11
5.1873950633
 21
3.4789525576
  0
LINE
  5
2E2
100
AcDbEntity
  8
03__ASM_ALL_CURVES
100
AcDbLine
 62
40
  6
CONTINUOUS
 10
5.611936075
 20
5.0778041826
 11
5.6154517
 21
5.0918666826
  0
LINE
  5
2E3
100
AcDbEntity
  8
03__ASM_ALL_CURVES
100
AcDbLine
 62
40
  6
CONTINUOUS
 10
5.654123575
 20
5.0778041826
 11
5.65060795
 21
5.0637416826
  0
LINE
  5
2E4
100
AcDbEntity
  8
0
100
AcDbLine
 62
7
  6
CONTINUOUS
 10
5.4327173247
 20
4.5330931826
 11
5.4098076687
 21
4.4475931826
  0
LINE
  5
2E5
100
AcDbEntity
  8
03__ASM_ALL_CURVES
100
AcDbLine
 62
40
  6
CONTINUOUS
 10
5.9529517
 20
5.0918666826
 11
5.95998295
 21
5.1012416837
  0
LINE
  5
2E6
100
AcDbEntity
  8
03__ASM_ALL_CURVES
100
AcDbLine
 62
40
  6
CONTINUOUS
 10
6.2060767
 20
5.0543666827
 11
6.19904545
 21
5.0496791826
  0
LINE
  5
2E7
100
AcDbEntity
  8
03__ASM_ALL_CURVES
100
AcDbLine
 62
40
  6
CONTINUOUS
 10
6.2623267
 20
5.0543666827
 11
6.25529545
 21
5.0496791826
  0
LINE
  5
2E8
100
AcDbEntity
  8
0
100
AcDbLine
 62
7
  6
CONTINUOUS
 10
4.7082173247
 20
3.8861882376
 11
4.3347809905
 21
3.8861882376
  0
LINE
  5
2E9
100
AcDbEntity
  8
03__ASM_ALL_CURVES
100
AcDbLine
 62
40
  6
CONTINUOUS
 10
6.3928930938
 20
3.4684056826
 11
6.3876196563
 21
3.4719213077
  0
LINE
  5
2EA
100
AcDbEntity
  8
03__ASM_ALL_CURVES
100
AcDbLine
 62
40
  6
CONTINUOUS
 10
6.3559790313
 20
3.5105931826
 11
6.3612524688
 21
3.5070775584
  0
LINE
  5
2EB
100
AcDbEntity
  8
03__ASM_ALL_CURVES
100
AcDbLine
 62
40
  6
CONTINUOUS
 10
4.7711704497
 20
5.0543666827
 11
4.7641391997
 21
5.0637416826
  0
LINE
  5
2EC
100
AcDbEntity
  8
03__ASM_ALL_CURVES
100
AcDbLine
 62
40
  6
CONTINUOUS
 10
4.7711704497
 20
5.0871791837
 11
4.7676548247
 21
5.0918666826
  0
LINE
  5
2ED
100
AcDbEntity
  8
03__ASM_ALL_CURVES
100
AcDbLine
 62
40
  6
CONTINUOUS
 10
4.7922641997
 20
5.0778041826
 11
4.7992954497
 21
5.0684291832
  0
LINE
  5
2EE
100
AcDbEntity
  8
THREAD
100
AcDbLine
 62
7
  6
CONTINUOUS
 10
5.6960792846
 20
3.7170931826
 11
5.6784701014
 21
3.7475931826
  0
LINE
  5
2EF
100
AcDbEntity
  8
03__ASM_ALL_CURVES
100
AcDbLine
 62
40
  6
CONTINUOUS
 10
5.0524204497
 20
5.0778041826
 11
5.0489048247
 21
5.0871791837
  0
LINE
  5
2F0
100
AcDbEntity
  8
03__ASM_ALL_CURVES
100
AcDbLine
 62
40
  6
CONTINUOUS
 10
5.0735141997
 20
5.0965541815
 11
5.0770298247
 21
5.0871791837
  0
LINE
  5
2F1
100
AcDbEntity
  8
03__ASM_ALL_CURVES
100
AcDbLine
 62
40
  6
CONTINUOUS
 10
5.1789829497
 20
5.0965541815
 11
5.1824985747
 21
5.0824916815
  0
LINE
  5
2F2
100
AcDbEntity
  8
0
100
AcDbLine
 62
7
  6
CONTINUOUS
 10
5.4877173247
 20
3.6760931826
 11
5.4877173247
 21
4.5330931826
  0
LINE
  5
2F3
100
AcDbEntity
  8
03__ASM_ALL_CURVES
100
AcDbLine
 62
40
  6
CONTINUOUS
 10
5.4877173247
 20
4.5424681826
 11
5.4877173247
 21
5.0496791826
  0
LINE
  5
2F4
100
AcDbEntity
  8
THREAD
100
AcDbLine
 62
7
  6
CONTINUOUS
 10
5.5033057819
 20
3.6995931826
 11
5.5033057819
 21
4.5095931826
  0
LINE
  5
2F5
100
AcDbEntity
  8
THREAD
100
AcDbLine
 62
7
  6
CONTINUOUS
 10
5.5347173247
 20
3.6995931826
 11
5.5347173247
 21
4.5095931826
  0
LINE
  5
2F6
100
AcDbEntity
  8
03__ASM_ALL_CURVES
100
AcDbLine
 62
40
  6
CONTINUOUS
 10
5.5439673247
 20
5.0403041826
 11
5.5439673247
 21
5.0215541826
  0
LINE
  5
2F7
100
AcDbEntity
  8
03__ASM_ALL_CURVES
100
AcDbLine
 62
40
  6
CONTINUOUS
 10
5.562717325
 20
5.1059291826
 11
5.562717325
 21
5.0496791826
  0
LINE
  5
2F8
100
AcDbEntity
  8
03__ASM_ALL_CURVES
100
AcDbLine
 62
40
  6
CONTINUOUS
 10
5.668186075
 20
5.0778041826
 11
5.6717017
 21
5.0918666826
  0
LINE
  5
2F9
100
AcDbEntity
  8
03__ASM_ALL_CURVES
100
AcDbLine
 62
40
  6
CONTINUOUS
 10
5.7279517
 20
5.0496791826
 11
5.745529825
 21
5.1059291826
  0
LINE
  5
2FA
100
AcDbEntity
  8
03__ASM_ALL_CURVES
100
AcDbLine
 62
40
  6
CONTINUOUS
 10
5.984592325
 20
5.0590541829
 11
5.9810767
 21
5.0543666827
  0
LINE
  5
2FB
100
AcDbEntity
  8
03__ASM_ALL_CURVES
100
AcDbLine
 62
40
  6
CONTINUOUS
 10
6.07248295
 20
5.1012416837
 11
6.068967325
 21
5.0965541815
  0
LINE
  5
2FC
100
AcDbEntity
  8
03__ASM_ALL_CURVES
100
AcDbLine
 62
40
  6
CONTINUOUS
 10
6.097092325
 20
5.0590541829
 11
6.0935767
 21
5.0543666827
  0
LINE
  5
2FD
100
AcDbEntity
  8
0
100
AcDbLine
 62
7
  6
CONTINUOUS
 10
4.8292393626
 20
3.6854406351
 11
4.8207173247
 21
3.6760931826
  0
LINE
  5
2FE
100
AcDbEntity
  8
0
100
AcDbLine
 62
7
  6
CONTINUOUS
 10
4.7687173247
 20
3.6760931826
 11
4.7086660884
 21
3.6160419463
  0
LINE
  5
2FF
100
AcDbEntity
  8
03__ASM_ALL_CURVES
100
AcDbLine
 62
40
  6
CONTINUOUS
 10
6.371311075
 20
5.0543666827
 11
6.364279825
 21
5.0496791826
  0
LINE
  5
300
100
AcDbEntity
  8
03__ASM_ALL_CURVES
100
AcDbLine
 62
40
  6
CONTINUOUS
 10
6.4873267
 20
5.0824916815
 11
6.48029545
 21
5.0778041826
  0
LINE
  5
301
100
AcDbEntity
  8
03__ASM_ALL_CURVES
100
AcDbLine
 62
40
  6
CONTINUOUS
 10
6.3981665313
 20
3.5105931826
 11
6.4034399688
 21
3.5070775584
  0
LINE
  5
302
100
AcDbEntity
  8
03__ASM_ALL_CURVES
100
AcDbLine
 62
40
  6
CONTINUOUS
 10
6.4403540313
 20
3.5105931826
 11
6.4456274688
 21
3.5070775584
  0
LINE
  5
303
100
AcDbEntity
  8
03__ASM_ALL_CURVES
100
AcDbLine
 62
40
  6
CONTINUOUS
 10
6.5247290313
 20
3.5105931826
 11
6.5300024688
 21
3.5070775584
  0
LINE
  5
304
100
AcDbEntity
  8
03__ASM_ALL_CURVES
100
AcDbLine
 62
40
  6
CONTINUOUS
 10
4.7922641997
 20
5.1012416837
 11
4.7957798247
 21
5.0965541815
  0
LINE
  5
305
100
AcDbEntity
  8
03__ASM_ALL_CURVES
100
AcDbLine
 62
40
  6
CONTINUOUS
 10
4.8344516997
 20
5.0590541829
 11
4.8414829497
 21
5.0496791826
  0
LINE
  5
306
100
AcDbEntity
  8
03__ASM_ALL_CURVES
100
AcDbLine
 62
40
  6
CONTINUOUS
 10
4.9047641997
 20
5.1012416837
 11
4.9082798247
 21
5.0965541815
  0
LINE
  5
307
100
AcDbEntity
  8
03__ASM_ALL_CURVES
100
AcDbLine
 62
40
  6
CONTINUOUS
 10
4.9434360747
 20
5.0543666827
 11
4.9399204497
 21
5.0590541829
  0
LINE
  5
308
100
AcDbEntity
  8
0
100
AcDbLine
 62
7
  6
CONTINUOUS
 10
5.6047173247
 20
3.7000937976
 11
5.6047173247
 21
4.5090925676
  0
LINE
  5
309
100
AcDbEntity
  8
0
100
AcDbLine
 62
7
  6
CONTINUOUS
 10
5.6547173247
 20
3.7000937976
 11
5.6547173247
 21
4.5090925676
  0
LINE
  5
30A
100
AcDbEntity
  8
0
100
AcDbLine
 62
7
  6
CONTINUOUS
 10
5.6672117712
 20
3.7540931826
 11
5.6672117712
 21
4.4550931826
  0
LINE
  5
30B
100
AcDbEntity
  8
0
100
AcDbLine
 62
7
  6
CONTINUOUS
 10
5.6784701014
 20
3.7475931826
 11
5.6784701014
 21
4.4615931826
  0
LINE
  5
30C
100
AcDbEntity
  8
THREAD
100
AcDbLine
 62
7
  6
CONTINUOUS
 10
5.6960792846
 20
3.7170931826
 11
5.6960792846
 21
4.4920931826
  0
LINE
  5
30D
100
AcDbEntity
  8
THREAD
100
AcDbLine
 62
7
  6
CONTINUOUS
 10
5.6960792846
 20
4.4920931826
 11
5.6784701014
 21
4.4615931826
  0
LINE
  5
30E
100
AcDbEntity
  8
03__ASM_ALL_CURVES
100
AcDbLine
 62
40
  6
CONTINUOUS
 10
6.1779517
 20
5.0918666826
 11
6.18498295
 21
5.1012416837
  0
LINE
  5
30F
100
AcDbEntity
  8
03__ASM_ALL_CURVES
100
AcDbLine
 62
40
  6
CONTINUOUS
 10
6.21310795
 20
5.0637416826
 11
6.2060767
 21
5.0543666827
  0
LINE
  5
310
100
AcDbEntity
  8
03__ASM_ALL_CURVES
100
AcDbLine
 62
40
  6
CONTINUOUS
 10
7.1780884182
 20
4.1139681826
 11
7.1728149807
 21
4.1139681826
  0
LINE
  5
311
100
AcDbEntity
  8
03__ASM_ALL_CURVES
100
AcDbLine
 62
40
  6
CONTINUOUS
 10
7.2202759182
 20
4.1350619326
 11
7.2070923245
 21
4.1350619326
  0
LINE
  5
312
100
AcDbEntity
  8
03__ASM_ALL_CURVES
100
AcDbLine
 62
40
  6
CONTINUOUS
 10
7.1359009182
 20
4.1350619326
 11
7.1227173245
 21
4.1350619326
  0
LINE
  5
313
100
AcDbEntity
  8
03__ASM_ALL_CURVES
100
AcDbLine
 62
40
  6
CONTINUOUS
 10
7.1227173245
 20
4.1561556826
 11
7.1359009182
 21
4.1561556826
  0
LINE
  5
314
100
AcDbEntity
  8
03__ASM_ALL_CURVES
100
AcDbLine
 62
40
  6
CONTINUOUS
 10
7.1728149807
 20
4.1561556826
 11
7.1780884182
 21
4.1561556826
  0
LINE
  5
315
100
AcDbEntity
  8
03__ASM_ALL_CURVES
100
AcDbLine
 62
40
  6
CONTINUOUS
 10
7.2070923245
 20
4.1561556826
 11
7.2202759182
 21
4.1561556826
  0
LINE
  5
316
100
AcDbEntity
  8
03__ASM_ALL_CURVES
100
AcDbLine
 62
40
  6
CONTINUOUS
 10
7.2466431057
 20
4.1561556826
 11
7.2730102932
 21
4.1561556826
  0
LINE
  5
317
100
AcDbEntity
  8
03__ASM_ALL_CURVES
100
AcDbLine
 62
40
  6
CONTINUOUS
 10
4.9574985747
 20
5.1012416837
 11
4.9610141997
 21
5.0965541815
  0
LINE
  5
318
100
AcDbEntity
  8
03__ASM_ALL_CURVES
100
AcDbLine
 62
40
  6
CONTINUOUS
 10
5.0032016997
 20
5.0543666827
 11
5.0067173247
 21
5.0496791826
  0
LINE
  5
319
100
AcDbEntity
  8
03__ASM_ALL_CURVES
100
AcDbLine
 62
40
  6
CONTINUOUS
 10
5.0559360747
 20
5.0543666827
 11
5.0524204497
 21
5.0590541829
  0
LINE
  5
31A
100
AcDbEntity
  8
03__ASM_ALL_CURVES
100
AcDbLine
 62
40
  6
CONTINUOUS
 10
5.801779825
 20
5.1059291826
 11
5.801779825
 21
5.0496791826
  0
LINE
  5
31B
100
AcDbEntity
  8
03__ASM_ALL_CURVES
100
AcDbLine
 62
40
  6
CONTINUOUS
 10
5.949436075
 20
5.0778041826
 11
5.9529517
 21
5.0918666826
  0
LINE
  5
31C
100
AcDbEntity
  8
03__ASM_ALL_CURVES
100
AcDbLine
 62
40
  6
CONTINUOUS
 10
6.265842325
 20
5.0590541829
 11
6.2623267
 21
5.0543666827
  0
LINE
  5
31D
100
AcDbEntity
  8
03__ASM_ALL_CURVES
100
AcDbLine
 62
40
  6
CONTINUOUS
 10
5.1425708446
 20
3.4965306834
 11
5.1399341258
 21
3.4930150568
  0
LINE
  5
31E
100
AcDbEntity
  8
03__ASM_ALL_CURVES
100
AcDbLine
 62
40
  6
CONTINUOUS
 10
5.1610278758
 20
3.5000463076
 11
5.1663013133
 21
3.5070775584
  0
LINE
  5
31F
100
AcDbEntity
  8
03__ASM_ALL_CURVES
100
AcDbLine
 62
40
  6
CONTINUOUS
 10
5.1873950633
 20
3.4789525576
 11
5.1821216258
 21
3.4719213077
  0
LINE
  5
320
100
AcDbEntity
  8
03__ASM_ALL_CURVES
100
AcDbLine
 62
40
  6
CONTINUOUS
 10
6.378342325
 20
5.0637416826
 11
6.371311075
 21
5.0543666827
  0
LINE
  5
321
100
AcDbEntity
  8
03__ASM_ALL_CURVES
100
AcDbLine
 62
40
  6
CONTINUOUS
 10
5.2269458446
 20
3.4965306834
 11
5.2243091258
 21
3.4930150568
  0
LINE
  5
322
100
AcDbEntity
  8
03__ASM_ALL_CURVES
100
AcDbLine
 62
40
  6
CONTINUOUS
 10
5.0699985747
 20
5.1012416837
 11
5.0735141997
 21
5.0965541815
  0
LINE
  5
323
100
AcDbEntity
  8
03__ASM_ALL_CURVES
100
AcDbLine
 62
40
  6
CONTINUOUS
 10
6.3876196563
 20
3.4719213077
 11
6.3823462188
 21
3.4789525576
  0
LINE
  5
324
100
AcDbEntity
  8
03__ASM_ALL_CURVES
100
AcDbLine
 62
40
  6
CONTINUOUS
 10
6.3612524688
 20
3.5070775584
 11
6.3638891876
 21
3.5035619318
  0
LINE
  5
325
100
AcDbEntity
  8
03__ASM_ALL_CURVES
100
AcDbLine
 62
40
  6
CONTINUOUS
 10
5.1719516997
 20
5.1059291826
 11
5.1789829497
 21
5.0965541815
  0
LINE
  5
326
100
AcDbEntity
  8
03__ASM_ALL_CURVES
100
AcDbLine
 62
40
  6
CONTINUOUS
 10
6.4034399688
 20
3.5070775584
 11
6.4087134063
 21
3.5000463076
  0
LINE
  5
327
100
AcDbEntity
  8
03__ASM_ALL_CURVES
100
AcDbLine
 62
40
  6
CONTINUOUS
 10
5.6154517
 20
5.0637416826
 11
5.611936075
 21
5.0778041826
  0
LINE
  5
328
100
AcDbEntity
  8
03__ASM_ALL_CURVES
100
AcDbLine
 62
40
  6
CONTINUOUS
 10
5.858029825
 20
5.1059291826
 11
5.858029825
 21
5.0496791826
  0
LINE
  5
329
100
AcDbEntity
  8
03__ASM_ALL_CURVES
100
AcDbLine
 62
40
  6
CONTINUOUS
 10
5.900217325
 20
5.0496791826
 11
5.900217325
 21
5.1059291826
  0
LINE
  5
32A
100
AcDbEntity
  8
03__ASM_ALL_CURVES
100
AcDbLine
 62
40
  6
CONTINUOUS
 10
5.928342325
 20
5.0496791826
 11
5.928342325
 21
5.1059291826
  0
LINE
  5
32B
100
AcDbEntity
  8
03__ASM_ALL_CURVES
100
AcDbLine
 62
40
  6
CONTINUOUS
 10
6.490842325
 20
5.0871791837
 11
6.4873267
 21
5.0824916815
  0
LINE
  5
32C
100
AcDbEntity
  8
03__ASM_ALL_CURVES
100
AcDbLine
 62
40
  6
CONTINUOUS
 10
5.3113208446
 20
3.5000463076
 11
5.3086841258
 21
3.4965306834
  0
LINE
  5
32D
100
AcDbEntity
  8
03__ASM_ALL_CURVES
100
AcDbLine
 62
40
  6
CONTINUOUS
 10
5.3139575633
 20
3.4789525576
 11
5.3086841258
 21
3.4719213077
  0
LINE
  5
32E
100
AcDbEntity
  8
0
100
AcDbLine
 62
7
  6
CONTINUOUS
 10
4.7082173247
 20
4.3229981276
 11
4.3347809905
 21
4.3229981276
  0
LINE
  5
32F
100
AcDbEntity
  8
0
100
AcDbLine
 62
7
  6
CONTINUOUS
 10
4.7082173247
 20
4.3742907101
 11
4.3347809905
 21
4.3742907101
  0
LINE
  5
330
100
AcDbEntity
  8
0
100
AcDbLine
 62
7
  6
CONTINUOUS
 10
6.1757173247
 20
4.3845931826
 11
6.4092173247
 21
4.3845931826
  0
LINE
  5
331
100
AcDbEntity
  8
0
100
AcDbLine
 62
7
  6
CONTINUOUS
 10
6.5182173247
 20
4.3845931826
 11
6.5807173247
 21
4.3845931826
  0
LINE
  5
332
100
AcDbEntity
  8
0
100
AcDbLine
 62
7
  6
CONTINUOUS
 10
6.7737173247
 20
4.3925931826
 11
6.7947173247
 21
4.3925931826
  0
LINE
  5
333
100
AcDbEntity
  8
THREAD
100
AcDbLine
 62
7
  6
CONTINUOUS
 10
5.5033057819
 20
4.5095931826
 11
5.4877173247
 21
4.5185931826
  0
LINE
  5
334
100
AcDbEntity
  8
03__ASM_ALL_CURVES
100
AcDbLine
 62
40
  6
CONTINUOUS
 10
4.7782016997
 20
5.0496791826
 11
4.7711704497
 21
5.0543666827
  0
LINE
  5
335
100
AcDbEntity
  8
03__ASM_ALL_CURVES
100
AcDbLine
 62
40
  6
CONTINUOUS
 10
4.7782016997
 20
5.0824916815
 11
4.7711704497
 21
5.0871791837
  0
LINE
  5
336
100
AcDbEntity
  8
03__ASM_ALL_CURVES
100
AcDbLine
 62
40
  6
CONTINUOUS
 10
4.7852329497
 20
5.0824916815
 11
4.7922641997
 21
5.0778041826
  0
LINE
  5
337
100
AcDbEntity
  8
03__ASM_ALL_CURVES
100
AcDbLine
 62
40
  6
CONTINUOUS
 10
4.7852329497
 20
5.1059291826
 11
4.7922641997
 21
5.1012416837
  0
LINE
  5
338
100
AcDbEntity
  8
03__ASM_ALL_CURVES
100
AcDbLine
 62
40
  6
CONTINUOUS
 10
6.4456274688
 20
3.5070775584
 11
6.4482641876
 21
3.5035619318
  0
LINE
  5
339
100
AcDbEntity
  8
03__ASM_ALL_CURVES
100
AcDbLine
 62
40
  6
CONTINUOUS
 10
6.5300024688
 20
3.5070775584
 11
6.5326391876
 21
3.5035619318
  0
LINE
  5
33A
100
AcDbEntity
  8
03__ASM_ALL_CURVES
100
AcDbLine
 62
40
  6
CONTINUOUS
 10
5.65060795
 20
5.0918666826
 11
5.654123575
 21
5.0778041826
  0
LINE
  5
33B
100
AcDbEntity
  8
03__ASM_ALL_CURVES
100
AcDbLine
 62
40
  6
CONTINUOUS
 10
5.6717017
 20
5.0637416826
 11
5.668186075
 21
5.0778041826
  0
LINE
  5
33C
100
AcDbEntity
  8
THREAD
100
AcDbLine
 62
7
  6
CONTINUOUS
 10
5.9432173247
 20
3.7170931826
 11
5.9432173247
 21
4.4920931826
  0
LINE
  5
33D
100
AcDbEntity
  8
03__ASM_ALL_CURVES
100
AcDbLine
 62
40
  6
CONTINUOUS
 10
5.984592325
 20
5.0778041826
 11
5.984592325
 21
5.0590541829
  0
LINE
  5
33E
100
AcDbEntity
  8
THREAD
100
AcDbLine
 62
7
  6
CONTINUOUS
 10
5.9877173247
 20
3.7615931826
 11
5.9877173247
 21
4.4475931826
  0
LINE
  5
33F
100
AcDbEntity
  8
03__ASM_ALL_CURVES
100
AcDbLine
 62
40
  6
CONTINUOUS
 10
6.174436075
 20
5.0778041826
 11
6.1779517
 21
5.0918666826
  0
LINE
  5
340
100
AcDbEntity
  8
03__ASM_ALL_CURVES
100
AcDbLine
 62
40
  6
CONTINUOUS
 10
6.216623575
 20
5.0778041826
 11
6.21310795
 21
5.0637416826
  0
LINE
  5
341
100
AcDbEntity
  8
0
100
AcDbLine
 62
7
  6
CONTINUOUS
 10
6.6537173247
 20
4.4465931826
 11
6.7037173247
 21
4.4465931826
  0
LINE
  5
342
100
AcDbEntity
  8
0
100
AcDbLine
 62
7
  6
CONTINUOUS
 10
6.8467173247
 20
4.4470931826
 11
6.7997173247
 21
4.4470931826
  0
LINE
  5
343
100
AcDbEntity
  8
0
100
AcDbLine
 62
7
  6
CONTINUOUS
 10
6.6487173247
 20
4.4470931826
 11
6.5857173247
 21
4.4470931826
  0
LINE
  5
344
100
AcDbEntity
  8
THREAD
100
AcDbLine
 62
7
  6
CONTINUOUS
 10
6.1657173247
 20
4.4475931826
 11
5.9877173247
 21
4.4475931826
  0
LINE
  5
345
100
AcDbEntity
  8
0
100
AcDbLine
 62
7
  6
CONTINUOUS
 10
5.4098076687
 20
4.4475931826
 11
5.1076269806
 21
4.4475931826
  0
LINE
  5
346
100
AcDbEntity
  8
THREAD
100
AcDbLine
 62
7
  6
CONTINUOUS
 10
5.6672117712
 20
4.4550931826
 11
5.6547173247
 21
4.4550931826
  0
LINE
  5
347
100
AcDbEntity
  8
0
100
AcDbLine
 62
7
  6
CONTINUOUS
 10
5.0217173247
 20
4.4785931826
 11
5.0137173247
 21
4.4785931826
  0
LINE
  5
348
100
AcDbEntity
  8
THREAD
100
AcDbLine
 62
7
  6
CONTINUOUS
 10
5.9432173247
 20
4.4920931826
 11
5.6960792846
 21
4.4920931826
  0
LINE
  5
349
100
AcDbEntity
  8
0
100
AcDbLine
 62
7
  6
CONTINUOUS
 10
5.6047173247
 20
4.5090931826
 11
5.6547173247
 21
4.5090931826
  0
LINE
  5
34A
100
AcDbEntity
  8
THREAD
100
AcDbLine
 62
7
  6
CONTINUOUS
 10
5.5347173247
 20
4.5095931826
 11
5.5033057819
 21
4.5095931826
  0
LINE
  5
34B
100
AcDbEntity
  8
03__ASM_ALL_CURVES
100
AcDbLine
 62
40
  6
CONTINUOUS
 10
4.9504673247
 20
5.0496791826
 11
4.9434360747
 21
5.0543666827
  0
LINE
  5
34C
100
AcDbEntity
  8
03__ASM_ALL_CURVES
100
AcDbLine
 62
40
  6
CONTINUOUS
 10
4.8977329497
 20
5.1059291826
 11
4.9047641997
 21
5.1012416837
  0
LINE
  5
34D
100
AcDbEntity
  8
03__ASM_ALL_CURVES
100
AcDbLine
 62
40
  6
CONTINUOUS
 10
4.9504673247
 20
5.1059291826
 11
4.9574985747
 21
5.1012416837
  0
LINE
  5
34E
100
AcDbEntity
  8
03__ASM_ALL_CURVES
100
AcDbLine
 62
40
  6
CONTINUOUS
 10
5.0629673247
 20
5.0496791826
 11
5.0559360747
 21
5.0543666827
  0
LINE
  5
34F
100
AcDbEntity
  8
0
100
AcDbLine
 62
7
  6
CONTINUOUS
 10
6.5857173247
 20
3.7620931826
 11
6.5807173247
 21
3.7670931826
  0
LINE
  5
350
100
AcDbEntity
  8
03__ASM_ALL_CURVES
100
AcDbLine
 62
40
  6
CONTINUOUS
 10
5.745529825
 20
5.1059291826
 11
5.76310795
 21
5.0496791826
  0
LINE
  5
351
100
AcDbEntity
  8
03__ASM_ALL_CURVES
100
AcDbLine
 62
40
  6
CONTINUOUS
 10
6.068967325
 20
5.0965541815
 11
6.068967325
 21
5.0918666826
  0
LINE
  5
352
100
AcDbEntity
  8
03__ASM_ALL_CURVES
100
AcDbLine
 62
40
  6
CONTINUOUS
 10
6.097092325
 20
5.0684291832
 11
6.097092325
 21
5.0590541829
  0
LINE
  5
353
100
AcDbEntity
  8
03__ASM_ALL_CURVES
100
AcDbLine
 62
40
  6
CONTINUOUS
 10
6.125217325
 20
5.1059291826
 11
6.125217325
 21
5.0496791826
  0
LINE
  5
354
100
AcDbEntity
  8
03__ASM_ALL_CURVES
100
AcDbLine
 62
40
  6
CONTINUOUS
 10
6.153342325
 20
5.1059291826
 11
6.153342325
 21
5.0496791826
  0
LINE
  5
355
100
AcDbEntity
  8
03__ASM_ALL_CURVES
100
AcDbLine
 62
40
  6
CONTINUOUS
 10
5.1399341258
 20
3.4930150568
 11
5.1346606883
 21
3.4894994326
  0
LINE
  5
356
100
AcDbEntity
  8
03__ASM_ALL_CURVES
100
AcDbLine
 62
40
  6
CONTINUOUS
 10
5.1663013133
 20
3.5070775584
 11
5.1715747508
 21
3.5105931826
  0
LINE
  5
357
100
AcDbEntity
  8
03__ASM_ALL_CURVES
100
AcDbLine
 62
40
  6
CONTINUOUS
 10
5.1821216258
 20
3.4719213077
 11
5.1768481883
 21
3.4684056826
  0
LINE
  5
358
100
AcDbEntity
  8
03__ASM_ALL_CURVES
100
AcDbLine
 62
40
  6
CONTINUOUS
 10
5.2243091258
 20
3.4930150568
 11
5.2190356883
 21
3.4894994326
  0
LINE
  5
359
100
AcDbEntity
  8
0
100
AcDbLine
 62
7
  6
CONTINUOUS
 10
4.8937173247
 20
4.5325931826
 11
4.9437173247
 21
4.5325931826
  0
LINE
  5
35A
100
AcDbEntity
  8
0
100
AcDbLine
 62
7
  6
CONTINUOUS
 10
5.4877173247
 20
4.5330931826
 11
5.4327173247
 21
4.5330931826
  0
LINE
  5
35B
100
AcDbEntity
  8
0
100
AcDbLine
 62
7
  6
CONTINUOUS
 10
5.0847173247
 20
4.5330931826
 11
5.0347173247
 21
4.5330931826
  0
LINE
  5
35C
100
AcDbEntity
  8
0
100
AcDbLine
 62
7
  6
CONTINUOUS
 10
4.8937173247
 20
4.5330931826
 11
4.8407173247
 21
4.5330931826
  0
LINE
  5
35D
100
AcDbEntity
  8
0
100
AcDbLine
 62
7
  6
CONTINUOUS
 10
4.8207173247
 20
4.5330931826
 11
4.7687173247
 21
4.5330931826
  0
LINE
  5
35E
100
AcDbEntity
  8
0
100
AcDbLine
 62
7
  6
CONTINUOUS
 10
4.7082173247
 20
4.5926956551
 11
4.3347809905
 21
4.5926956551
  0
LINE
  5
35F
100
AcDbEntity
  8
0
100
AcDbLine
 62
7
  6
CONTINUOUS
 10
4.7082173247
 20
4.5935931826
 11
4.3347809905
 21
4.5935931826
  0
LINE
  5
360
100
AcDbEntity
  8
03__ASM_ALL_CURVES
100
AcDbLine
 62
40
  6
CONTINUOUS
 10
5.0629673247
 20
5.1059291826
 11
5.0699985747
 21
5.1012416837
  0
LINE
  5
361
100
AcDbEntity
  8
THREAD
100
AcDbLine
 62
7
  6
CONTINUOUS
 10
5.9877173247
 20
4.4475931826
 11
5.9432173247
 21
4.4920931826
  0
LINE
  5
362
100
AcDbEntity
  8
0
100
AcDbLine
 62
7
  6
CONTINUOUS
 10
6.7997173247
 20
3.7620931826
 11
6.7947173247
 21
3.7670931826
  0
LINE
  5
363
100
AcDbEntity
  8
03__ASM_ALL_CURVES
100
AcDbLine
 62
40
  6
CONTINUOUS
 10
5.62248295
 20
5.0543666827
 11
5.6154517
 21
5.0637416826
  0
LINE
  5
364
100
AcDbEntity
  8
03__ASM_ALL_CURVES
100
AcDbLine
 62
40
  6
CONTINUOUS
 10
6.4403540313
 20
3.4894994326
 11
6.4482641876
 21
3.4684056826
  0
LINE
  5
365
100
AcDbEntity
  8
03__ASM_ALL_CURVES
100
AcDbLine
 62
40
  6
CONTINUOUS
 10
5.9529517
 20
5.0637416826
 11
5.949436075
 21
5.0778041826
  0
LINE
  5
366
100
AcDbEntity
  8
0
100
AcDbLine
 62
7
  6
CONTINUOUS
 10
6.1657173247
 20
3.7615931826
 11
6.1657173247
 21
4.4475931826
  0
LINE
  5
367
100
AcDbEntity
  8
0
100
AcDbLine
 62
7
  6
CONTINUOUS
 10
6.1757173247
 20
3.7715931826
 11
6.1757173247
 21
4.4375931826
  0
LINE
  5
368
100
AcDbEntity
  8
03__ASM_ALL_CURVES
100
AcDbLine
 62
40
  6
CONTINUOUS
 10
6.237717325
 20
5.0590541829
 11
6.237717325
 21
5.1059291826
  0
LINE
  5
369
100
AcDbEntity
  8
03__ASM_ALL_CURVES
100
AcDbLine
 62
40
  6
CONTINUOUS
 10
6.265842325
 20
5.1059291826
 11
6.265842325
 21
5.0590541829
  0
LINE
  5
36A
100
AcDbEntity
  8
03__ASM_ALL_CURVES
100
AcDbLine
 62
40
  6
CONTINUOUS
 10
6.38185795
 20
5.0778041826
 11
6.378342325
 21
5.0637416826
  0
LINE
  5
36B
100
AcDbEntity
  8
0
100
AcDbLine
 62
7
  6
CONTINUOUS
 10
6.5857173247
 20
4.4470931826
 11
6.5807173247
 21
4.4420931826
  0
LINE
  5
36C
100
AcDbEntity
  8
03__ASM_ALL_CURVES
100
AcDbLine
 62
40
  6
CONTINUOUS
 10
5.2928638133
 20
3.5070775584
 11
5.2981372508
 21
3.5105931826
  0
LINE
  5
36D
100
AcDbEntity
  8
03__ASM_ALL_CURVES
100
AcDbLine
 62
40
  6
CONTINUOUS
 10
5.3086841258
 20
3.4965306834
 11
5.3034106883
 21
3.4930150568
  0
LINE
  5
36E
100
AcDbEntity
  8
03__ASM_ALL_CURVES
100
AcDbLine
 62
40
  6
CONTINUOUS
 10
5.3086841258
 20
3.4719213077
 11
5.3034106883
 21
3.4684056826
  0
LINE
  5
36F
100
AcDbEntity
  8
THREAD
100
AcDbLine
 62
7
  6
CONTINUOUS
 10
5.5033057819
 20
3.6995931826
 11
5.4877173247
 21
3.6905931826
  0
LINE
  5
370
100
AcDbEntity
  8
03__ASM_ALL_CURVES
100
AcDbLine
 62
40
  6
CONTINUOUS
 10
4.9504673247
 20
5.073116682
 11
4.9399204497
 21
5.0778041826
  0
LINE
  5
371
100
AcDbEntity
  8
03__ASM_ALL_CURVES
100
AcDbLine
 62
40
  6
CONTINUOUS
 10
5.0629673247
 20
5.073116682
 11
5.0524204497
 21
5.0778041826
  0
LINE
  5
372
100
AcDbEntity
  8
0
100
AcDbLine
 62
7
  6
CONTINUOUS
 10
6.1757173247
 20
4.4375931826
 11
6.1657173247
 21
4.4475931826
  0
LINE
  5
373
100
AcDbEntity
  8
03__ASM_ALL_CURVES
100
AcDbLine
 62
40
  6
CONTINUOUS
 10
5.67873295
 20
5.0543666827
 11
5.6717017
 21
5.0637416826
  0
LINE
  5
374
100
AcDbEntity
  8
03__ASM_ALL_CURVES
100
AcDbLine
 62
40
  6
CONTINUOUS
 10
5.6435767
 20
5.1012416837
 11
5.65060795
 21
5.0918666826
  0
LINE
  5
375
100
AcDbEntity
  8
03__ASM_ALL_CURVES
100
AcDbLine
 62
40
  6
CONTINUOUS
 10
5.6998267
 20
5.1012416837
 11
5.703342325
 21
5.0965541815
  0
LINE
  5
376
100
AcDbEntity
  8
03__ASM_ALL_CURVES
100
AcDbLine
 62
40
  6
CONTINUOUS
 10
5.900217325
 20
5.1059291826
 11
5.928342325
 21
5.0496791826
  0
LINE
  5
377
100
AcDbEntity
  8
03__ASM_ALL_CURVES
100
AcDbLine
 62
40
  6
CONTINUOUS
 10
6.3823462188
 20
3.4789525576
 11
6.3797095001
 21
3.4894994326
  0
LINE
  5
378
100
AcDbEntity
  8
03__ASM_ALL_CURVES
100
AcDbLine
 62
40
  6
CONTINUOUS
 10
6.4087134063
 20
3.5000463076
 11
6.4113501251
 21
3.4894994326
  0
LINE
  5
379
100
AcDbEntity
  8
03__ASM_ALL_CURVES
100
AcDbLine
 62
40
  6
CONTINUOUS
 10
6.293967325
 20
5.1059291826
 11
6.293967325
 21
5.0496791826
  0
LINE
  5
37A
100
AcDbEntity
  8
03__ASM_ALL_CURVES
100
AcDbLine
 62
40
  6
CONTINUOUS
 10
6.3427954376
 20
3.4684056826
 11
6.3427954376
 21
3.5105931826
  0
LINE
  5
37B
100
AcDbEntity
  8
03__ASM_ALL_CURVES
100
AcDbLine
 62
40
  6
CONTINUOUS
 10
6.350217325
 20
5.0496791826
 11
6.350217325
 21
5.1059291826
  0
LINE
  5
37C
100
AcDbEntity
  8
03__ASM_ALL_CURVES
100
AcDbLine
 62
40
  6
CONTINUOUS
 10
6.3638891876
 20
3.5035619318
 11
6.3638891876
 21
3.4965306834
  0
LINE
  5
37D
100
AcDbEntity
  8
THREAD
100
AcDbLine
 62
7
  6
CONTINUOUS
 10
5.9877173247
 20
3.7615931826
 11
5.9432173247
 21
3.7170931826
  0
LINE
  5
37E
100
AcDbEntity
  8
03__ASM_ALL_CURVES
100
AcDbLine
 62
40
  6
CONTINUOUS
 10
4.3569673247
 20
5.0246791826
 11
4.3007173247
 21
5.0309291826
  0
LINE
  5
37F
100
AcDbEntity
  8
03__ASM_ALL_CURVES
100
AcDbLine
 62
40
  6
CONTINUOUS
 10
4.3569673247
 20
5.0231166826
 11
4.3007173247
 21
5.0309291826
  0
LINE
  5
380
100
AcDbEntity
  8
03__ASM_ALL_CURVES
100
AcDbLine
 62
40
  6
CONTINUOUS
 10
4.3569673247
 20
5.0215541826
 11
4.3007173247
 21
5.0309291826
  0
LINE
  5
381
100
AcDbEntity
  8
03__ASM_ALL_CURVES
100
AcDbLine
 62
40
  6
CONTINUOUS
 10
5.6295142
 20
5.0496791826
 11
5.62248295
 21
5.0543666827
  0
LINE
  5
382
100
AcDbEntity
  8
03__ASM_ALL_CURVES
100
AcDbLine
 62
40
  6
CONTINUOUS
 10
5.6857642
 20
5.0496791826
 11
5.67873295
 21
5.0543666827
  0
LINE
  5
383
100
AcDbEntity
  8
03__ASM_ALL_CURVES
100
AcDbLine
 62
40
  6
CONTINUOUS
 10
6.1779517
 20
5.0637416826
 11
6.174436075
 21
5.0778041826
  0
LINE
  5
384
100
AcDbEntity
  8
03__ASM_ALL_CURVES
100
AcDbLine
 62
40
  6
CONTINUOUS
 10
6.406467325
 20
5.0496791826
 11
6.406467325
 21
5.1059291826
  0
LINE
  5
385
100
AcDbEntity
  8
03__ASM_ALL_CURVES
100
AcDbLine
 62
40
  6
CONTINUOUS
 10
6.4271704376
 20
3.4684056826
 11
6.4271704376
 21
3.5105931826
  0
LINE
  5
386
100
AcDbEntity
  8
03__ASM_ALL_CURVES
100
AcDbLine
 62
40
  6
CONTINUOUS
 10
6.4482641876
 20
3.5035619318
 11
6.4482641876
 21
3.4965306834
  0
LINE
  5
387
100
AcDbEntity
  8
03__ASM_ALL_CURVES
100
AcDbLine
 62
40
  6
CONTINUOUS
 10
6.462717325
 20
5.0496791826
 11
6.462717325
 21
5.1059291826
  0
LINE
  5
388
100
AcDbEntity
  8
03__ASM_ALL_CURVES
100
AcDbLine
 62
40
  6
CONTINUOUS
 10
6.4799048126
 20
3.5105931826
 11
6.4799048126
 21
3.4684056826
  0
LINE
  5
389
100
AcDbEntity
  8
03__ASM_ALL_CURVES
100
AcDbLine
 62
40
  6
CONTINUOUS
 10
6.490842325
 20
5.0965541815
 11
6.490842325
 21
5.0871791837
  0
LINE
  5
38A
100
AcDbEntity
  8
0
100
AcDbLine
 62
7
  6
CONTINUOUS
 10
6.7997173247
 20
4.4470931826
 11
6.7947173247
 21
4.4420931826
  0
LINE
  5
38B
100
AcDbEntity
  8
0
100
AcDbLine
 62
7
  6
CONTINUOUS
 10
6.1757173247
 20
3.7715931826
 11
6.1657173247
 21
3.7615931826
  0
LINE
  5
38C
100
AcDbEntity
  8
03__ASM_ALL_CURVES
100
AcDbLine
 62
40
  6
CONTINUOUS
 10
4.3569673247
 20
5.0278041826
 11
4.3007173247
 21
5.0309291826
  0
LINE
  5
38D
100
AcDbEntity
  8
03__ASM_ALL_CURVES
100
AcDbLine
 62
40
  6
CONTINUOUS
 10
4.3569673247
 20
5.0262416826
 11
4.3007173247
 21
5.0309291826
  0
LINE
  5
38E
100
AcDbEntity
  8
03__ASM_ALL_CURVES
100
AcDbLine
 62
40
  6
CONTINUOUS
 10
5.4314673247
 20
5.0387416826
 11
5.5439673247
 21
5.0231166826
  0
LINE
  5
38F
100
AcDbEntity
  8
03__ASM_ALL_CURVES
100
AcDbLine
 62
40
  6
CONTINUOUS
 10
5.5439673247
 20
5.0215541826
 11
5.4314673247
 21
5.0403041826
  0
LINE
  5
390
100
AcDbEntity
  8
03__ASM_ALL_CURVES
100
AcDbLine
 62
40
  6
CONTINUOUS
 10
5.63654545
 20
5.1059291826
 11
5.6435767
 21
5.1012416837
  0
LINE
  5
391
100
AcDbEntity
  8
03__ASM_ALL_CURVES
100
AcDbLine
 62
40
  6
CONTINUOUS
 10
7.1728149807
 20
4.1139681826
 11
7.1675415432
 21
4.1174838077
  0
LINE
  5
392
100
AcDbEntity
  8
03__ASM_ALL_CURVES
100
AcDbLine
 62
40
  6
CONTINUOUS
 10
5.69279545
 20
5.1059291826
 11
5.6998267
 21
5.1012416837
  0
LINE
  5
393
100
AcDbEntity
  8
03__ASM_ALL_CURVES
100
AcDbLine
 62
40
  6
CONTINUOUS
 10
7.1359009182
 20
4.1561556826
 11
7.1411743557
 21
4.1526400584
  0
LINE
  5
394
100
AcDbEntity
  8
03__ASM_ALL_CURVES
100
AcDbLine
 62
40
  6
CONTINUOUS
 10
7.1780884182
 20
4.1561556826
 11
7.1833618557
 21
4.1526400584
  0
LINE
  5
395
100
AcDbEntity
  8
03__ASM_ALL_CURVES
100
AcDbLine
 62
40
  6
CONTINUOUS
 10
7.2202759182
 20
4.1561556826
 11
7.2255493557
 21
4.1526400584
  0
LINE
  5
396
100
AcDbEntity
  8
03__ASM_ALL_CURVES
100
AcDbLine
 62
40
  6
CONTINUOUS
 10
5.95998295
 20
5.0543666827
 11
5.9529517
 21
5.0637416826
  0
LINE
  5
397
100
AcDbEntity
  8
03__ASM_ALL_CURVES
100
AcDbLine
 62
40
  6
CONTINUOUS
 10
5.9810767
 20
5.1012416837
 11
5.984592325
 21
5.0965541815
  0
LINE
  5
398
100
AcDbEntity
  8
03__ASM_ALL_CURVES
100
AcDbLine
 62
40
  6
CONTINUOUS
 10
6.07248295
 20
5.0543666827
 11
6.0654517
 21
5.0637416826
  0
LINE
  5
399
100
AcDbEntity
  8
03__ASM_ALL_CURVES
100
AcDbLine
 62
40
  6
CONTINUOUS
 10
6.068967325
 20
5.0918666826
 11
6.07248295
 21
5.0871791837
  0
LINE
  5
39A
100
AcDbEntity
  8
03__ASM_ALL_CURVES
100
AcDbLine
 62
40
  6
CONTINUOUS
 10
6.21310795
 20
5.0918666826
 11
6.216623575
 21
5.0778041826
  0
LINE
  5
39B
100
AcDbEntity
  8
03__ASM_ALL_CURVES
100
AcDbLine
 62
40
  6
CONTINUOUS
 10
6.5326391876
 20
3.5035619318
 11
6.5326391876
 21
3.4965306834
  0
LINE
  5
39C
100
AcDbEntity
  8
0
100
AcDbLine
 62
7
  6
CONTINUOUS
 10
6.5347173247
 20
3.9422827161
 11
6.5347173247
 21
3.9436815733
  0
LINE
  5
39D
100
AcDbEntity
  8
0
100
AcDbLine
 62
7
  6
CONTINUOUS
 10
6.5347173247
 20
4.0563829344
 11
6.5347173247
 21
4.1527651364
  0
LINE
  5
39E
100
AcDbEntity
  8
0
100
AcDbLine
 62
7
  6
CONTINUOUS
 10
6.5347173247
 20
4.2655047194
 11
6.5347173247
 21
4.2669036651
  0
LINE
  5
39F
100
AcDbEntity
  8
0
100
AcDbLine
 62
7
  6
CONTINUOUS
 10
6.5807173247
 20
3.7670931826
 11
6.5807173247
 21
4.4420931826
  0
LINE
  5
3A0
100
AcDbEntity
  8
0
100
AcDbLine
 62
7
  6
CONTINUOUS
 10
6.5857173247
 20
3.7620931826
 11
6.5857173247
 21
4.4470931826
  0
LINE
  5
3A1
100
AcDbEntity
  8
03__ASM_ALL_CURVES
100
AcDbLine
 62
40
  6
CONTINUOUS
 10
6.3797095001
 20
3.4894994326
 11
6.3823462188
 21
3.5000463076
  0
LINE
  5
3A2
100
AcDbEntity
  8
03__ASM_ALL_CURVES
100
AcDbLine
 62
40
  6
CONTINUOUS
 10
6.4113501251
 20
3.4894994326
 11
6.4087134063
 21
3.4789525576
  0
LINE
  5
3A3
100
AcDbEntity
  8
03__ASM_ALL_CURVES
100
AcDbLine
 62
40
  6
CONTINUOUS
 10
5.4314673247
 20
5.0215541826
 11
5.5439673247
 21
5.0403041826
  0
LINE
  5
3A4
100
AcDbEntity
  8
03__ASM_ALL_CURVES
100
AcDbLine
 62
40
  6
CONTINUOUS
 10
5.4314673247
 20
5.0231166826
 11
5.5439673247
 21
5.0387416826
  0
LINE
  5
3A5
100
AcDbEntity
  8
03__ASM_ALL_CURVES
100
AcDbLine
 62
40
  6
CONTINUOUS
 10
5.4314673247
 20
5.0246791826
 11
5.5439673247
 21
5.0371791826
  0
LINE
  5
3A6
100
AcDbEntity
  8
03__ASM_ALL_CURVES
100
AcDbLine
 62
40
  6
CONTINUOUS
 10
5.4314673247
 20
5.0262416826
 11
5.5439673247
 21
5.0356166826
  0
LINE
  5
3A7
100
AcDbEntity
  8
03__ASM_ALL_CURVES
100
AcDbLine
 62
40
  6
CONTINUOUS
 10
5.4314673247
 20
5.0278041826
 11
5.5439673247
 21
5.0340541826
  0
LINE
  5
3A8
100
AcDbEntity
  8
03__ASM_ALL_CURVES
100
AcDbLine
 62
40
  6
CONTINUOUS
 10
5.4314673247
 20
5.0293666826
 11
5.5439673247
 21
5.0324916826
  0
LINE
  5
3A9
100
AcDbEntity
  8
03__ASM_ALL_CURVES
100
AcDbLine
 62
40
  6
CONTINUOUS
 10
4.3569673247
 20
5.0324916826
 11
4.3007173247
 21
5.0309291826
  0
LINE
  5
3AA
100
AcDbEntity
  8
03__ASM_ALL_CURVES
100
AcDbLine
 62
40
  6
CONTINUOUS
 10
4.3007173247
 20
5.0309291826
 11
6.5564673247
 21
5.0309291826
  0
LINE
  5
3AB
100
AcDbEntity
  8
03__ASM_ALL_CURVES
100
AcDbLine
 62
40
  6
CONTINUOUS
 10
6.434592325
 20
5.0496791826
 11
6.406467325
 21
5.0496791826
  0
LINE
  5
3AC
100
AcDbEntity
  8
03__ASM_ALL_CURVES
100
AcDbLine
 62
40
  6
CONTINUOUS
 10
6.364279825
 20
5.0496791826
 11
6.350217325
 21
5.0496791826
  0
LINE
  5
3AD
100
AcDbEntity
  8
03__ASM_ALL_CURVES
100
AcDbLine
 62
40
  6
CONTINUOUS
 10
6.25529545
 20
5.0496791826
 11
6.2482642
 21
5.0496791826
  0
LINE
  5
3AE
100
AcDbEntity
  8
03__ASM_ALL_CURVES
100
AcDbLine
 62
40
  6
CONTINUOUS
 10
6.19904545
 20
5.0496791826
 11
6.1920142
 21
5.0496791826
  0
LINE
  5
3AF
100
AcDbEntity
  8
03__ASM_ALL_CURVES
100
AcDbLine
 62
40
  6
CONTINUOUS
 10
6.08654545
 20
5.0496791826
 11
6.0795142
 21
5.0496791826
  0
LINE
  5
3B0
100
AcDbEntity
  8
03__ASM_ALL_CURVES
100
AcDbLine
 62
40
  6
CONTINUOUS
 10
5.97404545
 20
5.0496791826
 11
5.9670142
 21
5.0496791826
  0
LINE
  5
3B1
100
AcDbEntity
  8
03__ASM_ALL_CURVES
100
AcDbLine
 62
40
  6
CONTINUOUS
 10
5.69279545
 20
5.0496791826
 11
5.6857642
 21
5.0496791826
  0
LINE
  5
3B2
100
AcDbEntity
  8
03__ASM_ALL_CURVES
100
AcDbLine
 62
40
  6
CONTINUOUS
 10
5.63654545
 20
5.0496791826
 11
5.6295142
 21
5.0496791826
  0
LINE
  5
3B3
100
AcDbEntity
  8
03__ASM_ALL_CURVES
100
AcDbLine
 62
40
  6
CONTINUOUS
 10
5.0067173247
 20
5.0496791826
 11
5.0032016997
 21
5.0496791826
  0
LINE
  5
3B4
100
AcDbEntity
  8
03__ASM_ALL_CURVES
100
AcDbLine
 62
40
  6
CONTINUOUS
 10
4.7852329497
 20
5.0496791826
 11
4.7782016997
 21
5.0496791826
  0
LINE
  5
3B5
100
AcDbEntity
  8
03__ASM_ALL_CURVES
100
AcDbLine
 62
40
  6
CONTINUOUS
 10
4.6692173247
 20
5.0496791826
 11
4.6657016997
 21
5.0496791826
  0
LINE
  5
3B6
100
AcDbEntity
  8
03__ASM_ALL_CURVES
100
AcDbLine
 62
40
  6
CONTINUOUS
 10
4.8801548247
 20
5.0496791826
 11
4.9082798247
 21
5.0496791826
  0
LINE
  5
3B7
100
AcDbEntity
  8
03__ASM_ALL_CURVES
100
AcDbLine
 62
40
  6
CONTINUOUS
 10
5.562717325
 20
5.0496791826
 11
5.590842325
 21
5.0496791826
  0
LINE
  5
3B8
100
AcDbEntity
  8
03__ASM_ALL_CURVES
100
AcDbLine
 62
40
  6
CONTINUOUS
 10
6.293967325
 20
5.0496791826
 11
6.322092325
 21
5.0496791826
  0
LINE
  5
3B9
100
AcDbEntity
  8
03__ASM_ALL_CURVES
100
AcDbLine
 62
40
  6
CONTINUOUS
 10
5.73498295
 20
5.0684291832
 11
5.7560767
 21
5.0684291832
  0
LINE
  5
3BA
100
AcDbEntity
  8
03__ASM_ALL_CURVES
100
AcDbLine
 62
40
  6
CONTINUOUS
 10
6.48029545
 20
5.0778041826
 11
6.462717325
 21
5.0778041826
  0
LINE
  5
3BB
100
AcDbEntity
  8
03__ASM_ALL_CURVES
100
AcDbLine
 62
40
  6
CONTINUOUS
 10
5.970529825
 20
5.0778041826
 11
5.984592325
 21
5.0778041826
  0
LINE
  5
3BC
100
AcDbEntity
  8
03__ASM_ALL_CURVES
100
AcDbLine
 62
40
  6
CONTINUOUS
 10
6.125217325
 20
5.0778041826
 11
6.153342325
 21
5.0778041826
  0
LINE
  5
3BD
100
AcDbEntity
  8
03__ASM_ALL_CURVES
100
AcDbLine
 62
40
  6
CONTINUOUS
 10
6.406467325
 20
5.0778041826
 11
6.42404545
 21
5.0778041826
  0
LINE
  5
3BE
100
AcDbEntity
  8
03__ASM_ALL_CURVES
100
AcDbLine
 62
40
  6
CONTINUOUS
 10
4.7782016997
 20
5.0824916815
 11
4.7852329497
 21
5.0824916815
  0
LINE
  5
3BF
100
AcDbEntity
  8
03__ASM_ALL_CURVES
100
AcDbLine
 62
40
  6
CONTINUOUS
 10
4.3569673247
 20
5.0293666826
 11
4.3007173247
 21
5.0309291826
  0
LINE
  5
3C0
100
AcDbEntity
  8
03__ASM_ALL_CURVES
100
AcDbLine
 62
40
  6
CONTINUOUS
 10
5.4314673247
 20
5.0324916826
 11
5.5439673247
 21
5.0293666826
  0
LINE
  5
3C1
100
AcDbEntity
  8
03__ASM_ALL_CURVES
100
AcDbLine
 62
40
  6
CONTINUOUS
 10
5.4314673247
 20
5.0340541826
 11
5.5439673247
 21
5.0278041826
  0
LINE
  5
3C2
100
AcDbEntity
  8
03__ASM_ALL_CURVES
100
AcDbLine
 62
40
  6
CONTINUOUS
 10
5.4314673247
 20
5.0356166826
 11
5.5439673247
 21
5.0262416826
  0
LINE
  5
3C3
100
AcDbEntity
  8
03__ASM_ALL_CURVES
100
AcDbLine
 62
40
  6
CONTINUOUS
 10
5.4314673247
 20
5.0371791826
 11
5.5439673247
 21
5.0246791826
  0
LINE
  5
3C4
100
AcDbEntity
  8
03__ASM_ALL_CURVES
100
AcDbLine
 62
40
  6
CONTINUOUS
 10
5.9670142
 20
5.0496791826
 11
5.95998295
 21
5.0543666827
  0
LINE
  5
3C5
100
AcDbEntity
  8
03__ASM_ALL_CURVES
100
AcDbLine
 62
40
  6
CONTINUOUS
 10
5.97404545
 20
5.1059291826
 11
5.9810767
 21
5.1012416837
  0
LINE
  5
3C6
100
AcDbEntity
  8
03__ASM_ALL_CURVES
100
AcDbLine
 62
40
  6
CONTINUOUS
 10
6.0795142
 20
5.0496791826
 11
6.07248295
 21
5.0543666827
  0
LINE
  5
3C7
100
AcDbEntity
  8
0
100
AcDbLine
 62
7
  6
CONTINUOUS
 10
6.6537173247
 20
4.4420931826
 11
6.6487173247
 21
4.4470931826
  0
LINE
  5
3C8
100
AcDbEntity
  8
03__ASM_ALL_CURVES
100
AcDbLine
 62
40
  6
CONTINUOUS
 10
6.0935767
 20
5.073116682
 11
6.097092325
 21
5.0684291832
  0
LINE
  5
3C9
100
AcDbEntity
  8
03__ASM_ALL_CURVES
100
AcDbLine
 62
40
  6
CONTINUOUS
 10
6.097092325
 20
5.0965541815
 11
6.0935767
 21
5.1012416837
  0
LINE
  5
3CA
100
AcDbEntity
  8
03__ASM_ALL_CURVES
100
AcDbLine
 62
40
  6
CONTINUOUS
 10
6.18498295
 20
5.0543666827
 11
6.1779517
 21
5.0637416826
  0
LINE
  5
3CB
100
AcDbEntity
  8
03__ASM_ALL_CURVES
100
AcDbLine
 62
40
  6
CONTINUOUS
 10
6.2060767
 20
5.1012416837
 11
6.21310795
 21
5.0918666826
  0
LINE
  5
3CC
100
AcDbEntity
  8
03__ASM_ALL_CURVES
100
AcDbLine
 62
40
  6
CONTINUOUS
 10
6.24123295
 20
5.0543666827
 11
6.237717325
 21
5.0590541829
  0
LINE
  5
3CD
100
AcDbEntity
  8
03__ASM_ALL_CURVES
100
AcDbLine
 62
40
  6
CONTINUOUS
 10
6.378342325
 20
5.0918666826
 11
6.38185795
 21
5.0778041826
  0
LINE
  5
3CE
100
AcDbEntity
  8
0
100
AcDbLine
 62
7
  6
CONTINUOUS
 10
6.6487173247
 20
3.7620931826
 11
6.6487173247
 21
4.4470931826
  0
LINE
  5
3CF
100
AcDbEntity
  8
0
100
AcDbLine
 62
7
  6
CONTINUOUS
 10
6.6537173247
 20
3.7625937026
 11
6.6537173247
 21
4.4465926626
  0
LINE
  5
3D0
100
AcDbEntity
  8
0
100
AcDbLine
 62
7
  6
CONTINUOUS
 10
6.7037173247
 20
3.7625937026
 11
6.7037173247
 21
4.4465926626
  0
LINE
  5
3D1
100
AcDbEntity
  8
03__ASM_ALL_CURVES
100
AcDbLine
 62
40
  6
CONTINUOUS
 10
6.5141821563
 20
3.4789525576
 11
6.5115454376
 21
3.4684056826
  0
LINE
  5
3D2
100
AcDbEntity
  8
03__ASM_ALL_CURVES
100
AcDbLine
 62
40
  6
CONTINUOUS
 10
6.3638891876
 20
3.4965306834
 11
6.3612524688
 21
3.4930150568
  0
LINE
  5
3D3
100
AcDbEntity
  8
03__ASM_ALL_CURVES
100
AcDbLine
 62
40
  6
CONTINUOUS
 10
7.1411743557
 20
4.1385775568
 11
7.1359009182
 21
4.1350619326
  0
LINE
  5
3D4
100
AcDbEntity
  8
03__ASM_ALL_CURVES
100
AcDbLine
 62
40
  6
CONTINUOUS
 10
7.1675415432
 20
4.1526400584
 11
7.1728149807
 21
4.1561556826
  0
LINE
  5
3D5
100
AcDbEntity
  8
03__ASM_ALL_CURVES
100
AcDbLine
 62
40
  6
CONTINUOUS
 10
7.1833618557
 20
4.1174838077
 11
7.1780884182
 21
4.1139681826
  0
LINE
  5
3D6
100
AcDbEntity
  8
03__ASM_ALL_CURVES
100
AcDbLine
 62
40
  6
CONTINUOUS
 10
7.2255493557
 20
4.1385775568
 11
7.2202759182
 21
4.1350619326
  0
LINE
  5
3D7
100
AcDbEntity
  8
03__ASM_ALL_CURVES
100
AcDbLine
 62
40
  6
CONTINUOUS
 10
4.3569673247
 20
5.0371791826
 11
4.3007173247
 21
5.0309291826
  0
LINE
  5
3D8
100
AcDbEntity
  8
03__ASM_ALL_CURVES
100
AcDbLine
 62
40
  6
CONTINUOUS
 10
4.3569673247
 20
5.0356166826
 11
4.3007173247
 21
5.0309291826
  0
LINE
  5
3D9
100
AcDbEntity
  8
03__ASM_ALL_CURVES
100
AcDbLine
 62
40
  6
CONTINUOUS
 10
4.3569673247
 20
5.0340541826
 11
4.3007173247
 21
5.0309291826
  0
LINE
  5
3DA
100
AcDbEntity
  8
03__ASM_ALL_CURVES
100
AcDbLine
 62
40
  6
CONTINUOUS
 10
6.08654545
 20
5.1059291826
 11
6.0795142
 21
5.1059291826
  0
LINE
  5
3DB
100
AcDbEntity
  8
03__ASM_ALL_CURVES
100
AcDbLine
 62
40
  6
CONTINUOUS
 10
5.1332798247
 20
5.1059291826
 11
5.1051548247
 21
5.1059291826
  0
LINE
  5
3DC
100
AcDbEntity
  8
03__ASM_ALL_CURVES
100
AcDbLine
 62
40
  6
CONTINUOUS
 10
4.7782016997
 20
5.1059291826
 11
4.7852329497
 21
5.1059291826
  0
LINE
  5
3DD
100
AcDbEntity
  8
03__ASM_ALL_CURVES
100
AcDbLine
 62
40
  6
CONTINUOUS
 10
4.8907016997
 20
5.1059291826
 11
4.8977329497
 21
5.1059291826
  0
LINE
  5
3DE
100
AcDbEntity
  8
03__ASM_ALL_CURVES
100
AcDbLine
 62
40
  6
CONTINUOUS
 10
5.6295142
 20
5.1059291826
 11
5.63654545
 21
5.1059291826
  0
LINE
  5
3DF
100
AcDbEntity
  8
03__ASM_ALL_CURVES
100
AcDbLine
 62
40
  6
CONTINUOUS
 10
5.6857642
 20
5.1059291826
 11
5.69279545
 21
5.1059291826
  0
LINE
  5
3E0
100
AcDbEntity
  8
03__ASM_ALL_CURVES
100
AcDbLine
 62
40
  6
CONTINUOUS
 10
5.7842017
 20
5.1059291826
 11
5.81935795
 21
5.1059291826
  0
LINE
  5
3E1
100
AcDbEntity
  8
03__ASM_ALL_CURVES
100
AcDbLine
 62
40
  6
CONTINUOUS
 10
5.9670142
 20
5.1059291826
 11
5.97404545
 21
5.1059291826
  0
LINE
  5
3E2
100
AcDbEntity
  8
03__ASM_ALL_CURVES
100
AcDbLine
 62
40
  6
CONTINUOUS
 10
6.1920142
 20
5.1059291826
 11
6.19904545
 21
5.1059291826
  0
LINE
  5
3E3
100
AcDbEntity
  8
03__ASM_ALL_CURVES
100
AcDbLine
 62
40
  6
CONTINUOUS
 10
6.350217325
 20
5.1059291826
 11
6.364279825
 21
5.1059291826
  0
LINE
  5
3E4
100
AcDbEntity
  8
03__ASM_ALL_CURVES
100
AcDbLine
 62
40
  6
CONTINUOUS
 10
6.406467325
 20
5.1059291826
 11
6.434592325
 21
5.1059291826
  0
LINE
  5
3E5
100
AcDbEntity
  8
03__ASM_ALL_CURVES
100
AcDbLine
 62
40
  6
CONTINUOUS
 10
6.462717325
 20
5.1059291826
 11
6.48029545
 21
5.1059291826
  0
LINE
  5
3E6
100
AcDbEntity
  8
03__ASM_ALL_CURVES
100
AcDbLine
 62
40
  6
CONTINUOUS
 10
6.07248295
 20
5.0871791837
 11
6.0935767
 21
5.073116682
  0
LINE
  5
3E7
100
AcDbEntity
  8
03__ASM_ALL_CURVES
100
AcDbLine
 62
40
  6
CONTINUOUS
 10
6.0935767
 20
5.1012416837
 11
6.08654545
 21
5.1059291826
  0
LINE
  5
3E8
100
AcDbEntity
  8
03__ASM_ALL_CURVES
100
AcDbLine
 62
40
  6
CONTINUOUS
 10
6.1920142
 20
5.0496791826
 11
6.18498295
 21
5.0543666827
  0
LINE
  5
3E9
100
AcDbEntity
  8
03__ASM_ALL_CURVES
100
AcDbLine
 62
40
  6
CONTINUOUS
 10
6.2482642
 20
5.0496791826
 11
6.24123295
 21
5.0543666827
  0
LINE
  5
3EA
100
AcDbEntity
  8
03__ASM_ALL_CURVES
100
AcDbLine
 62
40
  6
CONTINUOUS
 10
6.19904545
 20
5.1059291826
 11
6.2060767
 21
5.1012416837
  0
LINE
  5
3EB
100
AcDbEntity
  8
0
100
AcDbLine
 62
7
  6
CONTINUOUS
 10
6.8617173247
 20
4.4320931826
 11
6.8467173247
 21
4.4470931826
  0
LINE
  5
3EC
100
AcDbEntity
  8
03__ASM_ALL_CURVES
100
AcDbLine
 62
40
  6
CONTINUOUS
 10
6.48029545
 20
5.0778041826
 11
6.490842325
 21
5.0496791826
  0
LINE
  5
3ED
100
AcDbEntity
  8
0
100
AcDbLine
 62
7
  6
CONTINUOUS
 10
6.7737173247
 20
4.4275931826
 11
6.7737173247
 21
3.7815931826
  0
LINE
  5
3EE
100
AcDbEntity
  8
0
100
AcDbLine
 62
7
  6
CONTINUOUS
 10
6.7947173247
 20
3.7670931826
 11
6.7947173247
 21
4.4420931826
  0
LINE
  5
3EF
100
AcDbEntity
  8
0
100
AcDbLine
 62
7
  6
CONTINUOUS
 10
6.7997173247
 20
3.7620931826
 11
6.7997173247
 21
4.4470931826
  0
LINE
  5
3F0
100
AcDbEntity
  8
03__ASM_ALL_CURVES
100
AcDbLine
 62
40
  6
CONTINUOUS
 10
6.3823462188
 20
3.5000463076
 11
6.3876196563
 21
3.5070775584
  0
LINE
  5
3F1
100
AcDbEntity
  8
03__ASM_ALL_CURVES
100
AcDbLine
 62
40
  6
CONTINUOUS
 10
6.4087134063
 20
3.4789525576
 11
6.4034399688
 21
3.4719213077
  0
LINE
  5
3F2
100
AcDbEntity
  8
03__ASM_ALL_CURVES
100
AcDbLine
 62
40
  6
CONTINUOUS
 10
6.4482641876
 20
3.4965306834
 11
6.4456274688
 21
3.4930150568
  0
LINE
  5
3F3
100
AcDbEntity
  8
03__ASM_ALL_CURVES
100
AcDbLine
 62
40
  6
CONTINUOUS
 10
6.5115454376
 20
3.5035619318
 11
6.5141821563
 21
3.5070775584
  0
LINE
  5
3F4
100
AcDbEntity
  8
0
100
AcDbLine
 62
7
  6
CONTINUOUS
 10
6.6537173247
 20
3.7670931826
 11
6.6487173247
 21
3.7620931826
  0
LINE
  5
3F5
100
AcDbEntity
  8
03__ASM_ALL_CURVES
100
AcDbLine
 62
40
  6
CONTINUOUS
 10
6.3612524688
 20
3.4930150568
 11
6.3559790313
 21
3.4894994326
  0
LINE
  5
3F6
100
AcDbEntity
  8
03__ASM_ALL_CURVES
100
AcDbLine
 62
40
  6
CONTINUOUS
 10
6.3876196563
 20
3.5070775584
 11
6.3928930938
 21
3.5105931826
  0
LINE
  5
3F7
100
AcDbEntity
  8
03__ASM_ALL_CURVES
100
AcDbLine
 62
40
  6
CONTINUOUS
 10
6.4034399688
 20
3.4719213077
 11
6.3981665313
 21
3.4684056826
  0
LINE
  5
3F8
100
AcDbEntity
  8
03__ASM_ALL_CURVES
100
AcDbLine
 62
40
  6
CONTINUOUS
 10
6.4456274688
 20
3.4930150568
 11
6.4403540313
 21
3.4894994326
  0
LINE
  5
3F9
100
AcDbEntity
  8
03__ASM_ALL_CURVES
100
AcDbLine
 62
40
  6
CONTINUOUS
 10
4.3007173247
 20
5.0309291826
 11
4.3569673247
 21
5.0403041826
  0
LINE
  5
3FA
100
AcDbEntity
  8
03__ASM_ALL_CURVES
100
AcDbLine
 62
40
  6
CONTINUOUS
 10
4.3569673247
 20
5.0387416826
 11
4.3007173247
 21
5.0309291826
  0
LINE
  5
3FB
100
AcDbEntity
  8
03__ASM_ALL_CURVES
100
AcDbLine
 62
40
  6
CONTINUOUS
 10
6.364279825
 20
5.1059291826
 11
6.371311075
 21
5.1012416837
  0
LINE
  5
3FC
100
AcDbEntity
  8
03__ASM_ALL_CURVES
100
AcDbLine
 62
40
  6
CONTINUOUS
 10
6.371311075
 20
5.1012416837
 11
6.378342325
 21
5.0918666826
  0
LINE
  5
3FD
100
AcDbEntity
  8
03__ASM_ALL_CURVES
100
AcDbLine
 62
40
  6
CONTINUOUS
 10
7.1675415432
 20
4.1174838077
 11
7.1622681057
 21
4.1245150576
  0
LINE
  5
3FE
100
AcDbEntity
  8
03__ASM_ALL_CURVES
100
AcDbLine
 62
40
  6
CONTINUOUS
 10
7.1411743557
 20
4.1526400584
 11
7.1438110745
 21
4.1491244318
  0
LINE
  5
3FF
100
AcDbEntity
  8
03__ASM_ALL_CURVES
100
AcDbLine
 62
40
  6
CONTINUOUS
 10
7.1833618557
 20
4.1526400584
 11
7.1886352932
 21
4.1456088076
  0
LINE
  5
400
100
AcDbEntity
  8
03__ASM_ALL_CURVES
100
AcDbLine
 62
40
  6
CONTINUOUS
 10
6.4873267
 20
5.1012416837
 11
6.490842325
 21
5.0965541815
  0
LINE
  5
401
100
AcDbEntity
  8
0
100
AcDbLine
 62
7
  6
CONTINUOUS
 10
6.8467173247
 20
3.7620931826
 11
6.8467173247
 21
4.4470931826
  0
LINE
  5
402
100
AcDbEntity
  8
0
100
AcDbLine
 62
7
  6
CONTINUOUS
 10
6.8617173247
 20
3.7770931826
 11
6.8617173247
 21
4.4320931826
  0
LINE
  5
403
100
AcDbEntity
  8
03__ASM_ALL_CURVES
100
AcDbLine
 62
40
  6
CONTINUOUS
 10
6.5194555938
 20
3.4859838072
 11
6.5141821563
 21
3.4789525576
  0
LINE
  5
404
100
AcDbEntity
  8
03__ASM_ALL_CURVES
100
AcDbLine
 62
40
  6
CONTINUOUS
 10
6.5326391876
 20
3.4965306834
 11
6.5300024688
 21
3.4930150568
  0
LINE
  5
405
100
AcDbEntity
  8
0
100
AcDbLine
 62
7
  6
CONTINUOUS
 10
6.8617173247
 20
3.7770931826
 11
6.8467173247
 21
3.7620931826
  0
LINE
  5
406
100
AcDbEntity
  8
03__ASM_ALL_CURVES
100
AcDbLine
 62
40
  6
CONTINUOUS
 10
6.5141821563
 20
3.5070775584
 11
6.5194555938
 21
3.5105931826
  0
LINE
  5
407
100
AcDbEntity
  8
03__ASM_ALL_CURVES
100
AcDbLine
 62
40
  6
CONTINUOUS
 10
6.5300024688
 20
3.4930150568
 11
6.5194555938
 21
3.4859838072
  0
LINE
  5
408
100
AcDbEntity
  8
03__ASM_ALL_CURVES
100
AcDbLine
 62
40
  6
CONTINUOUS
 10
6.48029545
 20
5.1059291826
 11
6.4873267
 21
5.1012416837
  0
LINE
  5
409
100
AcDbEntity
  8
03__ASM_ALL_CURVES
100
AcDbLine
 62
40
  6
CONTINUOUS
 10
7.2255493557
 20
4.1526400584
 11
7.2281860745
 21
4.1491244318
  0
LINE
  5
40A
100
AcDbEntity
  8
03__ASM_ALL_CURVES
100
AcDbLine
 62
40
  6
CONTINUOUS
 10
7.1438110745
 20
4.1420931834
 11
7.1411743557
 21
4.1385775568
  0
LINE
  5
40B
100
AcDbEntity
  8
03__ASM_ALL_CURVES
100
AcDbLine
 62
40
  6
CONTINUOUS
 10
7.1622681057
 20
4.1456088076
 11
7.1675415432
 21
4.1526400584
  0
LINE
  5
40C
100
AcDbEntity
  8
03__ASM_ALL_CURVES
100
AcDbLine
 62
40
  6
CONTINUOUS
 10
7.1886352932
 20
4.1245150576
 11
7.1833618557
 21
4.1174838077
  0
LINE
  5
40D
100
AcDbEntity
  8
03__ASM_ALL_CURVES
100
AcDbLine
 62
40
  6
CONTINUOUS
 10
7.2281860745
 20
4.1420931834
 11
7.2255493557
 21
4.1385775568
  0
LINE
  5
40E
100
AcDbEntity
  8
03__ASM_ALL_CURVES
100
AcDbLine
 62
40
  6
CONTINUOUS
 10
7.1227173245
 20
4.1139681826
 11
7.1227173245
 21
4.1561556826
  0
LINE
  5
40F
100
AcDbEntity
  8
03__ASM_ALL_CURVES
100
AcDbLine
 62
40
  6
CONTINUOUS
 10
7.1438110745
 20
4.1491244318
 11
7.1438110745
 21
4.1420931834
  0
LINE
  5
410
100
AcDbEntity
  8
03__ASM_ALL_CURVES
100
AcDbLine
 62
40
  6
CONTINUOUS
 10
7.159631387
 20
4.1350619326
 11
7.1622681057
 21
4.1456088076
  0
LINE
  5
411
100
AcDbEntity
  8
03__ASM_ALL_CURVES
100
AcDbLine
 62
40
  6
CONTINUOUS
 10
7.2202759182
 20
4.1350619326
 11
7.2281860745
 21
4.1139681826
  0
LINE
  5
412
100
AcDbEntity
  8
03__ASM_ALL_CURVES
100
AcDbLine
 62
40
  6
CONTINUOUS
 10
7.1622681057
 20
4.1245150576
 11
7.159631387
 21
4.1350619326
  0
LINE
  5
413
100
AcDbEntity
  8
03__ASM_ALL_CURVES
100
AcDbLine
 62
40
  6
CONTINUOUS
 10
7.1886352932
 20
4.1456088076
 11
7.191272012
 21
4.1350619326
  0
LINE
  5
414
100
AcDbEntity
  8
03__ASM_ALL_CURVES
100
AcDbLine
 62
40
  6
CONTINUOUS
 10
7.2070923245
 20
4.1139681826
 11
7.2070923245
 21
4.1561556826
  0
LINE
  5
415
100
AcDbEntity
  8
03__ASM_ALL_CURVES
100
AcDbLine
 62
40
  6
CONTINUOUS
 10
7.2281860745
 20
4.1491244318
 11
7.2281860745
 21
4.1420931834
  0
LINE
  5
416
100
AcDbEntity
  8
03__ASM_ALL_CURVES
100
AcDbLine
 62
40
  6
CONTINUOUS
 10
7.2598266995
 20
4.1561556826
 11
7.2598266995
 21
4.1139681826
  0
LINE
  5
417
100
AcDbEntity
  8
03__ASM_ALL_CURVES
100
AcDbLine
 62
40
  6
CONTINUOUS
 10
7.191272012
 20
4.1350619326
 11
7.1886352932
 21
4.1245150576
  0
LINE
  5
418
100
AcDbEntity
  8
03__ASM_ALL_CURVES
100
AcDbLine
 62
40
  6
CONTINUOUS
 10
7.3020141995
 20
4.1561556826
 11
7.3020141995
 21
4.1139681826
  0
CIRCLE
  5
419
100
AcDbEntity
  8
0
100
AcDbCircle
 62
7
  6
CONTINUOUS
 10
6.5097173247
 20
4.1045931826
 40
0.0545
  0
ARC
  5
41A
100
AcDbEntity
  8
0
100
AcDbCircle
 62
7
  6
CONTINUOUS
 10
5.0217173247
 20
3.7175931826
 40
0.013
100
AcDbArc
 50
0.0000000011
 51
90.0
  0
ARC
  5
41B
100
AcDbEntity
  8
0
100
AcDbCircle
 62
7
  6
CONTINUOUS
 10
5.0217173247
 20
4.4915931826
 40
0.013
100
AcDbArc
 50
270.0
 51
359.9999999969
  0
ARC
  5
41C
100
AcDbEntity
  8
0
100
AcDbCircle
 62
7
  6
CONTINUOUS
 10
5.6672117712
 20
3.7410931826
 40
0.013
100
AcDbArc
 50
29.9999999892
 51
90.0
  0
ARC
  5
41D
100
AcDbEntity
  8
0
100
AcDbCircle
 62
7
  6
CONTINUOUS
 10
5.6672117712
 20
4.4680931826
 40
0.013
100
AcDbArc
 50
270.0
 51
330.0000000002
  0
ARC
  5
41E
100
AcDbEntity
  8
0
100
AcDbCircle
 62
7
  6
CONTINUOUS
 10
4.8307173247
 20
4.5250931826
 40
0.002
100
AcDbArc
 50
222.3553148142
 51
317.6446851858
  0
ARC
  5
41F
100
AcDbEntity
  8
0
100
AcDbCircle
 62
7
  6
CONTINUOUS
 10
4.8307173247
 20
3.6840931826
 40
0.002
100
AcDbArc
 50
42.3553148142
 51
137.6446851858
  0
SPLINE
  5
420
100
AcDbEntity
  8
0
100
AcDbSpline
 62
7
  6
CONTINUOUS
 70
0
 71
3
 72
15
 73
11
 74
9
 42
0.0000001
 43
0.0000001
 44
0.0000000001
 12
0.0
 22
0.1099409465
 32
0.0
 13
0.0
 23
-0.1099409465
 33
0.0
 40
0.0
 40
0.0
 40
0.0
 40
0.0
 40
0.125
 40
0.25
 40
0.375
 40
0.5
 40
0.625
 40
0.75
 40
0.875
 40
1.0
 40
1.0
 40
1.0
 40
1.0
 10
6.7737173247
 20
4.4275931826
 30
0.0
 10
6.7737173247
 20
4.4321740554
 30
0.0
 10
6.7718949402
 20
4.4413358009
 30
0.0
 10
6.7641103722
 20
4.4529862302
 30
0.0
 10
6.752459943
 20
4.4607707981
 30
0.0
 10
6.7387173247
 20
4.4635043748
 30
0.0
 10
6.7249747064
 20
4.4607707981
 30
0.0
 10
6.7133242771
 20
4.4529862302
 30
0.0
 10
6.7055397092
 20
4.4413358009
 30
0.0
 10
6.7037173247
 20
4.4321740554
 30
0.0
 10
6.7037173247
 20
4.4275931826
 30
0.0
 11
6.7737173247
 21
4.4275931826
 31
0.0
 11
6.7710531083
 21
4.4409871027
 31
0.0
 11
6.763466062
 21
4.4523419199
 31
0.0
 11
6.7521112448
 21
4.4599289662
 31
0.0
 11
6.7387173247
 21
4.4625931826
 31
0.0
 11
6.7253234045
 21
4.4599289662
 31
0.0
 11
6.7139685873
 21
4.4523419199
 31
0.0
 11
6.706381541
 21
4.4409871027
 31
0.0
 11
6.7037173247
 21
4.4275931826
 31
0.0
  0
SPLINE
  5
421
100
AcDbEntity
  8
0
100
AcDbSpline
 62
7
  6
CONTINUOUS
 70
0
 71
3
 72
15
 73
11
 74
9
 42
0.0000001
 43
0.0000001
 44
0.0000000001
 12
0.0
 22
-0.1099409465
 32
0.0
 13
0.0
 23
0.1099409465
 33
0.0
 40
0.0
 40
0.0
 40
0.0
 40
0.0
 40
0.125
 40
0.25
 40
0.375
 40
0.5
 40
0.625
 40
0.75
 40
0.875
 40
1.0
 40
1.0
 40
1.0
 40
1.0
 10
6.7737173247
 20
3.7815931826
 30
0.0
 10
6.7737173247
 20
3.7770123098
 30
0.0
 10
6.7718949402
 20
3.7678505643
 30
0.0
 10
6.7641103722
 20
3.756200135
 30
0.0
 10
6.752459943
 20
3.7484155671
 30
0.0
 10
6.7387173247
 20
3.7456819903
 30
0.0
 10
6.7249747064
 20
3.7484155671
 30
0.0
 10
6.7133242771
 20
3.756200135
 30
0.0
 10
6.7055397092
 20
3.7678505643
 30
0.0
 10
6.7037173247
 20
3.7770123098
 30
0.0
 10
6.7037173247
 20
3.7815931826
 30
0.0
 11
6.7737173247
 21
3.7815931826
 31
0.0
 11
6.7710531083
 21
3.7681992625
 31
0.0
 11
6.763466062
 21
3.7568444453
 31
0.0
 11
6.7521112448
 21
3.749257399
 31
0.0
 11
6.7387173247
 21
3.7465931826
 31
0.0
 11
6.7253234045
 21
3.749257399
 31
0.0
 11
6.7139685873
 21
3.7568444453
 31
0.0
 11
6.706381541
 21
3.7681992625
 31
0.0
 11
6.7037173247
 21
3.7815931826
 31
0.0
  0
SPLINE
  5
422
100
AcDbEntity
  8
0
100
AcDbSpline
 62
7
  6
CONTINUOUS
 70
0
 71
3
 72
15
 73
11
 74
9
 42
0.0000001
 43
0.0000001
 44
0.0000000001
 12
0.0
 22
0.1099409465
 32
0.0
 13
0.0
 23
-0.1099409465
 33
0.0
 40
0.0
 40
0.0
 40
0.0
 40
0.0
 40
0.125
 40
0.25
 40
0.375
 40
0.5
 40
0.625
 40
0.75
 40
0.875
 40
1.0
 40
1.0
 40
1.0
 40
1.0
 10
5.0137173247
 20
4.4900931826
 30
0.0
 10
5.0137173247
 20
4.4946740554
 30
0.0
 10
5.0118949402
 20
4.5038358009
 30
0.0
 10
5.0041103722
 20
4.5154862302
 30
0.0
 10
4.992459943
 20
4.5232707981
 30
0.0
 10
4.9787173247
 20
4.5260043748
 30
0.0
 10
4.9649747064
 20
4.5232707981
 30
0.0
 10
4.9533242771
 20
4.5154862302
 30
0.0
 10
4.9455397092
 20
4.5038358009
 30
0.0
 10
4.9437173247
 20
4.4946740554
 30
0.0
 10
4.9437173247
 20
4.4900931826
 30
0.0
 11
5.0137173247
 21
4.4900931826
 31
0.0
 11
5.0110531083
 21
4.5034871027
 31
0.0
 11
5.003466062
 21
4.5148419199
 31
0.0
 11
4.9921112448
 21
4.5224289662
 31
0.0
 11
4.9787173247
 21
4.5250931826
 31
0.0
 11
4.9653234045
 21
4.5224289662
 31
0.0
 11
4.9539685873
 21
4.5148419199
 31
0.0
 11
4.946381541
 21
4.5034871027
 31
0.0
 11
4.9437173247
 21
4.4900931826
 31
0.0
  0
SPLINE
  5
423
100
AcDbEntity
  8
0
100
AcDbSpline
 62
7
  6
CONTINUOUS
 70
0
 71
3
 72
15
 73
11
 74
9
 42
0.0000001
 43
0.0000001
 44
0.0000000001
 12
0.0
 22
-0.1099409465
 32
0.0
 13
0.0
 23
0.1099409465
 33
0.0
 40
0.0
 40
0.0
 40
0.0
 40
0.0
 40
0.125
 40
0.25
 40
0.375
 40
0.5
 40
0.625
 40
0.75
 40
0.875
 40
1.0
 40
1.0
 40
1.0
 40
1.0
 10
5.0137173247
 20
3.7190931826
 30
0.0
 10
5.0137173247
 20
3.7145123098
 30
0.0
 10
5.0118949402
 20
3.7053505643
 30
0.0
 10
5.0041103722
 20
3.693700135
 30
0.0
 10
4.992459943
 20
3.6859155671
 30
0.0
 10
4.9787173247
 20
3.6831819903
 30
0.0
 10
4.9649747064
 20
3.6859155671
 30
0.0
 10
4.9533242771
 20
3.693700135
 30
0.0
 10
4.9455397092
 20
3.7053505643
 30
0.0
 10
4.9437173247
 20
3.7145123098
 30
0.0
 10
4.9437173247
 20
3.7190931826
 30
0.0
 11
5.0137173247
 21
3.7190931826
 31
0.0
 11
5.0110531083
 21
3.7056992625
 31
0.0
 11
5.003466062
 21
3.6943444453
 31
0.0
 11
4.9921112448
 21
3.686757399
 31
0.0
 11
4.9787173247
 21
3.6840931826
 31
0.0
 11
4.9653234045
 21
3.686757399
 31
0.0
 11
4.9539685873
 21
3.6943444453
 31
0.0
 11
4.946381541
 21
3.7056992625
 31
0.0
 11
4.9437173247
 21
3.7190931826
 31
0.0
  0
SPLINE
  5
424
100
AcDbEntity
  8
0
100
AcDbSpline
 62
7
  6
CONTINUOUS
 70
0
 71
3
 72
14
 73
10
 74
8
 42
0.0000001
 43
0.0000001
 44
0.0000000001
 12
0.0
 22
0.0923501321
 32
0.0
 13
-0.0445331995
 23
-0.0809161858
 33
0.0
 40
0.0
 40
0.0
 40
0.0
 40
0.0
 40
0.1488099475
 40
0.297619895
 40
0.4464298425
 40
0.59523979
 40
0.7440497375
 40
0.892859685
 40
1.0
 40
1.0
 40
1.0
 40
1.0
 10
5.6047173247
 20
4.4900931826
 30
0.0
 10
5.6047173247
 20
4.4946740554
 30
0.0
 10
5.6028949402
 20
4.5038358009
 30
0.0
 10
5.5951103722
 20
4.5154862302
 30
0.0
 10
5.583459943
 20
4.5232707981
 30
0.0
 10
5.5697173247
 20
4.5260043748
 30
0.0
 10
5.5559747064
 20
4.5232707981
 30
0.0
 10
5.5454117248
 20
4.5162128395
 30
0.0
 10
5.5406383046
 20
4.5098436519
 30
0.0
 10
5.5390478709
 20
4.5069538567
 30
0.0
 11
5.6047173247
 21
4.4900931826
 31
0.0
 11
5.6020531083
 21
4.5034871027
 31
0.0
 11
5.594466062
 21
4.5148419199
 31
0.0
 11
5.5831112448
 21
4.5224289662
 31
0.0
 11
5.5697173247
 21
4.5250931826
 31
0.0
 11
5.5563234045
 21
4.5224289662
 31
0.0
 11
5.5449685873
 21
4.5148419199
 31
0.0
 11
5.5390478709
 21
4.5069538567
 31
0.0
  0
SPLINE
  5
425
100
AcDbEntity
  8
0
100
AcDbSpline
 62
7
  6
CONTINUOUS
 70
0
 71
3
 72
9
 73
5
 74
3
 42
0.0000001
 43
0.0000001
 44
0.0000000001
 12
-0.0084826651
 22
-0.0154128811
 32
0.0
 13
0.0
 23
-0.0175908144
 33
0.0
 40
0.0
 40
0.0
 40
0.0
 40
0.0
 40
0.2187616778
 40
1.0
 40
1.0
 40
1.0
 40
1.0
 10
5.5390478709
 20
4.5069538567
 30
0.0
 10
5.5384293102
 20
4.5058299408
 30
0.0
 10
5.5358836682
 20
4.5005376602
 30
0.0
 10
5.5347173247
 20
4.4946740554
 30
0.0
 10
5.5347173247
 20
4.4900931826
 30
0.0
 11
5.5390478709
 21
4.5069538567
 31
0.0
 11
5.537381541
 21
4.5034871027
 31
0.0
 11
5.5347173247
 21
4.4900931826
 31
0.0
  0
SPLINE
  5
426
100
AcDbEntity
  8
0
100
AcDbSpline
 62
7
  6
CONTINUOUS
 70
0
 71
3
 72
14
 73
10
 74
8
 42
0.0000001
 43
0.0000001
 44
0.0000000001
 12
0.0
 22
-0.0923501321
 32
0.0
 13
-0.0445331995
 23
0.0809161858
 33
0.0
 40
0.0
 40
0.0
 40
0.0
 40
0.0
 40
0.1488099475
 40
0.297619895
 40
0.4464298425
 40
0.59523979
 40
0.7440497375
 40
0.892859685
 40
1.0
 40
1.0
 40
1.0
 40
1.0
 10
5.6047173247
 20
3.7190931826
 30
0.0
 10
5.6047173247
 20
3.7145123098
 30
0.0
 10
5.6028949402
 20
3.7053505643
 30
0.0
 10
5.5951103722
 20
3.693700135
 30
0.0
 10
5.583459943
 20
3.6859155671
 30
0.0
 10
5.5697173247
 20
3.6831819903
 30
0.0
 10
5.5559747064
 20
3.6859155671
 30
0.0
 10
5.5454117248
 20
3.6929735257
 30
0.0
 10
5.5406383046
 20
3.6993427133
 30
0.0
 10
5.5390478709
 20
3.7022325085
 30
0.0
 11
5.6047173247
 21
3.7190931826
 31
0.0
 11
5.6020531083
 21
3.7056992625
 31
0.0
 11
5.594466062
 21
3.6943444453
 31
0.0
 11
5.5831112448
 21
3.686757399
 31
0.0
 11
5.5697173247
 21
3.6840931826
 31
0.0
 11
5.5563234045
 21
3.686757399
 31
0.0
 11
5.5449685873
 21
3.6943444453
 31
0.0
 11
5.5390478709
 21
3.7022325085
 31
0.0
  0
SPLINE
  5
427
100
AcDbEntity
  8
0
100
AcDbSpline
 62
7
  6
CONTINUOUS
 70
0
 71
3
 72
9
 73
5
 74
3
 42
0.0000001
 43
0.0000001
 44
0.0000000001
 12
-0.0084826651
 22
0.0154128811
 32
0.0
 13
0.0
 23
0.0175908144
 33
0.0
 40
0.0
 40
0.0
 40
0.0
 40
0.0
 40
0.2187616778
 40
1.0
 40
1.0
 40
1.0
 40
1.0
 10
5.5390478709
 20
3.7022325085
 30
0.0
 10
5.5384293102
 20
3.7033564244
 30
0.0
 10
5.5358836682
 20
3.708648705
 30
0.0
 10
5.5347173247
 20
3.7145123098
 30
0.0
 10
5.5347173247
 20
3.7190931826
 30
0.0
 11
5.5390478709
 21
3.7022325085
 31
0.0
 11
5.537381541
 21
3.7056992625
 31
0.0
 11
5.5347173247
 21
3.7190931826
 31
0.0
  0
SPLINE
  5
428
100
AcDbEntity
  8
0
100
AcDbSpline
 62
7
  6
CONTINUOUS
 70
0
 71
3
 72
12
 73
8
 74
6
 42
0.0000001
 43
0.0000001
 44
0.0000000001
 12
0.0472759459
 22
0.0
 32
0.0
 13
0.0310780989
 23
0.0357334099
 33
0.0
 40
0.0
 40
0.0
 40
0.0
 40
0.0
 40
0.236370937
 40
0.4762356035
 40
0.7201867425
 40
0.9645341135
 40
1.0
 40
1.0
 40
1.0
 40
1.0
 10
6.4757173247
 20
4.1389634042
 30
0.0
 10
6.4794422112
 20
4.1389634042
 30
0.0
 10
6.4869707033
 20
4.1397663471
 30
0.0
 10
6.4978276203
 20
4.1433344102
 30
0.0
 10
6.5078340012
 20
4.1491144302
 30
0.0
 10
6.5140525439
 20
4.1546249974
 30
0.0
 10
6.5170002684
 20
4.1579152504
 30
0.0
 10
6.5173676725
 20
4.1583376894
 30
0.0
 11
6.4757173247
 21
4.1389634042
 31
0.0
 11
6.4868294561
 21
4.1401438929
 31
0.0
 11
6.4976074737
 21
4.1436689543
 31
0.0
 11
6.507600749
 21
4.1494261253
 31
0.0
 11
6.5162470142
 21
4.1570867453
 31
0.0
 11
6.5173676725
 21
4.1583376894
 31
0.0
  0
SPLINE
  5
429
100
AcDbEntity
  8
0
100
AcDbSpline
 62
7
  6
CONTINUOUS
 70
0
 71
3
 72
8
 73
4
 74
2
 42
0.0000001
 43
0.0000001
 44
0.0000000001
 12
-0.0073447002
 22
0.0
 32
0.0
 13
-0.0072918674
 23
0.0010201162
 33
0.0
 40
0.0
 40
0.0
 40
0.0
 40
0.0
 40
1.0
 40
1.0
 40
1.0
 40
1.0
 10
6.4757173247
 20
4.1389634042
 30
0.0
 10
6.4732690913
 20
4.1389634042
 30
0.0
 10
6.4708157843
 20
4.1391355658
 30
0.0
 10
6.4683851619
 20
4.1394756045
 30
0.0
 11
6.4757173247
 21
4.1389634042
 31
0.0
 11
6.4683851619
 21
4.1394756045
 31
0.0
  0
SPLINE
  5
42A
100
AcDbEntity
  8
0
100
AcDbSpline
 62
7
  6
CONTINUOUS
 70
0
 71
3
 72
8
 73
4
 74
2
 42
0.0000001
 43
0.0000001
 44
0.0000000001
 12
0.0072865264
 22
0.0010186036
 32
0.0
 13
0.007339218
 23
0.0
 33
0.0
 40
0.0
 40
0.0
 40
0.0
 40
0.0
 40
1.0
 40
1.0
 40
1.0
 40
1.0
 10
6.4683906045
 20
4.0697115217
 30
0.0
 10
6.4708194467
 20
4.0700510563
 30
0.0
 10
6.4732709187
 20
4.070222961
 30
0.0
 10
6.4757173247
 20
4.070222961
 30
0.0
 11
6.4683906045
 21
4.0697115217
 31
0.0
 11
6.4757173247
 21
4.070222961
 31
0.0
  0
SPLINE
  5
42B
100
AcDbEntity
  8
0
100
AcDbSpline
 62
7
  6
CONTINUOUS
 70
0
 71
3
 72
12
 73
8
 74
6
 42
0.0000001
 43
0.0000001
 44
0.0000000001
 12
-0.0310764153
 22
0.0356634086
 32
0.0
 13
-0.0472221326
 23
0.0
 33
0.0
 40
0.0
 40
0.0
 40
0.0
 40
0.0
 40
0.0343703567
 40
0.2789963805
 40
0.5232253806
 40
0.7633618566
 40
1.0
 40
1.0
 40
1.0
 40
1.0
 10
6.5173322773
 20
4.0508893342
 30
0.0
 10
6.5169762415
 20
4.0512979222
 30
0.0
 10
6.5140389459
 20
4.054573428
 30
0.0
 10
6.5078338571
 20
4.0600720391
 30
0.0
 10
6.4978274782
 20
4.0658520159
 30
0.0
 10
6.4869706106
 20
4.0694200318
 30
0.0
 10
6.4794421773
 20
4.070222961
 30
0.0
 10
6.4757173247
 20
4.070222961
 30
0.0
 11
6.5173322773
 21
4.0508893342
 31
0.0
 11
6.5162468972
 21
4.0520997466
 31
0.0
 11
6.5076006014
 21
4.0597603462
 31
0.0
 11
6.4976073136
 21
4.0655174823
 31
0.0
 11
6.4868293559
 21
4.0690424937
 31
0.0
 11
6.4757173247
 21
4.070222961
 31
0.0
  0
SPLINE
  5
42C
100
AcDbEntity
  8
0
100
AcDbSpline
 62
7
  6
CONTINUOUS
 70
0
 71
3
 72
8
 73
4
 74
2
 42
0.0000001
 43
0.0000001
 44
0.0000000001
 12
-0.008603229
 22
-0.0013122306
 32
0.0
 13
-0.0086589272
 23
-0.0008737802
 33
0.0
 40
0.0
 40
0.0
 40
0.0
 40
0.0
 40
1.0
 40
1.0
 40
1.0
 40
1.0
 10
6.5008969241
 20
4.26966216
 30
0.0
 10
6.4980291811
 20
4.2692247498
 30
0.0
 10
6.4951504887
 20
4.2688586733
 30
0.0
 10
6.4922641796
 20
4.2685674132
 30
0.0
 11
6.5008969241
 21
4.26966216
 31
0.0
 11
6.4922641796
 21
4.2685674132
 31
0.0
  0
SPLINE
  5
42D
100
AcDbEntity
  8
0
100
AcDbSpline
 62
7
  6
CONTINUOUS
 70
0
 71
3
 72
8
 73
4
 74
2
 42
0.0000001
 43
0.0000001
 44
0.0000000001
 12
0.008601253
 22
-0.0008711783
 32
0.0
 13
0.0085462167
 23
-0.0013037585
 33
0.0
 40
0.0
 40
0.0
 40
0.0
 40
0.0
 40
1.0
 40
1.0
 40
1.0
 40
1.0
 10
6.4923259753
 20
3.9406127046
 30
0.0
 10
6.4951930596
 20
3.9403223118
 30
0.0
 10
6.4980526057
 20
3.9399581175
 30
0.0
 10
6.5009013446
 20
3.9395235313
 30
0.0
 11
6.4923259753
 21
3.9406127046
 31
0.0
 11
6.5009013446
 21
3.9395235313
 31
0.0
  0
SPLINE
  5
42E
100
AcDbEntity
  8
0
100
AcDbSpline
 62
7
  6
CONTINUOUS
 70
0
 71
3
 72
22
 73
18
 74
16
 42
0.0000001
 43
0.0000001
 44
0.0000000001
 12
-0.1076692399
 22
0.0209570676
 32
0.0
 13
-0.1076692399
 23
-0.0209570677
 33
0.0
 40
0.0
 40
0.0
 40
0.0
 40
0.0
 40
0.0110239199
 40
0.0436132871
 40
0.0961991836
 40
0.166104814
 40
0.250686317
 40
0.3457136937
 40
0.4479316218
 40
0.5519080592
 40
0.6541097126
 40
0.7491061308
 40
0.8337162803
 40
0.9036568436
 40
0.9563177198
 40
0.9889510235
 40
1.0
 40
1.0
 40
1.0
 40
1.0
 10
6.5182173247
 20
3.8245931826
 30
0.0
 10
6.517821679
 20
3.8246701923
 30
0.0
 10
6.5162558081
 20
3.8249717857
 30
0.0
 10
6.512796758
 20
3.8256100378
 30
0.0
 10
6.5072050287
 20
3.8265526542
 30
0.0
 10
6.4997116027
 20
3.827641639
 30
0.0
 10
6.4906472086
 20
3.8286888471
 30
0.0
 10
6.4803734058
 20
3.8295142612
 30
0.0
 10
6.4693660332
 20
3.8299679428
 30
0.0
 10
6.4580867983
 20
3.8299683044
 30
0.0
 10
6.4470811221
 20
3.8295154317
 30
0.0
 10
6.4368079364
 20
3.8286908466
 30
0.0
 10
6.4277422782
 20
3.8276441736
 30
0.0
 10
6.4202437714
 20
3.8265549135
 30
0.0
 10
6.414646457
 20
3.8256115796
 30
0.0
 10
6.4111822189
 20
3.8249724309
 30
0.0
 10
6.4096138696
 20
3.8246703673
 30
0.0
 10
6.4092173247
 20
3.8245931826
 30
0.0
 11
6.5182173247
 21
3.8245931826
 31
0.0
 11
6.5170299343
 21
3.8248218754
 31
0.0
 11
6.5135145335
 21
3.8254704282
 31
0.0
 11
6.5078265777
 21
3.8264288855
 31
0.0
 11
6.500238231
 21
3.8275308672
 31
0.0
 11
6.4910216614
 21
3.8285944927
 31
0.0
 11
6.4806314986
 21
3.8294280698
 31
0.0
 11
6.4694287001
 21
3.829889033
 31
0.0
 11
6.4580235312
 21
3.829889398
 31
0.0
 11
6.4468224855
 21
3.8294292577
 31
0.0
 11
6.4364356451
 21
3.8285967333
 31
0.0
 11
6.4272158751
 21
3.8275334312
 31
0.0
 11
6.4196236697
 21
3.8264313585
 31
0.0
 11
6.4139275661
 21
3.8254717573
 31
0.0
 11
6.4104074149
 21
3.8248223898
 31
0.0
 11
6.4092173247
 21
3.8245931826
 31
0.0
  0
SPLINE
  5
42F
100
AcDbEntity
  8
0
100
AcDbSpline
 62
7
  6
CONTINUOUS
 70
0
 71
3
 72
14
 73
10
 74
8
 42
0.0000001
 43
0.0000001
 44
0.0000000001
 12
0.0756798019
 22
0.0
 32
0.0
 13
-0.0000430495
 23
-0.0759682038
 33
0.0
 40
0.0
 40
0.0
 40
0.0
 40
0.0
 40
0.1597729903
 40
0.3181046221
 40
0.4725773686
 40
0.620046114
 40
0.7574371822
 40
0.8834860469
 40
1.0
 40
1.0
 40
1.0
 40
1.0
 10
6.5097173247
 20
3.9489273225
 30
0.0
 10
6.5137478541
 20
3.9489273225
 30
0.0
 10
6.5217932146
 20
3.9481694855
 30
0.0
 10
6.5333069841
 20
3.9448234697
 30
0.0
 10
6.5437032201
 20
3.9394881357
 30
0.0
 10
6.5524321723
 20
3.9325337325
 30
0.0
 10
6.5590416913
 20
3.9244346582
 30
0.0
 10
6.5632050422
 20
3.9156827107
 30
0.0
 10
6.5642189918
 20
3.9095538031
 30
0.0
 10
6.5642173199
 20
3.9066033512
 30
0.0
 11
6.5097173247
 21
3.9489273225
 31
0.0
 11
6.521755216
 21
3.947789044
 31
0.0
 11
6.5332586141
 21
3.9444345997
 31
0.0
 11
6.5436465877
 21
3.9390720425
 31
0.0
 11
6.5523435559
 21
3.9320779455
 31
0.0
 11
6.5588567224
 21
3.9239729208
 31
0.0
 11
6.5628655912
 21
3.9153168114
 31
0.0
 11
6.5642173199
 21
3.9066033512
 31
0.0
  0
SPLINE
  5
430
100
AcDbEntity
  8
0
100
AcDbSpline
 62
7
  6
CONTINUOUS
 70
0
 71
3
 72
14
 73
10
 74
8
 42
0.0000001
 43
0.0000001
 44
0.0000000001
 12
-0.0756798032
 22
0.0
 32
0.0
 13
0.0000430704
 23
-0.0759682061
 33
0.0
 40
0.0
 40
0.0
 40
0.0
 40
0.0
 40
0.1597772621
 40
0.3181139349
 40
0.4725875703
 40
0.6200555628
 40
0.7574449069
 40
0.8834906313
 40
1.0
 40
1.0
 40
1.0
 40
1.0
 10
6.5097173247
 20
3.9489273225
 30
0.0
 10
6.5056866874
 20
3.9489273225
 30
0.0
 10
6.4976410902
 20
3.9481694429
 30
0.0
 10
6.4861270945
 20
3.9448232597
 30
0.0
 10
6.4757308058
 20
3.9394877372
 30
0.0
 10
6.4670019799
 20
3.9325332388
 30
0.0
 10
6.4603926659
 20
3.9244341817
 30
0.0
 10
6.4562295342
 20
3.9156823972
 30
0.0
 10
6.4552156569
 20
3.90955369
 30
0.0
 10
6.4552173296
 20
3.9066033541
 30
0.0
 11
6.5097173247
 21
3.9489273225
 31
0.0
 11
6.4976791141
 21
3.9477889831
 31
0.0
 11
6.4861753773
 21
3.9444343372
 31
0.0
 11
6.4757874105
 21
3.9390716198
 31
0.0
 11
6.4670905835
 21
3.9320774377
 31
0.0
 11
6.4605776145
 21
3.9239724213
 31
0.0
 11
6.4565689551
 21
3.9153164768
 31
0.0
 11
6.4552173296
 21
3.9066033541
 31
0.0
  0
SPLINE
  5
431
100
AcDbEntity
  8
0
100
AcDbSpline
 62
7
  6
CONTINUOUS
 70
0
 71
3
 72
14
 73
10
 74
8
 42
0.0000001
 43
0.0000001
 44
0.0000000001
 12
-0.0756798023
 22
0.0
 32
0.0
 13
0.000043056
 23
0.0759682047
 33
0.0
 40
0.0
 40
0.0
 40
0.0
 40
0.0
 40
0.1597743015
 40
0.3181079926
 40
0.472581656
 40
0.6200490672
 40
0.757439704
 40
0.8834875549
 40
1.0
 40
1.0
 40
1.0
 40
1.0
 10
6.5097173247
 20
4.2602590427
 30
0.0
 10
6.5056867621
 20
4.2602590427
 30
0.0
 10
6.497641316
 20
4.261016894
 30
0.0
 10
6.4861274495
 20
4.2643629729
 30
0.0
 10
6.4757312009
 20
4.2696983766
 30
0.0
 10
6.4670023019
 20
4.2766528102
 30
0.0
 10
6.4603928639
 20
4.2847518598
 30
0.0
 10
6.4562295832
 20
4.2935037571
 30
0.0
 10
6.4552156573
 20
4.2996325994
 30
0.0
 10
6.4552173295
 20
4.3025830132
 30
0.0
 11
6.5097173247
 21
4.2602590427
 31
0.0
 11
6.4976793353
 21
4.2613973399
 31
0.0
 11
6.4861757971
 21
4.2647518605
 31
0.0
 11
6.475787788
 21
4.2701145003
 31
0.0
 11
6.467090934
 21
4.2771085784
 31
0.0
 11
6.4605778249
 21
4.2852136075
 31
0.0
 11
6.4565690242
 21
4.2938696639
 31
0.0
 11
6.4552173295
 21
4.3025830132
 31
0.0
  0
SPLINE
  5
432
100
AcDbEntity
  8
0
100
AcDbSpline
 62
7
  6
CONTINUOUS
 70
0
 71
3
 72
10
 73
6
 74
4
 42
0.0000001
 43
0.0000001
 44
0.0000000001
 12
0.0260234977
 22
-0.0076795452
 32
0.0
 13
0.0271143987
 23
0.0
 33
0.0
 40
0.0
 40
0.0
 40
0.0
 40
0.0
 40
0.2216973518
 40
0.6051357742
 40
1.0
 40
1.0
 40
1.0
 40
1.0
 10
6.4829163647
 20
3.9426249577
 30
0.0
 10
6.4848394782
 20
3.9420574461
 30
0.0
 10
6.4901543025
 20
3.9407303405
 30
0.0
 10
6.4991089621
 20
3.9393866708
 30
0.0
 10
6.5061484893
 20
3.9390498789
 30
0.0
 10
6.5097173247
 20
3.9390498789
 30
0.0
 11
6.4829163647
 21
3.9426249577
 31
0.0
 11
6.4887477065
 21
3.9411540393
 31
0.0
 11
6.4990236602
 21
3.9395741048
 31
0.0
 11
6.5097173247
 21
3.9390498789
 31
0.0
  0
SPLINE
  5
433
100
AcDbEntity
  8
0
100
AcDbSpline
 62
7
  6
CONTINUOUS
 70
0
 71
3
 72
8
 73
4
 74
2
 42
0.0000001
 43
0.0000001
 44
0.0000000001
 12
-0.0017537457
 22
0.0005175371
 32
0.0
 13
-0.001766216
 23
0.0004734943
 33
0.0
 40
0.0
 40
0.0
 40
0.0
 40
0.0
 40
1.0
 40
1.0
 40
1.0
 40
1.0
 10
6.5365184714
 20
4.2665613512
 30
0.0
 10
6.5359338895
 20
4.2667338635
 30
0.0
 10
6.5353470879
 20
4.2668988624
 30
0.0
 10
6.5347583492
 20
4.2670566938
 30
0.0
 11
6.5365184714
 21
4.2665613512
 31
0.0
 11
6.5347583492
 21
4.2670566938
 31
0.0
  0
SPLINE
  5
434
100
AcDbEntity
  8
0
100
AcDbSpline
 62
7
  6
CONTINUOUS
 70
0
 71
3
 72
10
 73
6
 74
4
 42
0.0000001
 43
0.0000001
 44
0.0000000001
 12
-0.0244424847
 22
0.0065526391
 32
0.0
 13
-0.0252873361
 23
0.0
 33
0.0
 40
0.0
 40
0.0
 40
0.0
 40
0.0
 40
0.1656508199
 40
0.5767002775
 40
1.0
 40
1.0
 40
1.0
 40
1.0
 10
6.5347583492
 20
4.2670566938
 30
0.0
 10
6.53340871
 20
4.2674185105
 30
0.0
 10
6.5286746084
 20
4.2685470141
 30
0.0
 10
6.520323309
 20
4.2697998434
 30
0.0
 10
6.5132853654
 20
4.2701364863
 30
0.0
 10
6.5097173247
 20
4.2701364863
 30
0.0
 11
6.5347583492
 21
4.2670566938
 31
0.0
 11
6.5306822993
 21
4.2680333138
 31
0.0
 11
6.5204086141
 21
4.2696124966
 31
0.0
 11
6.5097173247
 21
4.2701364863
 31
0.0
  0
SPLINE
  5
435
100
AcDbEntity
  8
0
100
AcDbSpline
 62
7
  6
CONTINUOUS
 70
0
 71
3
 72
14
 73
10
 74
8
 42
0.0000001
 43
0.0000001
 44
0.0000000001
 12
0.0000430751
 22
-0.0759682063
 32
0.0
 13
-0.0756798036
 23
0.0
 33
0.0
 40
0.0
 40
0.0
 40
0.0
 40
0.0
 40
0.1165080946
 40
0.2425528083
 40
0.37994164
 40
0.5274080494
 40
0.68188275
 40
0.8402214174
 40
1.0
 40
1.0
 40
1.0
 40
1.0
 10
6.5642173196
 20
4.3025830104
 30
0.0
 10
6.5642189925
 20
4.2996327067
 30
0.0
 10
6.563205136
 20
4.2935040585
 30
0.0
 10
6.5590420686
 20
4.284752323
 30
0.0
 10
6.5524328383
 20
4.2766532992
 30
0.0
 10
6.5437040694
 20
4.2696987737
 30
0.0
 10
6.5333077717
 20
4.2643631831
 30
0.0
 10
6.5217936766
 20
4.2610169365
 30
0.0
 10
6.5137479952
 20
4.2602590427
 30
0.0
 10
6.5097173247
 20
4.2602590427
 30
0.0
 11
6.5642173196
 21
4.3025830104
 31
0.0
 11
6.5628657228
 21
4.2938699815
 31
0.0
 11
6.5588571272
 21
4.2852140916
 31
0.0
 11
6.5523442168
 21
4.2771090778
 31
0.0
 11
6.5436475184
 21
4.2701149269
 31
0.0
 11
6.5332595062
 21
4.2647521215
 31
0.0
 11
6.5217556339
 21
4.261397401
 31
0.0
 11
6.5097173247
 21
4.2602590427
 31
0.0
  0
SPLINE
  5
436
100
AcDbEntity
  8
0
100
AcDbSpline
 62
7
  6
CONTINUOUS
 70
0
 71
3
 72
10
 73
6
 74
4
 42
0.0000001
 43
0.0000001
 44
0.0000000001
 12
-0.027114969
 22
0.0
 32
0.0
 13
-0.0260239363
 23
-0.0076799309
 33
0.0
 40
0.0
 40
0.0
 40
0.0
 40
0.0
 40
0.3945154177
 40
0.7776575092
 40
1.0
 40
1.0
 40
1.0
 40
1.0
 10
6.5097173247
 20
4.2701364863
 30
0.0
 10
6.5061515669
 20
4.2701364863
 30
0.0
 10
6.4991177366
 20
4.2698002505
 30
0.0
 10
6.4901627434
 20
4.2684577393
 30
0.0
 10
6.4848445849
 20
4.2671304412
 30
0.0
 10
6.4829158427
 20
4.2665612495
 30
0.0
 11
6.5097173247
 21
4.2701364863
 31
0.0
 11
6.4990328592
 21
4.269613175
 31
0.0
 11
6.4887644083
 21
4.2680358777
 31
0.0
 11
6.4829158427
 21
4.2665612495
 31
0.0
  0
SPLINE
  5
437
100
AcDbEntity
  8
0
100
AcDbSpline
 62
7
  6
CONTINUOUS
 70
0
 71
3
 72
10
 73
6
 74
4
 42
0.0000001
 43
0.0000001
 44
0.0000000001
 12
0.0252873494
 22
0.0
 32
0.0
 13
0.0244424716
 23
0.0065526571
 33
0.0
 40
0.0
 40
0.0
 40
0.0
 40
0.0
 40
0.4231245577
 40
0.8340525284
 40
1.0
 40
1.0
 40
1.0
 40
1.0
 10
6.5097173247
 20
3.9390498789
 30
0.0
 10
6.5132838908
 20
3.9390498789
 30
0.0
 10
6.5203193308
 20
3.9393862662
 30
0.0
 10
6.5286706977
 20
3.9406385929
 30
0.0
 10
6.5334062979
 20
3.9417672069
 30
0.0
 10
6.5347583533
 20
3.9421296726
 30
0.0
 11
6.5097173247
 21
3.9390498789
 31
0.0
 11
6.5204042065
 21
3.9395734304
 31
0.0
 11
6.5306749614
 21
3.941151491
 31
0.0
 11
6.5347583533
 21
3.9421296726
 31
0.0
  0
SPLINE
  5
438
100
AcDbEntity
  8
0
100
AcDbSpline
 62
7
  6
CONTINUOUS
 70
0
 71
3
 72
8
 73
4
 74
2
 42
0.0000001
 43
0.0000001
 44
0.0000000001
 12
0.0017663581
 22
0.0004735339
 32
0.0
 13
0.0017538863
 23
0.0005175838
 33
0.0
 40
0.0
 40
0.0
 40
0.0
 40
0.0
 40
1.0
 40
1.0
 40
1.0
 40
1.0
 10
6.5347583533
 20
3.9421296726
 30
0.0
 10
6.5353471393
 20
3.9422875172
 30
0.0
 10
6.535933988
 20
3.9424525305
 30
0.0
 10
6.5365186168
 20
3.9426250584
 30
0.0
 11
6.5347583533
 21
3.9421296726
 31
0.0
 11
6.5365186168
 21
3.9426250584
 31
0.0
  0
SPLINE
  5
439
100
AcDbEntity
  8
0
100
AcDbSpline
 62
7
  6
CONTINUOUS
 70
0
 71
3
 72
22
 73
18
 74
16
 42
0.0000001
 43
0.0000001
 44
0.0000000001
 12
0.1076692399
 22
-0.0209570676
 32
0.0
 13
0.1076692399
 23
0.0209570677
 33
0.0
 40
0.0
 40
0.0
 40
0.0
 40
0.0
 40
0.0110239199
 40
0.0436132871
 40
0.0961991836
 40
0.166104814
 40
0.250686317
 40
0.3457136937
 40
0.4479316218
 40
0.5519080592
 40
0.6541097126
 40
0.7491061308
 40
0.8337162803
 40
0.9036568436
 40
0.9563177198
 40
0.9889510235
 40
1.0
 40
1.0
 40
1.0
 40
1.0
 10
6.4092173247
 20
4.3845931826
 30
0.0
 10
6.4096129704
 20
4.3845161729
 30
0.0
 10
6.4111788412
 20
4.3842145794
 30
0.0
 10
6.4146378914
 20
4.3835763274
 30
0.0
 10
6.4202296206
 20
4.382633711
 30
0.0
 10
6.4277230466
 20
4.3815447261
 30
0.0
 10
6.4367874407
 20
4.3804975181
 30
0.0
 10
6.4470612435
 20
4.379672104
 30
0.0
 10
6.4580686161
 20
4.3792184224
 30
0.0
 10
6.469347851
 20
4.3792180608
 30
0.0
 10
6.4803535272
 20
4.3796709335
 30
0.0
 10
6.4906267129
 20
4.3804955186
 30
0.0
 10
6.4996923711
 20
4.3815421915
 30
0.0
 10
6.507190878
 20
4.3826314517
 30
0.0
 10
6.5127881924
 20
4.3835747856
 30
0.0
 10
6.5162524304
 20
4.3842139343
 30
0.0
 10
6.5178207797
 20
4.3845159979
 30
0.0
 10
6.5182173247
 20
4.3845931826
 30
0.0
 11
6.4092173247
 21
4.3845931826
 31
0.0
 11
6.410404715
 21
4.3843644898
 31
0.0
 11
6.4139201158
 21
4.383715937
 31
0.0
 11
6.4196080716
 21
4.3827574797
 31
0.0
 11
6.4271964183
 21
4.381655498
 31
0.0
 11
6.436412988
 21
4.3805918725
 31
0.0
 11
6.4468031507
 21
4.3797582954
 31
0.0
 11
6.4580059492
 21
4.3792973322
 31
0.0
 11
6.4694111181
 21
4.3792969672
 31
0.0
 11
6.4806121638
 21
4.3797571075
 31
0.0
 11
6.4909990042
 21
4.3805896319
 31
0.0
 11
6.5002187742
 21
4.381652934
 31
0.0
 11
6.5078109796
 21
4.3827550067
 31
0.0
 11
6.5135070832
 21
4.3837146079
 31
0.0
 11
6.5170272344
 21
4.3843639753
 31
0.0
 11
6.5182173247
 21
4.3845931826
 31
0.0
  0
SPLINE
  5
43A
100
AcDbEntity
  8
0
100
AcDbSpline
 62
7
  6
CONTINUOUS
 70
0
 71
3
 72
14
 73
10
 74
8
 42
0.0000001
 43
0.0000001
 44
0.0000000001
 12
-0.0000406018
 22
-0.0716486759
 32
0.0
 13
-0.0713766725
 23
0.0
 33
0.0
 40
0.0
 40
0.0
 40
0.0
 40
0.0
 40
0.1182119485
 40
0.2388076034
 40
0.3685742348
 40
0.5112502663
 40
0.6664730405
 40
0.8308984782
 40
1.0
 40
1.0
 40
1.0
 40
1.0
 10
6.5642173199
 20
3.9066033512
 30
0.0
 10
6.56421572
 20
3.903780108
 30
0.0
 10
6.5633086902
 20
3.8980648532
 30
0.0
 10
6.559095406
 20
3.8902006594
 30
0.0
 10
6.5523514018
 20
3.8835563899
 30
0.0
 10
6.5435325481
 20
3.8783275383
 30
0.0
 10
6.533133403
 20
3.8745850567
 30
0.0
 10
6.5216856819
 20
3.8723462769
 30
0.0
 10
6.513740626
 20
3.8718526833
 30
0.0
 10
6.5097173247
 20
3.8718526833
 30
0.0
 11
6.5642173199
 21
3.9066033512
 31
0.0
 11
6.5628710829
 21
3.8982737893
 31
0.0
 11
6.5588675464
 21
3.8906537841
 31
0.0
 11
6.5523589103
 21
3.884063788
 31
0.0
 11
6.5436633349
 21
3.8787632656
 31
0.0
 11
6.5332703543
 21
3.874924449
 31
0.0
 11
6.5217628748
 21
3.8726190397
 31
0.0
 11
6.5097173247
 21
3.8718526833
 31
0.0
  0
SPLINE
  5
43B
100
AcDbEntity
  8
0
100
AcDbSpline
 62
7
  6
CONTINUOUS
 70
0
 71
3
 72
14
 73
10
 74
8
 42
0.0000001
 43
0.0000001
 44
0.0000000001
 12
0.0713766741
 22
0.0
 32
0.0
 13
0.0000406259
 23
-0.0716486784
 33
0.0
 40
0.0
 40
0.0
 40
0.0
 40
0.0
 40
0.169103199
 40
0.333529667
 40
0.4887535662
 40
0.6314301343
 40
0.7611969619
 40
0.8817925536
 40
1.0
 40
1.0
 40
1.0
 40
1.0
 10
6.5097173247
 20
4.3373336819
 30
0.0
 10
6.513740666
 20
4.3373336819
 30
0.0
 10
6.5216857869
 20
4.3368400795
 30
0.0
 10
6.5331335944
 20
4.3346012611
 30
0.0
 10
6.5435327888
 20
4.3308587212
 30
0.0
 10
6.5523516511
 20
4.3256297922
 30
0.0
 10
6.5590956069
 20
4.318985446
 30
0.0
 10
6.5633087462
 20
4.3111212929
 30
0.0
 10
6.5642157189
 20
4.3054061462
 30
0.0
 10
6.5642173196
 20
4.3025830104
 30
0.0
 11
6.5097173247
 21
4.3373336819
 31
0.0
 11
6.5217629941
 21
4.3365673101
 31
0.0
 11
6.5332705415
 21
4.3342618641
 31
0.0
 11
6.5436635835
 21
4.3304229812
 31
0.0
 11
6.5523591582
 21
4.3251223838
 31
0.0
 11
6.5588677424
 21
4.3185323163
 31
0.0
 11
6.5628711862
 21
4.3109122673
 31
0.0
 11
6.5642173196
 21
4.3025830104
 31
0.0
  0
SPLINE
  5
43C
100
AcDbEntity
  8
0
100
AcDbSpline
 62
7
  6
CONTINUOUS
 70
0
 71
3
 72
14
 73
10
 74
8
 42
0.0000001
 43
0.0000001
 44
0.0000000001
 12
0.0000406215
 22
-0.0716486783
 32
0.0
 13
0.0713766739
 23
0.0
 33
0.0
 40
0.0
 40
0.0
 40
0.0
 40
0.0
 40
0.1182083296
 40
0.2388038045
 40
0.3685705476
 40
0.5112469839
 40
0.6664707323
 40
0.8308970161
 40
1.0
 40
1.0
 40
1.0
 40
1.0
 10
6.4552173296
 20
3.9066033541
 30
0.0
 10
6.4552189302
 20
3.9037801973
 30
0.0
 10
6.4561259136
 20
3.8980650324
 30
0.0
 10
6.4603390778
 20
3.8902008745
 30
0.0
 10
6.4670830374
 20
3.8835565445
 30
0.0
 10
6.4759018966
 20
3.8783276283
 30
0.0
 10
6.4863010821
 20
3.8745850974
 30
0.0
 10
6.4977488772
 20
3.8723462845
 30
0.0
 10
6.5056939885
 20
3.8718526833
 30
0.0
 10
6.5097173247
 20
3.8718526833
 30
0.0
 11
6.4552173296
 21
3.9066033541
 31
0.0
 11
6.4565634834
 21
3.8982740374
 31
0.0
 11
6.4605669399
 21
3.8906540044
 31
0.0
 11
6.4670755298
 21
3.8840639512
 31
0.0
 11
6.4757711015
 21
3.878763367
 31
0.0
 11
6.4861641354
 21
3.8749244934
 31
0.0
 11
6.4976716705
 21
3.8726190531
 31
0.0
 11
6.5097173247
 21
3.8718526833
 31
0.0
  0
SPLINE
  5
43D
100
AcDbEntity
  8
0
100
AcDbSpline
 62
7
  6
CONTINUOUS
 70
0
 71
3
 72
14
 73
10
 74
8
 42
0.0000001
 43
0.0000001
 44
0.0000000001
 12
0.0000406078
 22
0.0716486767
 32
0.0
 13
0.0713766728
 23
-0.0
 33
0.0
 40
0.0
 40
0.0
 40
0.0
 40
0.0
 40
0.1182111631
 40
0.2388067343
 40
0.3685734864
 40
0.5112496433
 40
0.6664725732
 40
0.8308982202
 40
1.0
 40
1.0
 40
1.0
 40
1.0
 10
6.4552173295
 20
4.3025830132
 30
0.0
 10
6.4552189296
 20
4.3054062376
 30
0.0
 10
6.4561259491
 20
4.3111214721
 30
0.0
 10
6.4603392073
 20
4.3189856593
 30
0.0
 10
6.4670832036
 20
4.3256299434
 30
0.0
 10
6.4759020606
 20
4.3308588091
 30
0.0
 10
6.4863012149
 20
4.3346013008
 30
0.0
 10
6.49774895
 20
4.3368400869
 30
0.0
 10
6.5056940172
 20
4.3373336819
 30
0.0
 10
6.5097173247
 20
4.3373336819
 30
0.0
 11
6.4552173295
 21
4.3025830132
 31
0.0
 11
6.4565635484
 21
4.310912522
 31
0.0
 11
6.4605670656
 21
4.3185325307
 31
0.0
 11
6.4670756966
 21
4.3251225441
 31
0.0
 11
6.475771274
 21
4.3304230804
 31
0.0
 11
6.4861642627
 21
4.3342619072
 31
0.0
 11
6.4976717561
 21
4.3365673231
 31
0.0
 11
6.5097173247
 21
4.3373336819
 31
0.0
  0
SPLINE
  5
43E
100
AcDbEntity
  8
0
100
AcDbSpline
 62
7
  6
CONTINUOUS
 70
0
 71
3
 72
11
 73
7
 74
5
 42
0.0000001
 43
0.0000001
 44
0.0000000001
 12
0.01426303
 22
0.0
 32
0.0
 13
0.0142507328
 23
-0.0005925162
 33
0.0
 40
0.0
 40
0.0
 40
0.0
 40
0.0
 40
0.3320648678
 40
0.6343536654
 40
0.8747447638
 40
1.0
 40
1.0
 40
1.0
 40
1.0
 10
5.1407173247
 20
3.7619435802
 30
0.0
 10
5.142296075
 20
3.7619435802
 30
0.0
 10
5.1453120533
 20
3.7619227337
 30
0.0
 10
5.1494701534
 20
3.7618391096
 30
0.0
 10
5.1526442371
 20
3.7617394731
 30
0.0
 10
5.1543813354
 20
3.7616717604
 30
0.0
 10
5.1549763283
 20
3.7616470218
 30
0.0
 11
5.1407173247
 21
3.7619435802
 31
0.0
 11
5.1454534627
 21
3.7619108501
 31
0.0
 11
5.1497641455
 21
3.7618241715
 31
0.0
 11
5.1531911633
 21
3.7617166062
 31
0.0
 11
5.1549763283
 21
3.7616470218
 31
0.0
  0
SPLINE
  5
43F
100
AcDbEntity
  8
0
100
AcDbSpline
 62
7
  6
CONTINUOUS
 70
0
 71
3
 72
8
 73
4
 74
2
 42
0.0000001
 43
0.0000001
 44
0.0000000001
 12
0.0004415094
 22
-0.0000183571
 32
0.0
 13
0.0004414853
 23
-0.0000189234
 33
0.0
 40
0.0
 40
0.0
 40
0.0
 40
0.0
 40
1.0
 40
1.0
 40
1.0
 40
1.0
 10
5.1549763283
 20
3.7616470218
 30
0.0
 10
5.1551234981
 20
3.7616409028
 30
0.0
 10
5.155270664
 20
3.7616346894
 30
0.0
 10
5.1554178257
 20
3.7616283816
 30
0.0
 11
5.1549763283
 21
3.7616470218
 31
0.0
 11
5.1554178257
 21
3.7616283816
 31
0.0
  0
SPLINE
  5
440
100
AcDbEntity
  8
0
100
AcDbSpline
 62
7
  6
CONTINUOUS
 70
0
 71
3
 72
8
 73
4
 74
2
 42
0.0000001
 43
0.0000001
 44
0.0000000001
 12
0.0007995397
 22
-0.0000342707
 32
0.0
 13
0.0007994574
 23
-0.0000361271
 33
0.0
 40
0.0
 40
0.0
 40
0.0
 40
0.0
 40
1.0
 40
1.0
 40
1.0
 40
1.0
 10
5.1554178257
 20
3.7616283816
 30
0.0
 10
5.155684339
 20
3.761616958
 30
0.0
 10
5.1559508389
 20
3.761605225
 30
0.0
 10
5.1562173247
 20
3.7615931826
 30
0.0
 11
5.1554178257
 21
3.7616283816
 31
0.0
 11
5.1562173247
 21
3.7615931826
 31
0.0
  0
SPLINE
  5
441
100
AcDbEntity
  8
0
100
AcDbSpline
 62
7
  6
CONTINUOUS
 70
0
 71
3
 72
8
 73
4
 74
2
 42
0.0000001
 43
0.0000001
 44
0.0000000001
 12
0.0007952833
 22
0.0000359385
 32
0.0
 13
0.0007953649
 23
0.0000341014
 33
0.0
 40
0.0
 40
0.0
 40
0.0
 40
0.0
 40
1.0
 40
1.0
 40
1.0
 40
1.0
 10
5.1252173247
 20
3.7615931826
 30
0.0
 10
5.1254824191
 20
3.7616051621
 30
0.0
 10
5.1257475275
 20
3.7616168355
 30
0.0
 10
5.1260126491
 20
3.7616282026
 30
0.0
 11
5.1252173247
 21
3.7615931826
 31
0.0
 11
5.1260126491
 21
3.7616282026
 31
0.0
  0
SPLINE
  5
442
100
AcDbEntity
  8
0
100
AcDbSpline
 62
7
  6
CONTINUOUS
 70
0
 71
3
 72
9
 73
5
 74
3
 42
0.0000001
 43
0.0000001
 44
0.0000000001
 12
0.0005844664
 22
0.0000250591
 32
0.0
 13
0.0005845085
 23
0.0000240665
 33
0.0
 40
0.0
 40
0.0
 40
0.0
 40
0.0
 40
0.034256155
 40
1.0
 40
1.0
 40
1.0
 40
1.0
 10
5.1260126491
 20
3.7616282026
 30
0.0
 10
5.126019323
 20
3.7616284888
 30
0.0
 10
5.1262141454
 20
3.7616368361
 30
0.0
 10
5.1264089749
 20
3.7616450181
 30
0.0
 10
5.1265971367
 20
3.7616527654
 30
0.0
 11
5.1260126491
 21
3.7616282026
 31
0.0
 11
5.1260326707
 21
3.7616290605
 31
0.0
 11
5.1265971367
 21
3.7616527654
 31
0.0
  0
SPLINE
  5
443
100
AcDbEntity
  8
0
100
AcDbSpline
 62
7
  6
CONTINUOUS
 70
0
 71
3
 72
11
 73
7
 74
5
 42
0.0000001
 43
0.0000001
 44
0.0000000001
 12
0.0141121574
 22
0.0005810521
 32
0.0
 13
0.0141240967
 23
0.0
 33
0.0
 40
0.0
 40
0.0
 40
0.0
 40
0.0
 40
0.121497747
 40
0.3636986684
 40
0.6662011482
 40
1.0
 40
1.0
 40
1.0
 40
1.0
 10
5.1265971367
 20
3.7616527654
 30
0.0
 10
5.1271686685
 20
3.7616762976
 30
0.0
 10
5.1288797031
 20
3.761742478
 30
0.0
 10
5.1320147271
 20
3.7618402989
 30
0.0
 10
5.1361500192
 20
3.761922968
 30
0.0
 10
5.1391457889
 20
3.7619435802
 30
0.0
 10
5.1407173247
 20
3.7619435802
 30
0.0
 11
5.1265971367
 21
3.7616527654
 31
0.0
 11
5.1283119024
 21
3.7617190884
 31
0.0
 11
5.1317311079
 21
3.7618257657
 31
0.0
 11
5.1360028289
 21
3.7619111485
 31
0.0
 11
5.1407173247
 21
3.7619435802
 31
0.0
  0
SPLINE
  5
444
100
AcDbEntity
  8
0
100
AcDbSpline
 62
7
  6
CONTINUOUS
 70
0
 71
3
 72
14
 73
10
 74
8
 42
0.0000001
 43
0.0000001
 44
0.0000000001
 12
-0.1046826132
 22
0.2029792199
 32
0.0
 13
0.1046826132
 23
0.2029792199
 33
0.0
 40
0.0
 40
0.0
 40
0.0
 40
0.0
 40
0.1530438599
 40
0.2956043717
 40
0.4324922324
 40
0.5675957362
 40
0.7044780411
 40
0.8469906498
 40
1.0
 40
1.0
 40
1.0
 40
1.0
 10
4.3347809905
 20
3.6164907101
 30
0.0
 10
4.3294406468
 20
3.6268456179
 30
0.0
 10
4.3200356534
 20
3.6473453462
 30
0.0
 10
4.3099940353
 20
3.6788008705
 30
0.0
 10
4.3048503252
 20
3.7100685393
 30
0.0
 10
4.3048520183
 20
3.7413375635
 30
0.0
 10
4.3099980988
 20
3.7726006685
 30
0.0
 10
4.3200392812
 20
3.8040491835
 30
0.0
 10
4.329441851
 20
3.8245430822
 30
0.0
 10
4.3347809905
 20
3.8348956551
 30
0.0
 11
4.3347809905
 21
3.6164907101
 31
0.0
 11
4.3203833918
 21
3.648340351
 31
0.0
 11
4.3106485196
 21
3.6794094022
 31
0.0
 11
4.3056832858
 21
3.710275516
 31
0.0
 11
4.3056849166
 21
3.7411309241
 31
0.0
 11
4.3106529055
 21
3.7719953094
 31
0.0
 11
4.3203862279
 21
3.8030533815
 31
0.0
 11
4.3347809905
 21
3.8348956551
 31
0.0
  0
SPLINE
  5
445
100
AcDbEntity
  8
0
100
AcDbSpline
 62
7
  6
CONTINUOUS
 70
0
 71
3
 72
15
 73
11
 74
9
 42
0.0000001
 43
0.0000001
 44
0.0000000001
 12
0.1643031241
 22
0.1839340856
 32
0.0
 13
-0.1643031241
 23
0.1839340856
 33
0.0
 40
0.0
 40
0.0
 40
0.0
 40
0.0
 40
0.1498215377
 40
0.2783315905
 40
0.3927788038
 40
0.5000592815
 40
0.6073304266
 40
0.7217569014
 40
0.8502022558
 40
1.0
 40
1.0
 40
1.0
 40
1.0
 10
4.7082173247
 20
3.6164907101
 30
0.0
 10
4.7164227069
 20
3.6256764726
 30
0.0
 10
4.7308544864
 20
3.6435194312
 30
0.0
 10
4.7474522151
 20
3.6713778453
 30
0.0
 10
4.7574373221
 20
3.6986049193
 30
0.0
 10
4.7607983452
 20
3.725707275
 30
0.0
 10
4.7574305715
 20
3.7528069388
 30
0.0
 10
4.7474434542
 20
3.7800247154
 30
0.0
 10
4.7308487247
 20
3.8078741758
 30
0.0
 10
4.7164214038
 20
3.8257113514
 30
0.0
 10
4.7082173247
 20
3.8348956551
 30
0.0
 11
4.7082173247
 21
3.6164907101
 31
0.0
 11
4.7311857984
 21
3.6454356231
 31
0.0
 11
4.7471119833
 21
3.6728383381
 31
0.0
 11
4.7565609807
 21
3.6994361195
 31
0.0
 11
4.7597012897
 21
3.7257078834
 31
0.0
 11
4.7565547015
 21
3.7519765779
 31
0.0
 11
4.7471026693
 21
3.7785678527
 31
0.0
 11
4.7311824618
 21
3.8059555857
 31
0.0
 11
4.7082173247
 21
3.8348956551
 31
0.0
  0
SPLINE
  5
446
100
AcDbEntity
  8
0
100
AcDbSpline
 62
7
  6
CONTINUOUS
 70
0
 71
3
 72
14
 73
10
 74
8
 42
0.0000001
 43
0.0000001
 44
0.0000000001
 12
-0.1103507163
 22
0.4279393037
 32
0.0
 13
0.1103507163
 23
0.4279393037
 33
0.0
 40
0.0
 40
0.0
 40
0.0
 40
0.0
 40
0.1477720816
 40
0.2900907235
 40
0.430227046
 40
0.569863817
 40
0.7099928421
 40
0.8522618536
 40
1.0
 40
1.0
 40
1.0
 40
1.0
 10
4.3347809905
 20
3.8861882376
 30
0.0
 10
4.3293454055
 20
3.9072673982
 30
0.0
 10
4.3198300534
 20
3.9489614371
 30
0.0
 10
4.30990297
 20
4.0116100761
 30
0.0
 10
4.3048484272
 20
4.073649511
 30
0.0
 10
4.3048500859
 20
4.135575972
 30
0.0
 10
4.3099070038
 20
4.1976067784
 30
0.0
 10
4.3198337792
 20
4.2602418538
 30
0.0
 10
4.3293466538
 20
4.3019238078
 30
0.0
 10
4.3347809905
 20
4.3229981276
 30
0.0
 11
4.3347809905
 21
3.8861882376
 31
0.0
 11
4.3203833918
 21
3.9498875194
 31
0.0
 11
4.3106485196
 21
4.0120256218
 31
0.0
 11
4.3056832858
 21
4.0737578495
 31
0.0
 11
4.3056849166
 21
4.1354686657
 31
0.0
 11
4.3106529055
 21
4.1971974363
 31
0.0
 11
4.3203862279
 21
4.2593135803
 31
0.0
 11
4.3347809905
 21
4.3229981276
 31
0.0
  0
SPLINE
  5
447
100
AcDbEntity
  8
0
100
AcDbSpline
 62
7
  6
CONTINUOUS
 70
0
 71
3
 72
15
 73
11
 74
9
 42
0.0000001
 43
0.0000001
 44
0.0000000001
 12
0.1843202379
 22
0.4126856942
 32
0.0
 13
-0.1843202379
 23
0.4126856942
 33
0.0
 40
0.0
 40
0.0
 40
0.0
 40
0.0
 40
0.1377942686
 40
0.2640673782
 40
0.3836049145
 40
0.5000649493
 40
0.6165122554
 40
0.736022619
 40
0.8622283762
 40
1.0
 40
1.0
 40
1.0
 40
1.0
 10
4.7082173247
 20
3.8861882376
 30
0.0
 10
4.7166834155
 20
3.9051434787
 30
0.0
 10
4.7315149582
 20
3.9421244176
 30
0.0
 10
4.7478520734
 20
3.9976606987
 30
0.0
 10
4.7575452429
 20
4.051491438
 30
0.0
 10
4.7607668994
 20
4.1046207409
 30
0.0
 10
4.7575387093
 20
4.1577454915
 30
0.0
 10
4.7478431877
 20
4.2115592741
 30
0.0
 10
4.7315087383
 20
4.2670777693
 30
0.0
 10
4.7166820242
 20
4.3040460015
 30
0.0
 10
4.7082173247
 20
4.3229981276
 30
0.0
 11
4.7082173247
 21
3.8861882376
 31
0.0
 11
4.7311857984
 21
3.9440780636
 31
0.0
 11
4.7471119833
 21
3.9988834937
 31
0.0
 11
4.7565609807
 21
4.0520790563
 31
0.0
 11
4.7597012897
 21
4.1046225843
 31
0.0
 11
4.7565547015
 21
4.1571599732
 31
0.0
 11
4.7471026693
 21
4.2103425229
 31
0.0
 11
4.7311824618
 21
4.2651179889
 31
0.0
 11
4.7082173247
 21
4.3229981276
 31
0.0
  0
SPLINE
  5
448
100
AcDbEntity
  8
0
100
AcDbSpline
 62
7
  6
CONTINUOUS
 70
0
 71
3
 72
14
 73
10
 74
8
 42
0.0000001
 43
0.0000001
 44
0.0000000001
 12
-0.1046826132
 22
0.2029792199
 32
0.0
 13
0.1046826132
 23
0.2029792199
 33
0.0
 40
0.0
 40
0.0
 40
0.0
 40
0.0
 40
0.1530438599
 40
0.2956043717
 40
0.4324922324
 40
0.5675957362
 40
0.7044780411
 40
0.8469906498
 40
1.0
 40
1.0
 40
1.0
 40
1.0
 10
4.3347809905
 20
4.3742907101
 30
0.0
 10
4.3294406468
 20
4.3846456179
 30
0.0
 10
4.3200356534
 20
4.4051453462
 30
0.0
 10
4.3099940353
 20
4.4366008705
 30
0.0
 10
4.3048503252
 20
4.4678685393
 30
0.0
 10
4.3048520183
 20
4.4991375635
 30
0.0
 10
4.3099980988
 20
4.5304006685
 30
0.0
 10
4.3200392812
 20
4.5618491835
 30
0.0
 10
4.329441851
 20
4.5823430822
 30
0.0
 10
4.3347809905
 20
4.5926956551
 30
0.0
 11
4.3347809905
 21
4.3742907101
 31
0.0
 11
4.3203833918
 21
4.406140351
 31
0.0
 11
4.3106485196
 21
4.4372094022
 31
0.0
 11
4.3056832858
 21
4.468075516
 31
0.0
 11
4.3056849166
 21
4.4989309241
 31
0.0
 11
4.3106529055
 21
4.5297953094
 31
0.0
 11
4.3203862279
 21
4.5608533815
 31
0.0
 11
4.3347809905
 21
4.5926956551
 31
0.0
  0
SPLINE
  5
449
100
AcDbEntity
  8
0
100
AcDbSpline
 62
7
  6
CONTINUOUS
 70
0
 71
3
 72
15
 73
11
 74
9
 42
0.0000001
 43
0.0000001
 44
0.0000000001
 12
0.1643031241
 22
0.1839340856
 32
0.0
 13
-0.1643031241
 23
0.1839340856
 33
0.0
 40
0.0
 40
0.0
 40
0.0
 40
0.0
 40
0.1498215377
 40
0.2783315905
 40
0.3927788038
 40
0.5000592815
 40
0.6073304266
 40
0.7217569014
 40
0.8502022558
 40
1.0
 40
1.0
 40
1.0
 40
1.0
 10
4.7082173247
 20
4.3742907101
 30
0.0
 10
4.7164227069
 20
4.3834764726
 30
0.0
 10
4.7308544864
 20
4.4013194312
 30
0.0
 10
4.7474522151
 20
4.4291778453
 30
0.0
 10
4.7574373221
 20
4.4564049193
 30
0.0
 10
4.7607983452
 20
4.483507275
 30
0.0
 10
4.7574305715
 20
4.5106069388
 30
0.0
 10
4.7474434542
 20
4.5378247154
 30
0.0
 10
4.7308487247
 20
4.5656741758
 30
0.0
 10
4.7164214038
 20
4.5835113514
 30
0.0
 10
4.7082173247
 20
4.5926956551
 30
0.0
 11
4.7082173247
 21
4.3742907101
 31
0.0
 11
4.7311857984
 21
4.4032356231
 31
0.0
 11
4.7471119833
 21
4.4306383381
 31
0.0
 11
4.7565609807
 21
4.4572361195
 31
0.0
 11
4.7597012897
 21
4.4835078834
 31
0.0
 11
4.7565547015
 21
4.5097765779
 31
0.0
 11
4.7471026693
 21
4.5363678527
 31
0.0
 11
4.7311824618
 21
4.5637555857
 31
0.0
 11
4.7082173247
 21
4.5926956551
 31
0.0
  0
ENDSEC
  0
SECTION
  2
OBJECTS
  0
DICTIONARY
  5
C
100
AcDbDictionary
280
0
281
1
  3
ACAD_GROUP
350
D
  3
ACAD_MLINESTYLE
350
17
  3
ACAD_LAYOUT
350
1A
  3
ACAD_PLOTSETTINGS
350
19
  3
ACAD_PLOTSTYLENAME
350
E
  0
DICTIONARY
  5
D
102
{ACAD_REACTORS
330
C
102
}
100
AcDbDictionary
280
0
281
1
  0
ACDBDICTIONARYWDFLT
  5
E
102
{ACAD_REACTORS
330
C
102
}
100
AcDbDictionary
281
1
  3
Normal
350
F
100
AcDbDictionaryWithDefault
340
F
  0
DICTIONARY
  5
17
102
{ACAD_REACTORS
330
C
102
}
100
AcDbDictionary
280
0
281
1
  3
Standard
350
18
  0
DICTIONARY
  5
19
102
{ACAD_REACTORS
330
C
102
}
100
AcDbDictionary
281
1
  0
DICTIONARY
  5
1A
102
{ACAD_REACTORS
330
C
102
}
100
AcDbDictionary
281
1
  3
Layout1
350
1E
  3
Model
350
22
  0
ACDBPLACEHOLDER
  5
F
102
{ACAD_REACTORS
330
E
102
}
  0
MLINESTYLE
  5
18
102
{ACAD_REACTORS
330
17
102
}
100
AcDbMlineStyle
  2
STANDARD
 70
0
  3

 62
256
 51
90.0
 52
90.0
 71
2
 49
0.5
 62
256
  6
BYLAYER
 49
-0.5
 62
256
  6
BYLAYER
  0
LAYOUT
  5
1E
102
{ACAD_REACTORS
330
1A
102
}
100
AcDbPlotSettings
  1

  2

  4

  6

 40
0.0
 41
0.0
 42
0.0
 43
0.0
 44
0.0
 45
0.0
 46
0.0
 47
0.0
 48
0.0
 49
0.0
140
0.0
141
0.0
142
1.0
143
1.0
 70
0
 72
0
 73
0
 74
0
  7

 75
0
147
1.0
148
0.0
149
0.0
100
AcDbLayout
  1
Layout1
 70
0
 71
0
 10
0.0
 20
0.0
 11
0.0
 21
0.0
 12
0.0
 22
0.0
 32
0.0
 14
0.0
 24
0.0
 34
0.0
 15
0.0
 25
0.0
 35
0.0
146
0.0
 13
0.0
 23
0.0
 33
0.0
 16
0.0
 26
0.0
 36
0.0
 17
0.0
 27
0.0
 37
0.0
 76
0
330
1B
331
0
345
0
346
0
  0
LAYOUT
  5
22
102
{ACAD_REACTORS
330
1A
102
}
100
AcDbPlotSettings
  1

  2

  4

  6

 40
0.0
 41
0.0
 42
0.0
 43
0.0
 44
0.0
 45
0.0
 46
0.0
 47
0.0
 48
0.0
 49
0.0
140
0.0
141
0.0
142
1.0
143
1.0
 70
0
 72
0
 73
0
 74
0
  7

 75
0
147
1.0
148
0.0
149
0.0
100
AcDbLayout
  1
Model
 70
0
 71
0
 10
0.0
 20
0.0
 11
0.0
 21
0.0
 12
0.0
 22
0.0
 32
0.0
 14
0.0
 24
0.0
 34
0.0
 15
0.0
 25
0.0
 35
0.0
146
0.0
 13
0.0
 23
0.0
 33
0.0
 16
0.0
 26
0.0
 36
0.0
 17
0.0
 27
0.0
 37
0.0
 76
0
330
1F
331
0
345
0
346
0
  0
ENDSEC
  0
EOF
