999
DXF file: LPBD-XFN.dxf
999
Pro/ENGINEER 2006240 by Parametric Technology Corporation
  0
SECTION
  2
HEADER
  9
$ACADVER
  1
AC1015
  9
$DWGCODEPAGE
  3
ANSI_1252
  9
$EXTMAX
 10
11.6929133858
 20
8.2677165354
 30
0.0
  9
$EXTMIN
 10
0.0
 20
0.0
 30
0.0
  9
$LIMMIN
 10
0.0
 20
0.0
  9
$LIMMAX
 10
11.6929133858
 20
8.2677165354
  9
$VIEWCTR
 10
5.8464566929
 20
4.1338582677
  9
$VIEWSIZE
 40
8.2677165354
  9
$CLAYER
  8
0
  9
$LTSCALE
 40
0.6431102362
  9
$CELTYPE
  6
BYLAYER
  9
$DIMSCALE
 40
1.0
  9
$DIMASZ
 40
0.1875
  9
$DIMEXO
 40
0.0730807087
  9
$DIMDLI
 40
0.4443307087
  9
$DIMEXE
 40
0.2104724409
  9
$DIMCEN
 40
0.1052362205
  9
$DIMLFAC
 40
1.0
  9
$DIMBLK
  1
_CLOSED
  9
$DIMTXT
 40
0.15625
  9
$DIMTOL
 70
0
  9
$DIMLIM
 70
0
  9
$DIMTFAC
 40
1.0
  9
$PDMODE
 70
3
  9
$PDSIZE
 40
0.3125
  9
$HANDSEED
  5
41A
  9
$MEASUREMENT
 70
0
  9
$INSUNITS
 70
1
  0
ENDSEC
  0
SECTION
  2
CLASSES
  0
CLASS
  1
ACDBDICTIONARYWDFLT
  2
AcDbDictionaryWithDefault
  3
AutoCAD 2000
 90
0
280
0
281
0
  0
CLASS
  1
ACDBPLACEHOLDER
  2
AcDbPlaceHolder
  3
AutoCAD 2000
 90
0
280
0
281
0
  0
CLASS
  1
LAYOUT
  2
AcDbLayout
  3
AutoCAD 2000
 90
0
280
0
281
0
  0
ENDSEC
  0
SECTION
  2
TABLES
  0
TABLE
  2
VPORT
  5
8
100
AcDbSymbolTable
 70
2
  0
VPORT
  5
1F4
100
AcDbSymbolTableRecord
100
AcDbViewportTableRecord
  2
*ACTIVE
 70
0
 10
0.0
 20
0.0
 11
1.0
 21
1.0
 12
5.8464566929
 22
4.1338582677
 13
0.0
 23
0.0
 14
1.0
 24
1.0
 15
0.0
 25
0.0
 16
0.0
 26
0.0
 36
1.0
 17
0.0
 27
0.0
 37
0.0
 40
8.2677165354
 41
1.4142857143
 42
50.0
 43
0.0
 44
0.0
 50
0.0
 51
0.0
 71
0
 72
100
 73
1
 74
1
 75
0
 76
0
 77
0
 78
0
  0
ENDTAB
  0
TABLE
  2
LTYPE
  5
5
100
AcDbSymbolTable
 70
6
  0
LTYPE
  5
14
100
AcDbSymbolTableRecord
100
AcDbLinetypeTableRecord
  2
BYBLOCK
 70
0
  3

 72
65
 73
0
 40
0.0
  0
LTYPE
  5
15
100
AcDbSymbolTableRecord
100
AcDbLinetypeTableRecord
  2
BYLAYER
 70
0
  3

 72
65
 73
0
 40
0.0
  0
LTYPE
  5
16
100
AcDbSymbolTableRecord
100
AcDbLinetypeTableRecord
  2
CONTINUOUS
 70
64
  3
Solid line
 72
65
 73
0
 40
0.0
  0
LTYPE
  5
1F5
100
AcDbSymbolTableRecord
100
AcDbLinetypeTableRecord
  2
CENTER
 70
64
  3
____ _ ____ _ ____ _ ____ _ ____ _ ____ _ ____
 72
65
 73
4
 40
0.6
 49
0.375
 74
0
 49
-0.075
 74
0
 49
0.075
 74
0
 49
-0.075
 74
0
  0
LTYPE
  5
1F6
100
AcDbSymbolTableRecord
100
AcDbLinetypeTableRecord
  2
HIDDEN
 70
64
  3
- - - - - - - - - - - - - - - - - - - -
 72
65
 73
2
 40
0.2
 49
0.1
 74
0
 49
-0.1
 74
0
  0
LTYPE
  5
1F7
100
AcDbSymbolTableRecord
100
AcDbLinetypeTableRecord
  2
PHANTOM
 70
64
  3
_____ _ _ _____ _ _ _____ _ _ _____
 72
65
 73
6
 40
0.8
 49
0.45
 74
0
 49
-0.05
 74
0
 49
0.1
 74
0
 49
-0.05
 74
0
 49
0.1
 74
0
 49
-0.05
 74
0
  0
LTYPE
  5
1F8
100
AcDbSymbolTableRecord
100
AcDbLinetypeTableRecord
  2
DOT
 70
64
  3
. . . . . . . . . . . . . . . . . . . .
 72
65
 73
2
 40
0.2
 49
0.1
 74
0
 49
-0.1
 74
0
  0
LTYPE
  5
1F9
100
AcDbSymbolTableRecord
100
AcDbLinetypeTableRecord
  2
DASHED
 70
64
  3
- - - - - - - - - - - - - - - - - - - -
 72
65
 73
2
 40
0.2
 49
0.1
 74
0
 49
-0.1
 74
0
  0
ENDTAB
  0
TABLE
  2
LAYER
  5
2
100
AcDbSymbolTable
 70
36
  0
LAYER
  5
10
100
AcDbSymbolTableRecord
100
AcDbLayerTableRecord
  2
0
 70
0
 62
7
  6
CONTINUOUS
370
-3
390
F
  0
LAYER
  5
1FA
100
AcDbSymbolTableRecord
100
AcDbLayerTableRecord
  2
DEFAULT_1
 70
0
 62
7
  6
CENTER
370
-3
390
F
  0
LAYER
  5
1FB
100
AcDbSymbolTableRecord
100
AcDbLayerTableRecord
  2
DEFAULT_2
 70
0
 62
8
  6
HIDDEN
370
-3
390
F
  0
LAYER
  5
1FC
100
AcDbSymbolTableRecord
100
AcDbLayerTableRecord
  2
DEFAULT_3
 70
0
 62
7
  6
PHANTOM
370
-3
390
F
  0
LAYER
  5
1FD
100
AcDbSymbolTableRecord
100
AcDbLayerTableRecord
  2
_BLACK_HOLE
 70
0
 62
7
  6
CONTINUOUS
370
-3
390
F
  0
LAYER
  5
1FE
100
AcDbSymbolTableRecord
100
AcDbLayerTableRecord
  2
01_ALL_DTM_PLN
 70
0
 62
7
  6
CONTINUOUS
370
-3
390
F
  0
LAYER
  5
1FF
100
AcDbSymbolTableRecord
100
AcDbLayerTableRecord
  2
01__ASM_ALL_DTM_PLN
 70
0
 62
7
  6
CONTINUOUS
370
-3
390
F
  0
LAYER
  5
200
100
AcDbSymbolTableRecord
100
AcDbLayerTableRecord
  2
01__ASM_DEF_DTM_PLN
 70
0
 62
7
  6
CONTINUOUS
370
-3
390
F
  0
LAYER
  5
201
100
AcDbSymbolTableRecord
100
AcDbLayerTableRecord
  2
01___PRT_ALL_DTM_PLN
 70
0
 62
7
  6
CONTINUOUS
370
-3
390
F
  0
LAYER
  5
202
100
AcDbSymbolTableRecord
100
AcDbLayerTableRecord
  2
01___PRT_DEF_DTM_PLN
 70
0
 62
7
  6
CONTINUOUS
370
-3
390
F
  0
LAYER
  5
203
100
AcDbSymbolTableRecord
100
AcDbLayerTableRecord
  2
02_ALL_AXES
 70
0
 62
7
  6
CONTINUOUS
370
-3
390
F
  0
LAYER
  5
204
100
AcDbSymbolTableRecord
100
AcDbLayerTableRecord
  2
02__ASM_ALL_AXES
 70
0
 62
7
  6
CONTINUOUS
370
-3
390
F
  0
LAYER
  5
205
100
AcDbSymbolTableRecord
100
AcDbLayerTableRecord
  2
02___PRT_ALL_AXES
 70
0
 62
7
  6
CONTINUOUS
370
-3
390
F
  0
LAYER
  5
206
100
AcDbSymbolTableRecord
100
AcDbLayerTableRecord
  2
03_ALL_CURVES
 70
0
 62
7
  6
CONTINUOUS
370
-3
390
F
  0
LAYER
  5
207
100
AcDbSymbolTableRecord
100
AcDbLayerTableRecord
  2
03__ASM_ALL_CURVES
 70
0
 62
7
  6
CONTINUOUS
370
-3
390
F
  0
LAYER
  5
208
100
AcDbSymbolTableRecord
100
AcDbLayerTableRecord
  2
03___PRT_ALL_CURVES
 70
0
 62
7
  6
CONTINUOUS
370
-3
390
F
  0
LAYER
  5
209
100
AcDbSymbolTableRecord
100
AcDbLayerTableRecord
  2
04_ALL_DTM_PNT
 70
0
 62
7
  6
CONTINUOUS
370
-3
390
F
  0
LAYER
  5
20A
100
AcDbSymbolTableRecord
100
AcDbLayerTableRecord
  2
04__ASM_ALL_DTM_PNT
 70
0
 62
7
  6
CONTINUOUS
370
-3
390
F
  0
LAYER
  5
20B
100
AcDbSymbolTableRecord
100
AcDbLayerTableRecord
  2
04___PRT_ALL_DTM_PNT
 70
0
 62
7
  6
CONTINUOUS
370
-3
390
F
  0
LAYER
  5
20C
100
AcDbSymbolTableRecord
100
AcDbLayerTableRecord
  2
05_ALL_DTM_CSYS
 70
0
 62
7
  6
CONTINUOUS
370
-3
390
F
  0
LAYER
  5
20D
100
AcDbSymbolTableRecord
100
AcDbLayerTableRecord
  2
05__ASM_ALL_DTM_CSYS
 70
0
 62
7
  6
CONTINUOUS
370
-3
390
F
  0
LAYER
  5
20E
100
AcDbSymbolTableRecord
100
AcDbLayerTableRecord
  2
05__ASM_DEF_DTM_CSYS
 70
0
 62
7
  6
CONTINUOUS
370
-3
390
F
  0
LAYER
  5
20F
100
AcDbSymbolTableRecord
100
AcDbLayerTableRecord
  2
05___PRT_ALL_DTM_CSYS
 70
0
 62
7
  6
CONTINUOUS
370
-3
390
F
  0
LAYER
  5
210
100
AcDbSymbolTableRecord
100
AcDbLayerTableRecord
  2
05___PRT_DEF_DTM_CSYS
 70
0
 62
7
  6
CONTINUOUS
370
-3
390
F
  0
LAYER
  5
211
100
AcDbSymbolTableRecord
100
AcDbLayerTableRecord
  2
06_ALL_SURFS
 70
0
 62
7
  6
CONTINUOUS
370
-3
390
F
  0
LAYER
  5
212
100
AcDbSymbolTableRecord
100
AcDbLayerTableRecord
  2
06__ASM_ALL_SURFS
 70
0
 62
7
  6
CONTINUOUS
370
-3
390
F
  0
LAYER
  5
213
100
AcDbSymbolTableRecord
100
AcDbLayerTableRecord
  2
06___PRT_ALL_SURFS
 70
0
 62
7
  6
CONTINUOUS
370
-3
390
F
  0
LAYER
  5
214
100
AcDbSymbolTableRecord
100
AcDbLayerTableRecord
  2
07__ASM_ALL_SKELETONS
 70
0
 62
7
  6
CONTINUOUS
370
-3
390
F
  0
LAYER
  5
215
100
AcDbSymbolTableRecord
100
AcDbLayerTableRecord
  2
124-300_FEATURES
 70
0
 62
7
  6
CONTINUOUS
370
-3
390
F
  0
LAYER
  5
216
100
AcDbSymbolTableRecord
100
AcDbLayerTableRecord
  2
124-300_REF_GEOMETRY
 70
0
 62
7
  6
CONTINUOUS
370
-3
390
F
  0
LAYER
  5
217
100
AcDbSymbolTableRecord
100
AcDbLayerTableRecord
  2
124-301_FEATURES
 70
0
 62
7
  6
CONTINUOUS
370
-3
390
F
  0
LAYER
  5
218
100
AcDbSymbolTableRecord
100
AcDbLayerTableRecord
  2
124-301_REF_GEOMETRY
 70
0
 62
7
  6
CONTINUOUS
370
-3
390
F
  0
LAYER
  5
219
100
AcDbSymbolTableRecord
100
AcDbLayerTableRecord
  2
COPY_GEO_FET
 70
0
 62
7
  6
CONTINUOUS
370
-3
390
F
  0
LAYER
  5
21A
100
AcDbSymbolTableRecord
100
AcDbLayerTableRecord
  2
COSMETIC
 70
0
 62
7
  6
CONTINUOUS
370
-3
390
F
  0
LAYER
  5
21B
100
AcDbSymbolTableRecord
100
AcDbLayerTableRecord
  2
CURVES
 70
0
 62
7
  6
CONTINUOUS
370
-3
390
F
  0
LAYER
  5
21C
100
AcDbSymbolTableRecord
100
AcDbLayerTableRecord
  2
CUT_REF_SURF
 70
0
 62
7
  6
CONTINUOUS
370
-3
390
F
  0
LAYER
  5
21D
100
AcDbSymbolTableRecord
100
AcDbLayerTableRecord
  2
DATUM
 70
0
 62
7
  6
CONTINUOUS
370
-3
390
F
  0
LAYER
  5
21E
100
AcDbSymbolTableRecord
100
AcDbLayerTableRecord
  2
DATUMCURVES
 70
0
 62
7
  6
CONTINUOUS
370
-3
390
F
  0
LAYER
  5
21F
100
AcDbSymbolTableRecord
100
AcDbLayerTableRecord
  2
DIMENSIONS
 70
0
 62
7
  6
CONTINUOUS
370
-3
390
F
  0
LAYER
  5
220
100
AcDbSymbolTableRecord
100
AcDbLayerTableRecord
  2
DTM
 70
0
 62
7
  6
CONTINUOUS
370
-3
390
F
  0
LAYER
  5
221
100
AcDbSymbolTableRecord
100
AcDbLayerTableRecord
  2
DTM230
 70
0
 62
7
  6
CONTINUOUS
370
-3
390
F
  0
LAYER
  5
222
100
AcDbSymbolTableRecord
100
AcDbLayerTableRecord
  2
DTM_500002
 70
0
 62
7
  6
CONTINUOUS
370
-3
390
F
  0
LAYER
  5
223
100
AcDbSymbolTableRecord
100
AcDbLayerTableRecord
  2
DTM_500051
 70
0
 62
7
  6
CONTINUOUS
370
-3
390
F
  0
LAYER
  5
224
100
AcDbSymbolTableRecord
100
AcDbLayerTableRecord
  2
DTM_515002
 70
0
 62
7
  6
CONTINUOUS
370
-3
390
F
  0
LAYER
  5
225
100
AcDbSymbolTableRecord
100
AcDbLayerTableRecord
  2
DTM_SPRING_RH
 70
0
 62
7
  6
CONTINUOUS
370
-3
390
F
  0
LAYER
  5
226
100
AcDbSymbolTableRecord
100
AcDbLayerTableRecord
  2
DTM_SP_RH_CONSTR
 70
0
 62
7
  6
CONTINUOUS
370
-3
390
F
  0
LAYER
  5
227
100
AcDbSymbolTableRecord
100
AcDbLayerTableRecord
  2
GEOMETRICTOLERANCES
 70
0
 62
7
  6
CONTINUOUS
370
-3
390
F
  0
LAYER
  5
228
100
AcDbSymbolTableRecord
100
AcDbLayerTableRecord
  2
PARAMETERDIMENSIONS
 70
0
 62
7
  6
CONTINUOUS
370
-3
390
F
  0
LAYER
  5
229
100
AcDbSymbolTableRecord
100
AcDbLayerTableRecord
  2
PLANE
 70
0
 62
7
  6
CONTINUOUS
370
-3
390
F
  0
LAYER
  5
22A
100
AcDbSymbolTableRecord
100
AcDbLayerTableRecord
  2
SUN_STD_250-BSPP_PORT
 70
0
 62
7
  6
CONTINUOUS
370
-3
390
F
  0
LAYER
  5
22B
100
AcDbSymbolTableRecord
100
AcDbLayerTableRecord
  2
SUN_STD_SAE-4_PORT
 70
0
 62
7
  6
CONTINUOUS
370
-3
390
F
  0
LAYER
  5
22C
100
AcDbSymbolTableRecord
100
AcDbLayerTableRecord
  2
TEXT
 70
0
 62
7
  6
CONTINUOUS
370
-3
390
F
  0
LAYER
  5
22D
100
AcDbSymbolTableRecord
100
AcDbLayerTableRecord
  2
THREAD
 70
0
 62
7
  6
CONTINUOUS
370
-3
390
F
  0
ENDTAB
  0
TABLE
  2
STYLE
  5
3
100
AcDbSymbolTable
 70
1
  0
STYLE
  5
11
100
AcDbSymbolTableRecord
100
AcDbTextStyleTableRecord
  2
STANDARD
 70
0
 40
0.0
 41
0.8
 50
0.0
 71
0
 42
0.2
  3
txt
  4

  0
ENDTAB
  0
TABLE
  2
VIEW
  5
6
100
AcDbSymbolTable
 70
0
  0
ENDTAB
  0
TABLE
  2
UCS
  5
7
100
AcDbSymbolTable
 70
0
  0
ENDTAB
  0
TABLE
  2
APPID
  5
9
100
AcDbSymbolTable
 70
1
  0
APPID
  5
22E
100
AcDbSymbolTableRecord
100
AcDbRegAppTableRecord
  2
ACAD
 70
0
  0
ENDTAB
  0
TABLE
  2
BLOCK_RECORD
  5
1
100
AcDbSymbolTable
 70
0
  0
BLOCK_RECORD
  5
1F
100
AcDbSymbolTableRecord
100
AcDbBlockTableRecord
  2
*MODEL_SPACE
  0
BLOCK_RECORD
  5
1B
100
AcDbSymbolTableRecord
100
AcDbBlockTableRecord
  2
*PAPER_SPACE
  0
ENDTAB
  0
TABLE
  2
DIMSTYLE
  5
A
100
AcDbSymbolTable
 70
1
100
AcDbDimStyleTable
 71
0
  0
DIMSTYLE
105
22F
100
AcDbSymbolTableRecord
100
AcDbDimStyleTableRecord
  2
STANDARD
 70
0
  3

  4

 40
1.0
 41
0.1875
 42
0.0625
 43
0.38
 44
0.18
 45
0.0
 46
0.0
 47
0.01
 48
0.01
140
0.15625
141
0.09
142
0.0
143
25.4
144
1.0
145
0.0
146
1.0
147
0.09
 71
0.0
 72
0.0
 73
1
 74
1
 75
0
 76
0
 77
0
 78
4
170
0
171
2
172
0
173
0
174
0
175
0
176
0
177
0
178
0
270
2
271
2
272
2
273
2
274
2
275
0
280
0
281
0
282
0
283
1
284
4
285
0
286
0
287
3
288
0
340
11
  0
ENDTAB
  0
ENDSEC
  0
SECTION
  2
BLOCKS
  0
BLOCK
  5
20
100
AcDbEntity
  8
0
100
AcDbBlockBegin
  2
*MODEL_SPACE
 70
0
 10
0.0
 20
0.0
 30
0.0
  3
*MODEL_SPACE
  1

  0
ENDBLK
  5
21
100
AcDbEntity
  8
0
100
AcDbBlockEnd
  0
BLOCK
  5
1C
100
AcDbEntity
  8
0
100
AcDbBlockBegin
  2
*PAPER_SPACE
 70
0
 10
0.0
 20
0.0
 30
0.0
  3
*PAPER_SPACE
  1

  0
ENDBLK
  5
1D
100
AcDbEntity
  8
0
100
AcDbBlockEnd
  0
ENDSEC
  0
SECTION
  2
ENTITIES
  0
LINE
  5
230
100
AcDbEntity
  8
0
100
AcDbLine
 62
7
  6
CONTINUOUS
 10
4.339011465
 20
3.8536628701
 11
4.339011465
 21
4.5966628701
  0
LINE
  5
231
100
AcDbEntity
  8
03__ASM_ALL_CURVES
100
AcDbLine
 62
40
  6
CONTINUOUS
 10
4.339011465
 20
4.5966628701
 11
4.339011465
 21
4.8177438701
  0
LINE
  5
232
100
AcDbEntity
  8
0
100
AcDbLine
 62
7
  6
CONTINUOUS
 10
4.3691896277
 20
3.8013927591
 11
4.339011465
 21
3.8536628701
  0
LINE
  5
233
100
AcDbEntity
  8
0
100
AcDbLine
 62
7
  6
CONTINUOUS
 10
4.3693223542
 20
3.8011628701
 11
4.3693223542
 21
3.8014693888
  0
LINE
  5
234
100
AcDbEntity
  8
0
100
AcDbLine
 62
7
  6
CONTINUOUS
 10
4.3693223542
 20
3.9993563514
 11
4.3693223542
 21
4.0272759074
  0
LINE
  5
235
100
AcDbEntity
  8
0
100
AcDbLine
 62
7
  6
CONTINUOUS
 10
4.3693223542
 20
4.4230498328
 11
4.3693223542
 21
4.4509693888
  0
LINE
  5
236
100
AcDbEntity
  8
0
100
AcDbLine
 62
7
  6
CONTINUOUS
 10
4.3693223542
 20
4.6488563514
 11
4.3693223542
 21
4.6491628701
  0
LINE
  5
237
100
AcDbEntity
  8
03__ASM_ALL_CURVES
100
AcDbLine
 62
40
  6
CONTINUOUS
 10
4.413066465
 20
4.8054013701
 11
4.413066465
 21
4.7807163701
  0
LINE
  5
238
100
AcDbEntity
  8
0
100
AcDbLine
 62
7
  6
CONTINUOUS
 10
4.3691896277
 20
4.6489329811
 11
4.339011465
 21
4.5966628701
  0
LINE
  5
239
100
AcDbEntity
  8
03__ASM_ALL_CURVES
100
AcDbLine
 62
40
  6
CONTINUOUS
 10
4.658448965
 20
4.8794563701
 11
4.658448965
 21
4.8177438701
  0
LINE
  5
23A
100
AcDbEntity
  8
03__ASM_ALL_CURVES
100
AcDbLine
 62
40
  6
CONTINUOUS
 10
4.76644584
 20
4.8691709522
 11
4.7703028713
 21
4.874313663
  0
LINE
  5
23B
100
AcDbEntity
  8
03__ASM_ALL_CURVES
100
AcDbLine
 62
40
  6
CONTINUOUS
 10
4.7780169338
 20
4.8434574111
 11
4.7703028713
 21
4.8331719951
  0
LINE
  5
23C
100
AcDbEntity
  8
03__ASM_ALL_CURVES
100
AcDbLine
 62
40
  6
CONTINUOUS
 10
4.79730209
 20
4.858885538
 11
4.7934450588
 21
4.8537428272
  0
LINE
  5
23D
100
AcDbEntity
  8
03__ASM_ALL_CURVES
100
AcDbLine
 62
40
  6
CONTINUOUS
 10
4.7163044338
 20
4.8177438701
 11
4.7163044338
 21
4.8228865786
  0
LINE
  5
23E
100
AcDbEntity
  8
03__ASM_ALL_CURVES
100
AcDbLine
 62
40
  6
CONTINUOUS
 10
4.8358724025
 20
4.8794563701
 11
4.8320153713
 21
4.8537428272
  0
LINE
  5
23F
100
AcDbEntity
  8
03__ASM_ALL_CURVES
100
AcDbLine
 62
40
  6
CONTINUOUS
 10
4.7703028713
 20
4.8331719951
 11
4.76644584
 21
4.8177438701
  0
LINE
  5
240
100
AcDbEntity
  8
03__ASM_ALL_CURVES
100
AcDbLine
 62
40
  6
CONTINUOUS
 10
4.8628716213
 20
4.838314704
 11
4.85901459
 21
4.8280292871
  0
LINE
  5
241
100
AcDbEntity
  8
03__ASM_ALL_CURVES
100
AcDbLine
 62
40
  6
CONTINUOUS
 10
4.85901459
 20
4.8280292871
 11
4.8551575588
 21
4.8228865786
  0
LINE
  5
242
100
AcDbEntity
  8
03__ASM_ALL_CURVES
100
AcDbLine
 62
40
  6
CONTINUOUS
 10
4.9091559963
 20
4.8794563701
 11
4.9014419338
 21
4.8691709522
  0
LINE
  5
243
100
AcDbEntity
  8
03__ASM_ALL_CURVES
100
AcDbLine
 62
40
  6
CONTINUOUS
 10
4.7703028713
 20
4.874313663
 11
4.7780169338
 21
4.8794563701
  0
LINE
  5
244
100
AcDbEntity
  8
03__ASM_ALL_CURVES
100
AcDbLine
 62
40
  6
CONTINUOUS
 10
4.79730209
 20
4.8691709522
 11
4.79730209
 21
4.858885538
  0
LINE
  5
245
100
AcDbEntity
  8
0
100
AcDbLine
 62
7
  6
CONTINUOUS
 10
4.8495762203
 20
3.8011628701
 11
4.8495762203
 21
3.8014693888
  0
LINE
  5
246
100
AcDbEntity
  8
0
100
AcDbLine
 62
7
  6
CONTINUOUS
 10
4.8495762203
 20
3.9993563514
 11
4.8495762203
 21
4.0272759074
  0
LINE
  5
247
100
AcDbEntity
  8
0
100
AcDbLine
 62
7
  6
CONTINUOUS
 10
4.8495762203
 20
4.4230498328
 11
4.8495762203
 21
4.4509693888
  0
LINE
  5
248
100
AcDbEntity
  8
0
100
AcDbLine
 62
7
  6
CONTINUOUS
 10
4.8495762203
 20
4.6488563514
 11
4.8495762203
 21
4.6491628701
  0
LINE
  5
249
100
AcDbEntity
  8
03__ASM_ALL_CURVES
100
AcDbLine
 62
40
  6
CONTINUOUS
 10
4.9014419338
 20
4.8691709522
 11
4.8975849025
 21
4.8537428272
  0
LINE
  5
24A
100
AcDbEntity
  8
03__ASM_ALL_CURVES
100
AcDbLine
 62
40
  6
CONTINUOUS
 10
4.98243959
 20
4.8640282451
 11
4.9785825588
 21
4.858885538
  0
LINE
  5
24B
100
AcDbEntity
  8
03__ASM_ALL_CURVES
100
AcDbLine
 62
40
  6
CONTINUOUS
 10
4.9862966213
 20
4.8331719951
 11
4.9785825588
 21
4.8228865786
  0
LINE
  5
24C
100
AcDbEntity
  8
03__ASM_ALL_CURVES
100
AcDbLine
 62
40
  6
CONTINUOUS
 10
4.7934450588
 20
4.8537428272
 11
4.7780169338
 21
4.8434574111
  0
LINE
  5
24D
100
AcDbEntity
  8
03__ASM_ALL_CURVES
100
AcDbLine
 62
40
  6
CONTINUOUS
 10
4.8320153713
 20
4.8537428272
 11
4.8397294338
 21
4.858885538
  0
LINE
  5
24E
100
AcDbEntity
  8
03__ASM_ALL_CURVES
100
AcDbLine
 62
40
  6
CONTINUOUS
 10
4.8551575588
 20
4.8228865786
 11
4.8474434963
 21
4.8177438701
  0
LINE
  5
24F
100
AcDbEntity
  8
03__ASM_ALL_CURVES
100
AcDbLine
 62
40
  6
CONTINUOUS
 10
4.9554403713
 20
4.874313663
 11
4.9631544338
 21
4.8794563701
  0
LINE
  5
250
100
AcDbEntity
  8
0
100
AcDbLine
 62
7
  6
CONTINUOUS
 10
4.892011465
 20
3.8746628701
 11
4.892011465
 21
4.5756628701
  0
LINE
  5
251
100
AcDbEntity
  8
03__ASM_ALL_CURVES
100
AcDbLine
 62
40
  6
CONTINUOUS
 10
4.8975849025
 20
4.8537428272
 11
4.8975849025
 21
4.8434574111
  0
LINE
  5
252
100
AcDbEntity
  8
03__ASM_ALL_CURVES
100
AcDbLine
 62
40
  6
CONTINUOUS
 10
4.9785825588
 20
4.858885538
 11
4.9708684963
 21
4.8537428272
  0
LINE
  5
253
100
AcDbEntity
  8
03__ASM_ALL_CURVES
100
AcDbLine
 62
40
  6
CONTINUOUS
 10
4.9785825588
 20
4.8228865786
 11
4.9708684963
 21
4.8177438701
  0
LINE
  5
254
100
AcDbEntity
  8
03__ASM_ALL_CURVES
100
AcDbLine
 62
40
  6
CONTINUOUS
 10
4.98243959
 20
4.8691709522
 11
4.98243959
 21
4.8640282451
  0
LINE
  5
255
100
AcDbEntity
  8
03__ASM_ALL_CURVES
100
AcDbLine
 62
40
  6
CONTINUOUS
 10
4.9862966213
 20
4.838314704
 11
4.9862966213
 21
4.8331719951
  0
LINE
  5
256
100
AcDbEntity
  8
03__ASM_ALL_CURVES
100
AcDbLine
 62
40
  6
CONTINUOUS
 10
5.028723965
 20
4.8794563701
 11
5.028723965
 21
4.8177438701
  0
LINE
  5
257
100
AcDbEntity
  8
03__ASM_ALL_CURVES
100
AcDbLine
 62
40
  6
CONTINUOUS
 10
5.1560059963
 20
4.8434574111
 11
5.1598630275
 21
4.858885538
  0
LINE
  5
258
100
AcDbEntity
  8
03__ASM_ALL_CURVES
100
AcDbLine
 62
40
  6
CONTINUOUS
 10
5.1598630275
 20
4.858885538
 11
5.16757709
 21
4.8794563701
  0
LINE
  5
259
100
AcDbEntity
  8
03__ASM_ALL_CURVES
100
AcDbLine
 62
40
  6
CONTINUOUS
 10
5.2331466213
 20
4.838314704
 11
5.22928959
 21
4.8280292871
  0
LINE
  5
25A
100
AcDbEntity
  8
03__ASM_ALL_CURVES
100
AcDbLine
 62
40
  6
CONTINUOUS
 10
5.22928959
 20
4.8280292871
 11
5.2254325588
 21
4.8228865786
  0
LINE
  5
25B
100
AcDbEntity
  8
03__ASM_ALL_CURVES
100
AcDbLine
 62
40
  6
CONTINUOUS
 10
5.2794309963
 20
4.8280292871
 11
5.2717169338
 21
4.8177438701
  0
LINE
  5
25C
100
AcDbEntity
  8
03__ASM_ALL_CURVES
100
AcDbLine
 62
40
  6
CONTINUOUS
 10
5.2022903713
 20
4.8537428272
 11
5.2100044338
 21
4.858885538
  0
LINE
  5
25D
100
AcDbEntity
  8
03__ASM_ALL_CURVES
100
AcDbLine
 62
40
  6
CONTINUOUS
 10
5.2254325588
 20
4.8228865786
 11
5.2177184963
 21
4.8177438701
  0
LINE
  5
25E
100
AcDbEntity
  8
03__ASM_ALL_CURVES
100
AcDbLine
 62
40
  6
CONTINUOUS
 10
5.2943879308
 20
3.6948784951
 11
5.2886023839
 21
3.6987355265
  0
LINE
  5
25F
100
AcDbEntity
  8
03__ASM_ALL_CURVES
100
AcDbLine
 62
40
  6
CONTINUOUS
 10
5.2538891027
 20
3.7411628701
 11
5.2596746496
 21
3.7373058398
  0
LINE
  5
260
100
AcDbEntity
  8
03__ASM_ALL_CURVES
100
AcDbLine
 62
40
  6
CONTINUOUS
 10
5.3001734777
 20
3.7411628701
 11
5.3059590246
 21
3.7373058398
  0
LINE
  5
261
100
AcDbEntity
  8
03__ASM_ALL_CURVES
100
AcDbLine
 62
40
  6
CONTINUOUS
 10
5.2596746496
 20
3.7373058398
 11
5.262567423
 21
3.7334488067
  0
LINE
  5
262
100
AcDbEntity
  8
03__ASM_ALL_CURVES
100
AcDbLine
 62
40
  6
CONTINUOUS
 10
5.2886023839
 20
3.6987355265
 11
5.2828168371
 21
3.7064495888
  0
LINE
  5
263
100
AcDbEntity
  8
03__ASM_ALL_CURVES
100
AcDbLine
 62
40
  6
CONTINUOUS
 10
5.3059590246
 20
3.7373058398
 11
5.3117445714
 21
3.7295917763
  0
LINE
  5
264
100
AcDbEntity
  8
03__ASM_ALL_CURVES
100
AcDbLine
 62
40
  6
CONTINUOUS
 10
4.8975849025
 20
4.8434574111
 11
4.9014419338
 21
4.8280292871
  0
LINE
  5
265
100
AcDbEntity
  8
0
100
AcDbLine
 62
7
  6
CONTINUOUS
 10
5.080011465
 20
3.8741634037
 11
5.080011465
 21
4.5761623364
  0
LINE
  5
266
100
AcDbEntity
  8
03__ASM_ALL_CURVES
100
AcDbLine
 62
40
  6
CONTINUOUS
 10
5.0865794338
 20
4.8177438701
 11
5.0865794338
 21
4.8228865786
  0
LINE
  5
267
100
AcDbEntity
  8
0
100
AcDbLine
 62
7
  6
CONTINUOUS
 10
5.130011465
 20
3.8741634037
 11
5.130011465
 21
4.5761623364
  0
LINE
  5
268
100
AcDbEntity
  8
03__ASM_ALL_CURVES
100
AcDbLine
 62
40
  6
CONTINUOUS
 10
5.152148965
 20
4.8177438701
 11
5.1560059963
 21
4.8434574111
  0
LINE
  5
269
100
AcDbEntity
  8
03__ASM_ALL_CURVES
100
AcDbLine
 62
40
  6
CONTINUOUS
 10
5.2061474025
 20
4.8794563701
 11
5.2022903713
 21
4.8537428272
  0
LINE
  5
26A
100
AcDbEntity
  8
03__ASM_ALL_CURVES
100
AcDbLine
 62
40
  6
CONTINUOUS
 10
5.2832880275
 20
4.8434574111
 11
5.2794309963
 21
4.8280292871
  0
LINE
  5
26B
100
AcDbEntity
  8
03__ASM_ALL_CURVES
100
AcDbLine
 62
40
  6
CONTINUOUS
 10
5.3464578527
 20
3.7411628701
 11
5.3522433996
 21
3.7373058398
  0
LINE
  5
26C
100
AcDbEntity
  8
03__ASM_ALL_CURVES
100
AcDbLine
 62
40
  6
CONTINUOUS
 10
5.4332410558
 20
3.6948784951
 11
5.4274555089
 21
3.6987355265
  0
LINE
  5
26D
100
AcDbEntity
  8
03__ASM_ALL_CURVES
100
AcDbLine
 62
40
  6
CONTINUOUS
 10
5.4390266027
 20
3.7218777129
 11
5.4448121496
 21
3.7180206826
  0
LINE
  5
26E
100
AcDbEntity
  8
03__ASM_ALL_CURVES
100
AcDbLine
 62
40
  6
CONTINUOUS
 10
5.4390266027
 20
3.7411628701
 11
5.4448121496
 21
3.7373058398
  0
LINE
  5
26F
100
AcDbEntity
  8
03__ASM_ALL_CURVES
100
AcDbLine
 62
40
  6
CONTINUOUS
 10
5.3522433996
 20
3.7373058398
 11
5.355136173
 21
3.7334488067
  0
LINE
  5
270
100
AcDbEntity
  8
03__ASM_ALL_CURVES
100
AcDbLine
 62
40
  6
CONTINUOUS
 10
5.4274555089
 20
3.6987355265
 11
5.4245627355
 21
3.7025925578
  0
LINE
  5
271
100
AcDbEntity
  8
03__ASM_ALL_CURVES
100
AcDbLine
 62
40
  6
CONTINUOUS
 10
5.4448121496
 20
3.7180206826
 11
5.4505976964
 21
3.7103066206
  0
LINE
  5
272
100
AcDbEntity
  8
0
100
AcDbLine
 62
7
  6
CONTINUOUS
 10
4.892011465
 20
4.5756628701
 11
4.8497089467
 21
4.6489329811
  0
LINE
  5
273
100
AcDbEntity
  8
03__ASM_ALL_CURVES
100
AcDbLine
 62
40
  6
CONTINUOUS
 10
4.85901459
 20
4.8486001201
 11
4.8628716213
 21
4.838314704
  0
LINE
  5
274
100
AcDbEntity
  8
03__ASM_ALL_CURVES
100
AcDbLine
 62
40
  6
CONTINUOUS
 10
5.3464578527
 20
3.7180206826
 11
5.355136173
 21
3.6948784951
  0
LINE
  5
275
100
AcDbEntity
  8
03__ASM_ALL_CURVES
100
AcDbLine
 62
40
  6
CONTINUOUS
 10
5.2828168371
 20
3.7064495888
 11
5.2799240636
 21
3.7180206826
  0
LINE
  5
276
100
AcDbEntity
  8
0
100
AcDbLine
 62
7
  6
CONTINUOUS
 10
5.200011465
 20
4.5571628701
 11
5.200011465
 21
3.8931628701
  0
LINE
  5
277
100
AcDbEntity
  8
0
100
AcDbLine
 62
7
  6
CONTINUOUS
 10
5.208011465
 20
3.9281628701
 11
5.208011465
 21
4.5221628701
  0
LINE
  5
278
100
AcDbEntity
  8
0
100
AcDbLine
 62
7
  6
CONTINUOUS
 10
5.221011465
 20
3.8746628701
 11
5.221011465
 21
4.5756628701
  0
LINE
  5
279
100
AcDbEntity
  8
03__ASM_ALL_CURVES
100
AcDbLine
 62
40
  6
CONTINUOUS
 10
5.2394252355
 20
3.6948784951
 11
5.2394252355
 21
3.7411628701
  0
LINE
  5
27A
100
AcDbEntity
  8
03__ASM_ALL_CURVES
100
AcDbLine
 62
40
  6
CONTINUOUS
 10
5.262567423
 20
3.7334488067
 11
5.262567423
 21
3.725734746
  0
LINE
  5
27B
100
AcDbEntity
  8
0
100
AcDbLine
 62
7
  6
CONTINUOUS
 10
5.277011465
 20
3.8746628701
 11
5.277011465
 21
4.5756628701
  0
LINE
  5
27C
100
AcDbEntity
  8
03__ASM_ALL_CURVES
100
AcDbLine
 62
40
  6
CONTINUOUS
 10
5.2832880275
 20
4.8537428272
 11
5.2832880275
 21
4.8434574111
  0
LINE
  5
27D
100
AcDbEntity
  8
0
100
AcDbLine
 62
7
  6
CONTINUOUS
 10
5.2893371279
 20
3.9206628701
 11
5.2893371279
 21
4.5296628701
  0
LINE
  5
27E
100
AcDbEntity
  8
0
100
AcDbLine
 62
7
  6
CONTINUOUS
 10
4.892011465
 20
3.8746628701
 11
4.8497089467
 21
3.8013927591
  0
LINE
  5
27F
100
AcDbEntity
  8
03__ASM_ALL_CURVES
100
AcDbLine
 62
40
  6
CONTINUOUS
 10
5.7593209964
 20
4.874313663
 11
5.7670350589
 21
4.8794563701
  0
LINE
  5
280
100
AcDbEntity
  8
03__ASM_ALL_CURVES
100
AcDbLine
 62
40
  6
CONTINUOUS
 10
6.4426198431
 20
3.6948784951
 11
6.4368342962
 21
3.6948784951
  0
LINE
  5
281
100
AcDbEntity
  8
03__ASM_ALL_CURVES
100
AcDbLine
 62
40
  6
CONTINUOUS
 10
5.4390266027
 20
3.6948784951
 11
5.4332410558
 21
3.6948784951
  0
LINE
  5
282
100
AcDbEntity
  8
03__ASM_ALL_CURVES
100
AcDbLine
 62
40
  6
CONTINUOUS
 10
5.3001734777
 20
3.6948784951
 11
5.2943879308
 21
3.6948784951
  0
LINE
  5
283
100
AcDbEntity
  8
03__ASM_ALL_CURVES
100
AcDbLine
 62
40
  6
CONTINUOUS
 10
6.5670091009
 20
3.6948784951
 11
6.5901512884
 21
3.6948784951
  0
LINE
  5
284
100
AcDbEntity
  8
03__ASM_ALL_CURVES
100
AcDbLine
 62
40
  6
CONTINUOUS
 10
6.4889042181
 20
3.7180206826
 11
6.4744403509
 21
3.7180206826
  0
LINE
  5
285
100
AcDbEntity
  8
03__ASM_ALL_CURVES
100
AcDbLine
 62
40
  6
CONTINUOUS
 10
6.3963354681
 20
3.7180206826
 11
6.3818716009
 21
3.7180206826
  0
LINE
  5
286
100
AcDbEntity
  8
03__ASM_ALL_CURVES
100
AcDbLine
 62
40
  6
CONTINUOUS
 10
5.3464578527
 20
3.7180206826
 11
5.3319939855
 21
3.7180206826
  0
LINE
  5
287
100
AcDbEntity
  8
03__ASM_ALL_CURVES
100
AcDbLine
 62
40
  6
CONTINUOUS
 10
5.2538891027
 20
3.7180206826
 11
5.2394252355
 21
3.7180206826
  0
LINE
  5
288
100
AcDbEntity
  8
03__ASM_ALL_CURVES
100
AcDbLine
 62
40
  6
CONTINUOUS
 10
5.4332410558
 20
3.7218777129
 11
5.4390266027
 21
3.7218777129
  0
LINE
  5
289
100
AcDbEntity
  8
03__ASM_ALL_CURVES
100
AcDbLine
 62
40
  6
CONTINUOUS
 10
5.2394252355
 20
3.7411628701
 11
5.2538891027
 21
3.7411628701
  0
LINE
  5
28A
100
AcDbEntity
  8
03__ASM_ALL_CURVES
100
AcDbLine
 62
40
  6
CONTINUOUS
 10
5.2943879308
 20
3.7411628701
 11
5.3001734777
 21
3.7411628701
  0
LINE
  5
28B
100
AcDbEntity
  8
03__ASM_ALL_CURVES
100
AcDbLine
 62
40
  6
CONTINUOUS
 10
5.3319939855
 20
3.7411628701
 11
5.3464578527
 21
3.7411628701
  0
LINE
  5
28C
100
AcDbEntity
  8
03__ASM_ALL_CURVES
100
AcDbLine
 62
40
  6
CONTINUOUS
 10
5.3753855871
 20
3.7411628701
 11
5.4043133214
 21
3.7411628701
  0
LINE
  5
28D
100
AcDbEntity
  8
03__ASM_ALL_CURVES
100
AcDbLine
 62
40
  6
CONTINUOUS
 10
5.4332410558
 20
3.7411628701
 11
5.4390266027
 21
3.7411628701
  0
LINE
  5
28E
100
AcDbEntity
  8
03__ASM_ALL_CURVES
100
AcDbLine
 62
40
  6
CONTINUOUS
 10
6.3818716009
 20
3.7411628701
 11
6.3963354681
 21
3.7411628701
  0
LINE
  5
28F
100
AcDbEntity
  8
03__ASM_ALL_CURVES
100
AcDbLine
 62
40
  6
CONTINUOUS
 10
6.4368342962
 20
3.7411628701
 11
6.4426198431
 21
3.7411628701
  0
LINE
  5
290
100
AcDbEntity
  8
03__ASM_ALL_CURVES
100
AcDbLine
 62
40
  6
CONTINUOUS
 10
6.4744403509
 20
3.7411628701
 11
6.4889042181
 21
3.7411628701
  0
LINE
  5
291
100
AcDbEntity
  8
03__ASM_ALL_CURVES
100
AcDbLine
 62
40
  6
CONTINUOUS
 10
6.5178319525
 20
3.7411628701
 11
6.5467596868
 21
3.7411628701
  0
LINE
  5
292
100
AcDbEntity
  8
03__ASM_ALL_CURVES
100
AcDbLine
 62
40
  6
CONTINUOUS
 10
6.5756874212
 20
3.7411628701
 11
6.5814729681
 21
3.7411628701
  0
LINE
  5
293
100
AcDbEntity
  8
03__ASM_ALL_CURVES
100
AcDbLine
 62
40
  6
CONTINUOUS
 10
5.4448121496
 20
3.7373058398
 11
5.447704923
 21
3.7334488067
  0
LINE
  5
294
100
AcDbEntity
  8
03__ASM_ALL_CURVES
100
AcDbLine
 62
40
  6
CONTINUOUS
 10
4.7163044338
 20
4.8228865786
 11
4.720161465
 21
4.8177438701
  0
LINE
  5
295
100
AcDbEntity
  8
03__ASM_ALL_CURVES
100
AcDbLine
 62
40
  6
CONTINUOUS
 10
5.3117445714
 20
3.7295917763
 11
5.3146373449
 21
3.7180206826
  0
LINE
  5
296
100
AcDbEntity
  8
03__ASM_ALL_CURVES
100
AcDbLine
 62
40
  6
CONTINUOUS
 10
5.3319939855
 20
3.6948784951
 11
5.3319939855
 21
3.7411628701
  0
LINE
  5
297
100
AcDbEntity
  8
03__ASM_ALL_CURVES
100
AcDbLine
 62
40
  6
CONTINUOUS
 10
5.355136173
 20
3.7334488067
 11
5.355136173
 21
3.725734746
  0
LINE
  5
298
100
AcDbEntity
  8
03__ASM_ALL_CURVES
100
AcDbLine
 62
40
  6
CONTINUOUS
 10
5.3898494543
 20
3.7411628701
 11
5.3898494543
 21
3.6948784951
  0
LINE
  5
299
100
AcDbEntity
  8
03__ASM_ALL_CURVES
100
AcDbLine
 62
40
  6
CONTINUOUS
 10
5.8210334964
 20
4.874313663
 11
5.8287475589
 21
4.8794563701
  0
LINE
  5
29A
100
AcDbEntity
  8
03__ASM_ALL_CURVES
100
AcDbLine
 62
40
  6
CONTINUOUS
 10
5.7824631839
 20
4.8228865786
 11
5.7747491214
 21
4.8177438701
  0
LINE
  5
29B
100
AcDbEntity
  8
03__ASM_ALL_CURVES
100
AcDbLine
 62
40
  6
CONTINUOUS
 10
5.8441756839
 20
4.8228865786
 11
5.8364616214
 21
4.8177438701
  0
LINE
  5
29C
100
AcDbEntity
  8
0
100
AcDbLine
 62
7
  6
CONTINUOUS
 10
4.8495762203
 20
3.8011628701
 11
4.3693223542
 21
3.8011628701
  0
LINE
  5
29D
100
AcDbEntity
  8
0
100
AcDbLine
 62
7
  6
CONTINUOUS
 10
4.8495762203
 20
3.8014693888
 11
4.3693223542
 21
3.8014693888
  0
LINE
  5
29E
100
AcDbEntity
  8
0
100
AcDbLine
 62
7
  6
CONTINUOUS
 10
5.080011465
 20
3.8741628701
 11
5.130011465
 21
3.8741628701
  0
LINE
  5
29F
100
AcDbEntity
  8
0
100
AcDbLine
 62
7
  6
CONTINUOUS
 10
5.595011465
 20
3.8746628701
 11
5.538011465
 21
3.8746628701
  0
LINE
  5
2A0
100
AcDbEntity
  8
0
100
AcDbLine
 62
7
  6
CONTINUOUS
 10
5.277011465
 20
3.8746628701
 11
5.221011465
 21
3.8746628701
  0
LINE
  5
2A1
100
AcDbEntity
  8
0
100
AcDbLine
 62
7
  6
CONTINUOUS
 10
5.080011465
 20
3.8746628701
 11
4.892011465
 21
3.8746628701
  0
LINE
  5
2A2
100
AcDbEntity
  8
03__ASM_ALL_CURVES
100
AcDbLine
 62
40
  6
CONTINUOUS
 10
4.7934450588
 20
4.874313663
 11
4.79730209
 21
4.8691709522
  0
LINE
  5
2A3
100
AcDbEntity
  8
03__ASM_ALL_CURVES
100
AcDbLine
 62
40
  6
CONTINUOUS
 10
4.8320153713
 20
4.8228865786
 11
4.82815834
 21
4.8280292871
  0
LINE
  5
2A4
100
AcDbEntity
  8
03__ASM_ALL_CURVES
100
AcDbLine
 62
40
  6
CONTINUOUS
 10
4.8551575588
 20
4.8537428272
 11
4.85901459
 21
4.8486001201
  0
LINE
  5
2A5
100
AcDbEntity
  8
0
100
AcDbLine
 62
7
  6
CONTINUOUS
 10
5.2893371279
 20
4.5296628701
 11
5.277011465
 21
4.5756628701
  0
LINE
  5
2A6
100
AcDbEntity
  8
03__ASM_ALL_CURVES
100
AcDbLine
 62
40
  6
CONTINUOUS
 10
5.447704923
 20
3.7334488067
 11
5.447704923
 21
3.7295917763
  0
LINE
  5
2A7
100
AcDbEntity
  8
03__ASM_ALL_CURVES
100
AcDbLine
 62
40
  6
CONTINUOUS
 10
5.4505976964
 20
3.7103066206
 11
5.4505976964
 21
3.7064495888
  0
LINE
  5
2A8
100
AcDbEntity
  8
03__ASM_ALL_CURVES
100
AcDbLine
 62
40
  6
CONTINUOUS
 10
5.2799240636
 20
3.7180206826
 11
5.2828168371
 21
3.7295917763
  0
LINE
  5
2A9
100
AcDbEntity
  8
03__ASM_ALL_CURVES
100
AcDbLine
 62
40
  6
CONTINUOUS
 10
5.3146373449
 20
3.7180206826
 11
5.3117445714
 21
3.7064495888
  0
LINE
  5
2AA
100
AcDbEntity
  8
0
100
AcDbLine
 62
7
  6
CONTINUOUS
 10
5.2893371279
 20
3.9206628701
 11
5.277011465
 21
3.8746628701
  0
LINE
  5
2AB
100
AcDbEntity
  8
0
100
AcDbLine
 62
7
  6
CONTINUOUS
 10
5.538011465
 20
4.5756628701
 11
5.5256858022
 21
4.5296628701
  0
LINE
  5
2AC
100
AcDbEntity
  8
03__ASM_ALL_CURVES
100
AcDbLine
 62
40
  6
CONTINUOUS
 10
5.7516069339
 20
4.8640282451
 11
5.7593209964
 21
4.874313663
  0
LINE
  5
2AD
100
AcDbEntity
  8
03__ASM_ALL_CURVES
100
AcDbLine
 62
40
  6
CONTINUOUS
 10
5.7901772464
 20
4.8331719951
 11
5.7824631839
 21
4.8228865786
  0
LINE
  5
2AE
100
AcDbEntity
  8
03__ASM_ALL_CURVES
100
AcDbLine
 62
40
  6
CONTINUOUS
 10
5.8133194339
 20
4.8640282451
 11
5.8210334964
 21
4.874313663
  0
LINE
  5
2AF
100
AcDbEntity
  8
03__ASM_ALL_CURVES
100
AcDbLine
 62
40
  6
CONTINUOUS
 10
6.1295959964
 20
4.874313663
 11
6.1373100589
 21
4.8794563701
  0
LINE
  5
2B0
100
AcDbEntity
  8
THREAD
100
AcDbLine
 62
7
  6
CONTINUOUS
 10
5.627011465
 20
3.8981628701
 11
5.6105999223
 21
3.8981628701
  0
LINE
  5
2B1
100
AcDbEntity
  8
0
100
AcDbLine
 62
7
  6
CONTINUOUS
 10
5.697011465
 20
3.8996628701
 11
5.747011465
 21
3.8996628701
  0
LINE
  5
2B2
100
AcDbEntity
  8
THREAD
100
AcDbLine
 62
7
  6
CONTINUOUS
 10
6.019011465
 20
3.9161628701
 11
5.7886621001
 21
3.9161628701
  0
LINE
  5
2B3
100
AcDbEntity
  8
0
100
AcDbLine
 62
7
  6
CONTINUOUS
 10
5.5256858022
 20
3.9206628701
 11
5.2893371279
 21
3.9206628701
  0
LINE
  5
2B4
100
AcDbEntity
  8
0
100
AcDbLine
 62
7
  6
CONTINUOUS
 10
5.208011465
 20
3.9281628701
 11
5.200011465
 21
3.9281628701
  0
LINE
  5
2B5
100
AcDbEntity
  8
THREAD
100
AcDbLine
 62
7
  6
CONTINUOUS
 10
6.160011465
 20
3.9511628701
 11
6.054011465
 21
3.9511628701
  0
LINE
  5
2B6
100
AcDbEntity
  8
THREAD
100
AcDbLine
 62
7
  6
CONTINUOUS
 10
5.7595059115
 20
3.9536628701
 11
5.747011465
 21
3.9536628701
  0
LINE
  5
2B7
100
AcDbEntity
  8
0
100
AcDbLine
 62
7
  6
CONTINUOUS
 10
6.610511465
 20
3.9671628701
 11
6.648511465
 21
3.9671628701
  0
LINE
  5
2B8
100
AcDbEntity
  8
0
100
AcDbLine
 62
7
  6
CONTINUOUS
 10
6.698511465
 20
3.9671628701
 11
6.736511465
 21
3.9671628701
  0
LINE
  5
2B9
100
AcDbEntity
  8
0
100
AcDbLine
 62
7
  6
CONTINUOUS
 10
6.571511465
 20
3.9681628701
 11
6.610511465
 21
3.9681628701
  0
LINE
  5
2BA
100
AcDbEntity
  8
0
100
AcDbLine
 62
7
  6
CONTINUOUS
 10
6.758511465
 20
3.9681628701
 11
6.807511465
 21
3.9681628701
  0
LINE
  5
2BB
100
AcDbEntity
  8
0
100
AcDbLine
 62
7
  6
CONTINUOUS
 10
6.198511465
 20
3.9766628701
 11
6.168011465
 21
3.9766628701
  0
LINE
  5
2BC
100
AcDbEntity
  8
03__ASM_ALL_CURVES
100
AcDbLine
 62
40
  6
CONTINUOUS
 10
4.9014419338
 20
4.8280292871
 11
4.9091559963
 21
4.8177438701
  0
LINE
  5
2BD
100
AcDbEntity
  8
03__ASM_ALL_CURVES
100
AcDbLine
 62
40
  6
CONTINUOUS
 10
4.9554403713
 20
4.8228865786
 11
4.95158334
 21
4.8280292871
  0
LINE
  5
2BE
100
AcDbEntity
  8
03__ASM_ALL_CURVES
100
AcDbLine
 62
40
  6
CONTINUOUS
 10
4.9785825588
 20
4.8486001201
 11
4.9862966213
 21
4.838314704
  0
LINE
  5
2BF
100
AcDbEntity
  8
03__ASM_ALL_CURVES
100
AcDbLine
 62
40
  6
CONTINUOUS
 10
4.9785825588
 20
4.874313663
 11
4.98243959
 21
4.8691709522
  0
LINE
  5
2C0
100
AcDbEntity
  8
03__ASM_ALL_CURVES
100
AcDbLine
 62
40
  6
CONTINUOUS
 10
5.22928959
 20
4.8486001201
 11
5.2331466213
 21
4.838314704
  0
LINE
  5
2C1
100
AcDbEntity
  8
0
100
AcDbLine
 62
7
  6
CONTINUOUS
 10
5.538011465
 20
3.8746628701
 11
5.5256858022
 21
3.9206628701
  0
LINE
  5
2C2
100
AcDbEntity
  8
03__ASM_ALL_CURVES
100
AcDbLine
 62
40
  6
CONTINUOUS
 10
5.2794309963
 20
4.8691709522
 11
5.2832880275
 21
4.8537428272
  0
LINE
  5
2C3
100
AcDbEntity
  8
03__ASM_ALL_CURVES
100
AcDbLine
 62
40
  6
CONTINUOUS
 10
5.520956465
 20
4.8054013701
 11
5.520956465
 21
4.7807163701
  0
LINE
  5
2C4
100
AcDbEntity
  8
124-300_FEATURES
100
AcDbLine
 62
7
  6
CONTINUOUS
 10
5.5256858022
 20
3.9206628701
 11
5.5256858022
 21
4.2126635288
  0
LINE
  5
2C5
100
AcDbEntity
  8
124-300_FEATURES
100
AcDbLine
 62
7
  6
CONTINUOUS
 10
5.5256858022
 20
4.2376622114
 11
5.5256858022
 21
4.5296628701
  0
LINE
  5
2C6
100
AcDbEntity
  8
0
100
AcDbLine
 62
7
  6
CONTINUOUS
 10
5.538011465
 20
3.8746628701
 11
5.538011465
 21
4.5756628701
  0
LINE
  5
2C7
100
AcDbEntity
  8
0
100
AcDbLine
 62
7
  6
CONTINUOUS
 10
5.595011465
 20
3.8746628701
 11
5.595011465
 21
4.5756628701
  0
LINE
  5
2C8
100
AcDbEntity
  8
03__ASM_ALL_CURVES
100
AcDbLine
 62
40
  6
CONTINUOUS
 10
5.595011465
 20
4.5880053701
 11
5.595011465
 21
4.8177438701
  0
LINE
  5
2C9
100
AcDbEntity
  8
03__ASM_ALL_CURVES
100
AcDbLine
 62
40
  6
CONTINUOUS
 10
5.8480327151
 20
4.8280292871
 11
5.8441756839
 21
4.8228865786
  0
LINE
  5
2CA
100
AcDbEntity
  8
03__ASM_ALL_CURVES
100
AcDbLine
 62
40
  6
CONTINUOUS
 10
6.1527381839
 20
4.8228865786
 11
6.1450241214
 21
4.8177438701
  0
LINE
  5
2CB
100
AcDbEntity
  8
03__ASM_ALL_CURVES
100
AcDbLine
 62
40
  6
CONTINUOUS
 10
6.2607350589
 20
4.8794563701
 11
6.2530209964
 21
4.874313663
  0
LINE
  5
2CC
100
AcDbEntity
  8
0
100
AcDbLine
 62
7
  6
CONTINUOUS
 10
6.456511465
 20
3.9916628701
 11
6.213511465
 21
3.9916628701
  0
LINE
  5
2CD
100
AcDbEntity
  8
0
100
AcDbLine
 62
7
  6
CONTINUOUS
 10
6.5480114651
 20
3.9916628701
 11
6.5484222788
 21
3.9916628701
  0
LINE
  5
2CE
100
AcDbEntity
  8
0
100
AcDbLine
 62
7
  6
CONTINUOUS
 10
4.8495762203
 20
3.9993563514
 11
4.3693223542
 21
3.9993563514
  0
LINE
  5
2CF
100
AcDbEntity
  8
0
100
AcDbLine
 62
7
  6
CONTINUOUS
 10
6.758511465
 20
4.0091628701
 11
6.736511465
 21
4.0091628701
  0
LINE
  5
2D0
100
AcDbEntity
  8
0
100
AcDbLine
 62
7
  6
CONTINUOUS
 10
4.8495762203
 20
4.0272759074
 11
4.3693223542
 21
4.0272759074
  0
LINE
  5
2D1
100
AcDbEntity
  8
03__ASM_ALL_CURVES
100
AcDbLine
 62
40
  6
CONTINUOUS
 10
5.0865794338
 20
4.8228865786
 11
5.090436465
 21
4.8177438701
  0
LINE
  5
2D2
100
AcDbEntity
  8
THREAD
100
AcDbLine
 62
7
  6
CONTINUOUS
 10
5.7886621001
 20
3.9161628701
 11
5.7707642418
 21
3.9471628701
  0
LINE
  5
2D3
100
AcDbEntity
  8
THREAD
100
AcDbLine
 62
7
  6
CONTINUOUS
 10
5.6105999223
 20
3.8981628701
 11
5.6105999223
 21
4.5521628701
  0
LINE
  5
2D4
100
AcDbEntity
  8
THREAD
100
AcDbLine
 62
7
  6
CONTINUOUS
 10
5.627011465
 20
3.8981628701
 11
5.627011465
 21
4.5521628701
  0
LINE
  5
2D5
100
AcDbEntity
  8
03__ASM_ALL_CURVES
100
AcDbLine
 62
40
  6
CONTINUOUS
 10
5.669066465
 20
4.8054013701
 11
5.669066465
 21
4.7807163701
  0
LINE
  5
2D6
100
AcDbEntity
  8
03__ASM_ALL_CURVES
100
AcDbLine
 62
40
  6
CONTINUOUS
 10
5.6937514651
 20
4.8794563701
 11
5.6937514651
 21
4.8177438701
  0
LINE
  5
2D7
100
AcDbEntity
  8
0
100
AcDbLine
 62
7
  6
CONTINUOUS
 10
5.697011465
 20
3.899663365
 11
5.697011465
 21
4.5506623752
  0
LINE
  5
2D8
100
AcDbEntity
  8
03__ASM_ALL_CURVES
100
AcDbLine
 62
40
  6
CONTINUOUS
 10
5.7477499026
 20
4.8486001201
 11
5.7516069339
 21
4.8640282451
  0
LINE
  5
2D9
100
AcDbEntity
  8
03__ASM_ALL_CURVES
100
AcDbLine
 62
40
  6
CONTINUOUS
 10
5.7940342776
 20
4.8486001201
 11
5.7901772464
 21
4.8331719951
  0
LINE
  5
2DA
100
AcDbEntity
  8
03__ASM_ALL_CURVES
100
AcDbLine
 62
40
  6
CONTINUOUS
 10
5.8094624026
 20
4.8486001201
 11
5.8133194339
 21
4.8640282451
  0
LINE
  5
2DB
100
AcDbEntity
  8
THREAD
100
AcDbLine
 62
7
  6
CONTINUOUS
 10
5.7886621001
 20
4.5341628701
 11
5.7707642418
 21
4.5031628701
  0
LINE
  5
2DC
100
AcDbEntity
  8
03__ASM_ALL_CURVES
100
AcDbLine
 62
40
  6
CONTINUOUS
 10
5.262567423
 20
3.725734746
 11
5.2596746496
 21
3.7218777129
  0
LINE
  5
2DD
100
AcDbEntity
  8
03__ASM_ALL_CURVES
100
AcDbLine
 62
40
  6
CONTINUOUS
 10
6.2761631839
 20
4.8228865786
 11
6.2684491214
 21
4.8177438701
  0
LINE
  5
2DE
100
AcDbEntity
  8
03__ASM_ALL_CURVES
100
AcDbLine
 62
40
  6
CONTINUOUS
 10
6.3764459964
 20
4.874313663
 11
6.3841600589
 21
4.8794563701
  0
LINE
  5
2DF
100
AcDbEntity
  8
03__ASM_ALL_CURVES
100
AcDbLine
 62
40
  6
CONTINUOUS
 10
6.3995881839
 20
4.8228865786
 11
6.3918741214
 21
4.8177438701
  0
LINE
  5
2E0
100
AcDbEntity
  8
03__ASM_ALL_CURVES
100
AcDbLine
 62
40
  6
CONTINUOUS
 10
6.4368342962
 20
3.6948784951
 11
6.4310487493
 21
3.6987355265
  0
LINE
  5
2E1
100
AcDbEntity
  8
03__ASM_ALL_CURVES
100
AcDbLine
 62
40
  6
CONTINUOUS
 10
6.3963354681
 20
3.7411628701
 11
6.402121015
 21
3.7373058398
  0
LINE
  5
2E2
100
AcDbEntity
  8
03__ASM_ALL_CURVES
100
AcDbLine
 62
40
  6
CONTINUOUS
 10
6.4426198431
 20
3.7411628701
 11
6.44840539
 21
3.7373058398
  0
LINE
  5
2E3
100
AcDbEntity
  8
03__ASM_ALL_CURVES
100
AcDbLine
 62
40
  6
CONTINUOUS
 10
4.8397294338
 20
4.8177438701
 11
4.8320153713
 21
4.8228865786
  0
LINE
  5
2E4
100
AcDbEntity
  8
03__ASM_ALL_CURVES
100
AcDbLine
 62
40
  6
CONTINUOUS
 10
5.2022903713
 20
4.8228865786
 11
5.19843334
 21
4.8280292871
  0
LINE
  5
2E5
100
AcDbEntity
  8
03__ASM_ALL_CURVES
100
AcDbLine
 62
40
  6
CONTINUOUS
 10
5.2254325588
 20
4.8537428272
 11
5.22928959
 21
4.8486001201
  0
LINE
  5
2E6
100
AcDbEntity
  8
0
100
AcDbLine
 62
7
  6
CONTINUOUS
 10
5.747011465
 20
3.899663365
 11
5.747011465
 21
4.5506623752
  0
LINE
  5
2E7
100
AcDbEntity
  8
0
100
AcDbLine
 62
7
  6
CONTINUOUS
 10
5.7595059115
 20
3.9536628701
 11
5.7595059115
 21
4.4966628701
  0
LINE
  5
2E8
100
AcDbEntity
  8
0
100
AcDbLine
 62
7
  6
CONTINUOUS
 10
5.7707642418
 20
3.9471628701
 11
5.7707642418
 21
4.5031628701
  0
LINE
  5
2E9
100
AcDbEntity
  8
THREAD
100
AcDbLine
 62
7
  6
CONTINUOUS
 10
5.7886621001
 20
3.9161628701
 11
5.7886621001
 21
4.5341628701
  0
LINE
  5
2EA
100
AcDbEntity
  8
03__ASM_ALL_CURVES
100
AcDbLine
 62
40
  6
CONTINUOUS
 10
5.8750319339
 20
4.8177438701
 11
5.8943170901
 21
4.8794563701
  0
LINE
  5
2EB
100
AcDbEntity
  8
03__ASM_ALL_CURVES
100
AcDbLine
 62
40
  6
CONTINUOUS
 10
6.1218819339
 20
4.8640282451
 11
6.1295959964
 21
4.874313663
  0
LINE
  5
2EC
100
AcDbEntity
  8
03__ASM_ALL_CURVES
100
AcDbLine
 62
40
  6
CONTINUOUS
 10
5.2828168371
 20
3.7295917763
 11
5.2886023839
 21
3.7373058398
  0
LINE
  5
2ED
100
AcDbEntity
  8
03__ASM_ALL_CURVES
100
AcDbLine
 62
40
  6
CONTINUOUS
 10
5.3117445714
 20
3.7064495888
 11
5.3059590246
 21
3.6987355265
  0
LINE
  5
2EE
100
AcDbEntity
  8
03__ASM_ALL_CURVES
100
AcDbLine
 62
40
  6
CONTINUOUS
 10
6.1565952151
 20
4.8280292871
 11
6.1527381839
 21
4.8228865786
  0
LINE
  5
2EF
100
AcDbEntity
  8
03__ASM_ALL_CURVES
100
AcDbLine
 62
40
  6
CONTINUOUS
 10
5.355136173
 20
3.725734746
 11
5.3522433996
 21
3.7218777129
  0
LINE
  5
2F0
100
AcDbEntity
  8
03__ASM_ALL_CURVES
100
AcDbLine
 62
40
  6
CONTINUOUS
 10
6.2530209964
 20
4.874313663
 11
6.2491639651
 21
4.8691709522
  0
LINE
  5
2F1
100
AcDbEntity
  8
03__ASM_ALL_CURVES
100
AcDbLine
 62
40
  6
CONTINUOUS
 10
6.4613006839
 20
4.8228865786
 11
6.4535866214
 21
4.8177438701
  0
LINE
  5
2F2
100
AcDbEntity
  8
03__ASM_ALL_CURVES
100
AcDbLine
 62
40
  6
CONTINUOUS
 10
6.5808686526
 20
4.8228865786
 11
6.5731545901
 21
4.8177438701
  0
LINE
  5
2F3
100
AcDbEntity
  8
124-300_FEATURES
100
AcDbLine
 62
7
  6
CONTINUOUS
 10
5.5256858022
 20
4.2376622114
 11
5.5257331104
 21
4.2376628693
  0
LINE
  5
2F4
100
AcDbEntity
  8
03__ASM_ALL_CURVES
100
AcDbLine
 62
40
  6
CONTINUOUS
 10
7.1277597075
 20
4.2375053701
 11
7.1219741606
 21
4.2375053701
  0
LINE
  5
2F5
100
AcDbEntity
  8
03__ASM_ALL_CURVES
100
AcDbLine
 62
40
  6
CONTINUOUS
 10
7.1740440825
 20
4.2606475576
 11
7.1595802153
 21
4.2606475576
  0
LINE
  5
2F6
100
AcDbEntity
  8
03__ASM_ALL_CURVES
100
AcDbLine
 62
40
  6
CONTINUOUS
 10
7.0814753325
 20
4.2606475576
 11
7.0670114653
 21
4.2606475576
  0
LINE
  5
2F7
100
AcDbEntity
  8
03__ASM_ALL_CURVES
100
AcDbLine
 62
40
  6
CONTINUOUS
 10
7.0670114653
 20
4.2837897451
 11
7.0814753325
 21
4.2837897451
  0
LINE
  5
2F8
100
AcDbEntity
  8
03__ASM_ALL_CURVES
100
AcDbLine
 62
40
  6
CONTINUOUS
 10
7.1219741606
 20
4.2837897451
 11
7.1277597075
 21
4.2837897451
  0
LINE
  5
2F9
100
AcDbEntity
  8
03__ASM_ALL_CURVES
100
AcDbLine
 62
40
  6
CONTINUOUS
 10
7.1595802153
 20
4.2837897451
 11
7.1740440825
 21
4.2837897451
  0
LINE
  5
2FA
100
AcDbEntity
  8
03__ASM_ALL_CURVES
100
AcDbLine
 62
40
  6
CONTINUOUS
 10
7.2029718169
 20
4.2837897451
 11
7.2318995513
 21
4.2837897451
  0
LINE
  5
2FB
100
AcDbEntity
  8
124-300_FEATURES
100
AcDbLine
 62
7
  6
CONTINUOUS
 10
5.5257308466
 20
4.2126628702
 11
5.5256858022
 21
4.2126635288
  0
LINE
  5
2FC
100
AcDbEntity
  8
03__ASM_ALL_CURVES
100
AcDbLine
 62
40
  6
CONTINUOUS
 10
6.4889042181
 20
3.7411628701
 11
6.494689765
 21
3.7373058398
  0
LINE
  5
2FD
100
AcDbEntity
  8
03__ASM_ALL_CURVES
100
AcDbLine
 62
40
  6
CONTINUOUS
 10
4.7857309963
 20
4.8794563701
 11
4.7934450588
 21
4.874313663
  0
LINE
  5
2FE
100
AcDbEntity
  8
03__ASM_ALL_CURVES
100
AcDbLine
 62
40
  6
CONTINUOUS
 10
4.8474434963
 20
4.858885538
 11
4.8551575588
 21
4.8537428272
  0
LINE
  5
2FF
100
AcDbEntity
  8
03__ASM_ALL_CURVES
100
AcDbLine
 62
40
  6
CONTINUOUS
 10
4.9631544338
 20
4.8177438701
 11
4.9554403713
 21
4.8228865786
  0
LINE
  5
300
100
AcDbEntity
  8
03__ASM_ALL_CURVES
100
AcDbLine
 62
40
  6
CONTINUOUS
 10
6.5814729681
 20
3.7411628701
 11
6.587258515
 21
3.7373058398
  0
LINE
  5
301
100
AcDbEntity
  8
03__ASM_ALL_CURVES
100
AcDbLine
 62
40
  6
CONTINUOUS
 10
4.9708684963
 20
4.8537428272
 11
4.9785825588
 21
4.8486001201
  0
LINE
  5
302
100
AcDbEntity
  8
03__ASM_ALL_CURVES
100
AcDbLine
 62
40
  6
CONTINUOUS
 10
5.2717169338
 20
4.8794563701
 11
5.2794309963
 21
4.8691709522
  0
LINE
  5
303
100
AcDbEntity
  8
03__ASM_ALL_CURVES
100
AcDbLine
 62
40
  6
CONTINUOUS
 10
5.447704923
 20
3.7295917763
 11
5.4448121496
 21
3.725734746
  0
LINE
  5
304
100
AcDbEntity
  8
03__ASM_ALL_CURVES
100
AcDbLine
 62
40
  6
CONTINUOUS
 10
6.2800202151
 20
4.8280292871
 11
6.2761631839
 21
4.8228865786
  0
LINE
  5
305
100
AcDbEntity
  8
03__ASM_ALL_CURVES
100
AcDbLine
 62
40
  6
CONTINUOUS
 10
5.4505976964
 20
3.7064495888
 11
5.4448121496
 21
3.6987355265
  0
LINE
  5
306
100
AcDbEntity
  8
03__ASM_ALL_CURVES
100
AcDbLine
 62
40
  6
CONTINUOUS
 10
6.3687319339
 20
4.8640282451
 11
6.3764459964
 21
4.874313663
  0
LINE
  5
307
100
AcDbEntity
  8
03__ASM_ALL_CURVES
100
AcDbLine
 62
40
  6
CONTINUOUS
 10
6.7081506839
 20
4.8537428272
 11
6.7004366214
 21
4.8486001201
  0
LINE
  5
308
100
AcDbEntity
  8
03__ASM_ALL_CURVES
100
AcDbLine
 62
40
  6
CONTINUOUS
 10
4.9708684963
 20
4.8794563701
 11
4.9785825588
 21
4.874313663
  0
LINE
  5
309
100
AcDbEntity
  8
03__ASM_ALL_CURVES
100
AcDbLine
 62
40
  6
CONTINUOUS
 10
5.2100044338
 20
4.8177438701
 11
5.2022903713
 21
4.8228865786
  0
LINE
  5
30A
100
AcDbEntity
  8
03__ASM_ALL_CURVES
100
AcDbLine
 62
40
  6
CONTINUOUS
 10
5.7516069339
 20
4.8331719951
 11
5.7477499026
 21
4.8486001201
  0
LINE
  5
30B
100
AcDbEntity
  8
03__ASM_ALL_CURVES
100
AcDbLine
 62
40
  6
CONTINUOUS
 10
5.9560295901
 20
4.8794563701
 11
5.9560295901
 21
4.8177438701
  0
LINE
  5
30C
100
AcDbEntity
  8
03__ASM_ALL_CURVES
100
AcDbLine
 62
40
  6
CONTINUOUS
 10
6.0177420901
 20
4.8794563701
 11
6.0177420901
 21
4.8177438701
  0
LINE
  5
30D
100
AcDbEntity
  8
THREAD
100
AcDbLine
 62
7
  6
CONTINUOUS
 10
6.019011465
 20
3.9161628701
 11
6.019011465
 21
4.5341628701
  0
LINE
  5
30E
100
AcDbEntity
  8
03__ASM_ALL_CURVES
100
AcDbLine
 62
40
  6
CONTINUOUS
 10
6.1180249026
 20
4.8486001201
 11
6.1218819339
 21
4.8640282451
  0
LINE
  5
30F
100
AcDbEntity
  8
03__ASM_ALL_CURVES
100
AcDbLine
 62
40
  6
CONTINUOUS
 10
6.4073022464
 20
4.8331719951
 11
6.3995881839
 21
4.8228865786
  0
LINE
  5
310
100
AcDbEntity
  8
03__ASM_ALL_CURVES
100
AcDbLine
 62
40
  6
CONTINUOUS
 10
6.4651577151
 20
4.8280292871
 11
6.4613006839
 21
4.8228865786
  0
LINE
  5
311
100
AcDbEntity
  8
03__ASM_ALL_CURVES
100
AcDbLine
 62
40
  6
CONTINUOUS
 10
5.2596746496
 20
3.7218777129
 11
5.2538891027
 21
3.7180206826
  0
LINE
  5
312
100
AcDbEntity
  8
03__ASM_ALL_CURVES
100
AcDbLine
 62
40
  6
CONTINUOUS
 10
5.2886023839
 20
3.7373058398
 11
5.2943879308
 21
3.7411628701
  0
LINE
  5
313
100
AcDbEntity
  8
03__ASM_ALL_CURVES
100
AcDbLine
 62
40
  6
CONTINUOUS
 10
5.3059590246
 20
3.6987355265
 11
5.3001734777
 21
3.6948784951
  0
LINE
  5
314
100
AcDbEntity
  8
03__ASM_ALL_CURVES
100
AcDbLine
 62
40
  6
CONTINUOUS
 10
5.3522433996
 20
3.7218777129
 11
5.3464578527
 21
3.7180206826
  0
LINE
  5
315
100
AcDbEntity
  8
0
100
AcDbLine
 62
7
  6
CONTINUOUS
 10
4.8495762203
 20
4.4230498328
 11
4.3693223542
 21
4.4230498328
  0
LINE
  5
316
100
AcDbEntity
  8
0
100
AcDbLine
 62
7
  6
CONTINUOUS
 10
6.758511465
 20
4.4411628701
 11
6.736511465
 21
4.4411628701
  0
LINE
  5
317
100
AcDbEntity
  8
0
100
AcDbLine
 62
7
  6
CONTINUOUS
 10
4.8495762203
 20
4.4509693888
 11
4.3693223542
 21
4.4509693888
  0
LINE
  5
318
100
AcDbEntity
  8
0
100
AcDbLine
 62
7
  6
CONTINUOUS
 10
6.548011465
 20
4.4586628701
 11
6.213511465
 21
4.4586628701
  0
LINE
  5
319
100
AcDbEntity
  8
0
100
AcDbLine
 62
7
  6
CONTINUOUS
 10
6.198511465
 20
4.4736628701
 11
6.168011465
 21
4.4736628701
  0
LINE
  5
31A
100
AcDbEntity
  8
0
100
AcDbLine
 62
7
  6
CONTINUOUS
 10
6.571511465
 20
4.4821628701
 11
6.610511465
 21
4.4821628701
  0
LINE
  5
31B
100
AcDbEntity
  8
0
100
AcDbLine
 62
7
  6
CONTINUOUS
 10
6.758511465
 20
4.4821628701
 11
6.807511465
 21
4.4821628701
  0
LINE
  5
31C
100
AcDbEntity
  8
0
100
AcDbLine
 62
7
  6
CONTINUOUS
 10
6.610511465
 20
4.4831628701
 11
6.648511465
 21
4.4831628701
  0
LINE
  5
31D
100
AcDbEntity
  8
0
100
AcDbLine
 62
7
  6
CONTINUOUS
 10
6.698511465
 20
4.4831628701
 11
6.736511465
 21
4.4831628701
  0
LINE
  5
31E
100
AcDbEntity
  8
THREAD
100
AcDbLine
 62
7
  6
CONTINUOUS
 10
5.7595059115
 20
4.4966628701
 11
5.747011465
 21
4.4966628701
  0
LINE
  5
31F
100
AcDbEntity
  8
THREAD
100
AcDbLine
 62
7
  6
CONTINUOUS
 10
6.160011465
 20
4.4991628701
 11
6.054011465
 21
4.4991628701
  0
LINE
  5
320
100
AcDbEntity
  8
THREAD
100
AcDbLine
 62
7
  6
CONTINUOUS
 10
5.6105999223
 20
4.5521628701
 11
5.595011465
 21
4.5611628701
  0
LINE
  5
321
100
AcDbEntity
  8
03__ASM_ALL_CURVES
100
AcDbLine
 62
40
  6
CONTINUOUS
 10
5.2177184963
 20
4.858885538
 11
5.2254325588
 21
4.8537428272
  0
LINE
  5
322
100
AcDbEntity
  8
03__ASM_ALL_CURVES
100
AcDbLine
 62
40
  6
CONTINUOUS
 10
6.4310487493
 20
3.6987355265
 11
6.4252632025
 21
3.7064495888
  0
LINE
  5
323
100
AcDbEntity
  8
03__ASM_ALL_CURVES
100
AcDbLine
 62
40
  6
CONTINUOUS
 10
6.402121015
 20
3.7373058398
 11
6.4050137884
 21
3.7334488067
  0
LINE
  5
324
100
AcDbEntity
  8
03__ASM_ALL_CURVES
100
AcDbLine
 62
40
  6
CONTINUOUS
 10
6.44840539
 20
3.7373058398
 11
6.4541909368
 21
3.7295917763
  0
LINE
  5
325
100
AcDbEntity
  8
03__ASM_ALL_CURVES
100
AcDbLine
 62
40
  6
CONTINUOUS
 10
5.7901772464
 20
4.8640282451
 11
5.7940342776
 21
4.8486001201
  0
LINE
  5
326
100
AcDbEntity
  8
03__ASM_ALL_CURVES
100
AcDbLine
 62
40
  6
CONTINUOUS
 10
5.8133194339
 20
4.8331719951
 11
5.8094624026
 21
4.8486001201
  0
LINE
  5
327
100
AcDbEntity
  8
THREAD
100
AcDbLine
 62
7
  6
CONTINUOUS
 10
6.054011465
 20
3.9511628701
 11
6.054011465
 21
4.4991628701
  0
LINE
  5
328
100
AcDbEntity
  8
03__ASM_ALL_CURVES
100
AcDbLine
 62
40
  6
CONTINUOUS
 10
6.0640264651
 20
4.8177438701
 11
6.0640264651
 21
4.8794563701
  0
LINE
  5
329
100
AcDbEntity
  8
03__ASM_ALL_CURVES
100
AcDbLine
 62
40
  6
CONTINUOUS
 10
6.0948827151
 20
4.8177438701
 11
6.0948827151
 21
4.8794563701
  0
LINE
  5
32A
100
AcDbEntity
  8
03__ASM_ALL_CURVES
100
AcDbLine
 62
40
  6
CONTINUOUS
 10
6.5885827151
 20
4.8331719951
 11
6.5808686526
 21
4.8228865786
  0
LINE
  5
32B
100
AcDbEntity
  8
03__ASM_ALL_CURVES
100
AcDbLine
 62
40
  6
CONTINUOUS
 10
5.4274555089
 20
3.7373058398
 11
5.4332410558
 21
3.7411628701
  0
LINE
  5
32C
100
AcDbEntity
  8
03__ASM_ALL_CURVES
100
AcDbLine
 62
40
  6
CONTINUOUS
 10
5.4448121496
 20
3.725734746
 11
5.4390266027
 21
3.7218777129
  0
LINE
  5
32D
100
AcDbEntity
  8
03__ASM_ALL_CURVES
100
AcDbLine
 62
40
  6
CONTINUOUS
 10
5.4448121496
 20
3.6987355265
 11
5.4390266027
 21
3.6948784951
  0
LINE
  5
32E
100
AcDbEntity
  8
THREAD
100
AcDbLine
 62
7
  6
CONTINUOUS
 10
5.6105999223
 20
3.8981628701
 11
5.595011465
 21
3.8891628701
  0
LINE
  5
32F
100
AcDbEntity
  8
0
100
AcDbLine
 62
7
  6
CONTINUOUS
 10
5.208011465
 20
4.5221628701
 11
5.200011465
 21
4.5221628701
  0
LINE
  5
330
100
AcDbEntity
  8
0
100
AcDbLine
 62
7
  6
CONTINUOUS
 10
5.5256858022
 20
4.5296628701
 11
5.2893371279
 21
4.5296628701
  0
LINE
  5
331
100
AcDbEntity
  8
THREAD
100
AcDbLine
 62
7
  6
CONTINUOUS
 10
6.019011465
 20
4.5341628701
 11
5.7886621001
 21
4.5341628701
  0
LINE
  5
332
100
AcDbEntity
  8
0
100
AcDbLine
 62
7
  6
CONTINUOUS
 10
5.697011465
 20
4.5506628701
 11
5.747011465
 21
4.5506628701
  0
LINE
  5
333
100
AcDbEntity
  8
THREAD
100
AcDbLine
 62
7
  6
CONTINUOUS
 10
5.627011465
 20
4.5521628701
 11
5.6105999223
 21
4.5521628701
  0
LINE
  5
334
100
AcDbEntity
  8
0
100
AcDbLine
 62
7
  6
CONTINUOUS
 10
5.595011465
 20
4.5756628701
 11
5.538011465
 21
4.5756628701
  0
LINE
  5
335
100
AcDbEntity
  8
0
100
AcDbLine
 62
7
  6
CONTINUOUS
 10
5.277011465
 20
4.5756628701
 11
5.221011465
 21
4.5756628701
  0
LINE
  5
336
100
AcDbEntity
  8
0
100
AcDbLine
 62
7
  6
CONTINUOUS
 10
5.080011465
 20
4.5756628701
 11
4.892011465
 21
4.5756628701
  0
LINE
  5
337
100
AcDbEntity
  8
0
100
AcDbLine
 62
7
  6
CONTINUOUS
 10
5.080011465
 20
4.5761628701
 11
5.130011465
 21
4.5761628701
  0
LINE
  5
338
100
AcDbEntity
  8
03__ASM_ALL_CURVES
100
AcDbLine
 62
40
  6
CONTINUOUS
 10
4.413066465
 20
4.7827734534
 11
4.339011465
 21
4.7930588701
  0
LINE
  5
339
100
AcDbEntity
  8
03__ASM_ALL_CURVES
100
AcDbLine
 62
40
  6
CONTINUOUS
 10
4.413066465
 20
4.7807163701
 11
4.339011465
 21
4.7930588701
  0
LINE
  5
33A
100
AcDbEntity
  8
0
100
AcDbLine
 62
7
  6
CONTINUOUS
 10
6.571511465
 20
3.9681628701
 11
6.548057111
 21
3.9916172241
  0
LINE
  5
33B
100
AcDbEntity
  8
THREAD
100
AcDbLine
 62
7
  6
CONTINUOUS
 10
6.054011465
 20
4.4991628701
 11
6.019011465
 21
4.5341628701
  0
LINE
  5
33C
100
AcDbEntity
  8
03__ASM_ALL_CURVES
100
AcDbLine
 62
40
  6
CONTINUOUS
 10
6.494689765
 20
3.7373058398
 11
6.4975825384
 21
3.7334488067
  0
LINE
  5
33D
100
AcDbEntity
  8
03__ASM_ALL_CURVES
100
AcDbLine
 62
40
  6
CONTINUOUS
 10
5.7593209964
 20
4.8228865786
 11
5.7516069339
 21
4.8331719951
  0
LINE
  5
33E
100
AcDbEntity
  8
03__ASM_ALL_CURVES
100
AcDbLine
 62
40
  6
CONTINUOUS
 10
6.587258515
 20
3.7373058398
 11
6.5901512884
 21
3.7334488067
  0
LINE
  5
33F
100
AcDbEntity
  8
03__ASM_ALL_CURVES
100
AcDbLine
 62
40
  6
CONTINUOUS
 10
5.8943170901
 20
4.8794563701
 11
5.9136022464
 21
4.8177438701
  0
LINE
  5
340
100
AcDbEntity
  8
03__ASM_ALL_CURVES
100
AcDbLine
 62
40
  6
CONTINUOUS
 10
6.1565952151
 20
4.8486001201
 11
6.1565952151
 21
4.8280292871
  0
LINE
  5
341
100
AcDbEntity
  8
0
100
AcDbLine
 62
7
  6
CONTINUOUS
 10
6.160011465
 20
3.9511628701
 11
6.160011465
 21
4.4991628701
  0
LINE
  5
342
100
AcDbEntity
  8
0
100
AcDbLine
 62
7
  6
CONTINUOUS
 10
6.168011465
 20
3.9591628701
 11
6.168011465
 21
4.4911628701
  0
LINE
  5
343
100
AcDbEntity
  8
0
100
AcDbLine
 62
7
  6
CONTINUOUS
 10
6.198511465
 20
3.9766628701
 11
6.198511465
 21
4.4736628701
  0
LINE
  5
344
100
AcDbEntity
  8
0
100
AcDbLine
 62
7
  6
CONTINUOUS
 10
6.213511465
 20
3.9916628701
 11
6.213511465
 21
4.4586628701
  0
LINE
  5
345
100
AcDbEntity
  8
03__ASM_ALL_CURVES
100
AcDbLine
 62
40
  6
CONTINUOUS
 10
6.3648749026
 20
4.8486001201
 11
6.3687319339
 21
4.8640282451
  0
LINE
  5
346
100
AcDbEntity
  8
03__ASM_ALL_CURVES
100
AcDbLine
 62
40
  6
CONTINUOUS
 10
6.7120077151
 20
4.858885538
 11
6.7081506839
 21
4.8537428272
  0
LINE
  5
347
100
AcDbEntity
  8
0
100
AcDbLine
 62
7
  6
CONTINUOUS
 10
6.571511465
 20
4.4821628701
 11
6.548011465
 21
4.4586628701
  0
LINE
  5
348
100
AcDbEntity
  8
THREAD
100
AcDbLine
 62
7
  6
CONTINUOUS
 10
6.054011465
 20
3.9511628701
 11
6.019011465
 21
3.9161628701
  0
LINE
  5
349
100
AcDbEntity
  8
0
100
AcDbLine
 62
7
  6
CONTINUOUS
 10
4.8495762203
 20
4.6488563514
 11
4.3693223542
 21
4.6488563514
  0
LINE
  5
34A
100
AcDbEntity
  8
0
100
AcDbLine
 62
7
  6
CONTINUOUS
 10
4.8495762203
 20
4.6491628701
 11
4.3693223542
 21
4.6491628701
  0
LINE
  5
34B
100
AcDbEntity
  8
03__ASM_ALL_CURVES
100
AcDbLine
 62
40
  6
CONTINUOUS
 10
4.413066465
 20
4.7889447034
 11
4.339011465
 21
4.7930588701
  0
LINE
  5
34C
100
AcDbEntity
  8
03__ASM_ALL_CURVES
100
AcDbLine
 62
40
  6
CONTINUOUS
 10
4.413066465
 20
4.7868876201
 11
4.339011465
 21
4.7930588701
  0
LINE
  5
34D
100
AcDbEntity
  8
03__ASM_ALL_CURVES
100
AcDbLine
 62
40
  6
CONTINUOUS
 10
4.413066465
 20
4.7848305368
 11
4.339011465
 21
4.7930588701
  0
LINE
  5
34E
100
AcDbEntity
  8
03__ASM_ALL_CURVES
100
AcDbLine
 62
40
  6
CONTINUOUS
 10
5.7670350589
 20
4.8177438701
 11
5.7593209964
 21
4.8228865786
  0
LINE
  5
34F
100
AcDbEntity
  8
0
100
AcDbLine
 62
7
  6
CONTINUOUS
 10
6.168011465
 20
4.4911628701
 11
6.160011465
 21
4.4991628701
  0
LINE
  5
350
100
AcDbEntity
  8
0
100
AcDbLine
 62
7
  6
CONTINUOUS
 10
6.213511465
 20
4.4586628701
 11
6.198511465
 21
4.4736628701
  0
LINE
  5
351
100
AcDbEntity
  8
03__ASM_ALL_CURVES
100
AcDbLine
 62
40
  6
CONTINUOUS
 10
5.8210334964
 20
4.8228865786
 11
5.8133194339
 21
4.8331719951
  0
LINE
  5
352
100
AcDbEntity
  8
03__ASM_ALL_CURVES
100
AcDbLine
 62
40
  6
CONTINUOUS
 10
5.7824631839
 20
4.874313663
 11
5.7901772464
 21
4.8640282451
  0
LINE
  5
353
100
AcDbEntity
  8
03__ASM_ALL_CURVES
100
AcDbLine
 62
40
  6
CONTINUOUS
 10
5.8441756839
 20
4.874313663
 11
5.8480327151
 21
4.8691709522
  0
LINE
  5
354
100
AcDbEntity
  8
03__ASM_ALL_CURVES
100
AcDbLine
 62
40
  6
CONTINUOUS
 10
6.2491639651
 20
4.8691709522
 11
6.2491639651
 21
4.8640282451
  0
LINE
  5
355
100
AcDbEntity
  8
03__ASM_ALL_CURVES
100
AcDbLine
 62
40
  6
CONTINUOUS
 10
6.2800202151
 20
4.838314704
 11
6.2800202151
 21
4.8280292871
  0
LINE
  5
356
100
AcDbEntity
  8
03__ASM_ALL_CURVES
100
AcDbLine
 62
40
  6
CONTINUOUS
 10
6.3108764651
 20
4.8794563701
 11
6.3108764651
 21
4.8177438701
  0
LINE
  5
357
100
AcDbEntity
  8
03__ASM_ALL_CURVES
100
AcDbLine
 62
40
  6
CONTINUOUS
 10
6.4111592776
 20
4.8486001201
 11
6.4073022464
 21
4.8331719951
  0
LINE
  5
358
100
AcDbEntity
  8
0
100
AcDbLine
 62
7
  6
CONTINUOUS
 10
6.168011465
 20
3.9591628701
 11
6.160011465
 21
3.9511628701
  0
LINE
  5
359
100
AcDbEntity
  8
0
100
AcDbLine
 62
7
  6
CONTINUOUS
 10
6.213511465
 20
3.9916628701
 11
6.198511465
 21
3.9766628701
  0
LINE
  5
35A
100
AcDbEntity
  8
03__ASM_ALL_CURVES
100
AcDbLine
 62
40
  6
CONTINUOUS
 10
5.520956465
 20
4.7807163701
 11
5.669066465
 21
4.8054013701
  0
LINE
  5
35B
100
AcDbEntity
  8
03__ASM_ALL_CURVES
100
AcDbLine
 62
40
  6
CONTINUOUS
 10
5.520956465
 20
4.7827734534
 11
5.669066465
 21
4.8033442868
  0
LINE
  5
35C
100
AcDbEntity
  8
03__ASM_ALL_CURVES
100
AcDbLine
 62
40
  6
CONTINUOUS
 10
5.520956465
 20
4.7848305368
 11
5.669066465
 21
4.8012872034
  0
LINE
  5
35D
100
AcDbEntity
  8
03__ASM_ALL_CURVES
100
AcDbLine
 62
40
  6
CONTINUOUS
 10
5.520956465
 20
4.7868876201
 11
5.669066465
 21
4.7992301201
  0
LINE
  5
35E
100
AcDbEntity
  8
03__ASM_ALL_CURVES
100
AcDbLine
 62
40
  6
CONTINUOUS
 10
5.520956465
 20
4.7889447034
 11
5.669066465
 21
4.7971730368
  0
LINE
  5
35F
100
AcDbEntity
  8
03__ASM_ALL_CURVES
100
AcDbLine
 62
40
  6
CONTINUOUS
 10
5.520956465
 20
4.7910017868
 11
5.669066465
 21
4.7951159534
  0
LINE
  5
360
100
AcDbEntity
  8
03__ASM_ALL_CURVES
100
AcDbLine
 62
40
  6
CONTINUOUS
 10
4.339011465
 20
4.7930588701
 11
6.779891465
 21
4.7930588701
  0
LINE
  5
361
100
AcDbEntity
  8
03__ASM_ALL_CURVES
100
AcDbLine
 62
40
  6
CONTINUOUS
 10
6.6502952151
 20
4.8177438701
 11
6.6194389651
 21
4.8177438701
  0
LINE
  5
362
100
AcDbEntity
  8
03__ASM_ALL_CURVES
100
AcDbLine
 62
40
  6
CONTINUOUS
 10
6.5731545901
 20
4.8177438701
 11
6.5577264651
 21
4.8177438701
  0
LINE
  5
363
100
AcDbEntity
  8
03__ASM_ALL_CURVES
100
AcDbLine
 62
40
  6
CONTINUOUS
 10
6.4535866214
 20
4.8177438701
 11
6.4458725589
 21
4.8177438701
  0
LINE
  5
364
100
AcDbEntity
  8
03__ASM_ALL_CURVES
100
AcDbLine
 62
40
  6
CONTINUOUS
 10
6.3918741214
 20
4.8177438701
 11
6.3841600589
 21
4.8177438701
  0
LINE
  5
365
100
AcDbEntity
  8
03__ASM_ALL_CURVES
100
AcDbLine
 62
40
  6
CONTINUOUS
 10
6.2684491214
 20
4.8177438701
 11
6.2607350589
 21
4.8177438701
  0
LINE
  5
366
100
AcDbEntity
  8
03__ASM_ALL_CURVES
100
AcDbLine
 62
40
  6
CONTINUOUS
 10
6.1450241214
 20
4.8177438701
 11
6.1373100589
 21
4.8177438701
  0
LINE
  5
367
100
AcDbEntity
  8
03__ASM_ALL_CURVES
100
AcDbLine
 62
40
  6
CONTINUOUS
 10
5.8364616214
 20
4.8177438701
 11
5.8287475589
 21
4.8177438701
  0
LINE
  5
368
100
AcDbEntity
  8
03__ASM_ALL_CURVES
100
AcDbLine
 62
40
  6
CONTINUOUS
 10
5.7747491214
 20
4.8177438701
 11
5.7670350589
 21
4.8177438701
  0
LINE
  5
369
100
AcDbEntity
  8
03__ASM_ALL_CURVES
100
AcDbLine
 62
40
  6
CONTINUOUS
 10
5.2177184963
 20
4.8177438701
 11
5.2100044338
 21
4.8177438701
  0
LINE
  5
36A
100
AcDbEntity
  8
03__ASM_ALL_CURVES
100
AcDbLine
 62
40
  6
CONTINUOUS
 10
5.090436465
 20
4.8177438701
 11
5.0865794338
 21
4.8177438701
  0
LINE
  5
36B
100
AcDbEntity
  8
03__ASM_ALL_CURVES
100
AcDbLine
 62
40
  6
CONTINUOUS
 10
4.9708684963
 20
4.8177438701
 11
4.9631544338
 21
4.8177438701
  0
LINE
  5
36C
100
AcDbEntity
  8
03__ASM_ALL_CURVES
100
AcDbLine
 62
40
  6
CONTINUOUS
 10
4.8474434963
 20
4.8177438701
 11
4.8397294338
 21
4.8177438701
  0
LINE
  5
36D
100
AcDbEntity
  8
03__ASM_ALL_CURVES
100
AcDbLine
 62
40
  6
CONTINUOUS
 10
4.720161465
 20
4.8177438701
 11
4.7163044338
 21
4.8177438701
  0
LINE
  5
36E
100
AcDbEntity
  8
03__ASM_ALL_CURVES
100
AcDbLine
 62
40
  6
CONTINUOUS
 10
4.76644584
 20
4.8177438701
 11
4.79730209
 21
4.8177438701
  0
LINE
  5
36F
100
AcDbEntity
  8
03__ASM_ALL_CURVES
100
AcDbLine
 62
40
  6
CONTINUOUS
 10
5.6937514651
 20
4.8177438701
 11
5.7246077151
 21
4.8177438701
  0
LINE
  5
370
100
AcDbEntity
  8
03__ASM_ALL_CURVES
100
AcDbLine
 62
40
  6
CONTINUOUS
 10
6.4960139651
 20
4.8177438701
 11
6.5268702151
 21
4.8177438701
  0
LINE
  5
371
100
AcDbEntity
  8
03__ASM_ALL_CURVES
100
AcDbLine
 62
40
  6
CONTINUOUS
 10
4.413066465
 20
4.7910017868
 11
4.339011465
 21
4.7930588701
  0
LINE
  5
372
100
AcDbEntity
  8
03__ASM_ALL_CURVES
100
AcDbLine
 62
40
  6
CONTINUOUS
 10
5.520956465
 20
4.7951159534
 11
5.669066465
 21
4.7910017868
  0
LINE
  5
373
100
AcDbEntity
  8
03__ASM_ALL_CURVES
100
AcDbLine
 62
40
  6
CONTINUOUS
 10
5.520956465
 20
4.7971730368
 11
5.669066465
 21
4.7889447034
  0
LINE
  5
374
100
AcDbEntity
  8
03__ASM_ALL_CURVES
100
AcDbLine
 62
40
  6
CONTINUOUS
 10
5.520956465
 20
4.7992301201
 11
5.669066465
 21
4.7868876201
  0
LINE
  5
375
100
AcDbEntity
  8
03__ASM_ALL_CURVES
100
AcDbLine
 62
40
  6
CONTINUOUS
 10
5.520956465
 20
4.8012872034
 11
5.669066465
 21
4.7848305368
  0
LINE
  5
376
100
AcDbEntity
  8
03__ASM_ALL_CURVES
100
AcDbLine
 62
40
  6
CONTINUOUS
 10
5.520956465
 20
4.8033442868
 11
5.669066465
 21
4.7827734534
  0
LINE
  5
377
100
AcDbEntity
  8
03__ASM_ALL_CURVES
100
AcDbLine
 62
40
  6
CONTINUOUS
 10
5.669066465
 20
4.7807163701
 11
5.520956465
 21
4.8054013701
  0
LINE
  5
378
100
AcDbEntity
  8
03__ASM_ALL_CURVES
100
AcDbLine
 62
40
  6
CONTINUOUS
 10
5.8287475589
 20
4.8177438701
 11
5.8210334964
 21
4.8228865786
  0
LINE
  5
379
100
AcDbEntity
  8
03__ASM_ALL_CURVES
100
AcDbLine
 62
40
  6
CONTINUOUS
 10
5.7747491214
 20
4.8794563701
 11
5.7824631839
 21
4.874313663
  0
LINE
  5
37A
100
AcDbEntity
  8
03__ASM_ALL_CURVES
100
AcDbLine
 62
40
  6
CONTINUOUS
 10
5.8364616214
 20
4.8794563701
 11
5.8441756839
 21
4.874313663
  0
LINE
  5
37B
100
AcDbEntity
  8
03__ASM_ALL_CURVES
100
AcDbLine
 62
40
  6
CONTINUOUS
 10
6.0640264651
 20
4.8794563701
 11
6.0948827151
 21
4.8177438701
  0
LINE
  5
37C
100
AcDbEntity
  8
03__ASM_ALL_CURVES
100
AcDbLine
 62
40
  6
CONTINUOUS
 10
6.4889042181
 20
3.7180206826
 11
6.4975825384
 21
3.6948784951
  0
LINE
  5
37D
100
AcDbEntity
  8
03__ASM_ALL_CURVES
100
AcDbLine
 62
40
  6
CONTINUOUS
 10
6.1218819339
 20
4.8331719951
 11
6.1180249026
 21
4.8486001201
  0
LINE
  5
37E
100
AcDbEntity
  8
03__ASM_ALL_CURVES
100
AcDbLine
 62
40
  6
CONTINUOUS
 10
6.4252632025
 20
3.7064495888
 11
6.422370429
 21
3.7180206826
  0
LINE
  5
37F
100
AcDbEntity
  8
03__ASM_ALL_CURVES
100
AcDbLine
 62
40
  6
CONTINUOUS
 10
6.4541909368
 20
3.7295917763
 11
6.4570837103
 21
3.7180206826
  0
LINE
  5
380
100
AcDbEntity
  8
03__ASM_ALL_CURVES
100
AcDbLine
 62
40
  6
CONTINUOUS
 10
6.3417327151
 20
4.8794563701
 11
6.3417327151
 21
4.8177438701
  0
LINE
  5
381
100
AcDbEntity
  8
03__ASM_ALL_CURVES
100
AcDbLine
 62
40
  6
CONTINUOUS
 10
6.3818716009
 20
3.6948784951
 11
6.3818716009
 21
3.7411628701
  0
LINE
  5
382
100
AcDbEntity
  8
03__ASM_ALL_CURVES
100
AcDbLine
 62
40
  6
CONTINUOUS
 10
6.4050137884
 20
3.7334488067
 11
6.4050137884
 21
3.725734746
  0
LINE
  5
383
100
AcDbEntity
  8
03__ASM_ALL_CURVES
100
AcDbLine
 62
40
  6
CONTINUOUS
 10
6.4343014651
 20
4.8280292871
 11
6.4343014651
 21
4.8794563701
  0
LINE
  5
384
100
AcDbEntity
  8
03__ASM_ALL_CURVES
100
AcDbLine
 62
40
  6
CONTINUOUS
 10
6.5924397464
 20
4.8486001201
 11
6.5885827151
 21
4.8331719951
  0
LINE
  5
385
100
AcDbEntity
  8
03__ASM_ALL_CURVES
100
AcDbLine
 62
40
  6
CONTINUOUS
 10
4.413066465
 20
4.7992301201
 11
4.339011465
 21
4.7930588701
  0
LINE
  5
386
100
AcDbEntity
  8
03__ASM_ALL_CURVES
100
AcDbLine
 62
40
  6
CONTINUOUS
 10
4.413066465
 20
4.7971730368
 11
4.339011465
 21
4.7930588701
  0
LINE
  5
387
100
AcDbEntity
  8
03__ASM_ALL_CURVES
100
AcDbLine
 62
40
  6
CONTINUOUS
 10
4.413066465
 20
4.7951159534
 11
4.339011465
 21
4.7930588701
  0
LINE
  5
388
100
AcDbEntity
  8
03__ASM_ALL_CURVES
100
AcDbLine
 62
40
  6
CONTINUOUS
 10
5.8827459964
 20
4.838314704
 11
5.9058881839
 21
4.838314704
  0
LINE
  5
389
100
AcDbEntity
  8
03__ASM_ALL_CURVES
100
AcDbLine
 62
40
  6
CONTINUOUS
 10
6.7004366214
 20
4.8486001201
 11
6.6811514651
 21
4.8486001201
  0
LINE
  5
38A
100
AcDbEntity
  8
03__ASM_ALL_CURVES
100
AcDbLine
 62
40
  6
CONTINUOUS
 10
6.1411670901
 20
4.8486001201
 11
6.1565952151
 21
4.8486001201
  0
LINE
  5
38B
100
AcDbEntity
  8
03__ASM_ALL_CURVES
100
AcDbLine
 62
40
  6
CONTINUOUS
 10
6.3108764651
 20
4.8486001201
 11
6.3417327151
 21
4.8486001201
  0
LINE
  5
38C
100
AcDbEntity
  8
03__ASM_ALL_CURVES
100
AcDbLine
 62
40
  6
CONTINUOUS
 10
6.6194389651
 20
4.8486001201
 11
6.6387241214
 21
4.8486001201
  0
LINE
  5
38D
100
AcDbEntity
  8
03__ASM_ALL_CURVES
100
AcDbLine
 62
40
  6
CONTINUOUS
 10
4.9631544338
 20
4.8537428272
 11
4.9708684963
 21
4.8537428272
  0
LINE
  5
38E
100
AcDbEntity
  8
03__ASM_ALL_CURVES
100
AcDbLine
 62
40
  6
CONTINUOUS
 10
4.8397294338
 20
4.858885538
 11
4.8474434963
 21
4.858885538
  0
LINE
  5
38F
100
AcDbEntity
  8
03__ASM_ALL_CURVES
100
AcDbLine
 62
40
  6
CONTINUOUS
 10
5.2100044338
 20
4.858885538
 11
5.2177184963
 21
4.858885538
  0
LINE
  5
390
100
AcDbEntity
  8
03__ASM_ALL_CURVES
100
AcDbLine
 62
40
  6
CONTINUOUS
 10
6.2684491214
 20
4.8794563701
 11
6.2607350589
 21
4.8794563701
  0
LINE
  5
391
100
AcDbEntity
  8
03__ASM_ALL_CURVES
100
AcDbLine
 62
40
  6
CONTINUOUS
 10
5.22928959
 20
4.8794563701
 11
5.2061474025
 21
4.8794563701
  0
LINE
  5
392
100
AcDbEntity
  8
03__ASM_ALL_CURVES
100
AcDbLine
 62
40
  6
CONTINUOUS
 10
5.16757709
 20
4.8794563701
 11
5.13672084
 21
4.8794563701
  0
LINE
  5
393
100
AcDbEntity
  8
03__ASM_ALL_CURVES
100
AcDbLine
 62
40
  6
CONTINUOUS
 10
4.85901459
 20
4.8794563701
 11
4.8358724025
 21
4.8794563701
  0
LINE
  5
394
100
AcDbEntity
  8
03__ASM_ALL_CURVES
100
AcDbLine
 62
40
  6
CONTINUOUS
 10
4.7780169338
 20
4.8794563701
 11
4.7857309963
 21
4.8794563701
  0
LINE
  5
395
100
AcDbEntity
  8
03__ASM_ALL_CURVES
100
AcDbLine
 62
40
  6
CONTINUOUS
 10
4.9631544338
 20
4.8794563701
 11
4.9708684963
 21
4.8794563701
  0
LINE
  5
396
100
AcDbEntity
  8
03__ASM_ALL_CURVES
100
AcDbLine
 62
40
  6
CONTINUOUS
 10
5.7670350589
 20
4.8794563701
 11
5.7747491214
 21
4.8794563701
  0
LINE
  5
397
100
AcDbEntity
  8
03__ASM_ALL_CURVES
100
AcDbLine
 62
40
  6
CONTINUOUS
 10
5.8287475589
 20
4.8794563701
 11
5.8364616214
 21
4.8794563701
  0
LINE
  5
398
100
AcDbEntity
  8
03__ASM_ALL_CURVES
100
AcDbLine
 62
40
  6
CONTINUOUS
 10
5.9367444339
 20
4.8794563701
 11
5.9753147464
 21
4.8794563701
  0
LINE
  5
399
100
AcDbEntity
  8
03__ASM_ALL_CURVES
100
AcDbLine
 62
40
  6
CONTINUOUS
 10
6.1373100589
 20
4.8794563701
 11
6.1450241214
 21
4.8794563701
  0
LINE
  5
39A
100
AcDbEntity
  8
03__ASM_ALL_CURVES
100
AcDbLine
 62
40
  6
CONTINUOUS
 10
6.3841600589
 20
4.8794563701
 11
6.3918741214
 21
4.8794563701
  0
LINE
  5
39B
100
AcDbEntity
  8
03__ASM_ALL_CURVES
100
AcDbLine
 62
40
  6
CONTINUOUS
 10
6.5577264651
 20
4.8794563701
 11
6.5731545901
 21
4.8794563701
  0
LINE
  5
39C
100
AcDbEntity
  8
03__ASM_ALL_CURVES
100
AcDbLine
 62
40
  6
CONTINUOUS
 10
6.6194389651
 20
4.8794563701
 11
6.6502952151
 21
4.8794563701
  0
LINE
  5
39D
100
AcDbEntity
  8
03__ASM_ALL_CURVES
100
AcDbLine
 62
40
  6
CONTINUOUS
 10
6.6811514651
 20
4.8794563701
 11
6.7004366214
 21
4.8794563701
  0
LINE
  5
39E
100
AcDbEntity
  8
03__ASM_ALL_CURVES
100
AcDbLine
 62
40
  6
CONTINUOUS
 10
6.1373100589
 20
4.8177438701
 11
6.1295959964
 21
4.8228865786
  0
LINE
  5
39F
100
AcDbEntity
  8
03__ASM_ALL_CURVES
100
AcDbLine
 62
40
  6
CONTINUOUS
 10
6.1295959964
 20
4.8228865786
 11
6.1218819339
 21
4.8331719951
  0
LINE
  5
3A0
100
AcDbEntity
  8
03__ASM_ALL_CURVES
100
AcDbLine
 62
40
  6
CONTINUOUS
 10
6.1527381839
 20
4.874313663
 11
6.1565952151
 21
4.8691709522
  0
LINE
  5
3A1
100
AcDbEntity
  8
03__ASM_ALL_CURVES
100
AcDbLine
 62
40
  6
CONTINUOUS
 10
6.4651577151
 20
4.8794563701
 11
6.4651577151
 21
4.8280292871
  0
LINE
  5
3A2
100
AcDbEntity
  8
03__ASM_ALL_CURVES
100
AcDbLine
 62
40
  6
CONTINUOUS
 10
6.4744403509
 20
3.6948784951
 11
6.4744403509
 21
3.7411628701
  0
LINE
  5
3A3
100
AcDbEntity
  8
03__ASM_ALL_CURVES
100
AcDbLine
 62
40
  6
CONTINUOUS
 10
6.4960139651
 20
4.8794563701
 11
6.4960139651
 21
4.8177438701
  0
LINE
  5
3A4
100
AcDbEntity
  8
03__ASM_ALL_CURVES
100
AcDbLine
 62
40
  6
CONTINUOUS
 10
6.4975825384
 20
3.7334488067
 11
6.4975825384
 21
3.725734746
  0
LINE
  5
3A5
100
AcDbEntity
  8
03__ASM_ALL_CURVES
100
AcDbLine
 62
40
  6
CONTINUOUS
 10
6.5322958196
 20
3.7411628701
 11
6.5322958196
 21
3.6948784951
  0
LINE
  5
3A6
100
AcDbEntity
  8
0
100
AcDbLine
 62
7
  6
CONTINUOUS
 10
6.548011465
 20
3.9921532136
 11
6.548011465
 21
4.4586628701
  0
LINE
  5
3A7
100
AcDbEntity
  8
03__ASM_ALL_CURVES
100
AcDbLine
 62
40
  6
CONTINUOUS
 10
6.422370429
 20
3.7180206826
 11
6.4252632025
 21
3.7295917763
  0
LINE
  5
3A8
100
AcDbEntity
  8
03__ASM_ALL_CURVES
100
AcDbLine
 62
40
  6
CONTINUOUS
 10
7.0872608794
 20
4.2645045879
 11
7.0814753325
 21
4.2606475576
  0
LINE
  5
3A9
100
AcDbEntity
  8
03__ASM_ALL_CURVES
100
AcDbLine
 62
40
  6
CONTINUOUS
 10
7.1161886138
 20
4.2799327148
 11
7.1219741606
 21
4.2837897451
  0
LINE
  5
3AA
100
AcDbEntity
  8
03__ASM_ALL_CURVES
100
AcDbLine
 62
40
  6
CONTINUOUS
 10
4.339011465
 20
4.7930588701
 11
4.413066465
 21
4.8054013701
  0
LINE
  5
3AB
100
AcDbEntity
  8
03__ASM_ALL_CURVES
100
AcDbLine
 62
40
  6
CONTINUOUS
 10
4.413066465
 20
4.8033442868
 11
4.339011465
 21
4.7930588701
  0
LINE
  5
3AC
100
AcDbEntity
  8
03__ASM_ALL_CURVES
100
AcDbLine
 62
40
  6
CONTINUOUS
 10
4.413066465
 20
4.8012872034
 11
4.339011465
 21
4.7930588701
  0
LINE
  5
3AD
100
AcDbEntity
  8
03__ASM_ALL_CURVES
100
AcDbLine
 62
40
  6
CONTINUOUS
 10
6.1450241214
 20
4.8794563701
 11
6.1527381839
 21
4.874313663
  0
LINE
  5
3AE
100
AcDbEntity
  8
03__ASM_ALL_CURVES
100
AcDbLine
 62
40
  6
CONTINUOUS
 10
7.1219741606
 20
4.2375053701
 11
7.1161886138
 21
4.2413624015
  0
LINE
  5
3AF
100
AcDbEntity
  8
03__ASM_ALL_CURVES
100
AcDbLine
 62
40
  6
CONTINUOUS
 10
6.2607350589
 20
4.8177438701
 11
6.2530209964
 21
4.8228865786
  0
LINE
  5
3B0
100
AcDbEntity
  8
03__ASM_ALL_CURVES
100
AcDbLine
 62
40
  6
CONTINUOUS
 10
7.0814753325
 20
4.2837897451
 11
7.0872608794
 21
4.2799327148
  0
LINE
  5
3B1
100
AcDbEntity
  8
03__ASM_ALL_CURVES
100
AcDbLine
 62
40
  6
CONTINUOUS
 10
6.2530209964
 20
4.858885538
 11
6.2761631839
 21
4.8434574111
  0
LINE
  5
3B2
100
AcDbEntity
  8
03__ASM_ALL_CURVES
100
AcDbLine
 62
40
  6
CONTINUOUS
 10
7.1277597075
 20
4.2837897451
 11
7.1335452544
 21
4.2799327148
  0
LINE
  5
3B3
100
AcDbEntity
  8
03__ASM_ALL_CURVES
100
AcDbLine
 62
40
  6
CONTINUOUS
 10
6.2530209964
 20
4.8228865786
 11
6.2453069339
 21
4.8331719951
  0
LINE
  5
3B4
100
AcDbEntity
  8
03__ASM_ALL_CURVES
100
AcDbLine
 62
40
  6
CONTINUOUS
 10
6.2491639651
 20
4.8640282451
 11
6.2530209964
 21
4.858885538
  0
LINE
  5
3B5
100
AcDbEntity
  8
03__ASM_ALL_CURVES
100
AcDbLine
 62
40
  6
CONTINUOUS
 10
6.2761631839
 20
4.8434574111
 11
6.2800202151
 21
4.838314704
  0
LINE
  5
3B6
100
AcDbEntity
  8
03__ASM_ALL_CURVES
100
AcDbLine
 62
40
  6
CONTINUOUS
 10
6.2800202151
 20
4.8691709522
 11
6.2761631839
 21
4.874313663
  0
LINE
  5
3B7
100
AcDbEntity
  8
03__ASM_ALL_CURVES
100
AcDbLine
 62
40
  6
CONTINUOUS
 10
6.3687319339
 20
4.8331719951
 11
6.3648749026
 21
4.8486001201
  0
LINE
  5
3B8
100
AcDbEntity
  8
03__ASM_ALL_CURVES
100
AcDbLine
 62
40
  6
CONTINUOUS
 10
6.4073022464
 20
4.8640282451
 11
6.4111592776
 21
4.8486001201
  0
LINE
  5
3B9
100
AcDbEntity
  8
03__ASM_ALL_CURVES
100
AcDbLine
 62
40
  6
CONTINUOUS
 10
6.5577264651
 20
4.8177438701
 11
6.5577264651
 21
4.8794563701
  0
LINE
  5
3BA
100
AcDbEntity
  8
0
100
AcDbLine
 62
7
  6
CONTINUOUS
 10
6.571511465
 20
4.4821628701
 11
6.571511465
 21
3.9681628701
  0
LINE
  5
3BB
100
AcDbEntity
  8
03__ASM_ALL_CURVES
100
AcDbLine
 62
40
  6
CONTINUOUS
 10
6.5901512884
 20
3.7334488067
 11
6.5901512884
 21
3.725734746
  0
LINE
  5
3BC
100
AcDbEntity
  8
0
100
AcDbLine
 62
7
  6
CONTINUOUS
 10
6.610511465
 20
3.9671632623
 11
6.610511465
 21
4.4831624778
  0
LINE
  5
3BD
100
AcDbEntity
  8
03__ASM_ALL_CURVES
100
AcDbLine
 62
40
  6
CONTINUOUS
 10
6.6194389651
 20
4.8177438701
 11
6.6194389651
 21
4.8794563701
  0
LINE
  5
3BE
100
AcDbEntity
  8
0
100
AcDbLine
 62
7
  6
CONTINUOUS
 10
6.648511465
 20
3.9671632623
 11
6.648511465
 21
4.4831624778
  0
LINE
  5
3BF
100
AcDbEntity
  8
03__ASM_ALL_CURVES
100
AcDbLine
 62
40
  6
CONTINUOUS
 10
6.4570837103
 20
3.7180206826
 11
6.4541909368
 21
3.7064495888
  0
LINE
  5
3C0
100
AcDbEntity
  8
03__ASM_ALL_CURVES
100
AcDbLine
 62
40
  6
CONTINUOUS
 10
6.4050137884
 20
3.725734746
 11
6.402121015
 21
3.7218777129
  0
LINE
  5
3C1
100
AcDbEntity
  8
03__ASM_ALL_CURVES
100
AcDbLine
 62
40
  6
CONTINUOUS
 10
6.4252632025
 20
3.7295917763
 11
6.4310487493
 21
3.7373058398
  0
LINE
  5
3C2
100
AcDbEntity
  8
03__ASM_ALL_CURVES
100
AcDbLine
 62
40
  6
CONTINUOUS
 10
7.1335452544
 20
4.2413624015
 11
7.1277597075
 21
4.2375053701
  0
LINE
  5
3C3
100
AcDbEntity
  8
03__ASM_ALL_CURVES
100
AcDbLine
 62
40
  6
CONTINUOUS
 10
7.1798296294
 20
4.2645045879
 11
7.1740440825
 21
4.2606475576
  0
LINE
  5
3C4
100
AcDbEntity
  8
03__ASM_ALL_CURVES
100
AcDbLine
 62
40
  6
CONTINUOUS
 10
6.402121015
 20
3.7218777129
 11
6.3963354681
 21
3.7180206826
  0
LINE
  5
3C5
100
AcDbEntity
  8
03__ASM_ALL_CURVES
100
AcDbLine
 62
40
  6
CONTINUOUS
 10
6.4310487493
 20
3.7373058398
 11
6.4368342962
 21
3.7411628701
  0
LINE
  5
3C6
100
AcDbEntity
  8
03__ASM_ALL_CURVES
100
AcDbLine
 62
40
  6
CONTINUOUS
 10
6.44840539
 20
3.6987355265
 11
6.4426198431
 21
3.6948784951
  0
LINE
  5
3C7
100
AcDbEntity
  8
03__ASM_ALL_CURVES
100
AcDbLine
 62
40
  6
CONTINUOUS
 10
6.494689765
 20
3.7218777129
 11
6.4889042181
 21
3.7180206826
  0
LINE
  5
3C8
100
AcDbEntity
  8
03__ASM_ALL_CURVES
100
AcDbLine
 62
40
  6
CONTINUOUS
 10
6.2761631839
 20
4.874313663
 11
6.2684491214
 21
4.8794563701
  0
LINE
  5
3C9
100
AcDbEntity
  8
03__ASM_ALL_CURVES
100
AcDbLine
 62
40
  6
CONTINUOUS
 10
7.1740440825
 20
4.2837897451
 11
7.1798296294
 21
4.2799327148
  0
LINE
  5
3CA
100
AcDbEntity
  8
03__ASM_ALL_CURVES
100
AcDbLine
 62
40
  6
CONTINUOUS
 10
6.3841600589
 20
4.8177438701
 11
6.3764459964
 21
4.8228865786
  0
LINE
  5
3CB
100
AcDbEntity
  8
03__ASM_ALL_CURVES
100
AcDbLine
 62
40
  6
CONTINUOUS
 10
6.4458725589
 20
4.8177438701
 11
6.4381584964
 21
4.8228865786
  0
LINE
  5
3CC
100
AcDbEntity
  8
03__ASM_ALL_CURVES
100
AcDbLine
 62
40
  6
CONTINUOUS
 10
6.3918741214
 20
4.8794563701
 11
6.3995881839
 21
4.874313663
  0
LINE
  5
3CD
100
AcDbEntity
  8
03__ASM_ALL_CURVES
100
AcDbLine
 62
40
  6
CONTINUOUS
 10
6.3764459964
 20
4.8228865786
 11
6.3687319339
 21
4.8331719951
  0
LINE
  5
3CE
100
AcDbEntity
  8
03__ASM_ALL_CURVES
100
AcDbLine
 62
40
  6
CONTINUOUS
 10
6.3995881839
 20
4.874313663
 11
6.4073022464
 21
4.8640282451
  0
LINE
  5
3CF
100
AcDbEntity
  8
03__ASM_ALL_CURVES
100
AcDbLine
 62
40
  6
CONTINUOUS
 10
6.4381584964
 20
4.8228865786
 11
6.4343014651
 21
4.8280292871
  0
LINE
  5
3D0
100
AcDbEntity
  8
03__ASM_ALL_CURVES
100
AcDbLine
 62
40
  6
CONTINUOUS
 10
6.6811514651
 20
4.8177438701
 11
6.6811514651
 21
4.8794563701
  0
LINE
  5
3D1
100
AcDbEntity
  8
0
100
AcDbLine
 62
7
  6
CONTINUOUS
 10
6.698511465
 20
3.9671632623
 11
6.698511465
 21
4.4831624778
  0
LINE
  5
3D2
100
AcDbEntity
  8
03__ASM_ALL_CURVES
100
AcDbLine
 62
40
  6
CONTINUOUS
 10
6.7120077151
 20
4.8691709522
 11
6.7120077151
 21
4.858885538
  0
LINE
  5
3D3
100
AcDbEntity
  8
0
100
AcDbLine
 62
7
  6
CONTINUOUS
 10
6.736511465
 20
3.9671632623
 11
6.736511465
 21
4.4831624778
  0
LINE
  5
3D4
100
AcDbEntity
  8
0
100
AcDbLine
 62
7
  6
CONTINUOUS
 10
6.758511465
 20
3.9681673621
 11
6.758511465
 21
4.4821583781
  0
LINE
  5
3D5
100
AcDbEntity
  8
03__ASM_ALL_CURVES
100
AcDbLine
 62
40
  6
CONTINUOUS
 10
6.5699018743
 20
3.7064495888
 11
6.5670091009
 21
3.6948784951
  0
LINE
  5
3D6
100
AcDbEntity
  8
03__ASM_ALL_CURVES
100
AcDbLine
 62
40
  6
CONTINUOUS
 10
6.4541909368
 20
3.7064495888
 11
6.44840539
 21
3.6987355265
  0
LINE
  5
3D7
100
AcDbEntity
  8
03__ASM_ALL_CURVES
100
AcDbLine
 62
40
  6
CONTINUOUS
 10
6.4975825384
 20
3.725734746
 11
6.494689765
 21
3.7218777129
  0
LINE
  5
3D8
100
AcDbEntity
  8
03__ASM_ALL_CURVES
100
AcDbLine
 62
40
  6
CONTINUOUS
 10
6.5670091009
 20
3.7334488067
 11
6.5699018743
 21
3.7373058398
  0
LINE
  5
3D9
100
AcDbEntity
  8
03__ASM_ALL_CURVES
100
AcDbLine
 62
40
  6
CONTINUOUS
 10
6.5699018743
 20
3.7373058398
 11
6.5756874212
 21
3.7411628701
  0
LINE
  5
3DA
100
AcDbEntity
  8
03__ASM_ALL_CURVES
100
AcDbLine
 62
40
  6
CONTINUOUS
 10
6.587258515
 20
3.7218777129
 11
6.5756874212
 21
3.7141636509
  0
LINE
  5
3DB
100
AcDbEntity
  8
03__ASM_ALL_CURVES
100
AcDbLine
 62
40
  6
CONTINUOUS
 10
6.5731545901
 20
4.8794563701
 11
6.5808686526
 21
4.874313663
  0
LINE
  5
3DC
100
AcDbEntity
  8
03__ASM_ALL_CURVES
100
AcDbLine
 62
40
  6
CONTINUOUS
 10
6.5885827151
 20
4.8640282451
 11
6.5924397464
 21
4.8486001201
  0
LINE
  5
3DD
100
AcDbEntity
  8
0
100
AcDbLine
 62
7
  6
CONTINUOUS
 10
6.807511465
 20
3.9681673621
 11
6.807511465
 21
4.4821583781
  0
LINE
  5
3DE
100
AcDbEntity
  8
03__ASM_ALL_CURVES
100
AcDbLine
 62
40
  6
CONTINUOUS
 10
6.5756874212
 20
3.7141636509
 11
6.5699018743
 21
3.7064495888
  0
LINE
  5
3DF
100
AcDbEntity
  8
03__ASM_ALL_CURVES
100
AcDbLine
 62
40
  6
CONTINUOUS
 10
6.5901512884
 20
3.725734746
 11
6.587258515
 21
3.7218777129
  0
LINE
  5
3E0
100
AcDbEntity
  8
03__ASM_ALL_CURVES
100
AcDbLine
 62
40
  6
CONTINUOUS
 10
7.0901536528
 20
4.268361621
 11
7.0872608794
 21
4.2645045879
  0
LINE
  5
3E1
100
AcDbEntity
  8
03__ASM_ALL_CURVES
100
AcDbLine
 62
40
  6
CONTINUOUS
 10
7.1104030669
 20
4.2722186513
 11
7.1161886138
 21
4.2799327148
  0
LINE
  5
3E2
100
AcDbEntity
  8
03__ASM_ALL_CURVES
100
AcDbLine
 62
40
  6
CONTINUOUS
 10
6.7004366214
 20
4.8794563701
 11
6.7081506839
 21
4.874313663
  0
LINE
  5
3E3
100
AcDbEntity
  8
03__ASM_ALL_CURVES
100
AcDbLine
 62
40
  6
CONTINUOUS
 10
6.5808686526
 20
4.874313663
 11
6.5885827151
 21
4.8640282451
  0
LINE
  5
3E4
100
AcDbEntity
  8
03__ASM_ALL_CURVES
100
AcDbLine
 62
40
  6
CONTINUOUS
 10
7.1161886138
 20
4.2413624015
 11
7.1104030669
 21
4.2490764638
  0
LINE
  5
3E5
100
AcDbEntity
  8
03__ASM_ALL_CURVES
100
AcDbLine
 62
40
  6
CONTINUOUS
 10
7.0872608794
 20
4.2799327148
 11
7.0901536528
 21
4.2760756817
  0
LINE
  5
3E6
100
AcDbEntity
  8
03__ASM_ALL_CURVES
100
AcDbLine
 62
40
  6
CONTINUOUS
 10
7.1335452544
 20
4.2799327148
 11
7.1393308013
 21
4.2722186513
  0
LINE
  5
3E7
100
AcDbEntity
  8
03__ASM_ALL_CURVES
100
AcDbLine
 62
40
  6
CONTINUOUS
 10
6.7004366214
 20
4.8486001201
 11
6.7120077151
 21
4.8177438701
  0
LINE
  5
3E8
100
AcDbEntity
  8
03__ASM_ALL_CURVES
100
AcDbLine
 62
40
  6
CONTINUOUS
 10
7.1393308013
 20
4.2490764638
 11
7.1335452544
 21
4.2413624015
  0
LINE
  5
3E9
100
AcDbEntity
  8
03__ASM_ALL_CURVES
100
AcDbLine
 62
40
  6
CONTINUOUS
 10
7.1827224028
 20
4.268361621
 11
7.1798296294
 21
4.2645045879
  0
LINE
  5
3EA
100
AcDbEntity
  8
03__ASM_ALL_CURVES
100
AcDbLine
 62
40
  6
CONTINUOUS
 10
6.7081506839
 20
4.874313663
 11
6.7120077151
 21
4.8691709522
  0
LINE
  5
3EB
100
AcDbEntity
  8
03__ASM_ALL_CURVES
100
AcDbLine
 62
40
  6
CONTINUOUS
 10
7.1798296294
 20
4.2799327148
 11
7.1827224028
 21
4.2760756817
  0
LINE
  5
3EC
100
AcDbEntity
  8
03__ASM_ALL_CURVES
100
AcDbLine
 62
40
  6
CONTINUOUS
 10
7.0670114653
 20
4.2375053701
 11
7.0670114653
 21
4.2837897451
  0
LINE
  5
3ED
100
AcDbEntity
  8
03__ASM_ALL_CURVES
100
AcDbLine
 62
40
  6
CONTINUOUS
 10
7.1075102935
 20
4.2606475576
 11
7.1104030669
 21
4.2722186513
  0
LINE
  5
3EE
100
AcDbEntity
  8
03__ASM_ALL_CURVES
100
AcDbLine
 62
40
  6
CONTINUOUS
 10
7.1740440825
 20
4.2606475576
 11
7.1827224028
 21
4.2375053701
  0
LINE
  5
3EF
100
AcDbEntity
  8
03__ASM_ALL_CURVES
100
AcDbLine
 62
40
  6
CONTINUOUS
 10
7.1104030669
 20
4.2490764638
 11
7.1075102935
 21
4.2606475576
  0
LINE
  5
3F0
100
AcDbEntity
  8
03__ASM_ALL_CURVES
100
AcDbLine
 62
40
  6
CONTINUOUS
 10
7.0901536528
 20
4.2760756817
 11
7.0901536528
 21
4.268361621
  0
LINE
  5
3F1
100
AcDbEntity
  8
03__ASM_ALL_CURVES
100
AcDbLine
 62
40
  6
CONTINUOUS
 10
7.1595802153
 20
4.2375053701
 11
7.1595802153
 21
4.2837897451
  0
LINE
  5
3F2
100
AcDbEntity
  8
03__ASM_ALL_CURVES
100
AcDbLine
 62
40
  6
CONTINUOUS
 10
7.1827224028
 20
4.2760756817
 11
7.1827224028
 21
4.268361621
  0
LINE
  5
3F3
100
AcDbEntity
  8
03__ASM_ALL_CURVES
100
AcDbLine
 62
40
  6
CONTINUOUS
 10
7.1422235747
 20
4.2606475576
 11
7.1393308013
 21
4.2490764638
  0
LINE
  5
3F4
100
AcDbEntity
  8
03__ASM_ALL_CURVES
100
AcDbLine
 62
40
  6
CONTINUOUS
 10
7.1393308013
 20
4.2722186513
 11
7.1422235747
 21
4.2606475576
  0
LINE
  5
3F5
100
AcDbEntity
  8
03__ASM_ALL_CURVES
100
AcDbLine
 62
40
  6
CONTINUOUS
 10
7.2174356841
 20
4.2837897451
 11
7.2174356841
 21
4.2375053701
  0
LINE
  5
3F6
100
AcDbEntity
  8
03__ASM_ALL_CURVES
100
AcDbLine
 62
40
  6
CONTINUOUS
 10
7.2637200591
 20
4.2837897451
 11
7.2637200591
 21
4.2375053701
  0
CIRCLE
  5
3F7
100
AcDbEntity
  8
0
100
AcDbCircle
 62
7
  6
CONTINUOUS
 10
6.478511465
 20
4.2251628701
 40
0.039
  0
ARC
  5
3F8
100
AcDbEntity
  8
0
100
AcDbCircle
 62
7
  6
CONTINUOUS
 10
5.208011465
 20
3.9151628701
 40
0.013
100
AcDbArc
 50
0.0000000006
 51
90.0
  0
ARC
  5
3F9
100
AcDbEntity
  8
0
100
AcDbCircle
 62
7
  6
CONTINUOUS
 10
5.208011465
 20
4.5351628701
 40
0.013
100
AcDbArc
 50
270.0
 51
359.9999999985
  0
ARC
  5
3FA
100
AcDbEntity
  8
0
100
AcDbCircle
 62
7
  6
CONTINUOUS
 10
5.7595059115
 20
3.9406628701
 40
0.013
100
AcDbArc
 50
29.9999999948
 51
90.0
  0
ARC
  5
3FB
100
AcDbEntity
  8
0
100
AcDbCircle
 62
7
  6
CONTINUOUS
 10
5.7595059115
 20
4.5096628701
 40
0.013
100
AcDbArc
 50
270.0
 51
330.0000000004
  0
SPLINE
  5
3FC
100
AcDbEntity
  8
0
100
AcDbSpline
 62
7
  6
CONTINUOUS
 70
0
 71
3
 72
15
 73
11
 74
9
 42
0.0000001
 43
0.0000001
 44
0.0000000001
 12
0.0
 22
0.0785292475
 32
0.0
 13
-0.0
 23
-0.0785292475
 33
0.0
 40
0.0
 40
0.0
 40
0.0
 40
0.0
 40
0.125
 40
0.25
 40
0.375
 40
0.5
 40
0.625
 40
0.75
 40
0.875
 40
1.0
 40
1.0
 40
1.0
 40
1.0
 10
6.698511465
 20
4.4661628701
 30
0.0
 10
6.698511465
 20
4.4694349221
 30
0.0
 10
6.6972097618
 20
4.475979026
 30
0.0
 10
6.6916493562
 20
4.4843007612
 30
0.0
 10
6.683327621
 20
4.4898611669
 30
0.0
 10
6.673511465
 20
4.4918137217
 30
0.0
 10
6.6636953091
 20
4.4898611669
 30
0.0
 10
6.6553735739
 20
4.4843007612
 30
0.0
 10
6.6498131683
 20
4.475979026
 30
0.0
 10
6.648511465
 20
4.4694349221
 30
0.0
 10
6.648511465
 20
4.4661628701
 30
0.0
 11
6.698511465
 21
4.4661628701
 31
0.0
 11
6.6966084534
 21
4.4757299559
 31
0.0
 11
6.6911891346
 21
4.4838405396
 31
0.0
 11
6.6830785509
 21
4.4892598584
 31
0.0
 11
6.673511465
 21
4.4911628701
 31
0.0
 11
6.6639443792
 21
4.4892598584
 31
0.0
 11
6.6558337955
 21
4.4838405396
 31
0.0
 11
6.6504144767
 21
4.4757299559
 31
0.0
 11
6.648511465
 21
4.4661628701
 31
0.0
  0
SPLINE
  5
3FD
100
AcDbEntity
  8
0
100
AcDbSpline
 62
7
  6
CONTINUOUS
 70
0
 71
3
 72
15
 73
11
 74
9
 42
0.0000001
 43
0.0000001
 44
0.0000000001
 12
0.0
 22
-0.0785292475
 32
0.0
 13
-0.0
 23
0.0785292475
 33
0.0
 40
0.0
 40
0.0
 40
0.0
 40
0.0
 40
0.125
 40
0.25
 40
0.375
 40
0.5
 40
0.625
 40
0.75
 40
0.875
 40
1.0
 40
1.0
 40
1.0
 40
1.0
 10
6.698511465
 20
3.9841628701
 30
0.0
 10
6.698511465
 20
3.9808908181
 30
0.0
 10
6.6972097618
 20
3.9743467142
 30
0.0
 10
6.6916493562
 20
3.966024979
 30
0.0
 10
6.683327621
 20
3.9604645733
 30
0.0
 10
6.673511465
 20
3.9585120185
 30
0.0
 10
6.6636953091
 20
3.9604645733
 30
0.0
 10
6.6553735739
 20
3.966024979
 30
0.0
 10
6.6498131683
 20
3.9743467142
 30
0.0
 10
6.648511465
 20
3.9808908181
 30
0.0
 10
6.648511465
 20
3.9841628701
 30
0.0
 11
6.698511465
 21
3.9841628701
 31
0.0
 11
6.6966084534
 21
3.9745957843
 31
0.0
 11
6.6911891346
 21
3.9664852006
 31
0.0
 11
6.6830785509
 21
3.9610658818
 31
0.0
 11
6.673511465
 21
3.9591628701
 31
0.0
 11
6.6639443792
 21
3.9610658818
 31
0.0
 11
6.6558337955
 21
3.9664852006
 31
0.0
 11
6.6504144767
 21
3.9745957843
 31
0.0
 11
6.648511465
 21
3.9841628701
 31
0.0
  0
SPLINE
  5
3FE
100
AcDbEntity
  8
0
100
AcDbSpline
 62
7
  6
CONTINUOUS
 70
0
 71
3
 72
15
 73
11
 74
9
 42
0.0000001
 43
0.0000001
 44
0.0000000001
 12
0.0
 22
0.1099409465
 32
0.0
 13
-0.0
 23
-0.1099409465
 33
0.0
 40
0.0
 40
0.0
 40
0.0
 40
0.0
 40
0.125
 40
0.25
 40
0.375
 40
0.5
 40
0.625
 40
0.75
 40
0.875
 40
1.0
 40
1.0
 40
1.0
 40
1.0
 10
5.697011465
 20
4.5316628701
 30
0.0
 10
5.697011465
 20
4.5362437429
 30
0.0
 10
5.6951890806
 20
4.5454054884
 30
0.0
 10
5.6874045126
 20
4.5570559177
 30
0.0
 10
5.6757540834
 20
4.5648404856
 30
0.0
 10
5.662011465
 20
4.5675740623
 30
0.0
 10
5.6482688467
 20
4.5648404856
 30
0.0
 10
5.6366184175
 20
4.5570559177
 30
0.0
 10
5.6288338495
 20
4.5454054884
 30
0.0
 10
5.627011465
 20
4.5362437429
 30
0.0
 10
5.627011465
 20
4.5316628701
 30
0.0
 11
5.697011465
 21
4.5316628701
 31
0.0
 11
5.6943472487
 21
4.5450567902
 31
0.0
 11
5.6867602024
 21
4.5564116074
 31
0.0
 11
5.6754053852
 21
4.5639986537
 31
0.0
 11
5.662011465
 21
4.5666628701
 31
0.0
 11
5.6486175449
 21
4.5639986537
 31
0.0
 11
5.6372627277
 21
4.5564116074
 31
0.0
 11
5.6296756814
 21
4.5450567902
 31
0.0
 11
5.627011465
 21
4.5316628701
 31
0.0
  0
SPLINE
  5
3FF
100
AcDbEntity
  8
0
100
AcDbSpline
 62
7
  6
CONTINUOUS
 70
0
 71
3
 72
15
 73
11
 74
9
 42
0.0000001
 43
0.0000001
 44
0.0000000001
 12
0.0
 22
-0.1099409465
 32
0.0
 13
-0.0
 23
0.1099409465
 33
0.0
 40
0.0
 40
0.0
 40
0.0
 40
0.0
 40
0.125
 40
0.25
 40
0.375
 40
0.5
 40
0.625
 40
0.75
 40
0.875
 40
1.0
 40
1.0
 40
1.0
 40
1.0
 10
5.697011465
 20
3.9186628701
 30
0.0
 10
5.697011465
 20
3.9140819973
 30
0.0
 10
5.6951890806
 20
3.9049202518
 30
0.0
 10
5.6874045126
 20
3.8932698225
 30
0.0
 10
5.6757540834
 20
3.8854852546
 30
0.0
 10
5.662011465
 20
3.8827516778
 30
0.0
 10
5.6482688467
 20
3.8854852546
 30
0.0
 10
5.6366184175
 20
3.8932698225
 30
0.0
 10
5.6288338495
 20
3.9049202518
 30
0.0
 10
5.627011465
 20
3.9140819973
 30
0.0
 10
5.627011465
 20
3.9186628701
 30
0.0
 11
5.697011465
 21
3.9186628701
 31
0.0
 11
5.6943472487
 21
3.90526895
 31
0.0
 11
5.6867602024
 21
3.8939141328
 31
0.0
 11
5.6754053852
 21
3.8863270865
 31
0.0
 11
5.662011465
 21
3.8836628701
 31
0.0
 11
5.6486175449
 21
3.8863270865
 31
0.0
 11
5.6372627277
 21
3.8939141328
 31
0.0
 11
5.6296756814
 21
3.90526895
 31
0.0
 11
5.627011465
 21
3.9186628701
 31
0.0
  0
SPLINE
  5
400
100
AcDbEntity
  8
0
100
AcDbSpline
 62
7
  6
CONTINUOUS
 70
0
 71
3
 72
15
 73
11
 74
9
 42
0.0000001
 43
0.0000001
 44
0.0000000001
 12
0.0
 22
0.1099409465
 32
0.0
 13
-0.0
 23
-0.1099409465
 33
0.0
 40
0.0
 40
0.0
 40
0.0
 40
0.0
 40
0.125
 40
0.25
 40
0.375
 40
0.5
 40
0.625
 40
0.75
 40
0.875
 40
1.0
 40
1.0
 40
1.0
 40
1.0
 10
5.200011465
 20
4.5571628701
 30
0.0
 10
5.200011465
 20
4.5617437429
 30
0.0
 10
5.1981890806
 20
4.5709054884
 30
0.0
 10
5.1904045126
 20
4.5825559177
 30
0.0
 10
5.1787540834
 20
4.5903404856
 30
0.0
 10
5.165011465
 20
4.5930740623
 30
0.0
 10
5.1512688467
 20
4.5903404856
 30
0.0
 10
5.1396184175
 20
4.5825559177
 30
0.0
 10
5.1318338495
 20
4.5709054884
 30
0.0
 10
5.130011465
 20
4.5617437429
 30
0.0
 10
5.130011465
 20
4.5571628701
 30
0.0
 11
5.200011465
 21
4.5571628701
 31
0.0
 11
5.1973472487
 21
4.5705567902
 31
0.0
 11
5.1897602024
 21
4.5819116074
 31
0.0
 11
5.1784053852
 21
4.5894986537
 31
0.0
 11
5.165011465
 21
4.5921628701
 31
0.0
 11
5.1516175449
 21
4.5894986537
 31
0.0
 11
5.1402627277
 21
4.5819116074
 31
0.0
 11
5.1326756814
 21
4.5705567902
 31
0.0
 11
5.130011465
 21
4.5571628701
 31
0.0
  0
SPLINE
  5
401
100
AcDbEntity
  8
0
100
AcDbSpline
 62
7
  6
CONTINUOUS
 70
0
 71
3
 72
15
 73
11
 74
9
 42
0.0000001
 43
0.0000001
 44
0.0000000001
 12
0.0
 22
-0.1099409465
 32
0.0
 13
-0.0
 23
0.1099409465
 33
0.0
 40
0.0
 40
0.0
 40
0.0
 40
0.0
 40
0.125
 40
0.25
 40
0.375
 40
0.5
 40
0.625
 40
0.75
 40
0.875
 40
1.0
 40
1.0
 40
1.0
 40
1.0
 10
5.200011465
 20
3.8931628701
 30
0.0
 10
5.200011465
 20
3.8885819973
 30
0.0
 10
5.1981890806
 20
3.8794202518
 30
0.0
 10
5.1904045126
 20
3.8677698225
 30
0.0
 10
5.1787540834
 20
3.8599852546
 30
0.0
 10
5.165011465
 20
3.8572516778
 30
0.0
 10
5.1512688467
 20
3.8599852546
 30
0.0
 10
5.1396184175
 20
3.8677698225
 30
0.0
 10
5.1318338495
 20
3.8794202518
 30
0.0
 10
5.130011465
 20
3.8885819973
 30
0.0
 10
5.130011465
 20
3.8931628701
 30
0.0
 11
5.200011465
 21
3.8931628701
 31
0.0
 11
5.1973472487
 21
3.87976895
 31
0.0
 11
5.1897602024
 21
3.8684141328
 31
0.0
 11
5.1784053852
 21
3.8608270865
 31
0.0
 11
5.165011465
 21
3.8581628701
 31
0.0
 11
5.1516175449
 21
3.8608270865
 31
0.0
 11
5.1402627277
 21
3.8684141328
 31
0.0
 11
5.1326756814
 21
3.87976895
 31
0.0
 11
5.130011465
 21
3.8931628701
 31
0.0
  0
SPLINE
  5
402
100
AcDbEntity
  8
0
100
AcDbSpline
 62
7
  6
CONTINUOUS
 70
0
 71
3
 72
9
 73
5
 74
3
 42
0.0000001
 43
0.0000001
 44
0.0000000001
 12
-0.0077978517
 22
0.0
 32
0.0
 13
-0.0075223938
 23
-0.0021440032
 33
0.0
 40
0.0
 40
0.0
 40
0.0
 40
0.0
 40
0.9127744523
 40
1.0
 40
1.0
 40
1.0
 40
1.0
 10
6.477511465
 20
4.1885224896
 30
0.0
 10
6.4751389051
 20
4.1885224896
 30
0.0
 10
6.4725277504
 20
4.1881888705
 30
0.0
 10
6.4700113723
 20
4.1875044873
 30
0.0
 10
6.4697926574
 20
4.18744215
 30
0.0
 11
6.477511465
 21
4.1885224896
 31
0.0
 11
6.4704510783
 21
4.18762121
 31
0.0
 11
6.4697926574
 21
4.18744215
 31
0.0
  0
SPLINE
  5
403
100
AcDbEntity
  8
0
100
AcDbSpline
 62
7
  6
CONTINUOUS
 70
0
 71
3
 72
9
 73
5
 74
3
 42
0.0000001
 43
0.0000001
 44
0.0000000001
 12
0.008577252
 22
0.0
 32
0.0
 13
0.0082040518
 23
0.0025859771
 33
0.0
 40
0.0
 40
0.0
 40
0.0
 40
0.0
 40
0.8298321895
 40
1.0
 40
1.0
 40
1.0
 40
1.0
 10
6.477511465
 20
4.2618032506
 30
0.0
 10
6.479884025
 20
4.2618032506
 30
0.0
 10
6.4827561663
 20
4.2621702151
 30
0.0
 10
6.4855136382
 20
4.2629615662
 30
0.0
 10
6.4859789933
 20
4.2631082495
 30
0.0
 11
6.477511465
 21
4.2618032506
 31
0.0
 11
6.4845718518
 21
4.2627045302
 31
0.0
 11
6.4859789933
 21
4.2631082495
 31
0.0
  0
SPLINE
  5
404
100
AcDbEntity
  8
0
100
AcDbSpline
 62
7
  6
CONTINUOUS
 70
0
 71
3
 72
9
 73
5
 74
3
 42
0.0000001
 43
0.0000001
 44
0.0000000001
 12
0.0075410409
 22
-0.0021554284
 32
0.0
 13
0.0078188984
 23
0.0
 33
0.0
 40
0.0
 40
0.0
 40
0.0
 40
0.0
 40
0.0896159915
 40
1.0
 40
1.0
 40
1.0
 40
1.0
 10
6.4697723535
 20
4.2628893853
 30
0.0
 10
6.4699976195
 20
4.2628249984
 30
0.0
 10
6.4725205278
 20
4.2621377951
 30
0.0
 10
6.4751387317
 20
4.2618032506
 30
0.0
 10
6.477511465
 20
4.2618032506
 30
0.0
 11
6.4697723535
 21
4.2628893853
 31
0.0
 11
6.4704505706
 21
4.2627046618
 31
0.0
 11
6.477511465
 21
4.2618032506
 31
0.0
  0
SPLINE
  5
405
100
AcDbEntity
  8
0
100
AcDbSpline
 62
7
  6
CONTINUOUS
 70
0
 71
3
 72
9
 73
5
 74
3
 42
0.0000001
 43
0.0000001
 44
0.0000000001
 12
-0.0081682072
 22
0.0025614596
 32
0.0
 13
-0.0085357333
 23
0.0
 33
0.0
 40
0.0
 40
0.0
 40
0.0
 40
0.0
 40
0.166070501
 40
1.0
 40
1.0
 40
1.0
 40
1.0
 10
6.485939275
 20
4.1872299781
 30
0.0
 10
6.4854871089
 20
4.1873717724
 30
0.0
 10
6.4827424386
 20
4.1881572742
 30
0.0
 10
6.4798841983
 20
4.1885224896
 30
0.0
 10
6.477511465
 20
4.1885224896
 30
0.0
 11
6.485939275
 21
4.1872299781
 31
0.0
 11
6.4845723592
 21
4.1876210785
 31
0.0
 11
6.477511465
 21
4.1885224896
 31
0.0
  0
SPLINE
  5
406
100
AcDbEntity
  8
0
100
AcDbSpline
 62
7
  6
CONTINUOUS
 70
0
 71
3
 72
13
 73
9
 74
7
 42
0.0000001
 43
0.0000001
 44
0.0000000001
 12
0.0000094967
 22
-0.0323484573
 32
0.0
 13
0.0321165485
 23
-0.0
 33
0.0
 40
0.0
 40
0.0
 40
0.0
 40
0.0
 40
0.074000667
 40
0.2305562836
 40
0.403174645
 40
0.5920176714
 40
0.7929300387
 40
1.0
 40
1.0
 40
1.0
 40
1.0
 10
6.4140146542
 20
4.3902723035
 30
0.0
 10
6.4140148885
 20
4.3894743677
 30
0.0
 10
6.4142632205
 20
4.386986898
 30
0.0
 10
6.4159800229
 20
4.3829247793
 30
0.0
 10
6.4197119397
 20
4.3787146469
 30
0.0
 10
6.424823316
 20
4.3754114907
 30
0.0
 10
6.4309110018
 20
4.3732991701
 30
0.0
 10
6.4352946742
 20
4.3728169781
 30
0.0
 10
6.437511465
 20
4.3728169781
 30
0.0
 11
6.4140146542
 21
4.3902723035
 31
0.0
 11
6.4142498573
 21
4.3878945332
 31
0.0
 11
6.4161309798
 21
4.383231656
 31
0.0
 11
6.4197504184
 21
4.3790323039
 31
0.0
 11
6.4248152891
 21
4.3756959672
 31
0.0
 11
6.4309020811
 21
4.3735542013
 31
0.0
 11
6.437511465
 21
4.3728169781
 31
0.0
  0
SPLINE
  5
407
100
AcDbEntity
  8
0
100
AcDbSpline
 62
7
  6
CONTINUOUS
 70
0
 71
3
 72
13
 73
9
 74
7
 42
0.0000001
 43
0.0000001
 44
0.0000000001
 12
-0.0433026208
 22
0.0
 32
0.0
 13
0.0000358532
 23
-0.0435126554
 33
0.0
 40
0.0
 40
0.0
 40
0.0
 40
0.0
 40
0.1887246528
 40
0.3734906692
 40
0.5497612168
 40
0.7134507508
 40
0.8627328786
 40
1.0
 40
1.0
 40
1.0
 40
1.0
 10
6.455511465
 20
4.0838366115
 30
0.0
 10
6.4527873744
 20
4.0838366115
 30
0.0
 10
6.4473789285
 20
4.0832729161
 30
0.0
 10
6.4397779368
 20
4.0807978591
 30
0.0
 10
6.4332035256
 20
4.0769044456
 30
0.0
 10
6.4281013582
 20
4.0719118685
 30
0.0
 10
6.4248180384
 20
4.0661907523
 30
0.0
 10
6.4240098246
 20
4.062044389
 30
0.0
 10
6.424011465
 20
4.0600534367
 30
0.0
 11
6.455511465
 21
4.0838366115
 31
0.0
 11
6.4473840494
 21
4.082981541
 31
0.0
 11
6.4397830964
 21
4.0804837104
 31
0.0
 11
6.4332378754
 21
4.076556572
 31
0.0
 11
6.4282196153
 21
4.0715506312
 31
0.0
 11
6.4250782026
 21
4.065900959
 31
0.0
 11
6.424011465
 21
4.0600534367
 31
0.0
  0
SPLINE
  5
408
100
AcDbEntity
  8
0
100
AcDbSpline
 62
7
  6
CONTINUOUS
 70
0
 71
3
 72
9
 73
5
 74
3
 42
0.0000001
 43
0.0000001
 44
0.0000000001
 12
0.0004109164
 22
-0.0004902576
 32
0.0
 13
0.0004107114
 23
-0.0004904293
 33
0.0
 40
0.0
 40
0.0
 40
0.0
 40
0.0
 40
0.5119211797
 40
1.0
 40
1.0
 40
1.0
 40
1.0
 10
6.548011465
 20
3.9921532136
 30
0.0
 10
6.548081584
 20
3.9920695559
 30
0.0
 10
6.5482185386
 20
3.991906122
 30
0.0
 10
6.548355459
 20
3.9917426595
 30
0.0
 10
6.5484222788
 20
3.9916628701
 30
0.0
 11
6.548011465
 21
3.9921532136
 31
0.0
 11
6.5482217949
 21
3.9919022178
 31
0.0
 11
6.5484222788
 21
3.9916628701
 31
0.0
  0
SPLINE
  5
409
100
AcDbEntity
  8
0
100
AcDbSpline
 62
7
  6
CONTINUOUS
 70
0
 71
3
 72
13
 73
9
 74
7
 42
0.0000001
 43
0.0000001
 44
0.0000000001
 12
0.0000358522
 22
0.0435126551
 32
0.0
 13
-0.0433026208
 23
0.0
 33
0.0
 40
0.0
 40
0.0
 40
0.0
 40
0.0
 40
0.1372672421
 40
0.286549089
 40
0.4502381155
 40
0.6265088584
 40
0.8112750644
 40
1.0
 40
1.0
 40
1.0
 40
1.0
 10
6.487011465
 20
4.0600534367
 30
0.0
 10
6.4870131055
 20
4.0620443907
 30
0.0
 10
6.4862048914
 20
4.0661907518
 30
0.0
 10
6.4829215771
 20
4.0719118593
 30
0.0
 10
6.4778194196
 20
4.0769044337
 30
0.0
 10
6.4712450125
 20
4.0807978512
 30
0.0
 10
6.4636440125
 20
4.0832729145
 30
0.0
 10
6.4582355598
 20
4.0838366115
 30
0.0
 10
6.455511465
 20
4.0838366115
 30
0.0
 11
6.487011465
 21
4.0600534367
 31
0.0
 11
6.4859447257
 21
4.065900964
 31
0.0
 11
6.4828033191
 21
4.0715506257
 31
0.0
 11
6.4777850777
 21
4.0765565542
 31
0.0
 11
6.4712398525
 21
4.0804837018
 31
0.0
 11
6.4636388928
 21
4.0829815385
 31
0.0
 11
6.455511465
 21
4.0838366115
 31
0.0
  0
SPLINE
  5
40A
100
AcDbEntity
  8
0
100
AcDbSpline
 62
7
  6
CONTINUOUS
 70
0
 71
3
 72
13
 73
9
 74
7
 42
0.0000001
 43
0.0000001
 44
0.0000000001
 12
0.0321165484
 22
0.0
 32
0.0
 13
0.000009497
 23
0.0323484572
 33
0.0
 40
0.0
 40
0.0
 40
0.0
 40
0.0
 40
0.2070704746
 40
0.4079827408
 40
0.5968255554
 40
0.769443746
 40
0.9259993342
 40
1.0
 40
1.0
 40
1.0
 40
1.0
 10
6.437511465
 20
4.3728169781
 30
0.0
 10
6.4397282614
 20
4.3728169781
 30
0.0
 10
6.4441119383
 20
4.3732991718
 30
0.0
 10
6.4501996249
 20
4.3754114964
 30
0.0
 10
6.4553109954
 20
4.3787146518
 30
0.0
 10
6.4590429082
 20
4.3829247815
 30
0.0
 10
6.4607597096
 20
4.3869868983
 30
0.0
 10
6.4610080416
 20
4.3894743676
 30
0.0
 10
6.4610082759
 20
4.3902723034
 30
0.0
 11
6.437511465
 21
4.3728169781
 31
0.0
 11
6.4441208651
 21
4.373554205
 31
0.0
 11
6.450207653
 21
4.3756959731
 31
0.0
 11
6.4552725166
 21
4.3790323081
 31
0.0
 11
6.4588919508
 21
4.3832316567
 31
0.0
 11
6.4607730728
 21
4.3878945332
 31
0.0
 11
6.4610082759
 21
4.3902723034
 31
0.0
  0
SPLINE
  5
40B
100
AcDbEntity
  8
0
100
AcDbSpline
 62
7
  6
CONTINUOUS
 70
0
 71
3
 72
22
 73
18
 74
16
 42
0.0000001
 43
0.0000001
 44
0.0000000001
 12
0.0902789772
 22
0.0181718024
 32
0.0
 13
0.0904549388
 23
-0.0172750127
 33
0.0
 40
0.0
 40
0.0
 40
0.0
 40
0.0
 40
0.0112861836
 40
0.0446944847
 40
0.0985458208
 40
0.1699536109
 40
0.256220748
 40
0.3539947413
 40
0.4591736204
 40
0.5626656939
 40
0.6585547596
 40
0.74216482
 40
0.8134356974
 40
0.8742604237
 40
0.9260154336
 40
0.9684178149
 40
1.0
 40
1.0
 40
1.0
 40
1.0
 10
6.456511465
 20
3.9916628701
 30
0.0
 10
6.4568511001
 20
3.9917312335
 30
0.0
 10
6.4581966377
 20
3.991999254
 30
0.0
 10
6.4611680824
 20
3.9925664436
 30
0.0
 10
6.4659664486
 20
3.9934037095
 30
0.0
 10
6.4723879378
 20
3.9943708639
 30
0.0
 10
6.4801748966
 20
3.9953055855
 30
0.0
 10
6.4890241883
 20
3.9960466897
 30
0.0
 10
6.4984250524
 20
3.9964526929
 30
0.0
 10
6.507776721
 20
3.9964636547
 30
0.0
 10
6.5164591452
 20
3.9961252571
 30
0.0
 10
6.5241368311
 20
3.9955502712
 30
0.0
 10
6.5307225132
 20
3.9948550724
 30
0.0
 10
6.5363184969
 20
3.9941197218
 30
0.0
 10
6.5410213805
 20
3.9933994462
 30
0.0
 10
6.5448260078
 20
3.992748393
 30
0.0
 10
6.5470592102
 20
3.9923350745
 30
0.0
 10
6.548011465
 20
3.9921532136
 30
0.0
 11
6.456511465
 21
3.9916628701
 31
0.0
 11
6.4575307823
 21
3.9918659066
 31
0.0
 11
6.4605528001
 21
3.9924426585
 31
0.0
 11
6.465438203
 21
3.993294754
 31
0.0
 11
6.4719408996
 21
3.9942733931
 31
0.0
 11
6.4798287244
 21
3.9952191331
 31
0.0
 11
6.4888013922
 21
3.9959694229
 31
0.0
 11
6.4984783008
 21
3.9963865979
 31
0.0
 11
6.5080088534
 21
3.996397758
 31
0.0
 11
6.5168325745
 21
3.9960543762
 31
0.0
 11
6.5245107507
 21
3.9954800018
 31
0.0
 11
6.5310378592
 21
3.9947915343
 31
0.0
 11
6.5365915023
 21
3.9940621586
 31
0.0
 11
6.5413027169
 21
3.9933408938
 31
0.0
 11
6.5451516242
 21
3.9926824347
 31
0.0
 11
6.548011465
 21
3.9921532136
 31
0.0
  0
SPLINE
  5
40C
100
AcDbEntity
  8
0
100
AcDbSpline
 62
7
  6
CONTINUOUS
 70
0
 71
3
 72
13
 73
9
 74
7
 42
0.0000001
 43
0.0000001
 44
0.0000000001
 12
0.0415847443
 22
0.0
 32
0.0
 13
0.0000344299
 23
0.0417864463
 33
0.0
 40
0.0
 40
0.0
 40
0.0
 40
0.0
 40
0.1960725422
 40
0.3847409261
 40
0.559619679
 40
0.7177595614
 40
0.8617940777
 40
1.0
 40
1.0
 40
1.0
 40
1.0
 10
6.455511465
 20
4.0392888842
 30
0.0
 10
6.4582293406
 20
4.0392888842
 30
0.0
 10
6.4635729319
 20
4.0397066262
 30
0.0
 10
6.471138799
 20
4.0415882092
 30
0.0
 10
6.477736829
 20
4.0446850826
 30
0.0
 10
6.482921127
 20
4.0489285844
 30
0.0
 10
6.4862643347
 20
4.0541881454
 30
0.0
 10
6.4870098789
 20
4.0581283919
 30
0.0
 10
6.487011465
 20
4.0600534367
 30
0.0
 11
6.455511465
 21
4.0392888842
 31
0.0
 11
6.4636388807
 21
4.0399421378
 31
0.0
 11
6.4712398337
 21
4.0418866012
 31
0.0
 11
6.4777850547
 21
4.0450561846
 31
0.0
 11
6.4828033148
 21
4.049306309
 31
0.0
 11
6.4859447275
 21
4.0544060439
 31
0.0
 11
6.487011465
 21
4.0600534367
 31
0.0
  0
SPLINE
  5
40D
100
AcDbEntity
  8
0
100
AcDbSpline
 62
7
  6
CONTINUOUS
 70
0
 71
3
 72
13
 73
9
 74
7
 42
0.0000001
 43
0.0000001
 44
0.0000000001
 12
-0.0311644749
 22
0.0
 32
0.0
 13
0.0000092152
 23
-0.031389509
 33
0.0
 40
0.0
 40
0.0
 40
0.0
 40
0.0
 40
0.2129658013
 40
0.416497718
 40
0.6032623712
 40
0.7709523159
 40
0.924749747
 40
1.0
 40
1.0
 40
1.0
 40
1.0
 10
6.437511465
 20
4.4060509968
 30
0.0
 10
6.4352991426
 20
4.4060509968
 30
0.0
 10
6.4309614666
 20
4.4056661889
 30
0.0
 10
6.424893921
 20
4.4039412106
 30
0.0
 10
6.4197548987
 20
4.4011312929
 30
0.0
 10
6.4159580926
 20
4.39732814
 30
0.0
 10
6.4142492448
 20
4.3934548709
 30
0.0
 10
6.4140144231
 20
4.3910596597
 30
0.0
 10
6.4140146542
 20
4.3902723035
 30
0.0
 11
6.437511465
 21
4.4060509968
 31
0.0
 11
6.430902065
 21
4.4054467067
 31
0.0
 11
6.4248152771
 21
4.4036622676
 31
0.0
 11
6.4197504135
 21
4.4007944334
 31
0.0
 11
6.4161309793
 21
4.3970247585
 31
0.0
 11
6.4142498573
 21
4.3926163139
 31
0.0
 11
6.4140146542
 21
4.3902723035
 31
0.0
  0
SPLINE
  5
40E
100
AcDbEntity
  8
0
100
AcDbSpline
 62
7
  6
CONTINUOUS
 70
0
 71
3
 72
13
 73
9
 74
7
 42
0.0000001
 43
0.0000001
 44
0.0000000001
 12
0.0000344308
 22
-0.0417864467
 32
0.0
 13
0.0415847444
 23
0.0
 33
0.0
 40
0.0
 40
0.0
 40
0.0
 40
0.0
 40
0.1382060399
 40
0.2822402849
 40
0.4403796689
 40
0.615258598
 40
0.8039271657
 40
1.0
 40
1.0
 40
1.0
 40
1.0
 10
6.424011465
 20
4.0600534367
 30
0.0
 10
6.4240130512
 20
4.0581283903
 30
0.0
 10
6.4247585957
 20
4.0541881458
 30
0.0
 10
6.4281017979
 20
4.0489285929
 30
0.0
 10
6.4332860856
 20
4.0446850925
 30
0.0
 10
6.4398841122
 20
4.0415882152
 30
0.0
 10
6.4474499875
 20
4.0397066273
 30
0.0
 10
6.4527935855
 20
4.0392888842
 30
0.0
 10
6.455511465
 20
4.0392888842
 30
0.0
 11
6.424011465
 21
4.0600534367
 31
0.0
 11
6.4250782044
 21
4.0544060393
 31
0.0
 11
6.428219611
 21
4.0493063139
 31
0.0
 11
6.4332378524
 21
4.0450561993
 31
0.0
 11
6.4397830776
 21
4.0418866079
 31
0.0
 11
6.4473840373
 21
4.0399421398
 31
0.0
 11
6.455511465
 21
4.0392888842
 31
0.0
  0
SPLINE
  5
40F
100
AcDbEntity
  8
0
100
AcDbSpline
 62
7
  6
CONTINUOUS
 70
0
 71
3
 72
13
 73
9
 74
7
 42
0.0000001
 43
0.0000001
 44
0.0000000001
 12
0.0000092155
 22
0.031389509
 32
0.0
 13
-0.031164475
 23
0.0
 33
0.0
 40
0.0
 40
0.0
 40
0.0
 40
0.0
 40
0.0752502544
 40
0.2290477131
 40
0.3967378248
 40
0.583502695
 40
0.7870347244
 40
1.0
 40
1.0
 40
1.0
 40
1.0
 10
6.4610082759
 20
4.3902723034
 30
0.0
 10
6.461008507
 20
4.3910596596
 30
0.0
 10
6.4607736853
 20
4.3934548711
 30
0.0
 10
6.4590648365
 20
4.3973281421
 30
0.0
 10
6.4552680263
 20
4.4011312973
 30
0.0
 10
6.4501289981
 20
4.4039412153
 30
0.0
 10
6.4440614537
 20
4.4056661902
 30
0.0
 10
6.439723782
 20
4.4060509968
 30
0.0
 10
6.437511465
 20
4.4060509968
 30
0.0
 11
6.4610082759
 21
4.3902723034
 31
0.0
 11
6.4607730728
 21
4.3926163138
 31
0.0
 11
6.4588919503
 21
4.3970247592
 31
0.0
 11
6.4552725117
 21
4.4007944371
 31
0.0
 11
6.450207641
 21
4.4036622725
 31
0.0
 11
6.444120849
 21
4.4054467097
 31
0.0
 11
6.437511465
 21
4.4060509968
 31
0.0
  0
SPLINE
  5
410
100
AcDbEntity
  8
124-300_FEATURES
100
AcDbSpline
 62
7
  6
CONTINUOUS
 70
0
 71
3
 72
13
 73
9
 74
7
 42
0.0000001
 43
0.0000001
 44
0.0000000001
 12
0.0140696923
 22
-0.0000603219
 32
0.0
 13
0.0
 23
-0.0140789145
 33
0.0
 40
0.0
 40
0.0
 40
0.0
 40
0.0
 40
0.0930667729
 40
0.2129940927
 40
0.3653236373
 40
0.5516845041
 40
0.7640859766
 40
1.0
 40
1.0
 40
1.0
 40
1.0
 10
5.52573311
 20
4.2376627709
 30
0.0
 10
5.5261695836
 20
4.2376608995
 30
0.0
 10
5.5271619241
 20
4.2372143378
 30
0.0
 10
5.5281947672
 20
4.235813245
 30
0.0
 10
5.5290697199
 20
4.2338365214
 30
0.0
 10
5.5297306746
 20
4.2313272045
 30
0.0
 10
5.530162512
 20
4.2283757296
 30
0.0
 10
5.5302611197
 20
4.2262700079
 30
0.0
 10
5.5302611197
 20
4.2251628701
 30
0.0
 11
5.52573311
 21
4.2376627709
 31
0.0
 11
5.5269622902
 21
4.2371999524
 31
0.0
 11
5.5280545905
 21
4.2359124232
 31
0.0
 11
5.5289562577
 21
4.2339665419
 31
0.0
 11
5.5296542446
 21
4.2314373277
 31
0.0
 11
5.5301001781
 21
4.2284803819
 31
0.0
 11
5.5302611197
 21
4.2251628701
 31
0.0
  0
SPLINE
  5
411
100
AcDbEntity
  8
124-300_FEATURES
100
AcDbSpline
 62
7
  6
CONTINUOUS
 70
0
 71
3
 72
13
 73
9
 74
7
 42
0.0000001
 43
0.0000001
 44
0.0000000001
 12
0.0
 22
-0.0140895551
 32
0.0
 13
-0.0140922771
 23
-0.000031899
 33
0.0
 40
0.0
 40
0.0
 40
0.0
 40
0.0
 40
0.2701659031
 40
0.4951736676
 40
0.6777377349
 40
0.8182821079
 40
0.923376285
 40
1.0
 40
1.0
 40
1.0
 40
1.0
 10
5.5302611197
 20
4.2251628701
 30
0.0
 10
5.5302611197
 20
4.223894031
 30
0.0
 10
5.5301366428
 20
4.2215657274
 30
0.0
 10
5.5296138031
 20
4.2184199023
 30
0.0
 10
5.5288717249
 20
4.2159439094
 30
0.0
 10
5.527965989
 20
4.2141370956
 30
0.0
 10
5.5269478255
 20
4.2129723558
 30
0.0
 10
5.5260907806
 20
4.2126637652
 30
0.0
 10
5.5257308464
 20
4.2126629505
 30
0.0
 11
5.5302611197
 21
4.2251628701
 31
0.0
 11
5.5300486318
 21
4.2213622881
 31
0.0
 11
5.5295087116
 21
4.2182383435
 31
0.0
 11
5.5287363017
 21
4.2157848083
 31
0.0
 11
5.5278070349
 21
4.2140361844
 31
0.0
 11
5.5267632457
 21
4.2129859149
 31
0.0
 11
5.5257308464
 21
4.2126629505
 31
0.0
  0
SPLINE
  5
412
100
AcDbEntity
  8
124-300_FEATURES
100
AcDbSpline
 62
7
  6
CONTINUOUS
 70
0
 71
3
 72
13
 73
9
 74
7
 42
0.0000001
 43
0.0000001
 44
0.0000000001
 12
0.0
 22
0.0210734918
 32
0.0
 13
0.0210726593
 23
0.0001873188
 33
0.0
 40
0.0
 40
0.0
 40
0.0
 40
0.0
 40
0.1846407216
 40
0.3550197691
 40
0.5182844228
 40
0.6782671009
 40
0.8393010184
 40
1.0
 40
1.0
 40
1.0
 40
1.0
 10
5.5112520455
 20
4.2251628701
 30
0.0
 10
5.5112520455
 20
4.2264598783
 30
0.0
 10
5.5117253104
 20
4.2289762388
 30
0.0
 10
5.5135736579
 20
4.2321740491
 30
0.0
 10
5.5160932936
 20
4.2346115374
 30
0.0
 10
5.5190527148
 20
4.236346128
 30
0.0
 10
5.5222924992
 20
4.2374018642
 30
0.0
 10
5.5245570172
 20
4.2376521774
 30
0.0
 10
5.5256858022
 20
4.2376622114
 30
0.0
 11
5.5112520455
 21
4.2251628701
 31
0.0
 11
5.5119587755
 21
4.2289891746
 31
0.0
 11
5.5137328501
 21
4.2321107473
 31
0.0
 11
5.5161930528
 21
4.2345159149
 31
0.0
 11
5.519095289
 21
4.2362315256
 31
0.0
 11
5.522319979
 21
4.2372886609
 31
0.0
 11
5.5256858022
 21
4.2376622114
 31
0.0
  0
SPLINE
  5
413
100
AcDbEntity
  8
124-300_FEATURES
100
AcDbSpline
 62
7
  6
CONTINUOUS
 70
0
 71
3
 72
12
 73
8
 74
6
 42
0.0000001
 43
0.0000001
 44
0.0000000001
 12
-0.0210513161
 22
0.000187129
 32
0.0
 13
0.0
 23
0.0210521478
 33
0.0
 40
0.0
 40
0.0
 40
0.0
 40
0.0
 40
0.2241223575
 40
0.4354676314
 40
0.633588804
 40
0.8213659488
 40
1.0
 40
1.0
 40
1.0
 40
1.0
 10
5.5256858022
 20
4.2126635288
 30
0.0
 10
5.524113112
 20
4.2126775087
 30
0.0
 10
5.5210430789
 20
4.2131398946
 30
0.0
 10
5.5169510325
 20
4.2150197218
 30
0.0
 10
5.5137578618
 20
4.2178350011
 30
0.0
 10
5.5117219646
 20
4.2213170637
 30
0.0
 10
5.5112520455
 20
4.2239093266
 30
0.0
 10
5.5112520455
 20
4.2251628701
 30
0.0
 11
5.5256858022
 21
4.2126635288
 31
0.0
 11
5.5210212239
 21
4.2133732174
 31
0.0
 11
5.5169869282
 21
4.2152495114
 31
0.0
 11
5.5138795603
 21
4.218031682
 31
0.0
 11
5.5119126189
 21
4.2214607107
 31
0.0
 11
5.5112520455
 21
4.2251628701
 31
0.0
  0
SPLINE
  5
414
100
AcDbEntity
  8
0
100
AcDbSpline
 62
7
  6
CONTINUOUS
 70
0
 71
3
 72
14
 73
10
 74
8
 42
0.0000001
 43
0.0000001
 44
0.0000000001
 12
-0.0985887972
 22
0.1829392415
 32
0.0
 13
0.0985887972
 23
0.1829392415
 33
0.0
 40
0.0
 40
0.0
 40
0.0
 40
0.0
 40
0.1543136563
 40
0.2968077048
 40
0.4329665627
 40
0.5671436571
 40
0.703295874
 40
0.8457287423
 40
1.0
 40
1.0
 40
1.0
 40
1.0
 10
4.3693223542
 20
3.8014693888
 30
0.0
 10
4.3642511549
 20
3.8108793965
 30
0.0
 10
4.3553216057
 20
3.8294520856
 30
0.0
 10
4.3457436866
 20
3.8579709075
 30
0.0
 10
4.3408294878
 20
3.8862733046
 30
0.0
 10
4.3408315311
 20
3.9145749681
 30
0.0
 10
4.3457485553
 20
3.9428720408
 30
0.0
 10
4.3553258974
 20
3.9713828522
 30
0.0
 10
4.3642525483
 20
3.9899489291
 30
0.0
 10
4.3693223542
 20
3.9993563514
 30
0.0
 11
4.3693223542
 21
3.8014693888
 31
0.0
 11
4.3556049311
 21
3.8304559386
 31
0.0
 11
4.34634809
 21
3.8585841069
 31
0.0
 11
4.3416225792
 21
3.8864823957
 31
0.0
 11
4.3416245387
 21
3.9143662287
 31
0.0
 11
4.3463533523
 21
3.942262558
 31
0.0
 11
4.355608235
 21
3.9703779859
 31
0.0
 11
4.3693223542
 21
3.9993563514
 31
0.0
  0
SPLINE
  5
415
100
AcDbEntity
  8
0
100
AcDbSpline
 62
7
  6
CONTINUOUS
 70
0
 71
3
 72
14
 73
10
 74
8
 42
0.0000001
 43
0.0000001
 44
0.0000000001
 12
0.0985887972
 22
0.1829392415
 32
0.0
 13
-0.0985887972
 23
0.1829392415
 33
0.0
 40
0.0
 40
0.0
 40
0.0
 40
0.0
 40
0.1543136563
 40
0.2968077048
 40
0.4329665627
 40
0.5671436571
 40
0.703295874
 40
0.8457287423
 40
1.0
 40
1.0
 40
1.0
 40
1.0
 10
4.8495762203
 20
3.8014693888
 30
0.0
 10
4.8546474195
 20
3.8108793965
 30
0.0
 10
4.8635769687
 20
3.8294520856
 30
0.0
 10
4.8731548878
 20
3.8579709075
 30
0.0
 10
4.8780690867
 20
3.8862733046
 30
0.0
 10
4.8780670433
 20
3.9145749681
 30
0.0
 10
4.8731500191
 20
3.9428720408
 30
0.0
 10
4.863572677
 20
3.9713828522
 30
0.0
 10
4.8546460262
 20
3.9899489291
 30
0.0
 10
4.8495762203
 20
3.9993563514
 30
0.0
 11
4.8495762203
 21
3.8014693888
 31
0.0
 11
4.8632936433
 21
3.8304559386
 31
0.0
 11
4.8725504845
 21
3.8585841069
 31
0.0
 11
4.8772759952
 21
3.8864823957
 31
0.0
 11
4.8772740358
 21
3.9143662287
 31
0.0
 11
4.8725452222
 21
3.942262558
 31
0.0
 11
4.8632903395
 21
3.9703779859
 31
0.0
 11
4.8495762203
 21
3.9993563514
 31
0.0
  0
SPLINE
  5
416
100
AcDbEntity
  8
0
100
AcDbSpline
 62
7
  6
CONTINUOUS
 70
0
 71
3
 72
14
 73
10
 74
8
 42
0.0000001
 43
0.0000001
 44
0.0000000001
 12
-0.1043021713
 22
0.3870817098
 32
0.0
 13
0.1043021713
 23
0.3870817098
 33
0.0
 40
0.0
 40
0.0
 40
0.0
 40
0.0
 40
0.1486048123
 40
0.2908212029
 40
0.4305019247
 40
0.5696122626
 40
0.7092839394
 40
0.8514368192
 40
1.0
 40
1.0
 40
1.0
 40
1.0
 10
4.3693223542
 20
4.0272759074
 30
0.0
 10
4.3641557526
 20
4.0464499757
 30
0.0
 10
4.3551111362
 20
4.0842767084
 30
0.0
 10
4.3456483238
 20
4.1410729821
 30
0.0
 10
4.3408274046
 20
4.1971907008
 30
0.0
 10
4.3408294017
 20
4.2531796533
 30
0.0
 10
4.345653156
 20
4.3092873697
 30
0.0
 10
4.3551155576
 20
4.3660681664
 30
0.0
 10
4.3641572001
 20
4.4038811361
 30
0.0
 10
4.3693223542
 20
4.4230498328
 30
0.0
 11
4.3693223542
 21
4.0272759074
 31
0.0
 11
4.3556049311
 21
4.0852490072
 31
0.0
 11
4.34634809
 21
4.1415053438
 31
0.0
 11
4.3416225792
 21
4.1973019214
 31
0.0
 11
4.3416245387
 21
4.2530695872
 31
0.0
 11
4.3463533523
 21
4.308862246
 31
0.0
 11
4.355608235
 21
4.3650931017
 31
0.0
 11
4.3693223542
 21
4.4230498328
 31
0.0
  0
SPLINE
  5
417
100
AcDbEntity
  8
0
100
AcDbSpline
 62
7
  6
CONTINUOUS
 70
0
 71
3
 72
14
 73
10
 74
8
 42
0.0000001
 43
0.0000001
 44
0.0000000001
 12
0.1043021713
 22
0.3870817098
 32
0.0
 13
-0.1043021713
 23
0.3870817098
 33
0.0
 40
0.0
 40
0.0
 40
0.0
 40
0.0
 40
0.1486048123
 40
0.2908212029
 40
0.4305019247
 40
0.5696122626
 40
0.7092839394
 40
0.8514368192
 40
1.0
 40
1.0
 40
1.0
 40
1.0
 10
4.8495762203
 20
4.0272759074
 30
0.0
 10
4.8547428218
 20
4.0464499757
 30
0.0
 10
4.8637874383
 20
4.0842767084
 30
0.0
 10
4.8732502506
 20
4.1410729821
 30
0.0
 10
4.8780711698
 20
4.1971907008
 30
0.0
 10
4.8780691727
 20
4.2531796533
 30
0.0
 10
4.8732454184
 20
4.3092873697
 30
0.0
 10
4.8637830169
 20
4.3660681664
 30
0.0
 10
4.8547413744
 20
4.4038811361
 30
0.0
 10
4.8495762203
 20
4.4230498328
 30
0.0
 11
4.8495762203
 21
4.0272759074
 31
0.0
 11
4.8632936433
 21
4.0852490072
 31
0.0
 11
4.8725504845
 21
4.1415053438
 31
0.0
 11
4.8772759952
 21
4.1973019214
 31
0.0
 11
4.8772740358
 21
4.2530695872
 31
0.0
 11
4.8725452222
 21
4.308862246
 31
0.0
 11
4.8632903395
 21
4.3650931017
 31
0.0
 11
4.8495762203
 21
4.4230498328
 31
0.0
  0
SPLINE
  5
418
100
AcDbEntity
  8
0
100
AcDbSpline
 62
7
  6
CONTINUOUS
 70
0
 71
3
 72
14
 73
10
 74
8
 42
0.0000001
 43
0.0000001
 44
0.0000000001
 12
-0.0985887972
 22
0.1829392415
 32
0.0
 13
0.0985887972
 23
0.1829392415
 33
0.0
 40
0.0
 40
0.0
 40
0.0
 40
0.0
 40
0.1543136563
 40
0.2968077048
 40
0.4329665627
 40
0.5671436571
 40
0.703295874
 40
0.8457287423
 40
1.0
 40
1.0
 40
1.0
 40
1.0
 10
4.3693223542
 20
4.4509693888
 30
0.0
 10
4.3642511549
 20
4.4603793965
 30
0.0
 10
4.3553216057
 20
4.4789520856
 30
0.0
 10
4.3457436866
 20
4.5074709075
 30
0.0
 10
4.3408294878
 20
4.5357733046
 30
0.0
 10
4.3408315311
 20
4.5640749681
 30
0.0
 10
4.3457485553
 20
4.5923720408
 30
0.0
 10
4.3553258974
 20
4.6208828522
 30
0.0
 10
4.3642525483
 20
4.6394489291
 30
0.0
 10
4.3693223542
 20
4.6488563514
 30
0.0
 11
4.3693223542
 21
4.4509693888
 31
0.0
 11
4.3556049311
 21
4.4799559386
 31
0.0
 11
4.34634809
 21
4.5080841069
 31
0.0
 11
4.3416225792
 21
4.5359823957
 31
0.0
 11
4.3416245387
 21
4.5638662287
 31
0.0
 11
4.3463533523
 21
4.591762558
 31
0.0
 11
4.355608235
 21
4.6198779859
 31
0.0
 11
4.3693223542
 21
4.6488563514
 31
0.0
  0
SPLINE
  5
419
100
AcDbEntity
  8
0
100
AcDbSpline
 62
7
  6
CONTINUOUS
 70
0
 71
3
 72
14
 73
10
 74
8
 42
0.0000001
 43
0.0000001
 44
0.0000000001
 12
0.0985887972
 22
0.1829392415
 32
0.0
 13
-0.0985887972
 23
0.1829392415
 33
0.0
 40
0.0
 40
0.0
 40
0.0
 40
0.0
 40
0.1543136563
 40
0.2968077048
 40
0.4329665627
 40
0.5671436571
 40
0.703295874
 40
0.8457287423
 40
1.0
 40
1.0
 40
1.0
 40
1.0
 10
4.8495762203
 20
4.4509693888
 30
0.0
 10
4.8546474195
 20
4.4603793965
 30
0.0
 10
4.8635769687
 20
4.4789520856
 30
0.0
 10
4.8731548878
 20
4.5074709075
 30
0.0
 10
4.8780690867
 20
4.5357733046
 30
0.0
 10
4.8780670433
 20
4.5640749681
 30
0.0
 10
4.8731500191
 20
4.5923720408
 30
0.0
 10
4.863572677
 20
4.6208828522
 30
0.0
 10
4.8546460262
 20
4.6394489291
 30
0.0
 10
4.8495762203
 20
4.6488563514
 30
0.0
 11
4.8495762203
 21
4.4509693888
 31
0.0
 11
4.8632936433
 21
4.4799559386
 31
0.0
 11
4.8725504845
 21
4.5080841069
 31
0.0
 11
4.8772759952
 21
4.5359823957
 31
0.0
 11
4.8772740358
 21
4.5638662287
 31
0.0
 11
4.8725452222
 21
4.591762558
 31
0.0
 11
4.8632903395
 21
4.6198779859
 31
0.0
 11
4.8495762203
 21
4.6488563514
 31
0.0
  0
ENDSEC
  0
SECTION
  2
OBJECTS
  0
DICTIONARY
  5
C
100
AcDbDictionary
280
0
281
1
  3
ACAD_GROUP
350
D
  3
ACAD_MLINESTYLE
350
17
  3
ACAD_LAYOUT
350
1A
  3
ACAD_PLOTSETTINGS
350
19
  3
ACAD_PLOTSTYLENAME
350
E
  0
DICTIONARY
  5
D
102
{ACAD_REACTORS
330
C
102
}
100
AcDbDictionary
280
0
281
1
  0
ACDBDICTIONARYWDFLT
  5
E
102
{ACAD_REACTORS
330
C
102
}
100
AcDbDictionary
281
1
  3
Normal
350
F
100
AcDbDictionaryWithDefault
340
F
  0
DICTIONARY
  5
17
102
{ACAD_REACTORS
330
C
102
}
100
AcDbDictionary
280
0
281
1
  3
Standard
350
18
  0
DICTIONARY
  5
19
102
{ACAD_REACTORS
330
C
102
}
100
AcDbDictionary
281
1
  0
DICTIONARY
  5
1A
102
{ACAD_REACTORS
330
C
102
}
100
AcDbDictionary
281
1
  3
Layout1
350
1E
  3
Model
350
22
  0
ACDBPLACEHOLDER
  5
F
102
{ACAD_REACTORS
330
E
102
}
  0
MLINESTYLE
  5
18
102
{ACAD_REACTORS
330
17
102
}
100
AcDbMlineStyle
  2
STANDARD
 70
0
  3

 62
256
 51
90.0
 52
90.0
 71
2
 49
0.5
 62
256
  6
BYLAYER
 49
-0.5
 62
256
  6
BYLAYER
  0
LAYOUT
  5
1E
102
{ACAD_REACTORS
330
1A
102
}
100
AcDbPlotSettings
  1

  2

  4

  6

 40
0.0
 41
0.0
 42
0.0
 43
0.0
 44
0.0
 45
0.0
 46
0.0
 47
0.0
 48
0.0
 49
0.0
140
0.0
141
0.0
142
1.0
143
1.0
 70
0
 72
0
 73
0
 74
0
  7

 75
0
147
1.0
148
0.0
149
0.0
100
AcDbLayout
  1
Layout1
 70
0
 71
0
 10
0.0
 20
0.0
 11
0.0
 21
0.0
 12
0.0
 22
0.0
 32
0.0
 14
0.0
 24
0.0
 34
0.0
 15
0.0
 25
0.0
 35
0.0
146
0.0
 13
0.0
 23
0.0
 33
0.0
 16
0.0
 26
0.0
 36
0.0
 17
0.0
 27
0.0
 37
0.0
 76
0
330
1B
331
0
345
0
346
0
  0
LAYOUT
  5
22
102
{ACAD_REACTORS
330
1A
102
}
100
AcDbPlotSettings
  1

  2

  4

  6

 40
0.0
 41
0.0
 42
0.0
 43
0.0
 44
0.0
 45
0.0
 46
0.0
 47
0.0
 48
0.0
 49
0.0
140
0.0
141
0.0
142
1.0
143
1.0
 70
0
 72
0
 73
0
 74
0
  7

 75
0
147
1.0
148
0.0
149
0.0
100
AcDbLayout
  1
Model
 70
0
 71
0
 10
0.0
 20
0.0
 11
0.0
 21
0.0
 12
0.0
 22
0.0
 32
0.0
 14
0.0
 24
0.0
 34
0.0
 15
0.0
 25
0.0
 35
0.0
146
0.0
 13
0.0
 23
0.0
 33
0.0
 16
0.0
 26
0.0
 36
0.0
 17
0.0
 27
0.0
 37
0.0
 76
0
330
1F
331
0
345
0
346
0
  0
ENDSEC
  0
EOF
