999
DXF file: LHJA-XFN.dxf
999
Pro/ENGINEER 2006240 by Parametric Technology Corporation
  0
SECTION
  2
HEADER
  9
$ACADVER
  1
AC1015
  9
$DWGCODEPAGE
  3
ANSI_1252
  9
$EXTMAX
 10
11.6929133858
 20
8.2677165354
 30
0.0
  9
$EXTMIN
 10
0.0
 20
0.0
 30
0.0
  9
$LIMMIN
 10
0.0
 20
0.0
  9
$LIMMAX
 10
11.6929133858
 20
8.2677165354
  9
$VIEWCTR
 10
5.8464566929
 20
4.1338582677
  9
$VIEWSIZE
 40
8.2677165354
  9
$CLAYER
  8
0
  9
$LTSCALE
 40
0.6431102362
  9
$CELTYPE
  6
BYLAYER
  9
$DIMSCALE
 40
1.0
  9
$DIMASZ
 40
0.1875
  9
$DIMEXO
 40
0.0730807087
  9
$DIMDLI
 40
0.4443307087
  9
$DIMEXE
 40
0.2104724409
  9
$DIMCEN
 40
0.1052362205
  9
$DIMLFAC
 40
1.0
  9
$DIMBLK
  1
_CLOSED
  9
$DIMTXT
 40
0.15625
  9
$DIMTOL
 70
0
  9
$DIMLIM
 70
0
  9
$DIMTFAC
 40
1.0
  9
$PDMODE
 70
3
  9
$PDSIZE
 40
0.3125
  9
$HANDSEED
  5
4FC
  9
$MEASUREMENT
 70
0
  9
$INSUNITS
 70
1
  0
ENDSEC
  0
SECTION
  2
CLASSES
  0
CLASS
  1
ACDBDICTIONARYWDFLT
  2
AcDbDictionaryWithDefault
  3
AutoCAD 2000
 90
0
280
0
281
0
  0
CLASS
  1
ACDBPLACEHOLDER
  2
AcDbPlaceHolder
  3
AutoCAD 2000
 90
0
280
0
281
0
  0
CLASS
  1
LAYOUT
  2
AcDbLayout
  3
AutoCAD 2000
 90
0
280
0
281
0
  0
ENDSEC
  0
SECTION
  2
TABLES
  0
TABLE
  2
VPORT
  5
8
100
AcDbSymbolTable
 70
2
  0
VPORT
  5
1F4
100
AcDbSymbolTableRecord
100
AcDbViewportTableRecord
  2
*ACTIVE
 70
0
 10
0.0
 20
0.0
 11
1.0
 21
1.0
 12
5.8464566929
 22
4.1338582677
 13
0.0
 23
0.0
 14
1.0
 24
1.0
 15
0.0
 25
0.0
 16
0.0
 26
0.0
 36
1.0
 17
0.0
 27
0.0
 37
0.0
 40
8.2677165354
 41
1.4142857143
 42
50.0
 43
0.0
 44
0.0
 50
0.0
 51
0.0
 71
0
 72
100
 73
1
 74
1
 75
0
 76
0
 77
0
 78
0
  0
ENDTAB
  0
TABLE
  2
LTYPE
  5
5
100
AcDbSymbolTable
 70
6
  0
LTYPE
  5
14
100
AcDbSymbolTableRecord
100
AcDbLinetypeTableRecord
  2
BYBLOCK
 70
0
  3

 72
65
 73
0
 40
0.0
  0
LTYPE
  5
15
100
AcDbSymbolTableRecord
100
AcDbLinetypeTableRecord
  2
BYLAYER
 70
0
  3

 72
65
 73
0
 40
0.0
  0
LTYPE
  5
16
100
AcDbSymbolTableRecord
100
AcDbLinetypeTableRecord
  2
CONTINUOUS
 70
64
  3
Solid line
 72
65
 73
0
 40
0.0
  0
LTYPE
  5
1F5
100
AcDbSymbolTableRecord
100
AcDbLinetypeTableRecord
  2
CENTER
 70
64
  3
____ _ ____ _ ____ _ ____ _ ____ _ ____ _ ____
 72
65
 73
4
 40
0.6
 49
0.375
 74
0
 49
-0.075
 74
0
 49
0.075
 74
0
 49
-0.075
 74
0
  0
LTYPE
  5
1F6
100
AcDbSymbolTableRecord
100
AcDbLinetypeTableRecord
  2
HIDDEN
 70
64
  3
- - - - - - - - - - - - - - - - - - - -
 72
65
 73
2
 40
0.2
 49
0.1
 74
0
 49
-0.1
 74
0
  0
LTYPE
  5
1F7
100
AcDbSymbolTableRecord
100
AcDbLinetypeTableRecord
  2
PHANTOM
 70
64
  3
_____ _ _ _____ _ _ _____ _ _ _____
 72
65
 73
6
 40
0.8
 49
0.45
 74
0
 49
-0.05
 74
0
 49
0.1
 74
0
 49
-0.05
 74
0
 49
0.1
 74
0
 49
-0.05
 74
0
  0
LTYPE
  5
1F8
100
AcDbSymbolTableRecord
100
AcDbLinetypeTableRecord
  2
DOT
 70
64
  3
. . . . . . . . . . . . . . . . . . . .
 72
65
 73
2
 40
0.2
 49
0.1
 74
0
 49
-0.1
 74
0
  0
LTYPE
  5
1F9
100
AcDbSymbolTableRecord
100
AcDbLinetypeTableRecord
  2
DASHED
 70
64
  3
- - - - - - - - - - - - - - - - - - - -
 72
65
 73
2
 40
0.2
 49
0.1
 74
0
 49
-0.1
 74
0
  0
ENDTAB
  0
TABLE
  2
LAYER
  5
2
100
AcDbSymbolTable
 70
36
  0
LAYER
  5
10
100
AcDbSymbolTableRecord
100
AcDbLayerTableRecord
  2
0
 70
0
 62
7
  6
CONTINUOUS
370
-3
390
F
  0
LAYER
  5
1FA
100
AcDbSymbolTableRecord
100
AcDbLayerTableRecord
  2
DEFAULT_1
 70
0
 62
7
  6
CENTER
370
-3
390
F
  0
LAYER
  5
1FB
100
AcDbSymbolTableRecord
100
AcDbLayerTableRecord
  2
DEFAULT_2
 70
0
 62
8
  6
HIDDEN
370
-3
390
F
  0
LAYER
  5
1FC
100
AcDbSymbolTableRecord
100
AcDbLayerTableRecord
  2
DEFAULT_3
 70
0
 62
7
  6
PHANTOM
370
-3
390
F
  0
LAYER
  5
1FD
100
AcDbSymbolTableRecord
100
AcDbLayerTableRecord
  2
_BLACK_HOLE
 70
0
 62
7
  6
CONTINUOUS
370
-3
390
F
  0
LAYER
  5
1FE
100
AcDbSymbolTableRecord
100
AcDbLayerTableRecord
  2
01_ALL_DTM_PLN
 70
0
 62
7
  6
CONTINUOUS
370
-3
390
F
  0
LAYER
  5
1FF
100
AcDbSymbolTableRecord
100
AcDbLayerTableRecord
  2
01__ASM_ALL_DTM_PLN
 70
0
 62
7
  6
CONTINUOUS
370
-3
390
F
  0
LAYER
  5
200
100
AcDbSymbolTableRecord
100
AcDbLayerTableRecord
  2
01__ASM_DEF_DTM_PLN
 70
0
 62
7
  6
CONTINUOUS
370
-3
390
F
  0
LAYER
  5
201
100
AcDbSymbolTableRecord
100
AcDbLayerTableRecord
  2
01___PRT_ALL_DTM_PLN
 70
0
 62
7
  6
CONTINUOUS
370
-3
390
F
  0
LAYER
  5
202
100
AcDbSymbolTableRecord
100
AcDbLayerTableRecord
  2
01___PRT_DEF_DTM_PLN
 70
0
 62
7
  6
CONTINUOUS
370
-3
390
F
  0
LAYER
  5
203
100
AcDbSymbolTableRecord
100
AcDbLayerTableRecord
  2
02_ALL_AXES
 70
0
 62
7
  6
CONTINUOUS
370
-3
390
F
  0
LAYER
  5
204
100
AcDbSymbolTableRecord
100
AcDbLayerTableRecord
  2
02__ASM_ALL_AXES
 70
0
 62
7
  6
CONTINUOUS
370
-3
390
F
  0
LAYER
  5
205
100
AcDbSymbolTableRecord
100
AcDbLayerTableRecord
  2
02___PRT_ALL_AXES
 70
0
 62
7
  6
CONTINUOUS
370
-3
390
F
  0
LAYER
  5
206
100
AcDbSymbolTableRecord
100
AcDbLayerTableRecord
  2
03_ALL_CURVES
 70
0
 62
7
  6
CONTINUOUS
370
-3
390
F
  0
LAYER
  5
207
100
AcDbSymbolTableRecord
100
AcDbLayerTableRecord
  2
03__ASM_ALL_CURVES
 70
0
 62
7
  6
CONTINUOUS
370
-3
390
F
  0
LAYER
  5
208
100
AcDbSymbolTableRecord
100
AcDbLayerTableRecord
  2
03___PRT_ALL_CURVES
 70
0
 62
7
  6
CONTINUOUS
370
-3
390
F
  0
LAYER
  5
209
100
AcDbSymbolTableRecord
100
AcDbLayerTableRecord
  2
04_ALL_DTM_PNT
 70
0
 62
7
  6
CONTINUOUS
370
-3
390
F
  0
LAYER
  5
20A
100
AcDbSymbolTableRecord
100
AcDbLayerTableRecord
  2
04__ASM_ALL_DTM_PNT
 70
0
 62
7
  6
CONTINUOUS
370
-3
390
F
  0
LAYER
  5
20B
100
AcDbSymbolTableRecord
100
AcDbLayerTableRecord
  2
04___PRT_ALL_DTM_PNT
 70
0
 62
7
  6
CONTINUOUS
370
-3
390
F
  0
LAYER
  5
20C
100
AcDbSymbolTableRecord
100
AcDbLayerTableRecord
  2
05_ALL_DTM_CSYS
 70
0
 62
7
  6
CONTINUOUS
370
-3
390
F
  0
LAYER
  5
20D
100
AcDbSymbolTableRecord
100
AcDbLayerTableRecord
  2
05__ASM_ALL_DTM_CSYS
 70
0
 62
7
  6
CONTINUOUS
370
-3
390
F
  0
LAYER
  5
20E
100
AcDbSymbolTableRecord
100
AcDbLayerTableRecord
  2
05__ASM_DEF_DTM_CSYS
 70
0
 62
7
  6
CONTINUOUS
370
-3
390
F
  0
LAYER
  5
20F
100
AcDbSymbolTableRecord
100
AcDbLayerTableRecord
  2
05___PRT_ALL_DTM_CSYS
 70
0
 62
7
  6
CONTINUOUS
370
-3
390
F
  0
LAYER
  5
210
100
AcDbSymbolTableRecord
100
AcDbLayerTableRecord
  2
05___PRT_DEF_DTM_CSYS
 70
0
 62
7
  6
CONTINUOUS
370
-3
390
F
  0
LAYER
  5
211
100
AcDbSymbolTableRecord
100
AcDbLayerTableRecord
  2
06_ALL_SURFS
 70
0
 62
7
  6
CONTINUOUS
370
-3
390
F
  0
LAYER
  5
212
100
AcDbSymbolTableRecord
100
AcDbLayerTableRecord
  2
06__ASM_ALL_SURFS
 70
0
 62
7
  6
CONTINUOUS
370
-3
390
F
  0
LAYER
  5
213
100
AcDbSymbolTableRecord
100
AcDbLayerTableRecord
  2
06___PRT_ALL_SURFS
 70
0
 62
7
  6
CONTINUOUS
370
-3
390
F
  0
LAYER
  5
214
100
AcDbSymbolTableRecord
100
AcDbLayerTableRecord
  2
07__ASM_ALL_SKELETONS
 70
0
 62
7
  6
CONTINUOUS
370
-3
390
F
  0
LAYER
  5
215
100
AcDbSymbolTableRecord
100
AcDbLayerTableRecord
  2
129-007_FEATURES
 70
0
 62
7
  6
CONTINUOUS
370
-3
390
F
  0
LAYER
  5
216
100
AcDbSymbolTableRecord
100
AcDbLayerTableRecord
  2
129-007_REF_GEOMETRY
 70
0
 62
7
  6
CONTINUOUS
370
-3
390
F
  0
LAYER
  5
217
100
AcDbSymbolTableRecord
100
AcDbLayerTableRecord
  2
129-009_FEATURES
 70
0
 62
7
  6
CONTINUOUS
370
-3
390
F
  0
LAYER
  5
218
100
AcDbSymbolTableRecord
100
AcDbLayerTableRecord
  2
129-009_REF_GEOMETRY
 70
0
 62
7
  6
CONTINUOUS
370
-3
390
F
  0
LAYER
  5
219
100
AcDbSymbolTableRecord
100
AcDbLayerTableRecord
  2
129-100_FEATURES
 70
0
 62
7
  6
CONTINUOUS
370
-3
390
F
  0
LAYER
  5
21A
100
AcDbSymbolTableRecord
100
AcDbLayerTableRecord
  2
129-100_REF_GEOMETRY
 70
0
 62
7
  6
CONTINUOUS
370
-3
390
F
  0
LAYER
  5
21B
100
AcDbSymbolTableRecord
100
AcDbLayerTableRecord
  2
129-101_FEATURES
 70
0
 62
7
  6
CONTINUOUS
370
-3
390
F
  0
LAYER
  5
21C
100
AcDbSymbolTableRecord
100
AcDbLayerTableRecord
  2
129-101_REF_GEOMETRY
 70
0
 62
7
  6
CONTINUOUS
370
-3
390
F
  0
LAYER
  5
21D
100
AcDbSymbolTableRecord
100
AcDbLayerTableRecord
  2
129-102_FEATURES
 70
0
 62
7
  6
CONTINUOUS
370
-3
390
F
  0
LAYER
  5
21E
100
AcDbSymbolTableRecord
100
AcDbLayerTableRecord
  2
129-102_REF_GEOMETRY
 70
0
 62
7
  6
CONTINUOUS
370
-3
390
F
  0
LAYER
  5
21F
100
AcDbSymbolTableRecord
100
AcDbLayerTableRecord
  2
129-103_FEATURES
 70
0
 62
7
  6
CONTINUOUS
370
-3
390
F
  0
LAYER
  5
220
100
AcDbSymbolTableRecord
100
AcDbLayerTableRecord
  2
129-103_REF_GEOMETRY
 70
0
 62
7
  6
CONTINUOUS
370
-3
390
F
  0
LAYER
  5
221
100
AcDbSymbolTableRecord
100
AcDbLayerTableRecord
  2
129-104_FEATURES
 70
0
 62
7
  6
CONTINUOUS
370
-3
390
F
  0
LAYER
  5
222
100
AcDbSymbolTableRecord
100
AcDbLayerTableRecord
  2
129-104_REF_GEOMETRY
 70
0
 62
7
  6
CONTINUOUS
370
-3
390
F
  0
LAYER
  5
223
100
AcDbSymbolTableRecord
100
AcDbLayerTableRecord
  2
COPY_GEO_FET
 70
0
 62
7
  6
CONTINUOUS
370
-3
390
F
  0
LAYER
  5
224
100
AcDbSymbolTableRecord
100
AcDbLayerTableRecord
  2
COSMETIC
 70
0
 62
7
  6
CONTINUOUS
370
-3
390
F
  0
LAYER
  5
225
100
AcDbSymbolTableRecord
100
AcDbLayerTableRecord
  2
CURVES
 70
0
 62
7
  6
CONTINUOUS
370
-3
390
F
  0
LAYER
  5
226
100
AcDbSymbolTableRecord
100
AcDbLayerTableRecord
  2
CUT_REF_SURF
 70
0
 62
7
  6
CONTINUOUS
370
-3
390
F
  0
LAYER
  5
227
100
AcDbSymbolTableRecord
100
AcDbLayerTableRecord
  2
DATUM
 70
0
 62
7
  6
CONTINUOUS
370
-3
390
F
  0
LAYER
  5
228
100
AcDbSymbolTableRecord
100
AcDbLayerTableRecord
  2
DATUMCURVES
 70
0
 62
7
  6
CONTINUOUS
370
-3
390
F
  0
LAYER
  5
229
100
AcDbSymbolTableRecord
100
AcDbLayerTableRecord
  2
DIMENSIONS
 70
0
 62
7
  6
CONTINUOUS
370
-3
390
F
  0
LAYER
  5
22A
100
AcDbSymbolTableRecord
100
AcDbLayerTableRecord
  2
DTM
 70
0
 62
7
  6
CONTINUOUS
370
-3
390
F
  0
LAYER
  5
22B
100
AcDbSymbolTableRecord
100
AcDbLayerTableRecord
  2
DTM230
 70
0
 62
7
  6
CONTINUOUS
370
-3
390
F
  0
LAYER
  5
22C
100
AcDbSymbolTableRecord
100
AcDbLayerTableRecord
  2
DTM_500001
 70
0
 62
7
  6
CONTINUOUS
370
-3
390
F
  0
LAYER
  5
22D
100
AcDbSymbolTableRecord
100
AcDbLayerTableRecord
  2
DTM_500002
 70
0
 62
7
  6
CONTINUOUS
370
-3
390
F
  0
LAYER
  5
22E
100
AcDbSymbolTableRecord
100
AcDbLayerTableRecord
  2
DTM_515002
 70
0
 62
7
  6
CONTINUOUS
370
-3
390
F
  0
LAYER
  5
22F
100
AcDbSymbolTableRecord
100
AcDbLayerTableRecord
  2
DTM_SPRING_RH
 70
0
 62
7
  6
CONTINUOUS
370
-3
390
F
  0
LAYER
  5
230
100
AcDbSymbolTableRecord
100
AcDbLayerTableRecord
  2
DTM_SP_RH_CONSTR
 70
0
 62
7
  6
CONTINUOUS
370
-3
390
F
  0
LAYER
  5
231
100
AcDbSymbolTableRecord
100
AcDbLayerTableRecord
  2
GEOMETRICTOLERANCES
 70
0
 62
7
  6
CONTINUOUS
370
-3
390
F
  0
LAYER
  5
232
100
AcDbSymbolTableRecord
100
AcDbLayerTableRecord
  2
PARAMETERDIMENSIONS
 70
0
 62
7
  6
CONTINUOUS
370
-3
390
F
  0
LAYER
  5
233
100
AcDbSymbolTableRecord
100
AcDbLayerTableRecord
  2
PLANE
 70
0
 62
7
  6
CONTINUOUS
370
-3
390
F
  0
LAYER
  5
234
100
AcDbSymbolTableRecord
100
AcDbLayerTableRecord
  2
T-8A_CAVITY
 70
0
 62
7
  6
CONTINUOUS
370
-3
390
F
  0
LAYER
  5
235
100
AcDbSymbolTableRecord
100
AcDbLayerTableRecord
  2
TEXT
 70
0
 62
7
  6
CONTINUOUS
370
-3
390
F
  0
LAYER
  5
236
100
AcDbSymbolTableRecord
100
AcDbLayerTableRecord
  2
THREAD
 70
0
 62
7
  6
CONTINUOUS
370
-3
390
F
  0
LAYER
  5
237
100
AcDbSymbolTableRecord
100
AcDbLayerTableRecord
  2
XSEC_DATUMS
 70
0
 62
7
  6
CONTINUOUS
370
-3
390
F
  0
ENDTAB
  0
TABLE
  2
STYLE
  5
3
100
AcDbSymbolTable
 70
1
  0
STYLE
  5
11
100
AcDbSymbolTableRecord
100
AcDbTextStyleTableRecord
  2
STANDARD
 70
0
 40
0.0
 41
0.8
 50
0.0
 71
0
 42
0.2
  3
txt
  4

  0
ENDTAB
  0
TABLE
  2
VIEW
  5
6
100
AcDbSymbolTable
 70
0
  0
ENDTAB
  0
TABLE
  2
UCS
  5
7
100
AcDbSymbolTable
 70
0
  0
ENDTAB
  0
TABLE
  2
APPID
  5
9
100
AcDbSymbolTable
 70
1
  0
APPID
  5
238
100
AcDbSymbolTableRecord
100
AcDbRegAppTableRecord
  2
ACAD
 70
0
  0
ENDTAB
  0
TABLE
  2
BLOCK_RECORD
  5
1
100
AcDbSymbolTable
 70
0
  0
BLOCK_RECORD
  5
1F
100
AcDbSymbolTableRecord
100
AcDbBlockTableRecord
  2
*MODEL_SPACE
  0
BLOCK_RECORD
  5
1B
100
AcDbSymbolTableRecord
100
AcDbBlockTableRecord
  2
*PAPER_SPACE
  0
ENDTAB
  0
TABLE
  2
DIMSTYLE
  5
A
100
AcDbSymbolTable
 70
1
100
AcDbDimStyleTable
 71
0
  0
DIMSTYLE
105
239
100
AcDbSymbolTableRecord
100
AcDbDimStyleTableRecord
  2
STANDARD
 70
0
  3

  4

 40
1.0
 41
0.1875
 42
0.0625
 43
0.38
 44
0.18
 45
0.0
 46
0.0
 47
0.01
 48
0.01
140
0.15625
141
0.09
142
0.0
143
25.4
144
1.0
145
0.0
146
1.0
147
0.09
 71
0.0
 72
0.0
 73
1
 74
1
 75
0
 76
0
 77
0
 78
4
170
0
171
2
172
0
173
0
174
0
175
0
176
0
177
0
178
0
270
2
271
2
272
2
273
2
274
2
275
0
280
0
281
0
282
0
283
1
284
4
285
0
286
0
287
3
288
0
340
11
  0
ENDTAB
  0
ENDSEC
  0
SECTION
  2
BLOCKS
  0
BLOCK
  5
20
100
AcDbEntity
  8
0
100
AcDbBlockBegin
  2
*MODEL_SPACE
 70
0
 10
0.0
 20
0.0
 30
0.0
  3
*MODEL_SPACE
  1

  0
ENDBLK
  5
21
100
AcDbEntity
  8
0
100
AcDbBlockEnd
  0
BLOCK
  5
1C
100
AcDbEntity
  8
0
100
AcDbBlockBegin
  2
*PAPER_SPACE
 70
0
 10
0.0
 20
0.0
 30
0.0
  3
*PAPER_SPACE
  1

  0
ENDBLK
  5
1D
100
AcDbEntity
  8
0
100
AcDbBlockEnd
  0
ENDSEC
  0
SECTION
  2
ENTITIES
  0
LINE
  5
23A
100
AcDbEntity
  8
0
100
AcDbLine
 62
7
  6
CONTINUOUS
 10
1.0044376366
 20
3.4380339326
 11
1.0044376366
 21
5.0520339326
  0
LINE
  5
23B
100
AcDbEntity
  8
03__ASM_ALL_CURVES
100
AcDbLine
 62
40
  6
CONTINUOUS
 10
1.0044376366
 20
5.0520339326
 11
1.0044376366
 21
5.6566259326
  0
LINE
  5
23C
100
AcDbEntity
  8
0
100
AcDbLine
 62
7
  6
CONTINUOUS
 10
1.0714102678
 20
3.3220339326
 11
1.0714102678
 21
3.322429274
  0
LINE
  5
23D
100
AcDbEntity
  8
0
100
AcDbLine
 62
7
  6
CONTINUOUS
 10
1.0714102678
 20
3.7603385911
 11
1.0714102678
 21
3.8071246155
  0
LINE
  5
23E
100
AcDbEntity
  8
0
100
AcDbLine
 62
7
  6
CONTINUOUS
 10
1.0714102678
 20
4.6829432497
 11
1.0714102678
 21
4.729729274
  0
LINE
  5
23F
100
AcDbEntity
  8
0
100
AcDbLine
 62
7
  6
CONTINUOUS
 10
1.0714102678
 20
5.1676385911
 11
1.0714102678
 21
5.1680339326
  0
LINE
  5
240
100
AcDbEntity
  8
03__ASM_ALL_CURVES
100
AcDbLine
 62
40
  6
CONTINUOUS
 10
1.0781813866
 20
5.7043009326
 11
1.0662626366
 21
5.6566259326
  0
LINE
  5
241
100
AcDbEntity
  8
03__ASM_ALL_CURVES
100
AcDbLine
 62
40
  6
CONTINUOUS
 10
1.0662626366
 20
5.8155425955
 11
1.0781813866
 21
5.8314342697
  0
LINE
  5
242
100
AcDbEntity
  8
03__ASM_ALL_CURVES
100
AcDbLine
 62
40
  6
CONTINUOUS
 10
1.1616126366
 20
5.8155425955
 11
1.1616126366
 21
5.7837592697
  0
LINE
  5
243
100
AcDbEntity
  8
03__ASM_ALL_CURVES
100
AcDbLine
 62
40
  6
CONTINUOUS
 10
1.2332776366
 20
5.6184859326
 11
1.2332776366
 21
5.5422059326
  0
LINE
  5
244
100
AcDbEntity
  8
03__ASM_ALL_CURVES
100
AcDbLine
 62
40
  6
CONTINUOUS
 10
1.2927188866
 20
5.6566259326
 11
1.2927188866
 21
5.6725175997
  0
LINE
  5
245
100
AcDbEntity
  8
03__ASM_ALL_CURVES
100
AcDbLine
 62
40
  6
CONTINUOUS
 10
1.6502813866
 20
5.7043009326
 11
1.6383626366
 21
5.6566259326
  0
LINE
  5
246
100
AcDbEntity
  8
0
100
AcDbLine
 62
7
  6
CONTINUOUS
 10
1.0714102678
 20
5.1680339326
 11
1.0044376366
 21
5.0520339326
  0
LINE
  5
247
100
AcDbEntity
  8
03__ASM_ALL_CURVES
100
AcDbLine
 62
40
  6
CONTINUOUS
 10
1.1020188866
 20
5.736084264
 11
1.0781813866
 21
5.7043009326
  0
LINE
  5
248
100
AcDbEntity
  8
03__ASM_ALL_CURVES
100
AcDbLine
 62
40
  6
CONTINUOUS
 10
1.1616126366
 20
5.7837592697
 11
1.1496938866
 21
5.7678675955
  0
LINE
  5
249
100
AcDbEntity
  8
0
100
AcDbLine
 62
7
  6
CONTINUOUS
 10
1.0714102678
 20
3.3220339326
 11
1.0044376366
 21
3.4380339326
  0
LINE
  5
24A
100
AcDbEntity
  8
03__ASM_ALL_CURVES
100
AcDbLine
 62
40
  6
CONTINUOUS
 10
1.4953376366
 20
5.8473259326
 11
1.4953376366
 21
5.6566259326
  0
LINE
  5
24B
100
AcDbEntity
  8
03__ASM_ALL_CURVES
100
AcDbLine
 62
40
  6
CONTINUOUS
 10
1.7337126366
 20
5.8155425955
 11
1.7337126366
 21
5.7837592697
  0
LINE
  5
24C
100
AcDbEntity
  8
03__ASM_ALL_CURVES
100
AcDbLine
 62
40
  6
CONTINUOUS
 10
1.8648188866
 20
5.8155425955
 11
1.8529001366
 21
5.7678675955
  0
LINE
  5
24D
100
AcDbEntity
  8
03__ASM_ALL_CURVES
100
AcDbLine
 62
40
  6
CONTINUOUS
 10
1.6383626366
 20
5.8155425955
 11
1.6502813866
 21
5.8314342697
  0
LINE
  5
24E
100
AcDbEntity
  8
03__ASM_ALL_CURVES
100
AcDbLine
 62
40
  6
CONTINUOUS
 10
1.6741188866
 20
5.736084264
 11
1.6502813866
 21
5.7043009326
  0
LINE
  5
24F
100
AcDbEntity
  8
03__ASM_ALL_CURVES
100
AcDbLine
 62
40
  6
CONTINUOUS
 10
1.7337126366
 20
5.7837592697
 11
1.7217938866
 21
5.7678675955
  0
LINE
  5
250
100
AcDbEntity
  8
03__ASM_ALL_CURVES
100
AcDbLine
 62
40
  6
CONTINUOUS
 10
1.8886563866
 20
5.8473259326
 11
1.8648188866
 21
5.8155425955
  0
LINE
  5
251
100
AcDbEntity
  8
03__ASM_ALL_CURVES
100
AcDbLine
 62
40
  6
CONTINUOUS
 10
1.8529001366
 20
5.7678675955
 11
1.8529001366
 21
5.736084264
  0
LINE
  5
252
100
AcDbEntity
  8
0
100
AcDbLine
 62
7
  6
CONTINUOUS
 10
2.0039498329
 20
3.3220339326
 11
2.0039498329
 21
5.1680339326
  0
LINE
  5
253
100
AcDbEntity
  8
0
100
AcDbLine
 62
7
  6
CONTINUOUS
 10
2.0654376366
 20
3.2155339326
 11
2.0654376366
 21
5.2745339326
  0
LINE
  5
254
100
AcDbEntity
  8
03__ASM_ALL_CURVES
100
AcDbLine
 62
40
  6
CONTINUOUS
 10
2.0436001366
 20
5.8473259326
 11
2.0316813866
 21
5.7678675955
  0
LINE
  5
255
100
AcDbEntity
  8
03__ASM_ALL_CURVES
100
AcDbLine
 62
40
  6
CONTINUOUS
 10
2.1270313866
 20
5.7201926012
 11
2.1151126366
 21
5.6884092669
  0
LINE
  5
256
100
AcDbEntity
  8
0
100
AcDbLine
 62
7
  6
CONTINUOUS
 10
2.0654376366
 20
5.2745339326
 11
2.0039498329
 21
5.1680339326
  0
LINE
  5
257
100
AcDbEntity
  8
03__ASM_ALL_CURVES
100
AcDbLine
 62
40
  6
CONTINUOUS
 10
2.1151126366
 20
5.6884092669
 11
2.1031938866
 21
5.6725175997
  0
LINE
  5
258
100
AcDbEntity
  8
03__ASM_ALL_CURVES
100
AcDbLine
 62
40
  6
CONTINUOUS
 10
2.3058126366
 20
5.7996509326
 11
2.2938938866
 21
5.7837592697
  0
LINE
  5
259
100
AcDbEntity
  8
03__ASM_ALL_CURVES
100
AcDbLine
 62
40
  6
CONTINUOUS
 10
1.0781813866
 20
5.8314342697
 11
1.1020188866
 21
5.8473259326
  0
LINE
  5
25A
100
AcDbEntity
  8
03__ASM_ALL_CURVES
100
AcDbLine
 62
40
  6
CONTINUOUS
 10
1.1496938866
 20
5.7678675955
 11
1.1020188866
 21
5.736084264
  0
LINE
  5
25B
100
AcDbEntity
  8
0
100
AcDbLine
 62
7
  6
CONTINUOUS
 10
2.0654376366
 20
3.2155339326
 11
2.0039498329
 21
3.3220339326
  0
LINE
  5
25C
100
AcDbEntity
  8
03__ASM_ALL_CURVES
100
AcDbLine
 62
40
  6
CONTINUOUS
 10
2.3058126366
 20
5.8155425955
 11
2.3058126366
 21
5.7996509326
  0
LINE
  5
25D
100
AcDbEntity
  8
03__ASM_ALL_CURVES
100
AcDbLine
 62
40
  6
CONTINUOUS
 10
2.3177313866
 20
5.7201926012
 11
2.3177313866
 21
5.7043009326
  0
LINE
  5
25E
100
AcDbEntity
  8
03__ASM_ALL_CURVES
100
AcDbLine
 62
40
  6
CONTINUOUS
 10
2.4369188866
 20
5.6566259326
 11
2.4369188866
 21
5.6725175997
  0
LINE
  5
25F
100
AcDbEntity
  8
03__ASM_ALL_CURVES
100
AcDbLine
 62
40
  6
CONTINUOUS
 10
2.8659938866
 20
5.8473259326
 11
2.7825626366
 21
5.7043009326
  0
LINE
  5
260
100
AcDbEntity
  8
03__ASM_ALL_CURVES
100
AcDbLine
 62
40
  6
CONTINUOUS
 10
2.3177313866
 20
5.7043009326
 11
2.2938938866
 21
5.6725175997
  0
LINE
  5
261
100
AcDbEntity
  8
03__ASM_ALL_CURVES
100
AcDbLine
 62
40
  6
CONTINUOUS
 10
2.5918626366
 20
5.8155425955
 11
2.6037813866
 21
5.8314342697
  0
LINE
  5
262
100
AcDbEntity
  8
03__ASM_ALL_CURVES
100
AcDbLine
 62
40
  6
CONTINUOUS
 10
2.5799438866
 20
5.7201926012
 11
2.6037813866
 21
5.7519759326
  0
LINE
  5
263
100
AcDbEntity
  8
03__ASM_ALL_CURVES
100
AcDbLine
 62
40
  6
CONTINUOUS
 10
2.6872126366
 20
5.7996509326
 11
2.6752938866
 21
5.7837592697
  0
LINE
  5
264
100
AcDbEntity
  8
03__ASM_ALL_CURVES
100
AcDbLine
 62
40
  6
CONTINUOUS
 10
2.6991313866
 20
5.7043009326
 11
2.6752938866
 21
5.6725175997
  0
LINE
  5
265
100
AcDbEntity
  8
03__ASM_ALL_CURVES
100
AcDbLine
 62
40
  6
CONTINUOUS
 10
1.6502813866
 20
5.8314342697
 11
1.6741188866
 21
5.8473259326
  0
LINE
  5
266
100
AcDbEntity
  8
03__ASM_ALL_CURVES
100
AcDbLine
 62
40
  6
CONTINUOUS
 10
1.7217938866
 20
5.7678675955
 11
1.6741188866
 21
5.736084264
  0
LINE
  5
267
100
AcDbEntity
  8
03__ASM_ALL_CURVES
100
AcDbLine
 62
40
  6
CONTINUOUS
 10
2.0316813866
 20
5.7678675955
 11
2.0555188866
 21
5.7837592697
  0
LINE
  5
268
100
AcDbEntity
  8
03__ASM_ALL_CURVES
100
AcDbLine
 62
40
  6
CONTINUOUS
 10
1.8529001366
 20
5.736084264
 11
1.8648188866
 21
5.6884092669
  0
LINE
  5
269
100
AcDbEntity
  8
03__ASM_ALL_CURVES
100
AcDbLine
 62
40
  6
CONTINUOUS
 10
2.5799438866
 20
5.7043009326
 11
2.5799438866
 21
5.7201926012
  0
LINE
  5
26A
100
AcDbEntity
  8
03__ASM_ALL_CURVES
100
AcDbLine
 62
40
  6
CONTINUOUS
 10
2.5918626366
 20
5.7996509326
 11
2.5918626366
 21
5.8155425955
  0
LINE
  5
26B
100
AcDbEntity
  8
03__ASM_ALL_CURVES
100
AcDbLine
 62
40
  6
CONTINUOUS
 10
2.6872126366
 20
5.8155425955
 11
2.6872126366
 21
5.7996509326
  0
LINE
  5
26C
100
AcDbEntity
  8
03__ASM_ALL_CURVES
100
AcDbLine
 62
40
  6
CONTINUOUS
 10
2.6991313866
 20
5.7201926012
 11
2.6991313866
 21
5.7043009326
  0
LINE
  5
26D
100
AcDbEntity
  8
03__ASM_ALL_CURVES
100
AcDbLine
 62
40
  6
CONTINUOUS
 10
3.0447751366
 20
5.736084264
 11
3.0328563866
 21
5.6884092669
  0
LINE
  5
26E
100
AcDbEntity
  8
03__ASM_ALL_CURVES
100
AcDbLine
 62
40
  6
CONTINUOUS
 10
3.0328563866
 20
5.6884092669
 11
3.0090188866
 21
5.6566259326
  0
LINE
  5
26F
100
AcDbEntity
  8
03__ASM_ALL_CURVES
100
AcDbLine
 62
40
  6
CONTINUOUS
 10
2.2223813866
 20
5.8314342697
 11
2.2462188866
 21
5.8473259326
  0
LINE
  5
270
100
AcDbEntity
  8
03__ASM_ALL_CURVES
100
AcDbLine
 62
40
  6
CONTINUOUS
 10
2.1031938866
 20
5.6725175997
 11
2.0793563866
 21
5.6566259326
  0
LINE
  5
271
100
AcDbEntity
  8
03__ASM_ALL_CURVES
100
AcDbLine
 62
40
  6
CONTINUOUS
 10
2.2938938866
 20
5.7837592697
 11
2.2700563866
 21
5.7678675955
  0
LINE
  5
272
100
AcDbEntity
  8
03__ASM_ALL_CURVES
100
AcDbLine
 62
40
  6
CONTINUOUS
 10
2.2938938866
 20
5.6725175997
 11
2.2700563866
 21
5.6566259326
  0
LINE
  5
273
100
AcDbEntity
  8
03__ASM_ALL_CURVES
100
AcDbLine
 62
40
  6
CONTINUOUS
 10
2.6037813866
 20
5.8314342697
 11
2.6276188866
 21
5.8473259326
  0
LINE
  5
274
100
AcDbEntity
  8
03__ASM_ALL_CURVES
100
AcDbLine
 62
40
  6
CONTINUOUS
 10
2.6037813866
 20
5.7519759326
 11
2.6276188866
 21
5.7678675955
  0
LINE
  5
275
100
AcDbEntity
  8
03__ASM_ALL_CURVES
100
AcDbLine
 62
40
  6
CONTINUOUS
 10
2.8659938866
 20
5.6566259326
 11
2.8659938866
 21
5.8473259326
  0
LINE
  5
276
100
AcDbEntity
  8
03__ASM_ALL_CURVES
100
AcDbLine
 62
40
  6
CONTINUOUS
 10
2.9015976366
 20
5.6184859326
 11
2.9015976366
 21
5.5422059326
  0
LINE
  5
277
100
AcDbEntity
  8
03__ASM_ALL_CURVES
100
AcDbLine
 62
40
  6
CONTINUOUS
 10
3.0447751366
 20
5.7678675955
 11
3.0447751366
 21
5.736084264
  0
LINE
  5
278
100
AcDbEntity
  8
0
100
AcDbLine
 62
7
  6
CONTINUOUS
 10
3.1304376366
 20
3.2155339326
 11
3.1304376366
 21
5.2745339326
  0
LINE
  5
279
100
AcDbEntity
  8
03__ASM_ALL_CURVES
100
AcDbLine
 62
40
  6
CONTINUOUS
 10
3.1304376366
 20
5.3126739326
 11
3.1304376366
 21
5.6566259326
  0
LINE
  5
27A
100
AcDbEntity
  8
03__ASM_ALL_CURVES
100
AcDbLine
 62
40
  6
CONTINUOUS
 10
3.6143388879
 20
5.7996509326
 11
3.6381763879
 21
5.8314342697
  0
LINE
  5
27B
100
AcDbEntity
  8
03__ASM_ALL_CURVES
100
AcDbLine
 62
40
  6
CONTINUOUS
 10
2.6752938866
 20
5.7837592697
 11
2.6514563866
 21
5.7678675955
  0
LINE
  5
27C
100
AcDbEntity
  8
03__ASM_ALL_CURVES
100
AcDbLine
 62
40
  6
CONTINUOUS
 10
2.6752938866
 20
5.6725175997
 11
2.6514563866
 21
5.6566259326
  0
LINE
  5
27D
100
AcDbEntity
  8
03__ASM_ALL_CURVES
100
AcDbLine
 62
40
  6
CONTINUOUS
 10
1.1496938866
 20
5.8314342697
 11
1.1616126366
 21
5.8155425955
  0
LINE
  5
27E
100
AcDbEntity
  8
03__ASM_ALL_CURVES
100
AcDbLine
 62
40
  6
CONTINUOUS
 10
1.2927188866
 20
5.6725175997
 11
1.3046376366
 21
5.6566259326
  0
LINE
  5
27F
100
AcDbEntity
  8
03__ASM_ALL_CURVES
100
AcDbLine
 62
40
  6
CONTINUOUS
 10
2.1151126366
 20
5.7519759326
 11
2.1270313866
 21
5.7201926012
  0
LINE
  5
280
100
AcDbEntity
  8
THREAD
100
AcDbLine
 62
7
  6
CONTINUOUS
 10
3.1774376366
 20
3.2915339326
 11
3.1774376366
 21
5.1985339326
  0
LINE
  5
281
100
AcDbEntity
  8
0
100
AcDbLine
 62
7
  6
CONTINUOUS
 10
3.2804376366
 20
3.2910339326
 11
3.2804376366
 21
5.1990339326
  0
LINE
  5
282
100
AcDbEntity
  8
0
100
AcDbLine
 62
7
  6
CONTINUOUS
 10
3.3304376366
 20
3.2910339326
 11
3.3304376366
 21
5.1990339326
  0
LINE
  5
283
100
AcDbEntity
  8
0
100
AcDbLine
 62
7
  6
CONTINUOUS
 10
3.3514376366
 20
3.3555339326
 11
3.3514376366
 21
5.1345339326
  0
LINE
  5
284
100
AcDbEntity
  8
03__ASM_ALL_CURVES
100
AcDbLine
 62
40
  6
CONTINUOUS
 10
3.3592776366
 20
5.6184859326
 11
3.3592776366
 21
5.5422059326
  0
LINE
  5
285
100
AcDbEntity
  8
THREAD
100
AcDbLine
 62
7
  6
CONTINUOUS
 10
3.3814598506
 20
3.3035339326
 11
3.3814598506
 21
5.1865339326
  0
LINE
  5
286
100
AcDbEntity
  8
03__ASM_ALL_CURVES
100
AcDbLine
 62
40
  6
CONTINUOUS
 10
3.4355576379
 20
5.8473259326
 11
3.4355576379
 21
5.6566259326
  0
LINE
  5
287
100
AcDbEntity
  8
03__ASM_ALL_CURVES
100
AcDbLine
 62
40
  6
CONTINUOUS
 10
3.6024201379
 20
5.7519759326
 11
3.6143388879
 21
5.7996509326
  0
LINE
  5
288
100
AcDbEntity
  8
03__ASM_ALL_CURVES
100
AcDbLine
 62
40
  6
CONTINUOUS
 10
3.7454451379
 20
5.7519759326
 11
3.7335263879
 21
5.7043009326
  0
LINE
  5
289
100
AcDbEntity
  8
THREAD
100
AcDbLine
 62
7
  6
CONTINUOUS
 10
3.3814598506
 20
5.1865339326
 11
3.3514376366
 21
5.1345339326
  0
LINE
  5
28A
100
AcDbEntity
  8
03__ASM_ALL_CURVES
100
AcDbLine
 62
40
  6
CONTINUOUS
 10
3.7335263879
 20
5.7043009326
 11
3.7096888879
 21
5.6725175997
  0
LINE
  5
28B
100
AcDbEntity
  8
03__ASM_ALL_CURVES
100
AcDbLine
 62
40
  6
CONTINUOUS
 10
3.8050388879
 20
5.7996509326
 11
3.8288763879
 21
5.8314342697
  0
LINE
  5
28C
100
AcDbEntity
  8
03__ASM_ALL_CURVES
100
AcDbLine
 62
40
  6
CONTINUOUS
 10
3.9123076379
 20
5.6884092669
 11
3.9003888879
 21
5.6725175997
  0
LINE
  5
28D
100
AcDbEntity
  8
03__ASM_ALL_CURVES
100
AcDbLine
 62
40
  6
CONTINUOUS
 10
3.6381763879
 20
5.8314342697
 11
3.6620138879
 21
5.8473259326
  0
LINE
  5
28E
100
AcDbEntity
  8
03__ASM_ALL_CURVES
100
AcDbLine
 62
40
  6
CONTINUOUS
 10
3.8288763879
 20
5.8314342697
 11
3.8527138879
 21
5.8473259326
  0
LINE
  5
28F
100
AcDbEntity
  8
03__ASM_ALL_CURVES
100
AcDbLine
 62
40
  6
CONTINUOUS
 10
3.7096888879
 20
5.6725175997
 11
3.6858513879
 21
5.6566259326
  0
LINE
  5
290
100
AcDbEntity
  8
03__ASM_ALL_CURVES
100
AcDbLine
 62
40
  6
CONTINUOUS
 10
1.7217938866
 20
5.8314342697
 11
1.7337126366
 21
5.8155425955
  0
LINE
  5
291
100
AcDbEntity
  8
THREAD
100
AcDbLine
 62
7
  6
CONTINUOUS
 10
3.3814598506
 20
3.3035339326
 11
3.3514376366
 21
3.3555339326
  0
LINE
  5
292
100
AcDbEntity
  8
03__ASM_ALL_CURVES
100
AcDbLine
 62
40
  6
CONTINUOUS
 10
3.0328563866
 20
5.8155425955
 11
3.0447751366
 21
5.7678675955
  0
LINE
  5
293
100
AcDbEntity
  8
03__ASM_ALL_CURVES
100
AcDbLine
 62
40
  6
CONTINUOUS
 10
3.7931201379
 20
5.7519759326
 11
3.8050388879
 21
5.7996509326
  0
LINE
  5
294
100
AcDbEntity
  8
03__ASM_ALL_CURVES
100
AcDbLine
 62
40
  6
CONTINUOUS
 10
3.9957388879
 20
5.6566259326
 11
4.0553326379
 21
5.8473259326
  0
LINE
  5
295
100
AcDbEntity
  8
03__ASM_ALL_CURVES
100
AcDbLine
 62
40
  6
CONTINUOUS
 10
3.9003888879
 20
5.6725175997
 11
3.8765513879
 21
5.6566259326
  0
LINE
  5
296
100
AcDbEntity
  8
03__ASM_ALL_CURVES
100
AcDbLine
 62
40
  6
CONTINUOUS
 10
4.5240041188
 20
2.7270089326
 11
4.5061259938
 21
2.738927683
  0
LINE
  5
297
100
AcDbEntity
  8
03__ASM_ALL_CURVES
100
AcDbLine
 62
40
  6
CONTINUOUS
 10
1.8648188866
 20
5.6884092669
 11
1.8886563866
 21
5.6566259326
  0
LINE
  5
298
100
AcDbEntity
  8
03__ASM_ALL_CURVES
100
AcDbLine
 62
40
  6
CONTINUOUS
 10
2.0316813866
 20
5.6725175997
 11
2.0197626366
 21
5.6884092669
  0
LINE
  5
299
100
AcDbEntity
  8
03__ASM_ALL_CURVES
100
AcDbLine
 62
40
  6
CONTINUOUS
 10
2.1031938866
 20
5.7678675955
 11
2.1151126366
 21
5.7519759326
  0
LINE
  5
29A
100
AcDbEntity
  8
03__ASM_ALL_CURVES
100
AcDbLine
 62
40
  6
CONTINUOUS
 10
2.2223813866
 20
5.6725175997
 11
2.2104626366
 21
5.6884092669
  0
LINE
  5
29B
100
AcDbEntity
  8
THREAD
100
AcDbLine
 62
7
  6
CONTINUOUS
 10
3.8509376366
 20
3.3035339326
 11
3.8509376366
 21
5.1865339326
  0
LINE
  5
29C
100
AcDbEntity
  8
THREAD
100
AcDbLine
 62
7
  6
CONTINUOUS
 10
3.9484376366
 20
3.4010339326
 11
3.9484376366
 21
5.0890339326
  0
LINE
  5
29D
100
AcDbEntity
  8
03__ASM_ALL_CURVES
100
AcDbLine
 62
40
  6
CONTINUOUS
 10
4.7585388879
 20
5.7996509326
 11
4.7823763879
 21
5.8314342697
  0
LINE
  5
29E
100
AcDbEntity
  8
03__ASM_ALL_CURVES
100
AcDbLine
 62
40
  6
CONTINUOUS
 10
4.7823763879
 20
5.8314342697
 11
4.8062138879
 21
5.8473259326
  0
LINE
  5
29F
100
AcDbEntity
  8
03__ASM_ALL_CURVES
100
AcDbLine
 62
40
  6
CONTINUOUS
 10
4.8538888879
 20
5.6725175997
 11
4.8300513879
 21
5.6566259326
  0
LINE
  5
2A0
100
AcDbEntity
  8
03__ASM_ALL_CURVES
100
AcDbLine
 62
40
  6
CONTINUOUS
 10
5.1876138879
 20
5.8473259326
 11
5.1637763879
 21
5.8314342697
  0
LINE
  5
2A1
100
AcDbEntity
  8
03__ASM_ALL_CURVES
100
AcDbLine
 62
40
  6
CONTINUOUS
 10
4.3988572438
 20
2.8700339326
 11
4.4167353688
 21
2.8581151854
  0
LINE
  5
2A2
100
AcDbEntity
  8
03__ASM_ALL_CURVES
100
AcDbLine
 62
40
  6
CONTINUOUS
 10
4.5418822438
 20
2.8700339326
 11
4.5597603688
 21
2.8581151854
  0
LINE
  5
2A3
100
AcDbEntity
  8
03__ASM_ALL_CURVES
100
AcDbLine
 62
40
  6
CONTINUOUS
 10
4.6849072438
 20
2.8700339326
 11
4.7027853688
 21
2.8581151854
  0
LINE
  5
2A4
100
AcDbEntity
  8
03__ASM_ALL_CURVES
100
AcDbLine
 62
40
  6
CONTINUOUS
 10
4.4167353688
 20
2.8581151854
 11
4.4256744313
 21
2.8461964298
  0
LINE
  5
2A5
100
AcDbEntity
  8
03__ASM_ALL_CURVES
100
AcDbLine
 62
40
  6
CONTINUOUS
 10
4.5061259938
 20
2.738927683
 11
4.4882478688
 21
2.7627651826
  0
LINE
  5
2A6
100
AcDbEntity
  8
03__ASM_ALL_CURVES
100
AcDbLine
 62
40
  6
CONTINUOUS
 10
2.2938938866
 20
5.7519759326
 11
2.3177313866
 21
5.7201926012
  0
LINE
  5
2A7
100
AcDbEntity
  8
03__ASM_ALL_CURVES
100
AcDbLine
 62
40
  6
CONTINUOUS
 10
2.2938938866
 20
5.8314342697
 11
2.3058126366
 21
5.8155425955
  0
LINE
  5
2A8
100
AcDbEntity
  8
03__ASM_ALL_CURVES
100
AcDbLine
 62
40
  6
CONTINUOUS
 10
2.4369188866
 20
5.6725175997
 11
2.4488376366
 21
5.6566259326
  0
LINE
  5
2A9
100
AcDbEntity
  8
03__ASM_ALL_CURVES
100
AcDbLine
 62
40
  6
CONTINUOUS
 10
4.5597603688
 20
2.8581151854
 11
4.5776384938
 21
2.8342776826
  0
LINE
  5
2AA
100
AcDbEntity
  8
03__ASM_ALL_CURVES
100
AcDbLine
 62
40
  6
CONTINUOUS
 10
4.7027853688
 20
2.8581151854
 11
4.7117244313
 21
2.8461964298
  0
LINE
  5
2AB
100
AcDbEntity
  8
03__ASM_ALL_CURVES
100
AcDbLine
 62
40
  6
CONTINUOUS
 10
2.6037813866
 20
5.6725175997
 11
2.5799438866
 21
5.7043009326
  0
LINE
  5
2AC
100
AcDbEntity
  8
03__ASM_ALL_CURVES
100
AcDbLine
 62
40
  6
CONTINUOUS
 10
2.6037813866
 20
5.7837592697
 11
2.5918626366
 21
5.7996509326
  0
LINE
  5
2AD
100
AcDbEntity
  8
03__ASM_ALL_CURVES
100
AcDbLine
 62
40
  6
CONTINUOUS
 10
3.6143388879
 20
5.7043009326
 11
3.6024201379
 21
5.7519759326
  0
LINE
  5
2AE
100
AcDbEntity
  8
03__ASM_ALL_CURVES
100
AcDbLine
 62
40
  6
CONTINUOUS
 10
4.4882478688
 20
2.7627651826
 11
4.4793088063
 21
2.7985214326
  0
LINE
  5
2AF
100
AcDbEntity
  8
03__ASM_ALL_CURVES
100
AcDbLine
 62
40
  6
CONTINUOUS
 10
3.7335263879
 20
5.7996509326
 11
3.7454451379
 21
5.7519759326
  0
LINE
  5
2B0
100
AcDbEntity
  8
0
100
AcDbLine
 62
7
  6
CONTINUOUS
 10
4.1794376366
 20
3.4010339326
 11
4.1794376366
 21
5.0890339326
  0
LINE
  5
2B1
100
AcDbEntity
  8
0
100
AcDbLine
 62
7
  6
CONTINUOUS
 10
4.1924376366
 20
3.4140339326
 11
4.1924376366
 21
5.0760339326
  0
LINE
  5
2B2
100
AcDbEntity
  8
03__ASM_ALL_CURVES
100
AcDbLine
 62
40
  6
CONTINUOUS
 10
4.2460326379
 20
5.8473259326
 11
4.2460326379
 21
5.6566259326
  0
LINE
  5
2B3
100
AcDbEntity
  8
03__ASM_ALL_CURVES
100
AcDbLine
 62
40
  6
CONTINUOUS
 10
4.3541619313
 20
2.7270089326
 11
4.3541619313
 21
2.8700339326
  0
LINE
  5
2B4
100
AcDbEntity
  8
03__ASM_ALL_CURVES
100
AcDbLine
 62
40
  6
CONTINUOUS
 10
4.4256744313
 20
2.8461964298
 11
4.4256744313
 21
2.8223589354
  0
LINE
  5
2B5
100
AcDbEntity
  8
03__ASM_ALL_CURVES
100
AcDbLine
 62
40
  6
CONTINUOUS
 10
4.4367326379
 20
5.8473259326
 11
4.4367326379
 21
5.6566259326
  0
LINE
  5
2B6
100
AcDbEntity
  8
03__ASM_ALL_CURVES
100
AcDbLine
 62
40
  6
CONTINUOUS
 10
4.7466201379
 20
5.7519759326
 11
4.7585388879
 21
5.7996509326
  0
LINE
  5
2B7
100
AcDbEntity
  8
03__ASM_ALL_CURVES
100
AcDbLine
 62
40
  6
CONTINUOUS
 10
4.8658076379
 20
5.6884092669
 11
4.8538888879
 21
5.6725175997
  0
LINE
  5
2B8
100
AcDbEntity
  8
03__ASM_ALL_CURVES
100
AcDbLine
 62
40
  6
CONTINUOUS
 10
5.1637763879
 20
5.8314342697
 11
5.1518576379
 21
5.8155425955
  0
LINE
  5
2B9
100
AcDbEntity
  8
03__ASM_ALL_CURVES
100
AcDbLine
 62
40
  6
CONTINUOUS
 10
5.2352888879
 20
5.6725175997
 11
5.2114513879
 21
5.6566259326
  0
LINE
  5
2BA
100
AcDbEntity
  8
03__ASM_ALL_CURVES
100
AcDbLine
 62
40
  6
CONTINUOUS
 10
5.5451763879
 20
5.8314342697
 11
5.5690138879
 21
5.8473259326
  0
LINE
  5
2BB
100
AcDbEntity
  8
03__ASM_ALL_CURVES
100
AcDbLine
 62
40
  6
CONTINUOUS
 10
7.6463517577
 20
2.7270089326
 11
7.6284736327
 21
2.7270089326
  0
LINE
  5
2BC
100
AcDbEntity
  8
03__ASM_ALL_CURVES
100
AcDbLine
 62
40
  6
CONTINUOUS
 10
6.3309571246
 20
2.7270089326
 11
6.3130789996
 21
2.7270089326
  0
LINE
  5
2BD
100
AcDbEntity
  8
03__ASM_ALL_CURVES
100
AcDbLine
 62
40
  6
CONTINUOUS
 10
5.9018821246
 20
2.7270089326
 11
5.8840039996
 21
2.7270089326
  0
LINE
  5
2BE
100
AcDbEntity
  8
03__ASM_ALL_CURVES
100
AcDbLine
 62
40
  6
CONTINUOUS
 10
4.5418822438
 20
2.7270089326
 11
4.5240041188
 21
2.7270089326
  0
LINE
  5
2BF
100
AcDbEntity
  8
03__ASM_ALL_CURVES
100
AcDbLine
 62
40
  6
CONTINUOUS
 10
8.0307314452
 20
2.7270089326
 11
8.1022439452
 21
2.7270089326
  0
LINE
  5
2C0
100
AcDbEntity
  8
03__ASM_ALL_CURVES
100
AcDbLine
 62
40
  6
CONTINUOUS
 10
4.9262619313
 20
2.7627651826
 11
5.0067134938
 21
2.7627651826
  0
LINE
  5
2C1
100
AcDbEntity
  8
03__ASM_ALL_CURVES
100
AcDbLine
 62
40
  6
CONTINUOUS
 10
7.7893767577
 20
2.7985214326
 11
7.7446814452
 21
2.7985214326
  0
LINE
  5
2C2
100
AcDbEntity
  8
03__ASM_ALL_CURVES
100
AcDbLine
 62
40
  6
CONTINUOUS
 10
7.5033267577
 20
2.7985214326
 11
7.4586314452
 21
2.7985214326
  0
LINE
  5
2C3
100
AcDbEntity
  8
03__ASM_ALL_CURVES
100
AcDbLine
 62
40
  6
CONTINUOUS
 10
6.0449071246
 20
2.7985214326
 11
6.0002118121
 21
2.7985214326
  0
LINE
  5
2C4
100
AcDbEntity
  8
03__ASM_ALL_CURVES
100
AcDbLine
 62
40
  6
CONTINUOUS
 10
5.7588571246
 20
2.7985214326
 11
5.7141618121
 21
2.7985214326
  0
LINE
  5
2C5
100
AcDbEntity
  8
03__ASM_ALL_CURVES
100
AcDbLine
 62
40
  6
CONTINUOUS
 10
4.6849072438
 20
2.7985214326
 11
4.6402119313
 21
2.7985214326
  0
LINE
  5
2C6
100
AcDbEntity
  8
03__ASM_ALL_CURVES
100
AcDbLine
 62
40
  6
CONTINUOUS
 10
4.3988572438
 20
2.7985214326
 11
4.3541619313
 21
2.7985214326
  0
LINE
  5
2C7
100
AcDbEntity
  8
03__ASM_ALL_CURVES
100
AcDbLine
 62
40
  6
CONTINUOUS
 10
6.3130789996
 20
2.8104401798
 11
6.3309571246
 21
2.8104401798
  0
LINE
  5
2C8
100
AcDbEntity
  8
03__ASM_ALL_CURVES
100
AcDbLine
 62
40
  6
CONTINUOUS
 10
4.3541619313
 20
2.8700339326
 11
4.3988572438
 21
2.8700339326
  0
LINE
  5
2C9
100
AcDbEntity
  8
03__ASM_ALL_CURVES
100
AcDbLine
 62
40
  6
CONTINUOUS
 10
4.5240041188
 20
2.8700339326
 11
4.5418822438
 21
2.8700339326
  0
LINE
  5
2CA
100
AcDbEntity
  8
03__ASM_ALL_CURVES
100
AcDbLine
 62
40
  6
CONTINUOUS
 10
4.6402119313
 20
2.8700339326
 11
4.6849072438
 21
2.8700339326
  0
LINE
  5
2CB
100
AcDbEntity
  8
03__ASM_ALL_CURVES
100
AcDbLine
 62
40
  6
CONTINUOUS
 10
4.7742978688
 20
2.8700339326
 11
4.8636884938
 21
2.8700339326
  0
LINE
  5
2CC
100
AcDbEntity
  8
03__ASM_ALL_CURVES
100
AcDbLine
 62
40
  6
CONTINUOUS
 10
5.7141618121
 20
2.8700339326
 11
5.7588571246
 21
2.8700339326
  0
LINE
  5
2CD
100
AcDbEntity
  8
03__ASM_ALL_CURVES
100
AcDbLine
 62
40
  6
CONTINUOUS
 10
5.8840039996
 20
2.8700339326
 11
5.9018821246
 21
2.8700339326
  0
LINE
  5
2CE
100
AcDbEntity
  8
03__ASM_ALL_CURVES
100
AcDbLine
 62
40
  6
CONTINUOUS
 10
6.0002118121
 20
2.8700339326
 11
6.0449071246
 21
2.8700339326
  0
LINE
  5
2CF
100
AcDbEntity
  8
03__ASM_ALL_CURVES
100
AcDbLine
 62
40
  6
CONTINUOUS
 10
6.1342977496
 20
2.8700339326
 11
6.2236883746
 21
2.8700339326
  0
LINE
  5
2D0
100
AcDbEntity
  8
03__ASM_ALL_CURVES
100
AcDbLine
 62
40
  6
CONTINUOUS
 10
6.3130789996
 20
2.8700339326
 11
6.3309571246
 21
2.8700339326
  0
LINE
  5
2D1
100
AcDbEntity
  8
03__ASM_ALL_CURVES
100
AcDbLine
 62
40
  6
CONTINUOUS
 10
7.4586314452
 20
2.8700339326
 11
7.5033267577
 21
2.8700339326
  0
LINE
  5
2D2
100
AcDbEntity
  8
03__ASM_ALL_CURVES
100
AcDbLine
 62
40
  6
CONTINUOUS
 10
7.6284736327
 20
2.8700339326
 11
7.6463517577
 21
2.8700339326
  0
LINE
  5
2D3
100
AcDbEntity
  8
03__ASM_ALL_CURVES
100
AcDbLine
 62
40
  6
CONTINUOUS
 10
7.7446814452
 20
2.8700339326
 11
7.7893767577
 21
2.8700339326
  0
LINE
  5
2D4
100
AcDbEntity
  8
03__ASM_ALL_CURVES
100
AcDbLine
 62
40
  6
CONTINUOUS
 10
7.8787673827
 20
2.8700339326
 11
7.9681580077
 21
2.8700339326
  0
LINE
  5
2D5
100
AcDbEntity
  8
03__ASM_ALL_CURVES
100
AcDbLine
 62
40
  6
CONTINUOUS
 10
8.0575486327
 20
2.8700339326
 11
8.0754267577
 21
2.8700339326
  0
LINE
  5
2D6
100
AcDbEntity
  8
03__ASM_ALL_CURVES
100
AcDbLine
 62
40
  6
CONTINUOUS
 10
2.6752938866
 20
5.7519759326
 11
2.6991313866
 21
5.7201926012
  0
LINE
  5
2D7
100
AcDbEntity
  8
03__ASM_ALL_CURVES
100
AcDbLine
 62
40
  6
CONTINUOUS
 10
2.6752938866
 20
5.8314342697
 11
2.6872126366
 21
5.8155425955
  0
LINE
  5
2D8
100
AcDbEntity
  8
03__ASM_ALL_CURVES
100
AcDbLine
 62
40
  6
CONTINUOUS
 10
4.6849072438
 20
2.7985214326
 11
4.7117244313
 21
2.7270089326
  0
LINE
  5
2D9
100
AcDbEntity
  8
03__ASM_ALL_CURVES
100
AcDbLine
 62
40
  6
CONTINUOUS
 10
3.8050388879
 20
5.7043009326
 11
3.7931201379
 21
5.7519759326
  0
LINE
  5
2DA
100
AcDbEntity
  8
03__ASM_ALL_CURVES
100
AcDbLine
 62
40
  6
CONTINUOUS
 10
4.5776384938
 20
2.8342776826
 11
4.5865775563
 21
2.7985214326
  0
LINE
  5
2DB
100
AcDbEntity
  8
03__ASM_ALL_CURVES
100
AcDbLine
 62
40
  6
CONTINUOUS
 10
4.5797576379
 20
5.6566259326
 11
4.5797576379
 21
5.8473259326
  0
LINE
  5
2DC
100
AcDbEntity
  8
03__ASM_ALL_CURVES
100
AcDbLine
 62
40
  6
CONTINUOUS
 10
4.6402119313
 20
2.7270089326
 11
4.6402119313
 21
2.8700339326
  0
LINE
  5
2DD
100
AcDbEntity
  8
03__ASM_ALL_CURVES
100
AcDbLine
 62
40
  6
CONTINUOUS
 10
4.6751076379
 20
5.6566259326
 11
4.6751076379
 21
5.8473259326
  0
LINE
  5
2DE
100
AcDbEntity
  8
03__ASM_ALL_CURVES
100
AcDbLine
 62
40
  6
CONTINUOUS
 10
4.7117244313
 20
2.8461964298
 11
4.7117244313
 21
2.8223589354
  0
LINE
  5
2DF
100
AcDbEntity
  8
03__ASM_ALL_CURVES
100
AcDbLine
 62
40
  6
CONTINUOUS
 10
4.8189931813
 20
2.8700339326
 11
4.8189931813
 21
2.7270089326
  0
LINE
  5
2E0
100
AcDbEntity
  8
03__ASM_ALL_CURVES
100
AcDbLine
 62
40
  6
CONTINUOUS
 10
5.2472076379
 20
5.6884092669
 11
5.2352888879
 21
5.6725175997
  0
LINE
  5
2E1
100
AcDbEntity
  8
03__ASM_ALL_CURVES
100
AcDbLine
 62
40
  6
CONTINUOUS
 10
5.5213388879
 20
5.7996509326
 11
5.5451763879
 21
5.8314342697
  0
LINE
  5
2E2
100
AcDbEntity
  8
03__ASM_ALL_CURVES
100
AcDbLine
 62
40
  6
CONTINUOUS
 10
5.6405263879
 20
5.7043009326
 11
5.6166888879
 21
5.6725175997
  0
LINE
  5
2E3
100
AcDbEntity
  8
03__ASM_ALL_CURVES
100
AcDbLine
 62
40
  6
CONTINUOUS
 10
5.6166888879
 20
5.6725175997
 11
5.5928513879
 21
5.6566259326
  0
LINE
  5
2E4
100
AcDbEntity
  8
03__ASM_ALL_CURVES
100
AcDbLine
 62
40
  6
CONTINUOUS
 10
5.8073888879
 20
5.6725175997
 11
5.7835513879
 21
5.6566259326
  0
LINE
  5
2E5
100
AcDbEntity
  8
0
100
AcDbLine
 62
7
  6
CONTINUOUS
 10
3.1304376366
 20
3.2155339326
 11
2.0654376366
 21
3.2155339326
  0
LINE
  5
2E6
100
AcDbEntity
  8
0
100
AcDbLine
 62
7
  6
CONTINUOUS
 10
3.2804376366
 20
3.2910339326
 11
3.3304376366
 21
3.2910339326
  0
LINE
  5
2E7
100
AcDbEntity
  8
THREAD
100
AcDbLine
 62
7
  6
CONTINUOUS
 10
3.1774376366
 20
3.2915339326
 11
3.1304376366
 21
3.2915339326
  0
LINE
  5
2E8
100
AcDbEntity
  8
THREAD
100
AcDbLine
 62
7
  6
CONTINUOUS
 10
3.8509376366
 20
3.3035339326
 11
3.3814598506
 21
3.3035339326
  0
LINE
  5
2E9
100
AcDbEntity
  8
0
100
AcDbLine
 62
7
  6
CONTINUOUS
 10
2.0039498329
 20
3.3220339326
 11
1.0714102678
 21
3.3220339326
  0
LINE
  5
2EA
100
AcDbEntity
  8
0
100
AcDbLine
 62
7
  6
CONTINUOUS
 10
2.0039498329
 20
3.322429274
 11
1.0714102678
 21
3.322429274
  0
LINE
  5
2EB
100
AcDbEntity
  8
03__ASM_ALL_CURVES
100
AcDbLine
 62
40
  6
CONTINUOUS
 10
1.1258563866
 20
5.8473259326
 11
1.1496938866
 21
5.8314342697
  0
LINE
  5
2EC
100
AcDbEntity
  8
03__ASM_ALL_CURVES
100
AcDbLine
 62
40
  6
CONTINUOUS
 10
5.8840039996
 20
2.7270089326
 11
5.8661258746
 21
2.738927683
  0
LINE
  5
2ED
100
AcDbEntity
  8
03__ASM_ALL_CURVES
100
AcDbLine
 62
40
  6
CONTINUOUS
 10
5.7588571246
 20
2.8700339326
 11
5.7767352496
 21
2.8581151854
  0
LINE
  5
2EE
100
AcDbEntity
  8
03__ASM_ALL_CURVES
100
AcDbLine
 62
40
  6
CONTINUOUS
 10
5.9018821246
 20
2.8700339326
 11
5.9197602496
 21
2.8581151854
  0
LINE
  5
2EF
100
AcDbEntity
  8
03__ASM_ALL_CURVES
100
AcDbLine
 62
40
  6
CONTINUOUS
 10
6.0449071246
 20
2.8700339326
 11
6.0627852496
 21
2.8581151854
  0
LINE
  5
2F0
100
AcDbEntity
  8
03__ASM_ALL_CURVES
100
AcDbLine
 62
40
  6
CONTINUOUS
 10
6.3130789996
 20
2.7270089326
 11
6.2952008746
 21
2.738927683
  0
LINE
  5
2F1
100
AcDbEntity
  8
03__ASM_ALL_CURVES
100
AcDbLine
 62
40
  6
CONTINUOUS
 10
1.6979563866
 20
5.8473259326
 11
1.7217938866
 21
5.8314342697
  0
LINE
  5
2F2
100
AcDbEntity
  8
03__ASM_ALL_CURVES
100
AcDbLine
 62
40
  6
CONTINUOUS
 10
3.0090188866
 20
5.8473259326
 11
3.0328563866
 21
5.8155425955
  0
LINE
  5
2F3
100
AcDbEntity
  8
03__ASM_ALL_CURVES
100
AcDbLine
 62
40
  6
CONTINUOUS
 10
4.0553326379
 20
5.8473259326
 11
4.1149263879
 21
5.6566259326
  0
LINE
  5
2F4
100
AcDbEntity
  8
03__ASM_ALL_CURVES
100
AcDbLine
 62
40
  6
CONTINUOUS
 10
4.8658076379
 20
5.7519759326
 11
4.8658076379
 21
5.6884092669
  0
LINE
  5
2F5
100
AcDbEntity
  8
03__ASM_ALL_CURVES
100
AcDbLine
 62
40
  6
CONTINUOUS
 10
4.9888353688
 20
2.7270089326
 11
4.9888353688
 21
2.8700339326
  0
LINE
  5
2F6
100
AcDbEntity
  8
0
100
AcDbLine
 62
7
  6
CONTINUOUS
 10
5.0834376366
 20
3.5353715124
 11
5.0834376366
 21
3.7986105584
  0
LINE
  5
2F7
100
AcDbEntity
  8
0
100
AcDbLine
 62
7
  6
CONTINUOUS
 10
5.0834376366
 20
3.9817948866
 11
5.0834376366
 21
4.5082729786
  0
LINE
  5
2F8
100
AcDbEntity
  8
0
100
AcDbLine
 62
7
  6
CONTINUOUS
 10
5.0834376366
 20
4.6914573068
 11
5.0834376366
 21
4.9546963528
  0
LINE
  5
2F9
100
AcDbEntity
  8
03__ASM_ALL_CURVES
100
AcDbLine
 62
40
  6
CONTINUOUS
 10
5.1518576379
 20
5.8155425955
 11
5.1518576379
 21
5.7996509326
  0
LINE
  5
2FA
100
AcDbEntity
  8
03__ASM_ALL_CURVES
100
AcDbLine
 62
40
  6
CONTINUOUS
 10
4.4793088063
 20
2.7985214326
 11
4.4882478688
 21
2.8342776826
  0
LINE
  5
2FB
100
AcDbEntity
  8
03__ASM_ALL_CURVES
100
AcDbLine
 62
40
  6
CONTINUOUS
 10
4.5865775563
 20
2.7985214326
 11
4.5776384938
 21
2.7627651826
  0
LINE
  5
2FC
100
AcDbEntity
  8
03__ASM_ALL_CURVES
100
AcDbLine
 62
40
  6
CONTINUOUS
 10
5.5094201379
 20
5.7519759326
 11
5.5213388879
 21
5.7996509326
  0
LINE
  5
2FD
100
AcDbEntity
  8
03__ASM_ALL_CURVES
100
AcDbLine
 62
40
  6
CONTINUOUS
 10
5.8193076379
 20
5.6884092669
 11
5.8073888879
 21
5.6725175997
  0
LINE
  5
2FE
100
AcDbEntity
  8
THREAD
100
AcDbLine
 62
7
  6
CONTINUOUS
 10
3.9484376366
 20
3.4010339326
 11
3.8509376366
 21
3.3035339326
  0
LINE
  5
2FF
100
AcDbEntity
  8
03__ASM_ALL_CURVES
100
AcDbLine
 62
40
  6
CONTINUOUS
 10
6.1768701379
 20
5.6725175997
 11
6.1530326379
 21
5.6566259326
  0
LINE
  5
300
100
AcDbEntity
  8
03__ASM_ALL_CURVES
100
AcDbLine
 62
40
  6
CONTINUOUS
 10
6.5701888879
 20
5.7678675955
 11
6.5463513879
 21
5.7519759326
  0
LINE
  5
301
100
AcDbEntity
  8
0
100
AcDbLine
 62
7
  6
CONTINUOUS
 10
5.2714376366
 20
3.3605339326
 11
5.3214376366
 21
3.3605339326
  0
LINE
  5
302
100
AcDbEntity
  8
0
100
AcDbLine
 62
7
  6
CONTINUOUS
 10
5.4244376366
 20
3.3605339326
 11
5.4744376366
 21
3.3605339326
  0
LINE
  5
303
100
AcDbEntity
  8
0
100
AcDbLine
 62
7
  6
CONTINUOUS
 10
5.1774376366
 20
3.3635339326
 11
5.2714376366
 21
3.3635339326
  0
LINE
  5
304
100
AcDbEntity
  8
0
100
AcDbLine
 62
7
  6
CONTINUOUS
 10
5.5084376366
 20
3.3635339326
 11
5.6024376366
 21
3.3635339326
  0
LINE
  5
305
100
AcDbEntity
  8
0
100
AcDbLine
 62
7
  6
CONTINUOUS
 10
6.7714376366
 20
3.3835339326
 11
6.8214376366
 21
3.3835339326
  0
LINE
  5
306
100
AcDbEntity
  8
0
100
AcDbLine
 62
7
  6
CONTINUOUS
 10
6.9244376366
 20
3.3835339326
 11
6.9744376366
 21
3.3835339326
  0
LINE
  5
307
100
AcDbEntity
  8
0
100
AcDbLine
 62
7
  6
CONTINUOUS
 10
8.2854376366
 20
3.3835339326
 11
8.3354376366
 21
3.3835339326
  0
LINE
  5
308
100
AcDbEntity
  8
0
100
AcDbLine
 62
7
  6
CONTINUOUS
 10
8.4384376366
 20
3.3835339326
 11
8.4884376366
 21
3.3835339326
  0
LINE
  5
309
100
AcDbEntity
  8
0
100
AcDbLine
 62
7
  6
CONTINUOUS
 10
7.1024376366
 20
3.3870339326
 11
7.0084376366
 21
3.3870339326
  0
LINE
  5
30A
100
AcDbEntity
  8
0
100
AcDbLine
 62
7
  6
CONTINUOUS
 10
6.7714376366
 20
3.3870339326
 11
6.6774376366
 21
3.3870339326
  0
LINE
  5
30B
100
AcDbEntity
  8
THREAD
100
AcDbLine
 62
7
  6
CONTINUOUS
 10
4.1794376366
 20
3.4010339326
 11
3.9484376366
 21
3.4010339326
  0
LINE
  5
30C
100
AcDbEntity
  8
0
100
AcDbLine
 62
7
  6
CONTINUOUS
 10
8.6104376366
 20
3.4105339326
 11
8.5224376366
 21
3.4105339326
  0
LINE
  5
30D
100
AcDbEntity
  8
0
100
AcDbLine
 62
7
  6
CONTINUOUS
 10
8.2854376366
 20
3.4105339326
 11
8.1754376366
 21
3.4105339326
  0
LINE
  5
30E
100
AcDbEntity
  8
0
100
AcDbLine
 62
7
  6
CONTINUOUS
 10
5.5084376366
 20
3.4485339326
 11
5.4744376366
 21
3.4485339326
  0
LINE
  5
30F
100
AcDbEntity
  8
0
100
AcDbLine
 62
7
  6
CONTINUOUS
 10
7.0084376366
 20
3.4715339326
 11
6.9744376366
 21
3.4715339326
  0
LINE
  5
310
100
AcDbEntity
  8
0
100
AcDbLine
 62
7
  6
CONTINUOUS
 10
8.5224376366
 20
3.4960339326
 11
8.4884376366
 21
3.4960339326
  0
LINE
  5
311
100
AcDbEntity
  8
0
100
AcDbLine
 62
7
  6
CONTINUOUS
 10
8.0814376366
 20
3.5275339326
 11
7.713644896
 21
3.5275339326
  0
LINE
  5
312
100
AcDbEntity
  8
0
100
AcDbLine
 62
7
  6
CONTINUOUS
 10
7.2352303771
 20
3.5275339326
 11
7.1964376366
 21
3.5275339326
  0
LINE
  5
313
100
AcDbEntity
  8
0
100
AcDbLine
 62
7
  6
CONTINUOUS
 10
6.5834376366
 20
3.5275339326
 11
6.272644896
 21
3.5275339326
  0
LINE
  5
314
100
AcDbEntity
  8
0
100
AcDbLine
 62
7
  6
CONTINUOUS
 10
5.7942303771
 20
3.5275339326
 11
5.6964376366
 21
3.5275339326
  0
LINE
  5
315
100
AcDbEntity
  8
0
100
AcDbLine
 62
7
  6
CONTINUOUS
 10
5.10528256
 20
3.5275339326
 11
5.0984467761
 21
3.5275339326
  0
LINE
  5
316
100
AcDbEntity
  8
0
100
AcDbLine
 62
7
  6
CONTINUOUS
 10
4.6347224569
 20
3.5275339326
 11
4.1924376366
 21
3.5275339326
  0
LINE
  5
317
100
AcDbEntity
  8
03__ASM_ALL_CURVES
100
AcDbLine
 62
40
  6
CONTINUOUS
 10
2.0555188866
 20
5.6566259326
 11
2.0316813866
 21
5.6725175997
  0
LINE
  5
318
100
AcDbEntity
  8
03__ASM_ALL_CURVES
100
AcDbLine
 62
40
  6
CONTINUOUS
 10
6.3309571246
 20
2.8104401798
 11
6.3488352496
 21
2.7985214326
  0
LINE
  5
319
100
AcDbEntity
  8
03__ASM_ALL_CURVES
100
AcDbLine
 62
40
  6
CONTINUOUS
 10
6.3309571246
 20
2.8700339326
 11
6.3488352496
 21
2.8581151854
  0
LINE
  5
31A
100
AcDbEntity
  8
03__ASM_ALL_CURVES
100
AcDbLine
 62
40
  6
CONTINUOUS
 10
2.2462188866
 20
5.6566259326
 11
2.2223813866
 21
5.6725175997
  0
LINE
  5
31B
100
AcDbEntity
  8
03__ASM_ALL_CURVES
100
AcDbLine
 62
40
  6
CONTINUOUS
 10
2.0793563866
 20
5.7837592697
 11
2.1031938866
 21
5.7678675955
  0
LINE
  5
31C
100
AcDbEntity
  8
03__ASM_ALL_CURVES
100
AcDbLine
 62
40
  6
CONTINUOUS
 10
2.2700563866
 20
5.7678675955
 11
2.2938938866
 21
5.7519759326
  0
LINE
  5
31D
100
AcDbEntity
  8
03__ASM_ALL_CURVES
100
AcDbLine
 62
40
  6
CONTINUOUS
 10
2.2700563866
 20
5.8473259326
 11
2.2938938866
 21
5.8314342697
  0
LINE
  5
31E
100
AcDbEntity
  8
THREAD
100
AcDbLine
 62
7
  6
CONTINUOUS
 10
3.9484376366
 20
5.0890339326
 11
3.8509376366
 21
5.1865339326
  0
LINE
  5
31F
100
AcDbEntity
  8
03__ASM_ALL_CURVES
100
AcDbLine
 62
40
  6
CONTINUOUS
 10
3.6381763879
 20
5.6725175997
 11
3.6143388879
 21
5.7043009326
  0
LINE
  5
320
100
AcDbEntity
  8
03__ASM_ALL_CURVES
100
AcDbLine
 62
40
  6
CONTINUOUS
 10
5.8661258746
 20
2.738927683
 11
5.8482477496
 21
2.7627651826
  0
LINE
  5
321
100
AcDbEntity
  8
03__ASM_ALL_CURVES
100
AcDbLine
 62
40
  6
CONTINUOUS
 10
5.7767352496
 20
2.8581151854
 11
5.7856743121
 21
2.8461964298
  0
LINE
  5
322
100
AcDbEntity
  8
03__ASM_ALL_CURVES
100
AcDbLine
 62
40
  6
CONTINUOUS
 10
5.9197602496
 20
2.8581151854
 11
5.9376383746
 21
2.8342776826
  0
LINE
  5
323
100
AcDbEntity
  8
03__ASM_ALL_CURVES
100
AcDbLine
 62
40
  6
CONTINUOUS
 10
3.8288763879
 20
5.6725175997
 11
3.8050388879
 21
5.7043009326
  0
LINE
  5
324
100
AcDbEntity
  8
03__ASM_ALL_CURVES
100
AcDbLine
 62
40
  6
CONTINUOUS
 10
3.7096888879
 20
5.8314342697
 11
3.7335263879
 21
5.7996509326
  0
LINE
  5
325
100
AcDbEntity
  8
03__ASM_ALL_CURVES
100
AcDbLine
 62
40
  6
CONTINUOUS
 10
6.0627852496
 20
2.8581151854
 11
6.0717243121
 21
2.8461964298
  0
LINE
  5
326
100
AcDbEntity
  8
03__ASM_ALL_CURVES
100
AcDbLine
 62
40
  6
CONTINUOUS
 10
4.7585388879
 20
5.7043009326
 11
4.7466201379
 21
5.7519759326
  0
LINE
  5
327
100
AcDbEntity
  8
0
100
AcDbLine
 62
7
  6
CONTINUOUS
 10
5.1774376366
 20
5.1265185252
 11
5.1774376366
 21
3.36354934
  0
LINE
  5
328
100
AcDbEntity
  8
03__ASM_ALL_CURVES
100
AcDbLine
 62
40
  6
CONTINUOUS
 10
5.2472076379
 20
5.7201926012
 11
5.2472076379
 21
5.6884092669
  0
LINE
  5
329
100
AcDbEntity
  8
0
100
AcDbLine
 62
7
  6
CONTINUOUS
 10
5.2714376366
 20
3.3605339326
 11
5.2714376366
 21
5.1295339326
  0
LINE
  5
32A
100
AcDbEntity
  8
0
100
AcDbLine
 62
7
  6
CONTINUOUS
 10
5.3214376366
 20
3.3605339326
 11
5.3214376366
 21
5.1295339326
  0
LINE
  5
32B
100
AcDbEntity
  8
03__ASM_ALL_CURVES
100
AcDbLine
 62
40
  6
CONTINUOUS
 10
5.3425576379
 20
5.8473259326
 11
5.3425576379
 21
5.6566259326
  0
LINE
  5
32C
100
AcDbEntity
  8
0
100
AcDbLine
 62
7
  6
CONTINUOUS
 10
5.4244376366
 20
3.3605339326
 11
5.4244376366
 21
5.1295339326
  0
LINE
  5
32D
100
AcDbEntity
  8
03__ASM_ALL_CURVES
100
AcDbLine
 62
40
  6
CONTINUOUS
 10
5.4379076379
 20
5.8473259326
 11
5.4379076379
 21
5.6566259326
  0
LINE
  5
32E
100
AcDbEntity
  8
0
100
AcDbLine
 62
7
  6
CONTINUOUS
 10
5.4744376366
 20
3.3605339326
 11
5.4744376366
 21
5.1295339326
  0
LINE
  5
32F
100
AcDbEntity
  8
0
100
AcDbLine
 62
7
  6
CONTINUOUS
 10
5.5084376366
 20
5.1265185252
 11
5.5084376366
 21
3.36354934
  0
LINE
  5
330
100
AcDbEntity
  8
03__ASM_ALL_CURVES
100
AcDbLine
 62
40
  6
CONTINUOUS
 10
5.6524451379
 20
5.7519759326
 11
5.6405263879
 21
5.7043009326
  0
LINE
  5
331
100
AcDbEntity
  8
03__ASM_ALL_CURVES
100
AcDbLine
 62
40
  6
CONTINUOUS
 10
6.2007076379
 20
5.7043009326
 11
6.1768701379
 21
5.6725175997
  0
LINE
  5
332
100
AcDbEntity
  8
0
100
AcDbLine
 62
7
  6
CONTINUOUS
 10
4.1924376366
 20
3.4140339326
 11
4.1794376366
 21
3.4010339326
  0
LINE
  5
333
100
AcDbEntity
  8
0
100
AcDbLine
 62
7
  6
CONTINUOUS
 10
2.0039498329
 20
3.7603385911
 11
1.0714102678
 21
3.7603385911
  0
LINE
  5
334
100
AcDbEntity
  8
0
100
AcDbLine
 62
7
  6
CONTINUOUS
 10
2.0039498329
 20
3.8071246155
 11
1.0714102678
 21
3.8071246155
  0
LINE
  5
335
100
AcDbEntity
  8
0
100
AcDbLine
 62
7
  6
CONTINUOUS
 10
7.4754376366
 20
3.9642839326
 11
7.2683211851
 21
3.9642839326
  0
LINE
  5
336
100
AcDbEntity
  8
0
100
AcDbLine
 62
7
  6
CONTINUOUS
 10
6.333669645
 20
3.9642839326
 11
6.1444376366
 21
3.9642839326
  0
LINE
  5
337
100
AcDbEntity
  8
0
100
AcDbLine
 62
7
  6
CONTINUOUS
 10
5.0864997755
 20
3.9642839326
 11
4.6772893221
 21
3.9642839326
  0
LINE
  5
338
100
AcDbEntity
  8
03__ASM_ALL_CURVES
100
AcDbLine
 62
40
  6
CONTINUOUS
 10
2.6276188866
 20
5.6566259326
 11
2.6037813866
 21
5.6725175997
  0
LINE
  5
339
100
AcDbEntity
  8
03__ASM_ALL_CURVES
100
AcDbLine
 62
40
  6
CONTINUOUS
 10
2.6276188866
 20
5.7678675955
 11
2.6037813866
 21
5.7837592697
  0
LINE
  5
33A
100
AcDbEntity
  8
03__ASM_ALL_CURVES
100
AcDbLine
 62
40
  6
CONTINUOUS
 10
2.6514563866
 20
5.7678675955
 11
2.6752938866
 21
5.7519759326
  0
LINE
  5
33B
100
AcDbEntity
  8
03__ASM_ALL_CURVES
100
AcDbLine
 62
40
  6
CONTINUOUS
 10
2.6514563866
 20
5.8473259326
 11
2.6752938866
 21
5.8314342697
  0
LINE
  5
33C
100
AcDbEntity
  8
0
100
AcDbLine
 62
7
  6
CONTINUOUS
 10
4.1924376366
 20
5.0760339326
 11
4.1794376366
 21
5.0890339326
  0
LINE
  5
33D
100
AcDbEntity
  8
03__ASM_ALL_CURVES
100
AcDbLine
 62
40
  6
CONTINUOUS
 10
3.9003888879
 20
5.8314342697
 11
3.9123076379
 21
5.8155425955
  0
LINE
  5
33E
100
AcDbEntity
  8
03__ASM_ALL_CURVES
100
AcDbLine
 62
40
  6
CONTINUOUS
 10
6.2952008746
 20
2.738927683
 11
6.2862618121
 21
2.7508464333
  0
LINE
  5
33F
100
AcDbEntity
  8
03__ASM_ALL_CURVES
100
AcDbLine
 62
40
  6
CONTINUOUS
 10
6.3488352496
 20
2.7985214326
 11
6.3667133746
 21
2.774683934
  0
LINE
  5
340
100
AcDbEntity
  8
03__ASM_ALL_CURVES
100
AcDbLine
 62
40
  6
CONTINUOUS
 10
6.3488352496
 20
2.8581151854
 11
6.3577743121
 21
2.8461964298
  0
LINE
  5
341
100
AcDbEntity
  8
03__ASM_ALL_CURVES
100
AcDbLine
 62
40
  6
CONTINUOUS
 10
4.5797576379
 20
5.8473259326
 11
4.6751076379
 21
5.6566259326
  0
LINE
  5
342
100
AcDbEntity
  8
03__ASM_ALL_CURVES
100
AcDbLine
 62
40
  6
CONTINUOUS
 10
6.0449071246
 20
2.7985214326
 11
6.0717243121
 21
2.7270089326
  0
LINE
  5
343
100
AcDbEntity
  8
03__ASM_ALL_CURVES
100
AcDbLine
 62
40
  6
CONTINUOUS
 10
5.8482477496
 20
2.7627651826
 11
5.8393086871
 21
2.7985214326
  0
LINE
  5
344
100
AcDbEntity
  8
0
100
AcDbLine
 62
7
  6
CONTINUOUS
 10
5.6024376366
 20
5.1265185252
 11
5.6024376366
 21
3.36354934
  0
LINE
  5
345
100
AcDbEntity
  8
0
100
AcDbLine
 62
7
  6
CONTINUOUS
 10
5.6964376366
 20
3.5275339326
 11
5.6964376366
 21
4.9625339326
  0
LINE
  5
346
100
AcDbEntity
  8
03__ASM_ALL_CURVES
100
AcDbLine
 62
40
  6
CONTINUOUS
 10
5.7141618121
 20
2.7270089326
 11
5.7141618121
 21
2.8700339326
  0
LINE
  5
347
100
AcDbEntity
  8
03__ASM_ALL_CURVES
100
AcDbLine
 62
40
  6
CONTINUOUS
 10
5.7239576379
 20
5.6884092669
 11
5.7239576379
 21
5.8473259326
  0
LINE
  5
348
100
AcDbEntity
  8
03__ASM_ALL_CURVES
100
AcDbLine
 62
40
  6
CONTINUOUS
 10
5.7856743121
 20
2.8461964298
 11
5.7856743121
 21
2.8223589354
  0
LINE
  5
349
100
AcDbEntity
  8
03__ASM_ALL_CURVES
100
AcDbLine
 62
40
  6
CONTINUOUS
 10
5.8193076379
 20
5.8473259326
 11
5.8193076379
 21
5.6884092669
  0
LINE
  5
34A
100
AcDbEntity
  8
03__ASM_ALL_CURVES
100
AcDbLine
 62
40
  6
CONTINUOUS
 10
6.2126263879
 20
5.7519759326
 11
6.2007076379
 21
5.7043009326
  0
LINE
  5
34B
100
AcDbEntity
  8
03__ASM_ALL_CURVES
100
AcDbLine
 62
40
  6
CONTINUOUS
 10
4.9888353688
 20
2.8700339326
 11
4.9262619313
 21
2.7627651826
  0
LINE
  5
34C
100
AcDbEntity
  8
03__ASM_ALL_CURVES
100
AcDbLine
 62
40
  6
CONTINUOUS
 10
6.5821076379
 20
5.7837592697
 11
6.5701888879
 21
5.7678675955
  0
LINE
  5
34D
100
AcDbEntity
  8
03__ASM_ALL_CURVES
100
AcDbLine
 62
40
  6
CONTINUOUS
 10
4.4256744313
 20
2.8223589354
 11
4.4167353688
 21
2.8104401798
  0
LINE
  5
34E
100
AcDbEntity
  8
03__ASM_ALL_CURVES
100
AcDbLine
 62
40
  6
CONTINUOUS
 10
4.4882478688
 20
2.8342776826
 11
4.5061259938
 21
2.8581151854
  0
LINE
  5
34F
100
AcDbEntity
  8
03__ASM_ALL_CURVES
100
AcDbLine
 62
40
  6
CONTINUOUS
 10
4.5776384938
 20
2.7627651826
 11
4.5597603688
 21
2.738927683
  0
LINE
  5
350
100
AcDbEntity
  8
03__ASM_ALL_CURVES
100
AcDbLine
 62
40
  6
CONTINUOUS
 10
4.7117244313
 20
2.8223589354
 11
4.7027853688
 21
2.8104401798
  0
LINE
  5
351
100
AcDbEntity
  8
03__ASM_ALL_CURVES
100
AcDbLine
 62
40
  6
CONTINUOUS
 10
10.1781579501
 20
4.2831739326
 11
10.1602798251
 21
4.2831739326
  0
LINE
  5
352
100
AcDbEntity
  8
0
100
AcDbLine
 62
7
  6
CONTINUOUS
 10
7.4754376366
 20
3.9642839326
 11
7.5279633908
 21
3.9578614483
  0
LINE
  5
353
100
AcDbEntity
  8
03__ASM_ALL_CURVES
100
AcDbLine
 62
40
  6
CONTINUOUS
 10
7.6284736327
 20
2.7270089326
 11
7.6105955077
 21
2.738927683
  0
LINE
  5
354
100
AcDbEntity
  8
03__ASM_ALL_CURVES
100
AcDbLine
 62
40
  6
CONTINUOUS
 10
7.5033267577
 20
2.8700339326
 11
7.5212048827
 21
2.8581151854
  0
LINE
  5
355
100
AcDbEntity
  8
03__ASM_ALL_CURVES
100
AcDbLine
 62
40
  6
CONTINUOUS
 10
7.6463517577
 20
2.8700339326
 11
7.6642298827
 21
2.8581151854
  0
LINE
  5
356
100
AcDbEntity
  8
03__ASM_ALL_CURVES
100
AcDbLine
 62
40
  6
CONTINUOUS
 10
7.7893767577
 20
2.8700339326
 11
7.8072548827
 21
2.8581151854
  0
LINE
  5
357
100
AcDbEntity
  8
03__ASM_ALL_CURVES
100
AcDbLine
 62
40
  6
CONTINUOUS
 10
3.6620138879
 20
5.6566259326
 11
3.6381763879
 21
5.6725175997
  0
LINE
  5
358
100
AcDbEntity
  8
03__ASM_ALL_CURVES
100
AcDbLine
 62
40
  6
CONTINUOUS
 10
4.7823763879
 20
5.6725175997
 11
4.7585388879
 21
5.7043009326
  0
LINE
  5
359
100
AcDbEntity
  8
03__ASM_ALL_CURVES
100
AcDbLine
 62
40
  6
CONTINUOUS
 10
5.9376383746
 20
2.8342776826
 11
5.9465774371
 21
2.7985214326
  0
LINE
  5
35A
100
AcDbEntity
  8
0
100
AcDbLine
 62
7
  6
CONTINUOUS
 10
5.8624376366
 20
4.6197128492
 11
5.8624376366
 21
4.4678416554
  0
LINE
  5
35B
100
AcDbEntity
  8
0
100
AcDbLine
 62
7
  6
CONTINUOUS
 10
5.8694376366
 20
4.6260779946
 11
5.8694376366
 21
4.4617794776
  0
LINE
  5
35C
100
AcDbEntity
  8
0
100
AcDbLine
 62
7
  6
CONTINUOUS
 10
5.8794376366
 20
4.6331342996
 11
5.8794376366
 21
4.4531192235
  0
LINE
  5
35D
100
AcDbEntity
  8
0
100
AcDbLine
 62
7
  6
CONTINUOUS
 10
5.8864376366
 20
4.6380737132
 11
5.8864376366
 21
4.4470570457
  0
LINE
  5
35E
100
AcDbEntity
  8
03__ASM_ALL_CURVES
100
AcDbLine
 62
40
  6
CONTINUOUS
 10
5.9146576379
 20
5.8473259326
 11
5.9146576379
 21
5.6566259326
  0
LINE
  5
35F
100
AcDbEntity
  8
0
100
AcDbLine
 62
7
  6
CONTINUOUS
 10
5.9374376366
 20
4.6618091564
 11
5.9374376366
 21
4.4159395538
  0
LINE
  5
360
100
AcDbEntity
  8
0
100
AcDbLine
 62
7
  6
CONTINUOUS
 10
5.9374376366
 20
3.9735503996
 11
5.9374376366
 21
3.9006928018
  0
LINE
  5
361
100
AcDbEntity
  8
0
100
AcDbLine
 62
7
  6
CONTINUOUS
 10
5.9444376366
 20
4.6637748551
 11
5.9444376366
 21
4.4135821341
  0
LINE
  5
362
100
AcDbEntity
  8
0
100
AcDbLine
 62
7
  6
CONTINUOUS
 10
5.9444376366
 20
3.8908338763
 11
5.9444376366
 21
3.9841773928
  0
LINE
  5
363
100
AcDbEntity
  8
0
100
AcDbLine
 62
7
  6
CONTINUOUS
 10
5.9544376366
 20
4.666582996
 11
5.9544376366
 21
4.4105517801
  0
LINE
  5
364
100
AcDbEntity
  8
0
100
AcDbLine
 62
7
  6
CONTINUOUS
 10
5.9544376366
 20
3.8780325834
 11
5.9544376366
 21
3.9993588116
  0
LINE
  5
365
100
AcDbEntity
  8
0
100
AcDbLine
 62
7
  6
CONTINUOUS
 10
5.9614376366
 20
4.6685486947
 11
5.9614376366
 21
4.4084305324
  0
LINE
  5
366
100
AcDbEntity
  8
0
100
AcDbLine
 62
7
  6
CONTINUOUS
 10
5.9614376366
 20
4.0099858048
 11
5.9614376366
 21
3.8718124672
  0
LINE
  5
367
100
AcDbEntity
  8
03__ASM_ALL_CURVES
100
AcDbLine
 62
40
  6
CONTINUOUS
 10
6.0002118121
 20
2.7270089326
 11
6.0002118121
 21
2.8700339326
  0
LINE
  5
368
100
AcDbEntity
  8
0
100
AcDbLine
 62
7
  6
CONTINUOUS
 10
6.0194376366
 20
4.6761793775
 11
6.0194376366
 21
4.397990456
  0
LINE
  5
369
100
AcDbEntity
  8
0
100
AcDbLine
 62
7
  6
CONTINUOUS
 10
6.0194376366
 20
4.0590354701
 11
6.0194376366
 21
3.8349266606
  0
LINE
  5
36A
100
AcDbEntity
  8
03__ASM_ALL_CURVES
100
AcDbLine
 62
40
  6
CONTINUOUS
 10
6.0717243121
 20
2.8461964298
 11
6.0717243121
 21
2.8223589354
  0
LINE
  5
36B
100
AcDbEntity
  8
03__ASM_ALL_CURVES
100
AcDbLine
 62
40
  6
CONTINUOUS
 10
6.1053576379
 20
5.6566259326
 11
6.1053576379
 21
5.8473259326
  0
LINE
  5
36C
100
AcDbEntity
  8
0
100
AcDbLine
 62
7
  6
CONTINUOUS
 10
6.1444376366
 20
4.5257839326
 11
6.1444376366
 21
4.4241019513
  0
LINE
  5
36D
100
AcDbEntity
  8
0
100
AcDbLine
 62
7
  6
CONTINUOUS
 10
6.1444376366
 20
3.9642839326
 11
6.1444376366
 21
4.0918164726
  0
LINE
  5
36E
100
AcDbEntity
  8
03__ASM_ALL_CURVES
100
AcDbLine
 62
40
  6
CONTINUOUS
 10
6.1789930621
 20
2.8700339326
 11
6.1789930621
 21
2.7270089326
  0
LINE
  5
36F
100
AcDbEntity
  8
03__ASM_ALL_CURVES
100
AcDbLine
 62
40
  6
CONTINUOUS
 10
10.3211829501
 20
4.3546864326
 11
10.2764876376
 21
4.3546864326
  0
LINE
  5
370
100
AcDbEntity
  8
03__ASM_ALL_CURVES
100
AcDbLine
 62
40
  6
CONTINUOUS
 10
10.0351329501
 20
4.3546864326
 11
9.9904376376
 21
4.3546864326
  0
LINE
  5
371
100
AcDbEntity
  8
03__ASM_ALL_CURVES
100
AcDbLine
 62
40
  6
CONTINUOUS
 10
9.9904376376
 20
4.4261989326
 11
10.0351329501
 21
4.4261989326
  0
LINE
  5
372
100
AcDbEntity
  8
03__ASM_ALL_CURVES
100
AcDbLine
 62
40
  6
CONTINUOUS
 10
10.1602798251
 20
4.4261989326
 11
10.1781579501
 21
4.4261989326
  0
LINE
  5
373
100
AcDbEntity
  8
03__ASM_ALL_CURVES
100
AcDbLine
 62
40
  6
CONTINUOUS
 10
10.2764876376
 20
4.4261989326
 11
10.3211829501
 21
4.4261989326
  0
LINE
  5
374
100
AcDbEntity
  8
03__ASM_ALL_CURVES
100
AcDbLine
 62
40
  6
CONTINUOUS
 10
10.4105735751
 20
4.4261989326
 11
10.4999642001
 21
4.4261989326
  0
LINE
  5
375
100
AcDbEntity
  8
0
100
AcDbLine
 62
7
  6
CONTINUOUS
 10
7.4754376366
 20
4.5257839326
 11
7.2683211851
 21
4.5257839326
  0
LINE
  5
376
100
AcDbEntity
  8
0
100
AcDbLine
 62
7
  6
CONTINUOUS
 10
6.239554088
 20
4.5257839326
 11
6.1444376366
 21
4.5257839326
  0
LINE
  5
377
100
AcDbEntity
  8
0
100
AcDbLine
 62
7
  6
CONTINUOUS
 10
5.0865004367
 20
4.5257839326
 11
4.6772893221
 21
4.5257839326
  0
LINE
  5
378
100
AcDbEntity
  8
03__ASM_ALL_CURVES
100
AcDbLine
 62
40
  6
CONTINUOUS
 10
3.8527138879
 20
5.6566259326
 11
3.8288763879
 21
5.6725175997
  0
LINE
  5
379
100
AcDbEntity
  8
03__ASM_ALL_CURVES
100
AcDbLine
 62
40
  6
CONTINUOUS
 10
8.0754267577
 20
2.8700339326
 11
8.0933048827
 21
2.8581151854
  0
LINE
  5
37A
100
AcDbEntity
  8
03__ASM_ALL_CURVES
100
AcDbLine
 62
40
  6
CONTINUOUS
 10
3.6858513879
 20
5.8473259326
 11
3.7096888879
 21
5.8314342697
  0
LINE
  5
37B
100
AcDbEntity
  8
03__ASM_ALL_CURVES
100
AcDbLine
 62
40
  6
CONTINUOUS
 10
3.8765513879
 20
5.8473259326
 11
3.9003888879
 21
5.8314342697
  0
LINE
  5
37C
100
AcDbEntity
  8
03__ASM_ALL_CURVES
100
AcDbLine
 62
40
  6
CONTINUOUS
 10
4.8538888879
 20
5.8314342697
 11
4.8658076379
 21
5.8155425955
  0
LINE
  5
37D
100
AcDbEntity
  8
03__ASM_ALL_CURVES
100
AcDbLine
 62
40
  6
CONTINUOUS
 10
5.1637763879
 20
5.6725175997
 11
5.1399388879
 21
5.7043009326
  0
LINE
  5
37E
100
AcDbEntity
  8
03__ASM_ALL_CURVES
100
AcDbLine
 62
40
  6
CONTINUOUS
 10
5.5213388879
 20
5.7043009326
 11
5.5094201379
 21
5.7519759326
  0
LINE
  5
37F
100
AcDbEntity
  8
03__ASM_ALL_CURVES
100
AcDbLine
 62
40
  6
CONTINUOUS
 10
5.6405263879
 20
5.7996509326
 11
5.6524451379
 21
5.7519759326
  0
LINE
  5
380
100
AcDbEntity
  8
03__ASM_ALL_CURVES
100
AcDbLine
 62
40
  6
CONTINUOUS
 10
6.2960576379
 20
5.6566259326
 11
6.2960576379
 21
5.8473259326
  0
LINE
  5
381
100
AcDbEntity
  8
03__ASM_ALL_CURVES
100
AcDbLine
 62
40
  6
CONTINUOUS
 10
6.3577743121
 20
2.8461964298
 11
6.3577743121
 21
2.8342776826
  0
LINE
  5
382
100
AcDbEntity
  8
03__ASM_ALL_CURVES
100
AcDbLine
 62
40
  6
CONTINUOUS
 10
6.3667133746
 20
2.774683934
 11
6.3667133746
 21
2.7627651826
  0
LINE
  5
383
100
AcDbEntity
  8
03__ASM_ALL_CURVES
100
AcDbLine
 62
40
  6
CONTINUOUS
 10
6.4867576379
 20
5.6566259326
 11
6.4867576379
 21
5.8473259326
  0
LINE
  5
384
100
AcDbEntity
  8
03__ASM_ALL_CURVES
100
AcDbLine
 62
40
  6
CONTINUOUS
 10
5.8393086871
 20
2.7985214326
 11
5.8482477496
 21
2.8342776826
  0
LINE
  5
385
100
AcDbEntity
  8
03__ASM_ALL_CURVES
100
AcDbLine
 62
40
  6
CONTINUOUS
 10
5.9465774371
 20
2.7985214326
 11
5.9376383746
 21
2.7627651826
  0
LINE
  5
386
100
AcDbEntity
  8
03__ASM_ALL_CURVES
100
AcDbLine
 62
40
  6
CONTINUOUS
 10
4.4167353688
 20
2.8104401798
 11
4.3988572438
 21
2.7985214326
  0
LINE
  5
387
100
AcDbEntity
  8
03__ASM_ALL_CURVES
100
AcDbLine
 62
40
  6
CONTINUOUS
 10
4.5061259938
 20
2.8581151854
 11
4.5240041188
 21
2.8700339326
  0
LINE
  5
388
100
AcDbEntity
  8
03__ASM_ALL_CURVES
100
AcDbLine
 62
40
  6
CONTINUOUS
 10
4.5597603688
 20
2.738927683
 11
4.5418822438
 21
2.7270089326
  0
LINE
  5
389
100
AcDbEntity
  8
03__ASM_ALL_CURVES
100
AcDbLine
 62
40
  6
CONTINUOUS
 10
4.7027853688
 20
2.8104401798
 11
4.6849072438
 21
2.7985214326
  0
LINE
  5
38A
100
AcDbEntity
  8
0
100
AcDbLine
 62
7
  6
CONTINUOUS
 10
2.0039498329
 20
4.6829432497
 11
1.0714102678
 21
4.6829432497
  0
LINE
  5
38B
100
AcDbEntity
  8
0
100
AcDbLine
 62
7
  6
CONTINUOUS
 10
2.0039498329
 20
4.729729274
 11
1.0714102678
 21
4.729729274
  0
LINE
  5
38C
100
AcDbEntity
  8
0
100
AcDbLine
 62
7
  6
CONTINUOUS
 10
8.0814376366
 20
4.9625339326
 11
7.713644896
 21
4.9625339326
  0
LINE
  5
38D
100
AcDbEntity
  8
0
100
AcDbLine
 62
7
  6
CONTINUOUS
 10
7.2352303771
 20
4.9625339326
 11
7.1964376366
 21
4.9625339326
  0
LINE
  5
38E
100
AcDbEntity
  8
0
100
AcDbLine
 62
7
  6
CONTINUOUS
 10
6.5834376366
 20
4.9625339326
 11
6.3524376366
 21
4.9625339326
  0
LINE
  5
38F
100
AcDbEntity
  8
0
100
AcDbLine
 62
7
  6
CONTINUOUS
 10
5.9144376366
 20
4.9625339326
 11
5.6964376366
 21
4.9625339326
  0
LINE
  5
390
100
AcDbEntity
  8
0
100
AcDbLine
 62
7
  6
CONTINUOUS
 10
4.6347224569
 20
4.9625339326
 11
4.1924376366
 21
4.9625339326
  0
LINE
  5
391
100
AcDbEntity
  8
0
100
AcDbLine
 62
7
  6
CONTINUOUS
 10
5.0984467761
 20
4.9625339326
 11
5.10528256
 21
4.9625339326
  0
LINE
  5
392
100
AcDbEntity
  8
0
100
AcDbLine
 62
7
  6
CONTINUOUS
 10
8.5224376366
 20
4.9940339326
 11
8.4884376366
 21
4.9940339326
  0
LINE
  5
393
100
AcDbEntity
  8
03__ASM_ALL_CURVES
100
AcDbLine
 62
40
  6
CONTINUOUS
 10
1.2332776366
 20
5.5485625993
 11
1.0044376366
 21
5.5803459326
  0
LINE
  5
394
100
AcDbEntity
  8
03__ASM_ALL_CURVES
100
AcDbLine
 62
40
  6
CONTINUOUS
 10
1.2332776366
 20
5.5422059326
 11
1.0044376366
 21
5.5803459326
  0
LINE
  5
395
100
AcDbEntity
  8
03__ASM_ALL_CURVES
100
AcDbLine
 62
40
  6
CONTINUOUS
 10
4.8062138879
 20
5.6566259326
 11
4.7823763879
 21
5.6725175997
  0
LINE
  5
396
100
AcDbEntity
  8
03__ASM_ALL_CURVES
100
AcDbLine
 62
40
  6
CONTINUOUS
 10
5.1518576379
 20
5.7996509326
 11
5.1637763879
 21
5.7837592697
  0
LINE
  5
397
100
AcDbEntity
  8
03__ASM_ALL_CURVES
100
AcDbLine
 62
40
  6
CONTINUOUS
 10
5.2352888879
 20
5.736084264
 11
5.2472076379
 21
5.7201926012
  0
LINE
  5
398
100
AcDbEntity
  8
03__ASM_ALL_CURVES
100
AcDbLine
 62
40
  6
CONTINUOUS
 10
5.2472076379
 20
5.8155425955
 11
5.2352888879
 21
5.8314342697
  0
LINE
  5
399
100
AcDbEntity
  8
03__ASM_ALL_CURVES
100
AcDbLine
 62
40
  6
CONTINUOUS
 10
7.6105955077
 20
2.738927683
 11
7.5927173827
 21
2.7627651826
  0
LINE
  5
39A
100
AcDbEntity
  8
03__ASM_ALL_CURVES
100
AcDbLine
 62
40
  6
CONTINUOUS
 10
7.5212048827
 20
2.8581151854
 11
7.5301439452
 21
2.8461964298
  0
LINE
  5
39B
100
AcDbEntity
  8
03__ASM_ALL_CURVES
100
AcDbLine
 62
40
  6
CONTINUOUS
 10
5.5451763879
 20
5.6725175997
 11
5.5213388879
 21
5.7043009326
  0
LINE
  5
39C
100
AcDbEntity
  8
03__ASM_ALL_CURVES
100
AcDbLine
 62
40
  6
CONTINUOUS
 10
7.6642298827
 20
2.8581151854
 11
7.6821080077
 21
2.8342776826
  0
LINE
  5
39D
100
AcDbEntity
  8
03__ASM_ALL_CURVES
100
AcDbLine
 62
40
  6
CONTINUOUS
 10
6.5821076379
 20
5.8155425955
 11
6.5821076379
 21
5.7837592697
  0
LINE
  5
39E
100
AcDbEntity
  8
0
100
AcDbLine
 62
7
  6
CONTINUOUS
 10
6.5834376366
 20
3.5275339326
 11
6.5834376366
 21
4.9625339326
  0
LINE
  5
39F
100
AcDbEntity
  8
0
100
AcDbLine
 62
7
  6
CONTINUOUS
 10
6.6774376366
 20
3.3870489292
 11
6.6774376366
 21
5.1030189359
  0
LINE
  5
3A0
100
AcDbEntity
  8
0
100
AcDbLine
 62
7
  6
CONTINUOUS
 10
6.7714376366
 20
3.3835339326
 11
6.7714376366
 21
5.1065339326
  0
LINE
  5
3A1
100
AcDbEntity
  8
0
100
AcDbLine
 62
7
  6
CONTINUOUS
 10
6.8214376366
 20
3.3835339326
 11
6.8214376366
 21
5.1065339326
  0
LINE
  5
3A2
100
AcDbEntity
  8
03__ASM_ALL_CURVES
100
AcDbLine
 62
40
  6
CONTINUOUS
 10
5.7856743121
 20
2.8223589354
 11
5.7767352496
 21
2.8104401798
  0
LINE
  5
3A3
100
AcDbEntity
  8
03__ASM_ALL_CURVES
100
AcDbLine
 62
40
  6
CONTINUOUS
 10
5.8482477496
 20
2.8342776826
 11
5.8661258746
 21
2.8581151854
  0
LINE
  5
3A4
100
AcDbEntity
  8
03__ASM_ALL_CURVES
100
AcDbLine
 62
40
  6
CONTINUOUS
 10
5.9376383746
 20
2.7627651826
 11
5.9197602496
 21
2.738927683
  0
LINE
  5
3A5
100
AcDbEntity
  8
0
100
AcDbLine
 62
7
  6
CONTINUOUS
 10
7.0084376366
 20
5.0185339326
 11
6.9744376366
 21
5.0185339326
  0
LINE
  5
3A6
100
AcDbEntity
  8
0
100
AcDbLine
 62
7
  6
CONTINUOUS
 10
5.5084376366
 20
5.0415339326
 11
5.4744376366
 21
5.0415339326
  0
LINE
  5
3A7
100
AcDbEntity
  8
0
100
AcDbLine
 62
7
  6
CONTINUOUS
 10
8.6104376366
 20
5.0795339326
 11
8.5224376366
 21
5.0795339326
  0
LINE
  5
3A8
100
AcDbEntity
  8
0
100
AcDbLine
 62
7
  6
CONTINUOUS
 10
8.2854376366
 20
5.0795339326
 11
8.1754376366
 21
5.0795339326
  0
LINE
  5
3A9
100
AcDbEntity
  8
THREAD
100
AcDbLine
 62
7
  6
CONTINUOUS
 10
4.1794376366
 20
5.0890339326
 11
3.9484376366
 21
5.0890339326
  0
LINE
  5
3AA
100
AcDbEntity
  8
0
100
AcDbLine
 62
7
  6
CONTINUOUS
 10
7.1024376366
 20
5.1030339326
 11
7.0084376366
 21
5.1030339326
  0
LINE
  5
3AB
100
AcDbEntity
  8
0
100
AcDbLine
 62
7
  6
CONTINUOUS
 10
6.7714376366
 20
5.1030339326
 11
6.6774376366
 21
5.1030339326
  0
LINE
  5
3AC
100
AcDbEntity
  8
0
100
AcDbLine
 62
7
  6
CONTINUOUS
 10
6.7714376366
 20
5.1065339326
 11
6.8214376366
 21
5.1065339326
  0
LINE
  5
3AD
100
AcDbEntity
  8
0
100
AcDbLine
 62
7
  6
CONTINUOUS
 10
6.9244376366
 20
5.1065339326
 11
6.9744376366
 21
5.1065339326
  0
LINE
  5
3AE
100
AcDbEntity
  8
0
100
AcDbLine
 62
7
  6
CONTINUOUS
 10
8.2854376366
 20
5.1065339326
 11
8.3354376366
 21
5.1065339326
  0
LINE
  5
3AF
100
AcDbEntity
  8
0
100
AcDbLine
 62
7
  6
CONTINUOUS
 10
8.4384376366
 20
5.1065339326
 11
8.4884376366
 21
5.1065339326
  0
LINE
  5
3B0
100
AcDbEntity
  8
0
100
AcDbLine
 62
7
  6
CONTINUOUS
 10
5.1774376366
 20
5.1265339326
 11
5.2714376366
 21
5.1265339326
  0
LINE
  5
3B1
100
AcDbEntity
  8
0
100
AcDbLine
 62
7
  6
CONTINUOUS
 10
5.5084376366
 20
5.1265339326
 11
5.6024376366
 21
5.1265339326
  0
LINE
  5
3B2
100
AcDbEntity
  8
0
100
AcDbLine
 62
7
  6
CONTINUOUS
 10
5.2714376366
 20
5.1295339326
 11
5.3214376366
 21
5.1295339326
  0
LINE
  5
3B3
100
AcDbEntity
  8
0
100
AcDbLine
 62
7
  6
CONTINUOUS
 10
5.4244376366
 20
5.1295339326
 11
5.4744376366
 21
5.1295339326
  0
LINE
  5
3B4
100
AcDbEntity
  8
0
100
AcDbLine
 62
7
  6
CONTINUOUS
 10
2.0039498329
 20
5.1676385911
 11
1.0714102678
 21
5.1676385911
  0
LINE
  5
3B5
100
AcDbEntity
  8
0
100
AcDbLine
 62
7
  6
CONTINUOUS
 10
2.0039498329
 20
5.1680339326
 11
1.0714102678
 21
5.1680339326
  0
LINE
  5
3B6
100
AcDbEntity
  8
THREAD
100
AcDbLine
 62
7
  6
CONTINUOUS
 10
3.8509376366
 20
5.1865339326
 11
3.3814598506
 21
5.1865339326
  0
LINE
  5
3B7
100
AcDbEntity
  8
THREAD
100
AcDbLine
 62
7
  6
CONTINUOUS
 10
3.1774376366
 20
5.1985339326
 11
3.1304376366
 21
5.1985339326
  0
LINE
  5
3B8
100
AcDbEntity
  8
0
100
AcDbLine
 62
7
  6
CONTINUOUS
 10
3.2804376366
 20
5.1990339326
 11
3.3304376366
 21
5.1990339326
  0
LINE
  5
3B9
100
AcDbEntity
  8
0
100
AcDbLine
 62
7
  6
CONTINUOUS
 10
3.1304376366
 20
5.2745339326
 11
2.0654376366
 21
5.2745339326
  0
LINE
  5
3BA
100
AcDbEntity
  8
03__ASM_ALL_CURVES
100
AcDbLine
 62
40
  6
CONTINUOUS
 10
1.2332776366
 20
5.5676325993
 11
1.0044376366
 21
5.5803459326
  0
LINE
  5
3BB
100
AcDbEntity
  8
03__ASM_ALL_CURVES
100
AcDbLine
 62
40
  6
CONTINUOUS
 10
1.2332776366
 20
5.5612759326
 11
1.0044376366
 21
5.5803459326
  0
LINE
  5
3BC
100
AcDbEntity
  8
03__ASM_ALL_CURVES
100
AcDbLine
 62
40
  6
CONTINUOUS
 10
1.2332776366
 20
5.5549192659
 11
1.0044376366
 21
5.5803459326
  0
LINE
  5
3BD
100
AcDbEntity
  8
03__ASM_ALL_CURVES
100
AcDbLine
 62
40
  6
CONTINUOUS
 10
2.9015976366
 20
5.6057725993
 11
3.3592776366
 21
5.5549192659
  0
LINE
  5
3BE
100
AcDbEntity
  8
03__ASM_ALL_CURVES
100
AcDbLine
 62
40
  6
CONTINUOUS
 10
2.9015976366
 20
5.6121292659
 11
3.3592776366
 21
5.5485625993
  0
LINE
  5
3BF
100
AcDbEntity
  8
03__ASM_ALL_CURVES
100
AcDbLine
 62
40
  6
CONTINUOUS
 10
3.3592776366
 20
5.5422059326
 11
2.9015976366
 21
5.6184859326
  0
LINE
  5
3C0
100
AcDbEntity
  8
03__ASM_ALL_CURVES
100
AcDbLine
 62
40
  6
CONTINUOUS
 10
4.8300513879
 20
5.8473259326
 11
4.8538888879
 21
5.8314342697
  0
LINE
  5
3C1
100
AcDbEntity
  8
03__ASM_ALL_CURVES
100
AcDbLine
 62
40
  6
CONTINUOUS
 10
5.1876138879
 20
5.6566259326
 11
5.1637763879
 21
5.6725175997
  0
LINE
  5
3C2
100
AcDbEntity
  8
03__ASM_ALL_CURVES
100
AcDbLine
 62
40
  6
CONTINUOUS
 10
5.1637763879
 20
5.7837592697
 11
5.2352888879
 21
5.736084264
  0
LINE
  5
3C3
100
AcDbEntity
  8
03__ASM_ALL_CURVES
100
AcDbLine
 62
40
  6
CONTINUOUS
 10
5.2352888879
 20
5.8314342697
 11
5.2114513879
 21
5.8473259326
  0
LINE
  5
3C4
100
AcDbEntity
  8
03__ASM_ALL_CURVES
100
AcDbLine
 62
40
  6
CONTINUOUS
 10
5.5690138879
 20
5.6566259326
 11
5.5451763879
 21
5.6725175997
  0
LINE
  5
3C5
100
AcDbEntity
  8
03__ASM_ALL_CURVES
100
AcDbLine
 62
40
  6
CONTINUOUS
 10
7.8072548827
 20
2.8581151854
 11
7.8161939452
 21
2.8461964298
  0
LINE
  5
3C6
100
AcDbEntity
  8
03__ASM_ALL_CURVES
100
AcDbLine
 62
40
  6
CONTINUOUS
 10
5.7358763879
 20
5.6725175997
 11
5.7239576379
 21
5.6884092669
  0
LINE
  5
3C7
100
AcDbEntity
  8
03__ASM_ALL_CURVES
100
AcDbLine
 62
40
  6
CONTINUOUS
 10
5.6166888879
 20
5.8314342697
 11
5.6405263879
 21
5.7996509326
  0
LINE
  5
3C8
100
AcDbEntity
  8
03__ASM_ALL_CURVES
100
AcDbLine
 62
40
  6
CONTINUOUS
 10
8.0933048827
 20
2.8581151854
 11
8.1022439452
 21
2.8461964298
  0
LINE
  5
3C9
100
AcDbEntity
  8
03__ASM_ALL_CURVES
100
AcDbLine
 62
40
  6
CONTINUOUS
 10
6.2007076379
 20
5.7996509326
 11
6.2126263879
 21
5.7519759326
  0
LINE
  5
3CA
100
AcDbEntity
  8
0
100
AcDbLine
 62
7
  6
CONTINUOUS
 10
6.9244376366
 20
3.3835339326
 11
6.9244376366
 21
5.1065339326
  0
LINE
  5
3CB
100
AcDbEntity
  8
0
100
AcDbLine
 62
7
  6
CONTINUOUS
 10
6.9744376366
 20
3.3835339326
 11
6.9744376366
 21
5.1065339326
  0
LINE
  5
3CC
100
AcDbEntity
  8
0
100
AcDbLine
 62
7
  6
CONTINUOUS
 10
7.0084376366
 20
3.3870489292
 11
7.0084376366
 21
5.1030189359
  0
LINE
  5
3CD
100
AcDbEntity
  8
0
100
AcDbLine
 62
7
  6
CONTINUOUS
 10
7.1024376366
 20
3.3870489292
 11
7.1024376366
 21
5.1030189359
  0
LINE
  5
3CE
100
AcDbEntity
  8
03__ASM_ALL_CURVES
100
AcDbLine
 62
40
  6
CONTINUOUS
 10
6.0717243121
 20
2.8223589354
 11
6.0627852496
 21
2.8104401798
  0
LINE
  5
3CF
100
AcDbEntity
  8
03__ASM_ALL_CURVES
100
AcDbLine
 62
40
  6
CONTINUOUS
 10
6.3577743121
 20
2.8342776826
 11
6.3488352496
 21
2.8223589354
  0
LINE
  5
3D0
100
AcDbEntity
  8
03__ASM_ALL_CURVES
100
AcDbLine
 62
40
  6
CONTINUOUS
 10
6.3667133746
 20
2.7627651826
 11
6.3488352496
 21
2.738927683
  0
LINE
  5
3D1
100
AcDbEntity
  8
03__ASM_ALL_CURVES
100
AcDbLine
 62
40
  6
CONTINUOUS
 10
5.7767352496
 20
2.8104401798
 11
5.7588571246
 21
2.7985214326
  0
LINE
  5
3D2
100
AcDbEntity
  8
03__ASM_ALL_CURVES
100
AcDbLine
 62
40
  6
CONTINUOUS
 10
5.8661258746
 20
2.8581151854
 11
5.8840039996
 21
2.8700339326
  0
LINE
  5
3D3
100
AcDbEntity
  8
03__ASM_ALL_CURVES
100
AcDbLine
 62
40
  6
CONTINUOUS
 10
5.9197602496
 20
2.738927683
 11
5.9018821246
 21
2.7270089326
  0
LINE
  5
3D4
100
AcDbEntity
  8
03__ASM_ALL_CURVES
100
AcDbLine
 62
40
  6
CONTINUOUS
 10
6.0627852496
 20
2.8104401798
 11
6.0449071246
 21
2.7985214326
  0
LINE
  5
3D5
100
AcDbEntity
  8
03__ASM_ALL_CURVES
100
AcDbLine
 62
40
  6
CONTINUOUS
 10
2.9015976366
 20
5.5739892659
 11
3.3592776366
 21
5.5867025993
  0
LINE
  5
3D6
100
AcDbEntity
  8
03__ASM_ALL_CURVES
100
AcDbLine
 62
40
  6
CONTINUOUS
 10
1.0044376366
 20
5.5803459326
 11
6.7918776366
 21
5.5803459326
  0
LINE
  5
3D7
100
AcDbEntity
  8
03__ASM_ALL_CURVES
100
AcDbLine
 62
40
  6
CONTINUOUS
 10
6.3914076379
 20
5.6566259326
 11
6.2960576379
 21
5.6566259326
  0
LINE
  5
3D8
100
AcDbEntity
  8
03__ASM_ALL_CURVES
100
AcDbLine
 62
40
  6
CONTINUOUS
 10
6.1530326379
 20
5.6566259326
 11
6.1053576379
 21
5.6566259326
  0
LINE
  5
3D9
100
AcDbEntity
  8
03__ASM_ALL_CURVES
100
AcDbLine
 62
40
  6
CONTINUOUS
 10
5.7835513879
 20
5.6566259326
 11
5.7597138879
 21
5.6566259326
  0
LINE
  5
3DA
100
AcDbEntity
  8
03__ASM_ALL_CURVES
100
AcDbLine
 62
40
  6
CONTINUOUS
 10
5.5928513879
 20
5.6566259326
 11
5.5690138879
 21
5.6566259326
  0
LINE
  5
3DB
100
AcDbEntity
  8
03__ASM_ALL_CURVES
100
AcDbLine
 62
40
  6
CONTINUOUS
 10
5.2114513879
 20
5.6566259326
 11
5.1876138879
 21
5.6566259326
  0
LINE
  5
3DC
100
AcDbEntity
  8
03__ASM_ALL_CURVES
100
AcDbLine
 62
40
  6
CONTINUOUS
 10
4.8300513879
 20
5.6566259326
 11
4.8062138879
 21
5.6566259326
  0
LINE
  5
3DD
100
AcDbEntity
  8
03__ASM_ALL_CURVES
100
AcDbLine
 62
40
  6
CONTINUOUS
 10
3.8765513879
 20
5.6566259326
 11
3.8527138879
 21
5.6566259326
  0
LINE
  5
3DE
100
AcDbEntity
  8
03__ASM_ALL_CURVES
100
AcDbLine
 62
40
  6
CONTINUOUS
 10
3.6858513879
 20
5.6566259326
 11
3.6620138879
 21
5.6566259326
  0
LINE
  5
3DF
100
AcDbEntity
  8
03__ASM_ALL_CURVES
100
AcDbLine
 62
40
  6
CONTINUOUS
 10
2.6514563866
 20
5.6566259326
 11
2.6276188866
 21
5.6566259326
  0
LINE
  5
3E0
100
AcDbEntity
  8
03__ASM_ALL_CURVES
100
AcDbLine
 62
40
  6
CONTINUOUS
 10
2.4488376366
 20
5.6566259326
 11
2.4369188866
 21
5.6566259326
  0
LINE
  5
3E1
100
AcDbEntity
  8
03__ASM_ALL_CURVES
100
AcDbLine
 62
40
  6
CONTINUOUS
 10
2.2700563866
 20
5.6566259326
 11
2.2462188866
 21
5.6566259326
  0
LINE
  5
3E2
100
AcDbEntity
  8
03__ASM_ALL_CURVES
100
AcDbLine
 62
40
  6
CONTINUOUS
 10
2.0793563866
 20
5.6566259326
 11
2.0555188866
 21
5.6566259326
  0
LINE
  5
3E3
100
AcDbEntity
  8
03__ASM_ALL_CURVES
100
AcDbLine
 62
40
  6
CONTINUOUS
 10
1.3046376366
 20
5.6566259326
 11
1.2927188866
 21
5.6566259326
  0
LINE
  5
3E4
100
AcDbEntity
  8
03__ASM_ALL_CURVES
100
AcDbLine
 62
40
  6
CONTINUOUS
 10
1.0662626366
 20
5.6566259326
 11
1.1616126366
 21
5.6566259326
  0
LINE
  5
3E5
100
AcDbEntity
  8
03__ASM_ALL_CURVES
100
AcDbLine
 62
40
  6
CONTINUOUS
 10
1.6383626366
 20
5.6566259326
 11
1.7337126366
 21
5.6566259326
  0
LINE
  5
3E6
100
AcDbEntity
  8
03__ASM_ALL_CURVES
100
AcDbLine
 62
40
  6
CONTINUOUS
 10
3.4355576379
 20
5.6566259326
 11
3.5309076379
 21
5.6566259326
  0
LINE
  5
3E7
100
AcDbEntity
  8
03__ASM_ALL_CURVES
100
AcDbLine
 62
40
  6
CONTINUOUS
 10
5.9146576379
 20
5.6566259326
 11
6.0100076379
 21
5.6566259326
  0
LINE
  5
3E8
100
AcDbEntity
  8
03__ASM_ALL_CURVES
100
AcDbLine
 62
40
  6
CONTINUOUS
 10
1.2332776366
 20
5.5739892659
 11
1.0044376366
 21
5.5803459326
  0
LINE
  5
3E9
100
AcDbEntity
  8
03__ASM_ALL_CURVES
100
AcDbLine
 62
40
  6
CONTINUOUS
 10
2.9015976366
 20
5.5867025993
 11
3.3592776366
 21
5.5739892659
  0
LINE
  5
3EA
100
AcDbEntity
  8
03__ASM_ALL_CURVES
100
AcDbLine
 62
40
  6
CONTINUOUS
 10
2.9015976366
 20
5.5930592659
 11
3.3592776366
 21
5.5676325993
  0
LINE
  5
3EB
100
AcDbEntity
  8
03__ASM_ALL_CURVES
100
AcDbLine
 62
40
  6
CONTINUOUS
 10
2.9015976366
 20
5.5994159326
 11
3.3592776366
 21
5.5612759326
  0
LINE
  5
3EC
100
AcDbEntity
  8
03__ASM_ALL_CURVES
100
AcDbLine
 62
40
  6
CONTINUOUS
 10
5.7597138879
 20
5.6566259326
 11
5.7358763879
 21
5.6725175997
  0
LINE
  5
3ED
100
AcDbEntity
  8
03__ASM_ALL_CURVES
100
AcDbLine
 62
40
  6
CONTINUOUS
 10
5.5928513879
 20
5.8473259326
 11
5.6166888879
 21
5.8314342697
  0
LINE
  5
3EE
100
AcDbEntity
  8
03__ASM_ALL_CURVES
100
AcDbLine
 62
40
  6
CONTINUOUS
 10
6.1768701379
 20
5.8314342697
 11
6.2007076379
 21
5.7996509326
  0
LINE
  5
3EF
100
AcDbEntity
  8
03__ASM_ALL_CURVES
100
AcDbLine
 62
40
  6
CONTINUOUS
 10
6.5463513879
 20
5.7519759326
 11
6.5821076379
 21
5.6566259326
  0
LINE
  5
3F0
100
AcDbEntity
  8
03__ASM_ALL_CURVES
100
AcDbLine
 62
40
  6
CONTINUOUS
 10
7.7893767577
 20
2.7985214326
 11
7.8161939452
 21
2.7270089326
  0
LINE
  5
3F1
100
AcDbEntity
  8
03__ASM_ALL_CURVES
100
AcDbLine
 62
40
  6
CONTINUOUS
 10
7.5927173827
 20
2.7627651826
 11
7.5837783202
 21
2.7985214326
  0
LINE
  5
3F2
100
AcDbEntity
  8
0
100
AcDbLine
 62
7
  6
CONTINUOUS
 10
7.1964376366
 20
3.5275339326
 11
7.1964376366
 21
4.9625339326
  0
LINE
  5
3F3
100
AcDbEntity
  8
03__ASM_ALL_CURVES
100
AcDbLine
 62
40
  6
CONTINUOUS
 10
7.4586314452
 20
2.7270089326
 11
7.4586314452
 21
2.8700339326
  0
LINE
  5
3F4
100
AcDbEntity
  8
0
100
AcDbLine
 62
7
  6
CONTINUOUS
 10
7.4754376366
 20
4.5257839326
 11
7.4754376366
 21
4.3967219468
  0
LINE
  5
3F5
100
AcDbEntity
  8
0
100
AcDbLine
 62
7
  6
CONTINUOUS
 10
7.4754376366
 20
3.9642839326
 11
7.4754376366
 21
4.0933459184
  0
LINE
  5
3F6
100
AcDbEntity
  8
03__ASM_ALL_CURVES
100
AcDbLine
 62
40
  6
CONTINUOUS
 10
6.2952008746
 20
2.8581151854
 11
6.3130789996
 21
2.8700339326
  0
LINE
  5
3F7
100
AcDbEntity
  8
03__ASM_ALL_CURVES
100
AcDbLine
 62
40
  6
CONTINUOUS
 10
6.3488352496
 20
2.8223589354
 11
6.3309571246
 21
2.8104401798
  0
LINE
  5
3F8
100
AcDbEntity
  8
03__ASM_ALL_CURVES
100
AcDbLine
 62
40
  6
CONTINUOUS
 10
6.3488352496
 20
2.738927683
 11
6.3309571246
 21
2.7270089326
  0
LINE
  5
3F9
100
AcDbEntity
  8
03__ASM_ALL_CURVES
100
AcDbLine
 62
40
  6
CONTINUOUS
 10
2.9015976366
 20
5.5422059326
 11
3.3592776366
 21
5.6184859326
  0
LINE
  5
3FA
100
AcDbEntity
  8
03__ASM_ALL_CURVES
100
AcDbLine
 62
40
  6
CONTINUOUS
 10
2.9015976366
 20
5.5485625993
 11
3.3592776366
 21
5.6121292659
  0
LINE
  5
3FB
100
AcDbEntity
  8
03__ASM_ALL_CURVES
100
AcDbLine
 62
40
  6
CONTINUOUS
 10
2.9015976366
 20
5.5549192659
 11
3.3592776366
 21
5.6057725993
  0
LINE
  5
3FC
100
AcDbEntity
  8
03__ASM_ALL_CURVES
100
AcDbLine
 62
40
  6
CONTINUOUS
 10
2.9015976366
 20
5.5612759326
 11
3.3592776366
 21
5.5994159326
  0
LINE
  5
3FD
100
AcDbEntity
  8
03__ASM_ALL_CURVES
100
AcDbLine
 62
40
  6
CONTINUOUS
 10
1.2332776366
 20
5.5994159326
 11
1.0044376366
 21
5.5803459326
  0
LINE
  5
3FE
100
AcDbEntity
  8
03__ASM_ALL_CURVES
100
AcDbLine
 62
40
  6
CONTINUOUS
 10
2.9015976366
 20
5.5676325993
 11
3.3592776366
 21
5.5930592659
  0
LINE
  5
3FF
100
AcDbEntity
  8
03__ASM_ALL_CURVES
100
AcDbLine
 62
40
  6
CONTINUOUS
 10
1.2332776366
 20
5.5930592659
 11
1.0044376366
 21
5.5803459326
  0
LINE
  5
400
100
AcDbEntity
  8
03__ASM_ALL_CURVES
100
AcDbLine
 62
40
  6
CONTINUOUS
 10
1.2332776366
 20
5.5867025993
 11
1.0044376366
 21
5.5803459326
  0
LINE
  5
401
100
AcDbEntity
  8
03__ASM_ALL_CURVES
100
AcDbLine
 62
40
  6
CONTINUOUS
 10
2.7825626366
 20
5.7043009326
 11
2.8898313866
 21
5.7043009326
  0
LINE
  5
402
100
AcDbEntity
  8
03__ASM_ALL_CURVES
100
AcDbLine
 62
40
  6
CONTINUOUS
 10
4.0195763879
 20
5.7201926012
 11
4.0910888879
 21
5.7201926012
  0
LINE
  5
403
100
AcDbEntity
  8
03__ASM_ALL_CURVES
100
AcDbLine
 62
40
  6
CONTINUOUS
 10
6.5463513879
 20
5.7519759326
 11
6.4867576379
 21
5.7519759326
  0
LINE
  5
404
100
AcDbEntity
  8
03__ASM_ALL_CURVES
100
AcDbLine
 62
40
  6
CONTINUOUS
 10
4.8181326379
 20
5.7519759326
 11
4.8658076379
 21
5.7519759326
  0
LINE
  5
405
100
AcDbEntity
  8
03__ASM_ALL_CURVES
100
AcDbLine
 62
40
  6
CONTINUOUS
 10
5.3425576379
 20
5.7519759326
 11
5.4379076379
 21
5.7519759326
  0
LINE
  5
406
100
AcDbEntity
  8
03__ASM_ALL_CURVES
100
AcDbLine
 62
40
  6
CONTINUOUS
 10
6.2960576379
 20
5.7519759326
 11
6.3556513879
 21
5.7519759326
  0
LINE
  5
407
100
AcDbEntity
  8
03__ASM_ALL_CURVES
100
AcDbLine
 62
40
  6
CONTINUOUS
 10
2.2462188866
 20
5.7678675955
 11
2.2700563866
 21
5.7678675955
  0
LINE
  5
408
100
AcDbEntity
  8
03__ASM_ALL_CURVES
100
AcDbLine
 62
40
  6
CONTINUOUS
 10
2.6276188866
 20
5.7678675955
 11
2.6514563866
 21
5.7678675955
  0
LINE
  5
409
100
AcDbEntity
  8
03__ASM_ALL_CURVES
100
AcDbLine
 62
40
  6
CONTINUOUS
 10
2.0555188866
 20
5.7837592697
 11
2.0793563866
 21
5.7837592697
  0
LINE
  5
40A
100
AcDbEntity
  8
03__ASM_ALL_CURVES
100
AcDbLine
 62
40
  6
CONTINUOUS
 10
5.2114513879
 20
5.8473259326
 11
5.1876138879
 21
5.8473259326
  0
LINE
  5
40B
100
AcDbEntity
  8
03__ASM_ALL_CURVES
100
AcDbLine
 62
40
  6
CONTINUOUS
 10
2.1151126366
 20
5.8473259326
 11
2.0436001366
 21
5.8473259326
  0
LINE
  5
40C
100
AcDbEntity
  8
03__ASM_ALL_CURVES
100
AcDbLine
 62
40
  6
CONTINUOUS
 10
1.1020188866
 20
5.8473259326
 11
1.1258563866
 21
5.8473259326
  0
LINE
  5
40D
100
AcDbEntity
  8
03__ASM_ALL_CURVES
100
AcDbLine
 62
40
  6
CONTINUOUS
 10
1.6741188866
 20
5.8473259326
 11
1.6979563866
 21
5.8473259326
  0
LINE
  5
40E
100
AcDbEntity
  8
03__ASM_ALL_CURVES
100
AcDbLine
 62
40
  6
CONTINUOUS
 10
2.2462188866
 20
5.8473259326
 11
2.2700563866
 21
5.8473259326
  0
LINE
  5
40F
100
AcDbEntity
  8
03__ASM_ALL_CURVES
100
AcDbLine
 62
40
  6
CONTINUOUS
 10
2.6276188866
 20
5.8473259326
 11
2.6514563866
 21
5.8473259326
  0
LINE
  5
410
100
AcDbEntity
  8
03__ASM_ALL_CURVES
100
AcDbLine
 62
40
  6
CONTINUOUS
 10
3.6620138879
 20
5.8473259326
 11
3.6858513879
 21
5.8473259326
  0
LINE
  5
411
100
AcDbEntity
  8
03__ASM_ALL_CURVES
100
AcDbLine
 62
40
  6
CONTINUOUS
 10
3.8527138879
 20
5.8473259326
 11
3.8765513879
 21
5.8473259326
  0
LINE
  5
412
100
AcDbEntity
  8
03__ASM_ALL_CURVES
100
AcDbLine
 62
40
  6
CONTINUOUS
 10
4.1864388879
 20
5.8473259326
 11
4.3056263879
 21
5.8473259326
  0
LINE
  5
413
100
AcDbEntity
  8
03__ASM_ALL_CURVES
100
AcDbLine
 62
40
  6
CONTINUOUS
 10
4.8062138879
 20
5.8473259326
 11
4.8300513879
 21
5.8473259326
  0
LINE
  5
414
100
AcDbEntity
  8
03__ASM_ALL_CURVES
100
AcDbLine
 62
40
  6
CONTINUOUS
 10
5.5690138879
 20
5.8473259326
 11
5.5928513879
 21
5.8473259326
  0
LINE
  5
415
100
AcDbEntity
  8
03__ASM_ALL_CURVES
100
AcDbLine
 62
40
  6
CONTINUOUS
 10
6.1053576379
 20
5.8473259326
 11
6.1530326379
 21
5.8473259326
  0
LINE
  5
416
100
AcDbEntity
  8
03__ASM_ALL_CURVES
100
AcDbLine
 62
40
  6
CONTINUOUS
 10
6.2960576379
 20
5.8473259326
 11
6.3914076379
 21
5.8473259326
  0
LINE
  5
417
100
AcDbEntity
  8
03__ASM_ALL_CURVES
100
AcDbLine
 62
40
  6
CONTINUOUS
 10
6.4867576379
 20
5.8473259326
 11
6.5463513879
 21
5.8473259326
  0
LINE
  5
418
100
AcDbEntity
  8
03__ASM_ALL_CURVES
100
AcDbLine
 62
40
  6
CONTINUOUS
 10
6.1530326379
 20
5.8473259326
 11
6.1768701379
 21
5.8314342697
  0
LINE
  5
419
100
AcDbEntity
  8
03__ASM_ALL_CURVES
100
AcDbLine
 62
40
  6
CONTINUOUS
 10
6.5463513879
 20
5.8473259326
 11
6.5701888879
 21
5.8314342697
  0
LINE
  5
41A
100
AcDbEntity
  8
03__ASM_ALL_CURVES
100
AcDbLine
 62
40
  6
CONTINUOUS
 10
6.5701888879
 20
5.8314342697
 11
6.5821076379
 21
5.8155425955
  0
LINE
  5
41B
100
AcDbEntity
  8
03__ASM_ALL_CURVES
100
AcDbLine
 62
40
  6
CONTINUOUS
 10
7.6821080077
 20
2.8342776826
 11
7.6910470702
 21
2.7985214326
  0
LINE
  5
41C
100
AcDbEntity
  8
03__ASM_ALL_CURVES
100
AcDbLine
 62
40
  6
CONTINUOUS
 10
7.5301439452
 20
2.8461964298
 11
7.5301439452
 21
2.8223589354
  0
LINE
  5
41D
100
AcDbEntity
  8
03__ASM_ALL_CURVES
100
AcDbLine
 62
40
  6
CONTINUOUS
 10
7.7446814452
 20
2.7270089326
 11
7.7446814452
 21
2.8700339326
  0
LINE
  5
41E
100
AcDbEntity
  8
03__ASM_ALL_CURVES
100
AcDbLine
 62
40
  6
CONTINUOUS
 10
7.8161939452
 20
2.8461964298
 11
7.8161939452
 21
2.8223589354
  0
LINE
  5
41F
100
AcDbEntity
  8
03__ASM_ALL_CURVES
100
AcDbLine
 62
40
  6
CONTINUOUS
 10
1.2332776366
 20
5.6121292659
 11
1.0044376366
 21
5.5803459326
  0
LINE
  5
420
100
AcDbEntity
  8
03__ASM_ALL_CURVES
100
AcDbLine
 62
40
  6
CONTINUOUS
 10
1.2332776366
 20
5.6057725993
 11
1.0044376366
 21
5.5803459326
  0
LINE
  5
421
100
AcDbEntity
  8
03__ASM_ALL_CURVES
100
AcDbLine
 62
40
  6
CONTINUOUS
 10
7.9234626952
 20
2.8700339326
 11
7.9234626952
 21
2.7270089326
  0
LINE
  5
422
100
AcDbEntity
  8
0
100
AcDbLine
 62
7
  6
CONTINUOUS
 10
8.0814376366
 20
3.5275339326
 11
8.0814376366
 21
4.9625339326
  0
LINE
  5
423
100
AcDbEntity
  8
03__ASM_ALL_CURVES
100
AcDbLine
 62
40
  6
CONTINUOUS
 10
8.1022439452
 20
2.8461964298
 11
8.1022439452
 21
2.8223589354
  0
LINE
  5
424
100
AcDbEntity
  8
0
100
AcDbLine
 62
7
  6
CONTINUOUS
 10
8.1754376366
 20
3.4105485185
 11
8.1754376366
 21
5.0795193467
  0
LINE
  5
425
100
AcDbEntity
  8
03__ASM_ALL_CURVES
100
AcDbLine
 62
40
  6
CONTINUOUS
 10
7.5837783202
 20
2.7985214326
 11
7.5927173827
 21
2.8342776826
  0
LINE
  5
426
100
AcDbEntity
  8
03__ASM_ALL_CURVES
100
AcDbLine
 62
40
  6
CONTINUOUS
 10
7.6910470702
 20
2.7985214326
 11
7.6821080077
 21
2.7627651826
  0
LINE
  5
427
100
AcDbEntity
  8
03__ASM_ALL_CURVES
100
AcDbLine
 62
40
  6
CONTINUOUS
 10
7.5301439452
 20
2.8223589354
 11
7.5212048827
 21
2.8104401798
  0
LINE
  5
428
100
AcDbEntity
  8
03__ASM_ALL_CURVES
100
AcDbLine
 62
40
  6
CONTINUOUS
 10
7.5927173827
 20
2.8342776826
 11
7.6105955077
 21
2.8581151854
  0
LINE
  5
429
100
AcDbEntity
  8
03__ASM_ALL_CURVES
100
AcDbLine
 62
40
  6
CONTINUOUS
 10
7.5212048827
 20
2.8104401798
 11
7.5033267577
 21
2.7985214326
  0
LINE
  5
42A
100
AcDbEntity
  8
03__ASM_ALL_CURVES
100
AcDbLine
 62
40
  6
CONTINUOUS
 10
7.6105955077
 20
2.8581151854
 11
7.6284736327
 21
2.8700339326
  0
LINE
  5
42B
100
AcDbEntity
  8
03__ASM_ALL_CURVES
100
AcDbLine
 62
40
  6
CONTINUOUS
 10
10.0530110751
 20
4.3666051798
 11
10.0351329501
 21
4.3546864326
  0
LINE
  5
42C
100
AcDbEntity
  8
03__ASM_ALL_CURVES
100
AcDbLine
 62
40
  6
CONTINUOUS
 10
10.1424017001
 20
4.4142801854
 11
10.1602798251
 21
4.4261989326
  0
LINE
  5
42D
100
AcDbEntity
  8
03__ASM_ALL_CURVES
100
AcDbLine
 62
40
  6
CONTINUOUS
 10
7.6642298827
 20
2.738927683
 11
7.6463517577
 21
2.7270089326
  0
LINE
  5
42E
100
AcDbEntity
  8
03__ASM_ALL_CURVES
100
AcDbLine
 62
40
  6
CONTINUOUS
 10
7.8072548827
 20
2.8104401798
 11
7.7893767577
 21
2.7985214326
  0
LINE
  5
42F
100
AcDbEntity
  8
03__ASM_ALL_CURVES
100
AcDbLine
 62
40
  6
CONTINUOUS
 10
1.0044376366
 20
5.5803459326
 11
1.2332776366
 21
5.6184859326
  0
LINE
  5
430
100
AcDbEntity
  8
0
100
AcDbLine
 62
7
  6
CONTINUOUS
 10
8.2854376366
 20
3.3835339326
 11
8.2854376366
 21
5.1065339326
  0
LINE
  5
431
100
AcDbEntity
  8
0
100
AcDbLine
 62
7
  6
CONTINUOUS
 10
8.3354376366
 20
3.3835339326
 11
8.3354376366
 21
5.1065339326
  0
LINE
  5
432
100
AcDbEntity
  8
0
100
AcDbLine
 62
7
  6
CONTINUOUS
 10
8.4384376366
 20
3.3835339326
 11
8.4384376366
 21
5.1065339326
  0
LINE
  5
433
100
AcDbEntity
  8
0
100
AcDbLine
 62
7
  6
CONTINUOUS
 10
8.4884376366
 20
3.3835339326
 11
8.4884376366
 21
5.1065339326
  0
LINE
  5
434
100
AcDbEntity
  8
0
100
AcDbLine
 62
7
  6
CONTINUOUS
 10
8.5224376366
 20
3.4105485185
 11
8.5224376366
 21
5.0795193467
  0
LINE
  5
435
100
AcDbEntity
  8
03__ASM_ALL_CURVES
100
AcDbLine
 62
40
  6
CONTINUOUS
 10
8.0396705077
 20
2.7627651826
 11
8.0307314452
 21
2.7270089326
  0
LINE
  5
436
100
AcDbEntity
  8
03__ASM_ALL_CURVES
100
AcDbLine
 62
40
  6
CONTINUOUS
 10
7.6821080077
 20
2.7627651826
 11
7.6642298827
 21
2.738927683
  0
LINE
  5
437
100
AcDbEntity
  8
03__ASM_ALL_CURVES
100
AcDbLine
 62
40
  6
CONTINUOUS
 10
7.8161939452
 20
2.8223589354
 11
7.8072548827
 21
2.8104401798
  0
LINE
  5
438
100
AcDbEntity
  8
03__ASM_ALL_CURVES
100
AcDbLine
 62
40
  6
CONTINUOUS
 10
8.0307314452
 20
2.8461964298
 11
8.0396705077
 21
2.8581151854
  0
LINE
  5
439
100
AcDbEntity
  8
03__ASM_ALL_CURVES
100
AcDbLine
 62
40
  6
CONTINUOUS
 10
8.0575486327
 20
2.7866026812
 11
8.0396705077
 21
2.7627651826
  0
LINE
  5
43A
100
AcDbEntity
  8
03__ASM_ALL_CURVES
100
AcDbLine
 62
40
  6
CONTINUOUS
 10
8.1022439452
 20
2.8223589354
 11
8.0933048827
 21
2.8104401798
  0
LINE
  5
43B
100
AcDbEntity
  8
0
100
AcDbLine
 62
7
  6
CONTINUOUS
 10
8.6324376366
 20
3.4325339326
 11
8.6104376366
 21
3.4105339326
  0
LINE
  5
43C
100
AcDbEntity
  8
03__ASM_ALL_CURVES
100
AcDbLine
 62
40
  6
CONTINUOUS
 10
8.0396705077
 20
2.8581151854
 11
8.0575486327
 21
2.8700339326
  0
LINE
  5
43D
100
AcDbEntity
  8
03__ASM_ALL_CURVES
100
AcDbLine
 62
40
  6
CONTINUOUS
 10
10.1960360751
 20
4.295092683
 11
10.1781579501
 21
4.2831739326
  0
LINE
  5
43E
100
AcDbEntity
  8
03__ASM_ALL_CURVES
100
AcDbLine
 62
40
  6
CONTINUOUS
 10
10.3390610751
 20
4.3666051798
 11
10.3211829501
 21
4.3546864326
  0
LINE
  5
43F
100
AcDbEntity
  8
03__ASM_ALL_CURVES
100
AcDbLine
 62
40
  6
CONTINUOUS
 10
8.0933048827
 20
2.8104401798
 11
8.0575486327
 21
2.7866026812
  0
LINE
  5
440
100
AcDbEntity
  8
03__ASM_ALL_CURVES
100
AcDbLine
 62
40
  6
CONTINUOUS
 10
10.1602798251
 20
4.2831739326
 11
10.1424017001
 21
4.295092683
  0
LINE
  5
441
100
AcDbEntity
  8
03__ASM_ALL_CURVES
100
AcDbLine
 62
40
  6
CONTINUOUS
 10
10.0351329501
 20
4.4261989326
 11
10.0530110751
 21
4.4142801854
  0
LINE
  5
442
100
AcDbEntity
  8
03__ASM_ALL_CURVES
100
AcDbLine
 62
40
  6
CONTINUOUS
 10
10.1781579501
 20
4.4261989326
 11
10.1960360751
 21
4.4142801854
  0
LINE
  5
443
100
AcDbEntity
  8
03__ASM_ALL_CURVES
100
AcDbLine
 62
40
  6
CONTINUOUS
 10
10.3211829501
 20
4.4261989326
 11
10.3390610751
 21
4.4142801854
  0
LINE
  5
444
100
AcDbEntity
  8
0
100
AcDbLine
 62
7
  6
CONTINUOUS
 10
8.6324376366
 20
5.0575339326
 11
8.6104376366
 21
5.0795339326
  0
LINE
  5
445
100
AcDbEntity
  8
0
100
AcDbLine
 62
7
  6
CONTINUOUS
 10
8.6104376366
 20
3.4105339326
 11
8.6104376366
 21
5.0795339326
  0
LINE
  5
446
100
AcDbEntity
  8
0
100
AcDbLine
 62
7
  6
CONTINUOUS
 10
8.6324376366
 20
3.432556079
 11
8.6324376366
 21
5.0575117862
  0
LINE
  5
447
100
AcDbEntity
  8
03__ASM_ALL_CURVES
100
AcDbLine
 62
40
  6
CONTINUOUS
 10
10.0619501376
 20
4.3785239354
 11
10.0530110751
 21
4.3666051798
  0
LINE
  5
448
100
AcDbEntity
  8
03__ASM_ALL_CURVES
100
AcDbLine
 62
40
  6
CONTINUOUS
 10
10.1245235751
 20
4.3904426826
 11
10.1424017001
 21
4.4142801854
  0
LINE
  5
449
100
AcDbEntity
  8
03__ASM_ALL_CURVES
100
AcDbLine
 62
40
  6
CONTINUOUS
 10
10.2139142001
 20
4.3189301826
 11
10.1960360751
 21
4.295092683
  0
LINE
  5
44A
100
AcDbEntity
  8
03__ASM_ALL_CURVES
100
AcDbLine
 62
40
  6
CONTINUOUS
 10
10.3480001376
 20
4.3785239354
 11
10.3390610751
 21
4.3666051798
  0
LINE
  5
44B
100
AcDbEntity
  8
03__ASM_ALL_CURVES
100
AcDbLine
 62
40
  6
CONTINUOUS
 10
10.1424017001
 20
4.295092683
 11
10.1245235751
 21
4.3189301826
  0
LINE
  5
44C
100
AcDbEntity
  8
03__ASM_ALL_CURVES
100
AcDbLine
 62
40
  6
CONTINUOUS
 10
10.0530110751
 20
4.4142801854
 11
10.0619501376
 21
4.4023614298
  0
LINE
  5
44D
100
AcDbEntity
  8
03__ASM_ALL_CURVES
100
AcDbLine
 62
40
  6
CONTINUOUS
 10
10.1960360751
 20
4.4142801854
 11
10.2139142001
 21
4.3904426826
  0
LINE
  5
44E
100
AcDbEntity
  8
03__ASM_ALL_CURVES
100
AcDbLine
 62
40
  6
CONTINUOUS
 10
10.3390610751
 20
4.4142801854
 11
10.3480001376
 21
4.4023614298
  0
LINE
  5
44F
100
AcDbEntity
  8
03__ASM_ALL_CURVES
100
AcDbLine
 62
40
  6
CONTINUOUS
 10
9.9904376376
 20
4.2831739326
 11
9.9904376376
 21
4.4261989326
  0
LINE
  5
450
100
AcDbEntity
  8
03__ASM_ALL_CURVES
100
AcDbLine
 62
40
  6
CONTINUOUS
 10
10.0619501376
 20
4.4023614298
 11
10.0619501376
 21
4.3785239354
  0
LINE
  5
451
100
AcDbEntity
  8
03__ASM_ALL_CURVES
100
AcDbLine
 62
40
  6
CONTINUOUS
 10
10.1155845126
 20
4.3546864326
 11
10.1245235751
 21
4.3904426826
  0
LINE
  5
452
100
AcDbEntity
  8
03__ASM_ALL_CURVES
100
AcDbLine
 62
40
  6
CONTINUOUS
 10
10.2228532626
 20
4.3546864326
 11
10.2139142001
 21
4.3189301826
  0
LINE
  5
453
100
AcDbEntity
  8
03__ASM_ALL_CURVES
100
AcDbLine
 62
40
  6
CONTINUOUS
 10
10.3211829501
 20
4.3546864326
 11
10.3480001376
 21
4.2831739326
  0
LINE
  5
454
100
AcDbEntity
  8
03__ASM_ALL_CURVES
100
AcDbLine
 62
40
  6
CONTINUOUS
 10
10.1245235751
 20
4.3189301826
 11
10.1155845126
 21
4.3546864326
  0
LINE
  5
455
100
AcDbEntity
  8
03__ASM_ALL_CURVES
100
AcDbLine
 62
40
  6
CONTINUOUS
 10
10.2139142001
 20
4.3904426826
 11
10.2228532626
 21
4.3546864326
  0
LINE
  5
456
100
AcDbEntity
  8
03__ASM_ALL_CURVES
100
AcDbLine
 62
40
  6
CONTINUOUS
 10
10.2764876376
 20
4.2831739326
 11
10.2764876376
 21
4.4261989326
  0
LINE
  5
457
100
AcDbEntity
  8
03__ASM_ALL_CURVES
100
AcDbLine
 62
40
  6
CONTINUOUS
 10
10.3480001376
 20
4.4023614298
 11
10.3480001376
 21
4.3785239354
  0
LINE
  5
458
100
AcDbEntity
  8
03__ASM_ALL_CURVES
100
AcDbLine
 62
40
  6
CONTINUOUS
 10
10.4552688876
 20
4.4261989326
 11
10.4552688876
 21
4.2831739326
  0
LINE
  5
459
100
AcDbEntity
  8
03__ASM_ALL_CURVES
100
AcDbLine
 62
40
  6
CONTINUOUS
 10
10.5982938876
 20
4.4261989326
 11
10.5982938876
 21
4.2831739326
  0
ARC
  5
45A
100
AcDbEntity
  8
0
100
AcDbCircle
 62
7
  6
CONTINUOUS
 10
7.4754376366
 20
4.7437839326
 40
0.218
100
AcDbArc
 50
270.0
 51
323.5711141612
  0
ARC
  5
45B
100
AcDbEntity
  8
0
100
AcDbCircle
 62
7
  6
CONTINUOUS
 10
7.4754376366
 20
3.7462839326
 40
0.218
100
AcDbArc
 50
36.4106182197
 51
59.553225135
  0
ARC
  5
45C
100
AcDbEntity
  8
0
100
AcDbCircle
 62
7
  6
CONTINUOUS
 10
6.1444376366
 20
4.6507839326
 40
0.125
100
AcDbArc
 50
180.0
 51
270.0
  0
ARC
  5
45D
100
AcDbEntity
  8
0
100
AcDbCircle
 62
7
  6
CONTINUOUS
 10
6.1444376366
 20
3.8392839326
 40
0.125
100
AcDbArc
 50
90.0
 51
180.0
  0
ARC
  5
45E
100
AcDbEntity
  8
0
100
AcDbCircle
 62
7
  6
CONTINUOUS
 10
5.0834376366
 20
3.4335339326
 40
0.094
100
AcDbArc
 50
0.0000066202
 51
78.6081293854
  0
ARC
  5
45F
100
AcDbEntity
  8
0
100
AcDbCircle
 62
7
  6
CONTINUOUS
 10
5.0834376366
 20
5.0565339326
 40
0.094
100
AcDbArc
 50
281.3918706146
 51
359.9999933798
  0
ARC
  5
460
100
AcDbEntity
  8
0
100
AcDbCircle
 62
7
  6
CONTINUOUS
 10
8.0814376366
 20
5.0565339326
 40
0.094
100
AcDbArc
 50
270.0
 51
359.9999933798
  0
ARC
  5
461
100
AcDbEntity
  8
0
100
AcDbCircle
 62
7
  6
CONTINUOUS
 10
8.0814376366
 20
3.4335339326
 40
0.094
100
AcDbArc
 50
0.0000066202
 51
90.0
  0
ARC
  5
462
100
AcDbEntity
  8
0
100
AcDbCircle
 62
7
  6
CONTINUOUS
 10
7.1964376366
 20
5.0565339326
 40
0.094
100
AcDbArc
 50
180.0000002867
 51
270.0
  0
ARC
  5
463
100
AcDbEntity
  8
0
100
AcDbCircle
 62
7
  6
CONTINUOUS
 10
7.1964376366
 20
3.4335339326
 40
0.094
100
AcDbArc
 50
90.0
 51
179.9999997133
  0
ARC
  5
464
100
AcDbEntity
  8
0
100
AcDbCircle
 62
7
  6
CONTINUOUS
 10
6.5834376366
 20
5.0565339326
 40
0.094
100
AcDbArc
 50
270.0
 51
359.9999933798
  0
ARC
  5
465
100
AcDbEntity
  8
0
100
AcDbCircle
 62
7
  6
CONTINUOUS
 10
6.5834376366
 20
3.4335339326
 40
0.094
100
AcDbArc
 50
0.0000066202
 51
90.0
  0
ARC
  5
466
100
AcDbEntity
  8
0
100
AcDbCircle
 62
7
  6
CONTINUOUS
 10
5.6964376366
 20
5.0565339326
 40
0.094
100
AcDbArc
 50
180.0000002867
 51
270.0
  0
ARC
  5
467
100
AcDbEntity
  8
0
100
AcDbCircle
 62
7
  6
CONTINUOUS
 10
5.6964376366
 20
3.4335339326
 40
0.094
100
AcDbArc
 50
90.0
 51
179.9999997133
  0
ARC
  5
468
100
AcDbEntity
  8
0
100
AcDbCircle
 62
7
  6
CONTINUOUS
 10
3.3238016077
 20
3.3510339326
 40
0.028
100
AcDbArc
 50
9.2483578129
 51
76.1357483849
  0
ARC
  5
469
100
AcDbEntity
  8
0
100
AcDbCircle
 62
7
  6
CONTINUOUS
 10
3.3238016077
 20
5.1390339326
 40
0.028
100
AcDbArc
 50
283.8642516151
 51
350.7516421871
  0
SPLINE
  5
46A
100
AcDbEntity
  8
0
100
AcDbSpline
 62
7
  6
CONTINUOUS
 70
0
 71
3
 72
15
 73
11
 74
9
 42
0.0000001
 43
0.0000001
 44
0.0000000001
 12
0.0
 22
0.1617702498
 32
0.0
 13
0.0
 23
-0.1617702498
 33
0.0
 40
0.0
 40
0.0
 40
0.0
 40
0.0
 40
0.125
 40
0.25
 40
0.375
 40
0.5
 40
0.625
 40
0.75
 40
0.875
 40
1.0
 40
1.0
 40
1.0
 40
1.0
 10
6.9244376366
 20
5.0455339326
 30
0.0
 10
6.9244376366
 20
5.0522743597
 30
0.0
 10
6.9217561279
 20
5.0657552138
 30
0.0
 10
6.9103016923
 20
5.0828979883
 30
0.0
 10
6.8931589178
 20
5.094352424
 30
0.0
 10
6.8729376366
 20
5.0983746869
 30
0.0
 10
6.8527163553
 20
5.094352424
 30
0.0
 10
6.8355735809
 20
5.0828979883
 30
0.0
 10
6.8241191452
 20
5.0657552138
 30
0.0
 10
6.8214376366
 20
5.0522743597
 30
0.0
 10
6.8214376366
 20
5.0455339326
 30
0.0
 11
6.9244376366
 21
5.0455339326
 31
0.0
 11
6.9205174325
 21
5.0652421294
 31
0.0
 11
6.9093536358
 21
5.0819499318
 31
0.0
 11
6.8926458333
 21
5.0931137285
 31
0.0
 11
6.8729376366
 21
5.0970339326
 31
0.0
 11
6.8532294398
 21
5.0931137285
 31
0.0
 11
6.8365216373
 21
5.0819499318
 31
0.0
 11
6.8253578406
 21
5.0652421294
 31
0.0
 11
6.8214376366
 21
5.0455339326
 31
0.0
  0
SPLINE
  5
46B
100
AcDbEntity
  8
0
100
AcDbSpline
 62
7
  6
CONTINUOUS
 70
0
 71
3
 72
15
 73
11
 74
9
 42
0.0000001
 43
0.0000001
 44
0.0000000001
 12
0.0
 22
-0.1617702498
 32
0.0
 13
0.0
 23
0.1617702498
 33
0.0
 40
0.0
 40
0.0
 40
0.0
 40
0.0
 40
0.125
 40
0.25
 40
0.375
 40
0.5
 40
0.625
 40
0.75
 40
0.875
 40
1.0
 40
1.0
 40
1.0
 40
1.0
 10
6.9244376366
 20
3.4445339326
 30
0.0
 10
6.9244376366
 20
3.4377935055
 30
0.0
 10
6.9217561279
 20
3.4243126514
 30
0.0
 10
6.9103016923
 20
3.4071698769
 30
0.0
 10
6.8931589178
 20
3.3957154412
 30
0.0
 10
6.8729376366
 20
3.3916931783
 30
0.0
 10
6.8527163553
 20
3.3957154412
 30
0.0
 10
6.8355735809
 20
3.4071698769
 30
0.0
 10
6.8241191452
 20
3.4243126514
 30
0.0
 10
6.8214376366
 20
3.4377935055
 30
0.0
 10
6.8214376366
 20
3.4445339326
 30
0.0
 11
6.9244376366
 21
3.4445339326
 31
0.0
 11
6.9205174325
 21
3.4248257358
 31
0.0
 11
6.9093536358
 21
3.4081179334
 31
0.0
 11
6.8926458333
 21
3.3969541367
 31
0.0
 11
6.8729376366
 21
3.3930339326
 31
0.0
 11
6.8532294398
 21
3.3969541367
 31
0.0
 11
6.8365216373
 21
3.4081179334
 31
0.0
 11
6.8253578406
 21
3.4248257358
 31
0.0
 11
6.8214376366
 21
3.4445339326
 31
0.0
  0
SPLINE
  5
46C
100
AcDbEntity
  8
0
100
AcDbSpline
 62
7
  6
CONTINUOUS
 70
0
 71
3
 72
15
 73
11
 74
9
 42
0.0000001
 43
0.0000001
 44
0.0000000001
 12
0.0
 22
0.1617702498
 32
0.0
 13
0.0
 23
-0.1617702498
 33
0.0
 40
0.0
 40
0.0
 40
0.0
 40
0.0
 40
0.125
 40
0.25
 40
0.375
 40
0.5
 40
0.625
 40
0.75
 40
0.875
 40
1.0
 40
1.0
 40
1.0
 40
1.0
 10
8.4384376366
 20
5.0455339326
 30
0.0
 10
8.4384376366
 20
5.0522743597
 30
0.0
 10
8.4357561279
 20
5.0657552138
 30
0.0
 10
8.4243016923
 20
5.0828979883
 30
0.0
 10
8.4071589178
 20
5.094352424
 30
0.0
 10
8.3869376366
 20
5.0983746869
 30
0.0
 10
8.3667163553
 20
5.094352424
 30
0.0
 10
8.3495735809
 20
5.0828979883
 30
0.0
 10
8.3381191452
 20
5.0657552138
 30
0.0
 10
8.3354376366
 20
5.0522743597
 30
0.0
 10
8.3354376366
 20
5.0455339326
 30
0.0
 11
8.4384376366
 21
5.0455339326
 31
0.0
 11
8.4345174325
 21
5.0652421294
 31
0.0
 11
8.4233536358
 21
5.0819499318
 31
0.0
 11
8.4066458333
 21
5.0931137285
 31
0.0
 11
8.3869376366
 21
5.0970339326
 31
0.0
 11
8.3672294398
 21
5.0931137285
 31
0.0
 11
8.3505216373
 21
5.0819499318
 31
0.0
 11
8.3393578406
 21
5.0652421294
 31
0.0
 11
8.3354376366
 21
5.0455339326
 31
0.0
  0
SPLINE
  5
46D
100
AcDbEntity
  8
0
100
AcDbSpline
 62
7
  6
CONTINUOUS
 70
0
 71
3
 72
15
 73
11
 74
9
 42
0.0000001
 43
0.0000001
 44
0.0000000001
 12
0.0
 22
-0.1617702498
 32
0.0
 13
0.0
 23
0.1617702498
 33
0.0
 40
0.0
 40
0.0
 40
0.0
 40
0.0
 40
0.125
 40
0.25
 40
0.375
 40
0.5
 40
0.625
 40
0.75
 40
0.875
 40
1.0
 40
1.0
 40
1.0
 40
1.0
 10
8.4384376366
 20
3.4445339326
 30
0.0
 10
8.4384376366
 20
3.4377935055
 30
0.0
 10
8.4357561279
 20
3.4243126514
 30
0.0
 10
8.4243016923
 20
3.4071698769
 30
0.0
 10
8.4071589178
 20
3.3957154412
 30
0.0
 10
8.3869376366
 20
3.3916931783
 30
0.0
 10
8.3667163553
 20
3.3957154412
 30
0.0
 10
8.3495735809
 20
3.4071698769
 30
0.0
 10
8.3381191452
 20
3.4243126514
 30
0.0
 10
8.3354376366
 20
3.4377935055
 30
0.0
 10
8.3354376366
 20
3.4445339326
 30
0.0
 11
8.4384376366
 21
3.4445339326
 31
0.0
 11
8.4345174325
 21
3.4248257358
 31
0.0
 11
8.4233536358
 21
3.4081179334
 31
0.0
 11
8.4066458333
 21
3.3969541367
 31
0.0
 11
8.3869376366
 21
3.3930339326
 31
0.0
 11
8.3672294398
 21
3.3969541367
 31
0.0
 11
8.3505216373
 21
3.4081179334
 31
0.0
 11
8.3393578406
 21
3.4248257358
 31
0.0
 11
8.3354376366
 21
3.4445339326
 31
0.0
  0
SPLINE
  5
46E
100
AcDbEntity
  8
0
100
AcDbSpline
 62
7
  6
CONTINUOUS
 70
0
 71
3
 72
15
 73
11
 74
9
 42
0.0000001
 43
0.0000001
 44
0.0000000001
 12
0.0
 22
0.1617702498
 32
0.0
 13
0.0
 23
-0.1617702498
 33
0.0
 40
0.0
 40
0.0
 40
0.0
 40
0.0
 40
0.125
 40
0.25
 40
0.375
 40
0.5
 40
0.625
 40
0.75
 40
0.875
 40
1.0
 40
1.0
 40
1.0
 40
1.0
 10
5.4244376366
 20
5.0930339326
 30
0.0
 10
5.4244376366
 20
5.0997743597
 30
0.0
 10
5.4217561279
 20
5.1132552138
 30
0.0
 10
5.4103016923
 20
5.1303979883
 30
0.0
 10
5.3931589178
 20
5.141852424
 30
0.0
 10
5.3729376366
 20
5.1458746869
 30
0.0
 10
5.3527163553
 20
5.141852424
 30
0.0
 10
5.3355735809
 20
5.1303979883
 30
0.0
 10
5.3241191452
 20
5.1132552138
 30
0.0
 10
5.3214376366
 20
5.0997743597
 30
0.0
 10
5.3214376366
 20
5.0930339326
 30
0.0
 11
5.4244376366
 21
5.0930339326
 31
0.0
 11
5.4205174325
 21
5.1127421294
 31
0.0
 11
5.4093536358
 21
5.1294499318
 31
0.0
 11
5.3926458333
 21
5.1406137285
 31
0.0
 11
5.3729376366
 21
5.1445339326
 31
0.0
 11
5.3532294398
 21
5.1406137285
 31
0.0
 11
5.3365216373
 21
5.1294499318
 31
0.0
 11
5.3253578406
 21
5.1127421294
 31
0.0
 11
5.3214376366
 21
5.0930339326
 31
0.0
  0
SPLINE
  5
46F
100
AcDbEntity
  8
0
100
AcDbSpline
 62
7
  6
CONTINUOUS
 70
0
 71
3
 72
15
 73
11
 74
9
 42
0.0000001
 43
0.0000001
 44
0.0000000001
 12
0.0
 22
-0.1617702498
 32
0.0
 13
0.0
 23
0.1617702498
 33
0.0
 40
0.0
 40
0.0
 40
0.0
 40
0.0
 40
0.125
 40
0.25
 40
0.375
 40
0.5
 40
0.625
 40
0.75
 40
0.875
 40
1.0
 40
1.0
 40
1.0
 40
1.0
 10
5.4244376366
 20
3.3970339326
 30
0.0
 10
5.4244376366
 20
3.3902935055
 30
0.0
 10
5.4217561279
 20
3.3768126514
 30
0.0
 10
5.4103016923
 20
3.3596698769
 30
0.0
 10
5.3931589178
 20
3.3482154412
 30
0.0
 10
5.3729376366
 20
3.3441931783
 30
0.0
 10
5.3527163553
 20
3.3482154412
 30
0.0
 10
5.3355735809
 20
3.3596698769
 30
0.0
 10
5.3241191452
 20
3.3768126514
 30
0.0
 10
5.3214376366
 20
3.3902935055
 30
0.0
 10
5.3214376366
 20
3.3970339326
 30
0.0
 11
5.4244376366
 21
3.3970339326
 31
0.0
 11
5.4205174325
 21
3.3773257358
 31
0.0
 11
5.4093536358
 21
3.3606179334
 31
0.0
 11
5.3926458333
 21
3.3494541367
 31
0.0
 11
5.3729376366
 21
3.3455339326
 31
0.0
 11
5.3532294398
 21
3.3494541367
 31
0.0
 11
5.3365216373
 21
3.3606179334
 31
0.0
 11
5.3253578406
 21
3.3773257358
 31
0.0
 11
5.3214376366
 21
3.3970339326
 31
0.0
  0
SPLINE
  5
470
100
AcDbEntity
  8
0
100
AcDbSpline
 62
7
  6
CONTINUOUS
 70
0
 71
3
 72
15
 73
11
 74
9
 42
0.0000001
 43
0.0000001
 44
0.0000000001
 12
0.0
 22
0.1617702498
 32
0.0
 13
-0.0
 23
-0.1617702498
 33
0.0
 40
0.0
 40
0.0
 40
0.0
 40
0.0
 40
0.125
 40
0.25
 40
0.375
 40
0.5
 40
0.625
 40
0.75
 40
0.875
 40
1.0
 40
1.0
 40
1.0
 40
1.0
 10
3.2804376366
 20
5.1625339326
 30
0.0
 10
3.2804376366
 20
5.1692743597
 30
0.0
 10
3.2777561279
 20
5.1827552138
 30
0.0
 10
3.2663016923
 20
5.1998979883
 30
0.0
 10
3.2491589178
 20
5.211352424
 30
0.0
 10
3.2289376366
 20
5.2153746869
 30
0.0
 10
3.2087163553
 20
5.211352424
 30
0.0
 10
3.1915735809
 20
5.1998979883
 30
0.0
 10
3.1801191452
 20
5.1827552138
 30
0.0
 10
3.1774376366
 20
5.1692743597
 30
0.0
 10
3.1774376366
 20
5.1625339326
 30
0.0
 11
3.2804376366
 21
5.1625339326
 31
0.0
 11
3.2765174325
 21
5.1822421294
 31
0.0
 11
3.2653536358
 21
5.1989499318
 31
0.0
 11
3.2486458333
 21
5.2101137285
 31
0.0
 11
3.2289376366
 21
5.2140339326
 31
0.0
 11
3.2092294398
 21
5.2101137285
 31
0.0
 11
3.1925216373
 21
5.1989499318
 31
0.0
 11
3.1813578406
 21
5.1822421294
 31
0.0
 11
3.1774376366
 21
5.1625339326
 31
0.0
  0
SPLINE
  5
471
100
AcDbEntity
  8
0
100
AcDbSpline
 62
7
  6
CONTINUOUS
 70
0
 71
3
 72
15
 73
11
 74
9
 42
0.0000001
 43
0.0000001
 44
0.0000000001
 12
0.0
 22
-0.1617702498
 32
0.0
 13
0.0
 23
0.1617702498
 33
0.0
 40
0.0
 40
0.0
 40
0.0
 40
0.0
 40
0.125
 40
0.25
 40
0.375
 40
0.5
 40
0.625
 40
0.75
 40
0.875
 40
1.0
 40
1.0
 40
1.0
 40
1.0
 10
3.2804376366
 20
3.3275339326
 30
0.0
 10
3.2804376366
 20
3.3207935055
 30
0.0
 10
3.2777561279
 20
3.3073126514
 30
0.0
 10
3.2663016923
 20
3.2901698769
 30
0.0
 10
3.2491589178
 20
3.2787154412
 30
0.0
 10
3.2289376366
 20
3.2746931783
 30
0.0
 10
3.2087163553
 20
3.2787154412
 30
0.0
 10
3.1915735809
 20
3.2901698769
 30
0.0
 10
3.1801191452
 20
3.3073126514
 30
0.0
 10
3.1774376366
 20
3.3207935055
 30
0.0
 10
3.1774376366
 20
3.3275339326
 30
0.0
 11
3.2804376366
 21
3.3275339326
 31
0.0
 11
3.2765174325
 21
3.3078257358
 31
0.0
 11
3.2653536358
 21
3.2911179334
 31
0.0
 11
3.2486458333
 21
3.2799541367
 31
0.0
 11
3.2289376366
 21
3.2760339326
 31
0.0
 11
3.2092294398
 21
3.2799541367
 31
0.0
 11
3.1925216373
 21
3.2911179334
 31
0.0
 11
3.1813578406
 21
3.3078257358
 31
0.0
 11
3.1774376366
 21
3.3275339326
 31
0.0
  0
SPLINE
  5
472
100
AcDbEntity
  8
0
100
AcDbSpline
 62
7
  6
CONTINUOUS
 70
0
 71
3
 72
8
 73
4
 74
2
 42
0.0000001
 43
0.0000001
 44
0.0000000001
 12
0.0018718661
 22
-0.0002748621
 32
0.0
 13
0.0018677963
 23
-0.0003017343
 33
0.0
 40
0.0
 40
0.0
 40
0.0
 40
0.0
 40
1.0
 40
1.0
 40
1.0
 40
1.0
 10
7.5279633908
 20
3.9578614483
 30
0.0
 10
7.5285873462
 20
3.9577698276
 30
0.0
 10
7.5292106583
 20
3.9576737345
 30
0.0
 10
7.5298332571
 20
3.9575731564
 30
0.0
 11
7.5279633908
 21
3.9578614483
 31
0.0
 11
7.5298332571
 21
3.9575731564
 31
0.0
  0
SPLINE
  5
473
100
AcDbEntity
  8
0
100
AcDbSpline
 62
7
  6
CONTINUOUS
 70
0
 71
3
 72
14
 73
10
 74
8
 42
0.0000001
 43
0.0000001
 44
0.0000000001
 12
0.0585493298
 22
-0.0094583872
 32
0.0
 13
0.0488089912
 23
-0.0336919258
 33
0.0
 40
0.0
 40
0.0
 40
0.0
 40
0.0
 40
0.0918117803
 40
0.2318920301
 40
0.4037270025
 40
0.5876002762
 40
0.7607478562
 40
0.9034907307
 40
1.0
 40
1.0
 40
1.0
 40
1.0
 10
7.5298332571
 20
3.9575731564
 30
0.0
 10
7.5316250965
 20
3.9572836926
 30
0.0
 10
7.5361358802
 20
3.9564587554
 30
0.0
 10
7.5439050169
 20
3.9546065614
 30
0.0
 10
7.5532597947
 20
3.9516471668
 30
0.0
 10
7.562947041
 20
3.9476819556
 30
0.0
 10
7.5717701014
 20
3.9432149918
 30
0.0
 10
7.5787819973
 20
3.9390461914
 30
0.0
 10
7.5827256685
 20
3.9364329215
 30
0.0
 10
7.5842958418
 20
3.9353490605
 30
0.0
 11
7.5298332571
 21
3.9575731564
 31
0.0
 11
7.535189377
 21
3.9565930139
 31
0.0
 11
7.5432703491
 21
3.9546653449
 31
0.0
 11
7.552986902
 21
3.9515921314
 31
0.0
 11
7.5630807314
 21
3.9474651302
 31
0.0
 11
7.5722450205
 21
3.9428321428
 31
0.0
 11
7.579523863
 21
3.9385095078
 31
0.0
 11
7.5842958418
 21
3.9353490605
 31
0.0
  0
SPLINE
  5
474
100
AcDbEntity
  8
0
100
AcDbSpline
 62
7
  6
CONTINUOUS
 70
0
 71
3
 72
8
 73
4
 74
2
 42
0.0000001
 43
0.0000001
 44
0.0000000001
 12
0.0016179343
 22
-0.0011168295
 32
0.0
 13
0.0016032894
 23
-0.0011376296
 33
0.0
 40
0.0
 40
0.0
 40
0.0
 40
0.0
 40
1.0
 40
1.0
 40
1.0
 40
1.0
 10
7.5842958418
 20
3.9353490605
 30
0.0
 10
7.5848351532
 20
3.934976784
 30
0.0
 10
7.585372032
 20
3.934601001
 30
0.0
 10
7.5859064618
 20
3.9342217911
 30
0.0
 11
7.5842958418
 21
3.9353490605
 31
0.0
 11
7.5859064618
 21
3.9342217911
 31
0.0
  0
SPLINE
  5
475
100
AcDbEntity
  8
0
100
AcDbSpline
 62
7
  6
CONTINUOUS
 70
0
 71
3
 72
15
 73
11
 74
9
 42
0.0000001
 43
0.0000001
 44
0.0000000001
 12
-0.2213747391
 22
0.4040882383
 32
0.0
 13
0.2213747391
 23
0.4040882383
 33
0.0
 40
0.0
 40
0.0
 40
0.0
 40
0.0
 40
0.1363385306
 40
0.2625242499
 40
0.3826814249
 40
0.5000474403
 40
0.6174094987
 40
0.7375563123
 40
0.8636900968
 40
1.0
 40
1.0
 40
1.0
 40
1.0
 10
1.0714102678
 20
3.322429274
 30
0.0
 10
1.0613496322
 20
3.3407935396
 30
0.0
 10
1.0434024287
 20
3.3769773153
 30
0.0
 10
1.022980981
 20
3.4322280331
 30
0.0
 10
1.0104568016
 20
3.4868510757
 30
0.0
 10
1.0062106163
 20
3.5414053232
 30
0.0
 10
1.0104633208
 20
3.5959574208
 30
0.0
 10
1.0229905902
 20
3.6505692045
 30
0.0
 10
1.043409757
 20
3.7058056806
 30
0.0
 10
1.0613517447
 20
3.7419781816
 30
0.0
 10
1.0714102678
 20
3.7603385911
 30
0.0
 11
1.0714102678
 21
3.322429274
 31
0.0
 11
1.0437704187
 21
3.3788402878
 31
0.0
 11
1.0238828151
 21
3.4334736749
 31
0.0
 11
1.0117264985
 21
3.4874854524
 31
0.0
 11
1.00761597
 21
3.5414058393
 31
0.0
 11
1.0117328039
 21
3.5953239167
 31
0.0
 11
1.0238933848
 21
3.6493298408
 31
0.0
 11
1.0437756251
 21
3.7039397148
 31
0.0
 11
1.0714102678
 21
3.7603385911
 31
0.0
  0
SPLINE
  5
476
100
AcDbEntity
  8
0
100
AcDbSpline
 62
7
  6
CONTINUOUS
 70
0
 71
3
 72
15
 73
11
 74
9
 42
0.0000001
 43
0.0000001
 44
0.0000000001
 12
-0.2344928018
 22
0.8560668082
 32
0.0
 13
0.2344928018
 23
0.8560668082
 33
0.0
 40
0.0
 40
0.0
 40
0.0
 40
0.0
 40
0.130867655
 40
0.2559934432
 40
0.3784643323
 40
0.5000493322
 40
0.6216294027
 40
0.7440877225
 40
0.8691603039
 40
1.0
 40
1.0
 40
1.0
 40
1.0
 10
1.0714102678
 20
3.8071246155
 30
0.0
 10
1.0611810934
 20
3.8444684341
 30
0.0
 10
1.0430084603
 20
3.9180435348
 30
0.0
 10
1.0227580617
 20
4.0282483184
 30
0.0
 10
1.0104004387
 20
4.1368711772
 30
0.0
 10
1.0062271678
 20
4.2450763321
 30
0.0
 10
1.0104068608
 20
4.3532774975
 30
0.0
 10
1.0227676758
 20
4.4618788892
 30
0.0
 10
1.043016018
 20
4.5720557497
 30
0.0
 10
1.0611832788
 20
4.6456074094
 30
0.0
 10
1.0714102678
 20
4.6829432497
 30
0.0
 11
1.0714102678
 21
3.8071246155
 31
0.0
 11
1.0437704187
 21
3.919946643
 31
0.0
 11
1.0238828151
 21
4.0292134172
 31
0.0
 11
1.0117264985
 21
4.1372369722
 31
0.0
 11
1.00761597
 21
4.2450777461
 31
0.0
 11
1.0117328039
 21
4.3529139009
 31
0.0
 11
1.0238933848
 21
4.4609257489
 31
0.0
 11
1.0437756251
 21
4.570145497
 31
0.0
 11
1.0714102678
 21
4.6829432497
 31
0.0
  0
SPLINE
  5
477
100
AcDbEntity
  8
0
100
AcDbSpline
 62
7
  6
CONTINUOUS
 70
0
 71
3
 72
15
 73
11
 74
9
 42
0.0000001
 43
0.0000001
 44
0.0000000001
 12
-0.2213747391
 22
0.4040882383
 32
0.0
 13
0.2213747391
 23
0.4040882383
 33
0.0
 40
0.0
 40
0.0
 40
0.0
 40
0.0
 40
0.1363385306
 40
0.2625242499
 40
0.3826814249
 40
0.5000474403
 40
0.6174094987
 40
0.7375563123
 40
0.8636900968
 40
1.0
 40
1.0
 40
1.0
 40
1.0
 10
1.0714102678
 20
4.729729274
 30
0.0
 10
1.0613496322
 20
4.7480935396
 30
0.0
 10
1.0434024287
 20
4.7842773153
 30
0.0
 10
1.022980981
 20
4.8395280331
 30
0.0
 10
1.0104568016
 20
4.8941510757
 30
0.0
 10
1.0062106163
 20
4.9487053232
 30
0.0
 10
1.0104633208
 20
5.0032574208
 30
0.0
 10
1.0229905902
 20
5.0578692045
 30
0.0
 10
1.043409757
 20
5.1131056806
 30
0.0
 10
1.0613517447
 20
5.1492781816
 30
0.0
 10
1.0714102678
 20
5.1676385911
 30
0.0
 11
1.0714102678
 21
4.729729274
 31
0.0
 11
1.0437704187
 21
4.7861402878
 31
0.0
 11
1.0238828151
 21
4.8407736749
 31
0.0
 11
1.0117264985
 21
4.8947854524
 31
0.0
 11
1.00761597
 21
4.9487058393
 31
0.0
 11
1.0117328039
 21
5.0026239167
 31
0.0
 11
1.0238933848
 21
5.0566298408
 31
0.0
 11
1.0437756251
 21
5.1112397148
 31
0.0
 11
1.0714102678
 21
5.1676385911
 31
0.0
  0
SPLINE
  5
478
100
AcDbEntity
  8
0
100
AcDbSpline
 62
7
  6
CONTINUOUS
 70
0
 71
3
 72
9
 73
5
 74
3
 42
0.0000001
 43
0.0000001
 44
0.0000000001
 12
0.0939631041
 22
-0.0025117797
 32
0.0
 13
0.0842686285
 23
-0.0416433934
 33
0.0
 40
0.0
 40
0.0
 40
0.0
 40
0.0
 40
0.4965075769
 40
1.0
 40
1.0
 40
1.0
 40
1.0
 10
4.8891403012
 20
4.0929869121
 30
0.0
 10
4.9046914323
 20
4.0925712062
 30
0.0
 10
4.9360119925
 20
4.0882768382
 30
0.0
 10
4.9656574011
 20
4.0773244892
 30
0.0
 10
4.9798002731
 20
4.0703354449
 30
0.0
 11
4.8891403012
 21
4.0929869121
 31
0.0
 11
4.9353802652
 21
4.0866655097
 31
0.0
 11
4.9798002731
 21
4.0703354449
 31
0.0
  0
SPLINE
  5
479
100
AcDbEntity
  8
0
100
AcDbSpline
 62
7
  6
CONTINUOUS
 70
0
 71
3
 72
13
 73
9
 74
7
 42
0.0000001
 43
0.0000001
 44
0.0000000001
 12
0.1046669881
 22
-0.0135295894
 32
0.0
 13
0.1024375284
 23
-0.0253925374
 33
0.0
 40
0.0
 40
0.0
 40
0.0
 40
0.0
 40
0.2144737828
 40
0.4037966589
 40
0.5749992427
 40
0.7325355544
 40
0.875261918
 40
1.0
 40
1.0
 40
1.0
 40
1.0
 10
4.9798002731
 20
3.5550114636
 30
0.0
 10
4.987283048
 20
3.5540442162
 30
0.0
 10
5.0013478015
 20
3.552037295
 30
0.0
 10
5.0212996473
 20
3.5486965228
 30
0.0
 10
5.039208473
 20
3.5453098613
 30
0.0
 10
5.0554460424
 20
3.541924806
 30
0.0
 10
5.0700306378
 20
3.538631495
 30
0.0
 10
5.0791783496
 20
3.5364273179
 30
0.0
 10
5.0834376366
 20
3.5353715124
 30
0.0
 11
4.9798002731
 21
3.5550114636
 31
0.0
 11
5.0022087607
 21
3.5518166114
 31
0.0
 11
5.0219154764
 21
3.5485189523
 31
0.0
 11
5.0396694661
 21
3.5451632208
 31
0.0
 11
5.0559458564
 21
3.5417714353
 31
0.0
 11
5.0706391737
 21
3.5384546283
 31
0.0
 11
5.0834376366
 21
3.5353715124
 31
0.0
  0
SPLINE
  5
47A
100
AcDbEntity
  8
0
100
AcDbSpline
 62
7
  6
CONTINUOUS
 70
0
 71
3
 72
9
 73
5
 74
3
 42
0.0000001
 43
0.0000001
 44
0.0000000001
 12
0.090955344
 22
-0.0007591096
 32
0.0
 13
0.0900843175
 23
-0.0125804053
 33
0.0
 40
0.0
 40
0.0
 40
0.0
 40
0.0
 40
0.5088140375
 40
1.0
 40
1.0
 40
1.0
 40
1.0
 10
4.8891403012
 20
3.5617493869
 30
0.0
 10
4.9045667532
 20
3.5616206384
 30
0.0
 10
4.9348855142
 20
3.5603378599
 30
0.0
 10
4.965050889
 20
3.5570712364
 30
0.0
 10
4.9798002731
 20
3.5550114636
 30
0.0
 11
4.8891403012
 21
3.5617493869
 31
0.0
 11
4.9353802652
 21
3.5598016459
 31
0.0
 11
4.9798002731
 21
3.5550114636
 31
0.0
  0
SPLINE
  5
47B
100
AcDbEntity
  8
0
100
AcDbSpline
 62
7
  6
CONTINUOUS
 70
0
 71
3
 72
9
 73
5
 74
3
 42
0.0000001
 43
0.0000001
 44
0.0000000001
 12
-0.0900843184
 22
-0.0125804055
 32
0.0
 13
-0.090955345
 23
-0.0007591096
 33
0.0
 40
0.0
 40
0.0
 40
0.0
 40
0.0
 40
0.4913736983
 40
1.0
 40
1.0
 40
1.0
 40
1.0
 10
4.9798002731
 20
4.9350564016
 30
0.0
 10
4.9650452515
 20
4.9329958415
 30
0.0
 10
4.9348798141
 20
4.9297295742
 30
0.0
 10
4.9045610615
 20
4.9284471793
 30
0.0
 10
4.8891403012
 20
4.9283184783
 30
0.0
 11
4.9798002731
 21
4.9350564016
 31
0.0
 11
4.9353632288
 21
4.930264928
 31
0.0
 11
4.8891403012
 21
4.9283184783
 31
0.0
  0
SPLINE
  5
47C
100
AcDbEntity
  8
0
100
AcDbSpline
 62
7
  6
CONTINUOUS
 70
0
 71
3
 72
11
 73
7
 74
5
 42
0.0000001
 43
0.0000001
 44
0.0000000001
 12
-0.1024353983
 22
-0.0253920094
 32
0.0
 13
-0.1046648116
 23
-0.013529308
 33
0.0
 40
0.0
 40
0.0
 40
0.0
 40
0.0
 40
0.1902970409
 40
0.4258901944
 40
0.698905898
 40
1.0
 40
1.0
 40
1.0
 40
1.0
 10
5.0834376366
 20
4.9546963528
 30
0.0
 10
5.0769399188
 20
4.953085678
 30
0.0
 10
5.0623614954
 20
4.949625914
 30
0.0
 10
5.0383116552
 20
4.9445035604
 30
0.0
 10
5.010288565
 20
4.9393745366
 30
0.0
 10
4.9903049256
 20
4.9364142665
 30
0.0
 10
4.9798002731
 20
4.9350564016
 30
0.0
 11
5.0834376366
 21
4.9546963528
 31
0.0
 11
5.0638966786
 21
4.9500614374
 31
0.0
 11
5.0395777399
 21
4.9448863799
 31
0.0
 11
5.0112345038
 21
4.9397053618
 31
0.0
 11
4.9798002731
 21
4.9350564016
 31
0.0
  0
SPLINE
  5
47D
100
AcDbEntity
  8
0
100
AcDbSpline
 62
7
  6
CONTINUOUS
 70
0
 71
3
 72
9
 73
5
 74
3
 42
0.0000001
 43
0.0000001
 44
0.0000000001
 12
-0.0842686294
 22
-0.0416433938
 32
0.0
 13
-0.0939631051
 23
-0.0025117798
 33
0.0
 40
0.0
 40
0.0
 40
0.0
 40
0.0
 40
0.5036781224
 40
1.0
 40
1.0
 40
1.0
 40
1.0
 10
4.9798002731
 20
4.4197324203
 30
0.0
 10
4.9656521847
 20
4.4127407982
 30
0.0
 10
4.9360060874
 20
4.4017895264
 30
0.0
 10
4.9046856162
 20
4.3974965035
 30
0.0
 10
4.8891403012
 20
4.3970809531
 30
0.0
 11
4.9798002731
 21
4.4197324203
 31
0.0
 11
4.9353632288
 21
4.4033981083
 31
0.0
 11
4.8891403012
 21
4.3970809531
 31
0.0
  0
SPLINE
  5
47E
100
AcDbEntity
  8
0
100
AcDbSpline
 62
7
  6
CONTINUOUS
 70
0
 71
3
 72
14
 73
10
 74
8
 42
0.0000001
 43
0.0000001
 44
0.0000000001
 12
-0.0778136985
 22
-0.2499031419
 32
0.0
 13
-0.261052698
 23
0.0
 33
0.0
 40
0.0
 40
0.0
 40
0.0
 40
0.0
 40
0.1058987556
 40
0.2385313145
 40
0.3726076465
 40
0.5165734658
 40
0.6712167629
 40
0.8343086005
 40
1.0
 40
1.0
 40
1.0
 40
1.0
 10
6.3457222581
 20
3.9340016414
 30
0.0
 10
6.3429754669
 20
3.9251801642
 30
0.0
 10
6.3348741041
 20
3.9059007107
 30
0.0
 10
6.3158414817
 20
3.8792619598
 30
0.0
 10
6.2887907091
 20
3.855494336
 30
0.0
 10
6.255894203
 20
3.8367238776
 30
0.0
 10
6.2179039964
 20
3.8231222385
 30
0.0
 10
6.1765005545
 20
3.8149721582
 30
0.0
 10
6.1478556988
 20
3.8131773626
 30
0.0
 10
6.1334376366
 20
3.8131773626
 30
0.0
 11
6.3457222581
 21
3.9340016414
 31
0.0
 11
6.3349773692
 21
3.9085002747
 31
0.0
 11
6.314939749
 21
3.8802633981
 31
0.0
 11
6.2887852654
 21
3.8570037299
 31
0.0
 11
6.2562718819
 21
3.8381533547
 31
0.0
 11
6.2183460781
 21
3.8243195436
 31
0.0
 11
6.1766036198
 21
3.8159382641
 31
0.0
 11
6.1334376366
 21
3.8131773626
 31
0.0
  0
SPLINE
  5
47F
100
AcDbEntity
  8
0
100
AcDbSpline
 62
7
  6
CONTINUOUS
 70
0
 71
3
 72
14
 73
10
 74
8
 42
0.0000001
 43
0.0000001
 44
0.0000000001
 12
0.0000630761
 22
0.3325471432
 32
0.0
 13
-0.3316632286
 23
0.0
 33
0.0
 40
0.0
 40
0.0
 40
0.0
 40
0.0
 40
0.1287677764
 40
0.2650131982
 40
0.4088924389
 40
0.5577161429
 40
0.7072922696
 40
0.8547056382
 40
1.0
 40
1.0
 40
1.0
 40
1.0
 10
6.3524376366
 20
3.8862839293
 30
0.0
 10
6.352440344
 20
3.9005577147
 30
0.0
 10
6.3485872885
 20
3.929897523
 30
0.0
 10
6.332292412
 20
3.9724769433
 30
0.0
 10
6.3058960361
 20
4.0123168586
 30
0.0
 10
6.2706095853
 20
4.0467004725
 30
0.0
 10
6.228463281
 20
4.0730036979
 30
0.0
 10
6.1819764657
 20
4.089367639
 30
0.0
 10
6.1495005689
 20
4.0930631219
 30
0.0
 10
6.1334376366
 20
4.0930631219
 30
0.0
 11
6.3524376366
 21
3.8862839293
 31
0.0
 11
6.3471122961
 21
3.9286581504
 31
0.0
 11
6.3311595681
 21
3.9709361511
 31
0.0
 11
6.3049098823
 21
4.0107871265
 31
0.0
 11
6.2695744517
 21
4.0452509161
 31
0.0
 11
6.2274626831
 21
4.0714738453
 31
0.0
 11
6.1813199127
 21
4.0876365394
 31
0.0
 11
6.1334376366
 21
4.0930631219
 31
0.0
  0
SPLINE
  5
480
100
AcDbEntity
  8
0
100
AcDbSpline
 62
7
  6
CONTINUOUS
 70
0
 71
3
 72
14
 73
10
 74
8
 42
0.0000001
 43
0.0000001
 44
0.0000000001
 12
-0.3316632282
 22
0.0
 32
0.0
 13
0.0000630751
 23
-0.3325471481
 33
0.0
 40
0.0
 40
0.0
 40
0.0
 40
0.0
 40
0.1452931643
 40
0.292705944
 40
0.4422820819
 40
0.5911057812
 40
0.7349851211
 40
0.8712311244
 40
1.0
 40
1.0
 40
1.0
 40
1.0
 10
6.1334376366
 20
4.0930631219
 30
0.0
 10
6.1173748366
 20
4.0930631219
 30
0.0
 10
6.0848991401
 20
4.0893676928
 30
0.0
 10
6.0384124766
 20
4.0730039241
 30
0.0
 10
5.9962661587
 20
4.0467008423
 30
0.0
 10
5.9609796116
 20
4.0123173106
 30
0.0
 10
5.9345830906
 20
3.9724774016
 30
0.0
 10
5.9182880426
 20
3.9298978321
 30
0.0
 10
5.9144349291
 20
3.9005578378
 30
0.0
 10
5.9144376365
 20
3.8862839303
 30
0.0
 11
6.1334376366
 21
4.0930631219
 31
0.0
 11
6.08555575
 21
4.0876366286
 31
0.0
 11
6.0394131275
 21
4.0714741032
 31
0.0
 11
5.9973012875
 21
4.0452512819
 31
0.0
 11
5.961965769
 21
4.0107875848
 31
0.0
 11
5.9357159604
 21
3.9709366509
 31
0.0
 11
5.9197630661
 21
3.9286585069
 31
0.0
 11
5.9144376365
 21
3.8862839303
 31
0.0
  0
SPLINE
  5
481
100
AcDbEntity
  8
0
100
AcDbSpline
 62
7
  6
CONTINUOUS
 70
0
 71
3
 72
8
 73
4
 74
2
 42
0.0000001
 43
0.0000001
 44
0.0000000001
 12
0.0004195244
 22
-0.0010148279
 32
0.0
 13
0.000419299
 23
-0.0010149211
 33
0.0
 40
0.0
 40
0.0
 40
0.0
 40
0.0
 40
1.0
 40
1.0
 40
1.0
 40
1.0
 10
5.0984467761
 20
4.5677415627
 30
0.0
 10
5.0985866176
 20
4.5674032867
 30
0.0
 10
5.098726422
 20
4.5670649954
 30
0.0
 10
5.0988661884
 20
4.5667266884
 30
0.0
 11
5.0984467761
 21
4.5677415627
 31
0.0
 11
5.0988661884
 21
4.5667266884
 31
0.0
  0
SPLINE
  5
482
100
AcDbEntity
  8
0
100
AcDbSpline
 62
7
  6
CONTINUOUS
 70
0
 71
3
 72
9
 73
5
 74
3
 42
0.0000001
 43
0.0000001
 44
0.0000000001
 12
0.0064472705
 22
-0.0156057383
 32
0.0
 13
0.0063815777
 23
-0.0156327155
 33
0.0
 40
0.0
 40
0.0
 40
0.0
 40
0.0
 40
0.4686839103
 40
1.0
 40
1.0
 40
1.0
 40
1.0
 10
5.0988661884
 20
4.5667266884
 30
0.0
 10
5.0998734324
 20
4.5642886356
 30
0.0
 10
5.1020183005
 20
4.5590849774
 30
0.0
 10
5.1041523483
 20
4.5538768689
 30
0.0
 10
5.10528256
 20
4.5511082311
 30
0.0
 11
5.0988661884
 21
4.5667266884
 31
0.0
 11
5.1018815859
 21
4.5594099163
 31
0.0
 11
5.10528256
 21
4.5511082311
 31
0.0
  0
SPLINE
  5
483
100
AcDbEntity
  8
0
100
AcDbSpline
 62
7
  6
CONTINUOUS
 70
0
 71
3
 72
9
 73
5
 74
3
 42
0.0000001
 43
0.0000001
 44
0.0000000001
 12
-0.0067966044
 22
-0.0166493911
 32
0.0
 13
-0.006870261
 23
-0.0166191326
 33
0.0
 40
0.0
 40
0.0
 40
0.0
 40
0.0
 40
0.4988365343
 40
1.0
 40
1.0
 40
1.0
 40
1.0
 10
5.10528256
 20
4.656459634
 30
0.0
 10
5.1041524285
 20
4.6536911925
 30
0.0
 10
5.1018795931
 20
4.6481443739
 30
0.0
 10
5.0995944841
 20
4.6426026032
 30
0.0
 10
5.0984467761
 20
4.6398263025
 30
0.0
 11
5.10528256
 21
4.656459634
 31
0.0
 11
5.1018818277
 21
4.6481585371
 31
0.0
 11
5.0984467761
 21
4.6398263025
 31
0.0
  0
SPLINE
  5
484
100
AcDbEntity
  8
0
100
AcDbSpline
 62
7
  6
CONTINUOUS
 70
0
 71
3
 72
10
 73
6
 74
4
 42
0.0000001
 43
0.0000001
 44
0.0000000001
 12
-0.0210223559
 22
-0.0099114711
 32
0.0
 13
-0.0225589542
 23
-0.0055919847
 33
0.0
 40
0.0
 40
0.0
 40
0.0
 40
0.0
 40
0.2955573366
 40
0.6309226595
 40
1.0
 40
1.0
 40
1.0
 40
1.0
 10
5.10528256
 20
4.9625339326
 30
0.0
 10
5.1032114561
 20
4.9615574633
 30
0.0
 10
5.0987330128
 20
4.9595918586
 30
0.0
 10
5.091460186
 20
4.956908181
 30
0.0
 10
5.0862129695
 20
4.9553843111
 30
0.0
 10
5.0834376366
 20
4.9546963528
 30
0.0
 11
5.10528256
 21
4.9625339326
 31
0.0
 11
5.0989914079
 21
4.9597756583
 31
0.0
 11
5.0916772803
 21
4.9570817471
 31
0.0
 11
5.0834376366
 21
4.9546963528
 31
0.0
  0
SPLINE
  5
485
100
AcDbEntity
  8
0
100
AcDbSpline
 62
7
  6
CONTINUOUS
 70
0
 71
3
 72
10
 73
6
 74
4
 42
0.0000001
 43
0.0000001
 44
0.0000000001
 12
0.0225589539
 22
-0.0055919846
 32
0.0
 13
0.0210223556
 23
-0.009911471
 33
0.0
 40
0.0
 40
0.0
 40
0.0
 40
0.0
 40
0.3690381344
 40
0.7045779293
 40
1.0
 40
1.0
 40
1.0
 40
1.0
 10
5.0834376366
 20
3.5353715124
 30
0.0
 10
5.0862126746
 20
3.5346836272
 30
0.0
 10
5.0914609029
 20
3.5331594875
 30
0.0
 10
5.0987337101
 20
3.5304757356
 30
0.0
 10
5.103212404
 20
3.528509955
 30
0.0
 10
5.10528256
 20
3.5275339326
 30
0.0
 11
5.0834376366
 21
3.5353715124
 31
0.0
 11
5.0916764146
 21
3.5329864047
 31
0.0
 11
5.0989943223
 21
3.5302910244
 31
0.0
 11
5.10528256
 21
3.5275339326
 31
0.0
  0
SPLINE
  5
486
100
AcDbEntity
  8
0
100
AcDbSpline
 62
7
  6
CONTINUOUS
 70
0
 71
3
 72
9
 73
5
 74
3
 42
0.0000001
 43
0.0000001
 44
0.0000000001
 12
0.006870261
 22
-0.0166191326
 32
0.0
 13
0.0067966044
 23
-0.0166493911
 33
0.0
 40
0.0
 40
0.0
 40
0.0
 40
0.0
 40
0.5011657208
 40
1.0
 40
1.0
 40
1.0
 40
1.0
 10
5.0984467761
 20
3.8502415627
 30
0.0
 10
5.0995944892
 20
3.8474652495
 30
0.0
 10
5.1018795982
 20
3.8419234788
 30
0.0
 10
5.1041524336
 20
3.8363766601
 30
0.0
 10
5.10528256
 20
3.8336082311
 30
0.0
 11
5.0984467761
 21
3.8502415627
 31
0.0
 11
5.1018818431
 21
3.8419092906
 31
0.0
 11
5.10528256
 21
3.8336082311
 31
0.0
  0
SPLINE
  5
487
100
AcDbEntity
  8
0
100
AcDbSpline
 62
7
  6
CONTINUOUS
 70
0
 71
3
 72
9
 73
5
 74
3
 42
0.0000001
 43
0.0000001
 44
0.0000000001
 12
-0.0063822337
 22
-0.0156343223
 32
0.0
 13
-0.0064479388
 23
-0.01560734
 33
0.0
 40
0.0
 40
0.0
 40
0.0
 40
0.0
 40
0.5312614852
 40
1.0
 40
1.0
 40
1.0
 40
1.0
 10
5.10528256
 20
3.938959634
 30
0.0
 10
5.1041523483
 20
3.9361909963
 30
0.0
 10
5.1020180812
 20
3.9309823525
 30
0.0
 10
5.0998729915
 20
3.9257781599
 30
0.0
 10
5.0988655257
 20
3.9233395728
 30
0.0
 11
5.10528256
 21
3.938959634
 31
0.0
 11
5.1018815859
 21
3.9306579489
 31
0.0
 11
5.0988655257
 21
3.9233395728
 31
0.0
  0
SPLINE
  5
488
100
AcDbEntity
  8
0
100
AcDbSpline
 62
7
  6
CONTINUOUS
 70
0
 71
3
 72
8
 73
4
 74
2
 42
0.0000001
 43
0.0000001
 44
0.0000000001
 12
-0.0004186367
 22
-0.001013317
 32
0.0
 13
-0.0004188614
 23
-0.001013224
 33
0.0
 40
0.0
 40
0.0
 40
0.0
 40
0.0
 40
1.0
 40
1.0
 40
1.0
 40
1.0
 10
5.0988655257
 20
3.9233395728
 30
0.0
 10
5.0987259801
 20
3.9230018005
 30
0.0
 10
5.0985863966
 20
3.9226640439
 30
0.0
 10
5.0984467761
 20
3.9223263025
 30
0.0
 11
5.0988655257
 21
3.9233395728
 31
0.0
 11
5.0984467761
 21
3.9223263025
 31
0.0
  0
SPLINE
  5
489
100
AcDbEntity
  8
0
100
AcDbSpline
 62
7
  6
CONTINUOUS
 70
0
 71
3
 72
9
 73
5
 74
3
 42
0.0000001
 43
0.0000001
 44
0.0000000001
 12
0.0071753654
 22
-0.0033127447
 32
0.0
 13
-0.0071753654
 23
0.0033127447
 33
0.0
 40
0.0
 40
0.0
 40
0.0
 40
0.0
 40
0.5
 40
1.0
 40
1.0
 40
1.0
 40
1.0
 10
5.0984467761
 20
3.5275339326
 30
0.0
 10
5.0996426704
 20
3.5269818085
 30
0.0
 10
5.1043660346
 20
3.5246458898
 30
0.0
 10
5.0996426704
 20
3.5269818085
 30
0.0
 10
5.0984467761
 20
3.5275339326
 30
0.0
 11
5.0984467761
 21
3.5275339326
 31
0.0
 11
5.1020043525
 21
3.5258138491
 31
0.0
 11
5.0984467761
 21
3.5275339326
 31
0.0
  0
SPLINE
  5
48A
100
AcDbEntity
  8
0
100
AcDbSpline
 62
7
  6
CONTINUOUS
 70
0
 71
3
 72
9
 73
5
 74
3
 42
0.0000001
 43
0.0000001
 44
0.0000000001
 12
0.0071753654
 22
-0.0033127447
 32
0.0
 13
-0.0071753654
 23
0.0033127447
 33
0.0
 40
0.0
 40
0.0
 40
0.0
 40
0.0
 40
0.5
 40
1.0
 40
1.0
 40
1.0
 40
1.0
 10
5.0984467761
 20
3.5275339326
 30
0.0
 10
5.0996426704
 20
3.5269818085
 30
0.0
 10
5.1043660346
 20
3.5246458898
 30
0.0
 10
5.0996426704
 20
3.5269818085
 30
0.0
 10
5.0984467761
 20
3.5275339326
 30
0.0
 11
5.0984467761
 21
3.5275339326
 31
0.0
 11
5.1020043525
 21
3.5258138491
 31
0.0
 11
5.0984467761
 21
3.5275339326
 31
0.0
  0
SPLINE
  5
48B
100
AcDbEntity
  8
0
100
AcDbSpline
 62
7
  6
CONTINUOUS
 70
0
 71
3
 72
8
 73
4
 74
2
 42
0.0000001
 43
0.0000001
 44
0.0000000001
 12
0.0052452983
 22
-0.0246787762
 32
0.0
 13
0.0017995144
 23
-0.0251904976
 33
0.0
 40
0.0
 40
0.0
 40
0.0
 40
0.0
 40
1.0
 40
1.0
 40
1.0
 40
1.0
 10
5.0984467761
 20
3.9223263025
 30
0.0
 10
5.1001952089
 20
3.9141000438
 30
0.0
 10
5.1014045162
 20
3.9057451691
 30
0.0
 10
5.1020043543
 20
3.8973483365
 30
0.0
 11
5.0984467761
 21
3.9223263025
 31
0.0
 11
5.1020043543
 21
3.8973483365
 31
0.0
  0
SPLINE
  5
48C
100
AcDbEntity
  8
0
100
AcDbSpline
 62
7
  6
CONTINUOUS
 70
0
 71
3
 72
8
 73
4
 74
2
 42
0.0000001
 43
0.0000001
 44
0.0000000001
 12
0.0007892777
 22
-0.0110487015
 32
0.0
 13
0.0000656269
 23
-0.0110746272
 33
0.0
 40
0.0
 40
0.0
 40
0.0
 40
0.0
 40
1.0
 40
1.0
 40
1.0
 40
1.0
 10
5.1020043543
 20
3.8973483365
 30
0.0
 10
5.1022674469
 20
3.893665436
 30
0.0
 10
5.1024132927
 20
3.8899744639
 30
0.0
 10
5.1024351683
 20
3.8862829215
 30
0.0
 11
5.1020043543
 21
3.8973483365
 31
0.0
 11
5.1024351683
 21
3.8862829215
 31
0.0
  0
SPLINE
  5
48D
100
AcDbEntity
  8
0
100
AcDbSpline
 62
7
  6
CONTINUOUS
 70
0
 71
3
 72
8
 73
4
 74
2
 42
0.0000001
 43
0.0000001
 44
0.0000000001
 12
0.0000057275
 22
-0.0009665273
 32
0.0
 13
0.0000000486
 23
-0.0009665384
 33
0.0
 40
0.0
 40
0.0
 40
0.0
 40
0.0
 40
1.0
 40
1.0
 40
1.0
 40
1.0
 10
5.1024351683
 20
3.8862829215
 30
0.0
 10
5.1024370775
 20
3.8859607457
 30
0.0
 10
5.1024380424
 20
3.8856385656
 30
0.0
 10
5.1024380586
 20
3.8853163861
 30
0.0
 11
5.1024351683
 21
3.8862829215
 31
0.0
 11
5.1024380586
 21
3.8853163861
 31
0.0
  0
SPLINE
  5
48E
100
AcDbEntity
  8
0
100
AcDbSpline
 62
7
  6
CONTINUOUS
 70
0
 71
3
 72
8
 73
4
 74
2
 42
0.0000001
 43
0.0000001
 44
0.0000000001
 12
-0.0038202607
 22
-0.0137801605
 32
0.0
 13
-0.0051708838
 23
-0.0133273557
 33
0.0
 40
0.0
 40
0.0
 40
0.0
 40
0.0
 40
1.0
 40
1.0
 40
1.0
 40
1.0
 10
5.0969975467
 20
3.9383341346
 30
0.0
 10
5.0957241265
 20
3.9337407477
 30
0.0
 10
5.0942220186
 20
3.9292112858
 30
0.0
 10
5.0924983907
 20
3.9247688339
 30
0.0
 11
5.0969975467
 21
3.9383341346
 31
0.0
 11
5.0924983907
 21
3.9247688339
 31
0.0
  0
SPLINE
  5
48F
100
AcDbEntity
  8
0
100
AcDbSpline
 62
7
  6
CONTINUOUS
 70
0
 71
3
 72
21
 73
17
 74
15
 42
0.0000001
 43
0.0000001
 44
0.0000000001
 12
-0.1888965283
 22
-0.4868589846
 32
0.0
 13
-0.1261825323
 23
0.5064218034
 33
0.0
 40
0.0
 40
0.0
 40
0.0
 40
0.0
 40
0.0404974723
 40
0.1101016412
 40
0.1819522194
 40
0.2620039989
 40
0.3461113428
 40
0.4327043556
 40
0.5199701344
 40
0.6062791009
 40
0.6890013167
 40
0.7635748323
 40
0.8258160395
 40
0.8850943502
 40
0.9463482776
 40
1.0
 40
1.0
 40
1.0
 40
1.0
 10
5.0924983907
 20
3.9247688339
 30
0.0
 10
5.0899484467
 20
3.9181966478
 30
0.0
 10
5.0816977265
 20
3.900846394
 30
0.0
 10
5.0624240146
 20
3.8754128354
 30
0.0
 10
5.0323799472
 20
3.8509263062
 30
0.0
 10
4.9956603381
 20
3.8321733815
 30
0.0
 10
4.9538122381
 20
3.8195539482
 30
0.0
 10
4.9093546134
 20
3.8131496748
 30
0.0
 10
4.8640751097
 20
3.812726657
 30
0.0
 10
4.8197920569
 20
3.8181979747
 30
0.0
 10
4.7788536155
 20
3.8294166864
 30
0.0
 10
4.7440789885
 20
3.8454697013
 30
0.0
 10
4.7160776331
 20
3.8651311385
 30
0.0
 10
4.6938970218
 20
3.8880995512
 30
0.0
 10
4.6778613283
 20
3.9140331534
 30
0.0
 10
4.6711660985
 20
3.9329624124
 30
0.0
 10
4.6689094617
 20
3.9420192131
 30
0.0
 11
5.0924983907
 21
3.9247688339
 31
0.0
 11
5.0834172846
 21
3.9056983234
 31
0.0
 11
5.0616444961
 21
3.8767281614
 31
0.0
 11
5.0328143027
 21
3.8528894287
 31
0.0
 11
4.9958500047
 21
3.8336328552
 31
0.0
 11
4.9540012712
 21
3.8207358085
 31
0.0
 11
4.9093972101
 21
3.8141669724
 31
0.0
 11
4.8639638403
 21
3.8137330277
 31
0.0
 11
4.8193806787
 21
3.8193633135
 31
0.0
 11
4.7779041406
 21
3.8309695725
 31
0.0
 11
4.7427598037
 21
3.8474747965
 31
0.0
 11
4.7163380529
 21
3.8662379575
 31
0.0
 11
4.6949907906
 21
3.8885282314
 31
0.0
 11
4.6782649602
 21
3.9156826084
 31
0.0
 11
4.6689094617
 21
3.9420192131
 31
0.0
  0
SPLINE
  5
490
100
AcDbEntity
  8
0
100
AcDbSpline
 62
7
  6
CONTINUOUS
 70
0
 71
3
 72
22
 73
18
 74
16
 42
0.0000001
 43
0.0000001
 44
0.0000000001
 12
0.1260359238
 22
0.5061371732
 32
0.0
 13
0.1899236356
 23
-0.4855977035
 33
0.0
 40
0.0
 40
0.0
 40
0.0
 40
0.0
 40
0.0542215493
 40
0.1160974215
 40
0.1753524316
 40
0.2376815808
 40
0.3120172993
 40
0.3921813955
 40
0.4750410058
 40
0.558208297
 40
0.6411184306
 40
0.7214447972
 40
0.7961871562
 40
0.8590208776
 40
0.9185315469
 40
0.9806718476
 40
1.0
 40
1.0
 40
1.0
 40
1.0
 10
4.6689040995
 20
4.5480268225
 30
0.0
 10
4.6711820538
 20
4.5571746697
 30
0.0
 10
4.6779588132
 20
4.5762858304
 30
0.0
 10
4.6941713442
 20
4.6023335694
 30
0.0
 10
4.7165014029
 20
4.6252934832
 30
0.0
 10
4.7445188169
 20
4.6448406256
 30
0.0
 10
4.7788742554
 20
4.6606118453
 30
0.0
 10
4.8187139643
 20
4.6715823993
 30
0.0
 10
4.861183874
 20
4.6770825435
 30
0.0
 10
4.9044718335
 20
4.6771590227
 30
0.0
 10
4.9469979295
 20
4.6718118506
 30
0.0
 10
4.9869859144
 20
4.6609794871
 30
0.0
 10
5.0215831036
 20
4.6452879948
 30
0.0
 10
5.0498533872
 20
4.6257454955
 30
0.0
 10
5.0723947845
 20
4.6027408667
 30
0.0
 10
5.0854954467
 20
4.5818385935
 30
0.0
 10
5.0911195745
 20
4.5688356113
 30
0.0
 10
5.0923431988
 20
4.5657070425
 30
0.0
 11
4.6689040995
 21
4.5480268225
 31
0.0
 11
4.67837518
 21
4.5746189309
 31
0.0
 11
4.6953384713
 21
4.6019834111
 31
0.0
 11
4.7167420008
 21
4.6241758717
 31
0.0
 11
4.7432407436
 21
4.642874193
 31
0.0
 11
4.7782869986
 21
4.6592395283
 31
0.0
 11
4.8184453263
 21
4.6705165527
 31
0.0
 11
4.8611879972
 21
4.6761645077
 31
0.0
 11
4.9044622345
 21
4.6762425086
 31
0.0
 11
4.9472520227
 21
4.6707528038
 31
0.0
 11
4.9875389877
 21
4.6596229385
 31
0.0
 11
5.0228512727
 21
4.6433281724
 31
0.0
 11
5.0496441431
 21
4.6245918167
 31
0.0
 11
5.0712216752
 21
4.6023826482
 31
0.0
 11
5.0883414016
 21
4.5749534385
 31
0.0
 11
5.0923431988
 21
4.5657070425
 31
0.0
  0
SPLINE
  5
491
100
AcDbEntity
  8
0
100
AcDbSpline
 62
7
  6
CONTINUOUS
 70
0
 71
3
 72
8
 73
4
 74
2
 42
0.0000001
 43
0.0000001
 44
0.0000000001
 12
0.0055681416
 22
-0.0142366523
 32
0.0
 13
0.0040283738
 23
-0.0147516708
 33
0.0
 40
0.0
 40
0.0
 40
0.0
 40
0.0
 40
1.0
 40
1.0
 40
1.0
 40
1.0
 10
5.0923431988
 20
4.5657070425
 30
0.0
 10
5.094199246
 20
4.5609614917
 30
0.0
 10
5.0958006307
 20
4.556115512
 30
0.0
 10
5.097143422
 20
4.5511982884
 30
0.0
 11
5.0923431988
 21
4.5657070425
 31
0.0
 11
5.097143422
 21
4.5511982884
 31
0.0
  0
SPLINE
  5
492
100
AcDbEntity
  8
0
100
AcDbSpline
 62
7
  6
CONTINUOUS
 70
0
 71
3
 72
9
 73
5
 74
3
 42
0.0000001
 43
0.0000001
 44
0.0000000001
 12
0.0071753654
 22
0.0033127447
 32
0.0
 13
-0.0071753654
 23
-0.0033127447
 33
0.0
 40
0.0
 40
0.0
 40
0.0
 40
0.0
 40
0.5
 40
1.0
 40
1.0
 40
1.0
 40
1.0
 10
5.0984467761
 20
4.9625339326
 30
0.0
 10
5.0996426704
 20
4.9630860567
 30
0.0
 10
5.1043660346
 20
4.9654219754
 30
0.0
 10
5.0996426704
 20
4.9630860567
 30
0.0
 10
5.0984467761
 20
4.9625339326
 30
0.0
 11
5.0984467761
 21
4.9625339326
 31
0.0
 11
5.1020043525
 21
4.964254016
 31
0.0
 11
5.0984467761
 21
4.9625339326
 31
0.0
  0
SPLINE
  5
493
100
AcDbEntity
  8
0
100
AcDbSpline
 62
7
  6
CONTINUOUS
 70
0
 71
3
 72
14
 73
10
 74
8
 42
0.0000001
 43
0.0000001
 44
0.0000000001
 12
-0.2459408491
 22
0.0014293267
 32
0.0
 13
0.000000012
 23
-0.0000000432
 33
0.0
 40
0.0
 40
0.0
 40
0.0
 40
0.0
 40
0.1747849367
 40
0.3857407963
 40
0.5799479553
 40
0.7455156804
 40
0.8729412845
 40
0.9578882434
 40
1.0
 40
1.0
 40
1.0
 40
1.0
 10
4.8787024707
 20
3.5618775995
 30
0.0
 10
4.8643735521
 20
3.5619608744
 30
0.0
 10
4.8327324347
 20
3.5613036065
 30
0.0
 10
4.7854122905
 20
3.5575790841
 30
0.0
 10
4.7387382126
 20
3.5510526392
 30
0.0
 10
4.7004262309
 20
3.5438615975
 30
0.0
 10
4.6678818702
 20
3.5362786932
 30
0.0
 10
4.6525078768
 20
3.5324293271
 30
0.0
 10
4.6359710876
 20
3.5278800002
 30
0.0
 10
4.6359710878
 20
3.5278799996
 30
0.0
 11
4.8787024707
 21
3.5618775995
 31
0.0
 11
4.8357337244
 21
3.5609915636
 31
0.0
 11
4.7840253007
 21
3.5569208938
 31
0.0
 11
4.736725534
 21
3.5503766029
 31
0.0
 11
4.6967276884
 21
3.5428023916
 31
0.0
 11
4.6661887828
 21
3.5358039254
 31
0.0
 11
4.6459594804
 21
3.5306069958
 31
0.0
 11
4.6359710878
 21
3.5278799996
 31
0.0
  0
SPLINE
  5
494
100
AcDbEntity
  8
0
100
AcDbSpline
 62
7
  6
CONTINUOUS
 70
0
 71
3
 72
8
 73
4
 74
2
 42
0.0000001
 43
0.0000001
 44
0.0000000001
 12
-0.0104351731
 22
0.0001958583
 32
0.0
 13
-0.01043988
 23
0.0000606731
 33
0.0
 40
0.0
 40
0.0
 40
0.0
 40
0.0
 40
1.0
 40
1.0
 40
1.0
 40
1.0
 10
4.8891403012
 20
3.5617493869
 30
0.0
 10
4.8856619102
 20
3.561814673
 30
0.0
 10
4.8821824307
 20
3.5618573751
 30
0.0
 10
4.8787024707
 20
3.5618775995
 30
0.0
 11
4.8891403012
 21
3.5617493869
 31
0.0
 11
4.8787024707
 21
3.5618775995
 31
0.0
  0
SPLINE
  5
495
100
AcDbEntity
  8
0
100
AcDbSpline
 62
7
  6
CONTINUOUS
 70
0
 71
3
 72
8
 73
4
 74
2
 42
0.0000001
 43
0.0000001
 44
0.0000000001
 12
-0.0000000486
 22
-0.0009665381
 32
0.0
 13
-0.0000057275
 23
-0.000966527
 33
0.0
 40
0.0
 40
0.0
 40
0.0
 40
0.0
 40
1.0
 40
1.0
 40
1.0
 40
1.0
 10
5.1024380586
 20
4.6047514788
 30
0.0
 10
5.1024380424
 20
4.6044292994
 30
0.0
 10
5.1024370775
 20
4.6041071194
 30
0.0
 10
5.1024351683
 20
4.6037849437
 30
0.0
 11
5.1024380586
 21
4.6047514788
 31
0.0
 11
5.1024351683
 21
4.6037849437
 31
0.0
  0
SPLINE
  5
496
100
AcDbEntity
  8
0
100
AcDbSpline
 62
7
  6
CONTINUOUS
 70
0
 71
3
 72
8
 73
4
 74
2
 42
0.0000001
 43
0.0000001
 44
0.0000000001
 12
-0.000065627
 22
-0.0110746364
 32
0.0
 13
-0.0007892789
 23
-0.0110487106
 33
0.0
 40
0.0
 40
0.0
 40
0.0
 40
0.0
 40
1.0
 40
1.0
 40
1.0
 40
1.0
 10
5.1024351683
 20
4.6037849437
 30
0.0
 10
5.1024132927
 20
4.6000933983
 30
0.0
 10
5.1022674466
 20
4.5964024231
 30
0.0
 10
5.1020043537
 20
4.5927195196
 30
0.0
 11
5.1024351683
 21
4.6037849437
 31
0.0
 11
5.1020043537
 21
4.5927195196
 31
0.0
  0
SPLINE
  5
497
100
AcDbEntity
  8
0
100
AcDbSpline
 62
7
  6
CONTINUOUS
 70
0
 71
3
 72
8
 73
4
 74
2
 42
0.0000001
 43
0.0000001
 44
0.0000000001
 12
-0.001799515
 22
-0.0251904885
 32
0.0
 13
-0.0052452964
 23
-0.0246787673
 33
0.0
 40
0.0
 40
0.0
 40
0.0
 40
0.0
 40
1.0
 40
1.0
 40
1.0
 40
1.0
 10
5.1020043537
 20
4.5927195196
 30
0.0
 10
5.1014045153
 20
4.5843226901
 30
0.0
 10
5.1001952082
 20
4.5759678184
 30
0.0
 10
5.0984467761
 20
4.5677415627
 30
0.0
 11
5.1020043537
 21
4.5927195196
 31
0.0
 11
5.0984467761
 21
4.5677415627
 31
0.0
  0
SPLINE
  5
498
100
AcDbEntity
  8
0
100
AcDbSpline
 62
7
  6
CONTINUOUS
 70
0
 71
3
 72
14
 73
10
 74
8
 42
0.0000001
 43
0.0000001
 44
0.0000000001
 12
-0.3159200559
 22
-0.00593553
 32
0.0
 13
-0.0
 23
-0.3159758096
 33
0.0
 40
0.0
 40
0.0
 40
0.0
 40
0.0
 40
0.1527313173
 40
0.3034852597
 40
0.4507863522
 40
0.5937472317
 40
0.7322759268
 40
0.8671651993
 40
1.0
 40
1.0
 40
1.0
 40
1.0
 10
4.8786876366
 20
4.0933988796
 30
0.0
 10
4.8626040078
 20
4.0930966992
 30
0.0
 10
4.8306157332
 20
4.089435316
 30
0.0
 10
4.7850863892
 20
4.0749683482
 30
0.0
 10
4.7442209631
 20
4.0521920794
 30
0.0
 10
4.7100227432
 20
4.0221435948
 30
0.0
 10
4.6841947852
 20
3.9861975446
 30
0.0
 10
4.6680954918
 20
3.9461009144
 30
0.0
 10
4.6644376366
 20
3.9177747938
 30
0.0
 10
4.6644376366
 20
3.9037839326
 30
0.0
 11
4.8786876366
 21
4.0933988796
 31
0.0
 11
4.8307457584
 21
4.0878720215
 31
0.0
 11
4.7853734112
 21
4.0733666728
 31
0.0
 11
4.7447836101
 21
4.0505900827
 31
0.0
 11
4.7109562015
 21
4.0206529444
 31
0.0
 11
4.6855412888
 21
3.9850152483
 31
0.0
 11
4.6697787806
 21
3.9454152905
 31
0.0
 11
4.6644376366
 21
3.9037839326
 31
0.0
  0
SPLINE
  5
499
100
AcDbEntity
  8
0
100
AcDbSpline
 62
7
  6
CONTINUOUS
 70
0
 71
3
 72
9
 73
5
 74
3
 42
0.0000001
 43
0.0000001
 44
0.0000000001
 12
-0.0104425249
 22
0.0006270563
 32
0.0
 13
-0.0104594906
 23
0.0001964212
 33
0.0
 40
0.0
 40
0.0
 40
0.0
 40
0.0
 40
0.5001719915
 40
1.0
 40
1.0
 40
1.0
 40
1.0
 10
4.8891403012
 20
4.0929869121
 30
0.0
 10
4.8873992818
 20
4.0930914574
 30
0.0
 10
4.8839161987
 20
4.0932646936
 30
0.0
 10
4.8804302853
 20
4.093366154
 30
0.0
 10
4.8786876366
 20
4.0933988796
 30
0.0
 11
4.8891403012
 21
4.0929869121
 31
0.0
 11
4.8839142925
 21
4.0932467969
 31
0.0
 11
4.8786876366
 21
4.0933988796
 31
0.0
  0
SPLINE
  5
49A
100
AcDbEntity
  8
0
100
AcDbSpline
 62
7
  6
CONTINUOUS
 70
0
 71
3
 72
14
 73
10
 74
8
 42
0.0000001
 43
0.0000001
 44
0.0000000001
 12
0.0
 22
-0.3159758096
 32
0.0
 13
0.3159200559
 23
-0.00593553
 33
0.0
 40
0.0
 40
0.0
 40
0.0
 40
0.0
 40
0.1328348007
 40
0.2677240732
 40
0.4062527683
 40
0.5492136478
 40
0.6965147403
 40
0.8472686827
 40
1.0
 40
1.0
 40
1.0
 40
1.0
 10
4.6644376366
 20
4.5862839326
 30
0.0
 10
4.6644376366
 20
4.5722930714
 30
0.0
 10
4.6680954918
 20
4.5439669507
 30
0.0
 10
4.6841947852
 20
4.5038703206
 30
0.0
 10
4.7100227432
 20
4.4679242704
 30
0.0
 10
4.7442209631
 20
4.4378757858
 30
0.0
 10
4.7850863892
 20
4.415099517
 30
0.0
 10
4.8306157332
 20
4.4006325491
 30
0.0
 10
4.8626040078
 20
4.396971166
 30
0.0
 10
4.8786876366
 20
4.3966689856
 30
0.0
 11
4.6644376366
 21
4.5862839326
 31
0.0
 11
4.6697787806
 21
4.5446525747
 31
0.0
 11
4.6855412888
 21
4.5050526169
 31
0.0
 11
4.7109562015
 21
4.4694149208
 31
0.0
 11
4.7447836101
 21
4.4394777825
 31
0.0
 11
4.7853734112
 21
4.4167011924
 31
0.0
 11
4.8307457584
 21
4.4021958437
 31
0.0
 11
4.8786876366
 21
4.3966689856
 31
0.0
  0
SPLINE
  5
49B
100
AcDbEntity
  8
0
100
AcDbSpline
 62
7
  6
CONTINUOUS
 70
0
 71
3
 72
9
 73
5
 74
3
 42
0.0000001
 43
0.0000001
 44
0.0000000001
 12
0.0104594906
 22
0.0001964212
 32
0.0
 13
0.0104425249
 23
0.0006270563
 33
0.0
 40
0.0
 40
0.0
 40
0.0
 40
0.0
 40
0.4998228841
 40
1.0
 40
1.0
 40
1.0
 40
1.0
 10
4.8786876366
 20
4.3966689856
 30
0.0
 10
4.8804302675
 20
4.3967017109
 30
0.0
 10
4.8839161809
 20
4.3968031709
 30
0.0
 10
4.8873992639
 20
4.3969764067
 30
0.0
 10
4.8891403012
 20
4.3970809531
 30
0.0
 11
4.8786876366
 21
4.3966689856
 31
0.0
 11
4.883914239
 21
4.3968210662
 31
0.0
 11
4.8891403012
 21
4.3970809531
 31
0.0
  0
SPLINE
  5
49C
100
AcDbEntity
  8
0
100
AcDbSpline
 62
7
  6
CONTINUOUS
 70
0
 71
3
 72
8
 73
4
 74
2
 42
0.0000001
 43
0.0000001
 44
0.0000000001
 12
0.0007995012
 22
0.0014474565
 32
0.0
 13
0.0007867526
 23
0.0014544851
 33
0.0
 40
0.0
 40
0.0
 40
0.0
 40
0.0
 40
1.0
 40
1.0
 40
1.0
 40
1.0
 10
5.08025169
 20
4.510530873
 30
0.0
 10
5.0805181904
 20
4.5110133585
 30
0.0
 10
5.0807825752
 20
4.511497021
 30
0.0
 10
5.0810448261
 20
4.5119818494
 30
0.0
 11
5.08025169
 21
4.510530873
 31
0.0
 11
5.0810448261
 21
4.5119818494
 31
0.0
  0
SPLINE
  5
49D
100
AcDbEntity
  8
0
100
AcDbSpline
 62
7
  6
CONTINUOUS
 70
0
 71
3
 72
8
 73
4
 74
2
 42
0.0000001
 43
0.0000001
 44
0.0000000001
 12
0.0207263446
 22
0.0383172006
 32
0.0
 13
0.010929241
 23
0.0422183664
 33
0.0
 40
0.0
 40
0.0
 40
0.0
 40
0.0
 40
1.0
 40
1.0
 40
1.0
 40
1.0
 10
5.0810448261
 20
4.5119818494
 30
0.0
 10
5.0879536077
 20
4.5247542496
 30
0.0
 10
5.0933813897
 20
4.5383357682
 30
0.0
 10
5.0970244701
 20
4.552408557
 30
0.0
 11
5.0810448261
 21
4.5119818494
 31
0.0
 11
5.0970244701
 21
4.552408557
 31
0.0
  0
SPLINE
  5
49E
100
AcDbEntity
  8
0
100
AcDbSpline
 62
7
  6
CONTINUOUS
 70
0
 71
3
 72
8
 73
4
 74
2
 42
0.0000001
 43
0.0000001
 44
0.0000000001
 12
0.0036177784
 22
0.0139750504
 32
0.0
 13
0.0024264717
 23
0.014236166
 33
0.0
 40
0.0
 40
0.0
 40
0.0
 40
0.0
 40
1.0
 40
1.0
 40
1.0
 40
1.0
 10
5.0970244701
 20
4.552408557
 30
0.0
 10
5.0982303962
 20
4.5570669071
 30
0.0
 10
5.0992407671
 20
4.5617790872
 30
0.0
 10
5.100049591
 20
4.5665244759
 30
0.0
 11
5.0970244701
 21
4.552408557
 31
0.0
 11
5.100049591
 21
4.5665244759
 31
0.0
  0
SPLINE
  5
49F
100
AcDbEntity
  8
0
100
AcDbSpline
 62
7
  6
CONTINUOUS
 70
0
 71
3
 72
8
 73
4
 74
2
 42
0.0000001
 43
0.0000001
 44
0.0000000001
 12
-0.0104351668
 22
-0.0001958582
 32
0.0
 13
-0.0104398737
 23
-0.0000606732
 33
0.0
 40
0.0
 40
0.0
 40
0.0
 40
0.0
 40
1.0
 40
1.0
 40
1.0
 40
1.0
 10
4.8891403012
 20
4.9283184783
 30
0.0
 10
4.8856619123
 20
4.9282531922
 30
0.0
 10
4.8821824349
 20
4.9282104901
 30
0.0
 10
4.878702477
 20
4.9281902657
 30
0.0
 11
4.8891403012
 21
4.9283184783
 31
0.0
 11
4.878702477
 21
4.9281902657
 31
0.0
  0
SPLINE
  5
4A0
100
AcDbEntity
  8
0
100
AcDbSpline
 62
7
  6
CONTINUOUS
 70
0
 71
3
 72
14
 73
10
 74
8
 42
0.0000001
 43
0.0000001
 44
0.0000000001
 12
-0.2459408554
 22
-0.0014293287
 32
0.0
 13
0.000000012
 23
0.0000000432
 33
0.0
 40
0.0
 40
0.0
 40
0.0
 40
0.0
 40
0.1747849579
 40
0.385740812
 40
0.5799479661
 40
0.7455156869
 40
0.8729412878
 40
0.9578882444
 40
1.0
 40
1.0
 40
1.0
 40
1.0
 10
4.878702477
 20
4.9281902657
 30
0.0
 10
4.8643735563
 20
4.9281069907
 30
0.0
 10
4.8327324368
 20
4.9287642586
 30
0.0
 10
4.7854122905
 20
4.9324887811
 30
0.0
 10
4.7387382126
 20
4.939015226
 30
0.0
 10
4.7004262309
 20
4.9462062677
 30
0.0
 10
4.6678818702
 20
4.953789172
 30
0.0
 10
4.6525078768
 20
4.9576385381
 30
0.0
 10
4.6359710876
 20
4.962187865
 30
0.0
 10
4.6359710878
 20
4.9621878656
 30
0.0
 11
4.878702477
 21
4.9281902657
 31
0.0
 11
4.8357337244
 21
4.9290763016
 31
0.0
 11
4.7840253007
 21
4.9331469713
 31
0.0
 11
4.736725534
 21
4.9396912623
 31
0.0
 11
4.6967276884
 21
4.9472654736
 31
0.0
 11
4.6661887828
 21
4.9542639398
 31
0.0
 11
4.6459594804
 21
4.9594608694
 31
0.0
 11
4.6359710878
 21
4.9621878656
 31
0.0
  0
SPLINE
  5
4A1
100
AcDbEntity
  8
0
100
AcDbSpline
 62
7
  6
CONTINUOUS
 70
0
 71
3
 72
8
 73
4
 74
2
 42
0.0000001
 43
0.0000001
 44
0.0000000001
 12
-0.0024283454
 22
0.0142478995
 32
0.0
 13
-0.0036215913
 23
0.0139863263
 33
0.0
 40
0.0
 40
0.0
 40
0.0
 40
0.0
 40
1.0
 40
1.0
 40
1.0
 40
1.0
 10
5.1000498324
 20
3.9235419282
 30
0.0
 10
5.0992403839
 20
3.928291228
 30
0.0
 10
5.0982290573
 20
3.9330072685
 30
0.0
 10
5.0970218602
 20
3.9376693773
 30
0.0
 11
5.1000498324
 21
3.9235419282
 31
0.0
 11
5.0970218602
 21
3.9376693773
 31
0.0
  0
SPLINE
  5
4A2
100
AcDbEntity
  8
0
100
AcDbSpline
 62
7
  6
CONTINUOUS
 70
0
 71
3
 72
8
 73
4
 74
2
 42
0.0000001
 43
0.0000001
 44
0.0000000001
 12
-0.0109325295
 22
0.0422206462
 32
0.0
 13
-0.0207304883
 23
0.0383183379
 33
0.0
 40
0.0
 40
0.0
 40
0.0
 40
0.0
 40
1.0
 40
1.0
 40
1.0
 40
1.0
 10
5.0970218602
 20
3.9376693773
 30
0.0
 10
5.0933776837
 20
3.951742926
 30
0.0
 10
5.0879486172
 20
3.9653250161
 30
0.0
 10
5.0810384544
 20
3.9780977954
 30
0.0
 11
5.0970218602
 21
3.9376693773
 31
0.0
 11
5.0810384544
 21
3.9780977954
 31
0.0
  0
SPLINE
  5
4A3
100
AcDbEntity
  8
0
100
AcDbSpline
 62
7
  6
CONTINUOUS
 70
0
 71
3
 72
8
 73
4
 74
2
 42
0.0000001
 43
0.0000001
 44
0.0000000001
 12
-0.0007804393
 22
0.0014425679
 32
0.0
 13
-0.0007929803
 23
0.0014356531
 33
0.0
 40
0.0
 40
0.0
 40
0.0
 40
0.0
 40
1.0
 40
1.0
 40
1.0
 40
1.0
 10
5.0810384544
 20
3.9780977954
 30
0.0
 10
5.080778308
 20
3.9785786513
 30
0.0
 10
5.0805160624
 20
3.9790583603
 30
0.0
 10
5.0802517356
 20
3.9795369113
 30
0.0
 11
5.0810384544
 21
3.9780977954
 31
0.0
 11
5.0802517356
 21
3.9795369113
 31
0.0
  0
SPLINE
  5
4A4
100
AcDbEntity
  8
0
100
AcDbSpline
 62
7
  6
CONTINUOUS
 70
0
 71
3
 72
8
 73
4
 74
2
 42
0.0000001
 43
0.0000001
 44
0.0000000001
 12
0.0006045301
 22
0.0002975956
 32
0.0
 13
0.0
 23
0.0
 33
0.0
 40
0.0
 40
0.0
 40
0.0
 40
0.0
 40
1.0
 40
1.0
 40
1.0
 40
1.0
 10
5.1016815623
 20
4.964094839
 30
0.0
 10
5.1018830723
 20
4.9641940375
 30
0.0
 10
5.1020043525
 20
4.964254016
 30
0.0
 10
5.1020043525
 20
4.964254016
 30
0.0
 11
5.1016815623
 21
4.964094839
 31
0.0
 11
5.1020043525
 21
4.964254016
 31
0.0
  0
SPLINE
  5
4A5
100
AcDbEntity
  8
0
100
AcDbSpline
 62
7
  6
CONTINUOUS
 70
0
 71
3
 72
8
 73
4
 74
2
 42
0.0000001
 43
0.0000001
 44
0.0000000001
 12
0.0027746685
 22
0.0012810174
 32
0.0
 13
0.0020631504
 23
0.0010156393
 33
0.0
 40
0.0
 40
0.0
 40
0.0
 40
0.0
 40
1.0
 40
1.0
 40
1.0
 40
1.0
 10
5.0984467761
 20
4.9625339326
 30
0.0
 10
5.0993716656
 20
4.9629609384
 30
0.0
 10
5.1009938455
 20
4.9637562925
 30
0.0
 10
5.1016815623
 20
4.964094839
 30
0.0
 11
5.0984467761
 21
4.9625339326
 31
0.0
 11
5.1016815623
 21
4.964094839
 31
0.0
  0
SPLINE
  5
4A6
100
AcDbEntity
  8
0
100
AcDbSpline
 62
7
  6
CONTINUOUS
 70
0
 71
3
 72
10
 73
6
 74
4
 42
0.0000001
 43
0.0000001
 44
0.0000000001
 12
0.0206541723
 22
0.0825652041
 32
0.0
 13
0.0625467915
 23
0.0576177856
 33
0.0
 40
0.0
 40
0.0
 40
0.0
 40
0.0
 40
0.3304578001
 40
0.7096640063
 40
1.0
 40
1.0
 40
1.0
 40
1.0
 10
5.8189419989
 20
4.548178672
 30
0.0
 10
5.8212171097
 20
4.5572734439
 30
0.0
 10
5.8279865555
 20
4.5763304024
 30
0.0
 10
5.8430729314
 20
4.6005688129
 30
0.0
 10
5.8560569838
 20
4.6144921476
 30
0.0
 10
5.8621101788
 20
4.6200683199
 30
0.0
 11
5.8189419989
 21
4.548178672
 31
0.0
 11
5.82837518
 21
4.5746189309
 31
0.0
 11
5.8453384713
 21
4.6019834111
 31
0.0
 11
5.8621101788
 21
4.6200683199
 31
0.0
  0
SPLINE
  5
4A7
100
AcDbEntity
  8
0
100
AcDbSpline
 62
7
  6
CONTINUOUS
 70
0
 71
3
 72
9
 73
5
 74
3
 42
0.0000001
 43
0.0000001
 44
0.0000000001
 12
0.0223245329
 22
0.0205652459
 32
0.0
 13
0.0255413593
 23
0.0163894636
 33
0.0
 40
0.0
 40
0.0
 40
0.0
 40
0.0
 40
0.2039873914
 40
1.0
 40
1.0
 40
1.0
 40
1.0
 10
5.8621101788
 20
4.6200683199
 30
0.0
 10
5.8636281532
 20
4.6214666702
 30
0.0
 10
5.8712000309
 20
4.6281794918
 30
0.0
 10
5.8793658031
 20
4.6341843153
 30
0.0
 10
5.8861428845
 20
4.6385330552
 30
0.0
 11
5.8621101788
 21
4.6200683199
 31
0.0
 11
5.8667420008
 21
4.6241758717
 31
0.0
 11
5.8861428845
 21
4.6385330552
 31
0.0
  0
SPLINE
  5
4A8
100
AcDbEntity
  8
0
100
AcDbSpline
 62
7
  6
CONTINUOUS
 70
0
 71
3
 72
10
 73
6
 74
4
 42
0.0000001
 43
0.0000001
 44
0.0000000001
 12
0.0476006995
 22
0.0305445736
 32
0.0
 13
0.0537449752
 23
0.017525765
 33
0.0
 40
0.0
 40
0.0
 40
0.0
 40
0.0
 40
0.1471261603
 40
0.8319911622
 40
1.0
 40
1.0
 40
1.0
 40
1.0
 10
5.8861428845
 20
4.6385330552
 30
0.0
 10
5.8884773205
 20
4.6400310238
 30
0.0
 10
5.9018643174
 20
4.6482126537
 30
0.0
 10
5.9190620333
 20
4.6561074432
 30
0.0
 10
5.9342509297
 20
4.6613699333
 30
0.0
 10
5.9372608066
 20
4.6623514278
 30
0.0
 11
5.8861428845
 21
4.6385330552
 31
0.0
 11
5.8932407436
 21
4.642874193
 31
0.0
 11
5.9282869986
 21
4.6592395283
 31
0.0
 11
5.9372608066
 21
4.6623514278
 31
0.0
  0
SPLINE
  5
4A9
100
AcDbEntity
  8
0
100
AcDbSpline
 62
7
  6
CONTINUOUS
 70
0
 71
3
 72
8
 73
4
 74
2
 42
0.0000001
 43
0.0000001
 44
0.0000000001
 12
0.0237520148
 22
0.0077453237
 32
0.0
 13
0.0243575754
 23
0.0055587785
 33
0.0
 40
0.0
 40
0.0
 40
0.0
 40
0.0
 40
1.0
 40
1.0
 40
1.0
 40
1.0
 10
5.9372608066
 20
4.6623514278
 30
0.0
 10
5.9451781449
 20
4.6649332024
 30
0.0
 10
5.9532186084
 20
4.6671332334
 30
0.0
 10
5.9613378002
 20
4.6689861596
 30
0.0
 11
5.9372608066
 21
4.6623514278
 31
0.0
 11
5.9613378002
 21
4.6689861596
 31
0.0
  0
SPLINE
  5
4AA
100
AcDbEntity
  8
0
100
AcDbSpline
 62
7
  6
CONTINUOUS
 70
0
 71
3
 72
10
 73
6
 74
4
 42
0.0000001
 43
0.0000001
 44
0.0000000001
 12
0.057203062
 22
0.0130546307
 32
0.0
 13
0.0586062775
 23
0.0024139197
 33
0.0
 40
0.0
 40
0.0
 40
0.0
 40
0.0
 40
0.1239202335
 40
0.8594538178
 40
1.0
 40
1.0
 40
1.0
 40
1.0
 10
5.9613378002
 20
4.6689861596
 30
0.0
 10
5.9637006725
 20
4.6695254039
 30
0.0
 10
5.9801347143
 20
4.6730614646
 30
0.0
 10
5.9995681482
 20
4.6755782274
 30
0.0
 10
6.0166745355
 20
4.6764904717
 30
0.0
 10
6.019420165
 20
4.6766035607
 30
0.0
 11
5.9613378002
 21
4.6689861596
 31
0.0
 11
5.9684453263
 21
4.6705165527
 31
0.0
 11
6.0111879972
 21
4.6761645077
 31
0.0
 11
6.019420165
 21
4.6766035607
 31
0.0
  0
SPLINE
  5
4AB
100
AcDbEntity
  8
0
100
AcDbSpline
 62
7
  6
CONTINUOUS
 70
0
 71
3
 72
15
 73
11
 74
9
 42
0.0000001
 43
0.0000001
 44
0.0000000001
 12
0.2832080594
 22
0.0116649878
 32
0.0
 13
0.0689579833
 23
-0.2754528081
 33
0.0
 40
0.0
 40
0.0
 40
0.0
 40
0.0
 40
0.1236902113
 40
0.2759922668
 40
0.4235480626
 40
0.5608462966
 40
0.6762689175
 40
0.7855872465
 40
0.899736086
 40
1.0
 40
1.0
 40
1.0
 40
1.0
 10
6.019420165
 20
4.6766035607
 30
0.0
 10
6.0310968532
 20
4.677084509
 30
0.0
 10
6.05720438
 20
4.6768154361
 30
0.0
 10
6.0969979295
 20
4.6718118506
 30
0.0
 10
6.1369859144
 20
4.6609794871
 30
0.0
 10
6.1715831036
 20
4.6452879948
 30
0.0
 10
6.1998533872
 20
4.6257454955
 30
0.0
 10
6.2223947845
 20
4.6027408667
 30
0.0
 10
6.2387714205
 20
4.5766117357
 30
0.0
 10
6.2456225097
 20
4.5574091355
 30
0.0
 10
6.2479271755
 20
4.5482031433
 30
0.0
 11
6.019420165
 21
4.6766035607
 31
0.0
 11
6.0544622345
 21
4.6762425086
 31
0.0
 11
6.0972520227
 21
4.6707528038
 31
0.0
 11
6.1375389877
 21
4.6596229385
 31
0.0
 11
6.1728512727
 21
4.6433281724
 31
0.0
 11
6.1996441431
 21
4.6245918167
 31
0.0
 11
6.2212216752
 21
4.6023826482
 31
0.0
 11
6.2383414016
 21
4.5749534385
 31
0.0
 11
6.2479271755
 21
4.5482031433
 31
0.0
  0
SPLINE
  5
4AC
100
AcDbEntity
  8
0
100
AcDbSpline
 62
7
  6
CONTINUOUS
 70
0
 71
3
 72
22
 73
18
 74
16
 42
0.0000001
 43
0.0000001
 44
0.0000000001
 12
-0.1308565823
 22
-0.5237729344
 32
0.0
 13
-0.130947413
 23
0.5237674186
 33
0.0
 40
0.0
 40
0.0
 40
0.0
 40
0.0
 40
0.0505359935
 40
0.1093207696
 40
0.1656720416
 40
0.22558571
 40
0.2977634379
 40
0.3762971724
 40
0.4578312819
 40
0.5398042329
 40
0.6214004743
 40
0.7001216246
 40
0.7727404702
 40
0.8331736131
 40
0.8897853878
 40
0.9488243479
 40
1.0
 40
1.0
 40
1.0
 40
1.0
 10
7.6889434846
 20
3.9419301382
 30
0.0
 10
7.6867391622
 20
3.9331070096
 30
0.0
 10
7.680186369
 20
3.9144697692
 30
0.0
 10
7.6645446377
 20
3.8888731079
 30
0.0
 10
7.6427403349
 20
3.8659606469
 30
0.0
 10
7.6150603029
 20
3.8461906822
 30
0.0
 10
7.5806501736
 20
3.8300267056
 30
0.0
 10
7.5403551604
 20
3.8186895673
 30
0.0
 10
7.4971441856
 20
3.8129788446
 30
0.0
 10
7.4530212957
 20
3.8128963088
 30
0.0
 10
7.4097443619
 20
3.8184429332
 30
0.0
 10
7.3692810618
 20
3.829635253
 30
0.0
 10
7.33460615
 20
3.8457215342
 30
0.0
 10
7.3066569452
 20
3.8654963905
 30
0.0
 10
7.2846363666
 20
3.8884618883
 30
0.0
 10
7.2688043522
 20
3.914189289
 30
0.0
 10
7.2621712384
 20
3.932972622
 30
0.0
 10
7.2599374653
 20
3.9419073351
 30
0.0
 11
7.6889434846
 21
3.9419301382
 31
0.0
 11
7.6798754748
 21
3.9162493583
 31
0.0
 11
7.6634100665
 21
3.8892057733
 31
0.0
 11
7.6425742473
 21
3.8671364747
 31
0.0
 11
7.6164138145
 21
3.8482428531
 31
0.0
 11
7.5813383901
 21
3.8314798524
 31
0.0
 11
7.5406820786
 21
3.8198078275
 31
0.0
 11
7.4971619562
 21
3.813934786
 31
0.0
 11
7.4530110569
 21
3.813850458
 31
0.0
 11
7.4094345796
 21
3.8195534904
 31
0.0
 11
7.3686294295
 21
3.8310713567
 31
0.0
 11
7.3332599018
 21
3.8477689346
 31
0.0
 11
7.306789792
 21
3.8667111188
 31
0.0
 11
7.2857755869
 21
3.8888046732
 31
0.0
 11
7.2691560765
 21
3.9159145432
 31
0.0
 11
7.2599374653
 21
3.9419073351
 31
0.0
  0
SPLINE
  5
4AD
100
AcDbEntity
  8
0
100
AcDbSpline
 62
7
  6
CONTINUOUS
 70
0
 71
3
 72
22
 73
18
 74
16
 42
0.0000001
 43
0.0000001
 44
0.0000000001
 12
0.131003441
 22
0.5236872085
 32
0.0
 13
0.1311002459
 23
-0.5236802056
 33
0.0
 40
0.0
 40
0.0
 40
0.0
 40
0.0
 40
0.0521004051
 40
0.1118865471
 40
0.1691403412
 40
0.2293644517
 40
0.3011896343
 40
0.3786463532
 40
0.4587075507
 40
0.5390660379
 40
0.6191760524
 40
0.6967895613
 40
0.7690076511
 40
0.8297192928
 40
0.8872201118
 40
0.9472617518
 40
1.0
 40
1.0
 40
1.0
 40
1.0
 10
7.2599419989
 20
4.548178672
 30
0.0
 10
7.2622171097
 20
4.5572734439
 30
0.0
 10
7.2689865555
 20
4.5763304024
 30
0.0
 10
7.2851713442
 20
4.6023335694
 30
0.0
 10
7.3075014029
 20
4.6252934832
 30
0.0
 10
7.3355188169
 20
4.6448406256
 30
0.0
 10
7.3698742554
 20
4.6606118453
 30
0.0
 10
7.4097139643
 20
4.6715823993
 30
0.0
 10
7.452183874
 20
4.6770825435
 30
0.0
 10
7.4954718335
 20
4.6771590227
 30
0.0
 10
7.5379979295
 20
4.6718118506
 30
0.0
 10
7.5779859144
 20
4.6609794871
 30
0.0
 10
7.6125831036
 20
4.6452879948
 30
0.0
 10
7.6408533872
 20
4.6257454955
 30
0.0
 10
7.6633947845
 20
4.6027408667
 30
0.0
 10
7.6797714205
 20
4.5766117357
 30
0.0
 10
7.6866225097
 20
4.5574091355
 30
0.0
 10
7.6889271755
 20
4.5482031433
 30
0.0
 11
7.2599419989
 21
4.548178672
 31
0.0
 11
7.26937518
 21
4.5746189309
 31
0.0
 11
7.2863384713
 21
4.6019834111
 31
0.0
 11
7.3077420008
 21
4.6241758717
 31
0.0
 11
7.3342407436
 21
4.642874193
 31
0.0
 11
7.3692869986
 21
4.6592395283
 31
0.0
 11
7.4094453263
 21
4.6705165527
 31
0.0
 11
7.4521879972
 21
4.6761645077
 31
0.0
 11
7.4954622345
 21
4.6762425086
 31
0.0
 11
7.5382520227
 21
4.6707528038
 31
0.0
 11
7.5785389877
 21
4.6596229385
 31
0.0
 11
7.6138512727
 21
4.6433281724
 31
0.0
 11
7.6406441431
 21
4.6245918167
 31
0.0
 11
7.6622216752
 21
4.6023826482
 31
0.0
 11
7.6793414016
 21
4.5749534385
 31
0.0
 11
7.6889271755
 21
4.5482031433
 31
0.0
  0
SPLINE
  5
4AE
100
AcDbEntity
  8
0
100
AcDbSpline
 62
7
  6
CONTINUOUS
 70
0
 71
3
 72
21
 73
17
 74
15
 42
0.0000001
 43
0.0000001
 44
0.0000000001
 12
-0.4668872807
 22
-0.1305306958
 32
0.0
 13
-0.466887281
 23
0.1305306958
 33
0.0
 40
0.0
 40
0.0
 40
0.0
 40
0.0
 40
0.0113212588
 40
0.0455742126
 40
0.1029604147
 40
0.1821305076
 40
0.2788827812
 40
0.3869002392
 40
0.5000051624
 40
0.6131104875
 40
0.7211278469
 40
0.8178785776
 40
0.8970465708
 40
0.9544311294
 40
0.9886806931
 40
1.0
 40
1.0
 40
1.0
 40
1.0
 10
7.713644896
 20
4.9625339326
 30
0.0
 10
7.7118829787
 20
4.962041342
 30
0.0
 10
7.7047851951
 20
4.9600765959
 30
0.0
 10
7.6887039271
 20
4.9558054742
 30
0.0
 10
7.6618756006
 20
4.9492999462
 30
0.0
 10
7.6249439804
 20
4.9416659296
 30
0.0
 10
7.5796039048
 20
4.9344835777
 30
0.0
 10
7.5284555917
 20
4.9293896346
 30
0.0
 10
7.4744350666
 20
4.927554819
 30
0.0
 10
7.4204145688
 20
4.9293899745
 30
0.0
 10
7.3692664871
 20
4.9344842146
 30
0.0
 10
7.3239270487
 20
4.9416667167
 30
0.0
 10
7.2869962975
 20
4.9493007125
 30
0.0
 10
7.2601691109
 20
4.955806049
 30
0.0
 10
7.2440889414
 20
4.960076908
 30
0.0
 10
7.2369919906
 20
4.9620414269
 30
0.0
 10
7.2352303771
 20
4.9625339326
 30
0.0
 11
7.713644896
 21
4.9625339326
 31
0.0
 11
7.7083553465
 21
4.9610697802
 31
0.0
 11
7.692305852
 21
4.9568086015
 31
0.0
 11
7.6652674669
 21
4.9502590201
 31
0.0
 11
7.6276777442
 21
4.9425057872
 31
0.0
 11
7.5813467426
 21
4.9351923251
 31
0.0
 11
7.5292361711
 21
4.9300270676
 31
0.0
 11
7.4744351335
 21
4.9281757917
 31
0.0
 11
7.4196339128
 21
4.9300274177
 31
0.0
 11
7.3675234207
 21
4.935192992
 31
0.0
 11
7.3211931975
 21
4.9425065879
 31
0.0
 11
7.2836045039
 21
4.950259771
 31
0.0
 11
7.2565669128
 21
4.956809246
 31
0.0
 11
7.240519014
 21
4.9610700303
 31
0.0
 11
7.2352303771
 21
4.9625339326
 31
0.0
  0
SPLINE
  5
4AF
100
AcDbEntity
  8
0
100
AcDbSpline
 62
7
  6
CONTINUOUS
 70
0
 71
3
 72
21
 73
17
 74
15
 42
0.0000001
 43
0.0000001
 44
0.0000000001
 12
0.4668872807
 22
0.1305306958
 32
0.0
 13
0.466887281
 23
-0.1305306958
 33
0.0
 40
0.0
 40
0.0
 40
0.0
 40
0.0
 40
0.0113212588
 40
0.0455742126
 40
0.1029604147
 40
0.1821305076
 40
0.2788827812
 40
0.3869002392
 40
0.5000051624
 40
0.6131104875
 40
0.7211278469
 40
0.8178785776
 40
0.8970465708
 40
0.9544311294
 40
0.9886806931
 40
1.0
 40
1.0
 40
1.0
 40
1.0
 10
7.2352303771
 20
3.5275339326
 30
0.0
 10
7.2369922944
 20
3.5280265232
 30
0.0
 10
7.244090078
 20
3.5299912693
 30
0.0
 10
7.260171346
 20
3.534262391
 30
0.0
 10
7.2869996726
 20
3.540767919
 30
0.0
 10
7.3239312927
 20
3.5484019356
 30
0.0
 10
7.3692713683
 20
3.5555842875
 30
0.0
 10
7.4204196814
 20
3.5606782306
 30
0.0
 10
7.4744402065
 20
3.5625130462
 30
0.0
 10
7.5284607043
 20
3.5606778907
 30
0.0
 10
7.579608786
 20
3.5555836506
 30
0.0
 10
7.6249482244
 20
3.5484011485
 30
0.0
 10
7.6618789756
 20
3.5407671527
 30
0.0
 10
7.6887061622
 20
3.5342618162
 30
0.0
 10
7.7047863317
 20
3.5299909572
 30
0.0
 10
7.7118832825
 20
3.5280264383
 30
0.0
 10
7.713644896
 20
3.5275339326
 30
0.0
 11
7.2352303771
 21
3.5275339326
 31
0.0
 11
7.2405199266
 21
3.528998085
 31
0.0
 11
7.2565694211
 21
3.5332592637
 31
0.0
 11
7.2836078062
 21
3.5398088451
 31
0.0
 11
7.3211975289
 21
3.547562078
 31
0.0
 11
7.3675285305
 21
3.5548755401
 31
0.0
 11
7.419639102
 21
3.5600407976
 31
0.0
 11
7.4744401396
 21
3.5618920735
 31
0.0
 11
7.5292413603
 21
3.5600404475
 31
0.0
 11
7.5813518524
 21
3.5548748732
 31
0.0
 11
7.6276820756
 21
3.5475612773
 31
0.0
 11
7.6652707692
 21
3.5398080942
 31
0.0
 11
7.6923083604
 21
3.5332586192
 31
0.0
 11
7.7083562591
 21
3.5289978349
 31
0.0
 11
7.713644896
 21
3.5275339326
 31
0.0
  0
SPLINE
  5
4B0
100
AcDbEntity
  8
0
100
AcDbSpline
 62
7
  6
CONTINUOUS
 70
0
 71
3
 72
23
 73
19
 74
17
 42
0.0000001
 43
0.0000001
 44
0.0000000001
 12
-0.425545384
 22
-0.1298877742
 32
0.0
 13
-0.4255453881
 23
0.129887775
 33
0.0
 40
0.0
 40
0.0
 40
0.0
 40
0.0
 40
0.0099376254
 40
0.0392400306
 40
0.086263938
 40
0.1488324019
 40
0.2244232294
 40
0.310245719
 40
0.4032960442
 40
0.500077643
 40
0.5969042253
 40
0.6900391234
 40
0.7759207357
 40
0.8514885677
 40
0.9139646217
 40
0.9608713994
 40
0.9900903456
 40
1.0
 40
1.0
 40
1.0
 40
1.0
 10
6.3524376366
 20
4.9625339326
 30
0.0
 10
6.3510279997
 20
4.9621036739
 30
0.0
 10
6.3454576934
 20
4.9604183444
 30
0.0
 10
6.3331761994
 20
4.9568328075
 30
0.0
 10
6.3132914805
 20
4.9514461456
 30
0.0
 10
6.2865787288
 20
4.9450419733
 30
0.0
 10
6.2539887424
 20
4.9385561813
 30
0.0
 10
6.216647785
 20
4.9329699784
 30
0.0
 10
6.175917566
 20
4.9291820899
 30
0.0
 10
6.1333964052
 20
4.9278409498
 30
0.0
 10
6.0908628279
 20
4.9291874114
 30
0.0
 10
6.0501052764
 20
4.9329842036
 30
0.0
 10
6.0127476642
 20
4.9385802419
 30
0.0
 10
5.9801671269
 20
4.9450706673
 30
0.0
 10
5.9534888964
 20
4.9514707952
 30
0.0
 10
5.933646609
 20
4.9568478403
 30
0.0
 10
5.9213977823
 20
4.9604243031
 30
0.0
 10
5.9158433058
 20
4.9621048849
 30
0.0
 10
5.9144376366
 20
4.9625339326
 30
0.0
 11
6.3524376366
 21
4.9625339326
 31
0.0
 11
6.3482055666
 21
4.9612535314
 31
0.0
 11
6.3356903113
 21
4.9576006975
 31
0.0
 11
6.3154949776
 21
4.9521337314
 31
0.0
 11
6.2884217215
 21
4.9456517432
 31
0.0
 11
6.2554335496
 21
4.939100394
 31
0.0
 11
6.2176666511
 21
4.9334667738
 31
0.0
 11
6.1764426398
 21
4.9296467285
 31
0.0
 11
6.1334030995
 21
4.9282946816
 31
0.0
 11
6.0903437109
 21
4.92965232
 31
0.0
 11
6.0490828192
 21
4.933482177
 31
0.0
 11
6.0112909821
 21
4.9391269056
 31
0.0
 11
5.9783141056
 21
4.9456826034
 31
0.0
 11
5.9512818114
 21
4.9521590945
 31
0.0
 11
5.931137267
 21
4.9576142365
 31
0.0
 11
5.9186577858
 21
4.9612571061
 31
0.0
 11
5.9144376366
 21
4.9625339326
 31
0.0
  0
SPLINE
  5
4B1
100
AcDbEntity
  8
0
100
AcDbSpline
 62
7
  6
CONTINUOUS
 70
0
 71
3
 72
21
 73
17
 74
15
 42
0.0000001
 43
0.0000001
 44
0.0000000001
 12
0.4668872807
 22
0.1305306958
 32
0.0
 13
0.466887281
 23
-0.1305306958
 33
0.0
 40
0.0
 40
0.0
 40
0.0
 40
0.0
 40
0.0113212588
 40
0.0455742126
 40
0.1029604147
 40
0.1821305076
 40
0.2788827812
 40
0.3869002392
 40
0.5000051624
 40
0.6131104875
 40
0.7211278469
 40
0.8178785776
 40
0.8970465708
 40
0.9544311294
 40
0.9886806931
 40
1.0
 40
1.0
 40
1.0
 40
1.0
 10
5.7942303771
 20
3.5275339326
 30
0.0
 10
5.7959922944
 20
3.5280265232
 30
0.0
 10
5.803090078
 20
3.5299912693
 30
0.0
 10
5.819171346
 20
3.534262391
 30
0.0
 10
5.8459996726
 20
3.540767919
 30
0.0
 10
5.8829312927
 20
3.5484019356
 30
0.0
 10
5.9282713683
 20
3.5555842875
 30
0.0
 10
5.9794196814
 20
3.5606782306
 30
0.0
 10
6.0334402065
 20
3.5625130462
 30
0.0
 10
6.0874607043
 20
3.5606778907
 30
0.0
 10
6.138608786
 20
3.5555836506
 30
0.0
 10
6.1839482244
 20
3.5484011485
 30
0.0
 10
6.2208789756
 20
3.5407671527
 30
0.0
 10
6.2477061622
 20
3.5342618162
 30
0.0
 10
6.2637863317
 20
3.5299909572
 30
0.0
 10
6.2708832825
 20
3.5280264383
 30
0.0
 10
6.272644896
 20
3.5275339326
 30
0.0
 11
5.7942303771
 21
3.5275339326
 31
0.0
 11
5.7995199266
 21
3.528998085
 31
0.0
 11
5.8155694211
 21
3.5332592637
 31
0.0
 11
5.8426078062
 21
3.5398088451
 31
0.0
 11
5.8801975289
 21
3.547562078
 31
0.0
 11
5.9265285305
 21
3.5548755401
 31
0.0
 11
5.978639102
 21
3.5600407976
 31
0.0
 11
6.0334401396
 21
3.5618920735
 31
0.0
 11
6.0882413603
 21
3.5600404475
 31
0.0
 11
6.1403518524
 21
3.5548748732
 31
0.0
 11
6.1866820756
 21
3.5475612773
 31
0.0
 11
6.2242707692
 21
3.5398080942
 31
0.0
 11
6.2513083604
 21
3.5332586192
 31
0.0
 11
6.2673562591
 21
3.5289978349
 31
0.0
 11
6.272644896
 21
3.5275339326
 31
0.0
  0
SPLINE
  5
4B2
100
AcDbEntity
  8
0
100
AcDbSpline
 62
7
  6
CONTINUOUS
 70
0
 71
3
 72
10
 73
6
 74
4
 42
0.0000001
 43
0.0000001
 44
0.0000000001
 12
-0.116812008
 22
0.0
 32
0.0
 13
-0.1080142154
 23
0.0448017892
 33
0.0
 40
0.0
 40
0.0
 40
0.0
 40
0.0
 40
0.3702748391
 40
0.7344495931
 40
1.0
 40
1.0
 40
1.0
 40
1.0
 10
6.1334376366
 20
3.8131773626
 30
0.0
 10
6.1190201207
 20
3.8131773626
 30
0.0
 10
6.0903876665
 20
3.8149713101
 30
0.0
 10
6.0520639409
 20
3.822512811
 30
0.0
 10
6.0287703272
 20
3.8304103347
 30
0.0
 10
6.0192092543
 20
3.8343760458
 30
0.0
 11
6.1334376366
 21
3.8131773626
 31
0.0
 11
6.0902732826
 21
3.8159380527
 31
0.0
 11
6.048565151
 21
3.8243095529
 31
0.0
 11
6.0192092543
 21
3.8343760458
 31
0.0
  0
SPLINE
  5
4B3
100
AcDbEntity
  8
0
100
AcDbSpline
 62
7
  6
CONTINUOUS
 70
0
 71
3
 72
10
 73
6
 74
4
 42
0.0000001
 43
0.0000001
 44
0.0000000001
 12
-0.06405279
 22
0.0265676104
 32
0.0
 13
-0.0505461713
 23
0.0475501927
 33
0.0
 40
0.0
 40
0.0
 40
0.0
 40
0.0
 40
0.1344731715
 40
0.6768673196
 40
1.0
 40
1.0
 40
1.0
 40
1.0
 10
6.0192092543
 20
3.8343760458
 30
0.0
 10
6.016338127
 20
3.8355669227
 30
0.0
 10
6.0020051522
 20
3.8418495723
 30
0.0
 10
5.9818267961
 20
3.8533527327
 30
0.0
 10
5.966286933
 20
3.8660582229
 30
0.0
 10
5.9608425598
 20
3.8711798966
 30
0.0
 11
6.0192092543
 21
3.8343760458
 31
0.0
 11
6.0106697036
 21
3.8381226109
 31
0.0
 11
5.9781584394
 21
3.8569545618
 31
0.0
 11
5.9608425598
 21
3.8711798966
 31
0.0
  0
SPLINE
  5
4B4
100
AcDbEntity
  8
0
100
AcDbSpline
 62
7
  6
CONTINUOUS
 70
0
 71
3
 72
9
 73
5
 74
3
 42
0.0000001
 43
0.0000001
 44
0.0000000001
 12
-0.0275685604
 22
0.0259345135
 32
0.0
 13
-0.0202522265
 23
0.0319989881
 33
0.0
 40
0.0
 40
0.0
 40
0.0
 40
0.0
 40
0.334845067
 40
1.0
 40
1.0
 40
1.0
 40
1.0
 10
5.9608425598
 20
3.8711798966
 30
0.0
 10
5.9577654943
 20
3.8740745779
 30
0.0
 10
5.9489167539
 20
3.8830802557
 30
0.0
 10
5.9412289002
 20
3.8931556253
 30
0.0
 10
5.9367386107
 20
3.9002503869
 30
0.0
 11
5.9608425598
 21
3.8711798966
 31
0.0
 11
5.9519697402
 21
3.8802255266
 31
0.0
 11
5.9367386107
 21
3.9002503869
 31
0.0
  0
SPLINE
  5
4B5
100
AcDbEntity
  8
0
100
AcDbSpline
 62
7
  6
CONTINUOUS
 70
0
 71
3
 72
9
 73
5
 74
3
 42
0.0000001
 43
0.0000001
 44
0.0000000001
 12
-0.0199357106
 22
0.0314988857
 32
0.0
 13
-0.011085527
 23
0.0356019948
 33
0.0
 40
0.0
 40
0.0
 40
0.0
 40
0.0
 40
0.2559760638
 40
1.0
 40
1.0
 40
1.0
 40
1.0
 10
5.9367386107
 20
3.9002503869
 30
0.0
 10
5.9350375891
 20
3.9029380405
 30
0.0
 10
5.9287418028
 20
3.913658039
 30
0.0
 10
5.9239022105
 20
3.9251724106
 30
0.0
 10
5.9211529114
 20
3.9340019893
 30
0.0
 11
5.9367386107
 21
3.9002503869
 31
0.0
 11
5.9319098632
 21
3.9084782168
 31
0.0
 11
5.9211529114
 21
3.9340019893
 31
0.0
  0
SPLINE
  5
4B6
100
AcDbEntity
  8
0
100
AcDbSpline
 62
7
  6
CONTINUOUS
 70
0
 71
3
 72
14
 73
10
 74
8
 42
0.0000001
 43
0.0000001
 44
0.0000000001
 12
0.0000590215
 22
-0.3111755859
 32
0.0
 13
0.3103484723
 23
0.0
 33
0.0
 40
0.0
 40
0.0
 40
0.0
 40
0.0
 40
0.1324741691
 40
0.2643150415
 40
0.4001995427
 40
0.5429176089
 40
0.6920897164
 40
0.8452408712
 40
1.0
 40
1.0
 40
1.0
 40
1.0
 10
5.9144376365
 20
3.8862839303
 30
0.0
 10
5.9144402428
 20
3.8725430213
 30
0.0
 10
5.917912142
 20
3.8450939601
 30
0.0
 10
5.9342747788
 20
3.8064803842
 30
0.0
 10
5.9612082756
 20
3.7729965894
 30
0.0
 10
5.9970578211
 20
3.7463497485
 30
0.0
 10
6.0393508457
 20
3.7273924027
 30
0.0
 10
6.0855165589
 20
3.7161963132
 30
0.0
 10
6.1174278835
 20
3.7137439951
 30
0.0
 10
6.1334376366
 20
3.7137439951
 30
0.0
 11
5.9144376365
 21
3.8862839303
 31
0.0
 11
5.9197629927
 21
3.8455171297
 31
0.0
 11
5.9357153188
 21
3.8078383222
 31
0.0
 11
5.9619650293
 21
3.7748323816
 31
0.0
 11
5.9973003711
 21
3.7481261192
 31
0.0
 11
6.0394120678
 21
3.728894294
 31
0.0
 11
6.0855550677
 21
3.7174949065
 31
0.0
 11
6.1334376366
 21
3.7137439951
 31
0.0
  0
SPLINE
  5
4B7
100
AcDbEntity
  8
0
100
AcDbSpline
 62
7
  6
CONTINUOUS
 70
0
 71
3
 72
13
 73
9
 74
7
 42
0.0000001
 43
0.0000001
 44
0.0000000001
 12
0.1255966213
 22
-0.0574496768
 32
0.0
 13
0.0743855895
 23
-0.1163690711
 33
0.0
 40
0.0
 40
0.0
 40
0.0
 40
0.0
 40
0.1827751489
 40
0.3527427367
 40
0.5162822103
 40
0.678623727
 40
0.8403847854
 40
1.0
 40
1.0
 40
1.0
 40
1.0
 10
4.9798002731
 20
4.0703354449
 30
0.0
 10
4.9874522535
 20
4.0668353205
 30
0.0
 10
5.0018968529
 20
4.0593450615
 30
0.0
 10
5.0218795691
 20
4.0464163758
 30
0.0
 10
5.0398527388
 20
4.0322914366
 30
0.0
 10
5.0561814749
 20
4.0168372732
 30
0.0
 10
5.0708615834
 20
4.0000486062
 30
0.0
 10
5.0794799459
 20
3.9879863113
 30
0.0
 10
5.0834376366
 20
3.9817948866
 30
0.0
 11
4.9798002731
 21
4.0703354449
 31
0.0
 11
5.0022087607
 21
4.058712504
 31
0.0
 11
5.0219154764
 21
4.0459570349
 31
0.0
 11
5.0396694661
 21
4.0319942579
 31
0.0
 11
5.0559458564
 21
4.016573632
 31
0.0
 11
5.0706391737
 21
3.9997440606
 31
0.0
 11
5.0834376366
 21
3.9817948866
 31
0.0
  0
SPLINE
  5
4B8
100
AcDbEntity
  8
0
100
AcDbSpline
 62
7
  6
CONTINUOUS
 70
0
 71
3
 72
9
 73
5
 74
3
 42
0.0000001
 43
0.0000001
 44
0.0000000001
 12
-0.0870332164
 22
-0.0308552671
 32
0.0
 13
-0.0923252236
 23
-0.0016974541
 33
0.0
 40
0.0
 40
0.0
 40
0.0
 40
0.0
 40
0.4978307932
 40
1.0
 40
1.0
 40
1.0
 40
1.0
 10
4.9798002731
 20
3.7297099513
 30
0.0
 10
4.965357668
 20
3.7245897173
 30
0.0
 10
4.935371311
 20
3.7169334486
 30
0.0
 10
4.904594596
 20
3.7140805438
 30
0.0
 10
4.8891403012
 20
3.7137964074
 30
0.0
 11
4.9798002731
 21
3.7297099513
 31
0.0
 11
4.9353055255
 21
3.7181571087
 31
0.0
 11
4.8891403012
 21
3.7137964074
 31
0.0
  0
SPLINE
  5
4B9
100
AcDbEntity
  8
0
100
AcDbSpline
 62
7
  6
CONTINUOUS
 70
0
 71
3
 72
11
 73
7
 74
5
 42
0.0000001
 43
0.0000001
 44
0.0000000001
 12
-0.076353799
 22
-0.1005213244
 32
0.0
 13
-0.1199390578
 23
-0.0393581211
 33
0.0
 40
0.0
 40
0.0
 40
0.0
 40
0.0
 40
0.2298438659
 40
0.4744329865
 40
0.7320266172
 40
1.0
 40
1.0
 40
1.0
 40
1.0
 10
5.0834376366
 20
3.7986105584
 30
0.0
 10
5.0775878191
 20
3.7909091551
 30
0.0
 10
5.0640048512
 20
3.7761140234
 30
0.0
 10
5.0395588563
 20
3.7571695944
 30
0.0
 10
5.0111538006
 20
3.7413491638
 30
0.0
 10
4.9905137648
 20
3.7332255943
 30
0.0
 10
4.9798002731
 20
3.7297099513
 30
0.0
 11
5.0834376366
 21
3.7986105584
 31
0.0
 11
5.0638964165
 21
3.7771646146
 31
0.0
 11
5.0395777134
 21
3.7581419966
 31
0.0
 11
5.0112349172
 21
3.7422043899
 31
0.0
 11
4.9798002731
 21
3.7297099513
 31
0.0
  0
SPLINE
  5
4BA
100
AcDbEntity
  8
0
100
AcDbSpline
 62
7
  6
CONTINUOUS
 70
0
 71
3
 72
21
 73
17
 74
15
 42
0.0000001
 43
0.0000001
 44
0.0000000001
 12
-0.6384865473
 22
-0.0204252962
 32
0.0
 13
0.6379253956
 23
0.0119853907
 33
0.0
 40
0.0
 40
0.0
 40
0.0
 40
0.0
 40
0.0577576607
 40
0.1347084967
 40
0.2099450409
 40
0.2829436159
 40
0.3536097117
 40
0.4223369419
 40
0.4899610101
 40
0.5575850783
 40
0.6263123085
 40
0.6969784043
 40
0.7699769793
 40
0.8452135235
 40
0.9221643595
 40
1.0
 40
1.0
 40
1.0
 40
1.0
 10
4.8658704762
 20
4.0933141642
 30
0.0
 10
4.8535779797
 20
4.0929209251
 30
0.0
 10
4.8249350679
 20
4.0899102728
 30
0.0
 10
4.7817140077
 20
4.0776032545
 30
0.0
 10
4.7389699583
 20
4.0552181111
 30
0.0
 10
4.7030430754
 20
4.0249995882
 30
0.0
 10
4.675818377
 20
3.9884111632
 30
0.0
 10
4.6588079822
 20
3.9472852919
 30
0.0
 10
4.6530181204
 20
3.9037839326
 30
0.0
 10
4.6588079822
 20
3.8602825733
 30
0.0
 10
4.675818377
 20
3.819156702
 30
0.0
 10
4.7030430754
 20
3.782568277
 30
0.0
 10
4.7389699583
 20
3.7523497541
 30
0.0
 10
4.7817140077
 20
3.7299646107
 30
0.0
 10
4.8290684905
 20
3.7164806174
 30
0.0
 10
4.862136526
 20
3.7138580221
 30
0.0
 10
4.8786876366
 20
3.7141689856
 30
0.0
 11
4.8658704762
 21
4.0933141642
 31
0.0
 11
4.8291835062
 21
4.0894410113
 31
0.0
 11
4.7819856447
 21
4.0759157815
 31
0.0
 11
4.7395262709
 21
4.0535201626
 31
0.0
 11
4.7039934272
 21
4.0234082373
 31
0.0
 11
4.6772182262
 21
3.9871317291
 31
0.0
 11
4.6605804959
 21
3.9465600697
 31
0.0
 11
4.6549376366
 21
3.9037839326
 31
0.0
 11
4.6605804959
 21
3.8610077955
 31
0.0
 11
4.6772182262
 21
3.8204361361
 31
0.0
 11
4.7039934272
 21
3.7841596279
 31
0.0
 11
4.7395262709
 21
3.7540477026
 31
0.0
 11
4.7819856447
 21
3.7316520837
 31
0.0
 11
4.8291835062
 21
3.7181268539
 31
0.0
 11
4.8786876366
 21
3.7141689856
 31
0.0
  0
SPLINE
  5
4BB
100
AcDbEntity
  8
0
100
AcDbSpline
 62
7
  6
CONTINUOUS
 70
0
 71
3
 72
9
 73
5
 74
3
 42
0.0000001
 43
0.0000001
 44
0.0000000001
 12
0.0104432916
 22
-0.0005885357
 32
0.0
 13
0.0104586962
 23
-0.0001561609
 33
0.0
 40
0.0
 40
0.0
 40
0.0
 40
0.0
 40
0.5002101211
 40
1.0
 40
1.0
 40
1.0
 40
1.0
 10
4.8786876366
 20
3.7141689856
 30
0.0
 10
4.8804289166
 20
3.7140708551
 30
0.0
 10
4.8839121321
 20
3.7139106061
 30
0.0
 10
4.8873979177
 20
3.7138224233
 30
0.0
 10
4.8891403012
 20
3.7137964074
 30
0.0
 11
4.8786876366
 21
3.7141689856
 31
0.0
 11
4.883914239
 21
3.7139285704
 31
0.0
 11
4.8891403012
 21
3.7137964074
 31
0.0
  0
SPLINE
  5
4BC
100
AcDbEntity
  8
0
100
AcDbSpline
 62
7
  6
CONTINUOUS
 70
0
 71
3
 72
22
 73
18
 74
16
 42
0.0000001
 43
0.0000001
 44
0.0000000001
 12
-0.6821015706
 22
-0.0282028383
 32
0.0
 13
0.6837270879
 23
0.0218443664
 33
0.0
 40
0.0
 40
0.0
 40
0.0
 40
0.0
 40
0.0782693233
 40
0.1552767686
 40
0.2289995357
 40
0.2975145205
 40
0.3601558349
 40
0.4181371071
 40
0.4739746528
 40
0.530507629
 40
0.5902149411
 40
0.6548634504
 40
0.7250699968
 40
0.7999362124
 40
0.8774572439
 40
0.9557632873
 40
1.0
 40
1.0
 40
1.0
 40
1.0
 10
4.8891403012
 20
3.7137964074
 30
0.0
 10
4.8713444251
 20
3.7130606017
 30
0.0
 10
4.8358806986
 20
3.7141528315
 30
0.0
 10
4.7843980113
 20
3.7234050734
 30
0.0
 10
4.737144706
 20
3.7402226012
 30
0.0
 10
4.6967565081
 20
3.7642065577
 30
0.0
 10
4.6654350975
 20
3.7943705592
 30
0.0
 10
4.6444863381
 20
3.8292108314
 30
0.0
 10
4.6342273877
 20
3.8671008988
 30
0.0
 10
4.6344195696
 20
3.9066977243
 30
0.0
 10
4.6448524439
 20
3.9469168698
 30
0.0
 10
4.6655296179
 20
3.9864682143
 30
0.0
 10
4.6963032493
 20
4.0233994874
 30
0.0
 10
4.736279266
 20
4.0550857332
 30
0.0
 10
4.7835467575
 20
4.0787899418
 30
0.0
 10
4.8278904181
 20
4.0904350599
 30
0.0
 10
4.8557886061
 20
4.092989676
 30
0.0
 10
4.8658705524
 20
4.0933117836
 30
0.0
 11
4.8891403012
 21
3.7137964074
 31
0.0
 11
4.8357335307
 21
3.7154781968
 31
0.0
 11
4.7840249987
 21
3.7249660686
 31
0.0
 11
4.7367251906
 21
3.7421641716
 31
0.0
 11
4.6967271561
 21
3.7664123582
 31
0.0
 11
4.6661885746
 21
3.7963485538
 31
0.0
 11
4.6459595751
 21
3.8303719902
 31
0.0
 11
4.6359711787
 21
3.8671595167
 31
0.0
 11
4.6359710844
 21
3.9057536961
 31
0.0
 11
4.6459606856
 21
3.9452718853
 31
0.0
 11
4.6661928901
 21
3.9844957859
 31
0.0
 11
4.6967358141
 21
4.0214323587
 31
0.0
 11
4.7367330942
 21
4.0532513659
 31
0.0
 11
4.7840320511
 21
4.0769913902
 31
0.0
 11
4.8357426964
 21
4.0905486872
 31
0.0
 11
4.8658705524
 21
4.0933117836
 31
0.0
  0
SPLINE
  5
4BD
100
AcDbEntity
  8
0
100
AcDbSpline
 62
7
  6
CONTINUOUS
 70
0
 71
3
 72
8
 73
4
 74
2
 42
0.0000001
 43
0.0000001
 44
0.0000000001
 12
0.0128748354
 22
0.0004113375
 32
0.0
 13
0.012867092
 23
-0.0002418682
 33
0.0
 40
0.0
 40
0.0
 40
0.0
 40
0.0
 40
1.0
 40
1.0
 40
1.0
 40
1.0
 10
4.8658705524
 20
4.0933117836
 30
0.0
 10
4.8701621642
 20
4.0934488961
 30
0.0
 10
4.8744557653
 20
4.0934772751
 30
0.0
 10
4.8787447959
 20
4.0933966523
 30
0.0
 11
4.8658705524
 21
4.0933117836
 31
0.0
 11
4.8787447959
 21
4.0933966523
 31
0.0
  0
SPLINE
  5
4BE
100
AcDbEntity
  8
0
100
AcDbSpline
 62
7
  6
CONTINUOUS
 70
0
 71
3
 72
8
 73
4
 74
2
 42
0.0000001
 43
0.0000001
 44
0.0000000001
 12
0.0104079481
 22
-0.0001956426
 32
0.0
 13
0.0103795908
 23
-0.0006239798
 33
0.0
 40
0.0
 40
0.0
 40
0.0
 40
0.0
 40
1.0
 40
1.0
 40
1.0
 40
1.0
 10
4.8787447959
 20
4.0933966523
 30
0.0
 10
4.882214112
 20
4.0933314381
 30
0.0
 10
4.8856804377
 20
4.0931949054
 30
0.0
 10
4.8891403012
 20
4.0929869121
 30
0.0
 11
4.8787447959
 21
4.0933966523
 31
0.0
 11
4.8891403012
 21
4.0929869121
 31
0.0
  0
SPLINE
  5
4BF
100
AcDbEntity
  8
0
100
AcDbSpline
 62
7
  6
CONTINUOUS
 70
0
 71
3
 72
11
 73
7
 74
5
 42
0.0000001
 43
0.0000001
 44
0.0000000001
 12
0.1503586856
 22
0.058265769
 32
0.0
 13
0.0559458844
 23
0.1517033324
 33
0.0
 40
0.0
 40
0.0
 40
0.0
 40
0.0
 40
0.2871200608
 40
0.5647941813
 40
0.8338038093
 40
1.0
 40
1.0
 40
1.0
 40
1.0
 10
4.9798002731
 20
3.7297099513
 30
0.0
 10
4.9941906047
 20
3.735286375
 30
0.0
 10
5.0214728901
 20
3.7492170557
 30
0.0
 10
5.0562150465
 20
3.7781244986
 30
0.0
 10
5.0793217317
 20
3.809180485
 30
0.0
 10
5.0892158045
 20
3.8305253289
 30
0.0
 10
5.0923151355
 20
3.8389295009
 30
0.0
 11
4.9798002731
 21
3.7297099513
 31
0.0
 11
5.0209603199
 21
3.7509102782
 31
0.0
 11
5.0552709217
 21
3.7796793859
 31
0.0
 11
5.0810448261
 21
3.8145708914
 31
0.0
 11
5.0923151355
 21
3.8389295009
 31
0.0
  0
SPLINE
  5
4C0
100
AcDbEntity
  8
0
100
AcDbSpline
 62
7
  6
CONTINUOUS
 70
0
 71
3
 72
8
 73
4
 74
2
 42
0.0000001
 43
0.0000001
 44
0.0000000001
 12
0.0044497011
 22
0.0120658472
 32
0.0
 13
0.0034953535
 23
0.0123823323
 33
0.0
 40
0.0
 40
0.0
 40
0.0
 40
0.0
 40
1.0
 40
1.0
 40
1.0
 40
1.0
 10
5.0923151355
 20
3.8389295009
 30
0.0
 10
5.0937983692
 20
3.84295145
 30
0.0
 10
5.0951260919
 20
3.8470313454
 30
0.0
 10
5.0962912097
 20
3.8511587895
 30
0.0
 11
5.0923151355
 21
3.8389295009
 31
0.0
 11
5.0962912097
 21
3.8511587895
 31
0.0
  0
SPLINE
  5
4C1
100
AcDbEntity
  8
0
100
AcDbSpline
 62
7
  6
CONTINUOUS
 70
0
 71
3
 72
8
 73
4
 74
2
 42
0.0000001
 43
0.0000001
 44
0.0000000001
 12
0.000756162
 22
0.0026787132
 32
0.0
 13
0.000710287
 23
0.002691749
 33
0.0
 40
0.0
 40
0.0
 40
0.0
 40
0.0
 40
1.0
 40
1.0
 40
1.0
 40
1.0
 10
5.0962912097
 20
3.8511587895
 30
0.0
 10
5.0965432637
 20
3.8520516939
 30
0.0
 10
5.0967877078
 20
3.8529468236
 30
0.0
 10
5.0970244701
 20
3.8538440732
 30
0.0
 11
5.0962912097
 21
3.8511587895
 31
0.0
 11
5.0970244701
 21
3.8538440732
 31
0.0
  0
SPLINE
  5
4C2
100
AcDbEntity
  8
0
100
AcDbSpline
 62
7
  6
CONTINUOUS
 70
0
 71
3
 72
8
 73
4
 74
2
 42
0.0000001
 43
0.0000001
 44
0.0000000001
 12
0.0081750997
 22
0.0309808826
 32
0.0
 13
0.0019928172
 23
0.0319360423
 33
0.0
 40
0.0
 40
0.0
 40
0.0
 40
0.0
 40
1.0
 40
1.0
 40
1.0
 40
1.0
 10
5.0970244701
 20
3.8538440732
 30
0.0
 10
5.0997495033
 20
3.8641710341
 30
0.0
 10
5.1014569323
 20
3.8747788337
 30
0.0
 10
5.1021212047
 20
3.8854241811
 30
0.0
 11
5.0970244701
 21
3.8538440732
 31
0.0
 11
5.1021212047
 21
3.8854241811
 31
0.0
  0
SPLINE
  5
4C3
100
AcDbEntity
  8
0
100
AcDbSpline
 62
7
  6
CONTINUOUS
 70
0
 71
3
 72
14
 73
10
 74
8
 42
0.0000001
 43
0.0000001
 44
0.0000000001
 12
-0.3159200559
 22
-0.00593553
 32
0.0
 13
0.0
 23
-0.3159758096
 33
0.0
 40
0.0
 40
0.0
 40
0.0
 40
0.0
 40
0.1527313173
 40
0.3034852597
 40
0.4507863522
 40
0.5937472317
 40
0.7322759268
 40
0.8671651993
 40
1.0
 40
1.0
 40
1.0
 40
1.0
 10
4.8786876366
 20
4.7758988796
 30
0.0
 10
4.8626040078
 20
4.7755966992
 30
0.0
 10
4.8306157332
 20
4.771935316
 30
0.0
 10
4.7850863892
 20
4.7574683482
 30
0.0
 10
4.7442209631
 20
4.7346920794
 30
0.0
 10
4.7100227432
 20
4.7046435948
 30
0.0
 10
4.6841947852
 20
4.6686975446
 30
0.0
 10
4.6680954918
 20
4.6286009144
 30
0.0
 10
4.6644376366
 20
4.6002747938
 30
0.0
 10
4.6644376366
 20
4.5862839326
 30
0.0
 11
4.8786876366
 21
4.7758988796
 31
0.0
 11
4.8307457584
 21
4.7703720215
 31
0.0
 11
4.7853734112
 21
4.7558666728
 31
0.0
 11
4.7447836101
 21
4.7330900827
 31
0.0
 11
4.7109562015
 21
4.7031529444
 31
0.0
 11
4.6855412888
 21
4.6675152483
 31
0.0
 11
4.6697787806
 21
4.6279152905
 31
0.0
 11
4.6644376366
 21
4.5862839326
 31
0.0
  0
SPLINE
  5
4C4
100
AcDbEntity
  8
0
100
AcDbSpline
 62
7
  6
CONTINUOUS
 70
0
 71
3
 72
8
 73
4
 74
2
 42
0.0000001
 43
0.0000001
 44
0.0000000001
 12
0.0128257173
 22
-0.000410612
 32
0.0
 13
0.0128144491
 23
0.0002407588
 33
0.0
 40
0.0
 40
0.0
 40
0.0
 40
0.0
 40
1.0
 40
1.0
 40
1.0
 40
1.0
 10
4.8658642749
 20
4.3967538994
 30
0.0
 10
4.870139514
 20
4.3966170287
 30
0.0
 10
4.8744161535
 20
4.3965887327
 30
0.0
 10
4.8786876366
 20
4.3966689856
 30
0.0
 11
4.8658642749
 21
4.3967538994
 31
0.0
 11
4.8786876366
 21
4.3966689856
 31
0.0
  0
SPLINE
  5
4C5
100
AcDbEntity
  8
0
100
AcDbSpline
 62
7
  6
CONTINUOUS
 70
0
 71
3
 72
14
 73
10
 74
8
 42
0.0000001
 43
0.0000001
 44
0.0000000001
 12
0.3103484711
 22
0.0
 32
0.0
 13
0.0000590225
 23
0.3111755799
 33
0.0
 40
0.0
 40
0.0
 40
0.0
 40
0.0
 40
0.1547583015
 40
0.3079091917
 40
0.4570814293
 40
0.5997995728
 40
0.7356843021
 40
0.8675253593
 40
1.0
 40
1.0
 40
1.0
 40
1.0
 10
6.1334376366
 20
3.7137439951
 30
0.0
 10
6.149447304
 20
3.7137439951
 30
0.0
 10
6.1813585145
 20
3.7161962915
 30
0.0
 10
6.2275241411
 20
3.7273923083
 30
0.0
 10
6.2698171861
 20
3.746349593
 30
0.0
 10
6.3056668084
 20
3.772996405
 30
0.0
 10
6.3326003896
 20
3.806480199
 30
0.0
 10
6.3489631094
 20
3.8450938418
 30
0.0
 10
6.3524350303
 20
3.8725429716
 30
0.0
 10
6.3524376366
 20
3.8862839293
 30
0.0
 11
6.1334376366
 21
3.7137439951
 31
0.0
 11
6.1813199509
 21
3.717494866
 31
0.0
 11
6.2274628833
 21
3.7288941834
 31
0.0
 11
6.2695746434
 21
3.7481259667
 31
0.0
 11
6.3049100452
 21
3.7748321893
 31
0.0
 11
6.3311598492
 21
3.8078381456
 31
0.0
 11
6.3471122419
 21
3.8455169871
 31
0.0
 11
6.3524376366
 21
3.8862839293
 31
0.0
  0
SPLINE
  5
4C6
100
AcDbEntity
  8
0
100
AcDbSpline
 62
7
  6
CONTINUOUS
 70
0
 71
3
 72
8
 73
4
 74
2
 42
0.0000001
 43
0.0000001
 44
0.0000000001
 12
-0.0128733161
 22
-0.000241985
 32
0.0
 13
-0.0128810611
 23
0.0004118528
 33
0.0
 40
0.0
 40
0.0
 40
0.0
 40
0.0
 40
1.0
 40
1.0
 40
1.0
 40
1.0
 10
4.8787448246
 20
4.3966712142
 30
0.0
 10
4.8744537192
 20
4.3965905525
 30
0.0
 10
4.8701580382
 20
4.3966189982
 30
0.0
 10
4.8658643512
 20
4.3967562825
 30
0.0
 11
4.8787448246
 21
4.3966712142
 31
0.0
 11
4.8658643512
 21
4.3967562825
 31
0.0
  0
SPLINE
  5
4C7
100
AcDbEntity
  8
0
100
AcDbSpline
 62
7
  6
CONTINUOUS
 70
0
 71
3
 72
22
 73
18
 74
16
 42
0.0000001
 43
0.0000001
 44
0.0000000001
 12
-0.683721004
 22
0.0218609646
 32
0.0
 13
0.6820953923
 23
-0.0282025828
 33
0.0
 40
0.0
 40
0.0
 40
0.0
 40
0.0
 40
0.0442416444
 40
0.1225460568
 40
0.2000706995
 40
0.2749413963
 40
0.3451430556
 40
0.4097863776
 40
0.469489512
 40
0.526020835
 40
0.581858144
 40
0.6398396318
 40
0.7024813844
 40
0.7709974352
 40
0.8447211918
 40
0.9217296963
 40
1.0
 40
1.0
 40
1.0
 40
1.0
 10
4.8658643512
 20
4.3967562825
 30
0.0
 10
4.8557813707
 20
4.3970786708
 30
0.0
 10
4.8278827239
 20
4.399634187
 30
0.0
 10
4.7835383634
 20
4.411281079
 30
0.0
 10
4.7362707491
 20
4.4349873553
 30
0.0
 10
4.6962958741
 20
4.4666755656
 30
0.0
 10
4.665525057
 20
4.503606891
 30
0.0
 10
4.6448509174
 20
4.5431556246
 30
0.0
 10
4.6344195068
 20
4.5833720887
 30
0.0
 10
4.6342275014
 20
4.6229671271
 30
0.0
 10
4.6444861438
 20
4.6608564962
 30
0.0
 10
4.6654345764
 20
4.6956966439
 30
0.0
 10
4.6967558293
 20
4.7258608147
 30
0.0
 10
4.7371440754
 20
4.7498449936
 30
0.0
 10
4.7843975955
 20
4.7666626969
 30
0.0
 10
4.8358804916
 20
4.775915023
 30
0.0
 10
4.8713443634
 20
4.777007266
 30
0.0
 10
4.8891403012
 20
4.7762714578
 30
0.0
 11
4.8658643512
 21
4.3967562825
 31
0.0
 11
4.8357334739
 21
4.3995205836
 31
0.0
 11
4.7840248276
 21
4.4130792052
 31
0.0
 11
4.7367249083
 21
4.4368217392
 31
0.0
 11
4.6967270172
 21
4.4686441486
 31
0.0
 11
4.6661881807
 21
4.5055792087
 31
0.0
 11
4.6459590572
 21
4.5448002641
 31
0.0
 11
4.6359709159
 21
4.5843154998
 31
0.0
 11
4.6359711594
 21
4.622908201
 31
0.0
 11
4.6459593178
 21
4.6596952669
 31
0.0
 11
4.6661880339
 21
4.6937186258
 31
0.0
 11
4.6967263948
 21
4.7236549206
 31
0.0
 11
4.7367245992
 21
4.7479034133
 31
0.0
 11
4.7840245799
 21
4.7651016845
 31
0.0
 11
4.8357333459
 21
4.7745896489
 31
0.0
 11
4.8891403012
 21
4.7762714578
 31
0.0
  0
SPLINE
  5
4C8
100
AcDbEntity
  8
0
100
AcDbSpline
 62
7
  6
CONTINUOUS
 70
0
 71
3
 72
9
 73
5
 74
3
 42
0.0000001
 43
0.0000001
 44
0.0000000001
 12
-0.0104586962
 22
-0.0001561609
 32
0.0
 13
-0.0104432916
 23
-0.0005885357
 33
0.0
 40
0.0
 40
0.0
 40
0.0
 40
0.0
 40
0.4997847545
 40
1.0
 40
1.0
 40
1.0
 40
1.0
 10
4.8891403012
 20
4.7762714578
 30
0.0
 10
4.8873979356
 20
4.7762454422
 30
0.0
 10
4.88391215
 20
4.7761572598
 30
0.0
 10
4.8804289344
 20
4.7759970111
 30
0.0
 10
4.8786876366
 20
4.7758988796
 30
0.0
 11
4.8891403012
 21
4.7762714578
 31
0.0
 11
4.8839142925
 21
4.7761392967
 31
0.0
 11
4.8786876366
 21
4.7758988796
 31
0.0
  0
SPLINE
  5
4C9
100
AcDbEntity
  8
0
100
AcDbSpline
 62
7
  6
CONTINUOUS
 70
0
 71
3
 72
14
 73
10
 74
8
 42
0.0000001
 43
0.0000001
 44
0.0000000001
 12
0.0
 22
-0.3159758096
 32
0.0
 13
0.3159200559
 23
-0.00593553
 33
0.0
 40
0.0
 40
0.0
 40
0.0
 40
0.0
 40
0.1328348007
 40
0.2677240732
 40
0.4062527683
 40
0.5492136478
 40
0.6965147403
 40
0.8472686827
 40
1.0
 40
1.0
 40
1.0
 40
1.0
 10
4.6644376366
 20
3.9037839326
 30
0.0
 10
4.6644376366
 20
3.8897930714
 30
0.0
 10
4.6680954918
 20
3.8614669507
 30
0.0
 10
4.6841947852
 20
3.8213703206
 30
0.0
 10
4.7100227432
 20
3.7854242704
 30
0.0
 10
4.7442209631
 20
3.7553757858
 30
0.0
 10
4.7850863892
 20
3.732599517
 30
0.0
 10
4.8306157332
 20
3.7181325491
 30
0.0
 10
4.8626040078
 20
3.714471166
 30
0.0
 10
4.8786876366
 20
3.7141689856
 30
0.0
 11
4.6644376366
 21
3.9037839326
 31
0.0
 11
4.6697787806
 21
3.8621525747
 31
0.0
 11
4.6855412888
 21
3.8225526169
 31
0.0
 11
4.7109562015
 21
3.7869149208
 31
0.0
 11
4.7447836101
 21
3.7569777825
 31
0.0
 11
4.7853734112
 21
3.7342011924
 31
0.0
 11
4.8307457584
 21
3.7196958437
 31
0.0
 11
4.8786876366
 21
3.7141689856
 31
0.0
  0
SPLINE
  5
4CA
100
AcDbEntity
  8
0
100
AcDbSpline
 62
7
  6
CONTINUOUS
 70
0
 71
3
 72
8
 73
4
 74
2
 42
0.0000001
 43
0.0000001
 44
0.0000000001
 12
-0.0019934551
 22
0.0319462658
 32
0.0
 13
-0.0081796438
 23
0.0309903061
 33
0.0
 40
0.0
 40
0.0
 40
0.0
 40
0.0
 40
1.0
 40
1.0
 40
1.0
 40
1.0
 10
5.1021212063
 20
4.6046436214
 30
0.0
 10
5.1014567213
 20
4.6152923767
 30
0.0
 10
5.0997484081
 20
4.6259035709
 30
0.0
 10
5.0970218602
 20
4.6362336729
 30
0.0
 11
5.1021212063
 21
4.6046436214
 31
0.0
 11
5.0970218602
 21
4.6362336729
 31
0.0
  0
SPLINE
  5
4CB
100
AcDbEntity
  8
0
100
AcDbSpline
 62
7
  6
CONTINUOUS
 70
0
 71
3
 72
8
 73
4
 74
2
 42
0.0000001
 43
0.0000001
 44
0.0000000001
 12
-0.0007078299
 22
0.0026817629
 32
0.0
 13
-0.0007533665
 23
0.002668821
 33
0.0
 40
0.0
 40
0.0
 40
0.0
 40
0.0
 40
1.0
 40
1.0
 40
1.0
 40
1.0
 10
5.0970218602
 20
4.6362336729
 30
0.0
 10
5.0967859169
 20
4.6371275938
 30
0.0
 10
5.0965423486
 20
4.6380194099
 30
0.0
 10
5.0962912265
 20
4.6389090169
 30
0.0
 11
5.0970218602
 21
4.6362336729
 31
0.0
 11
5.0962912265
 21
4.6389090169
 31
0.0
  0
SPLINE
  5
4CC
100
AcDbEntity
  8
0
100
AcDbSpline
 62
7
  6
CONTINUOUS
 70
0
 71
3
 72
8
 73
4
 74
2
 42
0.0000001
 43
0.0000001
 44
0.0000000001
 12
-0.0034950704
 22
0.0123813812
 32
0.0
 13
-0.0044492784
 23
0.0120649332
 33
0.0
 40
0.0
 40
0.0
 40
0.0
 40
0.0
 40
1.0
 40
1.0
 40
1.0
 40
1.0
 10
5.0962912265
 20
4.6389090169
 30
0.0
 10
5.095126203
 20
4.6430361439
 30
0.0
 10
5.0937985981
 20
4.6471157266
 30
0.0
 10
5.0923155053
 20
4.651137371
 30
0.0
 11
5.0962912265
 21
4.6389090169
 31
0.0
 11
5.0923155053
 21
4.651137371
 31
0.0
  0
SPLINE
  5
4CD
100
AcDbEntity
  8
0
100
AcDbSpline
 62
7
  6
CONTINUOUS
 70
0
 71
3
 72
11
 73
7
 74
5
 42
0.0000001
 43
0.0000001
 44
0.0000000001
 12
-0.0559453567
 22
0.1517048219
 32
0.0
 13
-0.1503597241
 23
0.0582661714
 33
0.0
 40
0.0
 40
0.0
 40
0.0
 40
0.0
 40
0.1662819239
 40
0.4352725905
 40
0.7129104917
 40
1.0
 40
1.0
 40
1.0
 40
1.0
 10
5.0923155053
 20
4.651137371
 30
0.0
 10
5.0892146048
 20
4.6595459608
 30
0.0
 10
5.0793181336
 20
4.6808939337
 30
0.0
 10
5.0562083254
 20
4.7119499096
 30
0.0
 10
5.0214685135
 20
4.7408532155
 30
0.0
 10
4.9941891728
 20
4.754782045
 30
0.0
 10
4.9798002731
 20
4.7603579139
 30
0.0
 11
5.0923155053
 21
4.651137371
 31
0.0
 11
5.0810384544
 21
4.6755082927
 31
0.0
 11
5.0552639171
 21
4.7103959017
 31
0.0
 11
5.0209564558
 21
4.7391601459
 31
0.0
 11
4.9798002731
 21
4.7603579139
 31
0.0
  0
SPLINE
  5
4CE
100
AcDbEntity
  8
0
100
AcDbSpline
 62
7
  6
CONTINUOUS
 70
0
 71
3
 72
9
 73
5
 74
3
 42
0.0000001
 43
0.0000001
 44
0.0000000001
 12
0.0000017792
 22
-0.0353732748
 32
0.0
 13
-0.0081077025
 23
-0.0344030071
 33
0.0
 40
0.0
 40
0.0
 40
0.0
 40
0.0
 40
0.3343300129
 40
1.0
 40
1.0
 40
1.0
 40
1.0
 10
5.1024380586
 20
3.8853163861
 30
0.0
 10
5.1024382569
 20
3.8813742703
 30
0.0
 10
5.1020140097
 20
3.8695834666
 30
0.0
 10
5.1002457942
 20
3.8578752458
 30
0.0
 10
5.0984467761
 20
3.8502415627
 30
0.0
 11
5.1024380586
 21
3.8853163861
 31
0.0
 11
5.1020043556
 21
3.873499462
 31
0.0
 11
5.0984467761
 21
3.8502415627
 31
0.0
  0
SPLINE
  5
4CF
100
AcDbEntity
  8
0
100
AcDbSpline
 62
7
  6
CONTINUOUS
 70
0
 71
3
 72
11
 73
7
 74
5
 42
0.0000001
 43
0.0000001
 44
0.0000000001
 12
0.1199390418
 22
-0.0393581158
 32
0.0
 13
0.0763537888
 23
-0.100521311
 33
0.0
 40
0.0
 40
0.0
 40
0.0
 40
0.0
 40
0.268003941
 40
0.5252739379
 40
0.7700128543
 40
1.0
 40
1.0
 40
1.0
 40
1.0
 10
4.9798002731
 20
4.7603579139
 30
0.0
 10
4.990514985
 20
4.7568418705
 30
0.0
 10
5.011143512
 20
4.7487226695
 30
0.0
 10
5.039543982
 20
4.7329072061
 30
0.0
 10
5.0639918609
 20
4.7139670896
 30
0.0
 10
5.0775841732
 20
4.6991635099
 30
0.0
 10
5.0834376366
 20
4.6914573068
 30
0.0
 11
4.9798002731
 21
4.7603579139
 31
0.0
 11
5.0112384056
 21
4.7478618207
 31
0.0
 11
5.0395467908
 21
4.7319463771
 31
0.0
 11
5.0638830904
 21
4.7129155714
 31
0.0
 11
5.0834376366
 21
4.6914573068
 31
0.0
  0
SPLINE
  5
4D0
100
AcDbEntity
  8
0
100
AcDbSpline
 62
7
  6
CONTINUOUS
 70
0
 71
3
 72
13
 73
9
 74
7
 42
0.0000001
 43
0.0000001
 44
0.0000000001
 12
0.0
 22
0.2332633954
 32
0.0
 13
0.224886767
 23
0.0629370523
 33
0.0
 40
0.0
 40
0.0
 40
0.0
 40
0.0
 40
0.1684766351
 40
0.3394835958
 40
0.5217955905
 40
0.7213778323
 40
0.938500091
 40
1.0
 40
1.0
 40
1.0
 40
1.0
 10
5.7942303771
 20
4.6037839326
 30
0.0
 10
5.7942303771
 20
4.6168837432
 30
0.0
 10
5.7977466025
 20
4.6434419631
 30
0.0
 10
5.8143780939
 20
4.6810288572
 30
0.0
 10
5.8423075795
 20
4.7143994745
 30
0.0
 10
5.8805308109
 20
4.7417491162
 30
0.0
 10
5.9148845418
 20
4.756579569
 30
0.0
 10
5.9356346091
 20
4.7629155486
 30
0.0
 10
5.940244781
 20
4.7642057563
 30
0.0
 11
5.7942303771
 21
4.6037839326
 31
0.0
 11
5.7995193573
 21
4.6427258386
 31
0.0
 11
5.8155606212
 21
4.6792479301
 31
0.0
 11
5.8425923442
 21
4.7120779077
 31
0.0
 11
5.880179083
 21
4.7395483762
 31
0.0
 11
5.9265101058
 21
4.7600061875
 31
0.0
 11
5.940244781
 21
4.7642057563
 31
0.0
  0
SPLINE
  5
4D1
100
AcDbEntity
  8
0
100
AcDbSpline
 62
7
  6
CONTINUOUS
 70
0
 71
3
 72
8
 73
4
 74
2
 42
0.0000001
 43
0.0000001
 44
0.0000000001
 12
0.0225505035
 22
0.0063110081
 32
0.0
 13
0.0229550898
 23
0.0046347612
 33
0.0
 40
0.0
 40
0.0
 40
0.0
 40
0.0
 40
1.0
 40
1.0
 40
1.0
 40
1.0
 10
5.940244781
 20
4.7642057563
 30
0.0
 10
5.9477616155
 20
4.7663094257
 30
0.0
 10
5.9553583019
 20
4.7681251139
 30
0.0
 10
5.9630099985
 20
4.7696700343
 30
0.0
 11
5.940244781
 21
4.7642057563
 31
0.0
 11
5.9630099985
 21
4.7696700343
 31
0.0
  0
SPLINE
  5
4D2
100
AcDbEntity
  8
0
100
AcDbSpline
 62
7
  6
CONTINUOUS
 70
0
 71
3
 72
9
 73
5
 74
3
 42
0.0000001
 43
0.0000001
 44
0.0000000001
 12
0.0557779604
 22
0.0112618825
 32
0.0
 13
0.0568499404
 23
0.002154119
 33
0.0
 40
0.0
 40
0.0
 40
0.0
 40
0.0
 40
0.2787635809
 40
1.0
 40
1.0
 40
1.0
 40
1.0
 10
5.9630099985
 20
4.7696700343
 30
0.0
 10
5.9681929532
 20
4.7707165019
 30
0.0
 10
5.9868761478
 20
4.774024806
 30
0.0
 10
6.0057847879
 20
4.7758032612
 30
0.0
 10
6.0194522037
 20
4.7763211375
 30
0.0
 11
5.9630099985
 21
4.7696700343
 31
0.0
 11
5.9786268608
 21
4.7724420881
 31
0.0
 11
6.0194522037
 21
4.7763211375
 31
0.0
  0
SPLINE
  5
4D3
100
AcDbEntity
  8
0
100
AcDbSpline
 62
7
  6
CONTINUOUS
 70
0
 71
3
 72
15
 73
11
 74
9
 42
0.0000001
 43
0.0000001
 44
0.0000000001
 12
0.3415243293
 22
0.0129408061
 32
0.0
 13
-0.0
 23
-0.3414398454
 33
0.0
 40
0.0
 40
0.0
 40
0.0
 40
0.0
 40
0.0409349747
 40
0.2019257864
 40
0.3588488381
 40
0.5071805815
 40
0.6435292751
 40
0.7680806705
 40
0.88490516
 40
1.0
 40
1.0
 40
1.0
 40
1.0
 10
6.0194522037
 20
4.7763211375
 30
0.0
 10
6.0241123003
 20
4.7764977147
 30
0.0
 10
6.0471169219
 20
4.7769301429
 30
0.0
 10
6.08799916
 20
4.773906845
 30
0.0
 10
6.1399106022
 20
4.7617948587
 30
0.0
 10
6.1863469766
 20
4.7417477046
 30
0.0
 10
6.2245696866
 20
4.7143976547
 30
0.0
 10
6.2524983424
 20
4.6810269313
 30
0.0
 10
6.2691289235
 20
4.6434405895
 30
0.0
 10
6.272644896
 20
4.6168832541
 30
0.0
 10
6.272644896
 20
4.6037839326
 30
0.0
 11
6.0194522037
 21
4.7763211375
 31
0.0
 11
6.0334394257
 21
4.7765853552
 31
0.0
 11
6.0882516935
 21
4.7724415836
 31
0.0
 11
6.1403681884
 21
4.7600051832
 31
0.0
 11
6.1866986883
 21
4.7395469496
 31
0.0
 11
6.2242847695
 21
4.7120761823
 31
0.0
 11
6.2513160268
 21
4.679245699
 31
0.0
 11
6.2673563152
 21
4.6427244118
 31
0.0
 11
6.272644896
 21
4.6037839326
 31
0.0
  0
SPLINE
  5
4D4
100
AcDbEntity
  8
0
100
AcDbSpline
 62
7
  6
CONTINUOUS
 70
0
 71
3
 72
13
 73
9
 74
7
 42
0.0000001
 43
0.0000001
 44
0.0000000001
 12
0.0
 22
-0.2463431901
 32
0.0
 13
-0.2273094433
 23
-0.0961839752
 33
0.0
 40
0.0
 40
0.0
 40
0.0
 40
0.0
 40
0.1654311241
 40
0.3433902828
 40
0.5373011343
 40
0.7464050787
 40
0.965670111
 40
1.0
 40
1.0
 40
1.0
 40
1.0
 10
6.272644896
 20
4.6037839326
 30
0.0
 10
6.272644896
 20
4.5901996556
 30
0.0
 10
6.2687726694
 20
4.5619020988
 30
0.0
 10
6.2522061905
 20
4.5206005204
 30
0.0
 10
6.2247958518
 20
4.4810830271
 30
0.0
 10
6.1871317004
 20
4.4459864954
 30
0.0
 10
6.1542806601
 20
4.4263328537
 30
0.0
 10
6.1352005973
 20
4.4178838462
 30
0.0
 10
6.1325994279
 20
4.4167831845
 30
0.0
 11
6.272644896
 21
4.6037839326
 31
0.0
 11
6.2673553465
 21
4.5633758407
 31
0.0
 11
6.251305852
 21
4.5225803262
 31
0.0
 11
6.2242674669
 21
4.4832005526
 31
0.0
 11
6.1866777442
 21
4.4479808117
 31
0.0
 11
6.1403467426
 21
4.4202139458
 31
0.0
 11
6.1325994279
 21
4.4167831845
 31
0.0
  0
SPLINE
  5
4D5
100
AcDbEntity
  8
0
100
AcDbSpline
 62
7
  6
CONTINUOUS
 70
0
 71
3
 72
8
 73
4
 74
2
 42
0.0000001
 43
0.0000001
 44
0.0000000001
 12
-0.0260884723
 22
-0.0110391057
 32
0.0
 13
-0.0271486105
 23
-0.0080879558
 33
0.0
 40
0.0
 40
0.0
 40
0.0
 40
0.0
 40
1.0
 40
1.0
 40
1.0
 40
1.0
 10
6.1325994279
 20
4.4167831845
 30
0.0
 10
6.1239032705
 20
4.4131034826
 30
0.0
 10
6.1150031901
 20
4.4099055591
 30
0.0
 10
6.1059536533
 20
4.4072095738
 30
0.0
 11
6.1325994279
 21
4.4167831845
 31
0.0
 11
6.1059536533
 21
4.4072095738
 31
0.0
  0
SPLINE
  5
4D6
100
AcDbEntity
  8
0
100
AcDbSpline
 62
7
  6
CONTINUOUS
 70
0
 71
3
 72
9
 73
5
 74
3
 42
0.0000001
 43
0.0000001
 44
0.0000000001
 12
-0.0205218799
 22
-0.0061137588
 32
0.0
 13
-0.0209635859
 23
-0.0043671252
 33
0.0
 40
0.0
 40
0.0
 40
0.0
 40
0.0
 40
0.8549374449
 40
1.0
 40
1.0
 40
1.0
 40
1.0
 10
6.1059536533
 20
4.4072095738
 30
0.0
 10
6.1001053454
 20
4.40546728
 30
0.0
 10
6.0931917078
 20
4.4036745622
 30
0.0
 10
6.0862127839
 20
4.4021760956
 30
0.0
 10
6.0851991068
 20
4.4019649268
 30
0.0
 11
6.1059536533
 21
4.4072095738
 31
0.0
 11
6.0882361711
 21
4.4026170304
 31
0.0
 11
6.0851991068
 21
4.4019649268
 31
0.0
  0
SPLINE
  5
4D7
100
AcDbEntity
  8
0
100
AcDbSpline
 62
7
  6
CONTINUOUS
 70
0
 71
3
 72
8
 73
4
 74
2
 42
0.0000001
 43
0.0000001
 44
0.0000000001
 12
-0.0510325424
 22
-0.0106310773
 32
0.0
 13
-0.0521279043
 23
0.000000271
 33
0.0
 40
0.0
 40
0.0
 40
0.0
 40
0.0
 40
1.0
 40
1.0
 40
1.0
 40
1.0
 10
6.0851991068
 20
4.4019649268
 30
0.0
 10
6.0681882593
 20
4.3984212344
 30
0.0
 10
6.0508122819
 20
4.3966242788
 30
0.0
 10
6.0334363138
 20
4.3966243692
 30
0.0
 11
6.0851991068
 21
4.4019649268
 31
0.0
 11
6.0334363138
 21
4.3966243692
 31
0.0
  0
SPLINE
  5
4D8
100
AcDbEntity
  8
0
100
AcDbSpline
 62
7
  6
CONTINUOUS
 70
0
 71
3
 72
8
 73
4
 74
2
 42
0.0000001
 43
0.0000001
 44
0.0000000001
 12
-0.0521280361
 22
0.000000271
 32
0.0
 13
-0.0510325576
 23
0.0106316603
 33
0.0
 40
0.0
 40
0.0
 40
0.0
 40
0.0
 40
1.0
 40
1.0
 40
1.0
 40
1.0
 10
6.0334363138
 20
4.3966243692
 30
0.0
 10
6.0160603017
 20
4.3966244595
 30
0.0
 10
5.998684299
 20
4.3984216071
 30
0.0
 10
5.9816734464
 20
4.4019654939
 30
0.0
 11
6.0334363138
 21
4.3966243692
 31
0.0
 11
5.9816734464
 21
4.4019654939
 31
0.0
  0
SPLINE
  5
4D9
100
AcDbEntity
  8
0
100
AcDbSpline
 62
7
  6
CONTINUOUS
 70
0
 71
3
 72
9
 73
5
 74
3
 42
0.0000001
 43
0.0000001
 44
0.0000000001
 12
-0.0209664712
 22
0.0043679645
 32
0.0
 13
-0.0205246124
 23
0.0061150784
 33
0.0
 40
0.0
 40
0.0
 40
0.0
 40
0.0
 40
0.1451606872
 40
1.0
 40
1.0
 40
1.0
 40
1.0
 10
5.9816734464
 20
4.4019654939
 30
0.0
 10
5.980658944
 20
4.4021768461
 30
0.0
 10
5.9736790672
 20
4.4036756332
 30
0.0
 10
5.9667645012
 20
4.4054687522
 30
0.0
 10
5.960916086
 20
4.407211222
 30
0.0
 11
5.9816734464
 21
4.4019654939
 31
0.0
 11
5.9786339128
 21
4.4026181781
 31
0.0
 11
5.960916086
 21
4.407211222
 31
0.0
  0
SPLINE
  5
4DA
100
AcDbEntity
  8
0
100
AcDbSpline
 62
7
  6
CONTINUOUS
 70
0
 71
3
 72
8
 73
4
 74
2
 42
0.0000001
 43
0.0000001
 44
0.0000000001
 12
-0.0271452546
 22
0.0080876246
 32
0.0
 13
-0.0260853165
 23
0.0110380669
 33
0.0
 40
0.0
 40
0.0
 40
0.0
 40
0.0
 40
1.0
 40
1.0
 40
1.0
 40
1.0
 10
5.960916086
 20
4.407211222
 30
0.0
 10
5.9518676678
 20
4.4099070969
 30
0.0
 10
5.9429686825
 20
4.413104789
 30
0.0
 10
5.9342735769
 20
4.4167841446
 30
0.0
 11
5.960916086
 21
4.407211222
 31
0.0
 11
5.9342735769
 21
4.4167841446
 31
0.0
  0
SPLINE
  5
4DB
100
AcDbEntity
  8
0
100
AcDbSpline
 62
7
  6
CONTINUOUS
 70
0
 71
3
 72
13
 73
9
 74
7
 42
0.0000001
 43
0.0000001
 44
0.0000000001
 12
-0.2273062717
 22
0.0961852172
 32
0.0
 13
-0.0
 23
0.246340754
 33
0.0
 40
0.0
 40
0.0
 40
0.0
 40
0.0
 40
0.0343430616
 40
0.2536094477
 40
0.4627139998
 40
0.6566278496
 40
0.8345818487
 40
1.0
 40
1.0
 40
1.0
 40
1.0
 10
5.9342735769
 20
4.4167841446
 30
0.0
 10
5.9316714459
 20
4.4178852429
 30
0.0
 10
5.9125906103
 20
4.4263349538
 30
0.0
 10
5.8797392472
 20
4.4459897558
 30
0.0
 10
5.8420759254
 20
4.4810870306
 30
0.0
 10
5.8146668532
 20
4.5206046896
 30
0.0
 10
5.7981020103
 20
4.5619050875
 30
0.0
 10
5.7942303771
 20
4.5902008552
 30
0.0
 10
5.7942303771
 20
4.6037839326
 30
0.0
 11
5.9342735769
 21
4.4167841446
 31
0.0
 11
5.9265234207
 21
4.4202163111
 31
0.0
 11
5.8801931975
 21
4.4479840853
 31
0.0
 11
5.8426045039
 21
4.4832043984
 31
0.0
 11
5.8155669128
 21
4.5225850401
 31
0.0
 11
5.799519014
 21
4.5633793507
 31
0.0
 11
5.7942303771
 21
4.6037839326
 31
0.0
  0
SPLINE
  5
4DC
100
AcDbEntity
  8
0
100
AcDbSpline
 62
7
  6
CONTINUOUS
 70
0
 71
3
 72
10
 73
6
 74
4
 42
0.0000001
 43
0.0000001
 44
0.0000000001
 12
-0.0172721174
 22
-0.0449515717
 32
0.0
 13
-0.0259360809
 23
-0.0405744938
 33
0.0
 40
0.0
 40
0.0
 40
0.0
 40
0.0
 40
0.3324943136
 40
0.6658418195
 40
1.0
 40
1.0
 40
1.0
 40
1.0
 10
5.10528256
 20
4.5511082311
 30
0.0
 10
5.1033682664
 20
4.5461261838
 30
0.0
 10
5.099151578
 20
4.5362927994
 30
0.0
 10
5.091821486
 20
4.5220006587
 30
0.0
 10
5.0863265544
 20
4.5127924116
 30
0.0
 10
5.0834376366
 20
4.5082729786
 30
0.0
 11
5.10528256
 21
4.5511082311
 31
0.0
 11
5.0989914079
 21
4.5363844665
 31
0.0
 11
5.0916772803
 21
4.5220950031
 31
0.0
 11
5.0834376366
 21
4.5082729786
 31
0.0
  0
SPLINE
  5
4DD
100
AcDbEntity
  8
0
100
AcDbSpline
 62
7
  6
CONTINUOUS
 70
0
 71
3
 72
10
 73
6
 74
4
 42
0.0000001
 43
0.0000001
 44
0.0000000001
 12
0.0923806017
 22
-0.0016984723
 32
0.0
 13
0.0870854202
 23
-0.0308737746
 33
0.0
 40
0.0
 40
0.0
 40
0.0
 40
0.0
 40
0.3336994691
 40
0.6689131322
 40
1.0
 40
1.0
 40
1.0
 40
1.0
 10
4.8891403012
 20
4.7762714578
 30
0.0
 10
4.8994160872
 20
4.7760825314
 30
0.0
 10
4.9200115334
 20
4.7746812657
 30
0.0
 10
4.9504150526
 20
4.7694523052
 30
0.0
 10
4.9701893267
 20
4.7637652143
 30
0.0
 10
4.9798002731
 20
4.7603579139
 30
0.0
 11
4.8891403012
 21
4.7762714578
 31
0.0
 11
4.9199006709
 21
4.7741626942
 31
0.0
 11
4.9504181178
 21
4.768873125
 31
0.0
 11
4.9798002731
 21
4.7603579139
 31
0.0
  0
SPLINE
  5
4DE
100
AcDbEntity
  8
0
100
AcDbSpline
 62
7
  6
CONTINUOUS
 70
0
 71
3
 72
11
 73
7
 74
5
 42
0.0000001
 43
0.0000001
 44
0.0000000001
 12
0.0249978881
 22
-0.0329102265
 32
0.0
 13
0.0175560813
 23
-0.0374133856
 33
0.0
 40
0.0
 40
0.0
 40
0.0
 40
0.0
 40
0.2561002306
 40
0.5072827334
 40
0.7544807034
 40
1.0
 40
1.0
 40
1.0
 40
1.0
 10
5.0834376366
 20
4.6914573068
 30
0.0
 10
5.0855716249
 20
4.6886478679
 30
0.0
 10
5.0897056173
 20
4.6830111094
 30
0.0
 10
5.095489067
 20
4.6743704497
 30
0.0
 10
5.1007382382
 20
4.6655630119
 30
0.0
 10
5.1038457744
 20
4.6595215368
 30
0.0
 10
5.10528256
 20
4.656459634
 30
0.0
 11
5.0834376366
 21
4.6914573068
 31
0.0
 11
5.08968314
 21
4.6829124041
 31
0.0
 11
5.0954424906
 21
4.6742758133
 31
0.0
 11
5.1006571486
 21
4.6654908011
 31
0.0
 11
5.10528256
 21
4.656459634
 31
0.0
  0
SPLINE
  5
4DF
100
AcDbEntity
  8
0
100
AcDbSpline
 62
7
  6
CONTINUOUS
 70
0
 71
3
 72
11
 73
7
 74
5
 42
0.0000001
 43
0.0000001
 44
0.0000000001
 12
-0.0743504052
 22
-0.1163140286
 32
0.0
 13
-0.1255372142
 23
-0.0574225031
 33
0.0
 40
0.0
 40
0.0
 40
0.0
 40
0.0
 40
0.236072531
 40
0.4845873625
 40
0.7406313282
 40
1.0
 40
1.0
 40
1.0
 40
1.0
 10
5.0834376366
 20
4.5082729786
 30
0.0
 10
5.0775869404
 20
4.4991201296
 30
0.0
 10
5.0641252233
 20
4.4812257187
 30
0.0
 10
5.0398529149
 20
4.4571425949
 30
0.0
 10
5.0115597738
 20
4.4360905409
 30
0.0
 10
4.9906537466
 20
4.4246969531
 30
0.0
 10
4.9798002731
 20
4.4197324203
 30
0.0
 11
5.0834376366
 21
4.5082729786
 31
0.0
 11
5.0638966786
 21
4.4821923617
 31
0.0
 11
5.0395777399
 21
4.4579944615
 31
0.0
 11
5.0112345038
 21
4.436875623
 31
0.0
 11
4.9798002731
 21
4.4197324203
 31
0.0
  0
SPLINE
  5
4E0
100
AcDbEntity
  8
0
100
AcDbSpline
 62
7
  6
CONTINUOUS
 70
0
 71
3
 72
13
 73
9
 74
7
 42
0.0000001
 43
0.0000001
 44
0.0000000001
 12
0.0
 22
0.2463431901
 32
0.0
 13
0.2273094433
 23
0.0961839752
 33
0.0
 40
0.0
 40
0.0
 40
0.0
 40
0.0
 40
0.1654311241
 40
0.3433902828
 40
0.5373011343
 40
0.7464050787
 40
0.965670111
 40
1.0
 40
1.0
 40
1.0
 40
1.0
 10
7.2352303771
 20
3.8862839326
 30
0.0
 10
7.2352303771
 20
3.8998682095
 30
0.0
 10
7.2391026037
 20
3.9281657664
 30
0.0
 10
7.2556690826
 20
3.9694673448
 30
0.0
 10
7.2830794213
 20
4.0089848381
 30
0.0
 10
7.3207435727
 20
4.0440813698
 30
0.0
 10
7.353594613
 20
4.0637350115
 30
0.0
 10
7.3726746759
 20
4.072184019
 30
0.0
 10
7.3752758452
 20
4.0732846807
 30
0.0
 11
7.2352303771
 21
3.8862839326
 31
0.0
 11
7.2405199266
 21
3.9266920245
 31
0.0
 11
7.2565694211
 21
3.967487539
 31
0.0
 11
7.2836078062
 21
4.0068673126
 31
0.0
 11
7.3211975289
 21
4.0420870535
 31
0.0
 11
7.3675285305
 21
4.0698539194
 31
0.0
 11
7.3752758452
 21
4.0732846807
 31
0.0
  0
SPLINE
  5
4E1
100
AcDbEntity
  8
0
100
AcDbSpline
 62
7
  6
CONTINUOUS
 70
0
 71
3
 72
8
 73
4
 74
2
 42
0.0000001
 43
0.0000001
 44
0.0000000001
 12
0.0260884723
 22
0.0110391057
 32
0.0
 13
0.0271486105
 23
0.0080879558
 33
0.0
 40
0.0
 40
0.0
 40
0.0
 40
0.0
 40
1.0
 40
1.0
 40
1.0
 40
1.0
 10
7.3752758452
 20
4.0732846807
 30
0.0
 10
7.3839720026
 20
4.0769643826
 30
0.0
 10
7.392872083
 20
4.0801623061
 30
0.0
 10
7.4019216198
 20
4.0828582914
 30
0.0
 11
7.3752758452
 21
4.0732846807
 31
0.0
 11
7.4019216198
 21
4.0828582914
 31
0.0
  0
SPLINE
  5
4E2
100
AcDbEntity
  8
0
100
AcDbSpline
 62
7
  6
CONTINUOUS
 70
0
 71
3
 72
9
 73
5
 74
3
 42
0.0000001
 43
0.0000001
 44
0.0000000001
 12
0.0205218799
 22
0.0061137588
 32
0.0
 13
0.0209635859
 23
0.0043671252
 33
0.0
 40
0.0
 40
0.0
 40
0.0
 40
0.0
 40
0.8549374449
 40
1.0
 40
1.0
 40
1.0
 40
1.0
 10
7.4019216198
 20
4.0828582914
 30
0.0
 10
7.4077699277
 20
4.0846005852
 30
0.0
 10
7.4146835653
 20
4.086393303
 30
0.0
 10
7.4216624893
 20
4.0878917696
 30
0.0
 10
7.4226761664
 20
4.0881029384
 30
0.0
 11
7.4019216198
 21
4.0828582914
 31
0.0
 11
7.419639102
 21
4.0874508348
 31
0.0
 11
7.4226761664
 21
4.0881029384
 31
0.0
  0
SPLINE
  5
4E3
100
AcDbEntity
  8
0
100
AcDbSpline
 62
7
  6
CONTINUOUS
 70
0
 71
3
 72
8
 73
4
 74
2
 42
0.0000001
 43
0.0000001
 44
0.0000000001
 12
0.0510325424
 22
0.0106310773
 32
0.0
 13
0.0521279043
 23
-0.000000271
 33
0.0
 40
0.0
 40
0.0
 40
0.0
 40
0.0
 40
1.0
 40
1.0
 40
1.0
 40
1.0
 10
7.4226761664
 20
4.0881029384
 30
0.0
 10
7.4396870138
 20
4.0916466308
 30
0.0
 10
7.4570629912
 20
4.0934435864
 30
0.0
 10
7.4744389594
 20
4.093443496
 30
0.0
 11
7.4226761664
 21
4.0881029384
 31
0.0
 11
7.4744389594
 21
4.093443496
 31
0.0
  0
SPLINE
  5
4E4
100
AcDbEntity
  8
0
100
AcDbSpline
 62
7
  6
CONTINUOUS
 70
0
 71
3
 72
8
 73
4
 74
2
 42
0.0000001
 43
0.0000001
 44
0.0000000001
 12
0.0521280361
 22
-0.000000271
 32
0.0
 13
0.0510325576
 23
-0.0106316603
 33
0.0
 40
0.0
 40
0.0
 40
0.0
 40
0.0
 40
1.0
 40
1.0
 40
1.0
 40
1.0
 10
7.4744389594
 20
4.093443496
 30
0.0
 10
7.4918149714
 20
4.0934434057
 30
0.0
 10
7.5091909741
 20
4.0916462581
 30
0.0
 10
7.5262018267
 20
4.0881023713
 30
0.0
 11
7.4744389594
 21
4.093443496
 31
0.0
 11
7.5262018267
 21
4.0881023713
 31
0.0
  0
SPLINE
  5
4E5
100
AcDbEntity
  8
0
100
AcDbSpline
 62
7
  6
CONTINUOUS
 70
0
 71
3
 72
9
 73
5
 74
3
 42
0.0000001
 43
0.0000001
 44
0.0000000001
 12
0.0209664712
 22
-0.0043679645
 32
0.0
 13
0.0205246124
 23
-0.0061150784
 33
0.0
 40
0.0
 40
0.0
 40
0.0
 40
0.0
 40
0.1451606872
 40
1.0
 40
1.0
 40
1.0
 40
1.0
 10
7.5262018267
 20
4.0881023713
 30
0.0
 10
7.5272163291
 20
4.0878910191
 30
0.0
 10
7.5341962059
 20
4.0863922319
 30
0.0
 10
7.5411107719
 20
4.0845991129
 30
0.0
 10
7.5469591871
 20
4.0828566431
 30
0.0
 11
7.5262018267
 21
4.0881023713
 31
0.0
 11
7.5292413603
 21
4.0874496871
 31
0.0
 11
7.5469591871
 21
4.0828566431
 31
0.0
  0
SPLINE
  5
4E6
100
AcDbEntity
  8
0
100
AcDbSpline
 62
7
  6
CONTINUOUS
 70
0
 71
3
 72
8
 73
4
 74
2
 42
0.0000001
 43
0.0000001
 44
0.0000000001
 12
0.0271452546
 22
-0.0080876246
 32
0.0
 13
0.0260853165
 23
-0.0110380669
 33
0.0
 40
0.0
 40
0.0
 40
0.0
 40
0.0
 40
1.0
 40
1.0
 40
1.0
 40
1.0
 10
7.5469591871
 20
4.0828566431
 30
0.0
 10
7.5560076053
 20
4.0801607683
 30
0.0
 10
7.5649065907
 20
4.0769630762
 30
0.0
 10
7.5736016962
 20
4.0732837205
 30
0.0
 11
7.5469591871
 21
4.0828566431
 31
0.0
 11
7.5736016962
 21
4.0732837205
 31
0.0
  0
SPLINE
  5
4E7
100
AcDbEntity
  8
0
100
AcDbSpline
 62
7
  6
CONTINUOUS
 70
0
 71
3
 72
13
 73
9
 74
7
 42
0.0000001
 43
0.0000001
 44
0.0000000001
 12
0.2273062717
 22
-0.0961852172
 32
0.0
 13
0.0
 23
-0.246340754
 33
0.0
 40
0.0
 40
0.0
 40
0.0
 40
0.0
 40
0.0343430616
 40
0.2536094477
 40
0.4627139998
 40
0.6566278496
 40
0.8345818487
 40
1.0
 40
1.0
 40
1.0
 40
1.0
 10
7.5736016962
 20
4.0732837205
 30
0.0
 10
7.5762038273
 20
4.0721826223
 30
0.0
 10
7.5952846628
 20
4.0637329114
 30
0.0
 10
7.6281360259
 20
4.0440781094
 30
0.0
 10
7.6657993478
 20
4.0089808346
 30
0.0
 10
7.6932084199
 20
3.9694631756
 30
0.0
 10
7.7097732628
 20
3.9281627777
 30
0.0
 10
7.713644896
 20
3.89986701
 30
0.0
 10
7.713644896
 20
3.8862839326
 30
0.0
 11
7.5736016962
 21
4.0732837205
 31
0.0
 11
7.5813518524
 21
4.0698515541
 31
0.0
 11
7.6276820756
 21
4.0420837799
 31
0.0
 11
7.6652707692
 21
4.0068634668
 31
0.0
 11
7.6923083604
 21
3.9674828251
 31
0.0
 11
7.7083562591
 21
3.9266885145
 31
0.0
 11
7.713644896
 21
3.8862839326
 31
0.0
  0
SPLINE
  5
4E8
100
AcDbEntity
  8
0
100
AcDbSpline
 62
7
  6
CONTINUOUS
 70
0
 71
3
 72
21
 73
17
 74
15
 42
0.0000001
 43
0.0000001
 44
0.0000000001
 12
0.0
 22
-0.654929587
 32
0.0
 13
-0.0
 23
0.654929587
 33
0.0
 40
0.0
 40
0.0
 40
0.0
 40
0.0
 40
0.0600056799
 40
0.1209125683
 40
0.1858457554
 40
0.2569300803
 40
0.3342615517
 40
0.4160717187
 40
0.5000027244
 40
0.5839333477
 40
0.6657433119
 40
0.7430743134
 40
0.8141580948
 40
0.8790914259
 40
0.939996578
 40
1.0
 40
1.0
 40
1.0
 40
1.0
 10
7.713644896
 20
3.8862839326
 30
0.0
 10
7.713644896
 20
3.8731841009
 30
0.0
 10
7.7101286593
 20
3.8466258394
 30
0.0
 10
7.6934971319
 20
3.8090389327
 30
0.0
 10
7.6655676261
 20
3.7756683325
 30
0.0
 10
7.6273444017
 20
3.7483187161
 30
0.0
 10
7.5809075579
 20
3.7282720159
 30
0.0
 10
7.5289957891
 20
3.7161605088
 30
0.0
 10
7.4744359199
 20
3.7121262484
 30
0.0
 10
7.4198761337
 20
3.7161610183
 30
0.0
 10
7.3679647076
 20
3.7282729955
 30
0.0
 10
7.3215283388
 20
3.7483201378
 30
0.0
 10
7.2833056389
 20
3.7756701661
 30
0.0
 10
7.2553769692
 20
3.8090408735
 30
0.0
 10
7.2387463591
 20
3.8466272235
 30
0.0
 10
7.2352303771
 20
3.8731845938
 30
0.0
 10
7.2352303771
 20
3.8862839326
 30
0.0
 11
7.713644896
 21
3.8862839326
 31
0.0
 11
7.7083558986
 21
3.8473419652
 31
0.0
 11
7.6923145872
 21
3.8108198301
 31
0.0
 11
7.6652828754
 21
3.7779899073
 31
0.0
 11
7.6276961299
 21
3.7505194546
 31
0.0
 11
7.5813651079
 21
3.7300616579
 31
0.0
 11
7.5292483709
 21
3.7176257708
 31
0.0
 11
7.4744358428
 21
3.71348251
 31
0.0
 11
7.4196236042
 21
3.7176262778
 31
0.0
 11
7.367507124
 21
3.730062669
 31
0.0
 11
7.3211766266
 21
3.7505208917
 31
0.0
 11
7.2835905426
 21
3.7779916463
 31
0.0
 11
7.2565593006
 21
3.8108220781
 31
0.0
 11
7.2405189721
 21
3.8473434028
 31
0.0
 11
7.2352303771
 21
3.8862839326
 31
0.0
  0
SPLINE
  5
4E9
100
AcDbEntity
  8
0
100
AcDbSpline
 62
7
  6
CONTINUOUS
 70
0
 71
3
 72
21
 73
17
 74
15
 42
0.0000001
 43
0.0000001
 44
0.0000000001
 12
0.0
 22
-0.6414007264
 32
0.0
 13
0.0
 23
0.6414007264
 33
0.0
 40
0.0
 40
0.0
 40
0.0
 40
0.0
 40
0.0663530737
 40
0.1337610308
 40
0.2030292793
 40
0.2745495158
 40
0.3482529636
 40
0.4236615558
 40
0.5
 40
0.5763384442
 40
0.6517470364
 40
0.7254504842
 40
0.7969707207
 40
0.8662389692
 40
0.9336469263
 40
1.0
 40
1.0
 40
1.0
 40
1.0
 10
7.2554376366
 20
3.9037839326
 30
0.0
 10
7.2554376366
 20
3.8895976294
 30
0.0
 10
7.2592008087
 20
3.860866172
 30
0.0
 10
7.2757522684
 20
3.8202659453
 30
0.0
 10
7.3022742049
 20
3.7839917042
 30
0.0
 10
7.3373344962
 20
3.7538524877
 30
0.0
 10
7.3791345995
 20
3.7312620443
 30
0.0
 10
7.4255949995
 20
3.7172750333
 30
0.0
 10
7.4744376366
 20
3.712539384
 30
0.0
 10
7.5232802736
 20
3.7172750333
 30
0.0
 10
7.5697406736
 20
3.7312620443
 30
0.0
 10
7.6115407769
 20
3.7538524877
 30
0.0
 10
7.6466010682
 20
3.7839917042
 30
0.0
 10
7.6731230047
 20
3.8202659453
 30
0.0
 10
7.6896744644
 20
3.860866172
 30
0.0
 10
7.6934376366
 20
3.8895976294
 30
0.0
 10
7.6934376366
 20
3.9037839326
 30
0.0
 11
7.2554376366
 21
3.9037839326
 31
0.0
 11
7.2609284238
 21
3.8615807094
 31
0.0
 11
7.2771254545
 21
3.8214937321
 31
0.0
 11
7.3032165419
 21
3.785533129
 31
0.0
 11
7.3378933699
 21
3.755502115
 31
0.0
 11
7.3794170977
 21
3.7329065704
 31
0.0
 11
7.425705552
 21
3.7188795304
 31
0.0
 11
7.4744376366
 21
3.7141243692
 31
0.0
 11
7.5231697211
 21
3.7188795304
 31
0.0
 11
7.5694581754
 21
3.7329065704
 31
0.0
 11
7.6109819032
 21
3.755502115
 31
0.0
 11
7.6456587312
 21
3.785533129
 31
0.0
 11
7.6717498186
 21
3.8214937321
 31
0.0
 11
7.6879468493
 21
3.8615807094
 31
0.0
 11
7.6934376366
 21
3.9037839326
 31
0.0
  0
SPLINE
  5
4EA
100
AcDbEntity
  8
0
100
AcDbSpline
 62
7
  6
CONTINUOUS
 70
0
 71
3
 72
11
 73
7
 74
5
 42
0.0000001
 43
0.0000001
 44
0.0000000001
 12
-0.0175560752
 22
-0.0374133727
 32
0.0
 13
-0.0249978794
 23
-0.0329102151
 33
0.0
 40
0.0
 40
0.0
 40
0.0
 40
0.0
 40
0.2471178592
 40
0.4942533703
 40
0.7446998055
 40
1.0
 40
1.0
 40
1.0
 40
1.0
 10
5.10528256
 20
3.8336082311
 30
0.0
 10
5.1038364201
 20
3.8305263936
 30
0.0
 10
5.1007177242
 20
3.8244667518
 30
0.0
 10
5.0954597333
 20
3.8156517752
 30
0.0
 10
5.0896867163
 20
3.8070306812
 30
0.0
 10
5.0855649577
 20
3.8014112198
 30
0.0
 10
5.0834376366
 20
3.7986105584
 30
0.0
 11
5.10528256
 21
3.8336082311
 31
0.0
 11
5.1006250909
 21
3.8245192615
 31
0.0
 11
5.0954085622
 21
3.8157383664
 31
0.0
 11
5.0896641611
 21
3.8071283745
 31
0.0
 11
5.0834376366
 21
3.7986105584
 31
0.0
  0
SPLINE
  5
4EB
100
AcDbEntity
  8
0
100
AcDbSpline
 62
7
  6
CONTINUOUS
 70
0
 71
3
 72
10
 73
6
 74
4
 42
0.0000001
 43
0.0000001
 44
0.0000000001
 12
0.0259360811
 22
-0.0405744941
 32
0.0
 13
0.0172721176
 23
-0.0449515721
 33
0.0
 40
0.0
 40
0.0
 40
0.0
 40
0.0
 40
0.3341210977
 40
0.6676478554
 40
1.0
 40
1.0
 40
1.0
 40
1.0
 10
5.0834376366
 20
3.9817948866
 30
0.0
 10
5.0863262339
 20
3.9772759551
 30
0.0
 10
5.0918223647
 20
3.9680657688
 30
0.0
 10
5.0991523253
 20
3.9537735411
 30
0.0
 10
5.1033690849
 20
3.9439395512
 30
0.0
 10
5.10528256
 20
3.938959634
 30
0.0
 11
5.0834376366
 21
3.9817948866
 31
0.0
 11
5.0916764146
 21
3.9679744248
 31
0.0
 11
5.0989943223
 21
3.9536771991
 31
0.0
 11
5.10528256
 21
3.938959634
 31
0.0
  0
SPLINE
  5
4EC
100
AcDbEntity
  8
0
100
AcDbSpline
 62
7
  6
CONTINUOUS
 70
0
 71
3
 72
15
 73
11
 74
9
 42
0.0000001
 43
0.0000001
 44
0.0000000001
 12
0.0
 22
0.334589572
 32
0.0
 13
-0.3346132825
 23
-0.0184343932
 33
0.0
 40
0.0
 40
0.0
 40
0.0
 40
0.0
 40
0.1271973583
 40
0.2564169046
 40
0.3892025877
 40
0.5263052815
 40
0.6675931425
 40
0.8121497272
 40
0.9584888175
 40
1.0
 40
1.0
 40
1.0
 40
1.0
 10
6.2524376366
 20
4.5862839326
 30
0.0
 10
6.2524376366
 20
4.6004702358
 30
0.0
 10
6.2486744644
 20
4.6292016931
 30
0.0
 10
6.2321230047
 20
4.6698019198
 30
0.0
 10
6.2056010682
 20
4.706076161
 30
0.0
 10
6.1705407769
 20
4.7362153775
 30
0.0
 10
6.1287406736
 20
4.7588058209
 30
0.0
 10
6.0822802736
 20
4.7727928319
 30
0.0
 10
6.0451477563
 20
4.7763930998
 30
0.0
 10
6.0241633712
 20
4.7758159595
 30
0.0
 10
6.0195333068
 20
4.7755608816
 30
0.0
 11
6.2524376366
 21
4.5862839326
 31
0.0
 11
6.2469468493
 21
4.6284871558
 31
0.0
 11
6.2307498186
 21
4.6685741331
 31
0.0
 11
6.2046587312
 21
4.7045347362
 31
0.0
 11
6.1699819032
 21
4.7345657502
 31
0.0
 11
6.1284581754
 21
4.7571612947
 31
0.0
 11
6.0821697211
 21
4.7711883348
 31
0.0
 11
6.0334376366
 21
4.775943496
 31
0.0
 11
6.0195333068
 21
4.7755608816
 31
0.0
  0
SPLINE
  5
4ED
100
AcDbEntity
  8
0
100
AcDbSpline
 62
7
  6
CONTINUOUS
 70
0
 71
3
 72
9
 73
5
 74
3
 42
0.0000001
 43
0.0000001
 44
0.0000000001
 12
-0.0559042859
 22
-0.0030798586
 32
0.0
 13
-0.0538135044
 23
-0.0154712916
 33
0.0
 40
0.0
 40
0.0
 40
0.0
 40
0.0
 40
0.6274440279
 40
1.0
 40
1.0
 40
1.0
 40
1.0
 10
6.0195333068
 20
4.7755608816
 30
0.0
 10
6.0078410367
 20
4.7749167354
 30
0.0
 10
5.9892781147
 20
4.7725938343
 30
0.0
 10
5.9711188251
 20
4.7682047695
 30
0.0
 10
5.9644359776
 20
4.7662834621
 30
0.0
 11
6.0195333068
 21
4.7755608816
 31
0.0
 11
5.984705552
 21
4.7711883348
 31
0.0
 11
5.9644359776
 21
4.7662834621
 31
0.0
  0
SPLINE
  5
4EE
100
AcDbEntity
  8
0
100
AcDbSpline
 62
7
  6
CONTINUOUS
 70
0
 71
3
 72
13
 73
9
 74
7
 42
0.0000001
 43
0.0000001
 44
0.0000000001
 12
-0.2415440544
 22
-0.0694435076
 32
0.0
 13
0.0
 23
-0.2509108298
 33
0.0
 40
0.0
 40
0.0
 40
0.0
 40
0.0
 40
0.1097645967
 40
0.2981719483
 40
0.4809983798
 40
0.6580680778
 40
0.8303823327
 40
1.0
 40
1.0
 40
1.0
 40
1.0
 10
5.9644359776
 20
4.7662834621
 30
0.0
 10
5.9555983157
 20
4.7637426492
 30
0.0
 10
5.9319830472
 20
4.7554812767
 30
0.0
 10
5.8963344962
 20
4.7362153775
 30
0.0
 10
5.8612742049
 20
4.706076161
 30
0.0
 10
5.8347522684
 20
4.6698019198
 30
0.0
 10
5.8182008087
 20
4.6292016931
 30
0.0
 10
5.8144376366
 20
4.6004702358
 30
0.0
 10
5.8144376366
 20
4.5862839326
 30
0.0
 11
5.9644359776
 21
4.7662834621
 31
0.0
 11
5.9384170977
 21
4.7571612947
 31
0.0
 11
5.8968933699
 21
4.7345657502
 31
0.0
 11
5.8622165419
 21
4.7045347362
 31
0.0
 11
5.8361254545
 21
4.6685741331
 31
0.0
 11
5.8199284238
 21
4.6284871558
 31
0.0
 11
5.8144376366
 21
4.5862839326
 31
0.0
  0
SPLINE
  5
4EF
100
AcDbEntity
  8
0
100
AcDbSpline
 62
7
  6
CONTINUOUS
 70
0
 71
3
 72
21
 73
17
 74
15
 42
0.0000001
 43
0.0000001
 44
0.0000000001
 12
0.0
 22
0.6414007264
 32
0.0
 13
0.0
 23
-0.6414007264
 33
0.0
 40
0.0
 40
0.0
 40
0.0
 40
0.0
 40
0.0663530737
 40
0.1337610308
 40
0.2030292793
 40
0.2745495158
 40
0.3482529636
 40
0.4236615558
 40
0.5
 40
0.5763384442
 40
0.6517470364
 40
0.7254504842
 40
0.7969707207
 40
0.8662389692
 40
0.9336469263
 40
1.0
 40
1.0
 40
1.0
 40
1.0
 10
7.6934376366
 20
4.5862839326
 30
0.0
 10
7.6934376366
 20
4.6004702358
 30
0.0
 10
7.6896744644
 20
4.6292016931
 30
0.0
 10
7.6731230047
 20
4.6698019198
 30
0.0
 10
7.6466010682
 20
4.706076161
 30
0.0
 10
7.6115407769
 20
4.7362153775
 30
0.0
 10
7.5697406736
 20
4.7588058209
 30
0.0
 10
7.5232802736
 20
4.7727928319
 30
0.0
 10
7.4744376366
 20
4.7775284812
 30
0.0
 10
7.4255949995
 20
4.7727928319
 30
0.0
 10
7.3791345995
 20
4.7588058209
 30
0.0
 10
7.3373344962
 20
4.7362153775
 30
0.0
 10
7.3022742049
 20
4.706076161
 30
0.0
 10
7.2757522684
 20
4.6698019198
 30
0.0
 10
7.2592008087
 20
4.6292016931
 30
0.0
 10
7.2554376366
 20
4.6004702358
 30
0.0
 10
7.2554376366
 20
4.5862839326
 30
0.0
 11
7.6934376366
 21
4.5862839326
 31
0.0
 11
7.6879468493
 21
4.6284871558
 31
0.0
 11
7.6717498186
 21
4.6685741331
 31
0.0
 11
7.6456587312
 21
4.7045347362
 31
0.0
 11
7.6109819032
 21
4.7345657502
 31
0.0
 11
7.5694581754
 21
4.7571612947
 31
0.0
 11
7.5231697211
 21
4.7711883348
 31
0.0
 11
7.4744376366
 21
4.775943496
 31
0.0
 11
7.425705552
 21
4.7711883348
 31
0.0
 11
7.3794170977
 21
4.7571612947
 31
0.0
 11
7.3378933699
 21
4.7345657502
 31
0.0
 11
7.3032165419
 21
4.7045347362
 31
0.0
 11
7.2771254545
 21
4.6685741331
 31
0.0
 11
7.2609284238
 21
4.6284871558
 31
0.0
 11
7.2554376366
 21
4.5862839326
 31
0.0
  0
SPLINE
  5
4F0
100
AcDbEntity
  8
0
100
AcDbSpline
 62
7
  6
CONTINUOUS
 70
0
 71
3
 72
21
 73
17
 74
15
 42
0.0000001
 43
0.0000001
 44
0.0000000001
 12
0.0
 22
0.6549295873
 32
0.0
 13
0.0
 23
-0.6549295873
 33
0.0
 40
0.0
 40
0.0
 40
0.0
 40
0.0
 40
0.0600055834
 40
0.1209123817
 40
0.1858456443
 40
0.256929975
 40
0.3342614566
 40
0.416071655
 40
0.5000027174
 40
0.5839333856
 40
0.6657433748
 40
0.7430743864
 40
0.8141581758
 40
0.8790915825
 40
0.9399966575
 40
1.0
 40
1.0
 40
1.0
 40
1.0
 10
7.2352303771
 20
4.6037839326
 30
0.0
 10
7.2352303771
 20
4.6168837432
 30
0.0
 10
7.2387466025
 20
4.6434419631
 30
0.0
 10
7.2553780939
 20
4.6810288572
 30
0.0
 10
7.2833075795
 20
4.7143994745
 30
0.0
 10
7.3215308109
 20
4.7417491162
 30
0.0
 10
7.3679676595
 20
4.7617958323
 30
0.0
 10
7.4198794477
 20
4.7739073525
 30
0.0
 10
7.474439346
 20
4.7779416184
 30
0.0
 10
7.52899916
 20
4.773906845
 30
0.0
 10
7.5809106022
 20
4.7617948587
 30
0.0
 10
7.6273469766
 20
4.7417477046
 30
0.0
 10
7.6655696866
 20
4.7143976547
 30
0.0
 10
7.6934983424
 20
4.6810269313
 30
0.0
 10
7.7101289235
 20
4.6434405895
 30
0.0
 10
7.713644896
 20
4.6168832541
 30
0.0
 10
7.713644896
 20
4.6037839326
 30
0.0
 11
7.2352303771
 21
4.6037839326
 31
0.0
 11
7.2405193573
 21
4.6427258386
 31
0.0
 11
7.2565606212
 21
4.6792479301
 31
0.0
 11
7.2835923442
 21
4.7120779077
 31
0.0
 11
7.321179083
 21
4.7395483762
 31
0.0
 11
7.3675101058
 21
4.7600061875
 31
0.0
 11
7.4196268608
 21
4.7724420881
 31
0.0
 11
7.4744394257
 21
4.7765853552
 31
0.0
 11
7.5292516935
 21
4.7724415836
 31
0.0
 11
7.5813681884
 21
4.7600051832
 31
0.0
 11
7.6276986883
 21
4.7395469496
 31
0.0
 11
7.6652847695
 21
4.7120761823
 31
0.0
 11
7.6923160268
 21
4.679245699
 31
0.0
 11
7.7083563152
 21
4.6427244118
 31
0.0
 11
7.713644896
 21
4.6037839326
 31
0.0
  0
SPLINE
  5
4F1
100
AcDbEntity
  8
0
100
AcDbSpline
 62
7
  6
CONTINUOUS
 70
0
 71
3
 72
13
 73
9
 74
7
 42
0.0000001
 43
0.0000001
 44
0.0000000001
 12
0.0
 22
-0.2463431901
 32
0.0
 13
-0.2273094433
 23
-0.0961839752
 33
0.0
 40
0.0
 40
0.0
 40
0.0
 40
0.0
 40
0.1654311241
 40
0.3433902828
 40
0.5373011343
 40
0.7464050787
 40
0.965670111
 40
1.0
 40
1.0
 40
1.0
 40
1.0
 10
7.713644896
 20
4.6037839326
 30
0.0
 10
7.713644896
 20
4.5901996556
 30
0.0
 10
7.7097726694
 20
4.5619020988
 30
0.0
 10
7.6932061905
 20
4.5206005204
 30
0.0
 10
7.6657958518
 20
4.4810830271
 30
0.0
 10
7.6281317004
 20
4.4459864954
 30
0.0
 10
7.5952806601
 20
4.4263328537
 30
0.0
 10
7.5762005973
 20
4.4178838462
 30
0.0
 10
7.5735994279
 20
4.4167831845
 30
0.0
 11
7.713644896
 21
4.6037839326
 31
0.0
 11
7.7083553465
 21
4.5633758407
 31
0.0
 11
7.692305852
 21
4.5225803262
 31
0.0
 11
7.6652674669
 21
4.4832005526
 31
0.0
 11
7.6276777442
 21
4.4479808117
 31
0.0
 11
7.5813467426
 21
4.4202139458
 31
0.0
 11
7.5735994279
 21
4.4167831845
 31
0.0
  0
SPLINE
  5
4F2
100
AcDbEntity
  8
0
100
AcDbSpline
 62
7
  6
CONTINUOUS
 70
0
 71
3
 72
8
 73
4
 74
2
 42
0.0000001
 43
0.0000001
 44
0.0000000001
 12
-0.0260884723
 22
-0.0110391057
 32
0.0
 13
-0.0271486105
 23
-0.0080879558
 33
0.0
 40
0.0
 40
0.0
 40
0.0
 40
0.0
 40
1.0
 40
1.0
 40
1.0
 40
1.0
 10
7.5735994279
 20
4.4167831845
 30
0.0
 10
7.5649032705
 20
4.4131034826
 30
0.0
 10
7.5560031901
 20
4.4099055591
 30
0.0
 10
7.5469536533
 20
4.4072095738
 30
0.0
 11
7.5735994279
 21
4.4167831845
 31
0.0
 11
7.5469536533
 21
4.4072095738
 31
0.0
  0
SPLINE
  5
4F3
100
AcDbEntity
  8
0
100
AcDbSpline
 62
7
  6
CONTINUOUS
 70
0
 71
3
 72
9
 73
5
 74
3
 42
0.0000001
 43
0.0000001
 44
0.0000000001
 12
-0.0205218799
 22
-0.0061137588
 32
0.0
 13
-0.0209635859
 23
-0.0043671252
 33
0.0
 40
0.0
 40
0.0
 40
0.0
 40
0.0
 40
0.8549374449
 40
1.0
 40
1.0
 40
1.0
 40
1.0
 10
7.5469536533
 20
4.4072095738
 30
0.0
 10
7.5411053454
 20
4.40546728
 30
0.0
 10
7.5341917078
 20
4.4036745622
 30
0.0
 10
7.5272127839
 20
4.4021760956
 30
0.0
 10
7.5261991068
 20
4.4019649268
 30
0.0
 11
7.5469536533
 21
4.4072095738
 31
0.0
 11
7.5292361711
 21
4.4026170304
 31
0.0
 11
7.5261991068
 21
4.4019649268
 31
0.0
  0
SPLINE
  5
4F4
100
AcDbEntity
  8
0
100
AcDbSpline
 62
7
  6
CONTINUOUS
 70
0
 71
3
 72
8
 73
4
 74
2
 42
0.0000001
 43
0.0000001
 44
0.0000000001
 12
-0.0510325424
 22
-0.0106310773
 32
0.0
 13
-0.0521279043
 23
0.000000271
 33
0.0
 40
0.0
 40
0.0
 40
0.0
 40
0.0
 40
1.0
 40
1.0
 40
1.0
 40
1.0
 10
7.5261991068
 20
4.4019649268
 30
0.0
 10
7.5091882593
 20
4.3984212344
 30
0.0
 10
7.4918122819
 20
4.3966242788
 30
0.0
 10
7.4744363138
 20
4.3966243692
 30
0.0
 11
7.5261991068
 21
4.4019649268
 31
0.0
 11
7.4744363138
 21
4.3966243692
 31
0.0
  0
SPLINE
  5
4F5
100
AcDbEntity
  8
0
100
AcDbSpline
 62
7
  6
CONTINUOUS
 70
0
 71
3
 72
8
 73
4
 74
2
 42
0.0000001
 43
0.0000001
 44
0.0000000001
 12
-0.0521280361
 22
0.000000271
 32
0.0
 13
-0.0510325576
 23
0.0106316603
 33
0.0
 40
0.0
 40
0.0
 40
0.0
 40
0.0
 40
1.0
 40
1.0
 40
1.0
 40
1.0
 10
7.4744363138
 20
4.3966243692
 30
0.0
 10
7.4570603017
 20
4.3966244595
 30
0.0
 10
7.439684299
 20
4.3984216071
 30
0.0
 10
7.4226734464
 20
4.4019654939
 30
0.0
 11
7.4744363138
 21
4.3966243692
 31
0.0
 11
7.4226734464
 21
4.4019654939
 31
0.0
  0
SPLINE
  5
4F6
100
AcDbEntity
  8
0
100
AcDbSpline
 62
7
  6
CONTINUOUS
 70
0
 71
3
 72
9
 73
5
 74
3
 42
0.0000001
 43
0.0000001
 44
0.0000000001
 12
-0.0209664712
 22
0.0043679645
 32
0.0
 13
-0.0205246124
 23
0.0061150784
 33
0.0
 40
0.0
 40
0.0
 40
0.0
 40
0.0
 40
0.1451606872
 40
1.0
 40
1.0
 40
1.0
 40
1.0
 10
7.4226734464
 20
4.4019654939
 30
0.0
 10
7.421658944
 20
4.4021768461
 30
0.0
 10
7.4146790672
 20
4.4036756332
 30
0.0
 10
7.4077645012
 20
4.4054687522
 30
0.0
 10
7.401916086
 20
4.407211222
 30
0.0
 11
7.4226734464
 21
4.4019654939
 31
0.0
 11
7.4196339128
 21
4.4026181781
 31
0.0
 11
7.401916086
 21
4.407211222
 31
0.0
  0
SPLINE
  5
4F7
100
AcDbEntity
  8
0
100
AcDbSpline
 62
7
  6
CONTINUOUS
 70
0
 71
3
 72
8
 73
4
 74
2
 42
0.0000001
 43
0.0000001
 44
0.0000000001
 12
-0.0271452546
 22
0.0080876246
 32
0.0
 13
-0.0260853165
 23
0.0110380669
 33
0.0
 40
0.0
 40
0.0
 40
0.0
 40
0.0
 40
1.0
 40
1.0
 40
1.0
 40
1.0
 10
7.401916086
 20
4.407211222
 30
0.0
 10
7.3928676678
 20
4.4099070969
 30
0.0
 10
7.3839686825
 20
4.413104789
 30
0.0
 10
7.3752735769
 20
4.4167841446
 30
0.0
 11
7.401916086
 21
4.407211222
 31
0.0
 11
7.3752735769
 21
4.4167841446
 31
0.0
  0
SPLINE
  5
4F8
100
AcDbEntity
  8
0
100
AcDbSpline
 62
7
  6
CONTINUOUS
 70
0
 71
3
 72
13
 73
9
 74
7
 42
0.0000001
 43
0.0000001
 44
0.0000000001
 12
-0.2273062717
 22
0.0961852172
 32
0.0
 13
0.0
 23
0.246340754
 33
0.0
 40
0.0
 40
0.0
 40
0.0
 40
0.0
 40
0.0343430616
 40
0.2536094477
 40
0.4627139998
 40
0.6566278496
 40
0.8345818487
 40
1.0
 40
1.0
 40
1.0
 40
1.0
 10
7.3752735769
 20
4.4167841446
 30
0.0
 10
7.3726714459
 20
4.4178852429
 30
0.0
 10
7.3535906103
 20
4.4263349538
 30
0.0
 10
7.3207392472
 20
4.4459897558
 30
0.0
 10
7.2830759254
 20
4.4810870306
 30
0.0
 10
7.2556668532
 20
4.5206046896
 30
0.0
 10
7.2391020103
 20
4.5619050875
 30
0.0
 10
7.2352303771
 20
4.5902008552
 30
0.0
 10
7.2352303771
 20
4.6037839326
 30
0.0
 11
7.3752735769
 21
4.4167841446
 31
0.0
 11
7.3675234207
 21
4.4202163111
 31
0.0
 11
7.3211931975
 21
4.4479840853
 31
0.0
 11
7.2836045039
 21
4.4832043984
 31
0.0
 11
7.2565669128
 21
4.5225850401
 31
0.0
 11
7.240519014
 21
4.5633793507
 31
0.0
 11
7.2352303771
 21
4.6037839326
 31
0.0
  0
SPLINE
  5
4F9
100
AcDbEntity
  8
0
100
AcDbSpline
 62
7
  6
CONTINUOUS
 70
0
 71
3
 72
9
 73
5
 74
3
 42
0.0000001
 43
0.0000001
 44
0.0000000001
 12
0.0081077026
 22
-0.0344030074
 32
0.0
 13
-0.0000017793
 23
-0.0353732752
 33
0.0
 40
0.0
 40
0.0
 40
0.0
 40
0.0
 40
0.6656697856
 40
1.0
 40
1.0
 40
1.0
 40
1.0
 10
5.0984467761
 20
4.6398263025
 30
0.0
 10
5.1002457937
 20
4.6321926217
 30
0.0
 10
5.1020140095
 20
4.6204844009
 30
0.0
 10
5.1024382569
 20
4.608693597
 30
0.0
 10
5.1024380586
 20
4.6047514788
 30
0.0
 11
5.0984467761
 21
4.6398263025
 31
0.0
 11
5.1020043551
 21
4.6165684101
 31
0.0
 11
5.1024380586
 21
4.6047514788
 31
0.0
  0
SPLINE
  5
4FA
100
AcDbEntity
  8
0
100
AcDbSpline
 62
7
  6
CONTINUOUS
 70
0
 71
3
 72
8
 73
4
 74
2
 42
0.0000001
 43
0.0000001
 44
0.0000000001
 12
-0.0128082532
 22
0.0002406424
 32
0.0
 13
-0.01281952
 23
-0.0004100987
 33
0.0
 40
0.0
 40
0.0
 40
0.0
 40
0.0
 40
1.0
 40
1.0
 40
1.0
 40
1.0
 10
4.8786876366
 20
4.0933988796
 30
0.0
 10
4.8744182188
 20
4.0934790937
 30
0.0
 10
4.8701436495
 20
4.0934508638
 30
0.0
 10
4.8658704762
 20
4.0933141642
 30
0.0
 11
4.8786876366
 21
4.0933988796
 31
0.0
 11
4.8658704762
 21
4.0933141642
 31
0.0
  0
SPLINE
  5
4FB
100
AcDbEntity
  8
0
100
AcDbSpline
 62
7
  6
CONTINUOUS
 70
0
 71
3
 72
21
 73
17
 74
15
 42
0.0000001
 43
0.0000001
 44
0.0000000001
 12
-0.6379191997
 22
0.0119852743
 32
0.0
 13
0.638480144
 23
-0.0204407779
 33
0.0
 40
0.0
 40
0.0
 40
0.0
 40
0.0
 40
0.0778363965
 40
0.1547879798
 40
0.2300252548
 40
0.3030245389
 40
0.373691321
 40
0.4424192187
 40
0.5100439437
 40
0.5776686687
 40
0.6463965665
 40
0.7170633485
 40
0.7900626326
 40
0.8652999076
 40
0.9422514909
 40
1.0
 40
1.0
 40
1.0
 40
1.0
 10
4.8786876366
 20
4.7758988796
 30
0.0
 10
4.862136526
 20
4.7762098431
 30
0.0
 10
4.8290684905
 20
4.7735872478
 30
0.0
 10
4.7817140077
 20
4.7601032545
 30
0.0
 10
4.7389699583
 20
4.7377181111
 30
0.0
 10
4.7030430754
 20
4.7074995882
 30
0.0
 10
4.675818377
 20
4.6709111632
 30
0.0
 10
4.6588079822
 20
4.6297852919
 30
0.0
 10
4.6530181204
 20
4.5862839326
 30
0.0
 10
4.6588079822
 20
4.5427825733
 30
0.0
 10
4.675818377
 20
4.501656702
 30
0.0
 10
4.7030430754
 20
4.465068277
 30
0.0
 10
4.7389699583
 20
4.4348497541
 30
0.0
 10
4.7817140077
 20
4.4124646107
 30
0.0
 10
4.8249330684
 20
4.4001581617
 30
0.0
 10
4.8535738494
 20
4.3971473742
 30
0.0
 10
4.8658642749
 20
4.3967538994
 30
0.0
 11
4.8786876366
 21
4.7758988796
 31
0.0
 11
4.8291835062
 21
4.7719410113
 31
0.0
 11
4.7819856447
 21
4.7584157815
 31
0.0
 11
4.7395262709
 21
4.7360201626
 31
0.0
 11
4.7039934272
 21
4.7059082373
 31
0.0
 11
4.6772182262
 21
4.6696317291
 31
0.0
 11
4.6605804959
 21
4.6290600697
 31
0.0
 11
4.6549376366
 21
4.5862839326
 31
0.0
 11
4.6605804959
 21
4.5435077955
 31
0.0
 11
4.6772182262
 21
4.5029361361
 31
0.0
 11
4.7039934272
 21
4.4666596279
 31
0.0
 11
4.7395262709
 21
4.4365477026
 31
0.0
 11
4.7819856447
 21
4.4141520837
 31
0.0
 11
4.8291835062
 21
4.4006268539
 31
0.0
 11
4.8658642749
 21
4.3967538994
 31
0.0
  0
ENDSEC
  0
SECTION
  2
OBJECTS
  0
DICTIONARY
  5
C
100
AcDbDictionary
280
0
281
1
  3
ACAD_GROUP
350
D
  3
ACAD_MLINESTYLE
350
17
  3
ACAD_LAYOUT
350
1A
  3
ACAD_PLOTSETTINGS
350
19
  3
ACAD_PLOTSTYLENAME
350
E
  0
DICTIONARY
  5
D
102
{ACAD_REACTORS
330
C
102
}
100
AcDbDictionary
280
0
281
1
  0
ACDBDICTIONARYWDFLT
  5
E
102
{ACAD_REACTORS
330
C
102
}
100
AcDbDictionary
281
1
  3
Normal
350
F
100
AcDbDictionaryWithDefault
340
F
  0
DICTIONARY
  5
17
102
{ACAD_REACTORS
330
C
102
}
100
AcDbDictionary
280
0
281
1
  3
Standard
350
18
  0
DICTIONARY
  5
19
102
{ACAD_REACTORS
330
C
102
}
100
AcDbDictionary
281
1
  0
DICTIONARY
  5
1A
102
{ACAD_REACTORS
330
C
102
}
100
AcDbDictionary
281
1
  3
Layout1
350
1E
  3
Model
350
22
  0
ACDBPLACEHOLDER
  5
F
102
{ACAD_REACTORS
330
E
102
}
  0
MLINESTYLE
  5
18
102
{ACAD_REACTORS
330
17
102
}
100
AcDbMlineStyle
  2
STANDARD
 70
0
  3

 62
256
 51
90.0
 52
90.0
 71
2
 49
0.5
 62
256
  6
BYLAYER
 49
-0.5
 62
256
  6
BYLAYER
  0
LAYOUT
  5
1E
102
{ACAD_REACTORS
330
1A
102
}
100
AcDbPlotSettings
  1

  2

  4

  6

 40
0.0
 41
0.0
 42
0.0
 43
0.0
 44
0.0
 45
0.0
 46
0.0
 47
0.0
 48
0.0
 49
0.0
140
0.0
141
0.0
142
1.0
143
1.0
 70
0
 72
0
 73
0
 74
0
  7

 75
0
147
1.0
148
0.0
149
0.0
100
AcDbLayout
  1
Layout1
 70
0
 71
0
 10
0.0
 20
0.0
 11
0.0
 21
0.0
 12
0.0
 22
0.0
 32
0.0
 14
0.0
 24
0.0
 34
0.0
 15
0.0
 25
0.0
 35
0.0
146
0.0
 13
0.0
 23
0.0
 33
0.0
 16
0.0
 26
0.0
 36
0.0
 17
0.0
 27
0.0
 37
0.0
 76
0
330
1B
331
0
345
0
346
0
  0
LAYOUT
  5
22
102
{ACAD_REACTORS
330
1A
102
}
100
AcDbPlotSettings
  1

  2

  4

  6

 40
0.0
 41
0.0
 42
0.0
 43
0.0
 44
0.0
 45
0.0
 46
0.0
 47
0.0
 48
0.0
 49
0.0
140
0.0
141
0.0
142
1.0
143
1.0
 70
0
 72
0
 73
0
 74
0
  7

 75
0
147
1.0
148
0.0
149
0.0
100
AcDbLayout
  1
Model
 70
0
 71
0
 10
0.0
 20
0.0
 11
0.0
 21
0.0
 12
0.0
 22
0.0
 32
0.0
 14
0.0
 24
0.0
 34
0.0
 15
0.0
 25
0.0
 35
0.0
146
0.0
 13
0.0
 23
0.0
 33
0.0
 16
0.0
 26
0.0
 36
0.0
 17
0.0
 27
0.0
 37
0.0
 76
0
330
1F
331
0
345
0
346
0
  0
ENDSEC
  0
EOF
