999
DXF file: LHDA-XFN.dxf
999
Pro/ENGINEER 2006240 by Parametric Technology Corporation
  0
SECTION
  2
HEADER
  9
$ACADVER
  1
AC1015
  9
$DWGCODEPAGE
  3
ANSI_1252
  9
$EXTMAX
 10
11.6929133858
 20
8.2677165354
 30
0.0
  9
$EXTMIN
 10
0.0
 20
0.0
 30
0.0
  9
$LIMMIN
 10
0.0
 20
0.0
  9
$LIMMAX
 10
11.6929133858
 20
8.2677165354
  9
$VIEWCTR
 10
5.8464566929
 20
4.1338582677
  9
$VIEWSIZE
 40
8.2677165354
  9
$CLAYER
  8
0
  9
$LTSCALE
 40
0.6431102362
  9
$CELTYPE
  6
BYLAYER
  9
$DIMSCALE
 40
1.0
  9
$DIMASZ
 40
0.1875
  9
$DIMEXO
 40
0.0730807087
  9
$DIMDLI
 40
0.4443307087
  9
$DIMEXE
 40
0.2104724409
  9
$DIMCEN
 40
0.1052362205
  9
$DIMLFAC
 40
1.0
  9
$DIMBLK
  1
_CLOSED
  9
$DIMTXT
 40
0.15625
  9
$DIMTOL
 70
0
  9
$DIMLIM
 70
0
  9
$DIMTFAC
 40
1.0
  9
$PDMODE
 70
3
  9
$PDSIZE
 40
0.3125
  9
$HANDSEED
  5
4B8
  9
$MEASUREMENT
 70
0
  9
$INSUNITS
 70
1
  0
ENDSEC
  0
SECTION
  2
CLASSES
  0
CLASS
  1
ACDBDICTIONARYWDFLT
  2
AcDbDictionaryWithDefault
  3
AutoCAD 2000
 90
0
280
0
281
0
  0
CLASS
  1
ACDBPLACEHOLDER
  2
AcDbPlaceHolder
  3
AutoCAD 2000
 90
0
280
0
281
0
  0
CLASS
  1
LAYOUT
  2
AcDbLayout
  3
AutoCAD 2000
 90
0
280
0
281
0
  0
ENDSEC
  0
SECTION
  2
TABLES
  0
TABLE
  2
VPORT
  5
8
100
AcDbSymbolTable
 70
2
  0
VPORT
  5
1F4
100
AcDbSymbolTableRecord
100
AcDbViewportTableRecord
  2
*ACTIVE
 70
0
 10
0.0
 20
0.0
 11
1.0
 21
1.0
 12
5.8464566929
 22
4.1338582677
 13
0.0
 23
0.0
 14
1.0
 24
1.0
 15
0.0
 25
0.0
 16
0.0
 26
0.0
 36
1.0
 17
0.0
 27
0.0
 37
0.0
 40
8.2677165354
 41
1.4142857143
 42
50.0
 43
0.0
 44
0.0
 50
0.0
 51
0.0
 71
0
 72
100
 73
1
 74
1
 75
0
 76
0
 77
0
 78
0
  0
ENDTAB
  0
TABLE
  2
LTYPE
  5
5
100
AcDbSymbolTable
 70
6
  0
LTYPE
  5
14
100
AcDbSymbolTableRecord
100
AcDbLinetypeTableRecord
  2
BYBLOCK
 70
0
  3

 72
65
 73
0
 40
0.0
  0
LTYPE
  5
15
100
AcDbSymbolTableRecord
100
AcDbLinetypeTableRecord
  2
BYLAYER
 70
0
  3

 72
65
 73
0
 40
0.0
  0
LTYPE
  5
16
100
AcDbSymbolTableRecord
100
AcDbLinetypeTableRecord
  2
CONTINUOUS
 70
64
  3
Solid line
 72
65
 73
0
 40
0.0
  0
LTYPE
  5
1F5
100
AcDbSymbolTableRecord
100
AcDbLinetypeTableRecord
  2
CENTER
 70
64
  3
____ _ ____ _ ____ _ ____ _ ____ _ ____ _ ____
 72
65
 73
4
 40
0.6
 49
0.375
 74
0
 49
-0.075
 74
0
 49
0.075
 74
0
 49
-0.075
 74
0
  0
LTYPE
  5
1F6
100
AcDbSymbolTableRecord
100
AcDbLinetypeTableRecord
  2
HIDDEN
 70
64
  3
- - - - - - - - - - - - - - - - - - - -
 72
65
 73
2
 40
0.2
 49
0.1
 74
0
 49
-0.1
 74
0
  0
LTYPE
  5
1F7
100
AcDbSymbolTableRecord
100
AcDbLinetypeTableRecord
  2
PHANTOM
 70
64
  3
_____ _ _ _____ _ _ _____ _ _ _____
 72
65
 73
6
 40
0.8
 49
0.45
 74
0
 49
-0.05
 74
0
 49
0.1
 74
0
 49
-0.05
 74
0
 49
0.1
 74
0
 49
-0.05
 74
0
  0
LTYPE
  5
1F8
100
AcDbSymbolTableRecord
100
AcDbLinetypeTableRecord
  2
DOT
 70
64
  3
. . . . . . . . . . . . . . . . . . . .
 72
65
 73
2
 40
0.2
 49
0.1
 74
0
 49
-0.1
 74
0
  0
LTYPE
  5
1F9
100
AcDbSymbolTableRecord
100
AcDbLinetypeTableRecord
  2
DASHED
 70
64
  3
- - - - - - - - - - - - - - - - - - - -
 72
65
 73
2
 40
0.2
 49
0.1
 74
0
 49
-0.1
 74
0
  0
ENDTAB
  0
TABLE
  2
LAYER
  5
2
100
AcDbSymbolTable
 70
36
  0
LAYER
  5
10
100
AcDbSymbolTableRecord
100
AcDbLayerTableRecord
  2
0
 70
0
 62
7
  6
CONTINUOUS
370
-3
390
F
  0
LAYER
  5
1FA
100
AcDbSymbolTableRecord
100
AcDbLayerTableRecord
  2
DEFAULT_1
 70
0
 62
7
  6
CENTER
370
-3
390
F
  0
LAYER
  5
1FB
100
AcDbSymbolTableRecord
100
AcDbLayerTableRecord
  2
DEFAULT_2
 70
0
 62
8
  6
HIDDEN
370
-3
390
F
  0
LAYER
  5
1FC
100
AcDbSymbolTableRecord
100
AcDbLayerTableRecord
  2
DEFAULT_3
 70
0
 62
7
  6
PHANTOM
370
-3
390
F
  0
LAYER
  5
1FD
100
AcDbSymbolTableRecord
100
AcDbLayerTableRecord
  2
_BLACK_HOLE
 70
0
 62
7
  6
CONTINUOUS
370
-3
390
F
  0
LAYER
  5
1FE
100
AcDbSymbolTableRecord
100
AcDbLayerTableRecord
  2
01_ALL_DTM_PLN
 70
0
 62
7
  6
CONTINUOUS
370
-3
390
F
  0
LAYER
  5
1FF
100
AcDbSymbolTableRecord
100
AcDbLayerTableRecord
  2
01__ASM_ALL_DTM_PLN
 70
0
 62
7
  6
CONTINUOUS
370
-3
390
F
  0
LAYER
  5
200
100
AcDbSymbolTableRecord
100
AcDbLayerTableRecord
  2
01__ASM_DEF_DTM_PLN
 70
0
 62
7
  6
CONTINUOUS
370
-3
390
F
  0
LAYER
  5
201
100
AcDbSymbolTableRecord
100
AcDbLayerTableRecord
  2
01___PRT_ALL_DTM_PLN
 70
0
 62
7
  6
CONTINUOUS
370
-3
390
F
  0
LAYER
  5
202
100
AcDbSymbolTableRecord
100
AcDbLayerTableRecord
  2
01___PRT_DEF_DTM_PLN
 70
0
 62
7
  6
CONTINUOUS
370
-3
390
F
  0
LAYER
  5
203
100
AcDbSymbolTableRecord
100
AcDbLayerTableRecord
  2
02_ALL_AXES
 70
0
 62
7
  6
CONTINUOUS
370
-3
390
F
  0
LAYER
  5
204
100
AcDbSymbolTableRecord
100
AcDbLayerTableRecord
  2
02__ASM_ALL_AXES
 70
0
 62
7
  6
CONTINUOUS
370
-3
390
F
  0
LAYER
  5
205
100
AcDbSymbolTableRecord
100
AcDbLayerTableRecord
  2
02___PRT_ALL_AXES
 70
0
 62
7
  6
CONTINUOUS
370
-3
390
F
  0
LAYER
  5
206
100
AcDbSymbolTableRecord
100
AcDbLayerTableRecord
  2
03_ALL_CURVES
 70
0
 62
7
  6
CONTINUOUS
370
-3
390
F
  0
LAYER
  5
207
100
AcDbSymbolTableRecord
100
AcDbLayerTableRecord
  2
03__ASM_ALL_CURVES
 70
0
 62
7
  6
CONTINUOUS
370
-3
390
F
  0
LAYER
  5
208
100
AcDbSymbolTableRecord
100
AcDbLayerTableRecord
  2
03___PRT_ALL_CURVES
 70
0
 62
7
  6
CONTINUOUS
370
-3
390
F
  0
LAYER
  5
209
100
AcDbSymbolTableRecord
100
AcDbLayerTableRecord
  2
04_ALL_DTM_PNT
 70
0
 62
7
  6
CONTINUOUS
370
-3
390
F
  0
LAYER
  5
20A
100
AcDbSymbolTableRecord
100
AcDbLayerTableRecord
  2
04__ASM_ALL_DTM_PNT
 70
0
 62
7
  6
CONTINUOUS
370
-3
390
F
  0
LAYER
  5
20B
100
AcDbSymbolTableRecord
100
AcDbLayerTableRecord
  2
04___PRT_ALL_DTM_PNT
 70
0
 62
7
  6
CONTINUOUS
370
-3
390
F
  0
LAYER
  5
20C
100
AcDbSymbolTableRecord
100
AcDbLayerTableRecord
  2
05_ALL_DTM_CSYS
 70
0
 62
7
  6
CONTINUOUS
370
-3
390
F
  0
LAYER
  5
20D
100
AcDbSymbolTableRecord
100
AcDbLayerTableRecord
  2
05__ASM_ALL_DTM_CSYS
 70
0
 62
7
  6
CONTINUOUS
370
-3
390
F
  0
LAYER
  5
20E
100
AcDbSymbolTableRecord
100
AcDbLayerTableRecord
  2
05__ASM_DEF_DTM_CSYS
 70
0
 62
7
  6
CONTINUOUS
370
-3
390
F
  0
LAYER
  5
20F
100
AcDbSymbolTableRecord
100
AcDbLayerTableRecord
  2
05___PRT_ALL_DTM_CSYS
 70
0
 62
7
  6
CONTINUOUS
370
-3
390
F
  0
LAYER
  5
210
100
AcDbSymbolTableRecord
100
AcDbLayerTableRecord
  2
05___PRT_DEF_DTM_CSYS
 70
0
 62
7
  6
CONTINUOUS
370
-3
390
F
  0
LAYER
  5
211
100
AcDbSymbolTableRecord
100
AcDbLayerTableRecord
  2
06_ALL_SURFS
 70
0
 62
7
  6
CONTINUOUS
370
-3
390
F
  0
LAYER
  5
212
100
AcDbSymbolTableRecord
100
AcDbLayerTableRecord
  2
06__ASM_ALL_SURFS
 70
0
 62
7
  6
CONTINUOUS
370
-3
390
F
  0
LAYER
  5
213
100
AcDbSymbolTableRecord
100
AcDbLayerTableRecord
  2
06___PRT_ALL_SURFS
 70
0
 62
7
  6
CONTINUOUS
370
-3
390
F
  0
LAYER
  5
214
100
AcDbSymbolTableRecord
100
AcDbLayerTableRecord
  2
07__ASM_ALL_SKELETONS
 70
0
 62
7
  6
CONTINUOUS
370
-3
390
F
  0
LAYER
  5
215
100
AcDbSymbolTableRecord
100
AcDbLayerTableRecord
  2
125-104_HEX_FEATURES
 70
0
 62
7
  6
CONTINUOUS
370
-3
390
F
  0
LAYER
  5
216
100
AcDbSymbolTableRecord
100
AcDbLayerTableRecord
  2
125-104_REF_GEOMETRY
 70
0
 62
7
  6
CONTINUOUS
370
-3
390
F
  0
LAYER
  5
217
100
AcDbSymbolTableRecord
100
AcDbLayerTableRecord
  2
125-105_HEX_FEATURES
 70
0
 62
7
  6
CONTINUOUS
370
-3
390
F
  0
LAYER
  5
218
100
AcDbSymbolTableRecord
100
AcDbLayerTableRecord
  2
125-105_REF_GEOMETRY
 70
0
 62
7
  6
CONTINUOUS
370
-3
390
F
  0
LAYER
  5
219
100
AcDbSymbolTableRecord
100
AcDbLayerTableRecord
  2
125-132_HEX_FEATURES
 70
0
 62
7
  6
CONTINUOUS
370
-3
390
F
  0
LAYER
  5
21A
100
AcDbSymbolTableRecord
100
AcDbLayerTableRecord
  2
125-132_REF_GEOMETRY
 70
0
 62
7
  6
CONTINUOUS
370
-3
390
F
  0
LAYER
  5
21B
100
AcDbSymbolTableRecord
100
AcDbLayerTableRecord
  2
125-150_HEX_FEATURES
 70
0
 62
7
  6
CONTINUOUS
370
-3
390
F
  0
LAYER
  5
21C
100
AcDbSymbolTableRecord
100
AcDbLayerTableRecord
  2
125-150_REF_GEOMETRY
 70
0
 62
7
  6
CONTINUOUS
370
-3
390
F
  0
LAYER
  5
21D
100
AcDbSymbolTableRecord
100
AcDbLayerTableRecord
  2
125-158_HEX_FEATURES
 70
0
 62
7
  6
CONTINUOUS
370
-3
390
F
  0
LAYER
  5
21E
100
AcDbSymbolTableRecord
100
AcDbLayerTableRecord
  2
125-158_REF_GEOMETRY
 70
0
 62
7
  6
CONTINUOUS
370
-3
390
F
  0
LAYER
  5
21F
100
AcDbSymbolTableRecord
100
AcDbLayerTableRecord
  2
126-003_HEX_FEATURES
 70
0
 62
7
  6
CONTINUOUS
370
-3
390
F
  0
LAYER
  5
220
100
AcDbSymbolTableRecord
100
AcDbLayerTableRecord
  2
126-003_REF_GEOMETRY
 70
0
 62
7
  6
CONTINUOUS
370
-3
390
F
  0
LAYER
  5
221
100
AcDbSymbolTableRecord
100
AcDbLayerTableRecord
  2
126-005_HEX_FEATURES
 70
0
 62
7
  6
CONTINUOUS
370
-3
390
F
  0
LAYER
  5
222
100
AcDbSymbolTableRecord
100
AcDbLayerTableRecord
  2
126-005_REF_GEOMETRY
 70
0
 62
7
  6
CONTINUOUS
370
-3
390
F
  0
LAYER
  5
223
100
AcDbSymbolTableRecord
100
AcDbLayerTableRecord
  2
126-007_HEX_FEATURES
 70
0
 62
7
  6
CONTINUOUS
370
-3
390
F
  0
LAYER
  5
224
100
AcDbSymbolTableRecord
100
AcDbLayerTableRecord
  2
126-007_REF_GEOMETRY
 70
0
 62
7
  6
CONTINUOUS
370
-3
390
F
  0
LAYER
  5
225
100
AcDbSymbolTableRecord
100
AcDbLayerTableRecord
  2
126-200_HEX_FEATURES
 70
0
 62
7
  6
CONTINUOUS
370
-3
390
F
  0
LAYER
  5
226
100
AcDbSymbolTableRecord
100
AcDbLayerTableRecord
  2
126-200_REF_GEOMETRY
 70
0
 62
7
  6
CONTINUOUS
370
-3
390
F
  0
LAYER
  5
227
100
AcDbSymbolTableRecord
100
AcDbLayerTableRecord
  2
126-202_HEX_FEATURES
 70
0
 62
7
  6
CONTINUOUS
370
-3
390
F
  0
LAYER
  5
228
100
AcDbSymbolTableRecord
100
AcDbLayerTableRecord
  2
126-202_REF_GEOMETRY
 70
0
 62
7
  6
CONTINUOUS
370
-3
390
F
  0
LAYER
  5
229
100
AcDbSymbolTableRecord
100
AcDbLayerTableRecord
  2
126-220_HEX_FEATURES
 70
0
 62
7
  6
CONTINUOUS
370
-3
390
F
  0
LAYER
  5
22A
100
AcDbSymbolTableRecord
100
AcDbLayerTableRecord
  2
126-220_REF_GEOMETRY
 70
0
 62
7
  6
CONTINUOUS
370
-3
390
F
  0
LAYER
  5
22B
100
AcDbSymbolTableRecord
100
AcDbLayerTableRecord
  2
COPY_GEO_FET
 70
0
 62
7
  6
CONTINUOUS
370
-3
390
F
  0
LAYER
  5
22C
100
AcDbSymbolTableRecord
100
AcDbLayerTableRecord
  2
COSMETIC
 70
0
 62
7
  6
CONTINUOUS
370
-3
390
F
  0
LAYER
  5
22D
100
AcDbSymbolTableRecord
100
AcDbLayerTableRecord
  2
CUT_REF_SURF
 70
0
 62
7
  6
CONTINUOUS
370
-3
390
F
  0
LAYER
  5
22E
100
AcDbSymbolTableRecord
100
AcDbLayerTableRecord
  2
DATUM
 70
0
 62
7
  6
CONTINUOUS
370
-3
390
F
  0
LAYER
  5
22F
100
AcDbSymbolTableRecord
100
AcDbLayerTableRecord
  2
DATUM_PLANES
 70
0
 62
7
  6
CONTINUOUS
370
-3
390
F
  0
LAYER
  5
230
100
AcDbSymbolTableRecord
100
AcDbLayerTableRecord
  2
DIMENSIONS
 70
0
 62
7
  6
CONTINUOUS
370
-3
390
F
  0
LAYER
  5
231
100
AcDbSymbolTableRecord
100
AcDbLayerTableRecord
  2
DTM
 70
0
 62
7
  6
CONTINUOUS
370
-3
390
F
  0
LAYER
  5
232
100
AcDbSymbolTableRecord
100
AcDbLayerTableRecord
  2
DTM230
 70
0
 62
7
  6
CONTINUOUS
370
-3
390
F
  0
LAYER
  5
233
100
AcDbSymbolTableRecord
100
AcDbLayerTableRecord
  2
DTM_500001
 70
0
 62
7
  6
CONTINUOUS
370
-3
390
F
  0
LAYER
  5
234
100
AcDbSymbolTableRecord
100
AcDbLayerTableRecord
  2
DTM_500002
 70
0
 62
7
  6
CONTINUOUS
370
-3
390
F
  0
LAYER
  5
235
100
AcDbSymbolTableRecord
100
AcDbLayerTableRecord
  2
DTM_515002
 70
0
 62
7
  6
CONTINUOUS
370
-3
390
F
  0
LAYER
  5
236
100
AcDbSymbolTableRecord
100
AcDbLayerTableRecord
  2
DTM_SPRING_RH
 70
0
 62
7
  6
CONTINUOUS
370
-3
390
F
  0
LAYER
  5
237
100
AcDbSymbolTableRecord
100
AcDbLayerTableRecord
  2
DTM_SP_RH_CONSTR
 70
0
 62
7
  6
CONTINUOUS
370
-3
390
F
  0
LAYER
  5
238
100
AcDbSymbolTableRecord
100
AcDbLayerTableRecord
  2
GEOMETRICTOLERANCES
 70
0
 62
7
  6
CONTINUOUS
370
-3
390
F
  0
LAYER
  5
239
100
AcDbSymbolTableRecord
100
AcDbLayerTableRecord
  2
PARAMETERDIMENSIONS
 70
0
 62
7
  6
CONTINUOUS
370
-3
390
F
  0
LAYER
  5
23A
100
AcDbSymbolTableRecord
100
AcDbLayerTableRecord
  2
PLANE
 70
0
 62
7
  6
CONTINUOUS
370
-3
390
F
  0
LAYER
  5
23B
100
AcDbSymbolTableRecord
100
AcDbLayerTableRecord
  2
TEXT
 70
0
 62
7
  6
CONTINUOUS
370
-3
390
F
  0
LAYER
  5
23C
100
AcDbSymbolTableRecord
100
AcDbLayerTableRecord
  2
THREAD
 70
0
 62
7
  6
CONTINUOUS
370
-3
390
F
  0
LAYER
  5
23D
100
AcDbSymbolTableRecord
100
AcDbLayerTableRecord
  2
WIRE_GRV_RAD_DRW_REF
 70
0
 62
7
  6
CONTINUOUS
370
-3
390
F
  0
LAYER
  5
23E
100
AcDbSymbolTableRecord
100
AcDbLayerTableRecord
  2
WIRE_SLOT_DRW_REF
 70
0
 62
7
  6
CONTINUOUS
370
-3
390
F
  0
ENDTAB
  0
TABLE
  2
STYLE
  5
3
100
AcDbSymbolTable
 70
1
  0
STYLE
  5
11
100
AcDbSymbolTableRecord
100
AcDbTextStyleTableRecord
  2
STANDARD
 70
0
 40
0.0
 41
0.8
 50
0.0
 71
0
 42
0.2
  3
txt
  4

  0
ENDTAB
  0
TABLE
  2
VIEW
  5
6
100
AcDbSymbolTable
 70
0
  0
ENDTAB
  0
TABLE
  2
UCS
  5
7
100
AcDbSymbolTable
 70
0
  0
ENDTAB
  0
TABLE
  2
APPID
  5
9
100
AcDbSymbolTable
 70
1
  0
APPID
  5
23F
100
AcDbSymbolTableRecord
100
AcDbRegAppTableRecord
  2
ACAD
 70
0
  0
ENDTAB
  0
TABLE
  2
BLOCK_RECORD
  5
1
100
AcDbSymbolTable
 70
0
  0
BLOCK_RECORD
  5
1F
100
AcDbSymbolTableRecord
100
AcDbBlockTableRecord
  2
*MODEL_SPACE
  0
BLOCK_RECORD
  5
1B
100
AcDbSymbolTableRecord
100
AcDbBlockTableRecord
  2
*PAPER_SPACE
  0
ENDTAB
  0
TABLE
  2
DIMSTYLE
  5
A
100
AcDbSymbolTable
 70
1
100
AcDbDimStyleTable
 71
0
  0
DIMSTYLE
105
240
100
AcDbSymbolTableRecord
100
AcDbDimStyleTableRecord
  2
STANDARD
 70
0
  3

  4

 40
1.0
 41
0.1875
 42
0.0625
 43
0.38
 44
0.18
 45
0.0
 46
0.0
 47
0.01
 48
0.01
140
0.15625
141
0.09
142
0.0
143
25.4
144
1.0
145
0.0
146
1.0
147
0.09
 71
0.0
 72
0.0
 73
1
 74
1
 75
0
 76
0
 77
0
 78
4
170
0
171
2
172
0
173
0
174
0
175
0
176
0
177
0
178
0
270
2
271
2
272
2
273
2
274
2
275
0
280
0
281
0
282
0
283
1
284
4
285
0
286
0
287
3
288
0
340
11
  0
ENDTAB
  0
ENDSEC
  0
SECTION
  2
BLOCKS
  0
BLOCK
  5
20
100
AcDbEntity
  8
0
100
AcDbBlockBegin
  2
*MODEL_SPACE
 70
0
 10
0.0
 20
0.0
 30
0.0
  3
*MODEL_SPACE
  1

  0
ENDBLK
  5
21
100
AcDbEntity
  8
0
100
AcDbBlockEnd
  0
BLOCK
  5
1C
100
AcDbEntity
  8
0
100
AcDbBlockBegin
  2
*PAPER_SPACE
 70
0
 10
0.0
 20
0.0
 30
0.0
  3
*PAPER_SPACE
  1

  0
ENDBLK
  5
1D
100
AcDbEntity
  8
0
100
AcDbBlockEnd
  0
ENDSEC
  0
SECTION
  2
ENTITIES
  0
LINE
  5
241
100
AcDbEntity
  8
0
100
AcDbLine
 62
7
  6
CONTINUOUS
 10
3.1524134186
 20
3.7079933076
 11
3.1524134186
 21
4.3549933076
  0
LINE
  5
242
100
AcDbEntity
  8
03__ASM_ALL_CURVES
100
AcDbLine
 62
40
  6
CONTINUOUS
 10
3.1524134186
 20
4.3549933076
 11
3.1524134186
 21
5.0765353076
  0
LINE
  5
243
100
AcDbEntity
  8
03__ASM_ALL_CURVES
100
AcDbLine
 62
40
  6
CONTINUOUS
 10
3.1797884186
 20
5.1897603076
 11
3.1797884186
 21
5.0765353076
  0
LINE
  5
244
100
AcDbEntity
  8
0
100
AcDbLine
 62
7
  6
CONTINUOUS
 10
3.2024134186
 20
3.6579933076
 11
3.2024134186
 21
4.4049933076
  0
LINE
  5
245
100
AcDbEntity
  8
03__ASM_ALL_CURVES
100
AcDbLine
 62
40
  6
CONTINUOUS
 10
3.2859368561
 20
5.0765353076
 11
3.2859368561
 21
5.0859707245
  0
LINE
  5
246
100
AcDbEntity
  8
03__ASM_ALL_CURVES
100
AcDbLine
 62
40
  6
CONTINUOUS
 10
3.2882834186
 20
5.0538903076
 11
3.2882834186
 21
5.0086003076
  0
LINE
  5
247
100
AcDbEntity
  8
03__ASM_ALL_CURVES
100
AcDbLine
 62
40
  6
CONTINUOUS
 10
3.4062384186
 20
5.1897603076
 11
3.4062384186
 21
5.0765353076
  0
LINE
  5
248
100
AcDbEntity
  8
03__ASM_ALL_CURVES
100
AcDbLine
 62
40
  6
CONTINUOUS
 10
3.4840806061
 20
5.1048415576
 11
3.4840806061
 21
5.1142769754
  0
LINE
  5
249
100
AcDbEntity
  8
03__ASM_ALL_CURVES
100
AcDbLine
 62
40
  6
CONTINUOUS
 10
3.4911571686
 20
5.1614540576
 11
3.4911571686
 21
5.170889472
  0
LINE
  5
24A
100
AcDbEntity
  8
03__ASM_ALL_CURVES
100
AcDbLine
 62
40
  6
CONTINUOUS
 10
3.5477696686
 20
5.170889472
 11
3.5477696686
 21
5.1614540576
  0
LINE
  5
24B
100
AcDbEntity
  8
03__ASM_ALL_CURVES
100
AcDbLine
 62
40
  6
CONTINUOUS
 10
3.5548462311
 20
5.1142769754
 11
3.5548462311
 21
5.1048415576
  0
LINE
  5
24C
100
AcDbEntity
  8
03__ASM_ALL_CURVES
100
AcDbLine
 62
40
  6
CONTINUOUS
 10
3.6256118561
 20
5.170889472
 11
3.6185352936
 21
5.142583222
  0
LINE
  5
24D
100
AcDbEntity
  8
03__ASM_ALL_CURVES
100
AcDbLine
 62
40
  6
CONTINUOUS
 10
3.4911571686
 20
5.170889472
 11
3.4982337311
 21
5.1803248932
  0
LINE
  5
24E
100
AcDbEntity
  8
03__ASM_ALL_CURVES
100
AcDbLine
 62
40
  6
CONTINUOUS
 10
3.4840806061
 20
5.1142769754
 11
3.4982337311
 21
5.1331478076
  0
LINE
  5
24F
100
AcDbEntity
  8
03__ASM_ALL_CURVES
100
AcDbLine
 62
40
  6
CONTINUOUS
 10
3.5477696686
 20
5.1614540576
 11
3.5406931061
 21
5.1520186432
  0
LINE
  5
250
100
AcDbEntity
  8
03__ASM_ALL_CURVES
100
AcDbLine
 62
40
  6
CONTINUOUS
 10
3.5548462311
 20
5.1048415576
 11
3.5406931061
 21
5.0859707245
  0
LINE
  5
251
100
AcDbEntity
  8
03__ASM_ALL_CURVES
100
AcDbLine
 62
40
  6
CONTINUOUS
 10
3.6397649811
 20
5.1897603076
 11
3.6256118561
 21
5.170889472
  0
LINE
  5
252
100
AcDbEntity
  8
0
100
AcDbLine
 62
7
  6
CONTINUOUS
 10
3.2024134186
 20
3.6579933076
 11
3.1524134186
 21
3.7079933076
  0
LINE
  5
253
100
AcDbEntity
  8
03__ASM_ALL_CURVES
100
AcDbLine
 62
40
  6
CONTINUOUS
 10
3.6185352936
 20
5.142583222
 11
3.6185352936
 21
5.1237123898
  0
LINE
  5
254
100
AcDbEntity
  8
0
100
AcDbLine
 62
7
  6
CONTINUOUS
 10
3.6524134186
 20
3.6014933076
 11
3.6524134186
 21
4.4614933076
  0
LINE
  5
255
100
AcDbEntity
  8
0
100
AcDbLine
 62
7
  6
CONTINUOUS
 10
3.6864770845
 20
3.5424933076
 11
3.6864770845
 21
3.5433908351
  0
LINE
  5
256
100
AcDbEntity
  8
0
100
AcDbLine
 62
7
  6
CONTINUOUS
 10
3.6864770845
 20
3.7617957801
 11
3.6864770845
 21
3.8130883626
  0
LINE
  5
257
100
AcDbEntity
  8
0
100
AcDbLine
 62
7
  6
CONTINUOUS
 10
3.6864770845
 20
4.2498982526
 11
3.6864770845
 21
4.3011908351
  0
LINE
  5
258
100
AcDbEntity
  8
0
100
AcDbLine
 62
7
  6
CONTINUOUS
 10
3.6864770845
 20
4.5195957801
 11
3.6864770845
 21
4.5204933076
  0
LINE
  5
259
100
AcDbEntity
  8
03__ASM_ALL_CURVES
100
AcDbLine
 62
40
  6
CONTINUOUS
 10
3.7246837311
 20
5.1048415576
 11
3.7176071686
 21
5.0765353076
  0
LINE
  5
25A
100
AcDbEntity
  8
03__ASM_ALL_CURVES
100
AcDbLine
 62
40
  6
CONTINUOUS
 10
3.8308321686
 20
5.1520186432
 11
3.8379087311
 21
5.170889472
  0
LINE
  5
25B
100
AcDbEntity
  8
03__ASM_ALL_CURVES
100
AcDbLine
 62
40
  6
CONTINUOUS
 10
3.8874446686
 20
5.1520186432
 11
3.8803681061
 21
5.1331478076
  0
LINE
  5
25C
100
AcDbEntity
  8
03__ASM_ALL_CURVES
100
AcDbLine
 62
40
  6
CONTINUOUS
 10
3.8874446686
 20
5.1142769754
 11
3.8803681061
 21
5.0954061415
  0
LINE
  5
25D
100
AcDbEntity
  8
03__ASM_ALL_CURVES
100
AcDbLine
 62
40
  6
CONTINUOUS
 10
3.7176071686
 20
5.170889472
 11
3.7246837311
 21
5.1803248932
  0
LINE
  5
25E
100
AcDbEntity
  8
03__ASM_ALL_CURVES
100
AcDbLine
 62
40
  6
CONTINUOUS
 10
3.7388368561
 20
5.1237123898
 11
3.7246837311
 21
5.1048415576
  0
LINE
  5
25F
100
AcDbEntity
  8
03__ASM_ALL_CURVES
100
AcDbLine
 62
40
  6
CONTINUOUS
 10
3.7742196686
 20
5.1520186432
 11
3.7671431061
 21
5.142583222
  0
LINE
  5
260
100
AcDbEntity
  8
03__ASM_ALL_CURVES
100
AcDbLine
 62
40
  6
CONTINUOUS
 10
3.8379087311
 20
5.170889472
 11
3.8449852936
 21
5.1803248932
  0
LINE
  5
261
100
AcDbEntity
  8
0
100
AcDbLine
 62
7
  6
CONTINUOUS
 10
3.6864770845
 20
3.5424933076
 11
3.6524134186
 21
3.6014933076
  0
LINE
  5
262
100
AcDbEntity
  8
03__ASM_ALL_CURVES
100
AcDbLine
 62
40
  6
CONTINUOUS
 10
3.7742196686
 20
5.170889472
 11
3.7742196686
 21
5.1520186432
  0
LINE
  5
263
100
AcDbEntity
  8
03__ASM_ALL_CURVES
100
AcDbLine
 62
40
  6
CONTINUOUS
 10
3.8874446686
 20
5.1520186432
 11
3.8874446686
 21
5.1142769754
  0
LINE
  5
264
100
AcDbEntity
  8
03__ASM_ALL_CURVES
100
AcDbLine
 62
40
  6
CONTINUOUS
 10
4.0572821686
 20
5.1520186432
 11
4.0643587311
 21
5.170889472
  0
LINE
  5
265
100
AcDbEntity
  8
03__ASM_ALL_CURVES
100
AcDbLine
 62
40
  6
CONTINUOUS
 10
4.1138946686
 20
5.1520186432
 11
4.1068181061
 21
5.1331478076
  0
LINE
  5
266
100
AcDbEntity
  8
03__ASM_ALL_CURVES
100
AcDbLine
 62
40
  6
CONTINUOUS
 10
4.1138946686
 20
5.1142769754
 11
4.1068181061
 21
5.0954061415
  0
LINE
  5
267
100
AcDbEntity
  8
0
100
AcDbLine
 62
7
  6
CONTINUOUS
 10
3.6860884437
 20
4.519820162
 11
3.6524134186
 21
4.4614933076
  0
LINE
  5
268
100
AcDbEntity
  8
03__ASM_ALL_CURVES
100
AcDbLine
 62
40
  6
CONTINUOUS
 10
3.8803681061
 20
5.0954061415
 11
3.8732915436
 21
5.0859707245
  0
LINE
  5
269
100
AcDbEntity
  8
03__ASM_ALL_CURVES
100
AcDbLine
 62
40
  6
CONTINUOUS
 10
4.0643587311
 20
5.170889472
 11
4.0714352936
 21
5.1803248932
  0
LINE
  5
26A
100
AcDbEntity
  8
0
100
AcDbLine
 62
7
  6
CONTINUOUS
 10
3.2024134186
 20
4.4049933076
 11
3.1524134186
 21
4.3549933076
  0
LINE
  5
26B
100
AcDbEntity
  8
03__ASM_ALL_CURVES
100
AcDbLine
 62
40
  6
CONTINUOUS
 10
3.4982337311
 20
5.1803248932
 11
3.5123868561
 21
5.1897603076
  0
LINE
  5
26C
100
AcDbEntity
  8
03__ASM_ALL_CURVES
100
AcDbLine
 62
40
  6
CONTINUOUS
 10
3.4982337311
 20
5.1331478076
 11
3.5123868561
 21
5.142583222
  0
LINE
  5
26D
100
AcDbEntity
  8
03__ASM_ALL_CURVES
100
AcDbLine
 62
40
  6
CONTINUOUS
 10
3.5406931061
 20
5.1520186432
 11
3.5265399811
 21
5.142583222
  0
LINE
  5
26E
100
AcDbEntity
  8
03__ASM_ALL_CURVES
100
AcDbLine
 62
40
  6
CONTINUOUS
 10
3.5406931061
 20
5.0859707245
 11
3.5265399811
 21
5.0765353076
  0
LINE
  5
26F
100
AcDbEntity
  8
03__ASM_ALL_CURVES
100
AcDbLine
 62
40
  6
CONTINUOUS
 10
3.7246837311
 20
5.1803248932
 11
3.7388368561
 21
5.1897603076
  0
LINE
  5
270
100
AcDbEntity
  8
03__ASM_ALL_CURVES
100
AcDbLine
 62
40
  6
CONTINUOUS
 10
3.6185352936
 20
5.1237123898
 11
3.6256118561
 21
5.0954061415
  0
LINE
  5
271
100
AcDbEntity
  8
03__ASM_ALL_CURVES
100
AcDbLine
 62
40
  6
CONTINUOUS
 10
3.9652868561
 20
5.0765353076
 11
3.9652868561
 21
5.0859707245
  0
LINE
  5
272
100
AcDbEntity
  8
0
100
AcDbLine
 62
7
  6
CONTINUOUS
 10
4.0599134186
 20
3.5424933076
 11
4.0599134186
 21
3.5433908351
  0
LINE
  5
273
100
AcDbEntity
  8
0
100
AcDbLine
 62
7
  6
CONTINUOUS
 10
4.0599134186
 20
3.7617957801
 11
4.0599134186
 21
3.8130883626
  0
LINE
  5
274
100
AcDbEntity
  8
0
100
AcDbLine
 62
7
  6
CONTINUOUS
 10
4.0599134186
 20
4.2498982526
 11
4.0599134186
 21
4.3011908351
  0
LINE
  5
275
100
AcDbEntity
  8
0
100
AcDbLine
 62
7
  6
CONTINUOUS
 10
4.0599134186
 20
4.5195957801
 11
4.0599134186
 21
4.5204933076
  0
LINE
  5
276
100
AcDbEntity
  8
03__ASM_ALL_CURVES
100
AcDbLine
 62
40
  6
CONTINUOUS
 10
4.1138946686
 20
5.1520186432
 11
4.1138946686
 21
5.1142769754
  0
LINE
  5
277
100
AcDbEntity
  8
0
100
AcDbLine
 62
7
  6
CONTINUOUS
 10
4.1204134186
 20
3.6029933076
 11
4.1204134186
 21
4.4599933076
  0
LINE
  5
278
100
AcDbEntity
  8
03__ASM_ALL_CURVES
100
AcDbLine
 62
40
  6
CONTINUOUS
 10
4.1988134186
 20
5.0765353076
 11
4.2058899811
 21
5.1237123898
  0
LINE
  5
279
100
AcDbEntity
  8
03__ASM_ALL_CURVES
100
AcDbLine
 62
40
  6
CONTINUOUS
 10
4.2058899811
 20
5.1237123898
 11
4.2129665436
 21
5.1520186432
  0
LINE
  5
27A
100
AcDbEntity
  8
03__ASM_ALL_CURVES
100
AcDbLine
 62
40
  6
CONTINUOUS
 10
4.2129665436
 20
5.1520186432
 11
4.2271196686
 21
5.1897603076
  0
LINE
  5
27B
100
AcDbEntity
  8
03__ASM_ALL_CURVES
100
AcDbLine
 62
40
  6
CONTINUOUS
 10
4.1068181061
 20
5.0954061415
 11
4.0997415436
 21
5.0859707245
  0
LINE
  5
27C
100
AcDbEntity
  8
03__ASM_ALL_CURVES
100
AcDbLine
 62
40
  6
CONTINUOUS
 10
4.3191149811
 20
5.0954061415
 11
4.3049618561
 21
5.0765353076
  0
LINE
  5
27D
100
AcDbEntity
  8
03__ASM_ALL_CURVES
100
AcDbLine
 62
40
  6
CONTINUOUS
 10
3.7671431061
 20
5.142583222
 11
3.7388368561
 21
5.1237123898
  0
LINE
  5
27E
100
AcDbEntity
  8
03__ASM_ALL_CURVES
100
AcDbLine
 62
40
  6
CONTINUOUS
 10
3.8449852936
 20
5.1803248932
 11
3.8591384186
 21
5.1897603076
  0
LINE
  5
27F
100
AcDbEntity
  8
03__ASM_ALL_CURVES
100
AcDbLine
 62
40
  6
CONTINUOUS
 10
3.8732915436
 20
5.0859707245
 11
3.8591384186
 21
5.0765353076
  0
LINE
  5
280
100
AcDbEntity
  8
03__ASM_ALL_CURVES
100
AcDbLine
 62
40
  6
CONTINUOUS
 10
4.0714352936
 20
5.1803248932
 11
4.0855884186
 21
5.1897603076
  0
LINE
  5
281
100
AcDbEntity
  8
03__ASM_ALL_CURVES
100
AcDbLine
 62
40
  6
CONTINUOUS
 10
4.2035434186
 20
5.0538903076
 11
4.2035434186
 21
5.0086003076
  0
LINE
  5
282
100
AcDbEntity
  8
0
100
AcDbLine
 62
7
  6
CONTINUOUS
 10
4.2664134186
 20
3.6029933076
 11
4.2664134186
 21
4.4599933076
  0
LINE
  5
283
100
AcDbEntity
  8
0
100
AcDbLine
 62
7
  6
CONTINUOUS
 10
4.2749354566
 20
3.6123407601
 11
4.2749354566
 21
4.4506458551
  0
LINE
  5
284
100
AcDbEntity
  8
0
100
AcDbLine
 62
7
  6
CONTINUOUS
 10
4.2778913806
 20
3.6123407601
 11
4.2778913806
 21
4.4506458551
  0
LINE
  5
285
100
AcDbEntity
  8
0
100
AcDbLine
 62
7
  6
CONTINUOUS
 10
4.2864134186
 20
3.6029933076
 11
4.2864134186
 21
4.4599933076
  0
LINE
  5
286
100
AcDbEntity
  8
03__ASM_ALL_CURVES
100
AcDbLine
 62
40
  6
CONTINUOUS
 10
4.3261915436
 20
5.142583222
 11
4.3261915436
 21
5.1237123898
  0
LINE
  5
287
100
AcDbEntity
  8
03__ASM_ALL_CURVES
100
AcDbLine
 62
40
  6
CONTINUOUS
 10
4.3261915436
 20
5.1237123898
 11
4.3191149811
 21
5.0954061415
  0
LINE
  5
288
100
AcDbEntity
  8
03__ASM_ALL_CURVES
100
AcDbLine
 62
40
  6
CONTINUOUS
 10
4.0997415436
 20
5.0859707245
 11
4.0855884186
 21
5.0765353076
  0
LINE
  5
289
100
AcDbEntity
  8
03__ASM_ALL_CURVES
100
AcDbLine
 62
40
  6
CONTINUOUS
 10
3.8803681061
 20
5.1331478076
 11
3.8591384186
 21
5.1237123898
  0
LINE
  5
28A
100
AcDbEntity
  8
0
100
AcDbLine
 62
7
  6
CONTINUOUS
 10
4.2864134186
 20
3.6029933076
 11
4.2778913806
 21
3.6123407601
  0
LINE
  5
28B
100
AcDbEntity
  8
03__ASM_ALL_CURVES
100
AcDbLine
 62
40
  6
CONTINUOUS
 10
3.2859368561
 20
5.0859707245
 11
3.2930134186
 21
5.0765353076
  0
LINE
  5
28C
100
AcDbEntity
  8
03__ASM_ALL_CURVES
100
AcDbLine
 62
40
  6
CONTINUOUS
 10
3.8379087311
 20
5.1331478076
 11
3.8308321686
 21
5.1520186432
  0
LINE
  5
28D
100
AcDbEntity
  8
03__ASM_ALL_CURVES
100
AcDbLine
 62
40
  6
CONTINUOUS
 10
3.8803681061
 20
5.170889472
 11
3.8874446686
 21
5.1520186432
  0
LINE
  5
28E
100
AcDbEntity
  8
0
100
AcDbLine
 62
7
  6
CONTINUOUS
 10
4.3394134186
 20
3.6029933076
 11
4.3394134186
 21
4.4599933076
  0
LINE
  5
28F
100
AcDbEntity
  8
03__ASM_ALL_CURVES
100
AcDbLine
 62
40
  6
CONTINUOUS
 10
4.3394134186
 20
4.4826383076
 11
4.3394134186
 21
5.0765353076
  0
LINE
  5
290
100
AcDbEntity
  8
THREAD
100
AcDbLine
 62
7
  6
CONTINUOUS
 10
4.3550018759
 20
3.6264933076
 11
4.3550018759
 21
4.4364933076
  0
LINE
  5
291
100
AcDbEntity
  8
THREAD
100
AcDbLine
 62
7
  6
CONTINUOUS
 10
4.3864134186
 20
3.6264933076
 11
4.3864134186
 21
4.4364933076
  0
LINE
  5
292
100
AcDbEntity
  8
0
100
AcDbLine
 62
7
  6
CONTINUOUS
 10
4.4564134186
 20
3.6269939226
 11
4.4564134186
 21
4.4359926926
  0
LINE
  5
293
100
AcDbEntity
  8
03__ASM_ALL_CURVES
100
AcDbLine
 62
40
  6
CONTINUOUS
 10
4.4752834186
 20
5.0538903076
 11
4.4752834186
 21
5.0086003076
  0
LINE
  5
294
100
AcDbEntity
  8
0
100
AcDbLine
 62
7
  6
CONTINUOUS
 10
4.5064134186
 20
3.6269939226
 11
4.5064134186
 21
4.4359926926
  0
LINE
  5
295
100
AcDbEntity
  8
03__ASM_ALL_CURVES
100
AcDbLine
 62
40
  6
CONTINUOUS
 10
4.6196452941
 20
5.1331478076
 11
4.6267218566
 21
5.1614540576
  0
LINE
  5
296
100
AcDbEntity
  8
03__ASM_ALL_CURVES
100
AcDbLine
 62
40
  6
CONTINUOUS
 10
4.6267218566
 20
5.1614540576
 11
4.6408749816
 21
5.1803248932
  0
LINE
  5
297
100
AcDbEntity
  8
03__ASM_ALL_CURVES
100
AcDbLine
 62
40
  6
CONTINUOUS
 10
4.6974874816
 20
5.1048415576
 11
4.6833343566
 21
5.0859707245
  0
LINE
  5
298
100
AcDbEntity
  8
03__ASM_ALL_CURVES
100
AcDbLine
 62
40
  6
CONTINUOUS
 10
4.7399468566
 20
5.1614540576
 11
4.7540999816
 21
5.1803248932
  0
LINE
  5
299
100
AcDbEntity
  8
03__ASM_ALL_CURVES
100
AcDbLine
 62
40
  6
CONTINUOUS
 10
4.8036359191
 20
5.0954061415
 11
4.7965593566
 21
5.0859707245
  0
LINE
  5
29A
100
AcDbEntity
  8
03__ASM_ALL_CURVES
100
AcDbLine
 62
40
  6
CONTINUOUS
 10
4.6408749816
 20
5.1803248932
 11
4.6550281066
 21
5.1897603076
  0
LINE
  5
29B
100
AcDbEntity
  8
03__ASM_ALL_CURVES
100
AcDbLine
 62
40
  6
CONTINUOUS
 10
4.7540999816
 20
5.1803248932
 11
4.7682531066
 21
5.1897603076
  0
LINE
  5
29C
100
AcDbEntity
  8
03__ASM_ALL_CURVES
100
AcDbLine
 62
40
  6
CONTINUOUS
 10
4.6833343566
 20
5.0859707245
 11
4.6691812316
 21
5.0765353076
  0
LINE
  5
29D
100
AcDbEntity
  8
03__ASM_ALL_CURVES
100
AcDbLine
 62
40
  6
CONTINUOUS
 10
4.1068181061
 20
5.1331478076
 11
4.0855884186
 21
5.1237123898
  0
LINE
  5
29E
100
AcDbEntity
  8
03__ASM_ALL_CURVES
100
AcDbLine
 62
40
  6
CONTINUOUS
 10
3.4982337311
 20
5.0859707245
 11
3.4840806061
 21
5.1048415576
  0
LINE
  5
29F
100
AcDbEntity
  8
03__ASM_ALL_CURVES
100
AcDbLine
 62
40
  6
CONTINUOUS
 10
3.4982337311
 20
5.1520186432
 11
3.4911571686
 21
5.1614540576
  0
LINE
  5
2A0
100
AcDbEntity
  8
03__ASM_ALL_CURVES
100
AcDbLine
 62
40
  6
CONTINUOUS
 10
3.5406931061
 20
5.1331478076
 11
3.5548462311
 21
5.1142769754
  0
LINE
  5
2A1
100
AcDbEntity
  8
THREAD
100
AcDbLine
 62
7
  6
CONTINUOUS
 10
4.5477753786
 20
3.6439933076
 11
4.5287228197
 21
3.6769933076
  0
LINE
  5
2A2
100
AcDbEntity
  8
03__ASM_ALL_CURVES
100
AcDbLine
 62
40
  6
CONTINUOUS
 10
4.0643587311
 20
5.1331478076
 11
4.0572821686
 21
5.1520186432
  0
LINE
  5
2A3
100
AcDbEntity
  8
03__ASM_ALL_CURVES
100
AcDbLine
 62
40
  6
CONTINUOUS
 10
4.5205734191
 20
5.1897603076
 11
4.5205734191
 21
5.0765353076
  0
LINE
  5
2A4
100
AcDbEntity
  8
0
100
AcDbLine
 62
7
  6
CONTINUOUS
 10
4.5217946165
 20
3.6809933076
 11
4.5217946165
 21
4.3819933076
  0
LINE
  5
2A5
100
AcDbEntity
  8
0
100
AcDbLine
 62
7
  6
CONTINUOUS
 10
4.5287228197
 20
3.6769933076
 11
4.5287228197
 21
4.3859933076
  0
LINE
  5
2A6
100
AcDbEntity
  8
THREAD
100
AcDbLine
 62
7
  6
CONTINUOUS
 10
4.5477753786
 20
3.6439933076
 11
4.5477753786
 21
4.4189933076
  0
LINE
  5
2A7
100
AcDbEntity
  8
03__ASM_ALL_CURVES
100
AcDbLine
 62
40
  6
CONTINUOUS
 10
4.7045640441
 20
5.1331478076
 11
4.6974874816
 21
5.1048415576
  0
LINE
  5
2A8
100
AcDbEntity
  8
03__ASM_ALL_CURVES
100
AcDbLine
 62
40
  6
CONTINUOUS
 10
4.7328702941
 20
5.1331478076
 11
4.7399468566
 21
5.1614540576
  0
LINE
  5
2A9
100
AcDbEntity
  8
03__ASM_ALL_CURVES
100
AcDbLine
 62
40
  6
CONTINUOUS
 10
4.8531718566
 20
5.0765353076
 11
4.8885546691
 21
5.1897603076
  0
LINE
  5
2AA
100
AcDbEntity
  8
THREAD
100
AcDbLine
 62
7
  6
CONTINUOUS
 10
4.5477753786
 20
4.4189933076
 11
4.5287228197
 21
4.3859933076
  0
LINE
  5
2AB
100
AcDbEntity
  8
0
100
AcDbLine
 62
7
  6
CONTINUOUS
 10
4.2864134186
 20
4.4599933076
 11
4.2778913806
 21
4.4506458551
  0
LINE
  5
2AC
100
AcDbEntity
  8
03__ASM_ALL_CURVES
100
AcDbLine
 62
40
  6
CONTINUOUS
 10
4.7965593566
 20
5.0859707245
 11
4.7824062316
 21
5.0765353076
  0
LINE
  5
2AD
100
AcDbEntity
  8
03__ASM_ALL_CURVES
100
AcDbLine
 62
40
  6
CONTINUOUS
 10
3.5406931061
 20
5.1803248932
 11
3.5477696686
 21
5.170889472
  0
LINE
  5
2AE
100
AcDbEntity
  8
03__ASM_ALL_CURVES
100
AcDbLine
 62
40
  6
CONTINUOUS
 10
3.6256118561
 20
5.0954061415
 11
3.6397649811
 21
5.0765353076
  0
LINE
  5
2AF
100
AcDbEntity
  8
03__ASM_ALL_CURVES
100
AcDbLine
 62
40
  6
CONTINUOUS
 10
4.1068181061
 20
5.170889472
 11
4.1138946686
 21
5.1520186432
  0
LINE
  5
2B0
100
AcDbEntity
  8
03__ASM_ALL_CURVES
100
AcDbLine
 62
40
  6
CONTINUOUS
 10
4.3191149811
 20
5.170889472
 11
4.3261915436
 21
5.142583222
  0
LINE
  5
2B1
100
AcDbEntity
  8
THREAD
100
AcDbLine
 62
7
  6
CONTINUOUS
 10
4.7949134186
 20
3.6439933076
 11
4.7949134186
 21
4.4189933076
  0
LINE
  5
2B2
100
AcDbEntity
  8
THREAD
100
AcDbLine
 62
7
  6
CONTINUOUS
 10
4.8394134186
 20
3.6884933076
 11
4.8394134186
 21
4.3744933076
  0
LINE
  5
2B3
100
AcDbEntity
  8
03__ASM_ALL_CURVES
100
AcDbLine
 62
40
  6
CONTINUOUS
 10
5.3060718566
 20
5.1614540576
 11
5.3202249816
 21
5.1803248932
  0
LINE
  5
2B4
100
AcDbEntity
  8
03__ASM_ALL_CURVES
100
AcDbLine
 62
40
  6
CONTINUOUS
 10
5.3202249816
 20
5.1803248932
 11
5.3343781066
 21
5.1897603076
  0
LINE
  5
2B5
100
AcDbEntity
  8
03__ASM_ALL_CURVES
100
AcDbLine
 62
40
  6
CONTINUOUS
 10
5.3626843566
 20
5.0859707245
 11
5.3485312316
 21
5.0765353076
  0
LINE
  5
2B6
100
AcDbEntity
  8
03__ASM_ALL_CURVES
100
AcDbLine
 62
40
  6
CONTINUOUS
 10
5.1965335565
 20
3.3845745576
 11
5.1859187127
 21
3.3916511203
  0
LINE
  5
2B7
100
AcDbEntity
  8
03__ASM_ALL_CURVES
100
AcDbLine
 62
40
  6
CONTINUOUS
 10
5.1222296502
 20
3.4694933076
 11
5.132844494
 21
3.4624167468
  0
LINE
  5
2B8
100
AcDbEntity
  8
03__ASM_ALL_CURVES
100
AcDbLine
 62
40
  6
CONTINUOUS
 10
5.2071484002
 20
3.4694933076
 11
5.217763244
 21
3.4624167468
  0
LINE
  5
2B9
100
AcDbEntity
  8
03__ASM_ALL_CURVES
100
AcDbLine
 62
40
  6
CONTINUOUS
 10
5.2920671502
 20
3.4694933076
 11
5.302681994
 21
3.4624167468
  0
LINE
  5
2BA
100
AcDbEntity
  8
0
100
AcDbLine
 62
7
  6
CONTINUOUS
 10
4.1204134186
 20
4.4599933076
 11
4.0603621824
 21
4.5200445438
  0
LINE
  5
2BB
100
AcDbEntity
  8
0
100
AcDbLine
 62
7
  6
CONTINUOUS
 10
4.2749354566
 20
4.4506458551
 11
4.2664134186
 21
4.4599933076
  0
LINE
  5
2BC
100
AcDbEntity
  8
03__ASM_ALL_CURVES
100
AcDbLine
 62
40
  6
CONTINUOUS
 10
3.7671431061
 20
5.1803248932
 11
3.7742196686
 21
5.170889472
  0
LINE
  5
2BD
100
AcDbEntity
  8
03__ASM_ALL_CURVES
100
AcDbLine
 62
40
  6
CONTINUOUS
 10
3.8449852936
 20
5.0859707245
 11
3.8379087311
 21
5.0954061415
  0
LINE
  5
2BE
100
AcDbEntity
  8
03__ASM_ALL_CURVES
100
AcDbLine
 62
40
  6
CONTINUOUS
 10
5.132844494
 20
3.4624167468
 11
5.1381519159
 21
3.4553401809
  0
LINE
  5
2BF
100
AcDbEntity
  8
03__ASM_ALL_CURVES
100
AcDbLine
 62
40
  6
CONTINUOUS
 10
5.1859187127
 20
3.3916511203
 11
5.175303869
 21
3.4058042451
  0
LINE
  5
2C0
100
AcDbEntity
  8
03__ASM_ALL_CURVES
100
AcDbLine
 62
40
  6
CONTINUOUS
 10
3.8732915436
 20
5.1803248932
 11
3.8803681061
 21
5.170889472
  0
LINE
  5
2C1
100
AcDbEntity
  8
03__ASM_ALL_CURVES
100
AcDbLine
 62
40
  6
CONTINUOUS
 10
3.9652868561
 20
5.0859707245
 11
3.9723634186
 21
5.0765353076
  0
LINE
  5
2C2
100
AcDbEntity
  8
03__ASM_ALL_CURVES
100
AcDbLine
 62
40
  6
CONTINUOUS
 10
5.217763244
 20
3.4624167468
 11
5.2283780877
 21
3.4482636201
  0
LINE
  5
2C3
100
AcDbEntity
  8
03__ASM_ALL_CURVES
100
AcDbLine
 62
40
  6
CONTINUOUS
 10
4.6267218566
 20
5.1048415576
 11
4.6196452941
 21
5.1331478076
  0
LINE
  5
2C4
100
AcDbEntity
  8
03__ASM_ALL_CURVES
100
AcDbLine
 62
40
  6
CONTINUOUS
 10
5.0017796691
 20
5.1897603076
 11
5.0017796691
 21
5.0765353076
  0
LINE
  5
2C5
100
AcDbEntity
  8
0
100
AcDbLine
 62
7
  6
CONTINUOUS
 10
5.0174134186
 20
3.6884933076
 11
5.0174134186
 21
4.3744933076
  0
LINE
  5
2C6
100
AcDbEntity
  8
0
100
AcDbLine
 62
7
  6
CONTINUOUS
 10
5.0274134186
 20
3.6984933076
 11
5.0274134186
 21
4.3644933076
  0
LINE
  5
2C7
100
AcDbEntity
  8
03__ASM_ALL_CURVES
100
AcDbLine
 62
40
  6
CONTINUOUS
 10
5.3697609191
 20
5.0954061415
 11
5.3626843566
 21
5.0859707245
  0
LINE
  5
2C8
100
AcDbEntity
  8
03__ASM_ALL_CURVES
100
AcDbLine
 62
40
  6
CONTINUOUS
 10
5.5466749816
 20
5.1803248932
 11
5.5395984191
 21
5.170889472
  0
LINE
  5
2C9
100
AcDbEntity
  8
03__ASM_ALL_CURVES
100
AcDbLine
 62
40
  6
CONTINUOUS
 10
5.5608281066
 20
5.1897603076
 11
5.5466749816
 21
5.1803248932
  0
LINE
  5
2CA
100
AcDbEntity
  8
03__ASM_ALL_CURVES
100
AcDbLine
 62
40
  6
CONTINUOUS
 10
5.5891343566
 20
5.0859707245
 11
5.5749812316
 21
5.0765353076
  0
LINE
  5
2CB
100
AcDbEntity
  8
03__ASM_ALL_CURVES
100
AcDbLine
 62
40
  6
CONTINUOUS
 10
5.7731249816
 20
5.1803248932
 11
5.7872781066
 21
5.1897603076
  0
LINE
  5
2CC
100
AcDbEntity
  8
03__ASM_ALL_CURVES
100
AcDbLine
 62
40
  6
CONTINUOUS
 10
7.0478020586
 20
3.3845745576
 11
7.0371872149
 21
3.3845745576
  0
LINE
  5
2CD
100
AcDbEntity
  8
03__ASM_ALL_CURVES
100
AcDbLine
 62
40
  6
CONTINUOUS
 10
6.4129046502
 20
3.3845745576
 11
6.4022898065
 21
3.3845745576
  0
LINE
  5
2CE
100
AcDbEntity
  8
03__ASM_ALL_CURVES
100
AcDbLine
 62
40
  6
CONTINUOUS
 10
6.1581484002
 20
3.3845745576
 11
6.1475335565
 21
3.3845745576
  0
LINE
  5
2CF
100
AcDbEntity
  8
03__ASM_ALL_CURVES
100
AcDbLine
 62
40
  6
CONTINUOUS
 10
5.2071484002
 20
3.3845745576
 11
5.1965335565
 21
3.3845745576
  0
LINE
  5
2D0
100
AcDbEntity
  8
03__ASM_ALL_CURVES
100
AcDbLine
 62
40
  6
CONTINUOUS
 10
7.2760211992
 20
3.3845745576
 11
7.3184805742
 21
3.3845745576
  0
LINE
  5
2D1
100
AcDbEntity
  8
03__ASM_ALL_CURVES
100
AcDbLine
 62
40
  6
CONTINUOUS
 10
5.4353675409
 20
3.4058042451
 11
5.4831343377
 21
3.4058042451
  0
LINE
  5
2D2
100
AcDbEntity
  8
03__ASM_ALL_CURVES
100
AcDbLine
 62
40
  6
CONTINUOUS
 10
7.1327208086
 20
3.4270339326
 11
7.1061836992
 21
3.4270339326
  0
LINE
  5
2D3
100
AcDbEntity
  8
03__ASM_ALL_CURVES
100
AcDbLine
 62
40
  6
CONTINUOUS
 10
6.9628833086
 20
3.4270339326
 11
6.9363461992
 21
3.4270339326
  0
LINE
  5
2D4
100
AcDbEntity
  8
03__ASM_ALL_CURVES
100
AcDbLine
 62
40
  6
CONTINUOUS
 10
6.2430671502
 20
3.4270339326
 11
6.2165300409
 21
3.4270339326
  0
LINE
  5
2D5
100
AcDbEntity
  8
03__ASM_ALL_CURVES
100
AcDbLine
 62
40
  6
CONTINUOUS
 10
6.0732296502
 20
3.4270339326
 11
6.0466925409
 21
3.4270339326
  0
LINE
  5
2D6
100
AcDbEntity
  8
03__ASM_ALL_CURVES
100
AcDbLine
 62
40
  6
CONTINUOUS
 10
5.2920671502
 20
3.4270339326
 11
5.2655300409
 21
3.4270339326
  0
LINE
  5
2D7
100
AcDbEntity
  8
03__ASM_ALL_CURVES
100
AcDbLine
 62
40
  6
CONTINUOUS
 10
5.1222296502
 20
3.4270339326
 11
5.0956925409
 21
3.4270339326
  0
LINE
  5
2D8
100
AcDbEntity
  8
03__ASM_ALL_CURVES
100
AcDbLine
 62
40
  6
CONTINUOUS
 10
6.4022898065
 20
3.4341104934
 11
6.4129046502
 21
3.4341104934
  0
LINE
  5
2D9
100
AcDbEntity
  8
03__ASM_ALL_CURVES
100
AcDbLine
 62
40
  6
CONTINUOUS
 10
5.0956925409
 20
3.4694933076
 11
5.1222296502
 21
3.4694933076
  0
LINE
  5
2DA
100
AcDbEntity
  8
03__ASM_ALL_CURVES
100
AcDbLine
 62
40
  6
CONTINUOUS
 10
5.1965335565
 20
3.4694933076
 11
5.2071484002
 21
3.4694933076
  0
LINE
  5
2DB
100
AcDbEntity
  8
03__ASM_ALL_CURVES
100
AcDbLine
 62
40
  6
CONTINUOUS
 10
5.2655300409
 20
3.4694933076
 11
5.2920671502
 21
3.4694933076
  0
LINE
  5
2DC
100
AcDbEntity
  8
03__ASM_ALL_CURVES
100
AcDbLine
 62
40
  6
CONTINUOUS
 10
5.345141369
 20
3.4694933076
 11
5.3982155877
 21
3.4694933076
  0
LINE
  5
2DD
100
AcDbEntity
  8
03__ASM_ALL_CURVES
100
AcDbLine
 62
40
  6
CONTINUOUS
 10
6.0466925409
 20
3.4694933076
 11
6.0732296502
 21
3.4694933076
  0
LINE
  5
2DE
100
AcDbEntity
  8
03__ASM_ALL_CURVES
100
AcDbLine
 62
40
  6
CONTINUOUS
 10
6.1475335565
 20
3.4694933076
 11
6.1581484002
 21
3.4694933076
  0
LINE
  5
2DF
100
AcDbEntity
  8
03__ASM_ALL_CURVES
100
AcDbLine
 62
40
  6
CONTINUOUS
 10
6.2165300409
 20
3.4694933076
 11
6.2430671502
 21
3.4694933076
  0
LINE
  5
2E0
100
AcDbEntity
  8
03__ASM_ALL_CURVES
100
AcDbLine
 62
40
  6
CONTINUOUS
 10
6.296141369
 20
3.4694933076
 11
6.3492155877
 21
3.4694933076
  0
LINE
  5
2E1
100
AcDbEntity
  8
03__ASM_ALL_CURVES
100
AcDbLine
 62
40
  6
CONTINUOUS
 10
6.4022898065
 20
3.4694933076
 11
6.4129046502
 21
3.4694933076
  0
LINE
  5
2E2
100
AcDbEntity
  8
03__ASM_ALL_CURVES
100
AcDbLine
 62
40
  6
CONTINUOUS
 10
6.9363461992
 20
3.4694933076
 11
6.9628833086
 21
3.4694933076
  0
LINE
  5
2E3
100
AcDbEntity
  8
03__ASM_ALL_CURVES
100
AcDbLine
 62
40
  6
CONTINUOUS
 10
7.0371872149
 20
3.4694933076
 11
7.0478020586
 21
3.4694933076
  0
LINE
  5
2E4
100
AcDbEntity
  8
03__ASM_ALL_CURVES
100
AcDbLine
 62
40
  6
CONTINUOUS
 10
7.1061836992
 20
3.4694933076
 11
7.1327208086
 21
3.4694933076
  0
LINE
  5
2E5
100
AcDbEntity
  8
03__ASM_ALL_CURVES
100
AcDbLine
 62
40
  6
CONTINUOUS
 10
7.1857950274
 20
3.4694933076
 11
7.2388692461
 21
3.4694933076
  0
LINE
  5
2E6
100
AcDbEntity
  8
03__ASM_ALL_CURVES
100
AcDbLine
 62
40
  6
CONTINUOUS
 10
7.2919434649
 20
3.4694933076
 11
7.3025583086
 21
3.4694933076
  0
LINE
  5
2E7
100
AcDbEntity
  8
0
100
AcDbLine
 62
7
  6
CONTINUOUS
 10
4.0599134186
 20
3.5424933076
 11
3.6864770845
 21
3.5424933076
  0
LINE
  5
2E8
100
AcDbEntity
  8
0
100
AcDbLine
 62
7
  6
CONTINUOUS
 10
4.0599134186
 20
3.5433908351
 11
3.6864770845
 21
3.5433908351
  0
LINE
  5
2E9
100
AcDbEntity
  8
03__ASM_ALL_CURVES
100
AcDbLine
 62
40
  6
CONTINUOUS
 10
4.0714352936
 20
5.0859707245
 11
4.0643587311
 21
5.0954061415
  0
LINE
  5
2EA
100
AcDbEntity
  8
03__ASM_ALL_CURVES
100
AcDbLine
 62
40
  6
CONTINUOUS
 10
5.302681994
 20
3.4624167468
 11
5.3079894159
 21
3.4553401809
  0
LINE
  5
2EB
100
AcDbEntity
  8
03__ASM_ALL_CURVES
100
AcDbLine
 62
40
  6
CONTINUOUS
 10
4.0997415436
 20
5.1803248932
 11
4.1068181061
 21
5.170889472
  0
LINE
  5
2EC
100
AcDbEntity
  8
03__ASM_ALL_CURVES
100
AcDbLine
 62
40
  6
CONTINUOUS
 10
5.2920671502
 20
3.4270339326
 11
5.3079894159
 21
3.3845745576
  0
LINE
  5
2ED
100
AcDbEntity
  8
03__ASM_ALL_CURVES
100
AcDbLine
 62
40
  6
CONTINUOUS
 10
4.6974874816
 20
5.1614540576
 11
4.7045640441
 21
5.1331478076
  0
LINE
  5
2EE
100
AcDbEntity
  8
03__ASM_ALL_CURVES
100
AcDbLine
 62
40
  6
CONTINUOUS
 10
4.7399468566
 20
5.1048415576
 11
4.7328702941
 21
5.1331478076
  0
LINE
  5
2EF
100
AcDbEntity
  8
03__ASM_ALL_CURVES
100
AcDbLine
 62
40
  6
CONTINUOUS
 10
5.175303869
 20
3.4058042451
 11
5.1699964471
 21
3.4270339326
  0
LINE
  5
2F0
100
AcDbEntity
  8
03__ASM_ALL_CURVES
100
AcDbLine
 62
40
  6
CONTINUOUS
 10
5.2283780877
 20
3.4482636201
 11
5.2336855096
 21
3.4270339326
  0
LINE
  5
2F1
100
AcDbEntity
  8
03__ASM_ALL_CURVES
100
AcDbLine
 62
40
  6
CONTINUOUS
 10
5.0956925409
 20
3.3845745576
 11
5.0956925409
 21
3.4694933076
  0
LINE
  5
2F2
100
AcDbEntity
  8
03__ASM_ALL_CURVES
100
AcDbLine
 62
40
  6
CONTINUOUS
 10
5.1150046691
 20
5.1897603076
 11
5.1150046691
 21
5.0765353076
  0
LINE
  5
2F3
100
AcDbEntity
  8
03__ASM_ALL_CURVES
100
AcDbLine
 62
40
  6
CONTINUOUS
 10
5.1381519159
 20
3.4553401809
 11
5.1381519159
 21
3.4411870593
  0
LINE
  5
2F4
100
AcDbEntity
  8
03__ASM_ALL_CURVES
100
AcDbLine
 62
40
  6
CONTINUOUS
 10
5.1999234191
 20
5.0765353076
 11
5.1999234191
 21
5.1897603076
  0
LINE
  5
2F5
100
AcDbEntity
  8
03__ASM_ALL_CURVES
100
AcDbLine
 62
40
  6
CONTINUOUS
 10
5.2565359191
 20
5.0765353076
 11
5.2565359191
 21
5.1897603076
  0
LINE
  5
2F6
100
AcDbEntity
  8
03__ASM_ALL_CURVES
100
AcDbLine
 62
40
  6
CONTINUOUS
 10
5.2655300409
 20
3.3845745576
 11
5.2655300409
 21
3.4694933076
  0
LINE
  5
2F7
100
AcDbEntity
  8
03__ASM_ALL_CURVES
100
AcDbLine
 62
40
  6
CONTINUOUS
 10
5.2989952941
 20
5.1331478076
 11
5.3060718566
 21
5.1614540576
  0
LINE
  5
2F8
100
AcDbEntity
  8
03__ASM_ALL_CURVES
100
AcDbLine
 62
40
  6
CONTINUOUS
 10
5.5962109191
 20
5.0954061415
 11
5.5891343566
 21
5.0859707245
  0
LINE
  5
2F9
100
AcDbEntity
  8
03__ASM_ALL_CURVES
100
AcDbLine
 62
40
  6
CONTINUOUS
 10
5.7589718566
 20
5.1614540576
 11
5.7731249816
 21
5.1803248932
  0
LINE
  5
2FA
100
AcDbEntity
  8
0
100
AcDbLine
 62
7
  6
CONTINUOUS
 10
4.2749354566
 20
3.6123407601
 11
4.2664134186
 21
3.6029933076
  0
LINE
  5
2FB
100
AcDbEntity
  8
0
100
AcDbLine
 62
7
  6
CONTINUOUS
 10
4.1204134186
 20
3.6029933076
 11
4.0603621824
 21
3.5429420713
  0
LINE
  5
2FC
100
AcDbEntity
  8
03__ASM_ALL_CURVES
100
AcDbLine
 62
40
  6
CONTINUOUS
 10
5.8155843566
 20
5.0859707245
 11
5.8014312316
 21
5.0765353076
  0
LINE
  5
2FD
100
AcDbEntity
  8
03__ASM_ALL_CURVES
100
AcDbLine
 62
40
  6
CONTINUOUS
 10
5.9288093566
 20
5.0859707245
 11
5.9146562316
 21
5.0765353076
  0
LINE
  5
2FE
100
AcDbEntity
  8
0
100
AcDbLine
 62
7
  6
CONTINUOUS
 10
4.3394134186
 20
3.6029933076
 11
4.2864134186
 21
3.6029933076
  0
LINE
  5
2FF
100
AcDbEntity
  8
0
100
AcDbLine
 62
7
  6
CONTINUOUS
 10
4.2664134186
 20
3.6029933076
 11
4.1204134186
 21
3.6029933076
  0
LINE
  5
300
100
AcDbEntity
  8
THREAD
100
AcDbLine
 62
7
  6
CONTINUOUS
 10
4.3864134186
 20
3.6264933076
 11
4.3550018759
 21
3.6264933076
  0
LINE
  5
301
100
AcDbEntity
  8
0
100
AcDbLine
 62
7
  6
CONTINUOUS
 10
4.4564134186
 20
3.6269933076
 11
4.5064134186
 21
3.6269933076
  0
LINE
  5
302
100
AcDbEntity
  8
THREAD
100
AcDbLine
 62
7
  6
CONTINUOUS
 10
4.7949134186
 20
3.6439933076
 11
4.5477753786
 21
3.6439933076
  0
LINE
  5
303
100
AcDbEntity
  8
0
100
AcDbLine
 62
7
  6
CONTINUOUS
 10
3.6524134186
 20
3.6579933076
 11
3.2024134186
 21
3.6579933076
  0
LINE
  5
304
100
AcDbEntity
  8
THREAD
100
AcDbLine
 62
7
  6
CONTINUOUS
 10
4.5217946165
 20
3.6809933076
 11
4.5064134186
 21
3.6809933076
  0
LINE
  5
305
100
AcDbEntity
  8
0
100
AcDbLine
 62
7
  6
CONTINUOUS
 10
5.5289134186
 20
3.6844933076
 11
5.5914134186
 21
3.6844933076
  0
LINE
  5
306
100
AcDbEntity
  8
0
100
AcDbLine
 62
7
  6
CONTINUOUS
 10
5.7889134186
 20
3.6844933076
 11
5.8539134186
 21
3.6844933076
  0
LINE
  5
307
100
AcDbEntity
  8
0
100
AcDbLine
 62
7
  6
CONTINUOUS
 10
5.5914134186
 20
3.6849933076
 11
5.6414134186
 21
3.6849933076
  0
LINE
  5
308
100
AcDbEntity
  8
0
100
AcDbLine
 62
7
  6
CONTINUOUS
 10
5.7114134186
 20
3.6849933076
 11
5.7614134186
 21
3.6849933076
  0
LINE
  5
309
100
AcDbEntity
  8
THREAD
100
AcDbLine
 62
7
  6
CONTINUOUS
 10
5.0174134186
 20
3.6884933076
 11
4.8394134186
 21
3.6884933076
  0
LINE
  5
30A
100
AcDbEntity
  8
0
100
AcDbLine
 62
7
  6
CONTINUOUS
 10
6.7539134186
 20
3.7024933076
 11
6.6889134186
 21
3.7024933076
  0
LINE
  5
30B
100
AcDbEntity
  8
0
100
AcDbLine
 62
7
  6
CONTINUOUS
 10
6.4914134186
 20
3.7024933076
 11
6.4289134186
 21
3.7024933076
  0
LINE
  5
30C
100
AcDbEntity
  8
0
100
AcDbLine
 62
7
  6
CONTINUOUS
 10
7.6689134186
 20
3.7204933076
 11
7.5989134186
 21
3.7204933076
  0
LINE
  5
30D
100
AcDbEntity
  8
0
100
AcDbLine
 62
7
  6
CONTINUOUS
 10
7.4014134186
 20
3.7204933076
 11
7.333447562
 21
3.7204933076
  0
LINE
  5
30E
100
AcDbEntity
  8
0
100
AcDbLine
 62
7
  6
CONTINUOUS
 10
6.4914134186
 20
3.7209933076
 11
6.5414134186
 21
3.7209933076
  0
LINE
  5
30F
100
AcDbEntity
  8
0
100
AcDbLine
 62
7
  6
CONTINUOUS
 10
6.6114134186
 20
3.7209933076
 11
6.6614134186
 21
3.7209933076
  0
LINE
  5
310
100
AcDbEntity
  8
0
100
AcDbLine
 62
7
  6
CONTINUOUS
 10
7.4014134186
 20
3.7209933076
 11
7.4514134186
 21
3.7209933076
  0
LINE
  5
311
100
AcDbEntity
  8
0
100
AcDbLine
 62
7
  6
CONTINUOUS
 10
7.5214134186
 20
3.7209933076
 11
7.5714134186
 21
3.7209933076
  0
LINE
  5
312
100
AcDbEntity
  8
0
100
AcDbLine
 62
7
  6
CONTINUOUS
 10
5.7889134186
 20
3.7389933076
 11
5.7614134186
 21
3.7389933076
  0
LINE
  5
313
100
AcDbEntity
  8
0
100
AcDbLine
 62
7
  6
CONTINUOUS
 10
7.2904134186
 20
3.7502433076
 11
6.9984134186
 21
3.7502433076
  0
LINE
  5
314
100
AcDbEntity
  8
0
100
AcDbLine
 62
7
  6
CONTINUOUS
 10
6.8584134186
 20
3.7502433076
 11
6.7999134186
 21
3.7502433076
  0
LINE
  5
315
100
AcDbEntity
  8
0
100
AcDbLine
 62
7
  6
CONTINUOUS
 10
6.3829134186
 20
3.7502433076
 11
6.1394134186
 21
3.7502433076
  0
LINE
  5
316
100
AcDbEntity
  8
0
100
AcDbLine
 62
7
  6
CONTINUOUS
 10
5.9834134186
 20
3.7502433076
 11
5.8999134186
 21
3.7502433076
  0
LINE
  5
317
100
AcDbEntity
  8
0
100
AcDbLine
 62
7
  6
CONTINUOUS
 10
5.4829134186
 20
3.7514933076
 11
5.4364134186
 21
3.7514933076
  0
LINE
  5
318
100
AcDbEntity
  8
0
100
AcDbLine
 62
7
  6
CONTINUOUS
 10
5.2964134186
 20
3.7514933076
 11
5.0274134186
 21
3.7514933076
  0
LINE
  5
319
100
AcDbEntity
  8
THREAD
100
AcDbLine
 62
7
  6
CONTINUOUS
 10
4.3550018759
 20
4.4364933076
 11
4.3394134186
 21
4.4454933076
  0
LINE
  5
31A
100
AcDbEntity
  8
03__ASM_ALL_CURVES
100
AcDbLine
 62
40
  6
CONTINUOUS
 10
3.5123868561
 20
5.0765353076
 11
3.4982337311
 21
5.0859707245
  0
LINE
  5
31B
100
AcDbEntity
  8
03__ASM_ALL_CURVES
100
AcDbLine
 62
40
  6
CONTINUOUS
 10
6.1475335565
 20
3.3845745576
 11
6.1369187127
 21
3.3916511203
  0
LINE
  5
31C
100
AcDbEntity
  8
03__ASM_ALL_CURVES
100
AcDbLine
 62
40
  6
CONTINUOUS
 10
3.5123868561
 20
5.142583222
 11
3.4982337311
 21
5.1520186432
  0
LINE
  5
31D
100
AcDbEntity
  8
03__ASM_ALL_CURVES
100
AcDbLine
 62
40
  6
CONTINUOUS
 10
3.5265399811
 20
5.142583222
 11
3.5406931061
 21
5.1331478076
  0
LINE
  5
31E
100
AcDbEntity
  8
THREAD
100
AcDbLine
 62
7
  6
CONTINUOUS
 10
4.8394134186
 20
4.3744933076
 11
4.7949134186
 21
4.4189933076
  0
LINE
  5
31F
100
AcDbEntity
  8
03__ASM_ALL_CURVES
100
AcDbLine
 62
40
  6
CONTINUOUS
 10
4.3049618561
 20
5.1897603076
 11
4.3191149811
 21
5.170889472
  0
LINE
  5
320
100
AcDbEntity
  8
03__ASM_ALL_CURVES
100
AcDbLine
 62
40
  6
CONTINUOUS
 10
4.8885546691
 20
5.1897603076
 11
4.9239374816
 21
5.0765353076
  0
LINE
  5
321
100
AcDbEntity
  8
03__ASM_ALL_CURVES
100
AcDbLine
 62
40
  6
CONTINUOUS
 10
5.3079894159
 20
3.4553401809
 11
5.3079894159
 21
3.4411870593
  0
LINE
  5
322
100
AcDbEntity
  8
03__ASM_ALL_CURVES
100
AcDbLine
 62
40
  6
CONTINUOUS
 10
5.3697609191
 20
5.1331478076
 11
5.3697609191
 21
5.0954061415
  0
LINE
  5
323
100
AcDbEntity
  8
03__ASM_ALL_CURVES
100
AcDbLine
 62
40
  6
CONTINUOUS
 10
5.3716784784
 20
3.4694933076
 11
5.3716784784
 21
3.3845745576
  0
LINE
  5
324
100
AcDbEntity
  8
03__ASM_ALL_CURVES
100
AcDbLine
 62
40
  6
CONTINUOUS
 10
5.1699964471
 20
3.4270339326
 11
5.175303869
 21
3.4482636201
  0
LINE
  5
325
100
AcDbEntity
  8
03__ASM_ALL_CURVES
100
AcDbLine
 62
40
  6
CONTINUOUS
 10
5.8297374816
 20
5.1048415576
 11
5.8155843566
 21
5.0859707245
  0
LINE
  5
326
100
AcDbEntity
  8
03__ASM_ALL_CURVES
100
AcDbLine
 62
40
  6
CONTINUOUS
 10
5.9358859191
 20
5.0954061415
 11
5.9288093566
 21
5.0859707245
  0
LINE
  5
327
100
AcDbEntity
  8
03__ASM_ALL_CURVES
100
AcDbLine
 62
40
  6
CONTINUOUS
 10
6.1481827941
 20
5.0859707245
 11
6.1340296691
 21
5.0765353076
  0
LINE
  5
328
100
AcDbEntity
  8
03__ASM_ALL_CURVES
100
AcDbLine
 62
40
  6
CONTINUOUS
 10
6.3817093566
 20
5.142583222
 11
6.3675562316
 21
5.1331478076
  0
LINE
  5
329
100
AcDbEntity
  8
0
100
AcDbLine
 62
7
  6
CONTINUOUS
 10
6.6889134186
 20
3.7574933076
 11
6.6614134186
 21
3.7574933076
  0
LINE
  5
32A
100
AcDbEntity
  8
0
100
AcDbLine
 62
7
  6
CONTINUOUS
 10
4.0599134186
 20
3.7617957801
 11
3.6864770845
 21
3.7617957801
  0
LINE
  5
32B
100
AcDbEntity
  8
0
100
AcDbLine
 62
7
  6
CONTINUOUS
 10
7.5989134186
 20
3.7749933076
 11
7.5714134186
 21
3.7749933076
  0
LINE
  5
32C
100
AcDbEntity
  8
0
100
AcDbLine
 62
7
  6
CONTINUOUS
 10
4.0599134186
 20
3.8130883626
 11
3.6864770845
 21
3.8130883626
  0
LINE
  5
32D
100
AcDbEntity
  8
0
100
AcDbLine
 62
7
  6
CONTINUOUS
 10
5.4308391609
 20
3.9144933076
 11
5.3019872858
 21
3.9144933076
  0
LINE
  5
32E
100
AcDbEntity
  8
0
100
AcDbLine
 62
7
  6
CONTINUOUS
 10
6.9544134186
 20
3.9209933076
 11
6.8673268535
 21
3.9209933076
  0
LINE
  5
32F
100
AcDbEntity
  8
0
100
AcDbLine
 62
7
  6
CONTINUOUS
 10
6.1692362572
 20
3.9209933076
 11
6.0884134186
 21
3.9209933076
  0
LINE
  5
330
100
AcDbEntity
  8
03__ASM_ALL_CURVES
100
AcDbLine
 62
40
  6
CONTINUOUS
 10
6.0732296502
 20
3.4694933076
 11
6.083844494
 21
3.4624167468
  0
LINE
  5
331
100
AcDbEntity
  8
03__ASM_ALL_CURVES
100
AcDbLine
 62
40
  6
CONTINUOUS
 10
3.5265399811
 20
5.1897603076
 11
3.5406931061
 21
5.1803248932
  0
LINE
  5
332
100
AcDbEntity
  8
03__ASM_ALL_CURVES
100
AcDbLine
 62
40
  6
CONTINUOUS
 10
6.1581484002
 20
3.4694933076
 11
6.168763244
 21
3.4624167468
  0
LINE
  5
333
100
AcDbEntity
  8
03__ASM_ALL_CURVES
100
AcDbLine
 62
40
  6
CONTINUOUS
 10
6.2430671502
 20
3.4694933076
 11
6.253681994
 21
3.4624167468
  0
LINE
  5
334
100
AcDbEntity
  8
03__ASM_ALL_CURVES
100
AcDbLine
 62
40
  6
CONTINUOUS
 10
3.8591384186
 20
5.0765353076
 11
3.8449852936
 21
5.0859707245
  0
LINE
  5
335
100
AcDbEntity
  8
03__ASM_ALL_CURVES
100
AcDbLine
 62
40
  6
CONTINUOUS
 10
6.4022898065
 20
3.3845745576
 11
6.3916749627
 21
3.3916511203
  0
LINE
  5
336
100
AcDbEntity
  8
03__ASM_ALL_CURVES
100
AcDbLine
 62
40
  6
CONTINUOUS
 10
3.7529899811
 20
5.1897603076
 11
3.7671431061
 21
5.1803248932
  0
LINE
  5
337
100
AcDbEntity
  8
03__ASM_ALL_CURVES
100
AcDbLine
 62
40
  6
CONTINUOUS
 10
6.4129046502
 20
3.4341104934
 11
6.423519494
 21
3.4270339326
  0
LINE
  5
338
100
AcDbEntity
  8
0
100
AcDbLine
 62
7
  6
CONTINUOUS
 10
5.0274134186
 20
4.3644933076
 11
5.0174134186
 21
4.3744933076
  0
LINE
  5
339
100
AcDbEntity
  8
03__ASM_ALL_CURVES
100
AcDbLine
 62
40
  6
CONTINUOUS
 10
4.6408749816
 20
5.0859707245
 11
4.6267218566
 21
5.1048415576
  0
LINE
  5
33A
100
AcDbEntity
  8
03__ASM_ALL_CURVES
100
AcDbLine
 62
40
  6
CONTINUOUS
 10
4.7540999816
 20
5.0859707245
 11
4.7399468566
 21
5.1048415576
  0
LINE
  5
33B
100
AcDbEntity
  8
03__ASM_ALL_CURVES
100
AcDbLine
 62
40
  6
CONTINUOUS
 10
4.6833343566
 20
5.1803248932
 11
4.6974874816
 21
5.1614540576
  0
LINE
  5
33C
100
AcDbEntity
  8
03__ASM_ALL_CURVES
100
AcDbLine
 62
40
  6
CONTINUOUS
 10
5.472519494
 20
3.3845745576
 11
5.472519494
 21
3.4694933076
  0
LINE
  5
33D
100
AcDbEntity
  8
0
100
AcDbLine
 62
7
  6
CONTINUOUS
 10
5.4829134186
 20
3.7514933076
 11
5.4829134186
 21
4.3114933076
  0
LINE
  5
33E
100
AcDbEntity
  8
0
100
AcDbLine
 62
7
  6
CONTINUOUS
 10
5.5289134186
 20
4.3784838494
 11
5.5289134186
 21
3.6845027658
  0
LINE
  5
33F
100
AcDbEntity
  8
03__ASM_ALL_CURVES
100
AcDbLine
 62
40
  6
CONTINUOUS
 10
5.5395984191
 20
5.170889472
 11
5.5395984191
 21
5.1614540576
  0
LINE
  5
340
100
AcDbEntity
  8
0
100
AcDbLine
 62
7
  6
CONTINUOUS
 10
5.5914134186
 20
4.3784838494
 11
5.5914134186
 21
3.6845027658
  0
LINE
  5
341
100
AcDbEntity
  8
03__ASM_ALL_CURVES
100
AcDbLine
 62
40
  6
CONTINUOUS
 10
5.5962109191
 20
5.1142769754
 11
5.5962109191
 21
5.0954061415
  0
LINE
  5
342
100
AcDbEntity
  8
03__ASM_ALL_CURVES
100
AcDbLine
 62
40
  6
CONTINUOUS
 10
5.2336855096
 20
3.4270339326
 11
5.2283780877
 21
3.4058042451
  0
LINE
  5
343
100
AcDbEntity
  8
03__ASM_ALL_CURVES
100
AcDbLine
 62
40
  6
CONTINUOUS
 10
5.7518952941
 20
5.1331478076
 11
5.7589718566
 21
5.1614540576
  0
LINE
  5
344
100
AcDbEntity
  8
03__ASM_ALL_CURVES
100
AcDbLine
 62
40
  6
CONTINUOUS
 10
5.8368140441
 20
5.1331478076
 11
5.8297374816
 21
5.1048415576
  0
LINE
  5
345
100
AcDbEntity
  8
03__ASM_ALL_CURVES
100
AcDbLine
 62
40
  6
CONTINUOUS
 10
6.1623359191
 20
5.1048415576
 11
6.1481827941
 21
5.0859707245
  0
LINE
  5
346
100
AcDbEntity
  8
THREAD
100
AcDbLine
 62
7
  6
CONTINUOUS
 10
4.8394134186
 20
3.6884933076
 11
4.7949134186
 21
3.6439933076
  0
LINE
  5
347
100
AcDbEntity
  8
03__ASM_ALL_CURVES
100
AcDbLine
 62
40
  6
CONTINUOUS
 10
8.2008692774
 20
4.0541383076
 11
8.1902544337
 21
4.0541383076
  0
LINE
  5
348
100
AcDbEntity
  8
03__ASM_ALL_CURVES
100
AcDbLine
 62
40
  6
CONTINUOUS
 10
8.2857880274
 20
4.0965976826
 11
8.259250918
 21
4.0965976826
  0
LINE
  5
349
100
AcDbEntity
  8
03__ASM_ALL_CURVES
100
AcDbLine
 62
40
  6
CONTINUOUS
 10
8.1159505274
 20
4.0965976826
 11
8.089413418
 21
4.0965976826
  0
LINE
  5
34A
100
AcDbEntity
  8
0
100
AcDbLine
 62
7
  6
CONTINUOUS
 10
6.9544134186
 20
3.9209933076
 11
6.9672301691
 21
3.9192120084
  0
LINE
  5
34B
100
AcDbEntity
  8
03__ASM_ALL_CURVES
100
AcDbLine
 62
40
  6
CONTINUOUS
 10
6.4129046502
 20
3.4694933076
 11
6.423519494
 21
3.4624167468
  0
LINE
  5
34C
100
AcDbEntity
  8
03__ASM_ALL_CURVES
100
AcDbLine
 62
40
  6
CONTINUOUS
 10
3.8591384186
 20
5.1897603076
 11
3.8732915436
 21
5.1803248932
  0
LINE
  5
34D
100
AcDbEntity
  8
03__ASM_ALL_CURVES
100
AcDbLine
 62
40
  6
CONTINUOUS
 10
4.0855884186
 20
5.0765353076
 11
4.0714352936
 21
5.0859707245
  0
LINE
  5
34E
100
AcDbEntity
  8
03__ASM_ALL_CURVES
100
AcDbLine
 62
40
  6
CONTINUOUS
 10
4.0855884186
 20
5.1897603076
 11
4.0997415436
 21
5.1803248932
  0
LINE
  5
34F
100
AcDbEntity
  8
03__ASM_ALL_CURVES
100
AcDbLine
 62
40
  6
CONTINUOUS
 10
6.1369187127
 20
3.3916511203
 11
6.126303869
 21
3.4058042451
  0
LINE
  5
350
100
AcDbEntity
  8
03__ASM_ALL_CURVES
100
AcDbLine
 62
40
  6
CONTINUOUS
 10
6.083844494
 20
3.4624167468
 11
6.0891519159
 21
3.4553401809
  0
LINE
  5
351
100
AcDbEntity
  8
03__ASM_ALL_CURVES
100
AcDbLine
 62
40
  6
CONTINUOUS
 10
4.7965593566
 20
5.1803248932
 11
4.8036359191
 21
5.170889472
  0
LINE
  5
352
100
AcDbEntity
  8
03__ASM_ALL_CURVES
100
AcDbLine
 62
40
  6
CONTINUOUS
 10
6.168763244
 20
3.4624167468
 11
6.1793780877
 21
3.4482636201
  0
LINE
  5
353
100
AcDbEntity
  8
03__ASM_ALL_CURVES
100
AcDbLine
 62
40
  6
CONTINUOUS
 10
5.3060718566
 20
5.1048415576
 11
5.2989952941
 21
5.1331478076
  0
LINE
  5
354
100
AcDbEntity
  8
0
100
AcDbLine
 62
7
  6
CONTINUOUS
 10
5.6414134186
 20
3.6849938344
 11
5.6414134186
 21
4.3779927808
  0
LINE
  5
355
100
AcDbEntity
  8
03__ASM_ALL_CURVES
100
AcDbLine
 62
40
  6
CONTINUOUS
 10
5.6528234191
 20
5.1897603076
 11
5.6528234191
 21
5.0765353076
  0
LINE
  5
356
100
AcDbEntity
  8
03__ASM_ALL_CURVES
100
AcDbLine
 62
40
  6
CONTINUOUS
 10
5.7094359191
 20
5.1897603076
 11
5.7094359191
 21
5.0765353076
  0
LINE
  5
357
100
AcDbEntity
  8
0
100
AcDbLine
 62
7
  6
CONTINUOUS
 10
5.7114134186
 20
3.6849938344
 11
5.7114134186
 21
4.3779927808
  0
LINE
  5
358
100
AcDbEntity
  8
0
100
AcDbLine
 62
7
  6
CONTINUOUS
 10
5.7614134186
 20
3.6849938344
 11
5.7614134186
 21
4.3779927808
  0
LINE
  5
359
100
AcDbEntity
  8
0
100
AcDbLine
 62
7
  6
CONTINUOUS
 10
5.7889134186
 20
4.3784838494
 11
5.7889134186
 21
3.6845027658
  0
LINE
  5
35A
100
AcDbEntity
  8
03__ASM_ALL_CURVES
100
AcDbLine
 62
40
  6
CONTINUOUS
 10
6.3887859191
 20
5.1520186432
 11
6.3817093566
 21
5.142583222
  0
LINE
  5
35B
100
AcDbEntity
  8
03__ASM_ALL_CURVES
100
AcDbLine
 62
40
  6
CONTINUOUS
 10
5.1381519159
 20
3.4411870593
 11
5.132844494
 21
3.4341104934
  0
LINE
  5
35C
100
AcDbEntity
  8
03__ASM_ALL_CURVES
100
AcDbLine
 62
40
  6
CONTINUOUS
 10
5.175303869
 20
3.4482636201
 11
5.1859187127
 21
3.4624167468
  0
LINE
  5
35D
100
AcDbEntity
  8
0
100
AcDbLine
 62
7
  6
CONTINUOUS
 10
5.0274134186
 20
3.6984933076
 11
5.0174134186
 21
3.6884933076
  0
LINE
  5
35E
100
AcDbEntity
  8
THREAD
100
AcDbLine
 62
7
  6
CONTINUOUS
 10
4.3550018759
 20
3.6264933076
 11
4.3394134186
 21
3.6174933076
  0
LINE
  5
35F
100
AcDbEntity
  8
03__ASM_ALL_CURVES
100
AcDbLine
 62
40
  6
CONTINUOUS
 10
8.089413418
 20
4.1390570576
 11
8.1159505274
 21
4.1390570576
  0
LINE
  5
360
100
AcDbEntity
  8
03__ASM_ALL_CURVES
100
AcDbLine
 62
40
  6
CONTINUOUS
 10
8.1902544337
 20
4.1390570576
 11
8.2008692774
 21
4.1390570576
  0
LINE
  5
361
100
AcDbEntity
  8
03__ASM_ALL_CURVES
100
AcDbLine
 62
40
  6
CONTINUOUS
 10
8.259250918
 20
4.1390570576
 11
8.2857880274
 21
4.1390570576
  0
LINE
  5
362
100
AcDbEntity
  8
03__ASM_ALL_CURVES
100
AcDbLine
 62
40
  6
CONTINUOUS
 10
8.3388622462
 20
4.1390570576
 11
8.3919364649
 21
4.1390570576
  0
LINE
  5
363
100
AcDbEntity
  8
0
100
AcDbLine
 62
7
  6
CONTINUOUS
 10
6.9544134186
 20
4.1419933076
 11
6.8672004922
 21
4.1419933076
  0
LINE
  5
364
100
AcDbEntity
  8
0
100
AcDbLine
 62
7
  6
CONTINUOUS
 10
6.1314948293
 20
4.1419933076
 11
6.0884134186
 21
4.1419933076
  0
LINE
  5
365
100
AcDbEntity
  8
0
100
AcDbLine
 62
7
  6
CONTINUOUS
 10
5.4308395514
 20
4.1484933076
 11
5.3019876763
 21
4.1484933076
  0
LINE
  5
366
100
AcDbEntity
  8
0
100
AcDbLine
 62
7
  6
CONTINUOUS
 10
4.0599134186
 20
4.2498982526
 11
3.6864770845
 21
4.2498982526
  0
LINE
  5
367
100
AcDbEntity
  8
0
100
AcDbLine
 62
7
  6
CONTINUOUS
 10
7.5989134186
 20
4.2879933076
 11
7.5714134186
 21
4.2879933076
  0
LINE
  5
368
100
AcDbEntity
  8
0
100
AcDbLine
 62
7
  6
CONTINUOUS
 10
4.0599134186
 20
4.3011908351
 11
3.6864770845
 21
4.3011908351
  0
LINE
  5
369
100
AcDbEntity
  8
0
100
AcDbLine
 62
7
  6
CONTINUOUS
 10
6.6889134186
 20
4.3054933076
 11
6.6614134186
 21
4.3054933076
  0
LINE
  5
36A
100
AcDbEntity
  8
0
100
AcDbLine
 62
7
  6
CONTINUOUS
 10
5.4829134186
 20
4.3114933076
 11
5.4364134186
 21
4.3114933076
  0
LINE
  5
36B
100
AcDbEntity
  8
0
100
AcDbLine
 62
7
  6
CONTINUOUS
 10
5.2964134186
 20
4.3114933076
 11
5.0274134186
 21
4.3114933076
  0
LINE
  5
36C
100
AcDbEntity
  8
03__ASM_ALL_CURVES
100
AcDbLine
 62
40
  6
CONTINUOUS
 10
3.8591384186
 20
5.1237123898
 11
3.8379087311
 21
5.1331478076
  0
LINE
  5
36D
100
AcDbEntity
  8
03__ASM_ALL_CURVES
100
AcDbLine
 62
40
  6
CONTINUOUS
 10
7.0371872149
 20
3.3845745576
 11
7.0265723711
 21
3.3916511203
  0
LINE
  5
36E
100
AcDbEntity
  8
03__ASM_ALL_CURVES
100
AcDbLine
 62
40
  6
CONTINUOUS
 10
6.9628833086
 20
3.4694933076
 11
6.9734981524
 21
3.4624167468
  0
LINE
  5
36F
100
AcDbEntity
  8
03__ASM_ALL_CURVES
100
AcDbLine
 62
40
  6
CONTINUOUS
 10
7.0478020586
 20
3.4694933076
 11
7.0584169024
 21
3.4624167468
  0
LINE
  5
370
100
AcDbEntity
  8
03__ASM_ALL_CURVES
100
AcDbLine
 62
40
  6
CONTINUOUS
 10
4.6550281066
 20
5.0765353076
 11
4.6408749816
 21
5.0859707245
  0
LINE
  5
371
100
AcDbEntity
  8
03__ASM_ALL_CURVES
100
AcDbLine
 62
40
  6
CONTINUOUS
 10
6.253681994
 20
3.4624167468
 11
6.2589894159
 21
3.4553401809
  0
LINE
  5
372
100
AcDbEntity
  8
03__ASM_ALL_CURVES
100
AcDbLine
 62
40
  6
CONTINUOUS
 10
6.3916749627
 20
3.3916511203
 11
6.3863675409
 21
3.398727683
  0
LINE
  5
373
100
AcDbEntity
  8
03__ASM_ALL_CURVES
100
AcDbLine
 62
40
  6
CONTINUOUS
 10
6.423519494
 20
3.4270339326
 11
6.4341343377
 21
3.4128808084
  0
LINE
  5
374
100
AcDbEntity
  8
03__ASM_ALL_CURVES
100
AcDbLine
 62
40
  6
CONTINUOUS
 10
6.423519494
 20
3.4624167468
 11
6.4288269159
 21
3.4553401809
  0
LINE
  5
375
100
AcDbEntity
  8
03__ASM_ALL_CURVES
100
AcDbLine
 62
40
  6
CONTINUOUS
 10
5.1999234191
 20
5.1897603076
 11
5.2565359191
 21
5.0765353076
  0
LINE
  5
376
100
AcDbEntity
  8
0
100
AcDbLine
 62
7
  6
CONTINUOUS
 10
5.8539134186
 20
4.3784838494
 11
5.8539134186
 21
3.6845027658
  0
LINE
  5
377
100
AcDbEntity
  8
03__ASM_ALL_CURVES
100
AcDbLine
 62
40
  6
CONTINUOUS
 10
5.8792734191
 20
5.0954061415
 11
5.8792734191
 21
5.1897603076
  0
LINE
  5
378
100
AcDbEntity
  8
0
100
AcDbLine
 62
7
  6
CONTINUOUS
 10
5.8999134186
 20
3.7502433076
 11
5.8999134186
 21
4.3127433076
  0
LINE
  5
379
100
AcDbEntity
  8
03__ASM_ALL_CURVES
100
AcDbLine
 62
40
  6
CONTINUOUS
 10
5.9358859191
 20
5.1897603076
 11
5.9358859191
 21
5.0954061415
  0
LINE
  5
37A
100
AcDbEntity
  8
0
100
AcDbLine
 62
7
  6
CONTINUOUS
 10
5.9874134186
 20
4.1524483622
 11
5.9874134186
 21
4.1515032543
  0
LINE
  5
37B
100
AcDbEntity
  8
03__ASM_ALL_CURVES
100
AcDbLine
 62
40
  6
CONTINUOUS
 10
5.9924984191
 20
5.1897603076
 11
5.9924984191
 21
5.0765353076
  0
LINE
  5
37C
100
AcDbEntity
  8
0
100
AcDbLine
 62
7
  6
CONTINUOUS
 10
5.9944134186
 20
4.1652164636
 11
5.9944134186
 21
4.1367397675
  0
LINE
  5
37D
100
AcDbEntity
  8
0
100
AcDbLine
 62
7
  6
CONTINUOUS
 10
6.0044134186
 20
4.1755958156
 11
6.0044134186
 21
4.1237397171
  0
LINE
  5
37E
100
AcDbEntity
  8
0
100
AcDbLine
 62
7
  6
CONTINUOUS
 10
6.0114134186
 20
4.179926516
 11
6.0114134186
 21
4.1177257436
  0
LINE
  5
37F
100
AcDbEntity
  8
03__ASM_ALL_CURVES
100
AcDbLine
 62
40
  6
CONTINUOUS
 10
6.1694124816
 20
5.1331478076
 11
6.1623359191
 21
5.1048415576
  0
LINE
  5
380
100
AcDbEntity
  8
03__ASM_ALL_CURVES
100
AcDbLine
 62
40
  6
CONTINUOUS
 10
5.472519494
 20
3.4694933076
 11
5.4353675409
 21
3.4058042451
  0
LINE
  5
381
100
AcDbEntity
  8
03__ASM_ALL_CURVES
100
AcDbLine
 62
40
  6
CONTINUOUS
 10
5.2283780877
 20
3.4058042451
 11
5.217763244
 21
3.3916511203
  0
LINE
  5
382
100
AcDbEntity
  8
03__ASM_ALL_CURVES
100
AcDbLine
 62
40
  6
CONTINUOUS
 10
5.3079894159
 20
3.4411870593
 11
5.302681994
 21
3.4341104934
  0
LINE
  5
383
100
AcDbEntity
  8
0
100
AcDbLine
 62
7
  6
CONTINUOUS
 10
7.2904134186
 20
4.3127433076
 11
7.044407701
 21
4.3127433076
  0
LINE
  5
384
100
AcDbEntity
  8
0
100
AcDbLine
 62
7
  6
CONTINUOUS
 10
6.8584134422
 20
4.3127433076
 11
6.7999134186
 21
4.3127433076
  0
LINE
  5
385
100
AcDbEntity
  8
0
100
AcDbLine
 62
7
  6
CONTINUOUS
 10
6.3829134186
 20
4.3127433076
 11
6.1774134186
 21
4.3127433076
  0
LINE
  5
386
100
AcDbEntity
  8
0
100
AcDbLine
 62
7
  6
CONTINUOUS
 10
6.0214134186
 20
4.3127433076
 11
5.8999134186
 21
4.3127433076
  0
LINE
  5
387
100
AcDbEntity
  8
0
100
AcDbLine
 62
7
  6
CONTINUOUS
 10
5.7889134186
 20
4.3239933076
 11
5.7614134186
 21
4.3239933076
  0
LINE
  5
388
100
AcDbEntity
  8
0
100
AcDbLine
 62
7
  6
CONTINUOUS
 10
6.4914134186
 20
4.3419933076
 11
6.5414134186
 21
4.3419933076
  0
LINE
  5
389
100
AcDbEntity
  8
0
100
AcDbLine
 62
7
  6
CONTINUOUS
 10
6.6114134186
 20
4.3419933076
 11
6.6614134186
 21
4.3419933076
  0
LINE
  5
38A
100
AcDbEntity
  8
0
100
AcDbLine
 62
7
  6
CONTINUOUS
 10
7.4014134186
 20
4.3419933076
 11
7.4514134186
 21
4.3419933076
  0
LINE
  5
38B
100
AcDbEntity
  8
0
100
AcDbLine
 62
7
  6
CONTINUOUS
 10
7.5214134186
 20
4.3419933076
 11
7.5714134186
 21
4.3419933076
  0
LINE
  5
38C
100
AcDbEntity
  8
0
100
AcDbLine
 62
7
  6
CONTINUOUS
 10
7.6689134186
 20
4.3424933076
 11
7.5989134186
 21
4.3424933076
  0
LINE
  5
38D
100
AcDbEntity
  8
0
100
AcDbLine
 62
7
  6
CONTINUOUS
 10
7.4014134186
 20
4.3424933076
 11
7.333447562
 21
4.3424933076
  0
LINE
  5
38E
100
AcDbEntity
  8
0
100
AcDbLine
 62
7
  6
CONTINUOUS
 10
6.7539134186
 20
4.3604933076
 11
6.6889134186
 21
4.3604933076
  0
LINE
  5
38F
100
AcDbEntity
  8
0
100
AcDbLine
 62
7
  6
CONTINUOUS
 10
6.4914134186
 20
4.3604933076
 11
6.4289134186
 21
4.3604933076
  0
LINE
  5
390
100
AcDbEntity
  8
THREAD
100
AcDbLine
 62
7
  6
CONTINUOUS
 10
5.0174134186
 20
4.3744933076
 11
4.8394134186
 21
4.3744933076
  0
LINE
  5
391
100
AcDbEntity
  8
0
100
AcDbLine
 62
7
  6
CONTINUOUS
 10
5.5914134186
 20
4.3779933076
 11
5.6414134186
 21
4.3779933076
  0
LINE
  5
392
100
AcDbEntity
  8
0
100
AcDbLine
 62
7
  6
CONTINUOUS
 10
5.7114134186
 20
4.3779933076
 11
5.7614134186
 21
4.3779933076
  0
LINE
  5
393
100
AcDbEntity
  8
0
100
AcDbLine
 62
7
  6
CONTINUOUS
 10
5.5289134186
 20
4.3784933076
 11
5.5914134186
 21
4.3784933076
  0
LINE
  5
394
100
AcDbEntity
  8
0
100
AcDbLine
 62
7
  6
CONTINUOUS
 10
5.7889134186
 20
4.3784933076
 11
5.8539134186
 21
4.3784933076
  0
LINE
  5
395
100
AcDbEntity
  8
THREAD
100
AcDbLine
 62
7
  6
CONTINUOUS
 10
4.5217946165
 20
4.3819933076
 11
4.5064134186
 21
4.3819933076
  0
LINE
  5
396
100
AcDbEntity
  8
0
100
AcDbLine
 62
7
  6
CONTINUOUS
 10
3.6524134186
 20
4.4049933076
 11
3.2024134186
 21
4.4049933076
  0
LINE
  5
397
100
AcDbEntity
  8
THREAD
100
AcDbLine
 62
7
  6
CONTINUOUS
 10
4.7949134186
 20
4.4189933076
 11
4.5477753786
 21
4.4189933076
  0
LINE
  5
398
100
AcDbEntity
  8
0
100
AcDbLine
 62
7
  6
CONTINUOUS
 10
4.4564134186
 20
4.4359933076
 11
4.5064134186
 21
4.4359933076
  0
LINE
  5
399
100
AcDbEntity
  8
THREAD
100
AcDbLine
 62
7
  6
CONTINUOUS
 10
4.3864134186
 20
4.4364933076
 11
4.3550018759
 21
4.4364933076
  0
LINE
  5
39A
100
AcDbEntity
  8
0
100
AcDbLine
 62
7
  6
CONTINUOUS
 10
4.3394134186
 20
4.4599933076
 11
4.2864134186
 21
4.4599933076
  0
LINE
  5
39B
100
AcDbEntity
  8
0
100
AcDbLine
 62
7
  6
CONTINUOUS
 10
4.2664134186
 20
4.4599933076
 11
4.1204134186
 21
4.4599933076
  0
LINE
  5
39C
100
AcDbEntity
  8
03__ASM_ALL_CURVES
100
AcDbLine
 62
40
  6
CONTINUOUS
 10
4.0855884186
 20
5.1237123898
 11
4.0643587311
 21
5.1331478076
  0
LINE
  5
39D
100
AcDbEntity
  8
03__ASM_ALL_CURVES
100
AcDbLine
 62
40
  6
CONTINUOUS
 10
7.1327208086
 20
3.4694933076
 11
7.1433356524
 21
3.4624167468
  0
LINE
  5
39E
100
AcDbEntity
  8
03__ASM_ALL_CURVES
100
AcDbLine
 62
40
  6
CONTINUOUS
 10
4.7682531066
 20
5.0765353076
 11
4.7540999816
 21
5.0859707245
  0
LINE
  5
39F
100
AcDbEntity
  8
03__ASM_ALL_CURVES
100
AcDbLine
 62
40
  6
CONTINUOUS
 10
4.6691812316
 20
5.1897603076
 11
4.6833343566
 21
5.1803248932
  0
LINE
  5
3A0
100
AcDbEntity
  8
03__ASM_ALL_CURVES
100
AcDbLine
 62
40
  6
CONTINUOUS
 10
7.3025583086
 20
3.4694933076
 11
7.3131731524
 21
3.4624167468
  0
LINE
  5
3A1
100
AcDbEntity
  8
03__ASM_ALL_CURVES
100
AcDbLine
 62
40
  6
CONTINUOUS
 10
4.7824062316
 20
5.1897603076
 11
4.7965593566
 21
5.1803248932
  0
LINE
  5
3A2
100
AcDbEntity
  8
03__ASM_ALL_CURVES
100
AcDbLine
 62
40
  6
CONTINUOUS
 10
5.3202249816
 20
5.0859707245
 11
5.3060718566
 21
5.1048415576
  0
LINE
  5
3A3
100
AcDbEntity
  8
03__ASM_ALL_CURVES
100
AcDbLine
 62
40
  6
CONTINUOUS
 10
5.3626843566
 20
5.1803248932
 11
5.3697609191
 21
5.170889472
  0
LINE
  5
3A4
100
AcDbEntity
  8
03__ASM_ALL_CURVES
100
AcDbLine
 62
40
  6
CONTINUOUS
 10
6.2430671502
 20
3.4270339326
 11
6.2589894159
 21
3.3845745576
  0
LINE
  5
3A5
100
AcDbEntity
  8
03__ASM_ALL_CURVES
100
AcDbLine
 62
40
  6
CONTINUOUS
 10
6.126303869
 20
3.4058042451
 11
6.1209964471
 21
3.4270339326
  0
LINE
  5
3A6
100
AcDbEntity
  8
03__ASM_ALL_CURVES
100
AcDbLine
 62
40
  6
CONTINUOUS
 10
5.7589718566
 20
5.1048415576
 11
5.7518952941
 21
5.1331478076
  0
LINE
  5
3A7
100
AcDbEntity
  8
03__ASM_ALL_CURVES
100
AcDbLine
 62
40
  6
CONTINUOUS
 10
6.1793780877
 20
3.4482636201
 11
6.1846855096
 21
3.4270339326
  0
LINE
  5
3A8
100
AcDbEntity
  8
0
100
AcDbLine
 62
7
  6
CONTINUOUS
 10
6.0414134186
 20
4.1908470199
 11
6.0414134186
 21
4.1022517583
  0
LINE
  5
3A9
100
AcDbEntity
  8
0
100
AcDbLine
 62
7
  6
CONTINUOUS
 10
6.0414134186
 20
3.937826107
 11
6.0414134186
 21
3.888582936
  0
LINE
  5
3AA
100
AcDbEntity
  8
03__ASM_ALL_CURVES
100
AcDbLine
 62
40
  6
CONTINUOUS
 10
6.0466925409
 20
3.3845745576
 11
6.0466925409
 21
3.4694933076
  0
LINE
  5
3AB
100
AcDbEntity
  8
0
100
AcDbLine
 62
7
  6
CONTINUOUS
 10
6.0884134186
 20
4.1419933076
 11
6.0884134186
 21
4.1039777027
  0
LINE
  5
3AC
100
AcDbEntity
  8
0
100
AcDbLine
 62
7
  6
CONTINUOUS
 10
6.0884134186
 20
3.9209933076
 11
6.0884134186
 21
3.962493656
  0
LINE
  5
3AD
100
AcDbEntity
  8
03__ASM_ALL_CURVES
100
AcDbLine
 62
40
  6
CONTINUOUS
 10
6.0891519159
 20
3.4553401809
 11
6.0891519159
 21
3.4411870593
  0
LINE
  5
3AE
100
AcDbEntity
  8
03__ASM_ALL_CURVES
100
AcDbLine
 62
40
  6
CONTINUOUS
 10
6.1057234191
 20
5.0765353076
 11
6.1057234191
 21
5.1897603076
  0
LINE
  5
3AF
100
AcDbEntity
  8
03__ASM_ALL_CURVES
100
AcDbLine
 62
40
  6
CONTINUOUS
 10
5.132844494
 20
3.4341104934
 11
5.1222296502
 21
3.4270339326
  0
LINE
  5
3B0
100
AcDbEntity
  8
03__ASM_ALL_CURVES
100
AcDbLine
 62
40
  6
CONTINUOUS
 10
5.1859187127
 20
3.4624167468
 11
5.1965335565
 21
3.4694933076
  0
LINE
  5
3B1
100
AcDbEntity
  8
0
100
AcDbLine
 62
7
  6
CONTINUOUS
 10
4.0599134186
 20
4.5195957801
 11
3.6864770845
 21
4.5195957801
  0
LINE
  5
3B2
100
AcDbEntity
  8
0
100
AcDbLine
 62
7
  6
CONTINUOUS
 10
4.0599134186
 20
4.5204933076
 11
3.6864770845
 21
4.5204933076
  0
LINE
  5
3B3
100
AcDbEntity
  8
03__ASM_ALL_CURVES
100
AcDbLine
 62
40
  6
CONTINUOUS
 10
3.2882834186
 20
5.0123744743
 11
3.1524134186
 21
5.0312453076
  0
LINE
  5
3B4
100
AcDbEntity
  8
03__ASM_ALL_CURVES
100
AcDbLine
 62
40
  6
CONTINUOUS
 10
3.2882834186
 20
5.0086003076
 11
3.1524134186
 21
5.0312453076
  0
LINE
  5
3B5
100
AcDbEntity
  8
03__ASM_ALL_CURVES
100
AcDbLine
 62
40
  6
CONTINUOUS
 10
5.3343781066
 20
5.0765353076
 11
5.3202249816
 21
5.0859707245
  0
LINE
  5
3B6
100
AcDbEntity
  8
03__ASM_ALL_CURVES
100
AcDbLine
 62
40
  6
CONTINUOUS
 10
5.5466749816
 20
5.0859707245
 11
5.5325218566
 21
5.1048415576
  0
LINE
  5
3B7
100
AcDbEntity
  8
03__ASM_ALL_CURVES
100
AcDbLine
 62
40
  6
CONTINUOUS
 10
5.5395984191
 20
5.1614540576
 11
5.5466749816
 21
5.1520186432
  0
LINE
  5
3B8
100
AcDbEntity
  8
03__ASM_ALL_CURVES
100
AcDbLine
 62
40
  6
CONTINUOUS
 10
5.5891343566
 20
5.1237123898
 11
5.5962109191
 21
5.1142769754
  0
LINE
  5
3B9
100
AcDbEntity
  8
03__ASM_ALL_CURVES
100
AcDbLine
 62
40
  6
CONTINUOUS
 10
5.5962109191
 20
5.170889472
 11
5.5891343566
 21
5.1803248932
  0
LINE
  5
3BA
100
AcDbEntity
  8
03__ASM_ALL_CURVES
100
AcDbLine
 62
40
  6
CONTINUOUS
 10
5.8297374816
 20
5.1614540576
 11
5.8368140441
 21
5.1331478076
  0
LINE
  5
3BB
100
AcDbEntity
  8
03__ASM_ALL_CURVES
100
AcDbLine
 62
40
  6
CONTINUOUS
 10
6.2165300409
 20
3.3845745576
 11
6.2165300409
 21
3.4694933076
  0
LINE
  5
3BC
100
AcDbEntity
  8
03__ASM_ALL_CURVES
100
AcDbLine
 62
40
  6
CONTINUOUS
 10
6.2189484191
 20
5.0765353076
 11
6.2189484191
 21
5.1897603076
  0
LINE
  5
3BD
100
AcDbEntity
  8
03__ASM_ALL_CURVES
100
AcDbLine
 62
40
  6
CONTINUOUS
 10
6.2589894159
 20
3.4553401809
 11
6.2589894159
 21
3.4411870593
  0
LINE
  5
3BE
100
AcDbEntity
  8
03__ASM_ALL_CURVES
100
AcDbLine
 62
40
  6
CONTINUOUS
 10
6.3226784784
 20
3.4694933076
 11
6.3226784784
 21
3.3845745576
  0
LINE
  5
3BF
100
AcDbEntity
  8
03__ASM_ALL_CURVES
100
AcDbLine
 62
40
  6
CONTINUOUS
 10
6.3321734191
 20
5.0765353076
 11
6.3321734191
 21
5.1897603076
  0
LINE
  5
3C0
100
AcDbEntity
  8
0
100
AcDbLine
 62
7
  6
CONTINUOUS
 10
6.3829134186
 20
3.7502433076
 11
6.3829134186
 21
4.3127433076
  0
LINE
  5
3C1
100
AcDbEntity
  8
03__ASM_ALL_CURVES
100
AcDbLine
 62
40
  6
CONTINUOUS
 10
6.1209964471
 20
3.4270339326
 11
6.126303869
 21
3.4482636201
  0
LINE
  5
3C2
100
AcDbEntity
  8
03__ASM_ALL_CURVES
100
AcDbLine
 62
40
  6
CONTINUOUS
 10
6.1846855096
 20
3.4270339326
 11
6.1793780877
 21
3.4058042451
  0
LINE
  5
3C3
100
AcDbEntity
  8
03__ASM_ALL_CURVES
100
AcDbLine
 62
40
  6
CONTINUOUS
 10
5.217763244
 20
3.3916511203
 11
5.2071484002
 21
3.3845745576
  0
LINE
  5
3C4
100
AcDbEntity
  8
03__ASM_ALL_CURVES
100
AcDbLine
 62
40
  6
CONTINUOUS
 10
5.302681994
 20
3.4341104934
 11
5.2920671502
 21
3.4270339326
  0
LINE
  5
3C5
100
AcDbEntity
  8
03__ASM_ALL_CURVES
100
AcDbLine
 62
40
  6
CONTINUOUS
 10
3.2882834186
 20
5.0199228076
 11
3.1524134186
 21
5.0312453076
  0
LINE
  5
3C6
100
AcDbEntity
  8
03__ASM_ALL_CURVES
100
AcDbLine
 62
40
  6
CONTINUOUS
 10
3.2882834186
 20
5.0161486409
 11
3.1524134186
 21
5.0312453076
  0
LINE
  5
3C7
100
AcDbEntity
  8
03__ASM_ALL_CURVES
100
AcDbLine
 62
40
  6
CONTINUOUS
 10
4.2035434186
 20
5.0463419743
 11
4.4752834186
 21
5.0161486409
  0
LINE
  5
3C8
100
AcDbEntity
  8
03__ASM_ALL_CURVES
100
AcDbLine
 62
40
  6
CONTINUOUS
 10
4.2035434186
 20
5.0501161409
 11
4.4752834186
 21
5.0123744743
  0
LINE
  5
3C9
100
AcDbEntity
  8
03__ASM_ALL_CURVES
100
AcDbLine
 62
40
  6
CONTINUOUS
 10
4.4752834186
 20
5.0086003076
 11
4.2035434186
 21
5.0538903076
  0
LINE
  5
3CA
100
AcDbEntity
  8
03__ASM_ALL_CURVES
100
AcDbLine
 62
40
  6
CONTINUOUS
 10
5.3485312316
 20
5.1897603076
 11
5.3626843566
 21
5.1803248932
  0
LINE
  5
3CB
100
AcDbEntity
  8
03__ASM_ALL_CURVES
100
AcDbLine
 62
40
  6
CONTINUOUS
 10
5.5608281066
 20
5.0765353076
 11
5.5466749816
 21
5.0859707245
  0
LINE
  5
3CC
100
AcDbEntity
  8
03__ASM_ALL_CURVES
100
AcDbLine
 62
40
  6
CONTINUOUS
 10
5.5466749816
 20
5.1520186432
 11
5.5891343566
 21
5.1237123898
  0
LINE
  5
3CD
100
AcDbEntity
  8
03__ASM_ALL_CURVES
100
AcDbLine
 62
40
  6
CONTINUOUS
 10
7.0265723711
 20
3.3916511203
 11
7.0159575274
 21
3.4058042451
  0
LINE
  5
3CE
100
AcDbEntity
  8
03__ASM_ALL_CURVES
100
AcDbLine
 62
40
  6
CONTINUOUS
 10
6.9734981524
 20
3.4624167468
 11
6.9788055742
 21
3.4553401809
  0
LINE
  5
3CF
100
AcDbEntity
  8
03__ASM_ALL_CURVES
100
AcDbLine
 62
40
  6
CONTINUOUS
 10
5.7731249816
 20
5.0859707245
 11
5.7589718566
 21
5.1048415576
  0
LINE
  5
3D0
100
AcDbEntity
  8
03__ASM_ALL_CURVES
100
AcDbLine
 62
40
  6
CONTINUOUS
 10
7.0584169024
 20
3.4624167468
 11
7.0690317461
 21
3.4482636201
  0
LINE
  5
3D1
100
AcDbEntity
  8
03__ASM_ALL_CURVES
100
AcDbLine
 62
40
  6
CONTINUOUS
 10
5.8863499816
 20
5.0859707245
 11
5.8792734191
 21
5.0954061415
  0
LINE
  5
3D2
100
AcDbEntity
  8
03__ASM_ALL_CURVES
100
AcDbLine
 62
40
  6
CONTINUOUS
 10
5.8155843566
 20
5.1803248932
 11
5.8297374816
 21
5.1614540576
  0
LINE
  5
3D3
100
AcDbEntity
  8
03__ASM_ALL_CURVES
100
AcDbLine
 62
40
  6
CONTINUOUS
 10
7.1433356524
 20
3.4624167468
 11
7.1486430742
 21
3.4553401809
  0
LINE
  5
3D4
100
AcDbEntity
  8
03__ASM_ALL_CURVES
100
AcDbLine
 62
40
  6
CONTINUOUS
 10
6.1623359191
 20
5.1614540576
 11
6.1694124816
 21
5.1331478076
  0
LINE
  5
3D5
100
AcDbEntity
  8
03__ASM_ALL_CURVES
100
AcDbLine
 62
40
  6
CONTINUOUS
 10
6.3887859191
 20
5.170889472
 11
6.3887859191
 21
5.1520186432
  0
LINE
  5
3D6
100
AcDbEntity
  8
03__ASM_ALL_CURVES
100
AcDbLine
 62
40
  6
CONTINUOUS
 10
6.4288269159
 20
3.4553401809
 11
6.4288269159
 21
3.4482636201
  0
LINE
  5
3D7
100
AcDbEntity
  8
0
100
AcDbLine
 62
7
  6
CONTINUOUS
 10
6.4289134186
 20
3.7025022752
 11
6.4289134186
 21
4.36048434
  0
LINE
  5
3D8
100
AcDbEntity
  8
03__ASM_ALL_CURVES
100
AcDbLine
 62
40
  6
CONTINUOUS
 10
6.4341343377
 20
3.4128808084
 11
6.4341343377
 21
3.4058042451
  0
LINE
  5
3D9
100
AcDbEntity
  8
0
100
AcDbLine
 62
7
  6
CONTINUOUS
 10
6.4914134186
 20
3.7025022752
 11
6.4914134186
 21
4.36048434
  0
LINE
  5
3DA
100
AcDbEntity
  8
0
100
AcDbLine
 62
7
  6
CONTINUOUS
 10
6.5414134186
 20
3.7209937797
 11
6.5414134186
 21
4.3419928355
  0
LINE
  5
3DB
100
AcDbEntity
  8
03__ASM_ALL_CURVES
100
AcDbLine
 62
40
  6
CONTINUOUS
 10
6.0891519159
 20
3.4411870593
 11
6.083844494
 21
3.4341104934
  0
LINE
  5
3DC
100
AcDbEntity
  8
03__ASM_ALL_CURVES
100
AcDbLine
 62
40
  6
CONTINUOUS
 10
6.126303869
 20
3.4482636201
 11
6.1369187127
 21
3.4624167468
  0
LINE
  5
3DD
100
AcDbEntity
  8
03__ASM_ALL_CURVES
100
AcDbLine
 62
40
  6
CONTINUOUS
 10
3.1524134186
 20
5.0312453076
 11
6.5133334186
 21
5.0312453076
  0
LINE
  5
3DE
100
AcDbEntity
  8
03__ASM_ALL_CURVES
100
AcDbLine
 62
40
  6
CONTINUOUS
 10
3.2882834186
 20
5.0274711409
 11
3.1524134186
 21
5.0312453076
  0
LINE
  5
3DF
100
AcDbEntity
  8
03__ASM_ALL_CURVES
100
AcDbLine
 62
40
  6
CONTINUOUS
 10
4.2035434186
 20
5.0350194743
 11
4.4752834186
 21
5.0274711409
  0
LINE
  5
3E0
100
AcDbEntity
  8
03__ASM_ALL_CURVES
100
AcDbLine
 62
40
  6
CONTINUOUS
 10
3.2882834186
 20
5.0236969743
 11
3.1524134186
 21
5.0312453076
  0
LINE
  5
3E1
100
AcDbEntity
  8
03__ASM_ALL_CURVES
100
AcDbLine
 62
40
  6
CONTINUOUS
 10
4.2035434186
 20
5.0387936409
 11
4.4752834186
 21
5.0236969743
  0
LINE
  5
3E2
100
AcDbEntity
  8
03__ASM_ALL_CURVES
100
AcDbLine
 62
40
  6
CONTINUOUS
 10
4.2035434186
 20
5.0425678076
 11
4.4752834186
 21
5.0199228076
  0
LINE
  5
3E3
100
AcDbEntity
  8
03__ASM_ALL_CURVES
100
AcDbLine
 62
40
  6
CONTINUOUS
 10
5.5891343566
 20
5.1803248932
 11
5.5749812316
 21
5.1897603076
  0
LINE
  5
3E4
100
AcDbEntity
  8
03__ASM_ALL_CURVES
100
AcDbLine
 62
40
  6
CONTINUOUS
 10
5.7872781066
 20
5.0765353076
 11
5.7731249816
 21
5.0859707245
  0
LINE
  5
3E5
100
AcDbEntity
  8
03__ASM_ALL_CURVES
100
AcDbLine
 62
40
  6
CONTINUOUS
 10
5.9005031066
 20
5.0765353076
 11
5.8863499816
 21
5.0859707245
  0
LINE
  5
3E6
100
AcDbEntity
  8
03__ASM_ALL_CURVES
100
AcDbLine
 62
40
  6
CONTINUOUS
 10
5.8014312316
 20
5.1897603076
 11
5.8155843566
 21
5.1803248932
  0
LINE
  5
3E7
100
AcDbEntity
  8
03__ASM_ALL_CURVES
100
AcDbLine
 62
40
  6
CONTINUOUS
 10
7.3131731524
 20
3.4624167468
 11
7.3184805742
 21
3.4553401809
  0
LINE
  5
3E8
100
AcDbEntity
  8
0
100
AcDbLine
 62
7
  6
CONTINUOUS
 10
6.6114134186
 20
3.7209937797
 11
6.6114134186
 21
4.3419928355
  0
LINE
  5
3E9
100
AcDbEntity
  8
0
100
AcDbLine
 62
7
  6
CONTINUOUS
 10
6.6614134186
 20
3.7209937797
 11
6.6614134186
 21
4.3419928355
  0
LINE
  5
3EA
100
AcDbEntity
  8
0
100
AcDbLine
 62
7
  6
CONTINUOUS
 10
6.6889134186
 20
3.7025022752
 11
6.6889134186
 21
4.36048434
  0
LINE
  5
3EB
100
AcDbEntity
  8
0
100
AcDbLine
 62
7
  6
CONTINUOUS
 10
6.7539134186
 20
3.7025022752
 11
6.7539134186
 21
4.36048434
  0
LINE
  5
3EC
100
AcDbEntity
  8
03__ASM_ALL_CURVES
100
AcDbLine
 62
40
  6
CONTINUOUS
 10
6.1793780877
 20
3.4058042451
 11
6.168763244
 21
3.3916511203
  0
LINE
  5
3ED
100
AcDbEntity
  8
03__ASM_ALL_CURVES
100
AcDbLine
 62
40
  6
CONTINUOUS
 10
6.2589894159
 20
3.4411870593
 11
6.253681994
 21
3.4341104934
  0
LINE
  5
3EE
100
AcDbEntity
  8
03__ASM_ALL_CURVES
100
AcDbLine
 62
40
  6
CONTINUOUS
 10
6.083844494
 20
3.4341104934
 11
6.0732296502
 21
3.4270339326
  0
LINE
  5
3EF
100
AcDbEntity
  8
03__ASM_ALL_CURVES
100
AcDbLine
 62
40
  6
CONTINUOUS
 10
6.1369187127
 20
3.4624167468
 11
6.1475335565
 21
3.4694933076
  0
LINE
  5
3F0
100
AcDbEntity
  8
03__ASM_ALL_CURVES
100
AcDbLine
 62
40
  6
CONTINUOUS
 10
6.168763244
 20
3.3916511203
 11
6.1581484002
 21
3.3845745576
  0
LINE
  5
3F1
100
AcDbEntity
  8
03__ASM_ALL_CURVES
100
AcDbLine
 62
40
  6
CONTINUOUS
 10
4.2035434186
 20
5.0123744743
 11
4.4752834186
 21
5.0501161409
  0
LINE
  5
3F2
100
AcDbEntity
  8
03__ASM_ALL_CURVES
100
AcDbLine
 62
40
  6
CONTINUOUS
 10
4.2035434186
 20
5.0161486409
 11
4.4752834186
 21
5.0463419743
  0
LINE
  5
3F3
100
AcDbEntity
  8
03__ASM_ALL_CURVES
100
AcDbLine
 62
40
  6
CONTINUOUS
 10
4.2035434186
 20
5.0199228076
 11
4.4752834186
 21
5.0425678076
  0
LINE
  5
3F4
100
AcDbEntity
  8
03__ASM_ALL_CURVES
100
AcDbLine
 62
40
  6
CONTINUOUS
 10
4.2035434186
 20
5.0236969743
 11
4.4752834186
 21
5.0387936409
  0
LINE
  5
3F5
100
AcDbEntity
  8
03__ASM_ALL_CURVES
100
AcDbLine
 62
40
  6
CONTINUOUS
 10
3.2882834186
 20
5.0387936409
 11
3.1524134186
 21
5.0312453076
  0
LINE
  5
3F6
100
AcDbEntity
  8
03__ASM_ALL_CURVES
100
AcDbLine
 62
40
  6
CONTINUOUS
 10
4.2035434186
 20
5.0274711409
 11
4.4752834186
 21
5.0350194743
  0
LINE
  5
3F7
100
AcDbEntity
  8
03__ASM_ALL_CURVES
100
AcDbLine
 62
40
  6
CONTINUOUS
 10
3.2882834186
 20
5.0350194743
 11
3.1524134186
 21
5.0312453076
  0
LINE
  5
3F8
100
AcDbEntity
  8
03__ASM_ALL_CURVES
100
AcDbLine
 62
40
  6
CONTINUOUS
 10
6.2755609191
 20
5.0765353076
 11
6.2189484191
 21
5.0765353076
  0
LINE
  5
3F9
100
AcDbEntity
  8
03__ASM_ALL_CURVES
100
AcDbLine
 62
40
  6
CONTINUOUS
 10
6.1340296691
 20
5.0765353076
 11
6.1057234191
 21
5.0765353076
  0
LINE
  5
3FA
100
AcDbEntity
  8
03__ASM_ALL_CURVES
100
AcDbLine
 62
40
  6
CONTINUOUS
 10
5.9146562316
 20
5.0765353076
 11
5.9005031066
 21
5.0765353076
  0
LINE
  5
3FB
100
AcDbEntity
  8
03__ASM_ALL_CURVES
100
AcDbLine
 62
40
  6
CONTINUOUS
 10
5.8014312316
 20
5.0765353076
 11
5.7872781066
 21
5.0765353076
  0
LINE
  5
3FC
100
AcDbEntity
  8
03__ASM_ALL_CURVES
100
AcDbLine
 62
40
  6
CONTINUOUS
 10
5.5749812316
 20
5.0765353076
 11
5.5608281066
 21
5.0765353076
  0
LINE
  5
3FD
100
AcDbEntity
  8
03__ASM_ALL_CURVES
100
AcDbLine
 62
40
  6
CONTINUOUS
 10
5.3485312316
 20
5.0765353076
 11
5.3343781066
 21
5.0765353076
  0
LINE
  5
3FE
100
AcDbEntity
  8
03__ASM_ALL_CURVES
100
AcDbLine
 62
40
  6
CONTINUOUS
 10
4.7824062316
 20
5.0765353076
 11
4.7682531066
 21
5.0765353076
  0
LINE
  5
3FF
100
AcDbEntity
  8
03__ASM_ALL_CURVES
100
AcDbLine
 62
40
  6
CONTINUOUS
 10
4.6691812316
 20
5.0765353076
 11
4.6550281066
 21
5.0765353076
  0
LINE
  5
400
100
AcDbEntity
  8
03__ASM_ALL_CURVES
100
AcDbLine
 62
40
  6
CONTINUOUS
 10
3.9723634186
 20
5.0765353076
 11
3.9652868561
 21
5.0765353076
  0
LINE
  5
401
100
AcDbEntity
  8
03__ASM_ALL_CURVES
100
AcDbLine
 62
40
  6
CONTINUOUS
 10
3.5265399811
 20
5.0765353076
 11
3.5123868561
 21
5.0765353076
  0
LINE
  5
402
100
AcDbEntity
  8
03__ASM_ALL_CURVES
100
AcDbLine
 62
40
  6
CONTINUOUS
 10
3.2930134186
 20
5.0765353076
 11
3.2859368561
 21
5.0765353076
  0
LINE
  5
403
100
AcDbEntity
  8
03__ASM_ALL_CURVES
100
AcDbLine
 62
40
  6
CONTINUOUS
 10
3.7176071686
 20
5.0765353076
 11
3.7742196686
 21
5.0765353076
  0
LINE
  5
404
100
AcDbEntity
  8
03__ASM_ALL_CURVES
100
AcDbLine
 62
40
  6
CONTINUOUS
 10
4.5205734191
 20
5.0765353076
 11
4.5771859191
 21
5.0765353076
  0
LINE
  5
405
100
AcDbEntity
  8
03__ASM_ALL_CURVES
100
AcDbLine
 62
40
  6
CONTINUOUS
 10
5.9924984191
 20
5.0765353076
 11
6.0491109191
 21
5.0765353076
  0
LINE
  5
406
100
AcDbEntity
  8
03__ASM_ALL_CURVES
100
AcDbLine
 62
40
  6
CONTINUOUS
 10
4.8673249816
 20
5.1142769754
 11
4.9097843566
 21
5.1142769754
  0
LINE
  5
407
100
AcDbEntity
  8
03__ASM_ALL_CURVES
100
AcDbLine
 62
40
  6
CONTINUOUS
 10
6.3675562316
 20
5.1331478076
 11
6.3321734191
 21
5.1331478076
  0
LINE
  5
408
100
AcDbEntity
  8
03__ASM_ALL_CURVES
100
AcDbLine
 62
40
  6
CONTINUOUS
 10
5.3414546691
 20
5.1331478076
 11
5.3697609191
 21
5.1331478076
  0
LINE
  5
409
100
AcDbEntity
  8
03__ASM_ALL_CURVES
100
AcDbLine
 62
40
  6
CONTINUOUS
 10
5.6528234191
 20
5.1331478076
 11
5.7094359191
 21
5.1331478076
  0
LINE
  5
40A
100
AcDbEntity
  8
03__ASM_ALL_CURVES
100
AcDbLine
 62
40
  6
CONTINUOUS
 10
6.2189484191
 20
5.1331478076
 11
6.2543312316
 21
5.1331478076
  0
LINE
  5
40B
100
AcDbEntity
  8
03__ASM_ALL_CURVES
100
AcDbLine
 62
40
  6
CONTINUOUS
 10
3.5123868561
 20
5.142583222
 11
3.5265399811
 21
5.142583222
  0
LINE
  5
40C
100
AcDbEntity
  8
03__ASM_ALL_CURVES
100
AcDbLine
 62
40
  6
CONTINUOUS
 10
5.5749812316
 20
5.1897603076
 11
5.5608281066
 21
5.1897603076
  0
LINE
  5
40D
100
AcDbEntity
  8
03__ASM_ALL_CURVES
100
AcDbLine
 62
40
  6
CONTINUOUS
 10
4.2271196686
 20
5.1897603076
 11
4.1705071686
 21
5.1897603076
  0
LINE
  5
40E
100
AcDbEntity
  8
03__ASM_ALL_CURVES
100
AcDbLine
 62
40
  6
CONTINUOUS
 10
3.5123868561
 20
5.1897603076
 11
3.5265399811
 21
5.1897603076
  0
LINE
  5
40F
100
AcDbEntity
  8
03__ASM_ALL_CURVES
100
AcDbLine
 62
40
  6
CONTINUOUS
 10
3.7388368561
 20
5.1897603076
 11
3.7529899811
 21
5.1897603076
  0
LINE
  5
410
100
AcDbEntity
  8
03__ASM_ALL_CURVES
100
AcDbLine
 62
40
  6
CONTINUOUS
 10
4.6550281066
 20
5.1897603076
 11
4.6691812316
 21
5.1897603076
  0
LINE
  5
411
100
AcDbEntity
  8
03__ASM_ALL_CURVES
100
AcDbLine
 62
40
  6
CONTINUOUS
 10
4.7682531066
 20
5.1897603076
 11
4.7824062316
 21
5.1897603076
  0
LINE
  5
412
100
AcDbEntity
  8
03__ASM_ALL_CURVES
100
AcDbLine
 62
40
  6
CONTINUOUS
 10
4.9663968566
 20
5.1897603076
 11
5.0371624816
 21
5.1897603076
  0
LINE
  5
413
100
AcDbEntity
  8
03__ASM_ALL_CURVES
100
AcDbLine
 62
40
  6
CONTINUOUS
 10
5.3343781066
 20
5.1897603076
 11
5.3485312316
 21
5.1897603076
  0
LINE
  5
414
100
AcDbEntity
  8
03__ASM_ALL_CURVES
100
AcDbLine
 62
40
  6
CONTINUOUS
 10
5.7872781066
 20
5.1897603076
 11
5.8014312316
 21
5.1897603076
  0
LINE
  5
415
100
AcDbEntity
  8
03__ASM_ALL_CURVES
100
AcDbLine
 62
40
  6
CONTINUOUS
 10
6.1057234191
 20
5.1897603076
 11
6.1340296691
 21
5.1897603076
  0
LINE
  5
416
100
AcDbEntity
  8
03__ASM_ALL_CURVES
100
AcDbLine
 62
40
  6
CONTINUOUS
 10
6.2189484191
 20
5.1897603076
 11
6.2755609191
 21
5.1897603076
  0
LINE
  5
417
100
AcDbEntity
  8
03__ASM_ALL_CURVES
100
AcDbLine
 62
40
  6
CONTINUOUS
 10
6.3321734191
 20
5.1897603076
 11
6.3675562316
 21
5.1897603076
  0
LINE
  5
418
100
AcDbEntity
  8
03__ASM_ALL_CURVES
100
AcDbLine
 62
40
  6
CONTINUOUS
 10
6.1340296691
 20
5.1897603076
 11
6.1481827941
 21
5.1803248932
  0
LINE
  5
419
100
AcDbEntity
  8
03__ASM_ALL_CURVES
100
AcDbLine
 62
40
  6
CONTINUOUS
 10
6.1481827941
 20
5.1803248932
 11
6.1623359191
 21
5.1614540576
  0
LINE
  5
41A
100
AcDbEntity
  8
03__ASM_ALL_CURVES
100
AcDbLine
 62
40
  6
CONTINUOUS
 10
6.3675562316
 20
5.1331478076
 11
6.3887859191
 21
5.0765353076
  0
LINE
  5
41B
100
AcDbEntity
  8
03__ASM_ALL_CURVES
100
AcDbLine
 62
40
  6
CONTINUOUS
 10
7.1327208086
 20
3.4270339326
 11
7.1486430742
 21
3.3845745576
  0
LINE
  5
41C
100
AcDbEntity
  8
0
100
AcDbLine
 62
7
  6
CONTINUOUS
 10
6.7999134186
 20
3.7502433076
 11
6.7999134186
 21
4.3127433076
  0
LINE
  5
41D
100
AcDbEntity
  8
0
100
AcDbLine
 62
7
  6
CONTINUOUS
 10
6.9318344712
 20
3.8754676297
 11
6.9318344712
 21
3.8347334103
  0
LINE
  5
41E
100
AcDbEntity
  8
03__ASM_ALL_CURVES
100
AcDbLine
 62
40
  6
CONTINUOUS
 10
6.9363461992
 20
3.3845745576
 11
6.9363461992
 21
3.4694933076
  0
LINE
  5
41F
100
AcDbEntity
  8
03__ASM_ALL_CURVES
100
AcDbLine
 62
40
  6
CONTINUOUS
 10
6.4288269159
 20
3.4482636201
 11
6.423519494
 21
3.4411870593
  0
LINE
  5
420
100
AcDbEntity
  8
03__ASM_ALL_CURVES
100
AcDbLine
 62
40
  6
CONTINUOUS
 10
6.4341343377
 20
3.4058042451
 11
6.423519494
 21
3.3916511203
  0
LINE
  5
421
100
AcDbEntity
  8
03__ASM_ALL_CURVES
100
AcDbLine
 62
40
  6
CONTINUOUS
 10
6.253681994
 20
3.4341104934
 11
6.2430671502
 21
3.4270339326
  0
LINE
  5
422
100
AcDbEntity
  8
03__ASM_ALL_CURVES
100
AcDbLine
 62
40
  6
CONTINUOUS
 10
6.3916749627
 20
3.4624167468
 11
6.4022898065
 21
3.4694933076
  0
LINE
  5
423
100
AcDbEntity
  8
03__ASM_ALL_CURVES
100
AcDbLine
 62
40
  6
CONTINUOUS
 10
6.423519494
 20
3.4411870593
 11
6.4129046502
 21
3.4341104934
  0
LINE
  5
424
100
AcDbEntity
  8
03__ASM_ALL_CURVES
100
AcDbLine
 62
40
  6
CONTINUOUS
 10
6.423519494
 20
3.3916511203
 11
6.4129046502
 21
3.3845745576
  0
LINE
  5
425
100
AcDbEntity
  8
03__ASM_ALL_CURVES
100
AcDbLine
 62
40
  6
CONTINUOUS
 10
4.2035434186
 20
5.0086003076
 11
4.4752834186
 21
5.0538903076
  0
LINE
  5
426
100
AcDbEntity
  8
03__ASM_ALL_CURVES
100
AcDbLine
 62
40
  6
CONTINUOUS
 10
3.2882834186
 20
5.0501161409
 11
3.1524134186
 21
5.0312453076
  0
LINE
  5
427
100
AcDbEntity
  8
03__ASM_ALL_CURVES
100
AcDbLine
 62
40
  6
CONTINUOUS
 10
3.2882834186
 20
5.0463419743
 11
3.1524134186
 21
5.0312453076
  0
LINE
  5
428
100
AcDbEntity
  8
03__ASM_ALL_CURVES
100
AcDbLine
 62
40
  6
CONTINUOUS
 10
3.2882834186
 20
5.0425678076
 11
3.1524134186
 21
5.0312453076
  0
LINE
  5
429
100
AcDbEntity
  8
03__ASM_ALL_CURVES
100
AcDbLine
 62
40
  6
CONTINUOUS
 10
6.3675562316
 20
5.1897603076
 11
6.3817093566
 21
5.1803248932
  0
LINE
  5
42A
100
AcDbEntity
  8
03__ASM_ALL_CURVES
100
AcDbLine
 62
40
  6
CONTINUOUS
 10
8.1902544337
 20
4.0541383076
 11
8.1796395899
 21
4.0612148703
  0
LINE
  5
42B
100
AcDbEntity
  8
03__ASM_ALL_CURVES
100
AcDbLine
 62
40
  6
CONTINUOUS
 10
6.3817093566
 20
5.1803248932
 11
6.3887859191
 21
5.170889472
  0
LINE
  5
42C
100
AcDbEntity
  8
03__ASM_ALL_CURVES
100
AcDbLine
 62
40
  6
CONTINUOUS
 10
7.0159575274
 20
3.4058042451
 11
7.0106501055
 21
3.4270339326
  0
LINE
  5
42D
100
AcDbEntity
  8
03__ASM_ALL_CURVES
100
AcDbLine
 62
40
  6
CONTINUOUS
 10
7.0690317461
 20
3.4482636201
 11
7.074339168
 21
3.4270339326
  0
LINE
  5
42E
100
AcDbEntity
  8
0
100
AcDbLine
 62
7
  6
CONTINUOUS
 10
6.9544134186
 20
4.1419933076
 11
6.9544134186
 21
4.1126473464
  0
LINE
  5
42F
100
AcDbEntity
  8
0
100
AcDbLine
 62
7
  6
CONTINUOUS
 10
6.9544134186
 20
3.9209933076
 11
6.9544134186
 21
3.9625925269
  0
LINE
  5
430
100
AcDbEntity
  8
03__ASM_ALL_CURVES
100
AcDbLine
 62
40
  6
CONTINUOUS
 10
6.9788055742
 20
3.4553401809
 11
6.9788055742
 21
3.4411870593
  0
LINE
  5
431
100
AcDbEntity
  8
0
100
AcDbLine
 62
7
  6
CONTINUOUS
 10
7.0014134186
 20
3.9550257138
 11
7.0014134186
 21
3.8760407327
  0
LINE
  5
432
100
AcDbEntity
  8
03__ASM_ALL_CURVES
100
AcDbLine
 62
40
  6
CONTINUOUS
 10
7.1061836992
 20
3.3845745576
 11
7.1061836992
 21
3.4694933076
  0
LINE
  5
433
100
AcDbEntity
  8
03__ASM_ALL_CURVES
100
AcDbLine
 62
40
  6
CONTINUOUS
 10
3.1524134186
 20
5.0312453076
 11
3.2882834186
 21
5.0538903076
  0
LINE
  5
434
100
AcDbEntity
  8
03__ASM_ALL_CURVES
100
AcDbLine
 62
40
  6
CONTINUOUS
 10
8.1159505274
 20
4.1390570576
 11
8.1265653712
 21
4.1319804968
  0
LINE
  5
435
100
AcDbEntity
  8
03__ASM_ALL_CURVES
100
AcDbLine
 62
40
  6
CONTINUOUS
 10
8.2008692774
 20
4.1390570576
 11
8.2114841212
 21
4.1319804968
  0
LINE
  5
436
100
AcDbEntity
  8
03__ASM_ALL_CURVES
100
AcDbLine
 62
40
  6
CONTINUOUS
 10
8.2857880274
 20
4.1390570576
 11
8.2964028712
 21
4.1319804968
  0
LINE
  5
437
100
AcDbEntity
  8
03__ASM_ALL_CURVES
100
AcDbLine
 62
40
  6
CONTINUOUS
 10
7.1486430742
 20
3.4553401809
 11
7.1486430742
 21
3.4411870593
  0
LINE
  5
438
100
AcDbEntity
  8
03__ASM_ALL_CURVES
100
AcDbLine
 62
40
  6
CONTINUOUS
 10
7.2123321367
 20
3.4694933076
 11
7.2123321367
 21
3.3845745576
  0
LINE
  5
439
100
AcDbEntity
  8
0
100
AcDbLine
 62
7
  6
CONTINUOUS
 10
7.2904134186
 20
3.7502433076
 11
7.2904134186
 21
4.3127433076
  0
LINE
  5
43A
100
AcDbEntity
  8
03__ASM_ALL_CURVES
100
AcDbLine
 62
40
  6
CONTINUOUS
 10
7.3184805742
 20
3.4553401809
 11
7.3184805742
 21
3.4411870593
  0
LINE
  5
43B
100
AcDbEntity
  8
03__ASM_ALL_CURVES
100
AcDbLine
 62
40
  6
CONTINUOUS
 10
7.0106501055
 20
3.4270339326
 11
7.0159575274
 21
3.4482636201
  0
LINE
  5
43C
100
AcDbEntity
  8
03__ASM_ALL_CURVES
100
AcDbLine
 62
40
  6
CONTINUOUS
 10
7.074339168
 20
3.4270339326
 11
7.0690317461
 21
3.4058042451
  0
LINE
  5
43D
100
AcDbEntity
  8
03__ASM_ALL_CURVES
100
AcDbLine
 62
40
  6
CONTINUOUS
 10
6.9788055742
 20
3.4411870593
 11
6.9734981524
 21
3.4341104934
  0
LINE
  5
43E
100
AcDbEntity
  8
03__ASM_ALL_CURVES
100
AcDbLine
 62
40
  6
CONTINUOUS
 10
7.0159575274
 20
3.4482636201
 11
7.0265723711
 21
3.4624167468
  0
LINE
  5
43F
100
AcDbEntity
  8
03__ASM_ALL_CURVES
100
AcDbLine
 62
40
  6
CONTINUOUS
 10
6.9734981524
 20
3.4341104934
 11
6.9628833086
 21
3.4270339326
  0
LINE
  5
440
100
AcDbEntity
  8
03__ASM_ALL_CURVES
100
AcDbLine
 62
40
  6
CONTINUOUS
 10
7.0265723711
 20
3.4624167468
 11
7.0371872149
 21
3.4694933076
  0
LINE
  5
441
100
AcDbEntity
  8
03__ASM_ALL_CURVES
100
AcDbLine
 62
40
  6
CONTINUOUS
 10
7.0584169024
 20
3.3916511203
 11
7.0478020586
 21
3.3845745576
  0
LINE
  5
442
100
AcDbEntity
  8
03__ASM_ALL_CURVES
100
AcDbLine
 62
40
  6
CONTINUOUS
 10
8.1265653712
 20
4.1036742434
 11
8.1159505274
 21
4.0965976826
  0
LINE
  5
443
100
AcDbEntity
  8
03__ASM_ALL_CURVES
100
AcDbLine
 62
40
  6
CONTINUOUS
 10
8.1796395899
 20
4.1319804968
 11
8.1902544337
 21
4.1390570576
  0
LINE
  5
444
100
AcDbEntity
  8
03__ASM_ALL_CURVES
100
AcDbLine
 62
40
  6
CONTINUOUS
 10
7.1433356524
 20
3.4341104934
 11
7.1327208086
 21
3.4270339326
  0
LINE
  5
445
100
AcDbEntity
  8
03__ASM_ALL_CURVES
100
AcDbLine
 62
40
  6
CONTINUOUS
 10
7.2813286211
 20
3.4624167468
 11
7.2919434649
 21
3.4694933076
  0
LINE
  5
446
100
AcDbEntity
  8
0
100
AcDbLine
 62
7
  6
CONTINUOUS
 10
7.6814134186
 20
4.3299933076
 11
7.6689134186
 21
4.3424933076
  0
LINE
  5
447
100
AcDbEntity
  8
0
100
AcDbLine
 62
7
  6
CONTINUOUS
 10
7.333447562
 20
3.7204933076
 11
7.333447562
 21
4.3424933076
  0
LINE
  5
448
100
AcDbEntity
  8
0
100
AcDbLine
 62
7
  6
CONTINUOUS
 10
7.4014134186
 20
3.7205017845
 11
7.4014134186
 21
4.3424848306
  0
LINE
  5
449
100
AcDbEntity
  8
0
100
AcDbLine
 62
7
  6
CONTINUOUS
 10
7.4514134186
 20
3.7209937797
 11
7.4514134186
 21
4.3419928355
  0
LINE
  5
44A
100
AcDbEntity
  8
03__ASM_ALL_CURVES
100
AcDbLine
 62
40
  6
CONTINUOUS
 10
7.2813286211
 20
3.4058042451
 11
7.2760211992
 21
3.3845745576
  0
LINE
  5
44B
100
AcDbEntity
  8
03__ASM_ALL_CURVES
100
AcDbLine
 62
40
  6
CONTINUOUS
 10
7.0690317461
 20
3.4058042451
 11
7.0584169024
 21
3.3916511203
  0
LINE
  5
44C
100
AcDbEntity
  8
03__ASM_ALL_CURVES
100
AcDbLine
 62
40
  6
CONTINUOUS
 10
7.1486430742
 20
3.4411870593
 11
7.1433356524
 21
3.4341104934
  0
LINE
  5
44D
100
AcDbEntity
  8
03__ASM_ALL_CURVES
100
AcDbLine
 62
40
  6
CONTINUOUS
 10
7.2760211992
 20
3.4553401809
 11
7.2813286211
 21
3.4624167468
  0
LINE
  5
44E
100
AcDbEntity
  8
03__ASM_ALL_CURVES
100
AcDbLine
 62
40
  6
CONTINUOUS
 10
8.2114841212
 20
4.0612148703
 11
8.2008692774
 21
4.0541383076
  0
LINE
  5
44F
100
AcDbEntity
  8
03__ASM_ALL_CURVES
100
AcDbLine
 62
40
  6
CONTINUOUS
 10
8.2964028712
 20
4.1036742434
 11
8.2857880274
 21
4.0965976826
  0
LINE
  5
450
100
AcDbEntity
  8
03__ASM_ALL_CURVES
100
AcDbLine
 62
40
  6
CONTINUOUS
 10
7.3131731524
 20
3.4341104934
 11
7.2919434649
 21
3.4199573693
  0
LINE
  5
451
100
AcDbEntity
  8
0
100
AcDbLine
 62
7
  6
CONTINUOUS
 10
7.5214134186
 20
3.7209937797
 11
7.5214134186
 21
4.3419928355
  0
LINE
  5
452
100
AcDbEntity
  8
0
100
AcDbLine
 62
7
  6
CONTINUOUS
 10
7.5714134186
 20
3.7209937797
 11
7.5714134186
 21
4.3419928355
  0
LINE
  5
453
100
AcDbEntity
  8
0
100
AcDbLine
 62
7
  6
CONTINUOUS
 10
7.5989134186
 20
3.7205017845
 11
7.5989134186
 21
4.3424848306
  0
LINE
  5
454
100
AcDbEntity
  8
0
100
AcDbLine
 62
7
  6
CONTINUOUS
 10
7.6689134186
 20
3.7204933076
 11
7.6689134186
 21
4.3424933076
  0
LINE
  5
455
100
AcDbEntity
  8
0
100
AcDbLine
 62
7
  6
CONTINUOUS
 10
7.6814134186
 20
3.7330067199
 11
7.6814134186
 21
4.3299798953
  0
LINE
  5
456
100
AcDbEntity
  8
03__ASM_ALL_CURVES
100
AcDbLine
 62
40
  6
CONTINUOUS
 10
7.2919434649
 20
3.4199573693
 11
7.2813286211
 21
3.4058042451
  0
LINE
  5
457
100
AcDbEntity
  8
03__ASM_ALL_CURVES
100
AcDbLine
 62
40
  6
CONTINUOUS
 10
7.3184805742
 20
3.4411870593
 11
7.3131731524
 21
3.4341104934
  0
LINE
  5
458
100
AcDbEntity
  8
0
100
AcDbLine
 62
7
  6
CONTINUOUS
 10
7.6814134186
 20
3.7329933076
 11
7.6689134186
 21
3.7204933076
  0
LINE
  5
459
100
AcDbEntity
  8
03__ASM_ALL_CURVES
100
AcDbLine
 62
40
  6
CONTINUOUS
 10
8.1796395899
 20
4.0612148703
 11
8.1690247462
 21
4.0753679951
  0
LINE
  5
45A
100
AcDbEntity
  8
03__ASM_ALL_CURVES
100
AcDbLine
 62
40
  6
CONTINUOUS
 10
8.1265653712
 20
4.1319804968
 11
8.131872793
 21
4.1249039309
  0
LINE
  5
45B
100
AcDbEntity
  8
03__ASM_ALL_CURVES
100
AcDbLine
 62
40
  6
CONTINUOUS
 10
8.2114841212
 20
4.1319804968
 11
8.2220989649
 21
4.1178273701
  0
LINE
  5
45C
100
AcDbEntity
  8
03__ASM_ALL_CURVES
100
AcDbLine
 62
40
  6
CONTINUOUS
 10
8.131872793
 20
4.1107508093
 11
8.1265653712
 21
4.1036742434
  0
LINE
  5
45D
100
AcDbEntity
  8
03__ASM_ALL_CURVES
100
AcDbLine
 62
40
  6
CONTINUOUS
 10
8.1690247462
 20
4.1178273701
 11
8.1796395899
 21
4.1319804968
  0
LINE
  5
45E
100
AcDbEntity
  8
03__ASM_ALL_CURVES
100
AcDbLine
 62
40
  6
CONTINUOUS
 10
8.2220989649
 20
4.0753679951
 11
8.2114841212
 21
4.0612148703
  0
LINE
  5
45F
100
AcDbEntity
  8
03__ASM_ALL_CURVES
100
AcDbLine
 62
40
  6
CONTINUOUS
 10
8.2964028712
 20
4.1319804968
 11
8.301710293
 21
4.1249039309
  0
LINE
  5
460
100
AcDbEntity
  8
03__ASM_ALL_CURVES
100
AcDbLine
 62
40
  6
CONTINUOUS
 10
8.301710293
 20
4.1107508093
 11
8.2964028712
 21
4.1036742434
  0
LINE
  5
461
100
AcDbEntity
  8
03__ASM_ALL_CURVES
100
AcDbLine
 62
40
  6
CONTINUOUS
 10
8.2857880274
 20
4.0965976826
 11
8.301710293
 21
4.0541383076
  0
LINE
  5
462
100
AcDbEntity
  8
03__ASM_ALL_CURVES
100
AcDbLine
 62
40
  6
CONTINUOUS
 10
8.1690247462
 20
4.0753679951
 11
8.1637173243
 21
4.0965976826
  0
LINE
  5
463
100
AcDbEntity
  8
03__ASM_ALL_CURVES
100
AcDbLine
 62
40
  6
CONTINUOUS
 10
8.089413418
 20
4.0541383076
 11
8.089413418
 21
4.1390570576
  0
LINE
  5
464
100
AcDbEntity
  8
03__ASM_ALL_CURVES
100
AcDbLine
 62
40
  6
CONTINUOUS
 10
8.131872793
 20
4.1249039309
 11
8.131872793
 21
4.1107508093
  0
LINE
  5
465
100
AcDbEntity
  8
03__ASM_ALL_CURVES
100
AcDbLine
 62
40
  6
CONTINUOUS
 10
8.1637173243
 20
4.0965976826
 11
8.1690247462
 21
4.1178273701
  0
LINE
  5
466
100
AcDbEntity
  8
03__ASM_ALL_CURVES
100
AcDbLine
 62
40
  6
CONTINUOUS
 10
8.2274063868
 20
4.0965976826
 11
8.2220989649
 21
4.0753679951
  0
LINE
  5
467
100
AcDbEntity
  8
03__ASM_ALL_CURVES
100
AcDbLine
 62
40
  6
CONTINUOUS
 10
8.2220989649
 20
4.1178273701
 11
8.2274063868
 21
4.0965976826
  0
LINE
  5
468
100
AcDbEntity
  8
03__ASM_ALL_CURVES
100
AcDbLine
 62
40
  6
CONTINUOUS
 10
8.259250918
 20
4.0541383076
 11
8.259250918
 21
4.1390570576
  0
LINE
  5
469
100
AcDbEntity
  8
03__ASM_ALL_CURVES
100
AcDbLine
 62
40
  6
CONTINUOUS
 10
8.301710293
 20
4.1249039309
 11
8.301710293
 21
4.1107508093
  0
LINE
  5
46A
100
AcDbEntity
  8
03__ASM_ALL_CURVES
100
AcDbLine
 62
40
  6
CONTINUOUS
 10
8.3653993555
 20
4.1390570576
 11
8.3653993555
 21
4.0541383076
  0
LINE
  5
46B
100
AcDbEntity
  8
03__ASM_ALL_CURVES
100
AcDbLine
 62
40
  6
CONTINUOUS
 10
8.4503181055
 20
4.1390570576
 11
8.4503181055
 21
4.0541383076
  0
ARC
  5
46C
100
AcDbEntity
  8
0
100
AcDbCircle
 62
7
  6
CONTINUOUS
 10
6.9544134186
 20
4.1889933076
 40
0.047
100
AcDbArc
 50
270.0
 51
320.471580533
  0
ARC
  5
46D
100
AcDbEntity
  8
0
100
AcDbCircle
 62
7
  6
CONTINUOUS
 10
6.0884134186
 20
4.1889933076
 40
0.047
100
AcDbArc
 50
180.0
 51
270.0
  0
ARC
  5
46E
100
AcDbEntity
  8
0
100
AcDbCircle
 62
7
  6
CONTINUOUS
 10
6.9544134186
 20
3.8739933076
 40
0.047
100
AcDbArc
 50
2.4281522059
 51
23.7302073778
  0
ARC
  5
46F
100
AcDbEntity
  8
0
100
AcDbCircle
 62
7
  6
CONTINUOUS
 10
6.0884134186
 20
3.8739933076
 40
0.047
100
AcDbArc
 50
90.0
 51
163.789419929
  0
ARC
  5
470
100
AcDbEntity
  8
0
100
AcDbCircle
 62
7
  6
CONTINUOUS
 10
5.4829134186
 20
3.7054933076
 40
0.046
100
AcDbArc
 50
0.0000393417
 51
90.0
  0
ARC
  5
471
100
AcDbEntity
  8
0
100
AcDbCircle
 62
7
  6
CONTINUOUS
 10
5.4829134186
 20
4.3574933076
 40
0.046
100
AcDbArc
 50
270.0
 51
359.9999606583
  0
ARC
  5
472
100
AcDbEntity
  8
0
100
AcDbCircle
 62
7
  6
CONTINUOUS
 10
7.2904134186
 20
4.3587433076
 40
0.046
100
AcDbArc
 50
270.0
 51
339.3131053161
  0
ARC
  5
473
100
AcDbEntity
  8
0
100
AcDbCircle
 62
7
  6
CONTINUOUS
 10
7.2904134186
 20
3.7042433076
 40
0.046
100
AcDbArc
 50
20.6868946839
 51
90.0
  0
ARC
  5
474
100
AcDbEntity
  8
0
100
AcDbCircle
 62
7
  6
CONTINUOUS
 10
6.7999134186
 20
4.3587433076
 40
0.046
100
AcDbArc
 50
180.0000035544
 51
270.0
  0
ARC
  5
475
100
AcDbEntity
  8
0
100
AcDbCircle
 62
7
  6
CONTINUOUS
 10
6.7999134186
 20
3.7042433076
 40
0.046
100
AcDbArc
 50
90.0
 51
179.9999964456
  0
ARC
  5
476
100
AcDbEntity
  8
0
100
AcDbCircle
 62
7
  6
CONTINUOUS
 10
6.3829134186
 20
4.3587433076
 40
0.046
100
AcDbArc
 50
270.0
 51
359.9999605553
  0
ARC
  5
477
100
AcDbEntity
  8
0
100
AcDbCircle
 62
7
  6
CONTINUOUS
 10
6.3829134186
 20
3.7042433076
 40
0.046
100
AcDbArc
 50
0.0000394447
 51
90.0
  0
ARC
  5
478
100
AcDbEntity
  8
0
100
AcDbCircle
 62
7
  6
CONTINUOUS
 10
5.8999134186
 20
4.3587433076
 40
0.046
100
AcDbArc
 50
180.0000035544
 51
270.0
  0
ARC
  5
479
100
AcDbEntity
  8
0
100
AcDbCircle
 62
7
  6
CONTINUOUS
 10
5.8999134186
 20
3.7042433076
 40
0.046
100
AcDbArc
 50
90.0
 51
179.9999964456
  0
ARC
  5
47A
100
AcDbEntity
  8
0
100
AcDbCircle
 62
7
  6
CONTINUOUS
 10
4.5217946165
 20
3.6729933076
 40
0.008
100
AcDbArc
 50
29.9999999771
 51
90.0
  0
ARC
  5
47B
100
AcDbEntity
  8
0
100
AcDbCircle
 62
7
  6
CONTINUOUS
 10
4.5217946165
 20
4.3899933076
 40
0.008
100
AcDbArc
 50
270.0
 51
330.0000000114
  0
ARC
  5
47C
100
AcDbEntity
  8
0
100
AcDbCircle
 62
7
  6
CONTINUOUS
 10
4.2764134186
 20
4.4519933076
 40
0.002
100
AcDbArc
 50
222.3553148142
 51
317.6446851858
  0
ARC
  5
47D
100
AcDbEntity
  8
0
100
AcDbCircle
 62
7
  6
CONTINUOUS
 10
4.2764134186
 20
3.6109933076
 40
0.002
100
AcDbArc
 50
42.3553148142
 51
137.6446851858
  0
SPLINE
  5
47E
100
AcDbEntity
  8
0
100
AcDbSpline
 62
7
  6
CONTINUOUS
 70
0
 71
3
 72
15
 73
11
 74
9
 42
0.0000001
 43
0.0000001
 44
0.0000000001
 12
0.0
 22
0.1099409465
 32
0.0
 13
0.0
 23
-0.1099409465
 33
0.0
 40
0.0
 40
0.0
 40
0.0
 40
0.0
 40
0.125
 40
0.25
 40
0.375
 40
0.5
 40
0.625
 40
0.75
 40
0.875
 40
1.0
 40
1.0
 40
1.0
 40
1.0
 10
7.5214134186
 20
4.3229933076
 30
0.0
 10
7.5214134186
 20
4.3275741804
 30
0.0
 10
7.5195910341
 20
4.3367359259
 30
0.0
 10
7.5118064662
 20
4.3483863552
 30
0.0
 10
7.5001560369
 20
4.3561709231
 30
0.0
 10
7.4864134186
 20
4.3589044998
 30
0.0
 10
7.4726708003
 20
4.3561709231
 30
0.0
 10
7.461020371
 20
4.3483863552
 30
0.0
 10
7.4532358031
 20
4.3367359259
 30
0.0
 10
7.4514134186
 20
4.3275741804
 30
0.0
 10
7.4514134186
 20
4.3229933076
 30
0.0
 11
7.5214134186
 21
4.3229933076
 31
0.0
 11
7.5187492022
 21
4.3363872277
 31
0.0
 11
7.5111621559
 21
4.3477420449
 31
0.0
 11
7.4998073387
 21
4.3553290912
 31
0.0
 11
7.4864134186
 21
4.3579933076
 31
0.0
 11
7.4730194985
 21
4.3553290912
 31
0.0
 11
7.4616646813
 21
4.3477420449
 31
0.0
 11
7.454077635
 21
4.3363872277
 31
0.0
 11
7.4514134186
 21
4.3229933076
 31
0.0
  0
SPLINE
  5
47F
100
AcDbEntity
  8
0
100
AcDbSpline
 62
7
  6
CONTINUOUS
 70
0
 71
3
 72
15
 73
11
 74
9
 42
0.0000001
 43
0.0000001
 44
0.0000000001
 12
0.0
 22
-0.1099409465
 32
0.0
 13
0.0
 23
0.1099409465
 33
0.0
 40
0.0
 40
0.0
 40
0.0
 40
0.0
 40
0.125
 40
0.25
 40
0.375
 40
0.5
 40
0.625
 40
0.75
 40
0.875
 40
1.0
 40
1.0
 40
1.0
 40
1.0
 10
7.5214134186
 20
3.7399933076
 30
0.0
 10
7.5214134186
 20
3.7354124348
 30
0.0
 10
7.5195910341
 20
3.7262506893
 30
0.0
 10
7.5118064662
 20
3.71460026
 30
0.0
 10
7.5001560369
 20
3.7068156921
 30
0.0
 10
7.4864134186
 20
3.7040821153
 30
0.0
 10
7.4726708003
 20
3.7068156921
 30
0.0
 10
7.461020371
 20
3.71460026
 30
0.0
 10
7.4532358031
 20
3.7262506893
 30
0.0
 10
7.4514134186
 20
3.7354124348
 30
0.0
 10
7.4514134186
 20
3.7399933076
 30
0.0
 11
7.5214134186
 21
3.7399933076
 31
0.0
 11
7.5187492022
 21
3.7265993875
 31
0.0
 11
7.5111621559
 21
3.7152445703
 31
0.0
 11
7.4998073387
 21
3.707657524
 31
0.0
 11
7.4864134186
 21
3.7049933076
 31
0.0
 11
7.4730194985
 21
3.707657524
 31
0.0
 11
7.4616646813
 21
3.7152445703
 31
0.0
 11
7.454077635
 21
3.7265993875
 31
0.0
 11
7.4514134186
 21
3.7399933076
 31
0.0
  0
SPLINE
  5
480
100
AcDbEntity
  8
0
100
AcDbSpline
 62
7
  6
CONTINUOUS
 70
0
 71
3
 72
15
 73
11
 74
9
 42
0.0000001
 43
0.0000001
 44
0.0000000001
 12
0.0
 22
0.1099409465
 32
0.0
 13
0.0
 23
-0.1099409465
 33
0.0
 40
0.0
 40
0.0
 40
0.0
 40
0.0
 40
0.125
 40
0.25
 40
0.375
 40
0.5
 40
0.625
 40
0.75
 40
0.875
 40
1.0
 40
1.0
 40
1.0
 40
1.0
 10
6.6114134186
 20
4.3229933076
 30
0.0
 10
6.6114134186
 20
4.3275741804
 30
0.0
 10
6.6095910341
 20
4.3367359259
 30
0.0
 10
6.6018064662
 20
4.3483863552
 30
0.0
 10
6.5901560369
 20
4.3561709231
 30
0.0
 10
6.5764134186
 20
4.3589044998
 30
0.0
 10
6.5626708003
 20
4.3561709231
 30
0.0
 10
6.551020371
 20
4.3483863552
 30
0.0
 10
6.5432358031
 20
4.3367359259
 30
0.0
 10
6.5414134186
 20
4.3275741804
 30
0.0
 10
6.5414134186
 20
4.3229933076
 30
0.0
 11
6.6114134186
 21
4.3229933076
 31
0.0
 11
6.6087492022
 21
4.3363872277
 31
0.0
 11
6.6011621559
 21
4.3477420449
 31
0.0
 11
6.5898073387
 21
4.3553290912
 31
0.0
 11
6.5764134186
 21
4.3579933076
 31
0.0
 11
6.5630194985
 21
4.3553290912
 31
0.0
 11
6.5516646813
 21
4.3477420449
 31
0.0
 11
6.544077635
 21
4.3363872277
 31
0.0
 11
6.5414134186
 21
4.3229933076
 31
0.0
  0
SPLINE
  5
481
100
AcDbEntity
  8
0
100
AcDbSpline
 62
7
  6
CONTINUOUS
 70
0
 71
3
 72
15
 73
11
 74
9
 42
0.0000001
 43
0.0000001
 44
0.0000000001
 12
0.0
 22
-0.1099409465
 32
0.0
 13
0.0
 23
0.1099409465
 33
0.0
 40
0.0
 40
0.0
 40
0.0
 40
0.0
 40
0.125
 40
0.25
 40
0.375
 40
0.5
 40
0.625
 40
0.75
 40
0.875
 40
1.0
 40
1.0
 40
1.0
 40
1.0
 10
6.6114134186
 20
3.7399933076
 30
0.0
 10
6.6114134186
 20
3.7354124348
 30
0.0
 10
6.6095910341
 20
3.7262506893
 30
0.0
 10
6.6018064662
 20
3.71460026
 30
0.0
 10
6.5901560369
 20
3.7068156921
 30
0.0
 10
6.5764134186
 20
3.7040821153
 30
0.0
 10
6.5626708003
 20
3.7068156921
 30
0.0
 10
6.551020371
 20
3.71460026
 30
0.0
 10
6.5432358031
 20
3.7262506893
 30
0.0
 10
6.5414134186
 20
3.7354124348
 30
0.0
 10
6.5414134186
 20
3.7399933076
 30
0.0
 11
6.6114134186
 21
3.7399933076
 31
0.0
 11
6.6087492022
 21
3.7265993875
 31
0.0
 11
6.6011621559
 21
3.7152445703
 31
0.0
 11
6.5898073387
 21
3.707657524
 31
0.0
 11
6.5764134186
 21
3.7049933076
 31
0.0
 11
6.5630194985
 21
3.707657524
 31
0.0
 11
6.5516646813
 21
3.7152445703
 31
0.0
 11
6.544077635
 21
3.7265993875
 31
0.0
 11
6.5414134186
 21
3.7399933076
 31
0.0
  0
SPLINE
  5
482
100
AcDbEntity
  8
0
100
AcDbSpline
 62
7
  6
CONTINUOUS
 70
0
 71
3
 72
15
 73
11
 74
9
 42
0.0000001
 43
0.0000001
 44
0.0000000001
 12
0.0
 22
0.1099409465
 32
0.0
 13
0.0
 23
-0.1099409465
 33
0.0
 40
0.0
 40
0.0
 40
0.0
 40
0.0
 40
0.125
 40
0.25
 40
0.375
 40
0.5
 40
0.625
 40
0.75
 40
0.875
 40
1.0
 40
1.0
 40
1.0
 40
1.0
 10
5.7114134186
 20
4.3589933076
 30
0.0
 10
5.7114134186
 20
4.3635741804
 30
0.0
 10
5.7095910341
 20
4.3727359259
 30
0.0
 10
5.7018064662
 20
4.3843863552
 30
0.0
 10
5.6901560369
 20
4.3921709231
 30
0.0
 10
5.6764134186
 20
4.3949044998
 30
0.0
 10
5.6626708003
 20
4.3921709231
 30
0.0
 10
5.651020371
 20
4.3843863552
 30
0.0
 10
5.6432358031
 20
4.3727359259
 30
0.0
 10
5.6414134186
 20
4.3635741804
 30
0.0
 10
5.6414134186
 20
4.3589933076
 30
0.0
 11
5.7114134186
 21
4.3589933076
 31
0.0
 11
5.7087492022
 21
4.3723872277
 31
0.0
 11
5.7011621559
 21
4.3837420449
 31
0.0
 11
5.6898073387
 21
4.3913290912
 31
0.0
 11
5.6764134186
 21
4.3939933076
 31
0.0
 11
5.6630194985
 21
4.3913290912
 31
0.0
 11
5.6516646813
 21
4.3837420449
 31
0.0
 11
5.644077635
 21
4.3723872277
 31
0.0
 11
5.6414134186
 21
4.3589933076
 31
0.0
  0
SPLINE
  5
483
100
AcDbEntity
  8
0
100
AcDbSpline
 62
7
  6
CONTINUOUS
 70
0
 71
3
 72
15
 73
11
 74
9
 42
0.0000001
 43
0.0000001
 44
0.0000000001
 12
0.0
 22
-0.1099409465
 32
0.0
 13
0.0
 23
0.1099409465
 33
0.0
 40
0.0
 40
0.0
 40
0.0
 40
0.0
 40
0.125
 40
0.25
 40
0.375
 40
0.5
 40
0.625
 40
0.75
 40
0.875
 40
1.0
 40
1.0
 40
1.0
 40
1.0
 10
5.7114134186
 20
3.7039933076
 30
0.0
 10
5.7114134186
 20
3.6994124348
 30
0.0
 10
5.7095910341
 20
3.6902506893
 30
0.0
 10
5.7018064662
 20
3.67860026
 30
0.0
 10
5.6901560369
 20
3.6708156921
 30
0.0
 10
5.6764134186
 20
3.6680821153
 30
0.0
 10
5.6626708003
 20
3.6708156921
 30
0.0
 10
5.651020371
 20
3.67860026
 30
0.0
 10
5.6432358031
 20
3.6902506893
 30
0.0
 10
5.6414134186
 20
3.6994124348
 30
0.0
 10
5.6414134186
 20
3.7039933076
 30
0.0
 11
5.7114134186
 21
3.7039933076
 31
0.0
 11
5.7087492022
 21
3.6905993875
 31
0.0
 11
5.7011621559
 21
3.6792445703
 31
0.0
 11
5.6898073387
 21
3.671657524
 31
0.0
 11
5.6764134186
 21
3.6689933076
 31
0.0
 11
5.6630194985
 21
3.671657524
 31
0.0
 11
5.6516646813
 21
3.6792445703
 31
0.0
 11
5.644077635
 21
3.6905993875
 31
0.0
 11
5.6414134186
 21
3.7039933076
 31
0.0
  0
SPLINE
  5
484
100
AcDbEntity
  8
0
100
AcDbSpline
 62
7
  6
CONTINUOUS
 70
0
 71
3
 72
14
 73
10
 74
8
 42
0.0000001
 43
0.0000001
 44
0.0000000001
 12
0.0
 22
0.0923501321
 32
0.0
 13
-0.0445331995
 23
-0.0809161858
 33
0.0
 40
0.0
 40
0.0
 40
0.0
 40
0.0
 40
0.1488099475
 40
0.297619895
 40
0.4464298425
 40
0.59523979
 40
0.7440497375
 40
0.892859685
 40
1.0
 40
1.0
 40
1.0
 40
1.0
 10
4.4564134186
 20
4.4169933076
 30
0.0
 10
4.4564134186
 20
4.4215741804
 30
0.0
 10
4.4545910341
 20
4.4307359259
 30
0.0
 10
4.4468064662
 20
4.4423863552
 30
0.0
 10
4.4351560369
 20
4.4501709231
 30
0.0
 10
4.4214134186
 20
4.4529044998
 30
0.0
 10
4.4076708003
 20
4.4501709231
 30
0.0
 10
4.3971078187
 20
4.4431129645
 30
0.0
 10
4.3923343986
 20
4.4367437769
 30
0.0
 10
4.3907439649
 20
4.4338539817
 30
0.0
 11
4.4564134186
 21
4.4169933076
 31
0.0
 11
4.4537492022
 21
4.4303872277
 31
0.0
 11
4.4461621559
 21
4.4417420449
 31
0.0
 11
4.4348073387
 21
4.4493290912
 31
0.0
 11
4.4214134186
 21
4.4519933076
 31
0.0
 11
4.4080194985
 21
4.4493290912
 31
0.0
 11
4.3966646813
 21
4.4417420449
 31
0.0
 11
4.3907439649
 21
4.4338539817
 31
0.0
  0
SPLINE
  5
485
100
AcDbEntity
  8
0
100
AcDbSpline
 62
7
  6
CONTINUOUS
 70
0
 71
3
 72
9
 73
5
 74
3
 42
0.0000001
 43
0.0000001
 44
0.0000000001
 12
-0.0084826651
 22
-0.0154128811
 32
0.0
 13
0.0
 23
-0.0175908144
 33
0.0
 40
0.0
 40
0.0
 40
0.0
 40
0.0
 40
0.2187616778
 40
1.0
 40
1.0
 40
1.0
 40
1.0
 10
4.3907439649
 20
4.4338539817
 30
0.0
 10
4.3901254042
 20
4.4327300658
 30
0.0
 10
4.3875797621
 20
4.4274377852
 30
0.0
 10
4.3864134186
 20
4.4215741804
 30
0.0
 10
4.3864134186
 20
4.4169933076
 30
0.0
 11
4.3907439649
 21
4.4338539817
 31
0.0
 11
4.389077635
 21
4.4303872277
 31
0.0
 11
4.3864134186
 21
4.4169933076
 31
0.0
  0
SPLINE
  5
486
100
AcDbEntity
  8
0
100
AcDbSpline
 62
7
  6
CONTINUOUS
 70
0
 71
3
 72
14
 73
10
 74
8
 42
0.0000001
 43
0.0000001
 44
0.0000000001
 12
0.0
 22
-0.0923501321
 32
0.0
 13
-0.0445331995
 23
0.0809161858
 33
0.0
 40
0.0
 40
0.0
 40
0.0
 40
0.0
 40
0.1488099475
 40
0.297619895
 40
0.4464298425
 40
0.59523979
 40
0.7440497375
 40
0.892859685
 40
1.0
 40
1.0
 40
1.0
 40
1.0
 10
4.4564134186
 20
3.6459933076
 30
0.0
 10
4.4564134186
 20
3.6414124348
 30
0.0
 10
4.4545910341
 20
3.6322506893
 30
0.0
 10
4.4468064662
 20
3.62060026
 30
0.0
 10
4.4351560369
 20
3.6128156921
 30
0.0
 10
4.4214134186
 20
3.6100821153
 30
0.0
 10
4.4076708003
 20
3.6128156921
 30
0.0
 10
4.3971078187
 20
3.6198736507
 30
0.0
 10
4.3923343986
 20
3.6262428383
 30
0.0
 10
4.3907439649
 20
3.6291326335
 30
0.0
 11
4.4564134186
 21
3.6459933076
 31
0.0
 11
4.4537492022
 21
3.6325993875
 31
0.0
 11
4.4461621559
 21
3.6212445703
 31
0.0
 11
4.4348073387
 21
3.613657524
 31
0.0
 11
4.4214134186
 21
3.6109933076
 31
0.0
 11
4.4080194985
 21
3.613657524
 31
0.0
 11
4.3966646813
 21
3.6212445703
 31
0.0
 11
4.3907439649
 21
3.6291326335
 31
0.0
  0
SPLINE
  5
487
100
AcDbEntity
  8
0
100
AcDbSpline
 62
7
  6
CONTINUOUS
 70
0
 71
3
 72
9
 73
5
 74
3
 42
0.0000001
 43
0.0000001
 44
0.0000000001
 12
-0.0084826651
 22
0.0154128811
 32
0.0
 13
0.0
 23
0.0175908144
 33
0.0
 40
0.0
 40
0.0
 40
0.0
 40
0.0
 40
0.2187616778
 40
1.0
 40
1.0
 40
1.0
 40
1.0
 10
4.3907439649
 20
3.6291326335
 30
0.0
 10
4.3901254042
 20
3.6302565494
 30
0.0
 10
4.3875797621
 20
3.63554883
 30
0.0
 10
4.3864134186
 20
3.6414124348
 30
0.0
 10
4.3864134186
 20
3.6459933076
 30
0.0
 11
4.3907439649
 21
3.6291326335
 31
0.0
 11
4.389077635
 21
3.6325993875
 31
0.0
 11
4.3864134186
 21
3.6459933076
 31
0.0
  0
SPLINE
  5
488
100
AcDbEntity
  8
0
100
AcDbSpline
 62
7
  6
CONTINUOUS
 70
0
 71
3
 72
8
 73
4
 74
2
 42
0.0000001
 43
0.0000001
 44
0.0000000001
 12
0.0010624633
 22
-0.0001369498
 32
0.0
 13
0.0010581347
 23
-0.0001684725
 33
0.0
 40
0.0
 40
0.0
 40
0.0
 40
0.0
 40
1.0
 40
1.0
 40
1.0
 40
1.0
 10
6.9672301691
 20
3.9192120084
 30
0.0
 10
6.9675843236
 20
3.9191663585
 30
0.0
 10
6.967937848
 20
3.9191154859
 30
0.0
 10
6.9682905596
 20
3.9190593284
 30
0.0
 11
6.9672301691
 21
3.9192120084
 31
0.0
 11
6.9682905596
 21
3.9190593284
 31
0.0
  0
SPLINE
  5
489
100
AcDbEntity
  8
0
100
AcDbSpline
 62
7
  6
CONTINUOUS
 70
0
 71
3
 72
16
 73
12
 74
10
 42
0.0000001
 43
0.0000001
 44
0.0000000001
 12
0.0394899197
 22
-0.0062874459
 32
0.0
 13
0.0149760619
 23
-0.0370741089
 33
0.0
 40
0.0
 40
0.0
 40
0.0
 40
0.0
 40
0.0760442705
 40
0.1891434929
 40
0.3274677112
 40
0.4809547525
 40
0.638887755
 40
0.7895613122
 40
0.9133561244
 40
0.9983650372
 40
1.0
 40
1.0
 40
1.0
 40
1.0
 10
6.9682905596
 20
3.9190593284
 30
0.0
 10
6.9692915536
 20
3.9188999537
 30
0.0
 10
6.9717650233
 20
3.9183976708
 30
0.0
 10
6.9759324962
 20
3.9170569026
 30
0.0
 10
6.9807802068
 20
3.914627354
 30
0.0
 10
6.9856136141
 20
3.9110284549
 30
0.0
 10
6.9898715751
 20
3.9065411163
 30
0.0
 10
6.9931856398
 20
3.9018050897
 30
0.0
 10
6.99546571
 20
3.8975828705
 30
0.0
 10
6.9965989013
 20
3.895015391
 30
0.0
 10
6.9970320594
 20
3.8939448944
 30
0.0
 10
6.9970402212
 20
3.8939246894
 30
0.0
 11
6.9682905596
 21
3.9190593284
 31
0.0
 11
6.9712697212
 21
3.9184520842
 31
0.0
 11
6.9755731101
 21
3.91706322
 31
0.0
 11
6.9805183327
 21
3.9145870735
 31
0.0
 11
6.9854499019
 21
3.9109347659
 31
0.0
 11
6.9898131759
 21
3.9063702403
 31
0.0
 11
6.9932823328
 21
3.901445132
 31
0.0
 11
6.9956414183
 21
3.8970939062
 31
0.0
 11
6.9970157002
 21
3.89398529
 31
0.0
 11
6.9970402212
 21
3.8939246894
 31
0.0
  0
SPLINE
  5
48A
100
AcDbEntity
  8
0
100
AcDbSpline
 62
7
  6
CONTINUOUS
 70
0
 71
3
 72
8
 73
4
 74
2
 42
0.0000001
 43
0.0000001
 44
0.0000000001
 12
0.0004093078
 22
-0.0010132652
 32
0.0
 13
0.0003894718
 23
-0.0010209387
 33
0.0
 40
0.0
 40
0.0
 40
0.0
 40
0.0
 40
1.0
 40
1.0
 40
1.0
 40
1.0
 10
6.9970402212
 20
3.8939246894
 30
0.0
 10
6.9971766571
 20
3.8935869344
 30
0.0
 10
6.9973097706
 20
3.8932478528
 30
0.0
 10
6.9974395945
 20
3.8929075399
 30
0.0
 11
6.9970402212
 21
3.8939246894
 31
0.0
 11
6.9974395945
 21
3.8929075399
 31
0.0
  0
SPLINE
  5
48B
100
AcDbEntity
  8
0
100
AcDbSpline
 62
7
  6
CONTINUOUS
 70
0
 71
3
 72
14
 73
10
 74
8
 42
0.0000001
 43
0.0000001
 44
0.0000000001
 12
-0.1046826132
 22
0.2029792199
 32
0.0
 13
0.1046826132
 23
0.2029792199
 33
0.0
 40
0.0
 40
0.0
 40
0.0
 40
0.0
 40
0.1530438599
 40
0.2956043717
 40
0.4324922324
 40
0.5675957362
 40
0.7044780411
 40
0.8469906498
 40
1.0
 40
1.0
 40
1.0
 40
1.0
 10
3.6864770845
 20
3.5433908351
 30
0.0
 10
3.6811367408
 20
3.5537457429
 30
0.0
 10
3.6717317474
 20
3.5742454712
 30
0.0
 10
3.6616901293
 20
3.6057009955
 30
0.0
 10
3.6565464191
 20
3.6369686643
 30
0.0
 10
3.6565481122
 20
3.6682376885
 30
0.0
 10
3.6616941927
 20
3.6995007935
 30
0.0
 10
3.6717353751
 20
3.7309493085
 30
0.0
 10
3.6811379449
 20
3.7514432072
 30
0.0
 10
3.6864770845
 20
3.7617957801
 30
0.0
 11
3.6864770845
 21
3.5433908351
 31
0.0
 11
3.6720794858
 21
3.575240476
 31
0.0
 11
3.6623446135
 21
3.6063095272
 31
0.0
 11
3.6573793798
 21
3.637175641
 31
0.0
 11
3.6573810105
 21
3.6680310491
 31
0.0
 11
3.6623489994
 21
3.6988954344
 31
0.0
 11
3.6720823219
 21
3.7299535065
 31
0.0
 11
3.6864770845
 21
3.7617957801
 31
0.0
  0
SPLINE
  5
48C
100
AcDbEntity
  8
0
100
AcDbSpline
 62
7
  6
CONTINUOUS
 70
0
 71
3
 72
15
 73
11
 74
9
 42
0.0000001
 43
0.0000001
 44
0.0000000001
 12
0.1643031241
 22
0.1839340856
 32
0.0
 13
-0.1643031241
 23
0.1839340856
 33
0.0
 40
0.0
 40
0.0
 40
0.0
 40
0.0
 40
0.1498215377
 40
0.2783315905
 40
0.3927788038
 40
0.5000592815
 40
0.6073304266
 40
0.7217569014
 40
0.8502022558
 40
1.0
 40
1.0
 40
1.0
 40
1.0
 10
4.0599134186
 20
3.5433908351
 30
0.0
 10
4.0681188008
 20
3.5525765976
 30
0.0
 10
4.0825505803
 20
3.5704195562
 30
0.0
 10
4.0991483091
 20
3.5982779703
 30
0.0
 10
4.109133416
 20
3.6255050443
 30
0.0
 10
4.1124944391
 20
3.6526074
 30
0.0
 10
4.1091266655
 20
3.6797070638
 30
0.0
 10
4.0991395482
 20
3.7069248404
 30
0.0
 10
4.0825448186
 20
3.7347743008
 30
0.0
 10
4.0681174977
 20
3.7526114764
 30
0.0
 10
4.0599134186
 20
3.7617957801
 30
0.0
 11
4.0599134186
 21
3.5433908351
 31
0.0
 11
4.0828818924
 21
3.5723357481
 31
0.0
 11
4.0988080772
 21
3.5997384631
 31
0.0
 11
4.1082570747
 21
3.6263362445
 31
0.0
 11
4.1113973836
 21
3.6526080084
 31
0.0
 11
4.1082507954
 21
3.6788767029
 31
0.0
 11
4.0987987632
 21
3.7054679777
 31
0.0
 11
4.0828785557
 21
3.7328557107
 31
0.0
 11
4.0599134186
 21
3.7617957801
 31
0.0
  0
SPLINE
  5
48D
100
AcDbEntity
  8
0
100
AcDbSpline
 62
7
  6
CONTINUOUS
 70
0
 71
3
 72
14
 73
10
 74
8
 42
0.0000001
 43
0.0000001
 44
0.0000000001
 12
-0.1103507163
 22
0.4279393037
 32
0.0
 13
0.1103507163
 23
0.4279393037
 33
0.0
 40
0.0
 40
0.0
 40
0.0
 40
0.0
 40
0.1477720816
 40
0.2900907235
 40
0.430227046
 40
0.569863817
 40
0.7099928421
 40
0.8522618536
 40
1.0
 40
1.0
 40
1.0
 40
1.0
 10
3.6864770845
 20
3.8130883626
 30
0.0
 10
3.6810414995
 20
3.8341675232
 30
0.0
 10
3.6715261473
 20
3.8758615621
 30
0.0
 10
3.661599064
 20
3.9385102011
 30
0.0
 10
3.6565445211
 20
4.000549636
 30
0.0
 10
3.6565461798
 20
4.062476097
 30
0.0
 10
3.6616030977
 20
4.1245069034
 30
0.0
 10
3.6715298732
 20
4.1871419788
 30
0.0
 10
3.6810427477
 20
4.2288239328
 30
0.0
 10
3.6864770845
 20
4.2498982526
 30
0.0
 11
3.6864770845
 21
3.8130883626
 31
0.0
 11
3.6720794858
 21
3.8767876444
 31
0.0
 11
3.6623446135
 21
3.9389257468
 31
0.0
 11
3.6573793798
 21
4.0006579745
 31
0.0
 11
3.6573810105
 21
4.0623687907
 31
0.0
 11
3.6623489994
 21
4.1240975613
 31
0.0
 11
3.6720823219
 21
4.1862137053
 31
0.0
 11
3.6864770845
 21
4.2498982526
 31
0.0
  0
SPLINE
  5
48E
100
AcDbEntity
  8
0
100
AcDbSpline
 62
7
  6
CONTINUOUS
 70
0
 71
3
 72
15
 73
11
 74
9
 42
0.0000001
 43
0.0000001
 44
0.0000000001
 12
0.1843202379
 22
0.4126856942
 32
0.0
 13
-0.1843202379
 23
0.4126856942
 33
0.0
 40
0.0
 40
0.0
 40
0.0
 40
0.0
 40
0.1377942686
 40
0.2640673782
 40
0.3836049145
 40
0.5000649493
 40
0.6165122554
 40
0.736022619
 40
0.8622283762
 40
1.0
 40
1.0
 40
1.0
 40
1.0
 10
4.0599134186
 20
3.8130883626
 30
0.0
 10
4.0683795094
 20
3.8320436037
 30
0.0
 10
4.0832110522
 20
3.8690245426
 30
0.0
 10
4.0995481674
 20
3.9245608237
 30
0.0
 10
4.1092413369
 20
3.978391563
 30
0.0
 10
4.1124629934
 20
4.0315208659
 30
0.0
 10
4.1092348033
 20
4.0846456165
 30
0.0
 10
4.0995392817
 20
4.1384593991
 30
0.0
 10
4.0832048322
 20
4.1939778943
 30
0.0
 10
4.0683781181
 20
4.2309461265
 30
0.0
 10
4.0599134186
 20
4.2498982526
 30
0.0
 11
4.0599134186
 21
3.8130883626
 31
0.0
 11
4.0828818924
 21
3.8709781886
 31
0.0
 11
4.0988080772
 21
3.9257836187
 31
0.0
 11
4.1082570747
 21
3.9789791813
 31
0.0
 11
4.1113973836
 21
4.0315227093
 31
0.0
 11
4.1082507954
 21
4.0840600982
 31
0.0
 11
4.0987987632
 21
4.1372426479
 31
0.0
 11
4.0828785557
 21
4.1920181139
 31
0.0
 11
4.0599134186
 21
4.2498982526
 31
0.0
  0
SPLINE
  5
48F
100
AcDbEntity
  8
0
100
AcDbSpline
 62
7
  6
CONTINUOUS
 70
0
 71
3
 72
14
 73
10
 74
8
 42
0.0000001
 43
0.0000001
 44
0.0000000001
 12
-0.1046826132
 22
0.2029792199
 32
0.0
 13
0.1046826132
 23
0.2029792199
 33
0.0
 40
0.0
 40
0.0
 40
0.0
 40
0.0
 40
0.1530438599
 40
0.2956043717
 40
0.4324922324
 40
0.5675957362
 40
0.7044780411
 40
0.8469906498
 40
1.0
 40
1.0
 40
1.0
 40
1.0
 10
3.6864770845
 20
4.3011908351
 30
0.0
 10
3.6811367408
 20
4.3115457429
 30
0.0
 10
3.6717317474
 20
4.3320454712
 30
0.0
 10
3.6616901293
 20
4.3635009955
 30
0.0
 10
3.6565464191
 20
4.3947686643
 30
0.0
 10
3.6565481122
 20
4.4260376885
 30
0.0
 10
3.6616941927
 20
4.4573007935
 30
0.0
 10
3.6717353751
 20
4.4887493085
 30
0.0
 10
3.6811379449
 20
4.5092432072
 30
0.0
 10
3.6864770845
 20
4.5195957801
 30
0.0
 11
3.6864770845
 21
4.3011908351
 31
0.0
 11
3.6720794858
 21
4.333040476
 31
0.0
 11
3.6623446135
 21
4.3641095272
 31
0.0
 11
3.6573793798
 21
4.394975641
 31
0.0
 11
3.6573810105
 21
4.4258310491
 31
0.0
 11
3.6623489994
 21
4.4566954344
 31
0.0
 11
3.6720823219
 21
4.4877535065
 31
0.0
 11
3.6864770845
 21
4.5195957801
 31
0.0
  0
SPLINE
  5
490
100
AcDbEntity
  8
0
100
AcDbSpline
 62
7
  6
CONTINUOUS
 70
0
 71
3
 72
15
 73
11
 74
9
 42
0.0000001
 43
0.0000001
 44
0.0000000001
 12
0.1643031241
 22
0.1839340856
 32
0.0
 13
-0.1643031241
 23
0.1839340856
 33
0.0
 40
0.0
 40
0.0
 40
0.0
 40
0.0
 40
0.1498215377
 40
0.2783315905
 40
0.3927788038
 40
0.5000592815
 40
0.6073304266
 40
0.7217569014
 40
0.8502022558
 40
1.0
 40
1.0
 40
1.0
 40
1.0
 10
4.0599134186
 20
4.3011908351
 30
0.0
 10
4.0681188008
 20
4.3103765976
 30
0.0
 10
4.0825505803
 20
4.3282195562
 30
0.0
 10
4.0991483091
 20
4.3560779703
 30
0.0
 10
4.109133416
 20
4.3833050443
 30
0.0
 10
4.1124944391
 20
4.4104074
 30
0.0
 10
4.1091266655
 20
4.4375070638
 30
0.0
 10
4.0991395482
 20
4.4647248404
 30
0.0
 10
4.0825448186
 20
4.4925743008
 30
0.0
 10
4.0681174977
 20
4.5104114764
 30
0.0
 10
4.0599134186
 20
4.5195957801
 30
0.0
 11
4.0599134186
 21
4.3011908351
 31
0.0
 11
4.0828818924
 21
4.3301357481
 31
0.0
 11
4.0988080772
 21
4.3575384631
 31
0.0
 11
4.1082570747
 21
4.3841362445
 31
0.0
 11
4.1113973836
 21
4.4104080084
 31
0.0
 11
4.1082507954
 21
4.4366767029
 31
0.0
 11
4.0987987632
 21
4.4632679777
 31
0.0
 11
4.0828785557
 21
4.4906557107
 31
0.0
 11
4.0599134186
 21
4.5195957801
 31
0.0
  0
SPLINE
  5
491
100
AcDbEntity
  8
0
100
AcDbSpline
 62
7
  6
CONTINUOUS
 70
0
 71
3
 72
19
 73
15
 74
13
 42
0.0000001
 43
0.0000001
 44
0.0000000001
 12
0.1372414145
 22
0.0343104844
 32
0.0
 13
0.1372414886
 23
-0.0343104886
 33
0.0
 40
0.0
 40
0.0
 40
0.0
 40
0.0
 40
0.0172315836
 40
0.070363087
 40
0.1546399494
 40
0.2596354426
 40
0.3793614438
 40
0.5065617345
 40
0.6334320363
 40
0.7519141926
 40
0.8547468976
 40
0.9339427659
 40
0.9834403102
 40
1.0
 40
1.0
 40
1.0
 40
1.0
 10
5.2964134186
 20
3.7514933076
 30
0.0
 10
5.2972017142
 20
3.7516903823
 30
0.0
 10
5.3004236453
 20
3.7524831194
 30
0.0
 10
5.3075311839
 20
3.7541162674
 30
0.0
 10
5.3187486413
 20
3.7563286519
 30
0.0
 10
5.3331628319
 20
3.758502945
 30
0.0
 10
5.3496953615
 20
3.7600557376
 30
0.0
 10
5.3673270115
 20
3.7605820708
 30
0.0
 10
5.3848959435
 20
3.7599386615
 30
0.0
 10
5.401242821
 20
3.7583012224
 30
0.0
 10
5.4152498533
 20
3.7561154111
 30
0.0
 10
5.4259568659
 20
3.7539686602
 30
0.0
 10
5.4326312045
 20
3.7524273628
 30
0.0
 10
5.4356558598
 20
3.7516826979
 30
0.0
 10
5.4364134186
 20
3.7514933076
 30
0.0
 11
5.2964134186
 21
3.7514933076
 31
0.0
 11
5.2987805102
 21
3.7520756806
 31
0.0
 11
5.3061061374
 21
3.7537578792
 31
0.0
 11
5.3178038354
 21
3.7560611171
 31
0.0
 11
5.3324918573
 21
3.7582705554
 31
0.0
 11
5.3493553377
 21
3.759848359
 31
0.0
 11
5.367341885
 21
3.7603828835
 31
0.0
 11
5.385277774
 21
3.759728954
 31
0.0
 11
5.4019561015
 21
3.7580645558
 31
0.0
 11
5.4163303582
 21
3.755827385
 31
0.0
 11
5.4273158667
 21
3.7536280377
 31
0.0
 11
5.4341387066
 21
3.7520533057
 31
0.0
 11
5.4364134186
 21
3.7514933076
 31
0.0
  0
SPLINE
  5
492
100
AcDbEntity
  8
0
100
AcDbSpline
 62
7
  6
CONTINUOUS
 70
0
 71
3
 72
19
 73
15
 74
13
 42
0.0000001
 43
0.0000001
 44
0.0000000001
 12
0.0
 22
0.2105302516
 32
0.0
 13
0.0
 23
-0.2105302516
 33
0.0
 40
0.0
 40
0.0
 40
0.0
 40
0.0
 40
0.0759858956
 40
0.1568131323
 40
0.2409273869
 40
0.3268728482
 40
0.4133998364
 40
0.4999742743
 40
0.586539141
 40
0.6730818929
 40
0.7590909891
 40
0.8432700386
 40
0.9241058398
 40
1.0
 40
1.0
 40
1.0
 40
1.0
 10
5.2964134186
 20
3.8914933076
 30
0.0
 10
5.2964134186
 20
3.8968257508
 30
0.0
 10
5.2981156432
 20
3.9078803443
 30
0.0
 10
5.3052370736
 20
3.9234235231
 30
0.0
 10
5.3165006366
 20
3.9371987605
 30
0.0
 10
5.3311205681
 20
3.9480244476
 30
0.0
 10
5.3481349382
 20
3.9549639842
 30
0.0
 10
5.3664072361
 20
3.9573584319
 30
0.0
 10
5.3846809926
 20
3.9549669402
 30
0.0
 10
5.4017011046
 20
3.9480281728
 30
0.0
 10
5.4163299057
 20
3.9371968015
 30
0.0
 10
5.4275977665
 20
3.9234121346
 30
0.0
 10
5.4347142137
 20
3.9078679217
 30
0.0
 10
5.4364134186
 20
3.8968193131
 30
0.0
 10
5.4364134186
 20
3.8914933076
 30
0.0
 11
5.2964134186
 21
3.8914933076
 31
0.0
 11
5.2987517448
 21
3.9073188183
 31
0.0
 11
5.3057473689
 21
3.9228309164
 31
0.0
 11
5.3169211517
 21
3.9365692176
 31
0.0
 11
5.3314601272
 21
3.9473402601
 31
0.0
 11
5.3483345736
 21
3.9542028909
 31
0.0
 11
5.3664079678
 21
3.9565606685
 31
0.0
 11
5.3844797614
 21
3.9542062002
 31
0.0
 11
5.4013583568
 21
3.9473449625
 31
0.0
 11
5.4159085169
 21
3.9365665117
 31
0.0
 11
5.4270887755
 21
3.9228158941
 31
0.0
 11
5.4340806123
 21
3.9073001109
 31
0.0
 11
5.4364134186
 21
3.8914933076
 31
0.0
  0
SPLINE
  5
493
100
AcDbEntity
  8
0
100
AcDbSpline
 62
7
  6
CONTINUOUS
 70
0
 71
3
 72
19
 73
15
 74
13
 42
0.0000001
 43
0.0000001
 44
0.0000000001
 12
0.0
 22
-0.2105302516
 32
0.0
 13
0.0
 23
0.2105302516
 33
0.0
 40
0.0
 40
0.0
 40
0.0
 40
0.0
 40
0.0759858956
 40
0.1568131323
 40
0.2409273869
 40
0.3268728482
 40
0.4133998364
 40
0.4999742743
 40
0.586539141
 40
0.6730818929
 40
0.7590909891
 40
0.8432700386
 40
0.9241058398
 40
1.0
 40
1.0
 40
1.0
 40
1.0
 10
5.4364134186
 20
4.1714933076
 30
0.0
 10
5.4364134186
 20
4.1661608644
 30
0.0
 10
5.434711194
 20
4.1551062709
 30
0.0
 10
5.4275897636
 20
4.1395630921
 30
0.0
 10
5.4163262006
 20
4.1257878547
 30
0.0
 10
5.4017062691
 20
4.1149621676
 30
0.0
 10
5.384691899
 20
4.108022631
 30
0.0
 10
5.3664196011
 20
4.1056281833
 30
0.0
 10
5.3481458447
 20
4.108019675
 30
0.0
 10
5.3311257326
 20
4.1149584424
 30
0.0
 10
5.3164969315
 20
4.1257898137
 30
0.0
 10
5.3052290707
 20
4.1395744806
 30
0.0
 10
5.2981126235
 20
4.1551186934
 30
0.0
 10
5.2964134186
 20
4.166167302
 30
0.0
 10
5.2964134186
 20
4.1714933076
 30
0.0
 11
5.4364134186
 21
4.1714933076
 31
0.0
 11
5.4340750924
 21
4.1556677969
 31
0.0
 11
5.4270794683
 21
4.1401556988
 31
0.0
 11
5.4159056855
 21
4.1264173976
 31
0.0
 11
5.40136671
 21
4.1156463551
 31
0.0
 11
5.3844922636
 21
4.1087837242
 31
0.0
 11
5.3664188694
 21
4.1064259467
 31
0.0
 11
5.3483470758
 21
4.108780415
 31
0.0
 11
5.3314684804
 21
4.1156416527
 31
0.0
 11
5.3169183204
 21
4.1264201035
 31
0.0
 11
5.3057380617
 21
4.1401707211
 31
0.0
 11
5.2987462249
 21
4.1556865043
 31
0.0
 11
5.2964134186
 21
4.1714933076
 31
0.0
  0
SPLINE
  5
494
100
AcDbEntity
  8
0
100
AcDbSpline
 62
7
  6
CONTINUOUS
 70
0
 71
3
 72
19
 73
15
 74
13
 42
0.0000001
 43
0.0000001
 44
0.0000000001
 12
-0.1372416405
 22
-0.0343105332
 32
0.0
 13
-0.1372416462
 23
0.0343105325
 33
0.0
 40
0.0
 40
0.0
 40
0.0
 40
0.0
 40
0.0168874755
 40
0.0689717107
 40
0.1517950797
 40
0.2552636899
 40
0.3732693493
 40
0.4993234086
 40
0.6253757617
 40
0.7435611719
 40
0.8474327577
 40
0.9309126234
 40
0.9831682525
 40
1.0
 40
1.0
 40
1.0
 40
1.0
 10
5.4364134186
 20
4.3114933076
 30
0.0
 10
5.4356408637
 20
4.3113001682
 30
0.0
 10
5.4324826983
 20
4.3105228709
 30
0.0
 10
5.4255065442
 20
4.3089171037
 30
0.0
 10
5.4144776862
 20
4.3067307348
 30
0.0
 10
5.4002867216
 20
4.3045646879
 30
0.0
 10
5.3839650275
 20
4.3029879443
 30
0.0
 10
5.3665093094
 20
4.3024060916
 30
0.0
 10
5.3490447065
 20
4.3029758838
 30
0.0
 10
5.3326946733
 20
4.3045447526
 30
0.0
 10
5.3184448398
 20
4.3067128955
 30
0.0
 10
5.3073585405
 20
4.3089083191
 30
0.0
 10
5.3003468761
 20
4.3105221667
 30
0.0
 10
5.2971834242
 20
4.3113008055
 30
0.0
 10
5.2964134186
 20
4.3114933076
 30
0.0
 11
5.4364134186
 21
4.3114933076
 31
0.0
 11
5.4340936364
 21
4.3109223896
 31
0.0
 11
5.426913033
 21
4.3092705625
 31
0.0
 11
5.4154193009
 21
4.306995715
 31
0.0
 11
5.4009487107
 21
4.3047929351
 31
0.0
 11
5.3843317093
 21
4.3031936299
 31
0.0
 11
5.3665091597
 21
4.3026021587
 31
0.0
 11
5.3486864394
 21
4.3031810802
 31
0.0
 11
5.3320431015
 21
4.3047721372
 31
0.0
 11
5.3175151054
 21
4.3069766012
 31
0.0
 11
5.3059297939
 21
4.3092670804
 31
0.0
 11
5.2987255387
 21
4.3109242455
 31
0.0
 11
5.2964134186
 21
4.3114933076
 31
0.0
  0
SPLINE
  5
495
100
AcDbEntity
  8
0
100
AcDbSpline
 62
7
  6
CONTINUOUS
 70
0
 71
3
 72
20
 73
16
 74
14
 42
0.0000001
 43
0.0000001
 44
0.0000000001
 12
0.1522733022
 22
0.0422305495
 32
0.0
 13
0.152273348
 23
-0.0422305564
 33
0.0
 40
0.0
 40
0.0
 40
0.0
 40
0.0
 40
0.0146873351
 40
0.0601701832
 40
0.133439195
 40
0.2263699055
 40
0.3320946608
 40
0.4478375696
 40
0.5650004915
 40
0.6799823153
 40
0.7846224379
 40
0.8749646531
 40
0.9432818608
 40
0.9858334762
 40
1.0
 40
1.0
 40
1.0
 40
1.0
 10
5.9834134186
 20
3.7502433076
 30
0.0
 10
5.9841589149
 20
3.750450059
 30
0.0
 10
5.9872159236
 20
3.7512866593
 30
0.0
 10
5.994021453
 20
3.7530461116
 30
0.0
 10
6.0048952693
 20
3.7555241931
 30
0.0
 10
6.0189893019
 20
3.7581088517
 30
0.0
 10
6.0354251676
 20
3.7602138183
 30
0.0
 10
6.0532387032
 20
3.7613610973
 30
0.0
 10
6.0715775738
 20
3.7612919902
 30
0.0
 10
6.0892850662
 20
3.7600233297
 30
0.0
 10
6.1054751972
 20
3.7578441821
 30
0.0
 10
6.1191088891
 20
3.7552719787
 30
0.0
 10
6.1294375132
 20
3.7528862837
 30
0.0
 10
6.1358128302
 20
3.751231679
 30
0.0
 10
6.1386943573
 20
3.7504427277
 30
0.0
 10
6.1394134186
 20
3.7502433076
 30
0.0
 11
5.9834134186
 21
3.7502433076
 31
0.0
 11
5.9856520245
 21
3.7508559057
 31
0.0
 11
5.9926107339
 21
3.7526539776
 31
0.0
 11
6.0039002062
 21
3.7552229109
 31
0.0
 11
6.0183455888
 21
3.7578650918
 31
0.0
 11
6.0349179724
 21
3.7599798251
 31
0.0
 11
6.0531703479
 21
3.7611499875
 31
0.0
 11
6.0716844568
 21
3.7610805551
 31
0.0
 11
6.0898079971
 21
3.7597879256
 31
0.0
 11
6.1061966203
 21
3.7575898617
 31
0.0
 11
6.1202263086
 21
3.7549494259
 31
0.0
 11
6.1307456314
 21
3.7525228464
 31
0.0
 11
6.1372542655
 21
3.7508344461
 31
0.0
 11
6.1394134186
 21
3.7502433076
 31
0.0
  0
SPLINE
  5
496
100
AcDbEntity
  8
0
100
AcDbSpline
 62
7
  6
CONTINUOUS
 70
0
 71
3
 72
13
 73
9
 74
7
 42
0.0000001
 43
0.0000001
 44
0.0000000001
 12
-0.117660005
 22
0.0
 32
0.0
 13
0.0000417291
 23
-0.1180855818
 33
0.0
 40
0.0
 40
0.0
 40
0.0
 40
0.0
 40
0.1709124269
 40
0.3438644728
 40
0.5177357008
 40
0.6875664151
 40
0.8485918907
 40
1.0
 40
1.0
 40
1.0
 40
1.0
 10
6.0994134186
 20
3.9639344788
 30
0.0
 10
6.0927102329
 20
3.9639344788
 30
0.0
 10
6.0791598727
 20
3.9621525124
 30
0.0
 10
6.0601836715
 20
3.9543480521
 30
0.0
 10
6.0437859547
 20
3.9420808759
 30
0.0
 10
6.0312101767
 20
3.926525769
 30
0.0
 10
6.0233071812
 20
3.9091032296
 30
0.0
 10
6.0214113111
 20
3.8968279692
 30
0.0
 10
6.0214134171
 20
3.8908682643
 30
0.0
 11
6.0994134186
 21
3.9639344788
 31
0.0
 11
6.0794741807
 21
3.9613227598
 31
0.0
 11
6.0606411785
 21
3.9536142094
 31
0.0
 11
6.0442577903
 21
3.9413626115
 31
0.0
 11
6.0317342779
 21
3.9257917008
 31
0.0
 11
6.0240059802
 21
3.908493316
 31
0.0
 11
6.0214134171
 21
3.8908682643
 31
0.0
  0
SPLINE
  5
497
100
AcDbEntity
  8
0
100
AcDbSpline
 62
7
  6
CONTINUOUS
 70
0
 71
3
 72
20
 73
16
 74
14
 42
0.0000001
 43
0.0000001
 44
0.0000000001
 12
0.0
 22
-0.2354189061
 32
0.0
 13
0.0
 23
0.2354189061
 33
0.0
 40
0.0
 40
0.0
 40
0.0
 40
0.0
 40
0.0698901016
 40
0.144308732
 40
0.2216065032
 40
0.3010560587
 40
0.3804227992
 40
0.4604547423
 40
0.5395494753
 40
0.6195975345
 40
0.6989323104
 40
0.7785152845
 40
0.8557873967
 40
0.930253979
 40
1.0
 40
1.0
 40
1.0
 40
1.0
 10
6.1394134186
 20
4.1721183076
 30
0.0
 10
6.1394134186
 20
4.1666338238
 30
0.0
 10
6.137800804
 20
4.1552655548
 30
0.0
 10
6.1310202217
 20
4.139071115
 30
0.0
 10
6.1201938125
 20
4.1243121186
 30
0.0
 10
6.1060101105
 20
4.1121392005
 30
0.0
 10
6.0892332703
 20
4.1034110609
 30
0.0
 10
6.0708887998
 20
4.0988659041
 30
0.0
 10
6.051935746
 20
4.0988660197
 30
0.0
 10
6.0335925609
 20
4.1034116151
 30
0.0
 10
6.0168077751
 20
4.1121441296
 30
0.0
 10
6.0026209213
 20
4.1243236701
 30
0.0
 10
5.9917921895
 20
4.139095968
 30
0.0
 10
5.9850215394
 20
4.1552846411
 30
0.0
 10
5.9834134186
 20
4.1666451303
 30
0.0
 10
5.9834134186
 20
4.1721183076
 30
0.0
 11
6.1394134186
 21
4.1721183076
 31
0.0
 11
6.1371939829
 21
4.1558152354
 31
0.0
 11
6.1305156308
 21
4.1396184969
 31
0.0
 11
6.1197899987
 21
4.1249180001
 31
0.0
 11
6.1056009563
 21
4.1127316152
 31
0.0
 11
6.0890161124
 21
4.1041263305
 31
0.0
 11
6.0707231101
 21
4.0996151699
 31
0.0
 11
6.0521027145
 21
4.0996152928
 31
0.0
 11
6.0338061968
 21
4.1041280444
 31
0.0
 11
6.0172281467
 21
4.1127300835
 31
0.0
 11
6.0030172451
 21
4.1249392243
 31
0.0
 11
5.9923000269
 21
4.1396383813
 31
0.0
 11
5.9856239098
 21
4.1558482505
 31
0.0
 11
5.9834134186
 21
4.1721183076
 31
0.0
  0
SPLINE
  5
498
100
AcDbEntity
  8
0
100
AcDbSpline
 62
7
  6
CONTINUOUS
 70
0
 71
3
 72
19
 73
15
 74
13
 42
0.0000001
 43
0.0000001
 44
0.0000000001
 12
0.0
 22
-0.2105038487
 32
0.0
 13
0.0
 23
0.2105038487
 33
0.0
 40
0.0
 40
0.0
 40
0.0
 40
0.0
 40
0.0759924155
 40
0.1568107565
 40
0.2409133744
 40
0.3268537375
 40
0.4133862433
 40
0.4999737175
 40
0.5865518335
 40
0.673100269
 40
0.7591039937
 40
0.8432710938
 40
0.9240981646
 40
1.0
 40
1.0
 40
1.0
 40
1.0
 10
6.9984134186
 20
4.1721183076
 30
0.0
 10
6.9984134186
 20
4.1667860756
 30
0.0
 10
6.9967114462
 20
4.1557329604
 30
0.0
 10
6.989589924
 20
4.1401931172
 30
0.0
 10
6.9783263292
 20
4.126422984
 30
0.0
 10
6.963706311
 20
4.1156025529
 30
0.0
 10
6.9466919004
 20
4.108667019
 30
0.0
 10
6.928419705
 20
4.1062740701
 30
0.0
 10
6.9101460314
 20
4.1086640113
 30
0.0
 10
6.8931258558
 20
4.115598738
 30
0.0
 10
6.8784969651
 20
4.1264247947
 30
0.0
 10
6.867229044
 20
4.1402042927
 30
0.0
 10
6.8601124127
 20
4.1557452061
 30
0.0
 10
6.8584134186
 20
4.1667924314
 30
0.0
 10
6.8584134186
 20
4.1721183076
 30
0.0
 11
6.9984134186
 21
4.1721183076
 31
0.0
 11
6.9960749111
 21
4.1562934643
 31
0.0
 11
6.9890795092
 21
4.1407856614
 31
0.0
 11
6.9779062843
 21
4.1270529269
 31
0.0
 11
6.9633676641
 21
4.1162870204
 31
0.0
 11
6.9464930036
 21
4.1094278982
 31
0.0
 11
6.928418987
 21
4.1070713483
 31
0.0
 11
6.9103465197
 21
4.1094245422
 31
0.0
 11
6.8934676622
 21
4.1162822438
 31
0.0
 11
6.8789178761
 21
4.1270554841
 31
0.0
 11
6.8677381677
 21
4.1408004422
 31
0.0
 11
6.8607464753
 21
4.1563119336
 31
0.0
 11
6.8584134186
 21
4.1721183076
 31
0.0
  0
SPLINE
  5
499
100
AcDbEntity
  8
0
100
AcDbSpline
 62
7
  6
CONTINUOUS
 70
0
 71
3
 72
10
 73
6
 74
4
 42
0.0000001
 43
0.0000001
 44
0.0000000001
 12
0.0098734628
 22
-0.0266973071
 32
0.0
 13
0.0219232011
 23
-0.0180743143
 33
0.0
 40
0.0
 40
0.0
 40
0.0
 40
0.0
 40
0.3076998569
 40
0.8206933196
 40
1.0
 40
1.0
 40
1.0
 40
1.0
 10
6.0246988191
 20
3.9110512404
 30
0.0
 10
6.0257115068
 20
3.9083129879
 30
0.0
 10
6.0290275691
 20
3.9012375786
 30
0.0
 10
6.0349568691
 20
3.8937273771
 30
0.0
 10
6.0398424456
 20
3.8893470659
 30
0.0
 10
6.0411527711
 20
3.8882667841
 30
0.0
 11
6.0246988191
 21
3.9110512404
 31
0.0
 11
6.0284159616
 21
3.9031356448
 31
0.0
 11
6.0373640758
 21
3.8916710191
 31
0.0
 11
6.0411527711
 21
3.8882667841
 31
0.0
  0
SPLINE
  5
49A
100
AcDbEntity
  8
0
100
AcDbSpline
 62
7
  6
CONTINUOUS
 70
0
 71
3
 72
11
 73
7
 74
5
 42
0.0000001
 43
0.0000001
 44
0.0000000001
 12
0.0480440992
 22
-0.0396093684
 32
0.0
 13
0.062127804
 23
-0.0
 33
0.0
 40
0.0
 40
0.0
 40
0.0
 40
0.0
 40
0.1625193773
 40
0.4285370315
 40
0.7122023886
 40
1.0
 40
1.0
 40
1.0
 40
1.0
 10
6.0411527711
 20
3.8882667841
 30
0.0
 10
6.0437554701
 20
3.8861210208
 30
0.0
 10
6.0510860388
 20
3.8810271129
 30
0.0
 10
6.0646467711
 20
3.8749686955
 30
0.0
 10
6.0815979824
 20
3.8709307187
 30
0.0
 10
6.0934533407
 20
3.8700454793
 30
0.0
 10
6.0994134186
 20
3.8700454793
 30
0.0
 11
6.0411527711
 21
3.8882667841
 31
0.0
 11
6.0494348269
 21
3.8824657025
 31
0.0
 11
6.0644652559
 21
3.8755932214
 31
0.0
 11
6.0815854372
 21
3.871411434
 31
0.0
 11
6.0994134186
 21
3.8700454793
 31
0.0
  0
SPLINE
  5
49B
100
AcDbEntity
  8
0
100
AcDbSpline
 62
7
  6
CONTINUOUS
 70
0
 71
3
 72
13
 73
9
 74
7
 42
0.0000001
 43
0.0000001
 44
0.0000000001
 12
0.0000417955
 22
0.1180857888
 32
0.0
 13
-0.117659976
 23
-0.0
 33
0.0
 40
0.0
 40
0.0
 40
0.0
 40
0.0
 40
0.1514547015
 40
0.3124564649
 40
0.4822910352
 40
0.6561730744
 40
0.829165009
 40
1.0
 40
1.0
 40
1.0
 40
1.0
 10
6.1774134172
 20
3.8908683499
 30
0.0
 10
6.1774155272
 20
3.8968298992
 30
0.0
 10
6.1755189074
 20
3.9091059852
 30
0.0
 10
6.1676145461
 20
3.9265289799
 30
0.0
 10
6.155038409
 20
3.9420833488
 30
0.0
 10
6.1386383898
 20
3.9543510678
 30
0.0
 10
6.1196623639
 20
3.9621535515
 30
0.0
 10
6.1061135656
 20
3.9639344788
 30
0.0
 10
6.0994134186
 20
3.9639344788
 30
0.0
 11
6.1774134172
 21
3.8908683499
 31
0.0
 11
6.1748192922
 21
3.9084986497
 31
0.0
 11
6.1670911303
 21
3.9257940343
 31
0.0
 11
6.1545667542
 21
3.9413648262
 31
0.0
 11
6.1381817748
 21
3.953616412
 31
0.0
 11
6.1193437717
 21
3.9613251207
 31
0.0
 11
6.0994134186
 21
3.9639344788
 31
0.0
  0
SPLINE
  5
49C
100
AcDbEntity
  8
0
100
AcDbSpline
 62
7
  6
CONTINUOUS
 70
0
 71
3
 72
13
 73
9
 74
7
 42
0.0000001
 43
0.0000001
 44
0.0000000001
 12
0.0904916259
 22
0.0
 32
0.0
 13
0.0314652705
 23
0.0852366484
 33
0.0
 40
0.0
 40
0.0
 40
0.0
 40
0.0
 40
0.2001259206
 40
0.3963226393
 40
0.5799168213
 40
0.7497044233
 40
0.9132524785
 40
1.0
 40
1.0
 40
1.0
 40
1.0
 10
6.0994134186
 20
3.8700454793
 30
0.0
 10
6.1054499919
 20
3.8700454793
 30
0.0
 10
6.1174262604
 20
3.8709509457
 30
0.0
 10
6.1345132795
 20
3.8750719926
 30
0.0
 10
6.1497235614
 20
3.8819570983
 30
0.0
 10
6.1622504759
 20
3.891501716
 30
0.0
 10
6.1700605853
 20
3.9016919441
 30
0.0
 10
6.173224239
 20
3.9086032471
 30
0.0
 10
6.1741340837
 20
3.9110679364
 30
0.0
 11
6.0994134186
 21
3.8700454793
 31
0.0
 11
6.1174688117
 21
3.8714471697
 31
0.0
 11
6.1347033541
 21
3.8757110584
 31
0.0
 11
6.1497772731
 21
3.8826962708
 31
0.0
 11
6.1619137891
 21
3.8921179701
 31
0.0
 11
6.1708523676
 21
3.9039134695
 31
0.0
 11
6.1741340837
 21
3.9110679364
 31
0.0
  0
SPLINE
  5
49D
100
AcDbEntity
  8
0
100
AcDbSpline
 62
7
  6
CONTINUOUS
 70
0
 71
3
 72
17
 73
13
 74
11
 42
0.0000001
 43
0.0000001
 44
0.0000000001
 12
-0.062238308
 22
0.1465721043
 32
0.0
 13
-0.0622781012
 23
-0.1465658556
 33
0.0
 40
0.0
 40
0.0
 40
0.0
 40
0.0
 40
0.0717133274
 40
0.1733030419
 40
0.2774783697
 40
0.3869596543
 40
0.4988329602
 40
0.6106376549
 40
0.7201553255
 40
0.8244553529
 40
0.9264860025
 40
1.0
 40
1.0
 40
1.0
 40
1.0
 10
6.9946238198
 20
4.1521975971
 30
0.0
 10
6.9931360477
 20
4.1557013216
 30
0.0
 10
6.9885149096
 20
4.1637333217
 30
0.0
 10
6.9777526917
 20
4.174024242
 30
0.0
 10
6.9629072122
 20
4.1819180571
 30
0.0
 10
6.9462277611
 20
4.1865413758
 30
0.0
 10
6.9286082338
 20
4.1880819411
 30
0.0
 10
6.9109815745
 20
4.1866075466
 30
0.0
 10
6.8942780766
 20
4.1820567455
 30
0.0
 10
6.8793626165
 20
4.1742306541
 30
0.0
 10
6.8684429195
 20
4.1639212123
 30
0.0
 10
6.86373256
 20
4.1557975241
 30
0.0
 10
6.862206456
 20
4.1522059767
 30
0.0
 11
6.9946238198
 21
4.1521975971
 31
0.0
 11
6.988951881
 21
4.1620738832
 31
0.0
 11
6.9774363817
 21
4.1733241054
 31
0.0
 11
6.962946478
 21
4.1812347032
 31
0.0
 11
6.9462610663
 21
4.1859887454
 31
0.0
 11
6.9286037307
 21
4.1875759255
 31
0.0
 11
6.9109512193
 21
4.1860580034
 31
0.0
 11
6.8942389384
 21
4.1813778693
 31
0.0
 11
6.8796879361
 21
4.1735384784
 31
0.0
 11
6.868052948
 21
4.1623110134
 31
0.0
 11
6.862206456
 21
4.1522059767
 31
0.0
  0
SPLINE
  5
49E
100
AcDbEntity
  8
0
100
AcDbSpline
 62
7
  6
CONTINUOUS
 70
0
 71
3
 72
13
 73
9
 74
7
 42
0.0000001
 43
0.0000001
 44
0.0000000001
 12
-0.000041123
 22
0.1090626898
 32
0.0
 13
0.1085168069
 23
-0.0052797946
 33
0.0
 40
0.0
 40
0.0
 40
0.0
 40
0.0
 40
0.1520043281
 40
0.3131014846
 40
0.4824733145
 40
0.6557253937
 40
0.8285422777
 40
1.0
 40
1.0
 40
1.0
 40
1.0
 10
6.8584134191
 20
3.8908683075
 30
0.0
 10
6.8584113355
 20
3.8963943078
 30
0.0
 10
6.8602267037
 20
3.9077559322
 30
0.0
 10
6.8677856683
 20
3.9237483325
 30
0.0
 10
6.879741612
 20
3.9377970129
 30
0.0
 10
6.8952304056
 20
3.9485889017
 30
0.0
 10
6.9130358033
 20
3.9550719624
 30
0.0
 10
6.9256324564
 20
3.9561338397
 30
0.0
 10
6.9318344712
 20
3.9558320858
 30
0.0
 11
6.8584134191
 21
3.8908683075
 31
0.0
 11
6.860902273
 21
3.9071942133
 31
0.0
 11
6.8682896322
 21
3.9230612207
 31
0.0
 11
6.8801781948
 21
3.9371066745
 31
0.0
 11
6.8956212298
 21
3.9478685553
 31
0.0
 11
6.9132720415
 21
3.9542698456
 31
0.0
 11
6.9318344712
 21
3.9558320858
 31
0.0
  0
SPLINE
  5
49F
100
AcDbEntity
  8
0
100
AcDbSpline
 62
7
  6
CONTINUOUS
 70
0
 71
3
 72
12
 73
8
 74
6
 42
0.0000001
 43
0.0000001
 44
0.0000000001
 12
0.0324846825
 22
-0.0763740333
 32
0.0
 13
0.0825745058
 23
0.0027594197
 33
0.0
 40
0.0
 40
0.0
 40
0.0
 40
0.0
 40
0.1442871577
 40
0.3444554414
 40
0.5571870731
 40
0.7774556327
 40
1.0
 40
1.0
 40
1.0
 40
1.0
 10
6.8622113759
 20
3.9107683378
 30
0.0
 10
6.8637737501
 20
3.9070950738
 30
0.0
 10
6.8686231564
 20
3.8987940823
 30
0.0
 10
6.8800623794
 20
3.8881932164
 30
0.0
 10
6.8958137435
 20
3.8802895254
 30
0.0
 10
6.9134555202
 20
3.8759405497
 30
0.0
 10
6.9257089742
 20
3.875262932
 30
0.0
 10
6.9318344712
 20
3.8754676297
 30
0.0
 11
6.8622113759
 21
3.9107683378
 31
0.0
 11
6.8682263827
 21
3.9004473776
 31
0.0
 11
6.8802262528
 21
3.8890671606
 31
0.0
 11
6.8958388904
 21
3.8809948719
 31
0.0
 11
6.91347757
 21
3.8765148714
 31
0.0
 11
6.9318344712
 21
3.8754676297
 31
0.0
  0
SPLINE
  5
4A0
100
AcDbEntity
  8
0
100
AcDbSpline
 62
7
  6
CONTINUOUS
 70
0
 71
3
 72
14
 73
10
 74
8
 42
0.0000001
 43
0.0000001
 44
0.0000000001
 12
-0.0389826728
 22
0.1037557977
 32
0.0
 13
-0.1087834482
 23
-0.0193088369
 33
0.0
 40
0.0
 40
0.0
 40
0.0
 40
0.0
 40
0.1101515006
 40
0.2571924128
 40
0.4093261294
 40
0.5681549927
 40
0.7333745475
 40
0.8985111179
 40
1.0
 40
1.0
 40
1.0
 40
1.0
 10
6.1360476691
 20
4.1521559538
 30
0.0
 10
6.1346163358
 20
4.1559655728
 30
0.0
 10
6.1302203624
 20
4.1644642986
 30
0.0
 10
6.1197682231
 20
4.1756092784
 30
0.0
 10
6.1052493149
 20
4.1844743999
 30
0.0
 10
6.0885898771
 20
4.1902300018
 30
0.0
 10
6.0707342981
 20
4.193046711
 30
0.0
 10
6.0547876421
 20
4.1930692372
 30
0.0
 10
6.0450302238
 20
4.1918568449
 30
0.0
 10
6.0413501203
 20
4.1912036341
 30
0.0
 11
6.1360476691
 21
4.1521559538
 31
0.0
 11
6.1304525815
 21
4.1629709112
 31
0.0
 11
6.1194526981
 21
4.1749017402
 31
0.0
 11
6.1052170542
 21
4.1838037806
 31
0.0
 11
6.0886954997
 21
4.189660055
 31
0.0
 11
6.0706960573
 21
4.1925757155
 31
0.0
 11
6.0524711732
 21
4.1926021434
 31
0.0
 11
6.0413501203
 21
4.1912036341
 31
0.0
  0
SPLINE
  5
4A1
100
AcDbEntity
  8
0
100
AcDbSpline
 62
7
  6
CONTINUOUS
 70
0
 71
3
 72
10
 73
6
 74
4
 42
0.0000001
 43
0.0000001
 44
0.0000000001
 12
-0.0317447841
 22
-0.0056346335
 32
0.0
 13
-0.0276806955
 23
-0.0166129066
 33
0.0
 40
0.0
 40
0.0
 40
0.0
 40
0.0
 40
0.2180349183
 40
0.7630630004
 40
1.0
 40
1.0
 40
1.0
 40
1.0
 10
6.0413501203
 20
4.1912036341
 30
0.0
 10
6.0390429632
 20
4.1907941185
 30
0.0
 10
6.0310152815
 20
4.189097205
 30
0.0
 10
6.0207931713
 20
4.1856083003
 30
0.0
 10
6.0133423842
 20
4.1816671843
 30
0.0
 10
6.0111561905
 20
4.1803551136
 30
0.0
 11
6.0413501203
 21
4.1912036341
 31
0.0
 11
6.0344739404
 21
4.1897455628
 31
0.0
 11
6.0179074026
 21
4.1839441586
 31
0.0
 11
6.0111561905
 21
4.1803551136
 31
0.0
  0
SPLINE
  5
4A2
100
AcDbEntity
  8
0
100
AcDbSpline
 62
7
  6
CONTINUOUS
 70
0
 71
3
 72
10
 73
6
 74
4
 42
0.0000001
 43
0.0000001
 44
0.0000000001
 12
-0.0321208188
 22
-0.0192777006
 32
0.0
 13
-0.0135438042
 23
-0.0350053999
 33
0.0
 40
0.0
 40
0.0
 40
0.0
 40
0.0
 40
0.2448060397
 40
0.6812196125
 40
1.0
 40
1.0
 40
1.0
 40
1.0
 10
6.0111561905
 20
4.1803551136
 30
0.0
 10
6.008535067
 20
4.1787820144
 30
0.0
 10
6.0015269312
 20
4.1739329436
 30
0.0
 10
5.9928292292
 20
4.1647599619
 30
0.0
 10
5.9883969607
 20
4.1563443244
 30
0.0
 10
5.9869577943
 20
4.1526246461
 30
0.0
 11
6.0111561905
 21
4.1803551136
 31
0.0
 11
6.003637992
 21
4.1751160813
 31
0.0
 11
5.992519466
 21
4.1631839136
 31
0.0
 11
5.9869577943
 21
4.1526246461
 31
0.0
  0
SPLINE
  5
4A3
100
AcDbEntity
  8
0
100
AcDbSpline
 62
7
  6
CONTINUOUS
 70
0
 71
3
 72
8
 73
4
 74
2
 42
0.0000001
 43
0.0000001
 44
0.0000000001
 12
-0.0001763063
 22
-0.0004556823
 32
0.0
 13
-0.0001719759
 23
-0.0004573361
 33
0.0
 40
0.0
 40
0.0
 40
0.0
 40
0.0
 40
1.0
 40
1.0
 40
1.0
 40
1.0
 10
5.9869577943
 20
4.1526246461
 30
0.0
 10
5.9868990255
 20
4.152472752
 30
0.0
 10
5.9868409768
 20
4.1523205789
 30
0.0
 10
5.9867836515
 20
4.1521681336
 30
0.0
 11
5.9869577943
 21
4.1526246461
 31
0.0
 11
5.9867836515
 21
4.1521681336
 31
0.0
  0
SPLINE
  5
4A4
100
AcDbEntity
  8
0
100
AcDbSpline
 62
7
  6
CONTINUOUS
 70
0
 71
3
 72
13
 73
9
 74
7
 42
0.0000001
 43
0.0000001
 44
0.0000000001
 12
-0.0741403422
 22
-0.0009310512
 32
0.0
 13
-0.0000000007
 23
0.0000000014
 33
0.0
 40
0.0
 40
0.0
 40
0.0
 40
0.0
 40
0.2503873871
 40
0.4893488931
 40
0.6998756345
 40
0.8632469717
 40
0.9654484387
 40
1.0
 40
1.0
 40
1.0
 40
1.0
 10
6.9318344712
 20
4.3039144266
 30
0.0
 10
6.9256465357
 20
4.3038367188
 30
0.0
 10
6.9135761514
 20
4.3040899586
 30
0.0
 10
6.8961990765
 20
4.3056402309
 30
0.0
 10
6.8816092254
 20
4.3077514123
 30
0.0
 10
6.8690407782
 20
4.3102612962
 30
0.0
 10
6.8636979878
 20
4.3114416343
 30
0.0
 10
6.8584134186
 20
4.3127433076
 30
0.0
 10
6.8584134186
 20
4.3127433076
 30
0.0
 11
6.9318344712
 21
4.3039144266
 31
0.0
 11
6.9132734876
 21
4.3043133582
 31
0.0
 11
6.8956229874
 21
4.3058594405
 31
0.0
 11
6.8801793118
 21
4.3081304193
 31
0.0
 11
6.8682899567
 21
4.3104492059
 31
0.0
 11
6.8609018443
 21
4.3121343152
 31
0.0
 11
6.8584134186
 21
4.3127433076
 31
0.0
  0
SPLINE
  5
4A5
100
AcDbEntity
  8
0
100
AcDbSpline
 62
7
  6
CONTINUOUS
 70
0
 71
3
 72
17
 73
13
 74
11
 42
0.0000001
 43
0.0000001
 44
0.0000000001
 12
-0.0614574299
 22
0.1476190571
 32
0.0
 13
-0.061501605
 23
-0.1476113731
 33
0.0
 40
0.0
 40
0.0
 40
0.0
 40
0.0
 40
0.0734940539
 40
0.1746626243
 40
0.2784060893
 40
0.3874335149
 40
0.4988430457
 40
0.6101842497
 40
0.7192479105
 40
0.823115558
 40
0.9247232356
 40
1.0
 40
1.0
 40
1.0
 40
1.0
 10
5.4327526107
 20
4.1518912949
 30
0.0
 10
5.4312470255
 20
4.1555076692
 30
0.0
 10
5.4265958427
 20
4.1636559329
 30
0.0
 10
5.4157526917
 20
4.174024242
 30
0.0
 10
5.4009072122
 20
4.1819180571
 30
0.0
 10
5.3842277611
 20
4.1865413758
 30
0.0
 10
5.3666082338
 20
4.1880819411
 30
0.0
 10
5.3489815745
 20
4.1866075466
 30
0.0
 10
5.3322780766
 20
4.1820567455
 30
0.0
 10
5.3173626165
 20
4.1742306541
 30
0.0
 10
5.3063619078
 20
4.163844728
 30
0.0
 10
5.3016214425
 20
4.1556051381
 30
0.0
 10
5.3000782285
 20
4.1519012359
 30
0.0
 11
5.4327526107
 21
4.1518912949
 31
0.0
 11
5.426951881
 21
4.1620738832
 31
0.0
 11
5.4154363817
 21
4.1733241054
 31
0.0
 11
5.400946478
 21
4.1812347032
 31
0.0
 11
5.3842610663
 21
4.1859887454
 31
0.0
 11
5.3666037307
 21
4.1875759255
 31
0.0
 11
5.3489512193
 21
4.1860580034
 31
0.0
 11
5.3322389384
 21
4.1813778693
 31
0.0
 11
5.3176879361
 21
4.1735384784
 31
0.0
 11
5.306052948
 21
4.1623110134
 31
0.0
 11
5.3000782285
 21
4.1519012359
 31
0.0
  0
SPLINE
  5
4A6
100
AcDbEntity
  8
0
100
AcDbSpline
 62
7
  6
CONTINUOUS
 70
0
 71
3
 72
17
 73
13
 74
11
 42
0.0000001
 43
0.0000001
 44
0.0000000001
 12
0.0614545518
 22
-0.1476230901
 32
0.0
 13
0.061499223
 23
0.1476155233
 33
0.0
 40
0.0
 40
0.0
 40
0.0
 40
0.0
 40
0.0734608064
 40
0.1747662486
 40
0.278485835
 40
0.3874702215
 40
0.4988145986
 40
0.610088507
 40
0.7191064809
 40
0.8229771727
 40
0.9247167159
 40
1.0
 40
1.0
 40
1.0
 40
1.0
 10
5.3000737603
 20
3.9110965097
 30
0.0
 10
5.3015785939
 20
3.9074816726
 30
0.0
 10
5.3062318624
 20
3.8993280364
 30
0.0
 10
5.317079928
 20
3.8889573624
 30
0.0
 10
5.3319303142
 20
3.8810648495
 30
0.0
 10
5.3486035539
 20
3.8764449705
 30
0.0
 10
5.366213899
 20
3.8749052682
 30
0.0
 10
5.3838313611
 20
3.8763772259
 30
0.0
 10
5.4005302242
 20
3.8809230872
 30
0.0
 10
5.415452458
 20
3.8887466412
 30
0.0
 10
5.4264616458
 20
3.8991358704
 30
0.0
 10
5.4312057743
 20
3.9073822142
 30
0.0
 10
5.4327490621
 20
3.9110865413
 30
0.0
 11
5.3000737603
 21
3.9110965097
 31
0.0
 11
5.3058711506
 21
3.9009178348
 31
0.0
 11
5.3174033106
 21
3.8896531886
 31
0.0
 11
5.3318917306
 21
3.8817473398
 31
0.0
 11
5.3485712808
 21
3.8769968682
 31
0.0
 11
5.366218537
 21
3.8754106983
 31
0.0
 11
5.3838607665
 21
3.8769259761
 31
0.0
 11
5.4005672883
 21
3.8816005802
 31
0.0
 11
5.41512143
 21
3.8894356326
 31
0.0
 11
5.4267738564
 21
3.9006755584
 31
0.0
 11
5.4327490621
 21
3.9110865413
 31
0.0
  0
SPLINE
  5
4A7
100
AcDbEntity
  8
0
100
AcDbSpline
 62
7
  6
CONTINUOUS
 70
0
 71
3
 72
15
 73
11
 74
9
 42
0.0000001
 43
0.0000001
 44
0.0000000001
 12
0.1376657491
 22
0.0677014448
 32
0.0
 13
-0.0000482499
 23
-0.1539376577
 33
0.0
 40
0.0
 40
0.0
 40
0.0
 40
0.0
 40
0.1283478253
 40
0.2553946787
 40
0.38285186
 40
0.5119080479
 40
0.6412867215
 40
0.7674062095
 40
0.8870871233
 40
1.0
 40
1.0
 40
1.0
 40
1.0
 10
6.9318344712
 20
3.9558320858
 30
0.0
 10
6.9377241711
 20
3.9587285302
 30
0.0
 10
6.9502123141
 20
3.9630690138
 30
0.0
 10
6.9699256416
 20
3.9646879918
 30
0.0
 10
6.9894596754
 20
3.9612954562
 30
0.0
 10
7.0076411779
 20
3.9531171642
 30
0.0
 10
7.0232428227
 20
3.9408294433
 30
0.0
 10
7.0351565079
 20
3.9255485868
 30
0.0
 10
7.0426272352
 20
3.9085768259
 30
0.0
 10
7.0444152303
 20
3.8966621556
 30
0.0
 10
7.0444134143
 20
3.8908683076
 30
0.0
 11
6.9318344712
 21
3.9558320858
 31
0.0
 11
6.9504431993
 21
3.9622676765
 31
0.0
 11
6.9698688367
 21
3.9638571163
 31
0.0
 11
6.9891367781
 21
3.9605275615
 31
0.0
 11
7.0072041873
 21
3.9524305472
 31
0.0
 11
7.0227974707
 21
3.9401503233
 31
0.0
 11
7.0346537816
 21
3.9248603257
 31
0.0
 11
7.0419590516
 21
3.9080156818
 31
0.0
 11
7.0444134143
 21
3.8908683076
 31
0.0
  0
SPLINE
  5
4A8
100
AcDbEntity
  8
0
100
AcDbSpline
 62
7
  6
CONTINUOUS
 70
0
 71
3
 72
11
 73
7
 74
5
 42
0.0000001
 43
0.0000001
 44
0.0000000001
 12
0.0670760238
 22
-0.02265641
 32
0.0
 13
0.0670302752
 23
0.0231368848
 33
0.0
 40
0.0
 40
0.0
 40
0.0
 40
0.0
 40
0.2697008229
 40
0.5411380278
 40
0.8123497854
 40
1.0
 40
1.0
 40
1.0
 40
1.0
 10
6.9318344712
 20
3.8754676297
 30
0.0
 10
6.9378646242
 20
3.8734308123
 30
0.0
 10
6.950407694
 20
3.8705942017
 30
0.0
 10
6.9696271058
 20
3.869574381
 30
0.0
 10
6.9868423544
 20
3.8714266497
 30
0.0
 10
6.9973536811
 20
3.8742081702
 30
0.0
 10
7.0015464296
 20
3.8756553841
 30
0.0
 11
6.9318344712
 21
3.8754676297
 31
0.0
 11
6.9504319636
 21
3.8711391652
 31
0.0
 11
6.9696207408
 21
3.8700889175
 31
0.0
 11
6.9887054617
 21
3.8722037221
 31
0.0
 11
7.0015464296
 21
3.8756553841
 31
0.0
  0
SPLINE
  5
4A9
100
AcDbEntity
  8
0
100
AcDbSpline
 62
7
  6
CONTINUOUS
 70
0
 71
3
 72
11
 73
7
 74
5
 42
0.0000001
 43
0.0000001
 44
0.0000000001
 12
0.0515940111
 22
0.0178087393
 32
0.0
 13
0.019263994
 23
0.0512153971
 33
0.0
 40
0.0
 40
0.0
 40
0.0
 40
0.0
 40
0.1044491156
 40
0.4394040944
 40
0.7539928011
 40
1.0
 40
1.0
 40
1.0
 40
1.0
 10
7.0015464296
 20
3.8756553841
 30
0.0
 10
7.0033427459
 20
3.8762754197
 30
0.0
 10
7.0108179002
 20
3.8791229947
 30
0.0
 10
7.0229241631
 20
3.8858293073
 30
0.0
 10
7.0346060475
 20
3.8975156484
 30
0.0
 10
7.0394648546
 20
3.906621422
 30
0.0
 10
7.0410445484
 20
3.9108212075
 30
0.0
 11
7.0015464296
 21
3.8756553841
 31
0.0
 11
7.0068727969
 21
3.8776891245
 31
0.0
 11
7.0227309354
 21
3.8867281293
 31
0.0
 11
7.0347279213
 21
3.8989743971
 31
0.0
 11
7.0410445484
 21
3.9108212075
 31
0.0
  0
SPLINE
  5
4AA
100
AcDbEntity
  8
0
100
AcDbSpline
 62
7
  6
CONTINUOUS
 70
0
 71
3
 72
8
 73
4
 74
2
 42
0.0000001
 43
0.0000001
 44
0.0000000001
 12
0.0034074965
 22
0.000925273
 32
0.0
 13
0.0000000004
 23
-0.0000000199
 33
0.0
 40
0.0
 40
0.0
 40
0.0
 40
0.0
 40
1.0
 40
1.0
 40
1.0
 40
1.0
 10
7.04196899
 20
4.3120752438
 30
0.0
 10
7.0431048222
 20
4.3123836682
 30
0.0
 10
7.0444134094
 20
4.3127433117
 30
0.0
 10
7.0444134095
 20
4.3127433051
 30
0.0
 11
7.04196899
 21
4.3120752438
 31
0.0
 11
7.0444134095
 21
4.3127433051
 31
0.0
  0
SPLINE
  5
4AB
100
AcDbEntity
  8
0
100
AcDbSpline
 62
7
  6
CONTINUOUS
 70
0
 71
3
 72
15
 73
11
 74
9
 42
0.0000001
 43
0.0000001
 44
0.0000000001
 12
0.1127673854
 22
-0.0143137856
 32
0.0
 13
0.000000014
 23
-0.0000008933
 33
0.0
 40
0.0
 40
0.0
 40
0.0
 40
0.0
 40
0.1645226663
 40
0.3354575051
 40
0.5050350776
 40
0.6650224009
 40
0.8043600326
 40
0.9112695578
 40
0.9776147839
 40
1.0
 40
1.0
 40
1.0
 40
1.0
 10
6.9318344712
 20
4.3039144266
 30
0.0
 10
6.9380187349
 20
4.3031294459
 30
0.0
 10
6.9506830578
 20
4.3019445555
 30
0.0
 10
6.9698413433
 20
4.3015032962
 30
0.0
 10
6.9887588265
 20
4.3024137597
 30
0.0
 10
7.0065544338
 20
4.3045205115
 30
0.0
 10
7.0213080467
 20
4.3070973727
 30
0.0
 10
7.0338872481
 20
4.3099813938
 30
0.0
 10
7.0391878411
 20
4.3113071507
 30
0.0
 10
7.0444134094
 20
4.3127433117
 30
0.0
 10
7.0444134095
 20
4.3127433051
 30
0.0
 11
6.9318344712
 21
4.3039144266
 31
0.0
 11
6.9504556823
 21
4.3021817112
 31
0.0
 11
6.9698810427
 21
4.3017331768
 31
0.0
 11
6.9891347854
 21
4.3026645137
 31
0.0
 11
7.0071984267
 21
4.3047715164
 31
0.0
 11
7.022795118
 21
4.3075303676
 31
0.0
 11
7.0346522465
 21
4.3101940434
 31
0.0
 11
7.0419563436
 21
4.31207181
 31
0.0
 11
7.0444134095
 21
4.3127433051
 31
0.0
  0
SPLINE
  5
4AC
100
AcDbEntity
  8
0
100
AcDbSpline
 62
7
  6
CONTINUOUS
 70
0
 71
3
 72
19
 73
15
 74
13
 42
0.0000001
 43
0.0000001
 44
0.0000000001
 12
0.1372644053
 22
0.0341637159
 32
0.0
 13
0.1372644787
 23
-0.0341637198
 33
0.0
 40
0.0
 40
0.0
 40
0.0
 40
0.0
 40
0.0172301253
 40
0.0703560875
 40
0.1546274412
 40
0.2596233284
 40
0.3793570936
 40
0.5065698391
 40
0.6334535783
 40
0.7519404971
 40
0.8547658985
 40
0.9339505985
 40
0.9834415658
 40
1.0
 40
1.0
 40
1.0
 40
1.0
 10
6.8584134186
 20
3.7502433076
 30
0.0
 10
6.8592017796
 20
3.7504395226
 30
0.0
 10
6.8624239066
 20
3.7512287758
 30
0.0
 10
6.8695318019
 20
3.7528546583
 30
0.0
 10
6.8807496139
 20
3.7550569888
 30
0.0
 10
6.895164022
 20
3.757221166
 30
0.0
 10
6.9116965683
 20
3.7587665702
 30
0.0
 10
6.9293281115
 20
3.7592903253
 30
0.0
 10
6.9468968351
 20
3.758649913
 30
0.0
 10
6.9632433646
 20
3.7570201615
 30
0.0
 10
6.9772499367
 20
3.7548445319
 30
0.0
 10
6.9879566543
 20
3.7527076256
 30
0.0
 10
6.994631008
 20
3.7511732519
 30
0.0
 10
6.9976557903
 20
3.7504318735
 30
0.0
 10
6.9984134186
 20
3.7502433076
 30
0.0
 11
6.8584134186
 21
3.7502433076
 31
0.0
 11
6.8607806893
 21
3.75082313
 31
0.0
 11
6.8681065135
 21
3.7524978143
 31
0.0
 11
6.8798043412
 21
3.7547905701
 31
0.0
 11
6.8944925511
 21
3.756989778
 31
0.0
 11
6.9113562388
 21
3.7585601475
 31
0.0
 11
6.9293429431
 21
3.7590920842
 31
0.0
 11
6.9472791648
 21
3.7584411535
 31
0.0
 11
6.9639573654
 21
3.7567844897
 31
0.0
 11
6.9783308187
 21
3.7545577387
 31
0.0
 11
6.9893156719
 21
3.7523685202
 31
0.0
 11
6.9961385138
 21
3.7508008584
 31
0.0
 11
6.9984134186
 21
3.7502433076
 31
0.0
  0
SPLINE
  5
4AD
100
AcDbEntity
  8
0
100
AcDbSpline
 62
7
  6
CONTINUOUS
 70
0
 71
3
 72
20
 73
16
 74
14
 42
0.0000001
 43
0.0000001
 44
0.0000000001
 12
-0.152273051
 22
-0.0422304946
 32
0.0
 13
-0.1522731514
 23
0.0422304977
 33
0.0
 40
0.0
 40
0.0
 40
0.0
 40
0.0
 40
0.015256523
 40
0.0610706586
 40
0.1340052416
 40
0.2300212619
 40
0.3417804057
 40
0.4620818084
 40
0.5793805254
 40
0.6905466051
 40
0.7907152487
 40
0.8774812309
 40
0.9440994082
 40
0.986092832
 40
1.0
 40
1.0
 40
1.0
 40
1.0
 10
6.1774134186
 20
4.3127433076
 30
0.0
 10
6.1766390328
 20
4.3125285441
 30
0.0
 10
6.1735361643
 20
4.3116798341
 30
0.0
 10
6.1667011444
 20
4.309915312
 30
0.0
 10
6.1556681311
 20
4.3074052356
 30
0.0
 10
6.1411154626
 20
4.3047529026
 30
0.0
 10
6.1239552982
 20
4.3026194698
 30
0.0
 10
6.1055684059
 20
4.3015631862
 30
0.0
 10
6.0871844638
 20
4.3017869811
 30
0.0
 10
6.0699158793
 20
4.3031488989
 30
0.0
 10
6.0543559972
 20
4.3053159083
 30
0.0
 10
6.0412329947
 20
4.307822171
 30
0.0
 10
6.0312058245
 20
4.3101468995
 30
0.0
 10
6.0249592554
 20
4.3117697898
 30
0.0
 10
6.0221193147
 20
4.3125475387
 30
0.0
 10
6.0214134186
 20
4.3127433076
 30
0.0
 11
6.1774134186
 21
4.3127433076
 31
0.0
 11
6.175087977
 21
4.3121072796
 31
0.0
 11
6.1680779538
 21
4.3102985817
 31
0.0
 11
6.1568390902
 21
4.3077454936
 31
0.0
 11
6.1419110823
 21
4.3050323613
 31
0.0
 11
6.1243846138
 21
4.3028622872
 31
0.0
 11
6.1054054375
 21
4.3017773559
 31
0.0
 11
6.0868711241
 21
4.3020018503
 31
0.0
 11
6.0693584623
 21
4.303377222
 31
0.0
 11
6.0536800522
 21
4.3055537084
 31
0.0
 11
6.0402115399
 21
4.3081201771
 31
0.0
 11
6.02995582
 21
4.3104949572
 31
0.0
 11
6.0235330047
 21
4.3121628637
 31
0.0
 11
6.0214134186
 21
4.3127433076
 31
0.0
  0
SPLINE
  5
4AE
100
AcDbEntity
  8
0
100
AcDbSpline
 62
7
  6
CONTINUOUS
 70
0
 71
3
 72
13
 73
9
 74
7
 42
0.0000001
 43
0.0000001
 44
0.0000000001
 12
-0.1030638374
 22
-0.0037202137
 32
0.0
 13
-0.0000390358
 23
0.1035272844
 33
0.0
 40
0.0
 40
0.0
 40
0.0
 40
0.0
 40
0.1803967182
 40
0.3579059392
 40
0.5287812488
 40
0.6906964893
 40
0.8457417288
 40
1.0
 40
1.0
 40
1.0
 40
1.0
 10
6.9318344712
 20
3.8347334103
 30
0.0
 10
6.9256370119
 20
3.8345097056
 30
0.0
 10
6.913263155
 20
3.8352661995
 30
0.0
 10
6.8955813166
 20
3.8400200428
 30
0.0
 10
6.8799627669
 20
3.8484120153
 30
0.0
 10
6.8677311769
 20
3.8602507182
 30
0.0
 10
6.8600631973
 20
3.874852309
 30
0.0
 10
6.8584154263
 20
3.8855449942
 30
0.0
 10
6.8584134191
 20
3.8908683075
 30
0.0
 11
6.9318344712
 21
3.8347334103
 31
0.0
 11
6.9132664429
 21
3.8358975578
 31
0.0
 11
6.8956156468
 21
3.8407539473
 31
0.0
 11
6.8801740229
 21
3.8492457063
 31
0.0
 11
6.8682868356
 21
3.8609731872
 31
0.0
 11
6.860901058
 21
3.8751551914
 31
0.0
 11
6.8584134191
 21
3.8908683075
 31
0.0
  0
SPLINE
  5
4AF
100
AcDbEntity
  8
0
100
AcDbSpline
 62
7
  6
CONTINUOUS
 70
0
 71
3
 72
19
 73
15
 74
13
 42
0.0000001
 43
0.0000001
 44
0.0000000001
 12
0.0
 22
0.1994707165
 32
0.0
 13
0.0
 23
-0.1994707165
 33
0.0
 40
0.0
 40
0.0
 40
0.0
 40
0.0
 40
0.0766442255
 40
0.1537707905
 40
0.2332568638
 40
0.3168888579
 40
0.4044316747
 40
0.4983335002
 40
0.593551227
 40
0.6829667287
 40
0.7668347268
 40
0.8462938856
 40
0.9233995369
 40
1.0
 40
1.0
 40
1.0
 40
1.0
 10
6.8584134186
 20
4.1721183076
 30
0.0
 10
6.8584134186
 20
4.1772144005
 30
0.0
 10
6.8599353297
 20
4.1875174629
 30
0.0
 10
6.8669946437
 20
4.2016086858
 30
0.0
 10
6.8782826674
 20
4.2132291788
 30
0.0
 10
6.8928007788
 20
4.2217545217
 30
0.0
 10
6.9097424596
 20
4.227065552
 30
0.0
 10
6.9281646468
 20
4.2289359918
 30
0.0
 10
6.9467249546
 20
4.2271583255
 30
0.0
 10
6.9639059759
 20
4.2218250122
 30
0.0
 10
6.9785463382
 20
4.2132301344
 30
0.0
 10
6.9898397792
 20
4.2015973057
 30
0.0
 10
6.9968930719
 20
4.187510112
 30
0.0
 10
6.9984134186
 20
4.1772114907
 30
0.0
 10
6.9984134186
 20
4.1721183076
 30
0.0
 11
6.8584134186
 21
4.1721183076
 31
0.0
 11
6.8607086084
 21
4.1872333189
 31
0.0
 11
6.867558353
 21
4.2010087886
 31
0.0
 11
6.8785113666
 21
4.2124725177
 31
0.0
 11
6.8928191465
 21
4.2210504558
 31
0.0
 11
6.9094490194
 21
4.2263774387
 31
0.0
 11
6.9280792715
 21
4.2283143164
 31
0.0
 11
6.9469816157
 21
4.2264593063
 31
0.0
 11
6.9639812282
 21
4.2210622687
 31
0.0
 11
6.9783299512
 21
4.2124610707
 31
0.0
 11
6.9892760175
 21
4.20099813
 31
0.0
 11
6.99612088
 21
4.187224892
 31
0.0
 11
6.9984134186
 21
4.1721183076
 31
0.0
  0
SPLINE
  5
4B0
100
AcDbEntity
  8
0
100
AcDbSpline
 62
7
  6
CONTINUOUS
 70
0
 71
3
 72
19
 73
15
 74
13
 42
0.0000001
 43
0.0000001
 44
0.0000000001
 12
0.0
 22
0.1994415091
 32
0.0
 13
0.0
 23
-0.1994415091
 33
0.0
 40
0.0
 40
0.0
 40
0.0
 40
0.0
 40
0.0775636046
 40
0.1557055308
 40
0.2363371531
 40
0.3211914594
 40
0.4099159307
 40
0.5001155438
 40
0.5900855004
 40
0.6787587166
 40
0.7636638646
 40
0.844345347
 40
0.9225047509
 40
1.0
 40
1.0
 40
1.0
 40
1.0
 10
5.2964134186
 20
4.1714933076
 30
0.0
 10
5.2964134186
 20
4.176649775
 30
0.0
 10
5.2979734479
 20
4.1870831382
 30
0.0
 10
5.3052145816
 20
4.2013207096
 30
0.0
 10
5.3167757159
 20
4.2129957158
 30
0.0
 10
5.3315960457
 20
4.2214726762
 30
0.0
 10
5.3485163584
 20
4.2265531325
 30
0.0
 10
5.3664214599
 20
4.2282330592
 30
0.0
 10
5.3843220387
 20
4.2265489895
 30
0.0
 10
5.4012277238
 20
4.2214738958
 30
0.0
 10
5.4160517767
 20
4.2129963831
 30
0.0
 10
5.4276177475
 20
4.201314483
 30
0.0
 10
5.4348553866
 20
4.1870749948
 30
0.0
 10
5.4364134186
 20
4.1766452307
 30
0.0
 10
5.4364134186
 20
4.1714933076
 30
0.0
 11
5.2964134186
 21
4.1714933076
 31
0.0
 11
5.2987643603
 21
4.1867830258
 31
0.0
 11
5.305784979
 21
4.2006968732
 31
0.0
 11
5.317001416
 21
4.21222074
 31
0.0
 11
5.3316129359
 21
4.2207593202
 31
0.0
 11
5.3485291737
 21
4.2259522042
 31
0.0
 11
5.3664365659
 21
4.2276695002
 31
0.0
 11
5.3842979391
 21
4.2259521502
 31
0.0
 11
5.4012047193
 21
4.2207632912
 31
0.0
 11
5.4158255878
 21
4.2122206113
 31
0.0
 11
5.4270478484
 21
4.2006885359
 31
0.0
 11
5.4340666682
 21
4.186769877
 31
0.0
 11
5.4364134186
 21
4.1714933076
 31
0.0
  0
SPLINE
  5
4B1
100
AcDbEntity
  8
0
100
AcDbSpline
 62
7
  6
CONTINUOUS
 70
0
 71
3
 72
19
 73
15
 74
13
 42
0.0000001
 43
0.0000001
 44
0.0000000001
 12
0.0
 22
-0.1994466539
 32
0.0
 13
0.0
 23
0.1994466539
 33
0.0
 40
0.0
 40
0.0
 40
0.0
 40
0.0
 40
0.0766491102
 40
0.1537779096
 40
0.2332653871
 40
0.3169002462
 40
0.4044378312
 40
0.4983170128
 40
0.5935315504
 40
0.6829553826
 40
0.7668286162
 40
0.8462886432
 40
0.9233954251
 40
1.0
 40
1.0
 40
1.0
 40
1.0
 10
5.4364134186
 20
3.8914933076
 30
0.0
 10
5.4364134186
 20
3.8863975047
 30
0.0
 10
5.4348917114
 20
3.8760951222
 30
0.0
 10
5.4278311683
 20
3.8620056769
 30
0.0
 10
5.4165406578
 20
3.8503894251
 30
0.0
 10
5.4020213089
 20
3.8418703504
 30
0.0
 10
5.3850819539
 20
3.8365652432
 30
0.0
 10
5.3666641866
 20
3.8346968938
 30
0.0
 10
5.3481072972
 20
3.83647175
 30
0.0
 10
5.3309262476
 20
3.8417995024
 30
0.0
 10
5.3162837624
 20
3.850388635
 30
0.0
 10
5.3049878925
 20
3.8620173463
 30
0.0
 10
5.2979335271
 20
3.8761026512
 30
0.0
 10
5.2964134186
 20
3.8864004656
 30
0.0
 10
5.2964134186
 20
3.8914933076
 30
0.0
 11
5.4364134186
 21
3.8914933076
 31
0.0
 11
5.4341181153
 21
3.8763791936
 31
0.0
 11
5.4272672349
 21
3.8626058636
 31
0.0
 11
5.4163122128
 21
3.8511463123
 31
0.0
 11
5.4020027951
 21
3.8425739102
 31
0.0
 11
5.3853745031
 21
3.8372523201
 31
0.0
 11
5.3667508274
 21
3.8353177115
 31
0.0
 11
5.3478511574
 21
3.8371699979
 31
0.0
 11
5.3308504964
 21
3.8425621113
 31
0.0
 11
5.3164997603
 21
3.8511580548
 31
0.0
 11
5.305551849
 21
3.8626168288
 31
0.0
 11
5.2987060238
 21
3.8763877681
 31
0.0
 11
5.2964134186
 21
3.8914933076
 31
0.0
  0
SPLINE
  5
4B2
100
AcDbEntity
  8
0
100
AcDbSpline
 62
7
  6
CONTINUOUS
 70
0
 71
3
 72
13
 73
9
 74
7
 42
0.0000001
 43
0.0000001
 44
0.0000000001
 12
0.1107878065
 22
0.0
 32
0.0
 13
0.0000393544
 23
0.1111887488
 33
0.0
 40
0.0
 40
0.0
 40
0.0
 40
0.0
 40
0.1807691884
 40
0.3583118823
 40
0.5290189307
 40
0.6906309281
 40
0.8455170005
 40
1.0
 40
1.0
 40
1.0
 40
1.0
 10
6.0994134186
 20
3.8288345158
 30
0.0
 10
6.1060890926
 20
3.8288345158
 30
0.0
 10
6.119356498
 20
3.8300530935
 30
0.0
 10
6.1382273322
 20
3.835607873
 30
0.0
 10
6.1548040057
 20
3.8449468027
 30
0.0
 10
6.1676940663
 20
3.8578774206
 30
0.0
 10
6.1757052732
 20
3.8736562658
 30
0.0
 10
6.1774113906
 20
3.8851427594
 30
0.0
 10
6.1774134172
 20
3.8908683499
 30
0.0
 11
6.0994134186
 21
3.8288345158
 31
0.0
 11
6.1193522877
 21
3.8307115088
 31
0.0
 11
6.1381852104
 21
3.836387144
 31
0.0
 11
6.1545687499
 21
3.8458345346
 31
0.0
 11
6.1670923739
 21
3.8586304296
 31
0.0
 11
6.1748207783
 21
3.8739509975
 31
0.0
 11
6.1774134172
 21
3.8908683499
 31
0.0
  0
SPLINE
  5
4B3
100
AcDbEntity
  8
0
100
AcDbSpline
 62
7
  6
CONTINUOUS
 70
0
 71
3
 72
12
 73
8
 74
6
 42
0.0000001
 43
0.0000001
 44
0.0000000001
 12
-0.0000242726
 22
-0.0774400834
 32
0.0
 13
-0.0730822132
 23
-0.0252161019
 33
0.0
 40
0.0
 40
0.0
 40
0.0
 40
0.0
 40
0.2154997616
 40
0.4312868104
 40
0.6556940626
 40
0.8924241681
 40
1.0
 40
1.0
 40
1.0
 40
1.0
 10
7.0444134143
 20
3.8908683076
 30
0.0
 10
7.0444116707
 20
3.8853055345
 30
0.0
 10
7.0428036666
 20
3.8741545218
 30
0.0
 10
7.0352582207
 20
3.8587589797
 30
0.0
 10
7.0230675499
 20
3.8459799235
 30
0.0
 10
7.0103835172
 20
3.8383930251
 30
0.0
 10
7.0021307018
 20
3.8351103855
 30
0.0
 10
6.9995100752
 20
3.8342061711
 30
0.0
 11
7.0444134143
 21
3.8908683076
 31
0.0
 11
7.0419670899
 21
3.8744177335
 31
0.0
 11
7.0346697023
 21
3.8594481457
 31
0.0
 11
7.0228205297
 21
3.846817296
 31
0.0
 11
7.0072317542
 21
3.8372895957
 31
0.0
 11
6.9995100752
 21
3.8342061711
 31
0.0
  0
SPLINE
  5
4B4
100
AcDbEntity
  8
0
100
AcDbSpline
 62
7
  6
CONTINUOUS
 70
0
 71
3
 72
11
 73
7
 74
5
 42
0.0000001
 43
0.0000001
 44
0.0000000001
 12
-0.06518076
 22
-0.0224898045
 32
0.0
 13
-0.0646624176
 23
0.023592042
 33
0.0
 40
0.0
 40
0.0
 40
0.0
 40
0.0
 40
0.1559131649
 40
0.438003671
 40
0.7208520729
 40
1.0
 40
1.0
 40
1.0
 40
1.0
 10
6.9995100752
 20
3.8342061711
 30
0.0
 10
6.9961225623
 20
3.8330373522
 30
0.0
 10
6.9864084925
 20
3.8303237725
 30
0.0
 10
6.9698981349
 20
3.8283102303
 30
0.0
 10
6.9504671057
 20
3.8294186236
 30
0.0
 10
6.9378512645
 20
3.8325381871
 30
0.0
 10
6.9318344712
 20
3.8347334103
 30
0.0
 11
6.9995100752
 21
3.8342061711
 31
0.0
 11
6.9891665741
 21
3.8312942953
 31
0.0
 11
6.9698991219
 21
3.8288907597
 31
0.0
 11
6.9504633354
 21
3.8300267472
 31
0.0
 11
6.9318344712
 21
3.8347334103
 31
0.0
  0
SPLINE
  5
4B5
100
AcDbEntity
  8
0
100
AcDbSpline
 62
7
  6
CONTINUOUS
 70
0
 71
3
 72
13
 73
9
 74
7
 42
0.0000001
 43
0.0000001
 44
0.0000000001
 12
0.0
 22
0.0911612355
 32
0.0
 13
0.0897094869
 23
0.0169174945
 33
0.0
 40
0.0
 40
0.0
 40
0.0
 40
0.0
 40
0.1719236938
 40
0.3439377775
 40
0.5204192321
 40
0.7061434765
 40
0.8998689967
 40
1.0
 40
1.0
 40
1.0
 40
1.0
 10
5.9834134186
 20
4.1721183076
 30
0.0
 10
5.9834134186
 20
4.1773425664
 30
0.0
 10
5.9848391207
 20
4.1878627781
 30
0.0
 10
5.9914993776
 20
4.2024505007
 30
0.0
 10
6.002308643
 20
4.214841622
 30
0.0
 10
6.0164488993
 20
4.2243801729
 30
0.0
 10
6.0301145779
 20
4.229722012
 30
0.0
 10
6.0388259351
 20
4.2317771844
 30
0.0
 10
6.0418201688
 20
4.2323418396
 30
0.0
 11
5.9834134186
 21
4.1721183076
 31
0.0
 11
5.9855823471
 21
4.1876402813
 31
0.0
 11
5.992073544
 21
4.2019146863
 31
0.0
 11
6.0025689003
 21
4.2141081208
 31
0.0
 11
6.0165235318
 21
4.2236957167
 31
0.0
 11
6.0329284145
 21
4.2302351759
 31
0.0
 11
6.0418201688
 21
4.2323418396
 31
0.0
  0
SPLINE
  5
4B6
100
AcDbEntity
  8
0
100
AcDbSpline
 62
7
  6
CONTINUOUS
 70
0
 71
3
 72
15
 73
11
 74
9
 42
0.0000001
 43
0.0000001
 44
0.0000000001
 12
0.1284355498
 22
0.0242204897
 32
0.0
 13
0.0
 23
-0.1305139936
 33
0.0
 40
0.0
 40
0.0
 40
0.0
 40
0.0
 40
0.0752126761
 40
0.2255475021
 40
0.370949592
 40
0.5061575386
 40
0.6360351887
 40
0.759023551
 40
0.879736193
 40
1.0
 40
1.0
 40
1.0
 40
1.0
 10
6.0418201688
 20
4.2323418396
 30
0.0
 10
6.0450401626
 20
4.2329490689
 30
0.0
 10
6.0547859406
 20
4.2342996174
 30
0.0
 10
6.0710106713
 20
4.2343070094
 30
0.0
 10
6.0895639947
 20
4.2309441905
 30
0.0
 10
6.1063152045
 20
4.2244125521
 30
0.0
 10
6.1204569204
 20
4.2148937856
 30
0.0
 10
6.1312945413
 20
4.2025040073
 30
0.0
 10
6.1379812333
 20
4.1879032325
 30
0.0
 10
6.1394134186
 20
4.1773503442
 30
0.0
 10
6.1394134186
 20
4.1721183076
 30
0.0
 11
6.0418201688
 21
4.2323418396
 31
0.0
 11
6.0515532221
 21
4.2337001143
 31
0.0
 11
6.0711740185
 21
4.2337092428
 31
0.0
 11
6.0898337672
 21
4.2302537273
 31
0.0
 11
6.1062315404
 21
4.2237335261
 31
0.0
 11
6.1202122973
 21
4.2141486537
 31
0.0
 11
6.1307002476
 21
4.2019971086
 31
0.0
 11
6.1372379405
 21
4.1876629258
 31
0.0
 11
6.1394134186
 21
4.1721183076
 31
0.0
  0
SPLINE
  5
4B7
100
AcDbEntity
  8
0
100
AcDbSpline
 62
7
  6
CONTINUOUS
 70
0
 71
3
 72
13
 73
9
 74
7
 42
0.0000001
 43
0.0000001
 44
0.0000000001
 12
0.0000392918
 22
-0.1111884905
 32
0.0
 13
0.1107877706
 23
0.0
 33
0.0
 40
0.0
 40
0.0
 40
0.0
 40
0.0
 40
0.154529373
 40
0.3093914626
 40
0.4710072943
 40
0.6417260934
 40
0.8193077174
 40
1.0
 40
1.0
 40
1.0
 40
1.0
 10
6.0214134171
 20
3.8908682643
 30
0.0
 10
6.0214154411
 20
3.8851409684
 30
0.0
 10
6.0231222584
 20
3.8736536531
 30
0.0
 10
6.031134989
 20
3.8578746026
 30
0.0
 10
6.0440254086
 20
3.8449447864
 30
0.0
 10
6.0606043014
 20
3.8356056592
 30
0.0
 10
6.0794746454
 20
3.8300524499
 30
0.0
 10
6.0927405869
 20
3.8288345158
 30
0.0
 10
6.0994134186
 20
3.8288345158
 30
0.0
 11
6.0214134171
 21
3.8908682643
 31
0.0
 11
6.0240076417
 21
3.8739460282
 31
0.0
 11
6.0317359336
 21
3.8586283858
 31
0.0
 11
6.0442604195
 21
3.8458327481
 31
0.0
 11
6.0606455285
 21
3.8363854855
 31
0.0
 11
6.0794829617
 21
3.8307098924
 31
0.0
 11
6.0994134186
 21
3.8288345158
 31
0.0
  0
ENDSEC
  0
SECTION
  2
OBJECTS
  0
DICTIONARY
  5
C
100
AcDbDictionary
280
0
281
1
  3
ACAD_GROUP
350
D
  3
ACAD_MLINESTYLE
350
17
  3
ACAD_LAYOUT
350
1A
  3
ACAD_PLOTSETTINGS
350
19
  3
ACAD_PLOTSTYLENAME
350
E
  0
DICTIONARY
  5
D
102
{ACAD_REACTORS
330
C
102
}
100
AcDbDictionary
280
0
281
1
  0
ACDBDICTIONARYWDFLT
  5
E
102
{ACAD_REACTORS
330
C
102
}
100
AcDbDictionary
281
1
  3
Normal
350
F
100
AcDbDictionaryWithDefault
340
F
  0
DICTIONARY
  5
17
102
{ACAD_REACTORS
330
C
102
}
100
AcDbDictionary
280
0
281
1
  3
Standard
350
18
  0
DICTIONARY
  5
19
102
{ACAD_REACTORS
330
C
102
}
100
AcDbDictionary
281
1
  0
DICTIONARY
  5
1A
102
{ACAD_REACTORS
330
C
102
}
100
AcDbDictionary
281
1
  3
Layout1
350
1E
  3
Model
350
22
  0
ACDBPLACEHOLDER
  5
F
102
{ACAD_REACTORS
330
E
102
}
  0
MLINESTYLE
  5
18
102
{ACAD_REACTORS
330
17
102
}
100
AcDbMlineStyle
  2
STANDARD
 70
0
  3

 62
256
 51
90.0
 52
90.0
 71
2
 49
0.5
 62
256
  6
BYLAYER
 49
-0.5
 62
256
  6
BYLAYER
  0
LAYOUT
  5
1E
102
{ACAD_REACTORS
330
1A
102
}
100
AcDbPlotSettings
  1

  2

  4

  6

 40
0.0
 41
0.0
 42
0.0
 43
0.0
 44
0.0
 45
0.0
 46
0.0
 47
0.0
 48
0.0
 49
0.0
140
0.0
141
0.0
142
1.0
143
1.0
 70
0
 72
0
 73
0
 74
0
  7

 75
0
147
1.0
148
0.0
149
0.0
100
AcDbLayout
  1
Layout1
 70
0
 71
0
 10
0.0
 20
0.0
 11
0.0
 21
0.0
 12
0.0
 22
0.0
 32
0.0
 14
0.0
 24
0.0
 34
0.0
 15
0.0
 25
0.0
 35
0.0
146
0.0
 13
0.0
 23
0.0
 33
0.0
 16
0.0
 26
0.0
 36
0.0
 17
0.0
 27
0.0
 37
0.0
 76
0
330
1B
331
0
345
0
346
0
  0
LAYOUT
  5
22
102
{ACAD_REACTORS
330
1A
102
}
100
AcDbPlotSettings
  1

  2

  4

  6

 40
0.0
 41
0.0
 42
0.0
 43
0.0
 44
0.0
 45
0.0
 46
0.0
 47
0.0
 48
0.0
 49
0.0
140
0.0
141
0.0
142
1.0
143
1.0
 70
0
 72
0
 73
0
 74
0
  7

 75
0
147
1.0
148
0.0
149
0.0
100
AcDbLayout
  1
Model
 70
0
 71
0
 10
0.0
 20
0.0
 11
0.0
 21
0.0
 12
0.0
 22
0.0
 32
0.0
 14
0.0
 24
0.0
 34
0.0
 15
0.0
 25
0.0
 35
0.0
146
0.0
 13
0.0
 23
0.0
 33
0.0
 16
0.0
 26
0.0
 36
0.0
 17
0.0
 27
0.0
 37
0.0
 76
0
330
1F
331
0
345
0
346
0
  0
ENDSEC
  0
EOF
