999
DXF file: FXDA-XAN.dxf
999
Pro/ENGINEER 2006240 by Parametric Technology Corporation
  0
SECTION
  2
HEADER
  9
$ACADVER
  1
AC1015
  9
$DWGCODEPAGE
  3
ANSI_1252
  9
$EXTMAX
 10
11.6929133858
 20
8.2677165354
 30
0.0
  9
$EXTMIN
 10
0.0
 20
0.0
 30
0.0
  9
$LIMMIN
 10
0.0
 20
0.0
  9
$LIMMAX
 10
11.6929133858
 20
8.2677165354
  9
$VIEWCTR
 10
5.8464566929
 20
4.1338582677
  9
$VIEWSIZE
 40
8.2677165354
  9
$CLAYER
  8
0
  9
$LTSCALE
 40
0.6431102362
  9
$CELTYPE
  6
BYLAYER
  9
$DIMSCALE
 40
1.0
  9
$DIMASZ
 40
0.1875
  9
$DIMEXO
 40
0.0730807087
  9
$DIMDLI
 40
0.4443307087
  9
$DIMEXE
 40
0.2104724409
  9
$DIMCEN
 40
0.1052362205
  9
$DIMLFAC
 40
1.0
  9
$DIMBLK
  1
_CLOSED
  9
$DIMTXT
 40
0.15625
  9
$DIMTOL
 70
0
  9
$DIMLIM
 70
0
  9
$DIMTFAC
 40
1.0
  9
$PDMODE
 70
3
  9
$PDSIZE
 40
0.3125
  9
$HANDSEED
  5
471
  9
$MEASUREMENT
 70
0
  9
$INSUNITS
 70
1
  0
ENDSEC
  0
SECTION
  2
CLASSES
  0
CLASS
  1
ACDBDICTIONARYWDFLT
  2
AcDbDictionaryWithDefault
  3
AutoCAD 2000
 90
0
280
0
281
0
  0
CLASS
  1
ACDBPLACEHOLDER
  2
AcDbPlaceHolder
  3
AutoCAD 2000
 90
0
280
0
281
0
  0
CLASS
  1
LAYOUT
  2
AcDbLayout
  3
AutoCAD 2000
 90
0
280
0
281
0
  0
ENDSEC
  0
SECTION
  2
TABLES
  0
TABLE
  2
VPORT
  5
8
100
AcDbSymbolTable
 70
2
  0
VPORT
  5
1F4
100
AcDbSymbolTableRecord
100
AcDbViewportTableRecord
  2
*ACTIVE
 70
0
 10
0.0
 20
0.0
 11
1.0
 21
1.0
 12
5.8464566929
 22
4.1338582677
 13
0.0
 23
0.0
 14
1.0
 24
1.0
 15
0.0
 25
0.0
 16
0.0
 26
0.0
 36
1.0
 17
0.0
 27
0.0
 37
0.0
 40
8.2677165354
 41
1.4142857143
 42
50.0
 43
0.0
 44
0.0
 50
0.0
 51
0.0
 71
0
 72
100
 73
1
 74
1
 75
0
 76
0
 77
0
 78
0
  0
ENDTAB
  0
TABLE
  2
LTYPE
  5
5
100
AcDbSymbolTable
 70
6
  0
LTYPE
  5
14
100
AcDbSymbolTableRecord
100
AcDbLinetypeTableRecord
  2
BYBLOCK
 70
0
  3

 72
65
 73
0
 40
0.0
  0
LTYPE
  5
15
100
AcDbSymbolTableRecord
100
AcDbLinetypeTableRecord
  2
BYLAYER
 70
0
  3

 72
65
 73
0
 40
0.0
  0
LTYPE
  5
16
100
AcDbSymbolTableRecord
100
AcDbLinetypeTableRecord
  2
CONTINUOUS
 70
64
  3
Solid line
 72
65
 73
0
 40
0.0
  0
LTYPE
  5
1F5
100
AcDbSymbolTableRecord
100
AcDbLinetypeTableRecord
  2
CENTER
 70
64
  3
____ _ ____ _ ____ _ ____ _ ____ _ ____ _ ____
 72
65
 73
4
 40
0.6
 49
0.375
 74
0
 49
-0.075
 74
0
 49
0.075
 74
0
 49
-0.075
 74
0
  0
LTYPE
  5
1F6
100
AcDbSymbolTableRecord
100
AcDbLinetypeTableRecord
  2
HIDDEN
 70
64
  3
- - - - - - - - - - - - - - - - - - - -
 72
65
 73
2
 40
0.2
 49
0.1
 74
0
 49
-0.1
 74
0
  0
LTYPE
  5
1F7
100
AcDbSymbolTableRecord
100
AcDbLinetypeTableRecord
  2
PHANTOM
 70
64
  3
_____ _ _ _____ _ _ _____ _ _ _____
 72
65
 73
6
 40
0.8
 49
0.45
 74
0
 49
-0.05
 74
0
 49
0.1
 74
0
 49
-0.05
 74
0
 49
0.1
 74
0
 49
-0.05
 74
0
  0
LTYPE
  5
1F8
100
AcDbSymbolTableRecord
100
AcDbLinetypeTableRecord
  2
DOT
 70
64
  3
. . . . . . . . . . . . . . . . . . . .
 72
65
 73
2
 40
0.2
 49
0.1
 74
0
 49
-0.1
 74
0
  0
LTYPE
  5
1F9
100
AcDbSymbolTableRecord
100
AcDbLinetypeTableRecord
  2
DASHED
 70
64
  3
- - - - - - - - - - - - - - - - - - - -
 72
65
 73
2
 40
0.2
 49
0.1
 74
0
 49
-0.1
 74
0
  0
ENDTAB
  0
TABLE
  2
LAYER
  5
2
100
AcDbSymbolTable
 70
36
  0
LAYER
  5
10
100
AcDbSymbolTableRecord
100
AcDbLayerTableRecord
  2
0
 70
0
 62
7
  6
CONTINUOUS
370
-3
390
F
  0
LAYER
  5
1FA
100
AcDbSymbolTableRecord
100
AcDbLayerTableRecord
  2
DEFAULT_1
 70
0
 62
7
  6
CENTER
370
-3
390
F
  0
LAYER
  5
1FB
100
AcDbSymbolTableRecord
100
AcDbLayerTableRecord
  2
DEFAULT_2
 70
0
 62
8
  6
HIDDEN
370
-3
390
F
  0
LAYER
  5
1FC
100
AcDbSymbolTableRecord
100
AcDbLayerTableRecord
  2
DEFAULT_3
 70
0
 62
7
  6
PHANTOM
370
-3
390
F
  0
LAYER
  5
1FD
100
AcDbSymbolTableRecord
100
AcDbLayerTableRecord
  2
_BLACK_HOLE
 70
0
 62
7
  6
CONTINUOUS
370
-3
390
F
  0
LAYER
  5
1FE
100
AcDbSymbolTableRecord
100
AcDbLayerTableRecord
  2
01_ALL_DTM_PLN
 70
0
 62
7
  6
CONTINUOUS
370
-3
390
F
  0
LAYER
  5
1FF
100
AcDbSymbolTableRecord
100
AcDbLayerTableRecord
  2
01__ASM_ALL_DTM_PLN
 70
0
 62
7
  6
CONTINUOUS
370
-3
390
F
  0
LAYER
  5
200
100
AcDbSymbolTableRecord
100
AcDbLayerTableRecord
  2
01__ASM_DEF_DTM_PLN
 70
0
 62
7
  6
CONTINUOUS
370
-3
390
F
  0
LAYER
  5
201
100
AcDbSymbolTableRecord
100
AcDbLayerTableRecord
  2
01___PRT_ALL_DTM_PLN
 70
0
 62
7
  6
CONTINUOUS
370
-3
390
F
  0
LAYER
  5
202
100
AcDbSymbolTableRecord
100
AcDbLayerTableRecord
  2
01___PRT_DEF_DTM_PLN
 70
0
 62
7
  6
CONTINUOUS
370
-3
390
F
  0
LAYER
  5
203
100
AcDbSymbolTableRecord
100
AcDbLayerTableRecord
  2
02_ALL_AXES
 70
0
 62
7
  6
CONTINUOUS
370
-3
390
F
  0
LAYER
  5
204
100
AcDbSymbolTableRecord
100
AcDbLayerTableRecord
  2
02__ASM_ALL_AXES
 70
0
 62
7
  6
CONTINUOUS
370
-3
390
F
  0
LAYER
  5
205
100
AcDbSymbolTableRecord
100
AcDbLayerTableRecord
  2
02___PRT_ALL_AXES
 70
0
 62
7
  6
CONTINUOUS
370
-3
390
F
  0
LAYER
  5
206
100
AcDbSymbolTableRecord
100
AcDbLayerTableRecord
  2
03_ALL_CURVES
 70
0
 62
7
  6
CONTINUOUS
370
-3
390
F
  0
LAYER
  5
207
100
AcDbSymbolTableRecord
100
AcDbLayerTableRecord
  2
03__ASM_ALL_CURVES
 70
0
 62
7
  6
CONTINUOUS
370
-3
390
F
  0
LAYER
  5
208
100
AcDbSymbolTableRecord
100
AcDbLayerTableRecord
  2
03___PRT_ALL_CURVES
 70
0
 62
7
  6
CONTINUOUS
370
-3
390
F
  0
LAYER
  5
209
100
AcDbSymbolTableRecord
100
AcDbLayerTableRecord
  2
04_ALL_DTM_PNT
 70
0
 62
7
  6
CONTINUOUS
370
-3
390
F
  0
LAYER
  5
20A
100
AcDbSymbolTableRecord
100
AcDbLayerTableRecord
  2
04__ASM_ALL_DTM_PNT
 70
0
 62
7
  6
CONTINUOUS
370
-3
390
F
  0
LAYER
  5
20B
100
AcDbSymbolTableRecord
100
AcDbLayerTableRecord
  2
04___PRT_ALL_DTM_PNT
 70
0
 62
7
  6
CONTINUOUS
370
-3
390
F
  0
LAYER
  5
20C
100
AcDbSymbolTableRecord
100
AcDbLayerTableRecord
  2
05_ALL_DTM_CSYS
 70
0
 62
7
  6
CONTINUOUS
370
-3
390
F
  0
LAYER
  5
20D
100
AcDbSymbolTableRecord
100
AcDbLayerTableRecord
  2
05__ASM_ALL_DTM_CSYS
 70
0
 62
7
  6
CONTINUOUS
370
-3
390
F
  0
LAYER
  5
20E
100
AcDbSymbolTableRecord
100
AcDbLayerTableRecord
  2
05__ASM_DEF_DTM_CSYS
 70
0
 62
7
  6
CONTINUOUS
370
-3
390
F
  0
LAYER
  5
20F
100
AcDbSymbolTableRecord
100
AcDbLayerTableRecord
  2
05___PRT_ALL_DTM_CSYS
 70
0
 62
7
  6
CONTINUOUS
370
-3
390
F
  0
LAYER
  5
210
100
AcDbSymbolTableRecord
100
AcDbLayerTableRecord
  2
05___PRT_DEF_DTM_CSYS
 70
0
 62
7
  6
CONTINUOUS
370
-3
390
F
  0
LAYER
  5
211
100
AcDbSymbolTableRecord
100
AcDbLayerTableRecord
  2
06_ALL_SURFS
 70
0
 62
7
  6
CONTINUOUS
370
-3
390
F
  0
LAYER
  5
212
100
AcDbSymbolTableRecord
100
AcDbLayerTableRecord
  2
06__ASM_ALL_SURFS
 70
0
 62
7
  6
CONTINUOUS
370
-3
390
F
  0
LAYER
  5
213
100
AcDbSymbolTableRecord
100
AcDbLayerTableRecord
  2
06___PRT_ALL_SURFS
 70
0
 62
7
  6
CONTINUOUS
370
-3
390
F
  0
LAYER
  5
214
100
AcDbSymbolTableRecord
100
AcDbLayerTableRecord
  2
07__ASM_ALL_SKELETONS
 70
0
 62
7
  6
CONTINUOUS
370
-3
390
F
  0
LAYER
  5
215
100
AcDbSymbolTableRecord
100
AcDbLayerTableRecord
  2
127-002_FEATURES
 70
0
 62
7
  6
CONTINUOUS
370
-3
390
F
  0
LAYER
  5
216
100
AcDbSymbolTableRecord
100
AcDbLayerTableRecord
  2
127-002_REF_GEOMETRY
 70
0
 62
7
  6
CONTINUOUS
370
-3
390
F
  0
LAYER
  5
217
100
AcDbSymbolTableRecord
100
AcDbLayerTableRecord
  2
127-110_FEATURES
 70
0
 62
7
  6
CONTINUOUS
370
-3
390
F
  0
LAYER
  5
218
100
AcDbSymbolTableRecord
100
AcDbLayerTableRecord
  2
127-110_REF_GEOMETRY
 70
0
 62
7
  6
CONTINUOUS
370
-3
390
F
  0
LAYER
  5
219
100
AcDbSymbolTableRecord
100
AcDbLayerTableRecord
  2
127-112_FEATURES
 70
0
 62
7
  6
CONTINUOUS
370
-3
390
F
  0
LAYER
  5
21A
100
AcDbSymbolTableRecord
100
AcDbLayerTableRecord
  2
127-112_REF_GEOMETRY
 70
0
 62
7
  6
CONTINUOUS
370
-3
390
F
  0
LAYER
  5
21B
100
AcDbSymbolTableRecord
100
AcDbLayerTableRecord
  2
127-113_FEATURES
 70
0
 62
7
  6
CONTINUOUS
370
-3
390
F
  0
LAYER
  5
21C
100
AcDbSymbolTableRecord
100
AcDbLayerTableRecord
  2
127-113_REF_GEOMETRY
 70
0
 62
7
  6
CONTINUOUS
370
-3
390
F
  0
LAYER
  5
21D
100
AcDbSymbolTableRecord
100
AcDbLayerTableRecord
  2
127-114_FEATURES
 70
0
 62
7
  6
CONTINUOUS
370
-3
390
F
  0
LAYER
  5
21E
100
AcDbSymbolTableRecord
100
AcDbLayerTableRecord
  2
127-114_REF_GEOMETRY
 70
0
 62
7
  6
CONTINUOUS
370
-3
390
F
  0
LAYER
  5
21F
100
AcDbSymbolTableRecord
100
AcDbLayerTableRecord
  2
250-18_NPTF_PORT
 70
0
 62
7
  6
CONTINUOUS
370
-3
390
F
  0
LAYER
  5
220
100
AcDbSymbolTableRecord
100
AcDbLayerTableRecord
  2
ALL_DATUM_FEAT
 70
0
 62
7
  6
CONTINUOUS
370
-3
390
F
  0
LAYER
  5
221
100
AcDbSymbolTableRecord
100
AcDbLayerTableRecord
  2
AXIS
 70
0
 62
7
  6
CONTINUOUS
370
-3
390
F
  0
LAYER
  5
222
100
AcDbSymbolTableRecord
100
AcDbLayerTableRecord
  2
COPY_GEO_FET
 70
0
 62
7
  6
CONTINUOUS
370
-3
390
F
  0
LAYER
  5
223
100
AcDbSymbolTableRecord
100
AcDbLayerTableRecord
  2
COSMETIC
 70
0
 62
7
  6
CONTINUOUS
370
-3
390
F
  0
LAYER
  5
224
100
AcDbSymbolTableRecord
100
AcDbLayerTableRecord
  2
CSYS
 70
0
 62
7
  6
CONTINUOUS
370
-3
390
F
  0
LAYER
  5
225
100
AcDbSymbolTableRecord
100
AcDbLayerTableRecord
  2
CURVES
 70
0
 62
7
  6
CONTINUOUS
370
-3
390
F
  0
LAYER
  5
226
100
AcDbSymbolTableRecord
100
AcDbLayerTableRecord
  2
CUT_REF_SURF
 70
0
 62
7
  6
CONTINUOUS
370
-3
390
F
  0
LAYER
  5
227
100
AcDbSymbolTableRecord
100
AcDbLayerTableRecord
  2
DATUM
 70
0
 62
7
  6
CONTINUOUS
370
-3
390
F
  0
LAYER
  5
228
100
AcDbSymbolTableRecord
100
AcDbLayerTableRecord
  2
DATUMCURVES
 70
0
 62
7
  6
CONTINUOUS
370
-3
390
F
  0
LAYER
  5
229
100
AcDbSymbolTableRecord
100
AcDbLayerTableRecord
  2
DATUM_ADDED_230
 70
0
 62
7
  6
CONTINUOUS
370
-3
390
F
  0
LAYER
  5
22A
100
AcDbSymbolTableRecord
100
AcDbLayerTableRecord
  2
DATUM_PLANES
 70
0
 62
7
  6
CONTINUOUS
370
-3
390
F
  0
LAYER
  5
22B
100
AcDbSymbolTableRecord
100
AcDbLayerTableRecord
  2
DIMENSIONS
 70
0
 62
7
  6
CONTINUOUS
370
-3
390
F
  0
LAYER
  5
22C
100
AcDbSymbolTableRecord
100
AcDbLayerTableRecord
  2
DIMS
 70
0
 62
7
  6
CONTINUOUS
370
-3
390
F
  0
LAYER
  5
22D
100
AcDbSymbolTableRecord
100
AcDbLayerTableRecord
  2
DRAWINGNOTES
 70
0
 62
7
  6
CONTINUOUS
370
-3
390
F
  0
LAYER
  5
22E
100
AcDbSymbolTableRecord
100
AcDbLayerTableRecord
  2
DTM
 70
0
 62
7
  6
CONTINUOUS
370
-3
390
F
  0
LAYER
  5
22F
100
AcDbSymbolTableRecord
100
AcDbLayerTableRecord
  2
DTM230
 70
0
 62
7
  6
CONTINUOUS
370
-3
390
F
  0
LAYER
  5
230
100
AcDbSymbolTableRecord
100
AcDbLayerTableRecord
  2
DTM_500001
 70
0
 62
7
  6
CONTINUOUS
370
-3
390
F
  0
LAYER
  5
231
100
AcDbSymbolTableRecord
100
AcDbLayerTableRecord
  2
DTM_500002
 70
0
 62
7
  6
CONTINUOUS
370
-3
390
F
  0
LAYER
  5
232
100
AcDbSymbolTableRecord
100
AcDbLayerTableRecord
  2
DTM_515002
 70
0
 62
7
  6
CONTINUOUS
370
-3
390
F
  0
LAYER
  5
233
100
AcDbSymbolTableRecord
100
AcDbLayerTableRecord
  2
DTM_SPRING_RH
 70
0
 62
7
  6
CONTINUOUS
370
-3
390
F
  0
LAYER
  5
234
100
AcDbSymbolTableRecord
100
AcDbLayerTableRecord
  2
DTM_SP_RH_CONSTR
 70
0
 62
7
  6
CONTINUOUS
370
-3
390
F
  0
LAYER
  5
235
100
AcDbSymbolTableRecord
100
AcDbLayerTableRecord
  2
GEOMETRICTOLERANCES
 70
0
 62
7
  6
CONTINUOUS
370
-3
390
F
  0
LAYER
  5
236
100
AcDbSymbolTableRecord
100
AcDbLayerTableRecord
  2
PARAMETERDIMENSIONS
 70
0
 62
7
  6
CONTINUOUS
370
-3
390
F
  0
LAYER
  5
237
100
AcDbSymbolTableRecord
100
AcDbLayerTableRecord
  2
PLANE
 70
0
 62
7
  6
CONTINUOUS
370
-3
390
F
  0
LAYER
  5
238
100
AcDbSymbolTableRecord
100
AcDbLayerTableRecord
  2
SAE-6_PORT
 70
0
 62
7
  6
CONTINUOUS
370
-3
390
F
  0
LAYER
  5
239
100
AcDbSymbolTableRecord
100
AcDbLayerTableRecord
  2
T-8A_CAVITY
 70
0
 62
7
  6
CONTINUOUS
370
-3
390
F
  0
LAYER
  5
23A
100
AcDbSymbolTableRecord
100
AcDbLayerTableRecord
  2
T-8A_CAVITY_REF_GEOMETRY
 70
0
 62
7
  6
CONTINUOUS
370
-3
390
F
  0
LAYER
  5
23B
100
AcDbSymbolTableRecord
100
AcDbLayerTableRecord
  2
TEXT
 70
0
 62
7
  6
CONTINUOUS
370
-3
390
F
  0
LAYER
  5
23C
100
AcDbSymbolTableRecord
100
AcDbLayerTableRecord
  2
THREAD
 70
0
 62
7
  6
CONTINUOUS
370
-3
390
F
  0
ENDTAB
  0
TABLE
  2
STYLE
  5
3
100
AcDbSymbolTable
 70
1
  0
STYLE
  5
11
100
AcDbSymbolTableRecord
100
AcDbTextStyleTableRecord
  2
STANDARD
 70
0
 40
0.0
 41
0.8
 50
0.0
 71
0
 42
0.2
  3
txt
  4

  0
ENDTAB
  0
TABLE
  2
VIEW
  5
6
100
AcDbSymbolTable
 70
0
  0
ENDTAB
  0
TABLE
  2
UCS
  5
7
100
AcDbSymbolTable
 70
0
  0
ENDTAB
  0
TABLE
  2
APPID
  5
9
100
AcDbSymbolTable
 70
1
  0
APPID
  5
23D
100
AcDbSymbolTableRecord
100
AcDbRegAppTableRecord
  2
ACAD
 70
0
  0
ENDTAB
  0
TABLE
  2
BLOCK_RECORD
  5
1
100
AcDbSymbolTable
 70
0
  0
BLOCK_RECORD
  5
1F
100
AcDbSymbolTableRecord
100
AcDbBlockTableRecord
  2
*MODEL_SPACE
  0
BLOCK_RECORD
  5
1B
100
AcDbSymbolTableRecord
100
AcDbBlockTableRecord
  2
*PAPER_SPACE
  0
ENDTAB
  0
TABLE
  2
DIMSTYLE
  5
A
100
AcDbSymbolTable
 70
1
100
AcDbDimStyleTable
 71
0
  0
DIMSTYLE
105
23E
100
AcDbSymbolTableRecord
100
AcDbDimStyleTableRecord
  2
STANDARD
 70
0
  3

  4

 40
1.0
 41
0.1875
 42
0.0625
 43
0.38
 44
0.18
 45
0.0
 46
0.0
 47
0.01
 48
0.01
140
0.15625
141
0.09
142
0.0
143
25.4
144
1.0
145
0.0
146
1.0
147
0.09
 71
0.0
 72
0.0
 73
1
 74
1
 75
0
 76
0
 77
0
 78
4
170
0
171
2
172
0
173
0
174
0
175
0
176
0
177
0
178
0
270
2
271
2
272
2
273
2
274
2
275
0
280
0
281
0
282
0
283
1
284
4
285
0
286
0
287
3
288
0
340
11
  0
ENDTAB
  0
ENDSEC
  0
SECTION
  2
BLOCKS
  0
BLOCK
  5
20
100
AcDbEntity
  8
0
100
AcDbBlockBegin
  2
*MODEL_SPACE
 70
0
 10
0.0
 20
0.0
 30
0.0
  3
*MODEL_SPACE
  1

  0
ENDBLK
  5
21
100
AcDbEntity
  8
0
100
AcDbBlockEnd
  0
BLOCK
  5
1C
100
AcDbEntity
  8
0
100
AcDbBlockBegin
  2
*PAPER_SPACE
 70
0
 10
0.0
 20
0.0
 30
0.0
  3
*PAPER_SPACE
  1

  0
ENDBLK
  5
1D
100
AcDbEntity
  8
0
100
AcDbBlockEnd
  0
ENDSEC
  0
SECTION
  2
ENTITIES
  0
LINE
  5
23F
100
AcDbEntity
  8
03__ASM_ALL_CURVES
100
AcDbLine
 62
40
  6
CONTINUOUS
 10
3.966963887
 20
5.140107434
 11
3.971298887
 21
5.1516674312
  0
LINE
  5
240
100
AcDbEntity
  8
03__ASM_ALL_CURVES
100
AcDbLine
 62
40
  6
CONTINUOUS
 10
4.001643887
 20
5.1169874333
 11
3.997308887
 21
5.1054274329
  0
LINE
  5
241
100
AcDbEntity
  8
03__ASM_ALL_CURVES
100
AcDbLine
 62
40
  6
CONTINUOUS
 10
4.105683887
 20
5.140107434
 11
4.110018887
 21
5.1516674312
  0
LINE
  5
242
100
AcDbEntity
  8
03__ASM_ALL_CURVES
100
AcDbLine
 62
40
  6
CONTINUOUS
 10
3.971298887
 20
5.1516674312
 11
3.975633887
 21
5.157447434
  0
LINE
  5
243
100
AcDbEntity
  8
03__ASM_ALL_CURVES
100
AcDbLine
 62
40
  6
CONTINUOUS
 10
3.997308887
 20
5.1054274329
 11
3.992973887
 21
5.0996474328
  0
LINE
  5
244
100
AcDbEntity
  8
03__ASM_ALL_CURVES
100
AcDbLine
 62
40
  6
CONTINUOUS
 10
3.966963887
 20
5.1169874333
 11
3.966963887
 21
5.140107434
  0
LINE
  5
245
100
AcDbEntity
  8
0
100
AcDbLine
 62
7
  6
CONTINUOUS
 10
3.987603887
 20
3.7022674326
 11
3.987603887
 21
4.8122674326
  0
LINE
  5
246
100
AcDbEntity
  8
03__ASM_ALL_CURVES
100
AcDbLine
 62
40
  6
CONTINUOUS
 10
3.987603887
 20
4.8122674326
 11
3.987603887
 21
5.0938674326
  0
LINE
  5
247
100
AcDbEntity
  8
03__ASM_ALL_CURVES
100
AcDbLine
 62
40
  6
CONTINUOUS
 10
4.001643887
 20
5.140107434
 11
4.001643887
 21
5.1169874333
  0
LINE
  5
248
100
AcDbEntity
  8
0
100
AcDbLine
 62
7
  6
CONTINUOUS
 10
4.0332145582
 20
3.6232674326
 11
4.0332145582
 21
3.6238821231
  0
LINE
  5
249
100
AcDbEntity
  8
0
100
AcDbLine
 62
7
  6
CONTINUOUS
 10
4.0332145582
 20
3.9164027421
 11
4.0332145582
 21
3.9647468137
  0
LINE
  5
24A
100
AcDbEntity
  8
0
100
AcDbLine
 62
7
  6
CONTINUOUS
 10
4.0332145582
 20
4.5497880515
 11
4.0332145582
 21
4.5981321231
  0
LINE
  5
24B
100
AcDbEntity
  8
0
100
AcDbLine
 62
7
  6
CONTINUOUS
 10
4.0332145582
 20
4.8906527421
 11
4.0332145582
 21
4.8912674326
  0
LINE
  5
24C
100
AcDbEntity
  8
03__ASM_ALL_CURVES
100
AcDbLine
 62
40
  6
CONTINUOUS
 10
4.049328887
 20
5.0938674326
 11
4.049328887
 21
5.0996474328
  0
LINE
  5
24D
100
AcDbEntity
  8
03__ASM_ALL_CURVES
100
AcDbLine
 62
40
  6
CONTINUOUS
 10
4.056963887
 20
5.0823074326
 11
4.056963887
 21
5.0591874326
  0
LINE
  5
24E
100
AcDbEntity
  8
03__ASM_ALL_CURVES
100
AcDbLine
 62
40
  6
CONTINUOUS
 10
4.105683887
 20
5.1169874333
 11
4.110018887
 21
5.1285474326
  0
LINE
  5
24F
100
AcDbEntity
  8
03__ASM_ALL_CURVES
100
AcDbLine
 62
40
  6
CONTINUOUS
 10
4.140363887
 20
5.1169874333
 11
4.136028887
 21
5.1054274329
  0
LINE
  5
250
100
AcDbEntity
  8
0
100
AcDbLine
 62
7
  6
CONTINUOUS
 10
4.0329483894
 20
4.8908064147
 11
3.987603887
 21
4.8122674326
  0
LINE
  5
251
100
AcDbEntity
  8
03__ASM_ALL_CURVES
100
AcDbLine
 62
40
  6
CONTINUOUS
 10
4.110018887
 20
5.1516674312
 11
4.114353887
 21
5.157447434
  0
LINE
  5
252
100
AcDbEntity
  8
03__ASM_ALL_CURVES
100
AcDbLine
 62
40
  6
CONTINUOUS
 10
4.136028887
 20
5.1054274329
 11
4.131693887
 21
5.0996474328
  0
LINE
  5
253
100
AcDbEntity
  8
03__ASM_ALL_CURVES
100
AcDbLine
 62
40
  6
CONTINUOUS
 10
4.175043887
 20
5.1516674312
 11
4.179378887
 21
5.157447434
  0
LINE
  5
254
100
AcDbEntity
  8
03__ASM_ALL_CURVES
100
AcDbLine
 62
40
  6
CONTINUOUS
 10
4.170708887
 20
5.1169874333
 11
4.179378887
 21
5.1285474326
  0
LINE
  5
255
100
AcDbEntity
  8
03__ASM_ALL_CURVES
100
AcDbLine
 62
40
  6
CONTINUOUS
 10
4.209723887
 20
5.1458874326
 11
4.205388887
 21
5.140107434
  0
LINE
  5
256
100
AcDbEntity
  8
03__ASM_ALL_CURVES
100
AcDbLine
 62
40
  6
CONTINUOUS
 10
4.214058887
 20
5.1112074326
 11
4.205388887
 21
5.0996474328
  0
LINE
  5
257
100
AcDbEntity
  8
03__ASM_ALL_CURVES
100
AcDbLine
 62
40
  6
CONTINUOUS
 10
4.266078887
 20
5.1632274326
 11
4.257408887
 21
5.1516674312
  0
LINE
  5
258
100
AcDbEntity
  8
0
100
AcDbLine
 62
7
  6
CONTINUOUS
 10
4.0329483894
 20
3.6237284505
 11
3.987603887
 21
3.7022674326
  0
LINE
  5
259
100
AcDbEntity
  8
03__ASM_ALL_CURVES
100
AcDbLine
 62
40
  6
CONTINUOUS
 10
4.105683887
 20
5.1169874333
 11
4.105683887
 21
5.140107434
  0
LINE
  5
25A
100
AcDbEntity
  8
03__ASM_ALL_CURVES
100
AcDbLine
 62
40
  6
CONTINUOUS
 10
4.170708887
 20
5.1112074326
 11
4.170708887
 21
5.1169874333
  0
LINE
  5
25B
100
AcDbEntity
  8
03__ASM_ALL_CURVES
100
AcDbLine
 62
40
  6
CONTINUOUS
 10
4.175043887
 20
5.1458874326
 11
4.175043887
 21
5.1516674312
  0
LINE
  5
25C
100
AcDbEntity
  8
03__ASM_ALL_CURVES
100
AcDbLine
 62
40
  6
CONTINUOUS
 10
4.257408887
 20
5.1516674312
 11
4.253073887
 21
5.1343274312
  0
LINE
  5
25D
100
AcDbEntity
  8
03__ASM_ALL_CURVES
100
AcDbLine
 62
40
  6
CONTINUOUS
 10
3.975633887
 20
5.157447434
 11
3.984303887
 21
5.1632274326
  0
LINE
  5
25E
100
AcDbEntity
  8
03__ASM_ALL_CURVES
100
AcDbLine
 62
40
  6
CONTINUOUS
 10
3.992973887
 20
5.0996474328
 11
3.984303887
 21
5.0938674326
  0
LINE
  5
25F
100
AcDbEntity
  8
03__ASM_ALL_CURVES
100
AcDbLine
 62
40
  6
CONTINUOUS
 10
4.114353887
 20
5.157447434
 11
4.123023887
 21
5.1632274326
  0
LINE
  5
260
100
AcDbEntity
  8
03__ASM_ALL_CURVES
100
AcDbLine
 62
40
  6
CONTINUOUS
 10
4.179378887
 20
5.157447434
 11
4.188048887
 21
5.1632274326
  0
LINE
  5
261
100
AcDbEntity
  8
03__ASM_ALL_CURVES
100
AcDbLine
 62
40
  6
CONTINUOUS
 10
4.209723887
 20
5.1516674312
 11
4.209723887
 21
5.1458874326
  0
LINE
  5
262
100
AcDbEntity
  8
03__ASM_ALL_CURVES
100
AcDbLine
 62
40
  6
CONTINUOUS
 10
4.214058887
 20
5.1169874333
 11
4.214058887
 21
5.1112074326
  0
LINE
  5
263
100
AcDbEntity
  8
03__ASM_ALL_CURVES
100
AcDbLine
 62
40
  6
CONTINUOUS
 10
4.253073887
 20
5.1343274312
 11
4.253073887
 21
5.1227674319
  0
LINE
  5
264
100
AcDbEntity
  8
03__ASM_ALL_CURVES
100
AcDbLine
 62
40
  6
CONTINUOUS
 10
4.400463887
 20
5.0938674326
 11
4.404798887
 21
5.1227674319
  0
LINE
  5
265
100
AcDbEntity
  8
03__ASM_ALL_CURVES
100
AcDbLine
 62
40
  6
CONTINUOUS
 10
4.404798887
 20
5.1227674319
 11
4.409133887
 21
5.140107434
  0
LINE
  5
266
100
AcDbEntity
  8
03__ASM_ALL_CURVES
100
AcDbLine
 62
40
  6
CONTINUOUS
 10
4.409133887
 20
5.140107434
 11
4.417803887
 21
5.1632274326
  0
LINE
  5
267
100
AcDbEntity
  8
03__ASM_ALL_CURVES
100
AcDbLine
 62
40
  6
CONTINUOUS
 10
4.521843887
 20
5.1516674312
 11
4.526178887
 21
5.157447434
  0
LINE
  5
268
100
AcDbEntity
  8
03__ASM_ALL_CURVES
100
AcDbLine
 62
40
  6
CONTINUOUS
 10
4.534848887
 20
5.1227674319
 11
4.526178887
 21
5.1112074326
  0
LINE
  5
269
100
AcDbEntity
  8
03__ASM_ALL_CURVES
100
AcDbLine
 62
40
  6
CONTINUOUS
 10
4.556523887
 20
5.140107434
 11
4.552188887
 21
5.1343274312
  0
LINE
  5
26A
100
AcDbEntity
  8
03__ASM_ALL_CURVES
100
AcDbLine
 62
40
  6
CONTINUOUS
 10
4.131693887
 20
5.0996474328
 11
4.123023887
 21
5.0938674326
  0
LINE
  5
26B
100
AcDbEntity
  8
03__ASM_ALL_CURVES
100
AcDbLine
 62
40
  6
CONTINUOUS
 10
4.179378887
 20
5.1285474326
 11
4.188048887
 21
5.1343274312
  0
LINE
  5
26C
100
AcDbEntity
  8
03__ASM_ALL_CURVES
100
AcDbLine
 62
40
  6
CONTINUOUS
 10
4.205388887
 20
5.140107434
 11
4.196718887
 21
5.1343274312
  0
LINE
  5
26D
100
AcDbEntity
  8
03__ASM_ALL_CURVES
100
AcDbLine
 62
40
  6
CONTINUOUS
 10
4.205388887
 20
5.0996474328
 11
4.196718887
 21
5.0938674326
  0
LINE
  5
26E
100
AcDbEntity
  8
03__ASM_ALL_CURVES
100
AcDbLine
 62
40
  6
CONTINUOUS
 10
4.331103887
 20
5.1632274326
 11
4.331103887
 21
5.0938674326
  0
LINE
  5
26F
100
AcDbEntity
  8
0
100
AcDbLine
 62
7
  6
CONTINUOUS
 10
4.4311782611
 20
3.6232674326
 11
4.4311782611
 21
3.6238821231
  0
LINE
  5
270
100
AcDbEntity
  8
0
100
AcDbLine
 62
7
  6
CONTINUOUS
 10
4.4311782611
 20
3.9164027421
 11
4.4311782611
 21
3.9647468137
  0
LINE
  5
271
100
AcDbEntity
  8
0
100
AcDbLine
 62
7
  6
CONTINUOUS
 10
4.4311782611
 20
4.5497880515
 11
4.4311782611
 21
4.5981321231
  0
LINE
  5
272
100
AcDbEntity
  8
0
100
AcDbLine
 62
7
  6
CONTINUOUS
 10
4.4311782611
 20
4.8906527421
 11
4.4311782611
 21
4.8912674326
  0
LINE
  5
273
100
AcDbEntity
  8
03__ASM_ALL_CURVES
100
AcDbLine
 62
40
  6
CONTINUOUS
 10
4.526178887
 20
5.1112074326
 11
4.521843887
 21
5.0938674326
  0
LINE
  5
274
100
AcDbEntity
  8
03__ASM_ALL_CURVES
100
AcDbLine
 62
40
  6
CONTINUOUS
 10
4.612878887
 20
5.1227674319
 11
4.617213887
 21
5.140107434
  0
LINE
  5
275
100
AcDbEntity
  8
03__ASM_ALL_CURVES
100
AcDbLine
 62
40
  6
CONTINUOUS
 10
4.617213887
 20
5.140107434
 11
4.625883887
 21
5.1632274326
  0
LINE
  5
276
100
AcDbEntity
  8
03__ASM_ALL_CURVES
100
AcDbLine
 62
40
  6
CONTINUOUS
 10
4.682238887
 20
5.1054274329
 11
4.673568887
 21
5.0938674326
  0
LINE
  5
277
100
AcDbEntity
  8
03__ASM_ALL_CURVES
100
AcDbLine
 62
40
  6
CONTINUOUS
 10
4.526178887
 20
5.157447434
 11
4.534848887
 21
5.1632274326
  0
LINE
  5
278
100
AcDbEntity
  8
03__ASM_ALL_CURVES
100
AcDbLine
 62
40
  6
CONTINUOUS
 10
4.552188887
 20
5.1343274312
 11
4.534848887
 21
5.1227674319
  0
LINE
  5
279
100
AcDbEntity
  8
03__ASM_ALL_CURVES
100
AcDbLine
 62
40
  6
CONTINUOUS
 10
4.110018887
 20
5.1285474326
 11
4.123023887
 21
5.1343274312
  0
LINE
  5
27A
100
AcDbEntity
  8
03__ASM_ALL_CURVES
100
AcDbLine
 62
40
  6
CONTINUOUS
 10
3.971298887
 20
5.1054274329
 11
3.966963887
 21
5.1169874333
  0
LINE
  5
27B
100
AcDbEntity
  8
03__ASM_ALL_CURVES
100
AcDbLine
 62
40
  6
CONTINUOUS
 10
3.997308887
 20
5.1516674312
 11
4.001643887
 21
5.140107434
  0
LINE
  5
27C
100
AcDbEntity
  8
03__ASM_ALL_CURVES
100
AcDbLine
 62
40
  6
CONTINUOUS
 10
4.465488887
 20
5.0938674326
 11
4.465488887
 21
5.0996474328
  0
LINE
  5
27D
100
AcDbEntity
  8
0
100
AcDbLine
 62
7
  6
CONTINUOUS
 10
4.486603887
 20
3.7192674326
 11
4.486603887
 21
4.7952674326
  0
LINE
  5
27E
100
AcDbEntity
  8
03__ASM_ALL_CURVES
100
AcDbLine
 62
40
  6
CONTINUOUS
 10
4.556523887
 20
5.1516674312
 11
4.556523887
 21
5.140107434
  0
LINE
  5
27F
100
AcDbEntity
  8
03__ASM_ALL_CURVES
100
AcDbLine
 62
40
  6
CONTINUOUS
 10
4.608543887
 20
5.0938674326
 11
4.612878887
 21
5.1227674319
  0
LINE
  5
280
100
AcDbEntity
  8
03__ASM_ALL_CURVES
100
AcDbLine
 62
40
  6
CONTINUOUS
 10
4.686573887
 20
5.1227674319
 11
4.682238887
 21
5.1054274329
  0
LINE
  5
281
100
AcDbEntity
  8
03__ASM_ALL_CURVES
100
AcDbLine
 62
40
  6
CONTINUOUS
 10
4.8321088862
 20
5.1458874326
 11
4.8407788862
 21
5.157447434
  0
LINE
  5
282
100
AcDbEntity
  8
03__ASM_ALL_CURVES
100
AcDbLine
 62
40
  6
CONTINUOUS
 10
4.8754588862
 20
5.1112074326
 11
4.8667888862
 21
5.0996474328
  0
LINE
  5
283
100
AcDbEntity
  8
03__ASM_ALL_CURVES
100
AcDbLine
 62
40
  6
CONTINUOUS
 10
4.9014688862
 20
5.1458874326
 11
4.9101388862
 21
5.157447434
  0
LINE
  5
284
100
AcDbEntity
  8
03__ASM_ALL_CURVES
100
AcDbLine
 62
40
  6
CONTINUOUS
 10
4.8407788862
 20
5.157447434
 11
4.8494488862
 21
5.1632274326
  0
LINE
  5
285
100
AcDbEntity
  8
03__ASM_ALL_CURVES
100
AcDbLine
 62
40
  6
CONTINUOUS
 10
4.9101388862
 20
5.157447434
 11
4.9188088862
 21
5.1632274326
  0
LINE
  5
286
100
AcDbEntity
  8
03__ASM_ALL_CURVES
100
AcDbLine
 62
40
  6
CONTINUOUS
 10
4.110018887
 20
5.1054274329
 11
4.105683887
 21
5.1169874333
  0
LINE
  5
287
100
AcDbEntity
  8
03__ASM_ALL_CURVES
100
AcDbLine
 62
40
  6
CONTINUOUS
 10
4.136028887
 20
5.1285474326
 11
4.140363887
 21
5.1169874333
  0
LINE
  5
288
100
AcDbEntity
  8
03__ASM_ALL_CURVES
100
AcDbLine
 62
40
  6
CONTINUOUS
 10
4.253073887
 20
5.1227674319
 11
4.257408887
 21
5.1054274329
  0
LINE
  5
289
100
AcDbEntity
  8
03__ASM_ALL_CURVES
100
AcDbLine
 62
40
  6
CONTINUOUS
 10
4.605243887
 20
5.0823074326
 11
4.605243887
 21
5.0591874326
  0
LINE
  5
28A
100
AcDbEntity
  8
0
100
AcDbLine
 62
7
  6
CONTINUOUS
 10
4.671603887
 20
4.7952674326
 11
4.671603887
 21
3.7192674326
  0
LINE
  5
28B
100
AcDbEntity
  8
0
100
AcDbLine
 62
7
  6
CONTINUOUS
 10
4.674603887
 20
4.7922674326
 11
4.674603887
 21
3.7222674326
  0
LINE
  5
28C
100
AcDbEntity
  8
03__ASM_ALL_CURVES
100
AcDbLine
 62
40
  6
CONTINUOUS
 10
4.674603887
 20
4.8068274326
 11
4.674603887
 21
5.0938674326
  0
LINE
  5
28D
100
AcDbEntity
  8
0
100
AcDbLine
 62
7
  6
CONTINUOUS
 10
4.677103887
 20
3.7312108083
 11
4.677103887
 21
4.7833240569
  0
LINE
  5
28E
100
AcDbEntity
  8
03__ASM_ALL_CURVES
100
AcDbLine
 62
40
  6
CONTINUOUS
 10
4.686573887
 20
5.1343274312
 11
4.686573887
 21
5.1227674319
  0
LINE
  5
28F
100
AcDbEntity
  8
0
100
AcDbLine
 62
7
  6
CONTINUOUS
 10
4.6959602887
 20
4.7717674502
 11
4.6959602934
 21
4.7724373056
  0
LINE
  5
290
100
AcDbEntity
  8
0
100
AcDbLine
 62
7
  6
CONTINUOUS
 10
4.6959602934
 20
3.7420975596
 11
4.6959602887
 21
4.7717674502
  0
LINE
  5
291
100
AcDbEntity
  8
0
100
AcDbLine
 62
7
  6
CONTINUOUS
 10
4.6984602934
 20
3.7427674326
 11
4.6984602934
 21
4.7717674326
  0
LINE
  5
292
100
AcDbEntity
  8
THREAD
100
AcDbLine
 62
7
  6
CONTINUOUS
 10
4.721603887
 20
3.7427674326
 11
4.721603887
 21
4.7717674326
  0
LINE
  5
293
100
AcDbEntity
  8
03__ASM_ALL_CURVES
100
AcDbLine
 62
40
  6
CONTINUOUS
 10
4.8277738862
 20
5.1285474326
 11
4.8321088862
 21
5.1458874326
  0
LINE
  5
294
100
AcDbEntity
  8
03__ASM_ALL_CURVES
100
AcDbLine
 62
40
  6
CONTINUOUS
 10
4.8797938862
 20
5.1285474326
 11
4.8754588862
 21
5.1112074326
  0
LINE
  5
295
100
AcDbEntity
  8
03__ASM_ALL_CURVES
100
AcDbLine
 62
40
  6
CONTINUOUS
 10
4.8971338862
 20
5.1285474326
 11
4.9014688862
 21
5.1458874326
  0
LINE
  5
296
100
AcDbEntity
  8
03__ASM_ALL_CURVES
100
AcDbLine
 62
40
  6
CONTINUOUS
 10
4.9404838862
 20
5.1054274329
 11
4.9361488862
 21
5.0996474328
  0
LINE
  5
297
100
AcDbEntity
  8
03__ASM_ALL_CURVES
100
AcDbLine
 62
40
  6
CONTINUOUS
 10
4.8667888862
 20
5.0996474328
 11
4.8581188862
 21
5.0938674326
  0
LINE
  5
298
100
AcDbEntity
  8
03__ASM_ALL_CURVES
100
AcDbLine
 62
40
  6
CONTINUOUS
 10
4.9361488862
 20
5.0996474328
 11
4.9274788862
 21
5.0938674326
  0
LINE
  5
299
100
AcDbEntity
  8
03__ASM_ALL_CURVES
100
AcDbLine
 62
40
  6
CONTINUOUS
 10
4.743963887
 20
5.0823074326
 11
4.743963887
 21
5.0591874326
  0
LINE
  5
29A
100
AcDbEntity
  8
03__ASM_ALL_CURVES
100
AcDbLine
 62
40
  6
CONTINUOUS
 10
4.7670838862
 20
5.1632274326
 11
4.7670838862
 21
5.0938674326
  0
LINE
  5
29B
100
AcDbEntity
  8
0
100
AcDbLine
 62
7
  6
CONTINUOUS
 10
4.791603887
 20
3.7452674326
 11
4.791603887
 21
4.7692674326
  0
LINE
  5
29C
100
AcDbEntity
  8
0
100
AcDbLine
 62
7
  6
CONTINUOUS
 10
4.841603887
 20
3.7452674326
 11
4.841603887
 21
4.7692674326
  0
LINE
  5
29D
100
AcDbEntity
  8
THREAD
100
AcDbLine
 62
7
  6
CONTINUOUS
 10
4.8553870086
 20
3.7992674326
 11
4.8553870086
 21
4.7152674326
  0
LINE
  5
29E
100
AcDbEntity
  8
THREAD
100
AcDbLine
 62
7
  6
CONTINUOUS
 10
4.8662123262
 20
3.7930174326
 11
4.8662123262
 21
4.7215174326
  0
LINE
  5
29F
100
AcDbEntity
  8
03__ASM_ALL_CURVES
100
AcDbLine
 62
40
  6
CONTINUOUS
 10
4.9708288862
 20
5.0938674326
 11
4.9925038862
 21
5.1632274326
  0
LINE
  5
2A0
100
AcDbEntity
  8
THREAD
100
AcDbLine
 62
7
  6
CONTINUOUS
 10
4.8845431972
 20
4.7532674326
 11
4.8662123262
 21
4.7215174326
  0
LINE
  5
2A1
100
AcDbEntity
  8
03__ASM_ALL_CURVES
100
AcDbLine
 62
40
  6
CONTINUOUS
 10
5.2482688862
 20
5.1458874326
 11
5.2569388862
 21
5.157447434
  0
LINE
  5
2A2
100
AcDbEntity
  8
03__ASM_ALL_CURVES
100
AcDbLine
 62
40
  6
CONTINUOUS
 10
5.2569388862
 20
5.157447434
 11
5.2656088862
 21
5.1632274326
  0
LINE
  5
2A3
100
AcDbEntity
  8
03__ASM_ALL_CURVES
100
AcDbLine
 62
40
  6
CONTINUOUS
 10
5.2829488862
 20
5.0996474328
 11
5.2742788862
 21
5.0938674326
  0
LINE
  5
2A4
100
AcDbEntity
  8
03__ASM_ALL_CURVES
100
AcDbLine
 62
40
  6
CONTINUOUS
 10
5.4043288862
 20
5.1632274326
 11
5.3956588862
 21
5.157447434
  0
LINE
  5
2A5
100
AcDbEntity
  8
03__ASM_ALL_CURVES
100
AcDbLine
 62
40
  6
CONTINUOUS
 10
3.975633887
 20
5.0996474328
 11
3.971298887
 21
5.1054274329
  0
LINE
  5
2A6
100
AcDbEntity
  8
THREAD
100
AcDbLine
 62
7
  6
CONTINUOUS
 10
4.8845431972
 20
3.7612674326
 11
4.8662123262
 21
3.7930174326
  0
LINE
  5
2A7
100
AcDbEntity
  8
THREAD
100
AcDbLine
 62
7
  6
CONTINUOUS
 10
4.8845431972
 20
3.7612674326
 11
4.8845431972
 21
4.7532674326
  0
LINE
  5
2A8
100
AcDbEntity
  8
0
100
AcDbLine
 62
7
  6
CONTINUOUS
 10
4.486603887
 20
3.7192674326
 11
4.4314444299
 21
3.6237284505
  0
LINE
  5
2A9
100
AcDbEntity
  8
03__ASM_ALL_CURVES
100
AcDbLine
 62
40
  6
CONTINUOUS
 10
5.2872838862
 20
5.1054274329
 11
5.2829488862
 21
5.0996474328
  0
LINE
  5
2AA
100
AcDbEntity
  8
03__ASM_ALL_CURVES
100
AcDbLine
 62
40
  6
CONTINUOUS
 10
5.3956588862
 20
5.157447434
 11
5.3913238862
 21
5.1516674312
  0
LINE
  5
2AB
100
AcDbEntity
  8
03__ASM_ALL_CURVES
100
AcDbLine
 62
40
  6
CONTINUOUS
 10
5.4216688862
 20
5.0996474328
 11
5.4129988862
 21
5.0938674326
  0
LINE
  5
2AC
100
AcDbEntity
  8
03__ASM_ALL_CURVES
100
AcDbLine
 62
40
  6
CONTINUOUS
 10
5.5343788862
 20
5.157447434
 11
5.5430488862
 21
5.1632274326
  0
LINE
  5
2AD
100
AcDbEntity
  8
03__ASM_ALL_CURVES
100
AcDbLine
 62
40
  6
CONTINUOUS
 10
5.5603888862
 20
5.0996474328
 11
5.5517188862
 21
5.0938674326
  0
LINE
  5
2AE
100
AcDbEntity
  8
03__ASM_ALL_CURVES
100
AcDbLine
 62
40
  6
CONTINUOUS
 10
5.8612645134
 20
3.4111074326
 11
5.8352545134
 21
3.4111074326
  0
LINE
  5
2AF
100
AcDbEntity
  8
03__ASM_ALL_CURVES
100
AcDbLine
 62
40
  6
CONTINUOUS
 10
5.6954507634
 20
3.4111074326
 11
5.6889482634
 21
3.4111074326
  0
LINE
  5
2B0
100
AcDbEntity
  8
03__ASM_ALL_CURVES
100
AcDbLine
 62
40
  6
CONTINUOUS
 10
5.6434307634
 20
3.4111074326
 11
5.6369282634
 21
3.4111074326
  0
LINE
  5
2B1
100
AcDbEntity
  8
03__ASM_ALL_CURVES
100
AcDbLine
 62
40
  6
CONTINUOUS
 10
5.7832345134
 20
3.4111074326
 11
5.8092445134
 21
3.4111074326
  0
LINE
  5
2B2
100
AcDbEntity
  8
03__ASM_ALL_CURVES
100
AcDbLine
 62
40
  6
CONTINUOUS
 10
5.8352545134
 20
3.4371174326
 11
5.8515107634
 21
3.4371174326
  0
LINE
  5
2B3
100
AcDbEntity
  8
03__ASM_ALL_CURVES
100
AcDbLine
 62
40
  6
CONTINUOUS
 10
5.6369282634
 20
3.4631274326
 11
5.6434307634
 21
3.4631274326
  0
LINE
  5
2B4
100
AcDbEntity
  8
03__ASM_ALL_CURVES
100
AcDbLine
 62
40
  6
CONTINUOUS
 10
5.7279632634
 20
3.4631274326
 11
5.7604757634
 21
3.4631274326
  0
LINE
  5
2B5
100
AcDbEntity
  8
03__ASM_ALL_CURVES
100
AcDbLine
 62
40
  6
CONTINUOUS
 10
5.8352545134
 20
3.4631274326
 11
5.8612645134
 21
3.4631274326
  0
LINE
  5
2B6
100
AcDbEntity
  8
03__ASM_ALL_CURVES
100
AcDbLine
 62
40
  6
CONTINUOUS
 10
5.8840232634
 20
3.4631274326
 11
5.9165357634
 21
3.4631274326
  0
LINE
  5
2B7
100
AcDbEntity
  8
03__ASM_ALL_CURVES
100
AcDbLine
 62
40
  6
CONTINUOUS
 10
5.7198351521
 20
3.4862474326
 11
5.7133326521
 21
3.4862474326
  0
LINE
  5
2B8
100
AcDbEntity
  8
03__ASM_ALL_CURVES
100
AcDbLine
 62
40
  6
CONTINUOUS
 10
5.8596389021
 20
3.4862474326
 11
5.8856489021
 21
3.4862474326
  0
LINE
  5
2B9
100
AcDbEntity
  8
03__ASM_ALL_CURVES
100
AcDbLine
 62
40
  6
CONTINUOUS
 10
5.6369282634
 20
3.4111074326
 11
5.6304257634
 21
3.4154424327
  0
LINE
  5
2BA
100
AcDbEntity
  8
03__ASM_ALL_CURVES
100
AcDbLine
 62
40
  6
CONTINUOUS
 10
3.992973887
 20
5.157447434
 11
3.997308887
 21
5.1516674312
  0
LINE
  5
2BB
100
AcDbEntity
  8
03__ASM_ALL_CURVES
100
AcDbLine
 62
40
  6
CONTINUOUS
 10
4.049328887
 20
5.0996474328
 11
4.053663887
 21
5.0938674326
  0
LINE
  5
2BC
100
AcDbEntity
  8
03__ASM_ALL_CURVES
100
AcDbLine
 62
40
  6
CONTINUOUS
 10
4.114353887
 20
5.0996474328
 11
4.110018887
 21
5.1054274329
  0
LINE
  5
2BD
100
AcDbEntity
  8
03__ASM_ALL_CURVES
100
AcDbLine
 62
40
  6
CONTINUOUS
 10
4.131693887
 20
5.157447434
 11
4.136028887
 21
5.1516674312
  0
LINE
  5
2BE
100
AcDbEntity
  8
03__ASM_ALL_CURVES
100
AcDbLine
 62
40
  6
CONTINUOUS
 10
4.179378887
 20
5.0996474328
 11
4.170708887
 21
5.1112074326
  0
LINE
  5
2BF
100
AcDbEntity
  8
0
100
AcDbLine
 62
7
  6
CONTINUOUS
 10
4.486603887
 20
4.7952674326
 11
4.4314444299
 21
4.8908064147
  0
LINE
  5
2C0
100
AcDbEntity
  8
03__ASM_ALL_CURVES
100
AcDbLine
 62
40
  6
CONTINUOUS
 10
4.682238887
 20
5.1516674312
 11
4.686573887
 21
5.1343274312
  0
LINE
  5
2C1
100
AcDbEntity
  8
03__ASM_ALL_CURVES
100
AcDbLine
 62
40
  6
CONTINUOUS
 10
5.0618638862
 20
5.1632274326
 11
5.0618638862
 21
5.0938674326
  0
LINE
  5
2C2
100
AcDbEntity
  8
03__ASM_ALL_CURVES
100
AcDbLine
 62
40
  6
CONTINUOUS
 10
5.1312238862
 20
5.1632274326
 11
5.1312238862
 21
5.0938674326
  0
LINE
  5
2C3
100
AcDbEntity
  8
03__ASM_ALL_CURVES
100
AcDbLine
 62
40
  6
CONTINUOUS
 10
5.2439338862
 20
5.1285474326
 11
5.2482688862
 21
5.1458874326
  0
LINE
  5
2C4
100
AcDbEntity
  8
03__ASM_ALL_CURVES
100
AcDbLine
 62
40
  6
CONTINUOUS
 10
5.4260038862
 20
5.1054274329
 11
5.4216688862
 21
5.0996474328
  0
LINE
  5
2C5
100
AcDbEntity
  8
03__ASM_ALL_CURVES
100
AcDbLine
 62
40
  6
CONTINUOUS
 10
5.5257088862
 20
5.1458874326
 11
5.5343788862
 21
5.157447434
  0
LINE
  5
2C6
100
AcDbEntity
  8
03__ASM_ALL_CURVES
100
AcDbLine
 62
40
  6
CONTINUOUS
 10
5.5690588862
 20
5.1112074326
 11
5.5603888862
 21
5.0996474328
  0
LINE
  5
2C7
100
AcDbEntity
  8
03__ASM_ALL_CURVES
100
AcDbLine
 62
40
  6
CONTINUOUS
 10
5.6297488862
 20
5.0996474328
 11
5.6210788862
 21
5.0938674326
  0
LINE
  5
2C8
100
AcDbEntity
  8
03__ASM_ALL_CURVES
100
AcDbLine
 62
40
  6
CONTINUOUS
 10
5.7641338862
 20
5.0996474328
 11
5.7554638862
 21
5.0938674326
  0
LINE
  5
2C9
100
AcDbEntity
  8
03__ASM_ALL_CURVES
100
AcDbLine
 62
40
  6
CONTINUOUS
 10
5.7718551521
 20
3.5122574326
 11
5.7555989021
 21
3.5122574326
  0
LINE
  5
2CA
100
AcDbEntity
  8
03__ASM_ALL_CURVES
100
AcDbLine
 62
40
  6
CONTINUOUS
 10
5.6678151521
 20
3.5122574326
 11
5.6515589021
 21
3.5122574326
  0
LINE
  5
2CB
100
AcDbEntity
  8
03__ASM_ALL_CURVES
100
AcDbLine
 62
40
  6
CONTINUOUS
 10
5.6515589021
 20
3.5382674326
 11
5.6678151521
 21
3.5382674326
  0
LINE
  5
2CC
100
AcDbEntity
  8
03__ASM_ALL_CURVES
100
AcDbLine
 62
40
  6
CONTINUOUS
 10
5.7133326521
 20
3.5382674326
 11
5.7198351521
 21
3.5382674326
  0
LINE
  5
2CD
100
AcDbEntity
  8
03__ASM_ALL_CURVES
100
AcDbLine
 62
40
  6
CONTINUOUS
 10
5.7555989021
 20
3.5382674326
 11
5.7718551521
 21
3.5382674326
  0
LINE
  5
2CE
100
AcDbEntity
  8
03__ASM_ALL_CURVES
100
AcDbLine
 62
40
  6
CONTINUOUS
 10
5.8043676521
 20
3.5382674326
 11
5.8368801521
 21
3.5382674326
  0
LINE
  5
2CF
100
AcDbEntity
  8
03__ASM_ALL_CURVES
100
AcDbLine
 62
40
  6
CONTINUOUS
 10
5.8693926521
 20
3.5382674326
 11
5.8758951521
 21
3.5382674326
  0
LINE
  5
2D0
100
AcDbEntity
  8
0
100
AcDbLine
 62
7
  6
CONTINUOUS
 10
4.4311782611
 20
3.6232674326
 11
4.0332145582
 21
3.6232674326
  0
LINE
  5
2D1
100
AcDbEntity
  8
0
100
AcDbLine
 62
7
  6
CONTINUOUS
 10
4.4311782611
 20
3.6238821231
 11
4.0332145582
 21
3.6238821231
  0
LINE
  5
2D2
100
AcDbEntity
  8
03__ASM_ALL_CURVES
100
AcDbLine
 62
40
  6
CONTINUOUS
 10
5.6889482634
 20
3.4111074326
 11
5.6824457634
 21
3.4154424327
  0
LINE
  5
2D3
100
AcDbEntity
  8
03__ASM_ALL_CURVES
100
AcDbLine
 62
40
  6
CONTINUOUS
 10
5.6434307634
 20
3.4631274326
 11
5.6499332634
 21
3.4587924336
  0
LINE
  5
2D4
100
AcDbEntity
  8
03__ASM_ALL_CURVES
100
AcDbLine
 62
40
  6
CONTINUOUS
 10
5.7133326521
 20
3.4862474326
 11
5.7068301521
 21
3.4905824327
  0
LINE
  5
2D5
100
AcDbEntity
  8
03__ASM_ALL_CURVES
100
AcDbLine
 62
40
  6
CONTINUOUS
 10
5.6678151521
 20
3.5382674326
 11
5.6743176521
 21
3.5339324336
  0
LINE
  5
2D6
100
AcDbEntity
  8
03__ASM_ALL_CURVES
100
AcDbLine
 62
40
  6
CONTINUOUS
 10
5.7198351521
 20
3.5382674326
 11
5.7263376521
 21
3.5339324336
  0
LINE
  5
2D7
100
AcDbEntity
  8
03__ASM_ALL_CURVES
100
AcDbLine
 62
40
  6
CONTINUOUS
 10
4.179378887
 20
5.140107434
 11
4.175043887
 21
5.1458874326
  0
LINE
  5
2D8
100
AcDbEntity
  8
03__ASM_ALL_CURVES
100
AcDbLine
 62
40
  6
CONTINUOUS
 10
4.205388887
 20
5.1285474326
 11
4.214058887
 21
5.1169874333
  0
LINE
  5
2D9
100
AcDbEntity
  8
03__ASM_ALL_CURVES
100
AcDbLine
 62
40
  6
CONTINUOUS
 10
4.205388887
 20
5.157447434
 11
4.209723887
 21
5.1516674312
  0
LINE
  5
2DA
100
AcDbEntity
  8
03__ASM_ALL_CURVES
100
AcDbLine
 62
40
  6
CONTINUOUS
 10
4.257408887
 20
5.1054274329
 11
4.266078887
 21
5.0938674326
  0
LINE
  5
2DB
100
AcDbEntity
  8
03__ASM_ALL_CURVES
100
AcDbLine
 62
40
  6
CONTINUOUS
 10
5.6304257634
 20
3.4154424327
 11
5.6239232634
 21
3.4241124326
  0
LINE
  5
2DC
100
AcDbEntity
  8
03__ASM_ALL_CURVES
100
AcDbLine
 62
40
  6
CONTINUOUS
 10
4.8321088862
 20
5.1112074326
 11
4.8277738862
 21
5.1285474326
  0
LINE
  5
2DD
100
AcDbEntity
  8
03__ASM_ALL_CURVES
100
AcDbLine
 62
40
  6
CONTINUOUS
 10
4.8754588862
 20
5.1458874326
 11
4.8797938862
 21
5.1285474326
  0
LINE
  5
2DE
100
AcDbEntity
  8
03__ASM_ALL_CURVES
100
AcDbLine
 62
40
  6
CONTINUOUS
 10
4.9014688862
 20
5.1112074326
 11
4.8971338862
 21
5.1285474326
  0
LINE
  5
2DF
100
AcDbEntity
  8
03__ASM_ALL_CURVES
100
AcDbLine
 62
40
  6
CONTINUOUS
 10
5.1832438862
 20
5.0938674326
 11
5.1832438862
 21
5.1632274326
  0
LINE
  5
2E0
100
AcDbEntity
  8
THREAD
100
AcDbLine
 62
7
  6
CONTINUOUS
 10
5.193603887
 20
3.7612674326
 11
5.193603887
 21
4.7532674326
  0
LINE
  5
2E1
100
AcDbEntity
  8
03__ASM_ALL_CURVES
100
AcDbLine
 62
40
  6
CONTINUOUS
 10
5.2179238862
 20
5.0938674326
 11
5.2179238862
 21
5.1632274326
  0
LINE
  5
2E2
100
AcDbEntity
  8
THREAD
100
AcDbLine
 62
7
  6
CONTINUOUS
 10
5.237603887
 20
3.8052674326
 11
5.237603887
 21
4.7092674326
  0
LINE
  5
2E3
100
AcDbEntity
  8
03__ASM_ALL_CURVES
100
AcDbLine
 62
40
  6
CONTINUOUS
 10
5.6340838862
 20
5.1054274329
 11
5.6297488862
 21
5.0996474328
  0
LINE
  5
2E4
100
AcDbEntity
  8
03__ASM_ALL_CURVES
100
AcDbLine
 62
40
  6
CONTINUOUS
 10
5.9071888862
 20
5.1343274312
 11
5.8985188862
 21
5.1285474326
  0
LINE
  5
2E5
100
AcDbEntity
  8
0
100
AcDbLine
 62
7
  6
CONTINUOUS
 10
4.671603887
 20
3.7192674326
 11
4.486603887
 21
3.7192674326
  0
LINE
  5
2E6
100
AcDbEntity
  8
THREAD
100
AcDbLine
 62
7
  6
CONTINUOUS
 10
4.721603887
 20
3.7427674326
 11
4.6984602934
 21
3.7427674326
  0
LINE
  5
2E7
100
AcDbEntity
  8
0
100
AcDbLine
 62
7
  6
CONTINUOUS
 10
4.791603887
 20
3.7452674326
 11
4.841603887
 21
3.7452674326
  0
LINE
  5
2E8
100
AcDbEntity
  8
THREAD
100
AcDbLine
 62
7
  6
CONTINUOUS
 10
5.193603887
 20
3.7612674326
 11
4.8845431972
 21
3.7612674326
  0
LINE
  5
2E9
100
AcDbEntity
  8
03__ASM_ALL_CURVES
100
AcDbLine
 62
40
  6
CONTINUOUS
 10
5.7718551521
 20
3.5382674326
 11
5.7783576521
 21
3.5339324336
  0
LINE
  5
2EA
100
AcDbEntity
  8
03__ASM_ALL_CURVES
100
AcDbLine
 62
40
  6
CONTINUOUS
 10
5.8758951521
 20
3.5382674326
 11
5.8823976521
 21
3.5339324336
  0
LINE
  5
2EB
100
AcDbEntity
  8
03__ASM_ALL_CURVES
100
AcDbLine
 62
40
  6
CONTINUOUS
 10
5.6824457634
 20
3.4154424327
 11
5.6791945134
 21
3.4197774329
  0
LINE
  5
2EC
100
AcDbEntity
  8
03__ASM_ALL_CURVES
100
AcDbLine
 62
40
  6
CONTINUOUS
 10
5.6499332634
 20
3.4587924336
 11
5.6564357634
 21
3.4501224326
  0
LINE
  5
2ED
100
AcDbEntity
  8
03__ASM_ALL_CURVES
100
AcDbLine
 62
40
  6
CONTINUOUS
 10
4.465488887
 20
5.0996474328
 11
4.469823887
 21
5.0938674326
  0
LINE
  5
2EE
100
AcDbEntity
  8
03__ASM_ALL_CURVES
100
AcDbLine
 62
40
  6
CONTINUOUS
 10
5.7068301521
 20
3.4905824327
 11
5.7003276521
 21
3.4992524326
  0
LINE
  5
2EF
100
AcDbEntity
  8
03__ASM_ALL_CURVES
100
AcDbLine
 62
40
  6
CONTINUOUS
 10
5.6743176521
 20
3.5339324336
 11
5.6775689021
 21
3.5295974316
  0
LINE
  5
2F0
100
AcDbEntity
  8
03__ASM_ALL_CURVES
100
AcDbLine
 62
40
  6
CONTINUOUS
 10
5.2872838862
 20
5.1285474326
 11
5.2872838862
 21
5.1054274329
  0
LINE
  5
2F1
100
AcDbEntity
  8
03__ASM_ALL_CURVES
100
AcDbLine
 62
40
  6
CONTINUOUS
 10
5.3913238862
 20
5.1516674312
 11
5.3913238862
 21
5.1458874326
  0
LINE
  5
2F2
100
AcDbEntity
  8
03__ASM_ALL_CURVES
100
AcDbLine
 62
40
  6
CONTINUOUS
 10
5.5213738862
 20
5.1285474326
 11
5.5257088862
 21
5.1458874326
  0
LINE
  5
2F3
100
AcDbEntity
  8
03__ASM_ALL_CURVES
100
AcDbLine
 62
40
  6
CONTINUOUS
 10
5.5733938862
 20
5.1285474326
 11
5.5690588862
 21
5.1112074326
  0
LINE
  5
2F4
100
AcDbEntity
  8
03__ASM_ALL_CURVES
100
AcDbLine
 62
40
  6
CONTINUOUS
 10
5.7728038862
 20
5.1112074326
 11
5.7641338862
 21
5.0996474328
  0
LINE
  5
2F5
100
AcDbEntity
  8
03__ASM_ALL_CURVES
100
AcDbLine
 62
40
  6
CONTINUOUS
 10
5.9115238862
 20
5.140107434
 11
5.9071888862
 21
5.1343274312
  0
LINE
  5
2F6
100
AcDbEntity
  8
THREAD
100
AcDbLine
 62
7
  6
CONTINUOUS
 10
4.8553870086
 20
3.7992674326
 11
4.841603887
 21
3.7992674326
  0
LINE
  5
2F7
100
AcDbEntity
  8
THREAD
100
AcDbLine
 62
7
  6
CONTINUOUS
 10
5.533603887
 20
3.8052674326
 11
5.237603887
 21
3.8052674326
  0
LINE
  5
2F8
100
AcDbEntity
  8
0
100
AcDbLine
 62
7
  6
CONTINUOUS
 10
6.283603887
 20
3.8207674326
 11
6.241603887
 21
3.8207674326
  0
LINE
  5
2F9
100
AcDbEntity
  8
0
100
AcDbLine
 62
7
  6
CONTINUOUS
 10
6.040103887
 20
3.8207674326
 11
5.990103887
 21
3.8207674326
  0
LINE
  5
2FA
100
AcDbEntity
  8
0
100
AcDbLine
 62
7
  6
CONTINUOUS
 10
6.043603887
 20
3.8212674326
 11
6.093603887
 21
3.8212674326
  0
LINE
  5
2FB
100
AcDbEntity
  8
0
100
AcDbLine
 62
7
  6
CONTINUOUS
 10
6.163603887
 20
3.8212674326
 11
6.213603887
 21
3.8212674326
  0
LINE
  5
2FC
100
AcDbEntity
  8
0
100
AcDbLine
 62
7
  6
CONTINUOUS
 10
6.213603887
 20
3.8752674326
 11
6.241603887
 21
3.8752674326
  0
LINE
  5
2FD
100
AcDbEntity
  8
0
100
AcDbLine
 62
7
  6
CONTINUOUS
 10
5.549603887
 20
3.8832674326
 11
5.814603887
 21
3.8832674326
  0
LINE
  5
2FE
100
AcDbEntity
  8
0
100
AcDbLine
 62
7
  6
CONTINUOUS
 10
5.970603887
 20
3.8832674326
 11
5.986603887
 21
3.8832674326
  0
LINE
  5
2FF
100
AcDbEntity
  8
03__ASM_ALL_CURVES
100
AcDbLine
 62
40
  6
CONTINUOUS
 10
5.7263376521
 20
3.5339324336
 11
5.7328401521
 21
3.5252624326
  0
LINE
  5
300
100
AcDbEntity
  8
03__ASM_ALL_CURVES
100
AcDbLine
 62
40
  6
CONTINUOUS
 10
4.552188887
 20
5.157447434
 11
4.556523887
 21
5.1516674312
  0
LINE
  5
301
100
AcDbEntity
  8
03__ASM_ALL_CURVES
100
AcDbLine
 62
40
  6
CONTINUOUS
 10
5.7783576521
 20
3.5339324336
 11
5.7816089021
 21
3.5295974316
  0
LINE
  5
302
100
AcDbEntity
  8
03__ASM_ALL_CURVES
100
AcDbLine
 62
40
  6
CONTINUOUS
 10
4.9925038862
 20
5.1632274326
 11
5.0141788862
 21
5.0938674326
  0
LINE
  5
303
100
AcDbEntity
  8
03__ASM_ALL_CURVES
100
AcDbLine
 62
40
  6
CONTINUOUS
 10
5.4260038862
 20
5.1169874333
 11
5.4260038862
 21
5.1054274329
  0
LINE
  5
304
100
AcDbEntity
  8
03__ASM_ALL_CURVES
100
AcDbLine
 62
40
  6
CONTINUOUS
 10
5.4606838862
 20
5.1632274326
 11
5.4606838862
 21
5.0938674326
  0
LINE
  5
305
100
AcDbEntity
  8
03__ASM_ALL_CURVES
100
AcDbLine
 62
40
  6
CONTINUOUS
 10
5.4953638862
 20
5.1632274326
 11
5.4953638862
 21
5.0938674326
  0
LINE
  5
306
100
AcDbEntity
  8
0
100
AcDbLine
 62
7
  6
CONTINUOUS
 10
5.533603887
 20
3.8052674326
 11
5.533603887
 21
4.7092674326
  0
LINE
  5
307
100
AcDbEntity
  8
0
100
AcDbLine
 62
7
  6
CONTINUOUS
 10
4.4311782611
 20
3.9164027421
 11
4.0332145582
 21
3.9164027421
  0
LINE
  5
308
100
AcDbEntity
  8
0
100
AcDbLine
 62
7
  6
CONTINUOUS
 10
4.4311782611
 20
3.9647468137
 11
4.0332145582
 21
3.9647468137
  0
LINE
  5
309
100
AcDbEntity
  8
03__ASM_ALL_CURVES
100
AcDbLine
 62
40
  6
CONTINUOUS
 10
3.984303887
 20
5.0938674326
 11
3.975633887
 21
5.0996474328
  0
LINE
  5
30A
100
AcDbEntity
  8
03__ASM_ALL_CURVES
100
AcDbLine
 62
40
  6
CONTINUOUS
 10
3.984303887
 20
5.1632274326
 11
3.992973887
 21
5.157447434
  0
LINE
  5
30B
100
AcDbEntity
  8
03__ASM_ALL_CURVES
100
AcDbLine
 62
40
  6
CONTINUOUS
 10
4.123023887
 20
5.0938674326
 11
4.114353887
 21
5.0996474328
  0
LINE
  5
30C
100
AcDbEntity
  8
03__ASM_ALL_CURVES
100
AcDbLine
 62
40
  6
CONTINUOUS
 10
5.8823976521
 20
3.5339324336
 11
5.8856489021
 21
3.5295974316
  0
LINE
  5
30D
100
AcDbEntity
  8
03__ASM_ALL_CURVES
100
AcDbLine
 62
40
  6
CONTINUOUS
 10
4.673568887
 20
5.1632274326
 11
4.682238887
 21
5.1516674312
  0
LINE
  5
30E
100
AcDbEntity
  8
03__ASM_ALL_CURVES
100
AcDbLine
 62
40
  6
CONTINUOUS
 10
4.8407788862
 20
5.0996474328
 11
4.8321088862
 21
5.1112074326
  0
LINE
  5
30F
100
AcDbEntity
  8
03__ASM_ALL_CURVES
100
AcDbLine
 62
40
  6
CONTINUOUS
 10
5.7718551521
 20
3.5122574326
 11
5.7816089021
 21
3.4862474326
  0
LINE
  5
310
100
AcDbEntity
  8
03__ASM_ALL_CURVES
100
AcDbLine
 62
40
  6
CONTINUOUS
 10
5.6239232634
 20
3.4241124326
 11
5.6206720134
 21
3.4371174326
  0
LINE
  5
311
100
AcDbEntity
  8
03__ASM_ALL_CURVES
100
AcDbLine
 62
40
  6
CONTINUOUS
 10
5.6564357634
 20
3.4501224326
 11
5.6596870134
 21
3.4371174326
  0
LINE
  5
312
100
AcDbEntity
  8
03__ASM_ALL_CURVES
100
AcDbLine
 62
40
  6
CONTINUOUS
 10
5.2482688862
 20
5.1112074326
 11
5.2439338862
 21
5.1285474326
  0
LINE
  5
313
100
AcDbEntity
  8
03__ASM_ALL_CURVES
100
AcDbLine
 62
40
  6
CONTINUOUS
 10
5.7003276521
 20
3.4992524326
 11
5.6970764021
 21
3.5122574326
  0
LINE
  5
314
100
AcDbEntity
  8
0
100
AcDbLine
 62
7
  6
CONTINUOUS
 10
5.549603887
 20
3.8212674326
 11
5.549603887
 21
4.6932674326
  0
LINE
  5
315
100
AcDbEntity
  8
03__ASM_ALL_CURVES
100
AcDbLine
 62
40
  6
CONTINUOUS
 10
5.5994038862
 20
5.1054274329
 11
5.5994038862
 21
5.1632274326
  0
LINE
  5
316
100
AcDbEntity
  8
03__ASM_ALL_CURVES
100
AcDbLine
 62
40
  6
CONTINUOUS
 10
5.6340838862
 20
5.1632274326
 11
5.6340838862
 21
5.1054274329
  0
LINE
  5
317
100
AcDbEntity
  8
03__ASM_ALL_CURVES
100
AcDbLine
 62
40
  6
CONTINUOUS
 10
5.6515589021
 20
3.4862474326
 11
5.6515589021
 21
3.5382674326
  0
LINE
  5
318
100
AcDbEntity
  8
03__ASM_ALL_CURVES
100
AcDbLine
 62
40
  6
CONTINUOUS
 10
5.6687638862
 20
5.1632274326
 11
5.6687638862
 21
5.0938674326
  0
LINE
  5
319
100
AcDbEntity
  8
03__ASM_ALL_CURVES
100
AcDbLine
 62
40
  6
CONTINUOUS
 10
5.6775689021
 20
3.5295974316
 11
5.6775689021
 21
3.5209274336
  0
LINE
  5
31A
100
AcDbEntity
  8
03__ASM_ALL_CURVES
100
AcDbLine
 62
40
  6
CONTINUOUS
 10
5.6791945134
 20
3.4197774329
 11
5.6791945134
 21
3.4631274326
  0
LINE
  5
31B
100
AcDbEntity
  8
03__ASM_ALL_CURVES
100
AcDbLine
 62
40
  6
CONTINUOUS
 10
5.7771388862
 20
5.1285474326
 11
5.7728038862
 21
5.1112074326
  0
LINE
  5
31C
100
AcDbEntity
  8
0
100
AcDbLine
 62
7
  6
CONTINUOUS
 10
5.990103887
 20
4.6937674326
 11
5.986603887
 21
4.6902674326
  0
LINE
  5
31D
100
AcDbEntity
  8
THREAD
100
AcDbLine
 62
7
  6
CONTINUOUS
 10
4.6959602934
 20
4.7724373056
 11
4.677103887
 21
4.7833240569
  0
LINE
  5
31E
100
AcDbEntity
  8
03__ASM_ALL_CURVES
100
AcDbLine
 62
40
  6
CONTINUOUS
 10
4.188048887
 20
5.0938674326
 11
4.179378887
 21
5.0996474328
  0
LINE
  5
31F
100
AcDbEntity
  8
03__ASM_ALL_CURVES
100
AcDbLine
 62
40
  6
CONTINUOUS
 10
4.123023887
 20
5.1632274326
 11
4.131693887
 21
5.157447434
  0
LINE
  5
320
100
AcDbEntity
  8
03__ASM_ALL_CURVES
100
AcDbLine
 62
40
  6
CONTINUOUS
 10
4.188048887
 20
5.1343274312
 11
4.179378887
 21
5.140107434
  0
LINE
  5
321
100
AcDbEntity
  8
03__ASM_ALL_CURVES
100
AcDbLine
 62
40
  6
CONTINUOUS
 10
4.196718887
 20
5.1343274312
 11
4.205388887
 21
5.1285474326
  0
LINE
  5
322
100
AcDbEntity
  8
03__ASM_ALL_CURVES
100
AcDbLine
 62
40
  6
CONTINUOUS
 10
4.196718887
 20
5.1632274326
 11
4.205388887
 21
5.157447434
  0
LINE
  5
323
100
AcDbEntity
  8
0
100
AcDbLine
 62
7
  6
CONTINUOUS
 10
5.990103887
 20
3.8207674326
 11
5.986603887
 21
3.8242674326
  0
LINE
  5
324
100
AcDbEntity
  8
03__ASM_ALL_CURVES
100
AcDbLine
 62
40
  6
CONTINUOUS
 10
4.9101388862
 20
5.0996474328
 11
4.9014688862
 21
5.1112074326
  0
LINE
  5
325
100
AcDbEntity
  8
03__ASM_ALL_CURVES
100
AcDbLine
 62
40
  6
CONTINUOUS
 10
4.8667888862
 20
5.157447434
 11
4.8754588862
 21
5.1458874326
  0
LINE
  5
326
100
AcDbEntity
  8
03__ASM_ALL_CURVES
100
AcDbLine
 62
40
  6
CONTINUOUS
 10
4.9361488862
 20
5.157447434
 11
4.9404838862
 21
5.1516674312
  0
LINE
  5
327
100
AcDbEntity
  8
03__ASM_ALL_CURVES
100
AcDbLine
 62
40
  6
CONTINUOUS
 10
5.1832438862
 20
5.1632274326
 11
5.2179238862
 21
5.0938674326
  0
LINE
  5
328
100
AcDbEntity
  8
03__ASM_ALL_CURVES
100
AcDbLine
 62
40
  6
CONTINUOUS
 10
5.7328401521
 20
3.5252624326
 11
5.7360914021
 21
3.5122574326
  0
LINE
  5
329
100
AcDbEntity
  8
03__ASM_ALL_CURVES
100
AcDbLine
 62
40
  6
CONTINUOUS
 10
5.7052045134
 20
3.4631274326
 11
5.7052045134
 21
3.4197774329
  0
LINE
  5
32A
100
AcDbEntity
  8
03__ASM_ALL_CURVES
100
AcDbLine
 62
40
  6
CONTINUOUS
 10
5.7381238862
 20
5.0938674326
 11
5.7381238862
 21
5.1632274326
  0
LINE
  5
32B
100
AcDbEntity
  8
03__ASM_ALL_CURVES
100
AcDbLine
 62
40
  6
CONTINUOUS
 10
5.7442195134
 20
3.4631274326
 11
5.7442195134
 21
3.4111074326
  0
LINE
  5
32C
100
AcDbEntity
  8
03__ASM_ALL_CURVES
100
AcDbLine
 62
40
  6
CONTINUOUS
 10
5.7555989021
 20
3.4862474326
 11
5.7555989021
 21
3.5382674326
  0
LINE
  5
32D
100
AcDbEntity
  8
03__ASM_ALL_CURVES
100
AcDbLine
 62
40
  6
CONTINUOUS
 10
5.7816089021
 20
3.5295974316
 11
5.7816089021
 21
3.5209274336
  0
LINE
  5
32E
100
AcDbEntity
  8
03__ASM_ALL_CURVES
100
AcDbLine
 62
40
  6
CONTINUOUS
 10
5.7832345134
 20
3.4631274326
 11
5.7832345134
 21
3.4111074326
  0
LINE
  5
32F
100
AcDbEntity
  8
03__ASM_ALL_CURVES
100
AcDbLine
 62
40
  6
CONTINUOUS
 10
5.8074838862
 20
5.0938674326
 11
5.8074838862
 21
5.1632274326
  0
LINE
  5
330
100
AcDbEntity
  8
THREAD
100
AcDbLine
 62
7
  6
CONTINUOUS
 10
5.237603887
 20
3.8052674326
 11
5.193603887
 21
3.7612674326
  0
LINE
  5
331
100
AcDbEntity
  8
THREAD
100
AcDbLine
 62
7
  6
CONTINUOUS
 10
4.6959602934
 20
3.7420975596
 11
4.677103887
 21
3.7312108083
  0
LINE
  5
332
100
AcDbEntity
  8
03__ASM_ALL_CURVES
100
AcDbLine
 62
40
  6
CONTINUOUS
 10
7.5804963872
 20
4.1936874326
 11
7.5544863872
 21
4.1936874326
  0
LINE
  5
333
100
AcDbEntity
  8
03__ASM_ALL_CURVES
100
AcDbLine
 62
40
  6
CONTINUOUS
 10
7.2586226372
 20
4.1936874326
 11
7.2521201372
 21
4.1936874326
  0
LINE
  5
334
100
AcDbEntity
  8
03__ASM_ALL_CURVES
100
AcDbLine
 62
40
  6
CONTINUOUS
 10
7.0472913872
 20
4.1936874326
 11
7.0342863872
 21
4.1936874326
  0
LINE
  5
335
100
AcDbEntity
  8
03__ASM_ALL_CURVES
100
AcDbLine
 62
40
  6
CONTINUOUS
 10
7.0082763872
 20
4.1936874326
 11
6.9822663872
 21
4.1936874326
  0
LINE
  5
336
100
AcDbEntity
  8
03__ASM_ALL_CURVES
100
AcDbLine
 62
40
  6
CONTINUOUS
 10
6.8424626372
 20
4.1936874326
 11
6.8359601372
 21
4.1936874326
  0
LINE
  5
337
100
AcDbEntity
  8
03__ASM_ALL_CURVES
100
AcDbLine
 62
40
  6
CONTINUOUS
 10
6.6343826372
 20
4.1936874326
 11
6.6278801372
 21
4.1936874326
  0
LINE
  5
338
100
AcDbEntity
  8
03__ASM_ALL_CURVES
100
AcDbLine
 62
40
  6
CONTINUOUS
 10
6.5823626372
 20
4.1936874326
 11
6.5758601372
 21
4.1936874326
  0
LINE
  5
339
100
AcDbEntity
  8
03__ASM_ALL_CURVES
100
AcDbLine
 62
40
  6
CONTINUOUS
 10
6.8782263872
 20
4.1936874326
 11
6.9042363872
 21
4.1936874326
  0
LINE
  5
33A
100
AcDbEntity
  8
03__ASM_ALL_CURVES
100
AcDbLine
 62
40
  6
CONTINUOUS
 10
6.9302463872
 20
4.1936874326
 11
6.9562563872
 21
4.1936874326
  0
LINE
  5
33B
100
AcDbEntity
  8
03__ASM_ALL_CURVES
100
AcDbLine
 62
40
  6
CONTINUOUS
 10
7.1903463872
 20
4.1936874326
 11
7.2163563872
 21
4.1936874326
  0
LINE
  5
33C
100
AcDbEntity
  8
03__ASM_ALL_CURVES
100
AcDbLine
 62
40
  6
CONTINUOUS
 10
7.5024663872
 20
4.1936874326
 11
7.5284763872
 21
4.1936874326
  0
LINE
  5
33D
100
AcDbEntity
  8
03__ASM_ALL_CURVES
100
AcDbLine
 62
40
  6
CONTINUOUS
 10
6.7904426372
 20
4.2196974326
 11
6.7741863872
 21
4.2196974326
  0
LINE
  5
33E
100
AcDbEntity
  8
03__ASM_ALL_CURVES
100
AcDbLine
 62
40
  6
CONTINUOUS
 10
6.9822663872
 20
4.2196974326
 11
6.9985226372
 21
4.2196974326
  0
LINE
  5
33F
100
AcDbEntity
  8
03__ASM_ALL_CURVES
100
AcDbLine
 62
40
  6
CONTINUOUS
 10
7.1383263872
 20
4.2196974326
 11
7.1545826372
 21
4.2196974326
  0
LINE
  5
340
100
AcDbEntity
  8
03__ASM_ALL_CURVES
100
AcDbLine
 62
40
  6
CONTINUOUS
 10
7.5544863872
 20
4.2196974326
 11
7.5707426372
 21
4.2196974326
  0
LINE
  5
341
100
AcDbEntity
  8
03__ASM_ALL_CURVES
100
AcDbLine
 62
40
  6
CONTINUOUS
 10
6.5758601372
 20
4.2457074326
 11
6.5823626372
 21
4.2457074326
  0
LINE
  5
342
100
AcDbEntity
  8
03__ASM_ALL_CURVES
100
AcDbLine
 62
40
  6
CONTINUOUS
 10
6.6278801372
 20
4.2457074326
 11
6.6343826372
 21
4.2457074326
  0
LINE
  5
343
100
AcDbEntity
  8
03__ASM_ALL_CURVES
100
AcDbLine
 62
40
  6
CONTINUOUS
 10
6.7189151372
 20
4.2457074326
 11
6.7514276372
 21
4.2457074326
  0
LINE
  5
344
100
AcDbEntity
  8
03__ASM_ALL_CURVES
100
AcDbLine
 62
40
  6
CONTINUOUS
 10
6.7741863872
 20
4.2457074326
 11
6.7904426372
 21
4.2457074326
  0
LINE
  5
345
100
AcDbEntity
  8
03__ASM_ALL_CURVES
100
AcDbLine
 62
40
  6
CONTINUOUS
 10
6.8359601372
 20
4.2457074326
 11
6.8424626372
 21
4.2457074326
  0
LINE
  5
346
100
AcDbEntity
  8
03__ASM_ALL_CURVES
100
AcDbLine
 62
40
  6
CONTINUOUS
 10
6.9822663872
 20
4.2457074326
 11
7.0082763872
 21
4.2457074326
  0
LINE
  5
347
100
AcDbEntity
  8
03__ASM_ALL_CURVES
100
AcDbLine
 62
40
  6
CONTINUOUS
 10
7.0342863872
 20
4.2457074326
 11
7.0472913872
 21
4.2457074326
  0
LINE
  5
348
100
AcDbEntity
  8
03__ASM_ALL_CURVES
100
AcDbLine
 62
40
  6
CONTINUOUS
 10
7.1383263872
 20
4.2457074326
 11
7.1643363872
 21
4.2457074326
  0
LINE
  5
349
100
AcDbEntity
  8
03__ASM_ALL_CURVES
100
AcDbLine
 62
40
  6
CONTINUOUS
 10
7.2521201372
 20
4.2457074326
 11
7.2586226372
 21
4.2457074326
  0
LINE
  5
34A
100
AcDbEntity
  8
03__ASM_ALL_CURVES
100
AcDbLine
 62
40
  6
CONTINUOUS
 10
7.5544863872
 20
4.2457074326
 11
7.5804963872
 21
4.2457074326
  0
LINE
  5
34B
100
AcDbEntity
  8
03__ASM_ALL_CURVES
100
AcDbLine
 62
40
  6
CONTINUOUS
 10
7.6032551372
 20
4.2457074326
 11
7.6357676372
 21
4.2457074326
  0
LINE
  5
34C
100
AcDbEntity
  8
03__ASM_ALL_CURVES
100
AcDbLine
 62
40
  6
CONTINUOUS
 10
6.6278801374
 20
4.2688274326
 11
6.6213776374
 21
4.2688274326
  0
LINE
  5
34D
100
AcDbEntity
  8
03__ASM_ALL_CURVES
100
AcDbLine
 62
40
  6
CONTINUOUS
 10
6.6799001374
 20
4.2948374326
 11
6.6636438874
 21
4.2948374326
  0
LINE
  5
34E
100
AcDbEntity
  8
03__ASM_ALL_CURVES
100
AcDbLine
 62
40
  6
CONTINUOUS
 10
6.5758601374
 20
4.2948374326
 11
6.5596038874
 21
4.2948374326
  0
LINE
  5
34F
100
AcDbEntity
  8
THREAD
100
AcDbLine
 62
7
  6
CONTINUOUS
 10
5.237603887
 20
4.7092674326
 11
5.193603887
 21
4.7532674326
  0
LINE
  5
350
100
AcDbEntity
  8
03__ASM_ALL_CURVES
100
AcDbLine
 62
40
  6
CONTINUOUS
 10
5.5257088862
 20
5.1112074326
 11
5.5213738862
 21
5.1285474326
  0
LINE
  5
351
100
AcDbEntity
  8
03__ASM_ALL_CURVES
100
AcDbLine
 62
40
  6
CONTINUOUS
 10
5.5690588862
 20
5.1458874326
 11
5.5733938862
 21
5.1285474326
  0
LINE
  5
352
100
AcDbEntity
  8
03__ASM_ALL_CURVES
100
AcDbLine
 62
40
  6
CONTINUOUS
 10
5.8206239021
 20
3.5382674326
 11
5.8206239021
 21
3.4862474326
  0
LINE
  5
353
100
AcDbEntity
  8
03__ASM_ALL_CURVES
100
AcDbLine
 62
40
  6
CONTINUOUS
 10
5.8352545134
 20
3.4111074326
 11
5.8352545134
 21
3.4631274326
  0
LINE
  5
354
100
AcDbEntity
  8
03__ASM_ALL_CURVES
100
AcDbLine
 62
40
  6
CONTINUOUS
 10
5.8768438862
 20
5.0938674326
 11
5.8768438862
 21
5.1632274326
  0
LINE
  5
355
100
AcDbEntity
  8
03__ASM_ALL_CURVES
100
AcDbLine
 62
40
  6
CONTINUOUS
 10
5.8856489021
 20
3.5295974316
 11
5.8856489021
 21
3.5209274336
  0
LINE
  5
356
100
AcDbEntity
  8
03__ASM_ALL_CURVES
100
AcDbLine
 62
40
  6
CONTINUOUS
 10
5.9002795134
 20
3.4631274326
 11
5.9002795134
 21
3.4111074326
  0
LINE
  5
357
100
AcDbEntity
  8
03__ASM_ALL_CURVES
100
AcDbLine
 62
40
  6
CONTINUOUS
 10
5.9115238862
 20
5.1516674312
 11
5.9115238862
 21
5.140107434
  0
LINE
  5
358
100
AcDbEntity
  8
0
100
AcDbLine
 62
7
  6
CONTINUOUS
 10
5.924603887
 20
4.1863571061
 11
5.924603887
 21
4.3281736152
  0
LINE
  5
359
100
AcDbEntity
  8
03__ASM_ALL_CURVES
100
AcDbLine
 62
40
  6
CONTINUOUS
 10
5.6206720134
 20
3.4371174326
 11
5.6239232634
 21
3.4501224326
  0
LINE
  5
35A
100
AcDbEntity
  8
03__ASM_ALL_CURVES
100
AcDbLine
 62
40
  6
CONTINUOUS
 10
5.6596870134
 20
3.4371174326
 11
5.6564357634
 21
3.4241124326
  0
LINE
  5
35B
100
AcDbEntity
  8
03__ASM_ALL_CURVES
100
AcDbLine
 62
40
  6
CONTINUOUS
 10
5.6970764021
 20
3.5122574326
 11
5.7003276521
 21
3.5252624326
  0
LINE
  5
35C
100
AcDbEntity
  8
03__ASM_ALL_CURVES
100
AcDbLine
 62
40
  6
CONTINUOUS
 10
5.7360914021
 20
3.5122574326
 11
5.7328401521
 21
3.4992524326
  0
LINE
  5
35D
100
AcDbEntity
  8
0
100
AcDbLine
 62
7
  6
CONTINUOUS
 10
5.549603887
 20
3.8212674326
 11
5.533603887
 21
3.8052674326
  0
LINE
  5
35E
100
AcDbEntity
  8
03__ASM_ALL_CURVES
100
AcDbLine
 62
40
  6
CONTINUOUS
 10
6.5596038874
 20
4.3208474326
 11
6.5758601374
 21
4.3208474326
  0
LINE
  5
35F
100
AcDbEntity
  8
03__ASM_ALL_CURVES
100
AcDbLine
 62
40
  6
CONTINUOUS
 10
6.6213776374
 20
4.3208474326
 11
6.6278801374
 21
4.3208474326
  0
LINE
  5
360
100
AcDbEntity
  8
03__ASM_ALL_CURVES
100
AcDbLine
 62
40
  6
CONTINUOUS
 10
6.6636438874
 20
4.3208474326
 11
6.6799001374
 21
4.3208474326
  0
LINE
  5
361
100
AcDbEntity
  8
03__ASM_ALL_CURVES
100
AcDbLine
 62
40
  6
CONTINUOUS
 10
6.7124126374
 20
4.3208474326
 11
6.7449251374
 21
4.3208474326
  0
LINE
  5
362
100
AcDbEntity
  8
03__ASM_ALL_CURVES
100
AcDbLine
 62
40
  6
CONTINUOUS
 10
4.123023887
 20
5.1343274312
 11
4.136028887
 21
5.1285474326
  0
LINE
  5
363
100
AcDbEntity
  8
03__ASM_ALL_CURVES
100
AcDbLine
 62
40
  6
CONTINUOUS
 10
4.543518887
 20
5.1632274326
 11
4.552188887
 21
5.157447434
  0
LINE
  5
364
100
AcDbEntity
  8
03__ASM_ALL_CURVES
100
AcDbLine
 62
40
  6
CONTINUOUS
 10
4.8494488862
 20
5.0938674326
 11
4.8407788862
 21
5.0996474328
  0
LINE
  5
365
100
AcDbEntity
  8
0
100
AcDbLine
 62
7
  6
CONTINUOUS
 10
5.549603887
 20
4.6932674326
 11
5.533603887
 21
4.7092674326
  0
LINE
  5
366
100
AcDbEntity
  8
03__ASM_ALL_CURVES
100
AcDbLine
 62
40
  6
CONTINUOUS
 10
5.2569388862
 20
5.0996474328
 11
5.2482688862
 21
5.1112074326
  0
LINE
  5
367
100
AcDbEntity
  8
03__ASM_ALL_CURVES
100
AcDbLine
 62
40
  6
CONTINUOUS
 10
5.2829488862
 20
5.157447434
 11
5.2872838862
 21
5.1516674312
  0
LINE
  5
368
100
AcDbEntity
  8
0
100
AcDbLine
 62
7
  6
CONTINUOUS
 10
5.986603887
 20
3.8242674326
 11
5.986603887
 21
4.6902674326
  0
LINE
  5
369
100
AcDbEntity
  8
0
100
AcDbLine
 62
7
  6
CONTINUOUS
 10
5.990103887
 20
3.8207674326
 11
5.990103887
 21
4.6937674326
  0
LINE
  5
36A
100
AcDbEntity
  8
0
100
AcDbLine
 62
7
  6
CONTINUOUS
 10
6.040103887
 20
3.8207674326
 11
6.040103887
 21
4.6937674326
  0
LINE
  5
36B
100
AcDbEntity
  8
0
100
AcDbLine
 62
7
  6
CONTINUOUS
 10
6.043603887
 20
3.8212680955
 11
6.043603887
 21
4.6932667697
  0
LINE
  5
36C
100
AcDbEntity
  8
03__ASM_ALL_CURVES
100
AcDbLine
 62
40
  6
CONTINUOUS
 10
5.8628901521
 20
3.4992524326
 11
5.8596389021
 21
3.4862474326
  0
LINE
  5
36D
100
AcDbEntity
  8
0
100
AcDbLine
 62
7
  6
CONTINUOUS
 10
4.4311782611
 20
4.5497880515
 11
4.0332145582
 21
4.5497880515
  0
LINE
  5
36E
100
AcDbEntity
  8
03__ASM_ALL_CURVES
100
AcDbLine
 62
40
  6
CONTINUOUS
 10
4.9188088862
 20
5.0938674326
 11
4.9101388862
 21
5.0996474328
  0
LINE
  5
36F
100
AcDbEntity
  8
03__ASM_ALL_CURVES
100
AcDbLine
 62
40
  6
CONTINUOUS
 10
4.8581188862
 20
5.1632274326
 11
4.8667888862
 21
5.157447434
  0
LINE
  5
370
100
AcDbEntity
  8
03__ASM_ALL_CURVES
100
AcDbLine
 62
40
  6
CONTINUOUS
 10
4.9274788862
 20
5.1632274326
 11
4.9361488862
 21
5.157447434
  0
LINE
  5
371
100
AcDbEntity
  8
03__ASM_ALL_CURVES
100
AcDbLine
 62
40
  6
CONTINUOUS
 10
5.3956588862
 20
5.0996474328
 11
5.3869888862
 21
5.1112074326
  0
LINE
  5
372
100
AcDbEntity
  8
03__ASM_ALL_CURVES
100
AcDbLine
 62
40
  6
CONTINUOUS
 10
5.3913238862
 20
5.1458874326
 11
5.3956588862
 21
5.140107434
  0
LINE
  5
373
100
AcDbEntity
  8
03__ASM_ALL_CURVES
100
AcDbLine
 62
40
  6
CONTINUOUS
 10
5.4216688862
 20
5.1227674319
 11
5.4260038862
 21
5.1169874333
  0
LINE
  5
374
100
AcDbEntity
  8
03__ASM_ALL_CURVES
100
AcDbLine
 62
40
  6
CONTINUOUS
 10
5.4260038862
 20
5.1516674312
 11
5.4216688862
 21
5.157447434
  0
LINE
  5
375
100
AcDbEntity
  8
03__ASM_ALL_CURVES
100
AcDbLine
 62
40
  6
CONTINUOUS
 10
5.5343788862
 20
5.0996474328
 11
5.5257088862
 21
5.1112074326
  0
LINE
  5
376
100
AcDbEntity
  8
03__ASM_ALL_CURVES
100
AcDbLine
 62
40
  6
CONTINUOUS
 10
5.7728038862
 20
5.1458874326
 11
5.7771388862
 21
5.1285474326
  0
LINE
  5
377
100
AcDbEntity
  8
0
100
AcDbLine
 62
7
  6
CONTINUOUS
 10
6.093603887
 20
3.8212680955
 11
6.093603887
 21
4.6932667697
  0
LINE
  5
378
100
AcDbEntity
  8
0
100
AcDbLine
 62
7
  6
CONTINUOUS
 10
6.163603887
 20
3.8212680955
 11
6.163603887
 21
4.6932667697
  0
LINE
  5
379
100
AcDbEntity
  8
0
100
AcDbLine
 62
7
  6
CONTINUOUS
 10
6.213603887
 20
3.8212680955
 11
6.213603887
 21
4.6932667697
  0
LINE
  5
37A
100
AcDbEntity
  8
03__ASM_ALL_CURVES
100
AcDbLine
 62
40
  6
CONTINUOUS
 10
5.6239232634
 20
3.4501224326
 11
5.6304257634
 21
3.4587924336
  0
LINE
  5
37B
100
AcDbEntity
  8
03__ASM_ALL_CURVES
100
AcDbLine
 62
40
  6
CONTINUOUS
 10
5.6775689021
 20
3.5209274336
 11
5.6743176521
 21
3.5165924316
  0
LINE
  5
37C
100
AcDbEntity
  8
03__ASM_ALL_CURVES
100
AcDbLine
 62
40
  6
CONTINUOUS
 10
5.7003276521
 20
3.5252624326
 11
5.7068301521
 21
3.5339324336
  0
LINE
  5
37D
100
AcDbEntity
  8
03__ASM_ALL_CURVES
100
AcDbLine
 62
40
  6
CONTINUOUS
 10
5.6564357634
 20
3.4241124326
 11
5.6499332634
 21
3.4154424327
  0
LINE
  5
37E
100
AcDbEntity
  8
03__ASM_ALL_CURVES
100
AcDbLine
 62
40
  6
CONTINUOUS
 10
5.7328401521
 20
3.4992524326
 11
5.7263376521
 21
3.4905824327
  0
LINE
  5
37F
100
AcDbEntity
  8
03__ASM_ALL_CURVES
100
AcDbLine
 62
40
  6
CONTINUOUS
 10
6.5823626374
 20
4.2991724316
 11
6.5758601374
 21
4.2948374326
  0
LINE
  5
380
100
AcDbEntity
  8
0
100
AcDbLine
 62
7
  6
CONTINUOUS
 10
4.4311782611
 20
4.5981321231
 11
4.0332145582
 21
4.5981321231
  0
LINE
  5
381
100
AcDbEntity
  8
0
100
AcDbLine
 62
7
  6
CONTINUOUS
 10
5.549603887
 20
4.6312674326
 11
5.814603887
 21
4.6312674326
  0
LINE
  5
382
100
AcDbEntity
  8
0
100
AcDbLine
 62
7
  6
CONTINUOUS
 10
5.970603887
 20
4.6312674326
 11
5.986603887
 21
4.6312674326
  0
LINE
  5
383
100
AcDbEntity
  8
0
100
AcDbLine
 62
7
  6
CONTINUOUS
 10
6.213603887
 20
4.6392674326
 11
6.241603887
 21
4.6392674326
  0
LINE
  5
384
100
AcDbEntity
  8
0
100
AcDbLine
 62
7
  6
CONTINUOUS
 10
6.043603887
 20
4.6932674326
 11
6.093603887
 21
4.6932674326
  0
LINE
  5
385
100
AcDbEntity
  8
0
100
AcDbLine
 62
7
  6
CONTINUOUS
 10
6.163603887
 20
4.6932674326
 11
6.213603887
 21
4.6932674326
  0
LINE
  5
386
100
AcDbEntity
  8
0
100
AcDbLine
 62
7
  6
CONTINUOUS
 10
6.283603887
 20
4.6937674326
 11
6.241603887
 21
4.6937674326
  0
LINE
  5
387
100
AcDbEntity
  8
0
100
AcDbLine
 62
7
  6
CONTINUOUS
 10
6.040103887
 20
4.6937674326
 11
5.990103887
 21
4.6937674326
  0
LINE
  5
388
100
AcDbEntity
  8
THREAD
100
AcDbLine
 62
7
  6
CONTINUOUS
 10
5.533603887
 20
4.7092674326
 11
5.237603887
 21
4.7092674326
  0
LINE
  5
389
100
AcDbEntity
  8
03__ASM_ALL_CURVES
100
AcDbLine
 62
40
  6
CONTINUOUS
 10
6.5758601372
 20
4.1936874326
 11
6.5693576372
 21
4.1980224327
  0
LINE
  5
38A
100
AcDbEntity
  8
03__ASM_ALL_CURVES
100
AcDbLine
 62
40
  6
CONTINUOUS
 10
5.2656088862
 20
5.0938674326
 11
5.2569388862
 21
5.0996474328
  0
LINE
  5
38B
100
AcDbEntity
  8
03__ASM_ALL_CURVES
100
AcDbLine
 62
40
  6
CONTINUOUS
 10
6.6278801372
 20
4.1936874326
 11
6.6213776372
 21
4.1980224327
  0
LINE
  5
38C
100
AcDbEntity
  8
03__ASM_ALL_CURVES
100
AcDbLine
 62
40
  6
CONTINUOUS
 10
6.5823626372
 20
4.2457074326
 11
6.5888651372
 21
4.2413724336
  0
LINE
  5
38D
100
AcDbEntity
  8
03__ASM_ALL_CURVES
100
AcDbLine
 62
40
  6
CONTINUOUS
 10
5.6037388862
 20
5.0996474328
 11
5.5994038862
 21
5.1054274329
  0
LINE
  5
38E
100
AcDbEntity
  8
03__ASM_ALL_CURVES
100
AcDbLine
 62
40
  6
CONTINUOUS
 10
5.5603888862
 20
5.157447434
 11
5.5690588862
 21
5.1458874326
  0
LINE
  5
38F
100
AcDbEntity
  8
03__ASM_ALL_CURVES
100
AcDbLine
 62
40
  6
CONTINUOUS
 10
5.8985188862
 20
5.1285474326
 11
5.9115238862
 21
5.0938674326
  0
LINE
  5
390
100
AcDbEntity
  8
0
100
AcDbLine
 62
7
  6
CONTINUOUS
 10
6.241603887
 20
3.8207674326
 11
6.241603887
 21
4.6937674326
  0
LINE
  5
391
100
AcDbEntity
  8
0
100
AcDbLine
 62
7
  6
CONTINUOUS
 10
6.283603887
 20
3.8207674326
 11
6.283603887
 21
4.6937674326
  0
LINE
  5
392
100
AcDbEntity
  8
0
100
AcDbLine
 62
7
  6
CONTINUOUS
 10
6.299603887
 20
3.8367674326
 11
6.299603887
 21
4.6777674326
  0
LINE
  5
393
100
AcDbEntity
  8
03__ASM_ALL_CURVES
100
AcDbLine
 62
40
  6
CONTINUOUS
 10
5.7052045134
 20
3.4197774329
 11
5.7019532634
 21
3.4154424327
  0
LINE
  5
394
100
AcDbEntity
  8
03__ASM_ALL_CURVES
100
AcDbLine
 62
40
  6
CONTINUOUS
 10
5.7816089021
 20
3.5209274336
 11
5.7783576521
 21
3.5165924316
  0
LINE
  5
395
100
AcDbEntity
  8
03__ASM_ALL_CURVES
100
AcDbLine
 62
40
  6
CONTINUOUS
 10
5.8596389021
 20
3.5295974316
 11
5.8628901521
 21
3.5339324336
  0
LINE
  5
396
100
AcDbEntity
  8
03__ASM_ALL_CURVES
100
AcDbLine
 62
40
  6
CONTINUOUS
 10
5.8693926521
 20
3.5079224321
 11
5.8628901521
 21
3.4992524326
  0
LINE
  5
397
100
AcDbEntity
  8
03__ASM_ALL_CURVES
100
AcDbLine
 62
40
  6
CONTINUOUS
 10
5.8856489021
 20
3.5209274336
 11
5.8823976521
 21
3.5165924316
  0
LINE
  5
398
100
AcDbEntity
  8
0
100
AcDbLine
 62
7
  6
CONTINUOUS
 10
6.043603887
 20
3.8242674326
 11
6.040103887
 21
3.8207674326
  0
LINE
  5
399
100
AcDbEntity
  8
03__ASM_ALL_CURVES
100
AcDbLine
 62
40
  6
CONTINUOUS
 10
6.6148751374
 20
4.3165124336
 11
6.6213776374
 21
4.3208474326
  0
LINE
  5
39A
100
AcDbEntity
  8
03__ASM_ALL_CURVES
100
AcDbLine
 62
40
  6
CONTINUOUS
 10
6.5693576372
 20
4.2413724336
 11
6.5758601372
 21
4.2457074326
  0
LINE
  5
39B
100
AcDbEntity
  8
03__ASM_ALL_CURVES
100
AcDbLine
 62
40
  6
CONTINUOUS
 10
6.6343826374
 20
4.2731624327
 11
6.6278801374
 21
4.2688274326
  0
LINE
  5
39C
100
AcDbEntity
  8
03__ASM_ALL_CURVES
100
AcDbLine
 62
40
  6
CONTINUOUS
 10
6.6864026374
 20
4.2991724316
 11
6.6799001374
 21
4.2948374326
  0
LINE
  5
39D
100
AcDbEntity
  8
03__ASM_ALL_CURVES
100
AcDbLine
 62
40
  6
CONTINUOUS
 10
6.6213776372
 20
4.2413724336
 11
6.6278801372
 21
4.2457074326
  0
LINE
  5
39E
100
AcDbEntity
  8
03__ASM_ALL_CURVES
100
AcDbLine
 62
40
  6
CONTINUOUS
 10
6.5888651372
 20
4.1980224327
 11
6.5823626372
 21
4.1936874326
  0
LINE
  5
39F
100
AcDbEntity
  8
03__ASM_ALL_CURVES
100
AcDbLine
 62
40
  6
CONTINUOUS
 10
6.6408851372
 20
4.1980224327
 11
6.6343826372
 21
4.1936874326
  0
LINE
  5
3A0
100
AcDbEntity
  8
THREAD
100
AcDbLine
 62
7
  6
CONTINUOUS
 10
4.8553870086
 20
4.7152674326
 11
4.841603887
 21
4.7152674326
  0
LINE
  5
3A1
100
AcDbEntity
  8
THREAD
100
AcDbLine
 62
7
  6
CONTINUOUS
 10
5.193603887
 20
4.7532674326
 11
4.8845431972
 21
4.7532674326
  0
LINE
  5
3A2
100
AcDbEntity
  8
0
100
AcDbLine
 62
7
  6
CONTINUOUS
 10
4.791603887
 20
4.7692674326
 11
4.841603887
 21
4.7692674326
  0
LINE
  5
3A3
100
AcDbEntity
  8
THREAD
100
AcDbLine
 62
7
  6
CONTINUOUS
 10
4.721603887
 20
4.7717674326
 11
4.6984602934
 21
4.7717674326
  0
LINE
  5
3A4
100
AcDbEntity
  8
0
100
AcDbLine
 62
7
  6
CONTINUOUS
 10
4.671603887
 20
4.7952674326
 11
4.486603887
 21
4.7952674326
  0
LINE
  5
3A5
100
AcDbEntity
  8
03__ASM_ALL_CURVES
100
AcDbLine
 62
40
  6
CONTINUOUS
 10
4.056963887
 20
5.0611140993
 11
3.987603887
 21
5.0707474326
  0
LINE
  5
3A6
100
AcDbEntity
  8
03__ASM_ALL_CURVES
100
AcDbLine
 62
40
  6
CONTINUOUS
 10
4.056963887
 20
5.0591874326
 11
3.987603887
 21
5.0707474326
  0
LINE
  5
3A7
100
AcDbEntity
  8
03__ASM_ALL_CURVES
100
AcDbLine
 62
40
  6
CONTINUOUS
 10
6.6343826372
 20
4.2457074326
 11
6.6408851372
 21
4.2413724336
  0
LINE
  5
3A8
100
AcDbEntity
  8
03__ASM_ALL_CURVES
100
AcDbLine
 62
40
  6
CONTINUOUS
 10
5.2742788862
 20
5.1632274326
 11
5.2829488862
 21
5.157447434
  0
LINE
  5
3A9
100
AcDbEntity
  8
03__ASM_ALL_CURVES
100
AcDbLine
 62
40
  6
CONTINUOUS
 10
6.6213776374
 20
4.2688274326
 11
6.6148751374
 21
4.2731624327
  0
LINE
  5
3AA
100
AcDbEntity
  8
03__ASM_ALL_CURVES
100
AcDbLine
 62
40
  6
CONTINUOUS
 10
5.4043288862
 20
5.0938674326
 11
5.3956588862
 21
5.0996474328
  0
LINE
  5
3AB
100
AcDbEntity
  8
03__ASM_ALL_CURVES
100
AcDbLine
 62
40
  6
CONTINUOUS
 10
6.5758601374
 20
4.3208474326
 11
6.5823626374
 21
4.3165124336
  0
LINE
  5
3AC
100
AcDbEntity
  8
03__ASM_ALL_CURVES
100
AcDbLine
 62
40
  6
CONTINUOUS
 10
5.3956588862
 20
5.140107434
 11
5.4216688862
 21
5.1227674319
  0
LINE
  5
3AD
100
AcDbEntity
  8
03__ASM_ALL_CURVES
100
AcDbLine
 62
40
  6
CONTINUOUS
 10
6.6278801374
 20
4.3208474326
 11
6.6343826374
 21
4.3165124336
  0
LINE
  5
3AE
100
AcDbEntity
  8
03__ASM_ALL_CURVES
100
AcDbLine
 62
40
  6
CONTINUOUS
 10
6.8359601372
 20
4.1936874326
 11
6.8294576372
 21
4.1980224327
  0
LINE
  5
3AF
100
AcDbEntity
  8
03__ASM_ALL_CURVES
100
AcDbLine
 62
40
  6
CONTINUOUS
 10
5.4216688862
 20
5.157447434
 11
5.4129988862
 21
5.1632274326
  0
LINE
  5
3B0
100
AcDbEntity
  8
03__ASM_ALL_CURVES
100
AcDbLine
 62
40
  6
CONTINUOUS
 10
6.7904426372
 20
4.2457074326
 11
6.7969451372
 21
4.2413724336
  0
LINE
  5
3B1
100
AcDbEntity
  8
03__ASM_ALL_CURVES
100
AcDbLine
 62
40
  6
CONTINUOUS
 10
6.6799001374
 20
4.3208474326
 11
6.6864026374
 21
4.3165124336
  0
LINE
  5
3B2
100
AcDbEntity
  8
03__ASM_ALL_CURVES
100
AcDbLine
 62
40
  6
CONTINUOUS
 10
5.5430488862
 20
5.0938674326
 11
5.5343788862
 21
5.0996474328
  0
LINE
  5
3B3
100
AcDbEntity
  8
03__ASM_ALL_CURVES
100
AcDbLine
 62
40
  6
CONTINUOUS
 10
6.8424626372
 20
4.2457074326
 11
6.8489651372
 21
4.2413724336
  0
LINE
  5
3B4
100
AcDbEntity
  8
0
100
AcDbLine
 62
7
  6
CONTINUOUS
 10
6.043603887
 20
4.6902674326
 11
6.040103887
 21
4.6937674326
  0
LINE
  5
3B5
100
AcDbEntity
  8
03__ASM_ALL_CURVES
100
AcDbLine
 62
40
  6
CONTINUOUS
 10
5.7641338862
 20
5.157447434
 11
5.7728038862
 21
5.1458874326
  0
LINE
  5
3B6
100
AcDbEntity
  8
03__ASM_ALL_CURVES
100
AcDbLine
 62
40
  6
CONTINUOUS
 10
6.5856138874
 20
4.3035074336
 11
6.5823626374
 21
4.2991724316
  0
LINE
  5
3B7
100
AcDbEntity
  8
03__ASM_ALL_CURVES
100
AcDbLine
 62
40
  6
CONTINUOUS
 10
6.6083726374
 20
4.3078424326
 11
6.6148751374
 21
4.3165124336
  0
LINE
  5
3B8
100
AcDbEntity
  8
03__ASM_ALL_CURVES
100
AcDbLine
 62
40
  6
CONTINUOUS
 10
6.5628551372
 20
4.2327024326
 11
6.5693576372
 21
4.2413724336
  0
LINE
  5
3B9
100
AcDbEntity
  8
03__ASM_ALL_CURVES
100
AcDbLine
 62
40
  6
CONTINUOUS
 10
6.6408851374
 20
4.2818324326
 11
6.6343826374
 21
4.2731624327
  0
LINE
  5
3BA
100
AcDbEntity
  8
03__ASM_ALL_CURVES
100
AcDbLine
 62
40
  6
CONTINUOUS
 10
6.5921163872
 20
4.2023574329
 11
6.5888651372
 21
4.1980224327
  0
LINE
  5
3BB
100
AcDbEntity
  8
03__ASM_ALL_CURVES
100
AcDbLine
 62
40
  6
CONTINUOUS
 10
6.6148751372
 20
4.2327024326
 11
6.6213776372
 21
4.2413724336
  0
LINE
  5
3BC
100
AcDbEntity
  8
0
100
AcDbLine
 62
7
  6
CONTINUOUS
 10
6.299603887
 20
3.8367674326
 11
6.283603887
 21
3.8207674326
  0
LINE
  5
3BD
100
AcDbEntity
  8
03__ASM_ALL_CURVES
100
AcDbLine
 62
40
  6
CONTINUOUS
 10
5.6743176521
 20
3.5165924316
 11
5.6678151521
 21
3.5122574326
  0
LINE
  5
3BE
100
AcDbEntity
  8
03__ASM_ALL_CURVES
100
AcDbLine
 62
40
  6
CONTINUOUS
 10
5.7068301521
 20
3.5339324336
 11
5.7133326521
 21
3.5382674326
  0
LINE
  5
3BF
100
AcDbEntity
  8
03__ASM_ALL_CURVES
100
AcDbLine
 62
40
  6
CONTINUOUS
 10
5.6304257634
 20
3.4587924336
 11
5.6369282634
 21
3.4631274326
  0
LINE
  5
3C0
100
AcDbEntity
  8
03__ASM_ALL_CURVES
100
AcDbLine
 62
40
  6
CONTINUOUS
 10
6.7969451372
 20
4.2240324316
 11
6.7904426372
 21
4.2196974326
  0
LINE
  5
3C1
100
AcDbEntity
  8
03__ASM_ALL_CURVES
100
AcDbLine
 62
40
  6
CONTINUOUS
 10
6.8294576372
 20
4.2413724336
 11
6.8359601372
 21
4.2457074326
  0
LINE
  5
3C2
100
AcDbEntity
  8
03__ASM_ALL_CURVES
100
AcDbLine
 62
40
  6
CONTINUOUS
 10
5.7263376521
 20
3.4905824327
 11
5.7198351521
 21
3.4862474326
  0
LINE
  5
3C3
100
AcDbEntity
  8
03__ASM_ALL_CURVES
100
AcDbLine
 62
40
  6
CONTINUOUS
 10
5.7783576521
 20
3.5165924316
 11
5.7718551521
 21
3.5122574326
  0
LINE
  5
3C4
100
AcDbEntity
  8
03__ASM_ALL_CURVES
100
AcDbLine
 62
40
  6
CONTINUOUS
 10
5.6499332634
 20
3.4154424327
 11
5.6434307634
 21
3.4111074326
  0
LINE
  5
3C5
100
AcDbEntity
  8
03__ASM_ALL_CURVES
100
AcDbLine
 62
40
  6
CONTINUOUS
 10
6.8489651372
 20
4.1980224327
 11
6.8424626372
 21
4.1936874326
  0
LINE
  5
3C6
100
AcDbEntity
  8
03__ASM_ALL_CURVES
100
AcDbLine
 62
40
  6
CONTINUOUS
 10
5.8628901521
 20
3.5339324336
 11
5.8693926521
 21
3.5382674326
  0
LINE
  5
3C7
100
AcDbEntity
  8
03__ASM_ALL_CURVES
100
AcDbLine
 62
40
  6
CONTINUOUS
 10
5.7019532634
 20
3.4154424327
 11
5.6954507634
 21
3.4111074326
  0
LINE
  5
3C8
100
AcDbEntity
  8
03__ASM_ALL_CURVES
100
AcDbLine
 62
40
  6
CONTINUOUS
 10
5.8823976521
 20
3.5165924316
 11
5.8693926521
 21
3.5079224321
  0
LINE
  5
3C9
100
AcDbEntity
  8
0
100
AcDbLine
 62
7
  6
CONTINUOUS
 10
4.4311782611
 20
4.8906527421
 11
4.0332145582
 21
4.8906527421
  0
LINE
  5
3CA
100
AcDbEntity
  8
0
100
AcDbLine
 62
7
  6
CONTINUOUS
 10
4.4311782611
 20
4.8912674326
 11
4.0332145582
 21
4.8912674326
  0
LINE
  5
3CB
100
AcDbEntity
  8
03__ASM_ALL_CURVES
100
AcDbLine
 62
40
  6
CONTINUOUS
 10
4.056963887
 20
5.0668940993
 11
3.987603887
 21
5.0707474326
  0
LINE
  5
3CC
100
AcDbEntity
  8
03__ASM_ALL_CURVES
100
AcDbLine
 62
40
  6
CONTINUOUS
 10
4.056963887
 20
5.0649674326
 11
3.987603887
 21
5.0707474326
  0
LINE
  5
3CD
100
AcDbEntity
  8
03__ASM_ALL_CURVES
100
AcDbLine
 62
40
  6
CONTINUOUS
 10
4.605243887
 20
5.0765274326
 11
4.743963887
 21
5.0649674326
  0
LINE
  5
3CE
100
AcDbEntity
  8
03__ASM_ALL_CURVES
100
AcDbLine
 62
40
  6
CONTINUOUS
 10
4.056963887
 20
5.0630407659
 11
3.987603887
 21
5.0707474326
  0
LINE
  5
3CF
100
AcDbEntity
  8
03__ASM_ALL_CURVES
100
AcDbLine
 62
40
  6
CONTINUOUS
 10
4.605243887
 20
5.0784540993
 11
4.743963887
 21
5.0630407659
  0
LINE
  5
3D0
100
AcDbEntity
  8
03__ASM_ALL_CURVES
100
AcDbLine
 62
40
  6
CONTINUOUS
 10
4.605243887
 20
5.0803807659
 11
4.743963887
 21
5.0611140993
  0
LINE
  5
3D1
100
AcDbEntity
  8
03__ASM_ALL_CURVES
100
AcDbLine
 62
40
  6
CONTINUOUS
 10
4.743963887
 20
5.0591874326
 11
4.605243887
 21
5.0823074326
  0
LINE
  5
3D2
100
AcDbEntity
  8
03__ASM_ALL_CURVES
100
AcDbLine
 62
40
  6
CONTINUOUS
 10
5.6124088862
 20
5.0938674326
 11
5.6037388862
 21
5.0996474328
  0
LINE
  5
3D3
100
AcDbEntity
  8
03__ASM_ALL_CURVES
100
AcDbLine
 62
40
  6
CONTINUOUS
 10
5.5517188862
 20
5.1632274326
 11
5.5603888862
 21
5.157447434
  0
LINE
  5
3D4
100
AcDbEntity
  8
03__ASM_ALL_CURVES
100
AcDbLine
 62
40
  6
CONTINUOUS
 10
7.0472913872
 20
4.2457074326
 11
7.0537938872
 21
4.2413724336
  0
LINE
  5
3D5
100
AcDbEntity
  8
0
100
AcDbLine
 62
7
  6
CONTINUOUS
 10
6.299603887
 20
4.6777674326
 11
6.283603887
 21
4.6937674326
  0
LINE
  5
3D6
100
AcDbEntity
  8
03__ASM_ALL_CURVES
100
AcDbLine
 62
40
  6
CONTINUOUS
 10
6.5693576372
 20
4.1980224327
 11
6.5628551372
 21
4.2066924326
  0
LINE
  5
3D7
100
AcDbEntity
  8
03__ASM_ALL_CURVES
100
AcDbLine
 62
40
  6
CONTINUOUS
 10
6.6213776372
 20
4.1980224327
 11
6.6148751372
 21
4.2066924326
  0
LINE
  5
3D8
100
AcDbEntity
  8
03__ASM_ALL_CURVES
100
AcDbLine
 62
40
  6
CONTINUOUS
 10
6.5888651372
 20
4.2413724336
 11
6.5921163872
 21
4.2370374316
  0
LINE
  5
3D9
100
AcDbEntity
  8
03__ASM_ALL_CURVES
100
AcDbLine
 62
40
  6
CONTINUOUS
 10
5.9071888862
 20
5.157447434
 11
5.9115238862
 21
5.1516674312
  0
LINE
  5
3DA
100
AcDbEntity
  8
03__ASM_ALL_CURVES
100
AcDbLine
 62
40
  6
CONTINUOUS
 10
6.6148751374
 20
4.2731624327
 11
6.6083726374
 21
4.2818324326
  0
LINE
  5
3DB
100
AcDbEntity
  8
03__ASM_ALL_CURVES
100
AcDbLine
 62
40
  6
CONTINUOUS
 10
6.5823626374
 20
4.3165124336
 11
6.5856138874
 21
4.3121774316
  0
LINE
  5
3DC
100
AcDbEntity
  8
03__ASM_ALL_CURVES
100
AcDbLine
 62
40
  6
CONTINUOUS
 10
6.6408851372
 20
4.2413724336
 11
6.6473876372
 21
4.2327024326
  0
LINE
  5
3DD
100
AcDbEntity
  8
03__ASM_ALL_CURVES
100
AcDbLine
 62
40
  6
CONTINUOUS
 10
6.6343826374
 20
4.3165124336
 11
6.6408851374
 21
4.3078424326
  0
LINE
  5
3DE
100
AcDbEntity
  8
03__ASM_ALL_CURVES
100
AcDbLine
 62
40
  6
CONTINUOUS
 10
6.5596038874
 20
4.2688274326
 11
6.5596038874
 21
4.3208474326
  0
LINE
  5
3DF
100
AcDbEntity
  8
03__ASM_ALL_CURVES
100
AcDbLine
 62
40
  6
CONTINUOUS
 10
6.5856138874
 20
4.3121774316
 11
6.5856138874
 21
4.3035074336
  0
LINE
  5
3E0
100
AcDbEntity
  8
03__ASM_ALL_CURVES
100
AcDbLine
 62
40
  6
CONTINUOUS
 10
6.5596038872
 20
4.2196974326
 11
6.5628551372
 21
4.2327024326
  0
LINE
  5
3E1
100
AcDbEntity
  8
03__ASM_ALL_CURVES
100
AcDbLine
 62
40
  6
CONTINUOUS
 10
6.6051213874
 20
4.2948374326
 11
6.6083726374
 21
4.3078424326
  0
LINE
  5
3E2
100
AcDbEntity
  8
03__ASM_ALL_CURVES
100
AcDbLine
 62
40
  6
CONTINUOUS
 10
6.6116238872
 20
4.2196974326
 11
6.6148751372
 21
4.2327024326
  0
LINE
  5
3E3
100
AcDbEntity
  8
03__ASM_ALL_CURVES
100
AcDbLine
 62
40
  6
CONTINUOUS
 10
6.6441363874
 20
4.2948374326
 11
6.6408851374
 21
4.2818324326
  0
LINE
  5
3E4
100
AcDbEntity
  8
03__ASM_ALL_CURVES
100
AcDbLine
 62
40
  6
CONTINUOUS
 10
6.6896538874
 20
4.3035074336
 11
6.6864026374
 21
4.2991724316
  0
LINE
  5
3E5
100
AcDbEntity
  8
03__ASM_ALL_CURVES
100
AcDbLine
 62
40
  6
CONTINUOUS
 10
6.6473876372
 20
4.2066924326
 11
6.6408851372
 21
4.1980224327
  0
LINE
  5
3E6
100
AcDbEntity
  8
03__ASM_ALL_CURVES
100
AcDbLine
 62
40
  6
CONTINUOUS
 10
7.0537938872
 20
4.1980224327
 11
7.0472913872
 21
4.1936874326
  0
LINE
  5
3E7
100
AcDbEntity
  8
03__ASM_ALL_CURVES
100
AcDbLine
 62
40
  6
CONTINUOUS
 10
4.605243887
 20
5.0688207659
 11
4.743963887
 21
5.0726740993
  0
LINE
  5
3E8
100
AcDbEntity
  8
03__ASM_ALL_CURVES
100
AcDbLine
 62
40
  6
CONTINUOUS
 10
3.987603887
 20
5.0707474326
 11
5.992443887
 21
5.0707474326
  0
LINE
  5
3E9
100
AcDbEntity
  8
03__ASM_ALL_CURVES
100
AcDbLine
 62
40
  6
CONTINUOUS
 10
5.8421638862
 20
5.0938674326
 11
5.8074838862
 21
5.0938674326
  0
LINE
  5
3EA
100
AcDbEntity
  8
03__ASM_ALL_CURVES
100
AcDbLine
 62
40
  6
CONTINUOUS
 10
5.7554638862
 20
5.0938674326
 11
5.7381238862
 21
5.0938674326
  0
LINE
  5
3EB
100
AcDbEntity
  8
03__ASM_ALL_CURVES
100
AcDbLine
 62
40
  6
CONTINUOUS
 10
5.6210788862
 20
5.0938674326
 11
5.6124088862
 21
5.0938674326
  0
LINE
  5
3EC
100
AcDbEntity
  8
03__ASM_ALL_CURVES
100
AcDbLine
 62
40
  6
CONTINUOUS
 10
5.5517188862
 20
5.0938674326
 11
5.5430488862
 21
5.0938674326
  0
LINE
  5
3ED
100
AcDbEntity
  8
03__ASM_ALL_CURVES
100
AcDbLine
 62
40
  6
CONTINUOUS
 10
5.4129988862
 20
5.0938674326
 11
5.4043288862
 21
5.0938674326
  0
LINE
  5
3EE
100
AcDbEntity
  8
03__ASM_ALL_CURVES
100
AcDbLine
 62
40
  6
CONTINUOUS
 10
5.2742788862
 20
5.0938674326
 11
5.2656088862
 21
5.0938674326
  0
LINE
  5
3EF
100
AcDbEntity
  8
03__ASM_ALL_CURVES
100
AcDbLine
 62
40
  6
CONTINUOUS
 10
4.9274788862
 20
5.0938674326
 11
4.9188088862
 21
5.0938674326
  0
LINE
  5
3F0
100
AcDbEntity
  8
03__ASM_ALL_CURVES
100
AcDbLine
 62
40
  6
CONTINUOUS
 10
4.8581188862
 20
5.0938674326
 11
4.8494488862
 21
5.0938674326
  0
LINE
  5
3F1
100
AcDbEntity
  8
03__ASM_ALL_CURVES
100
AcDbLine
 62
40
  6
CONTINUOUS
 10
4.469823887
 20
5.0938674326
 11
4.465488887
 21
5.0938674326
  0
LINE
  5
3F2
100
AcDbEntity
  8
03__ASM_ALL_CURVES
100
AcDbLine
 62
40
  6
CONTINUOUS
 10
4.196718887
 20
5.0938674326
 11
4.188048887
 21
5.0938674326
  0
LINE
  5
3F3
100
AcDbEntity
  8
03__ASM_ALL_CURVES
100
AcDbLine
 62
40
  6
CONTINUOUS
 10
4.053663887
 20
5.0938674326
 11
4.049328887
 21
5.0938674326
  0
LINE
  5
3F4
100
AcDbEntity
  8
03__ASM_ALL_CURVES
100
AcDbLine
 62
40
  6
CONTINUOUS
 10
4.521843887
 20
5.0938674326
 11
4.556523887
 21
5.0938674326
  0
LINE
  5
3F5
100
AcDbEntity
  8
03__ASM_ALL_CURVES
100
AcDbLine
 62
40
  6
CONTINUOUS
 10
4.7670838862
 20
5.0938674326
 11
4.8017638862
 21
5.0938674326
  0
LINE
  5
3F6
100
AcDbEntity
  8
03__ASM_ALL_CURVES
100
AcDbLine
 62
40
  6
CONTINUOUS
 10
5.6687638862
 20
5.0938674326
 11
5.7034438862
 21
5.0938674326
  0
LINE
  5
3F7
100
AcDbEntity
  8
03__ASM_ALL_CURVES
100
AcDbLine
 62
40
  6
CONTINUOUS
 10
4.9794988862
 20
5.1169874333
 11
5.0055088862
 21
5.1169874333
  0
LINE
  5
3F8
100
AcDbEntity
  8
03__ASM_ALL_CURVES
100
AcDbLine
 62
40
  6
CONTINUOUS
 10
4.056963887
 20
5.0688207659
 11
3.987603887
 21
5.0707474326
  0
LINE
  5
3F9
100
AcDbEntity
  8
03__ASM_ALL_CURVES
100
AcDbLine
 62
40
  6
CONTINUOUS
 10
4.605243887
 20
5.0726740993
 11
4.743963887
 21
5.0688207659
  0
LINE
  5
3FA
100
AcDbEntity
  8
03__ASM_ALL_CURVES
100
AcDbLine
 62
40
  6
CONTINUOUS
 10
4.605243887
 20
5.0746007659
 11
4.743963887
 21
5.0668940993
  0
LINE
  5
3FB
100
AcDbEntity
  8
03__ASM_ALL_CURVES
100
AcDbLine
 62
40
  6
CONTINUOUS
 10
5.7554638862
 20
5.1632274326
 11
5.7641338862
 21
5.157447434
  0
LINE
  5
3FC
100
AcDbEntity
  8
03__ASM_ALL_CURVES
100
AcDbLine
 62
40
  6
CONTINUOUS
 10
7.2521201372
 20
4.1936874326
 11
7.2456176372
 21
4.1980224327
  0
LINE
  5
3FD
100
AcDbEntity
  8
03__ASM_ALL_CURVES
100
AcDbLine
 62
40
  6
CONTINUOUS
 10
7.2586226372
 20
4.2457074326
 11
7.2651251372
 21
4.2413724336
  0
LINE
  5
3FE
100
AcDbEntity
  8
03__ASM_ALL_CURVES
100
AcDbLine
 62
40
  6
CONTINUOUS
 10
5.8985188862
 20
5.1632274326
 11
5.9071888862
 21
5.157447434
  0
LINE
  5
3FF
100
AcDbEntity
  8
03__ASM_ALL_CURVES
100
AcDbLine
 62
40
  6
CONTINUOUS
 10
6.6864026374
 20
4.3165124336
 11
6.6896538874
 21
4.3121774316
  0
LINE
  5
400
100
AcDbEntity
  8
03__ASM_ALL_CURVES
100
AcDbLine
 62
40
  6
CONTINUOUS
 10
6.8294576372
 20
4.1980224327
 11
6.8229551372
 21
4.2066924326
  0
LINE
  5
401
100
AcDbEntity
  8
03__ASM_ALL_CURVES
100
AcDbLine
 62
40
  6
CONTINUOUS
 10
6.7969451372
 20
4.2413724336
 11
6.8001963872
 21
4.2370374316
  0
LINE
  5
402
100
AcDbEntity
  8
03__ASM_ALL_CURVES
100
AcDbLine
 62
40
  6
CONTINUOUS
 10
6.8489651372
 20
4.2413724336
 11
6.8554676372
 21
4.2327024326
  0
LINE
  5
403
100
AcDbEntity
  8
03__ASM_ALL_CURVES
100
AcDbLine
 62
40
  6
CONTINUOUS
 10
6.6701463872
 20
4.2457074326
 11
6.6961563872
 21
4.1936874326
  0
LINE
  5
404
100
AcDbEntity
  8
03__ASM_ALL_CURVES
100
AcDbLine
 62
40
  6
CONTINUOUS
 10
6.6799001374
 20
4.2948374326
 11
6.6896538874
 21
4.2688274326
  0
LINE
  5
405
100
AcDbEntity
  8
03__ASM_ALL_CURVES
100
AcDbLine
 62
40
  6
CONTINUOUS
 10
6.5628551372
 20
4.2066924326
 11
6.5596038872
 21
4.2196974326
  0
LINE
  5
406
100
AcDbEntity
  8
03__ASM_ALL_CURVES
100
AcDbLine
 62
40
  6
CONTINUOUS
 10
6.6148751372
 20
4.2066924326
 11
6.6116238872
 21
4.2196974326
  0
LINE
  5
407
100
AcDbEntity
  8
03__ASM_ALL_CURVES
100
AcDbLine
 62
40
  6
CONTINUOUS
 10
6.6083726374
 20
4.2818324326
 11
6.6051213874
 21
4.2948374326
  0
LINE
  5
408
100
AcDbEntity
  8
03__ASM_ALL_CURVES
100
AcDbLine
 62
40
  6
CONTINUOUS
 10
6.6473876372
 20
4.2327024326
 11
6.6506388872
 21
4.2196974326
  0
LINE
  5
409
100
AcDbEntity
  8
03__ASM_ALL_CURVES
100
AcDbLine
 62
40
  6
CONTINUOUS
 10
6.6408851374
 20
4.3078424326
 11
6.6441363874
 21
4.2948374326
  0
LINE
  5
40A
100
AcDbEntity
  8
03__ASM_ALL_CURVES
100
AcDbLine
 62
40
  6
CONTINUOUS
 10
6.6636438874
 20
4.2688274326
 11
6.6636438874
 21
4.3208474326
  0
LINE
  5
40B
100
AcDbEntity
  8
03__ASM_ALL_CURVES
100
AcDbLine
 62
40
  6
CONTINUOUS
 10
6.6701463872
 20
4.1936874326
 11
6.6701463872
 21
4.2457074326
  0
LINE
  5
40C
100
AcDbEntity
  8
03__ASM_ALL_CURVES
100
AcDbLine
 62
40
  6
CONTINUOUS
 10
6.6896538874
 20
4.3121774316
 11
6.6896538874
 21
4.3035074336
  0
LINE
  5
40D
100
AcDbEntity
  8
03__ASM_ALL_CURVES
100
AcDbLine
 62
40
  6
CONTINUOUS
 10
6.6961563872
 20
4.1936874326
 11
6.6961563872
 21
4.2457074326
  0
LINE
  5
40E
100
AcDbEntity
  8
03__ASM_ALL_CURVES
100
AcDbLine
 62
40
  6
CONTINUOUS
 10
6.7286688874
 20
4.3208474326
 11
6.7286688874
 21
4.2688274326
  0
LINE
  5
40F
100
AcDbEntity
  8
03__ASM_ALL_CURVES
100
AcDbLine
 62
40
  6
CONTINUOUS
 10
6.7351713872
 20
4.2457074326
 11
6.7351713872
 21
4.1936874326
  0
LINE
  5
410
100
AcDbEntity
  8
03__ASM_ALL_CURVES
100
AcDbLine
 62
40
  6
CONTINUOUS
 10
6.6506388872
 20
4.2196974326
 11
6.6473876372
 21
4.2066924326
  0
LINE
  5
411
100
AcDbEntity
  8
03__ASM_ALL_CURVES
100
AcDbLine
 62
40
  6
CONTINUOUS
 10
6.8001963872
 20
4.2283674336
 11
6.7969451372
 21
4.2240324316
  0
LINE
  5
412
100
AcDbEntity
  8
03__ASM_ALL_CURVES
100
AcDbLine
 62
40
  6
CONTINUOUS
 10
6.8229551372
 20
4.2327024326
 11
6.8294576372
 21
4.2413724336
  0
LINE
  5
413
100
AcDbEntity
  8
03__ASM_ALL_CURVES
100
AcDbLine
 62
40
  6
CONTINUOUS
 10
6.8554676372
 20
4.2066924326
 11
6.8489651372
 21
4.1980224327
  0
LINE
  5
414
100
AcDbEntity
  8
03__ASM_ALL_CURVES
100
AcDbLine
 62
40
  6
CONTINUOUS
 10
7.2456176372
 20
4.2413724336
 11
7.2521201372
 21
4.2457074326
  0
LINE
  5
415
100
AcDbEntity
  8
03__ASM_ALL_CURVES
100
AcDbLine
 62
40
  6
CONTINUOUS
 10
7.2651251372
 20
4.1980224327
 11
7.2586226372
 21
4.1936874326
  0
LINE
  5
416
100
AcDbEntity
  8
03__ASM_ALL_CURVES
100
AcDbLine
 62
40
  6
CONTINUOUS
 10
4.605243887
 20
5.0591874326
 11
4.743963887
 21
5.0823074326
  0
LINE
  5
417
100
AcDbEntity
  8
03__ASM_ALL_CURVES
100
AcDbLine
 62
40
  6
CONTINUOUS
 10
4.605243887
 20
5.0611140993
 11
4.743963887
 21
5.0803807659
  0
LINE
  5
418
100
AcDbEntity
  8
03__ASM_ALL_CURVES
100
AcDbLine
 62
40
  6
CONTINUOUS
 10
4.605243887
 20
5.0630407659
 11
4.743963887
 21
5.0784540993
  0
LINE
  5
419
100
AcDbEntity
  8
03__ASM_ALL_CURVES
100
AcDbLine
 62
40
  6
CONTINUOUS
 10
4.605243887
 20
5.0649674326
 11
4.743963887
 21
5.0765274326
  0
LINE
  5
41A
100
AcDbEntity
  8
03__ASM_ALL_CURVES
100
AcDbLine
 62
40
  6
CONTINUOUS
 10
4.056963887
 20
5.0765274326
 11
3.987603887
 21
5.0707474326
  0
LINE
  5
41B
100
AcDbEntity
  8
03__ASM_ALL_CURVES
100
AcDbLine
 62
40
  6
CONTINUOUS
 10
4.605243887
 20
5.0668940993
 11
4.743963887
 21
5.0746007659
  0
LINE
  5
41C
100
AcDbEntity
  8
03__ASM_ALL_CURVES
100
AcDbLine
 62
40
  6
CONTINUOUS
 10
4.056963887
 20
5.0746007659
 11
3.987603887
 21
5.0707474326
  0
LINE
  5
41D
100
AcDbEntity
  8
03__ASM_ALL_CURVES
100
AcDbLine
 62
40
  6
CONTINUOUS
 10
4.056963887
 20
5.0726740993
 11
3.987603887
 21
5.0707474326
  0
LINE
  5
41E
100
AcDbEntity
  8
03__ASM_ALL_CURVES
100
AcDbLine
 62
40
  6
CONTINUOUS
 10
5.8985188862
 20
5.1285474326
 11
5.8768438862
 21
5.1285474326
  0
LINE
  5
41F
100
AcDbEntity
  8
03__ASM_ALL_CURVES
100
AcDbLine
 62
40
  6
CONTINUOUS
 10
5.2699438862
 20
5.1285474326
 11
5.2872838862
 21
5.1285474326
  0
LINE
  5
420
100
AcDbEntity
  8
03__ASM_ALL_CURVES
100
AcDbLine
 62
40
  6
CONTINUOUS
 10
5.4606838862
 20
5.1285474326
 11
5.4953638862
 21
5.1285474326
  0
LINE
  5
421
100
AcDbEntity
  8
03__ASM_ALL_CURVES
100
AcDbLine
 62
40
  6
CONTINUOUS
 10
5.8074838862
 20
5.1285474326
 11
5.8291588862
 21
5.1285474326
  0
LINE
  5
422
100
AcDbEntity
  8
03__ASM_ALL_CURVES
100
AcDbLine
 62
40
  6
CONTINUOUS
 10
4.188048887
 20
5.1343274312
 11
4.196718887
 21
5.1343274312
  0
LINE
  5
423
100
AcDbEntity
  8
03__ASM_ALL_CURVES
100
AcDbLine
 62
40
  6
CONTINUOUS
 10
5.4129988862
 20
5.1632274326
 11
5.4043288862
 21
5.1632274326
  0
LINE
  5
424
100
AcDbEntity
  8
03__ASM_ALL_CURVES
100
AcDbLine
 62
40
  6
CONTINUOUS
 10
4.625883887
 20
5.1632274326
 11
4.591203887
 21
5.1632274326
  0
LINE
  5
425
100
AcDbEntity
  8
03__ASM_ALL_CURVES
100
AcDbLine
 62
40
  6
CONTINUOUS
 10
4.417803887
 20
5.1632274326
 11
4.383123887
 21
5.1632274326
  0
LINE
  5
426
100
AcDbEntity
  8
03__ASM_ALL_CURVES
100
AcDbLine
 62
40
  6
CONTINUOUS
 10
4.188048887
 20
5.1632274326
 11
4.196718887
 21
5.1632274326
  0
LINE
  5
427
100
AcDbEntity
  8
03__ASM_ALL_CURVES
100
AcDbLine
 62
40
  6
CONTINUOUS
 10
4.534848887
 20
5.1632274326
 11
4.543518887
 21
5.1632274326
  0
LINE
  5
428
100
AcDbEntity
  8
03__ASM_ALL_CURVES
100
AcDbLine
 62
40
  6
CONTINUOUS
 10
4.8494488862
 20
5.1632274326
 11
4.8581188862
 21
5.1632274326
  0
LINE
  5
429
100
AcDbEntity
  8
03__ASM_ALL_CURVES
100
AcDbLine
 62
40
  6
CONTINUOUS
 10
4.9188088862
 20
5.1632274326
 11
4.9274788862
 21
5.1632274326
  0
LINE
  5
42A
100
AcDbEntity
  8
03__ASM_ALL_CURVES
100
AcDbLine
 62
40
  6
CONTINUOUS
 10
5.0401888862
 20
5.1632274326
 11
5.0835388862
 21
5.1632274326
  0
LINE
  5
42B
100
AcDbEntity
  8
03__ASM_ALL_CURVES
100
AcDbLine
 62
40
  6
CONTINUOUS
 10
5.2656088862
 20
5.1632274326
 11
5.2742788862
 21
5.1632274326
  0
LINE
  5
42C
100
AcDbEntity
  8
03__ASM_ALL_CURVES
100
AcDbLine
 62
40
  6
CONTINUOUS
 10
5.5430488862
 20
5.1632274326
 11
5.5517188862
 21
5.1632274326
  0
LINE
  5
42D
100
AcDbEntity
  8
03__ASM_ALL_CURVES
100
AcDbLine
 62
40
  6
CONTINUOUS
 10
5.7381238862
 20
5.1632274326
 11
5.7554638862
 21
5.1632274326
  0
LINE
  5
42E
100
AcDbEntity
  8
03__ASM_ALL_CURVES
100
AcDbLine
 62
40
  6
CONTINUOUS
 10
5.8074838862
 20
5.1632274326
 11
5.8421638862
 21
5.1632274326
  0
LINE
  5
42F
100
AcDbEntity
  8
03__ASM_ALL_CURVES
100
AcDbLine
 62
40
  6
CONTINUOUS
 10
5.8768438862
 20
5.1632274326
 11
5.8985188862
 21
5.1632274326
  0
LINE
  5
430
100
AcDbEntity
  8
03__ASM_ALL_CURVES
100
AcDbLine
 62
40
  6
CONTINUOUS
 10
6.7904426372
 20
4.2196974326
 11
6.8001963872
 21
4.1936874326
  0
LINE
  5
431
100
AcDbEntity
  8
03__ASM_ALL_CURVES
100
AcDbLine
 62
40
  6
CONTINUOUS
 10
6.7741863872
 20
4.1936874326
 11
6.7741863872
 21
4.2457074326
  0
LINE
  5
432
100
AcDbEntity
  8
03__ASM_ALL_CURVES
100
AcDbLine
 62
40
  6
CONTINUOUS
 10
6.7806888874
 20
4.3208474326
 11
6.7806888874
 21
4.2688274326
  0
LINE
  5
433
100
AcDbEntity
  8
03__ASM_ALL_CURVES
100
AcDbLine
 62
40
  6
CONTINUOUS
 10
6.8001963872
 20
4.2370374316
 11
6.8001963872
 21
4.2283674336
  0
LINE
  5
434
100
AcDbEntity
  8
03__ASM_ALL_CURVES
100
AcDbLine
 62
40
  6
CONTINUOUS
 10
6.8782263872
 20
4.2457074326
 11
6.8782263872
 21
4.1936874326
  0
LINE
  5
435
100
AcDbEntity
  8
03__ASM_ALL_CURVES
100
AcDbLine
 62
40
  6
CONTINUOUS
 10
6.8197038872
 20
4.2196974326
 11
6.8229551372
 21
4.2327024326
  0
LINE
  5
436
100
AcDbEntity
  8
03__ASM_ALL_CURVES
100
AcDbLine
 62
40
  6
CONTINUOUS
 10
6.8587188872
 20
4.2196974326
 11
6.8554676372
 21
4.2066924326
  0
LINE
  5
437
100
AcDbEntity
  8
03__ASM_ALL_CURVES
100
AcDbLine
 62
40
  6
CONTINUOUS
 10
7.0602963872
 20
4.2066924326
 11
7.0537938872
 21
4.1980224327
  0
LINE
  5
438
100
AcDbEntity
  8
03__ASM_ALL_CURVES
100
AcDbLine
 62
40
  6
CONTINUOUS
 10
3.987603887
 20
5.0707474326
 11
4.056963887
 21
5.0823074326
  0
LINE
  5
439
100
AcDbEntity
  8
03__ASM_ALL_CURVES
100
AcDbLine
 62
40
  6
CONTINUOUS
 10
4.056963887
 20
5.0803807659
 11
3.987603887
 21
5.0707474326
  0
LINE
  5
43A
100
AcDbEntity
  8
03__ASM_ALL_CURVES
100
AcDbLine
 62
40
  6
CONTINUOUS
 10
4.056963887
 20
5.0784540993
 11
3.987603887
 21
5.0707474326
  0
LINE
  5
43B
100
AcDbEntity
  8
03__ASM_ALL_CURVES
100
AcDbLine
 62
40
  6
CONTINUOUS
 10
7.0537938872
 20
4.2413724336
 11
7.0602963872
 21
4.2327024326
  0
LINE
  5
43C
100
AcDbEntity
  8
03__ASM_ALL_CURVES
100
AcDbLine
 62
40
  6
CONTINUOUS
 10
7.2456176372
 20
4.1980224327
 11
7.2391151372
 21
4.2066924326
  0
LINE
  5
43D
100
AcDbEntity
  8
03__ASM_ALL_CURVES
100
AcDbLine
 62
40
  6
CONTINUOUS
 10
6.8229551372
 20
4.2066924326
 11
6.8197038872
 21
4.2196974326
  0
LINE
  5
43E
100
AcDbEntity
  8
03__ASM_ALL_CURVES
100
AcDbLine
 62
40
  6
CONTINUOUS
 10
6.8554676372
 20
4.2327024326
 11
6.8587188872
 21
4.2196974326
  0
LINE
  5
43F
100
AcDbEntity
  8
03__ASM_ALL_CURVES
100
AcDbLine
 62
40
  6
CONTINUOUS
 10
6.9302463872
 20
4.2457074326
 11
6.9302463872
 21
4.1936874326
  0
LINE
  5
440
100
AcDbEntity
  8
03__ASM_ALL_CURVES
100
AcDbLine
 62
40
  6
CONTINUOUS
 10
6.9822663872
 20
4.1936874326
 11
6.9822663872
 21
4.2457074326
  0
LINE
  5
441
100
AcDbEntity
  8
03__ASM_ALL_CURVES
100
AcDbLine
 62
40
  6
CONTINUOUS
 10
7.0342863872
 20
4.1936874326
 11
7.0342863872
 21
4.2457074326
  0
LINE
  5
442
100
AcDbEntity
  8
03__ASM_ALL_CURVES
100
AcDbLine
 62
40
  6
CONTINUOUS
 10
7.2391151372
 20
4.2327024326
 11
7.2456176372
 21
4.2413724336
  0
LINE
  5
443
100
AcDbEntity
  8
03__ASM_ALL_CURVES
100
AcDbLine
 62
40
  6
CONTINUOUS
 10
7.2716276372
 20
4.2066924326
 11
7.2651251372
 21
4.1980224327
  0
LINE
  5
444
100
AcDbEntity
  8
03__ASM_ALL_CURVES
100
AcDbLine
 62
40
  6
CONTINUOUS
 10
7.2651251372
 20
4.2413724336
 11
7.2716276372
 21
4.2327024326
  0
LINE
  5
445
100
AcDbEntity
  8
03__ASM_ALL_CURVES
100
AcDbLine
 62
40
  6
CONTINUOUS
 10
7.0602963872
 20
4.2327024326
 11
7.0635476372
 21
4.2196974326
  0
LINE
  5
446
100
AcDbEntity
  8
03__ASM_ALL_CURVES
100
AcDbLine
 62
40
  6
CONTINUOUS
 10
7.1383263872
 20
4.1936874326
 11
7.1383263872
 21
4.2457074326
  0
LINE
  5
447
100
AcDbEntity
  8
03__ASM_ALL_CURVES
100
AcDbLine
 62
40
  6
CONTINUOUS
 10
7.0635476372
 20
4.2196974326
 11
7.0602963872
 21
4.2066924326
  0
LINE
  5
448
100
AcDbEntity
  8
03__ASM_ALL_CURVES
100
AcDbLine
 62
40
  6
CONTINUOUS
 10
7.1903463872
 20
4.2457074326
 11
7.1903463872
 21
4.1936874326
  0
LINE
  5
449
100
AcDbEntity
  8
03__ASM_ALL_CURVES
100
AcDbLine
 62
40
  6
CONTINUOUS
 10
7.2976376372
 20
4.1936874326
 11
7.3073913872
 21
4.2457074326
  0
LINE
  5
44A
100
AcDbEntity
  8
03__ASM_ALL_CURVES
100
AcDbLine
 62
40
  6
CONTINUOUS
 10
7.3171451372
 20
4.1936874326
 11
7.3268988872
 21
4.2457074326
  0
LINE
  5
44B
100
AcDbEntity
  8
03__ASM_ALL_CURVES
100
AcDbLine
 62
40
  6
CONTINUOUS
 10
7.2358638872
 20
4.2196974326
 11
7.2391151372
 21
4.2327024326
  0
LINE
  5
44C
100
AcDbEntity
  8
03__ASM_ALL_CURVES
100
AcDbLine
 62
40
  6
CONTINUOUS
 10
7.2748788872
 20
4.2196974326
 11
7.2716276372
 21
4.2066924326
  0
LINE
  5
44D
100
AcDbEntity
  8
03__ASM_ALL_CURVES
100
AcDbLine
 62
40
  6
CONTINUOUS
 10
7.4504463872
 20
4.2457074326
 11
7.4764563872
 21
4.1936874326
  0
LINE
  5
44E
100
AcDbEntity
  8
03__ASM_ALL_CURVES
100
AcDbLine
 62
40
  6
CONTINUOUS
 10
7.2391151372
 20
4.2066924326
 11
7.2358638872
 21
4.2196974326
  0
LINE
  5
44F
100
AcDbEntity
  8
03__ASM_ALL_CURVES
100
AcDbLine
 62
40
  6
CONTINUOUS
 10
7.2716276372
 20
4.2327024326
 11
7.2748788872
 21
4.2196974326
  0
LINE
  5
450
100
AcDbEntity
  8
03__ASM_ALL_CURVES
100
AcDbLine
 62
40
  6
CONTINUOUS
 10
7.2878838872
 20
4.2457074326
 11
7.2976376372
 21
4.1936874326
  0
LINE
  5
451
100
AcDbEntity
  8
03__ASM_ALL_CURVES
100
AcDbLine
 62
40
  6
CONTINUOUS
 10
7.3073913872
 20
4.2457074326
 11
7.3171451372
 21
4.1936874326
  0
LINE
  5
452
100
AcDbEntity
  8
03__ASM_ALL_CURVES
100
AcDbLine
 62
40
  6
CONTINUOUS
 10
7.4114313872
 20
4.2457074326
 11
7.4114313872
 21
4.1936874326
  0
LINE
  5
453
100
AcDbEntity
  8
03__ASM_ALL_CURVES
100
AcDbLine
 62
40
  6
CONTINUOUS
 10
7.4504463872
 20
4.1936874326
 11
7.4504463872
 21
4.2457074326
  0
LINE
  5
454
100
AcDbEntity
  8
03__ASM_ALL_CURVES
100
AcDbLine
 62
40
  6
CONTINUOUS
 10
7.4764563872
 20
4.1936874326
 11
7.4764563872
 21
4.2457074326
  0
LINE
  5
455
100
AcDbEntity
  8
03__ASM_ALL_CURVES
100
AcDbLine
 62
40
  6
CONTINUOUS
 10
7.5024663872
 20
4.2457074326
 11
7.5024663872
 21
4.1936874326
  0
LINE
  5
456
100
AcDbEntity
  8
03__ASM_ALL_CURVES
100
AcDbLine
 62
40
  6
CONTINUOUS
 10
7.5544863872
 20
4.1936874326
 11
7.5544863872
 21
4.2457074326
  0
LINE
  5
457
100
AcDbEntity
  8
03__ASM_ALL_CURVES
100
AcDbLine
 62
40
  6
CONTINUOUS
 10
7.6195113872
 20
4.2457074326
 11
7.6195113872
 21
4.1936874326
  0
CIRCLE
  5
458
100
AcDbEntity
  8
0
100
AcDbCircle
 62
7
  6
CONTINUOUS
 10
5.892603887
 20
4.2572674326
 40
0.078
  0
ARC
  5
459
100
AcDbEntity
  8
THREAD
100
AcDbCircle
 62
7
  6
CONTINUOUS
 10
4.8553870086
 20
3.7867674326
 40
0.0125
100
AcDbArc
 50
29.9999999999
 51
90.0
  0
ARC
  5
45A
100
AcDbEntity
  8
THREAD
100
AcDbCircle
 62
7
  6
CONTINUOUS
 10
4.8553870086
 20
4.7277674326
 40
0.0125
100
AcDbArc
 50
270.0
 51
330.000000004
  0
ARC
  5
45B
100
AcDbEntity
  8
0
100
AcDbCircle
 62
7
  6
CONTINUOUS
 10
4.679603887
 20
3.7268806812
 40
0.005
100
AcDbArc
 50
120.0000000096
 51
179.9999999998
  0
ARC
  5
45C
100
AcDbEntity
  8
0
100
AcDbCircle
 62
7
  6
CONTINUOUS
 10
4.679603887
 20
4.7876541839
 40
0.005
100
AcDbArc
 50
180.0000000002
 51
239.9999999876
  0
ARC
  5
45D
100
AcDbEntity
  8
0
100
AcDbCircle
 62
7
  6
CONTINUOUS
 10
4.6984602934
 20
3.7377674326
 40
0.005
100
AcDbArc
 50
90.0
 51
120.0000000145
  0
ARC
  5
45E
100
AcDbEntity
  8
0
100
AcDbCircle
 62
7
  6
CONTINUOUS
 10
4.6984602934
 20
4.7767674326
 40
0.005
100
AcDbArc
 50
239.9999999845
 51
270.0
  0
ARC
  5
45F
100
AcDbEntity
  8
0
100
AcDbCircle
 62
7
  6
CONTINUOUS
 10
4.671603887
 20
3.7222674326
 40
0.003
100
AcDbArc
 50
270.0
 51
360.0
  0
ARC
  5
460
100
AcDbEntity
  8
0
100
AcDbCircle
 62
7
  6
CONTINUOUS
 10
4.671603887
 20
4.7922674326
 40
0.003
100
AcDbArc
 50
0.0
 51
90.0
  0
SPLINE
  5
461
100
AcDbEntity
  8
0
100
AcDbSpline
 62
7
  6
CONTINUOUS
 70
0
 71
3
 72
15
 73
11
 74
9
 42
0.0000001
 43
0.0000001
 44
0.0000000001
 12
0.0
 22
0.1099409465
 32
0.0
 13
0.0
 23
-0.1099409465
 33
0.0
 40
0.0
 40
0.0
 40
0.0
 40
0.0
 40
0.125
 40
0.25
 40
0.375
 40
0.5
 40
0.625
 40
0.75
 40
0.875
 40
1.0
 40
1.0
 40
1.0
 40
1.0
 10
6.163603887
 20
4.6742674326
 30
0.0
 10
6.163603887
 20
4.6788483054
 30
0.0
 10
6.1617815025
 20
4.6880100509
 30
0.0
 10
6.1539969345
 20
4.6996604802
 30
0.0
 10
6.1423465053
 20
4.7074450481
 30
0.0
 10
6.128603887
 20
4.7101786248
 30
0.0
 10
6.1148612687
 20
4.7074450481
 30
0.0
 10
6.1032108394
 20
4.6996604802
 30
0.0
 10
6.0954262715
 20
4.6880100509
 30
0.0
 10
6.093603887
 20
4.6788483054
 30
0.0
 10
6.093603887
 20
4.6742674326
 30
0.0
 11
6.163603887
 21
4.6742674326
 31
0.0
 11
6.1609396706
 21
4.6876613527
 31
0.0
 11
6.1533526243
 21
4.6990161699
 31
0.0
 11
6.1419978071
 21
4.7066032162
 31
0.0
 11
6.128603887
 21
4.7092674326
 31
0.0
 11
6.1152099668
 21
4.7066032162
 31
0.0
 11
6.1038551496
 21
4.6990161699
 31
0.0
 11
6.0962681033
 21
4.6876613527
 31
0.0
 11
6.093603887
 21
4.6742674326
 31
0.0
  0
SPLINE
  5
462
100
AcDbEntity
  8
0
100
AcDbSpline
 62
7
  6
CONTINUOUS
 70
0
 71
3
 72
15
 73
11
 74
9
 42
0.0000001
 43
0.0000001
 44
0.0000000001
 12
0.0
 22
-0.1099409465
 32
0.0
 13
0.0
 23
0.1099409465
 33
0.0
 40
0.0
 40
0.0
 40
0.0
 40
0.0
 40
0.125
 40
0.25
 40
0.375
 40
0.5
 40
0.625
 40
0.75
 40
0.875
 40
1.0
 40
1.0
 40
1.0
 40
1.0
 10
6.163603887
 20
3.8402674326
 30
0.0
 10
6.163603887
 20
3.8356865598
 30
0.0
 10
6.1617815025
 20
3.8265248143
 30
0.0
 10
6.1539969345
 20
3.814874385
 30
0.0
 10
6.1423465053
 20
3.8070898171
 30
0.0
 10
6.128603887
 20
3.8043562403
 30
0.0
 10
6.1148612687
 20
3.8070898171
 30
0.0
 10
6.1032108394
 20
3.814874385
 30
0.0
 10
6.0954262715
 20
3.8265248143
 30
0.0
 10
6.093603887
 20
3.8356865598
 30
0.0
 10
6.093603887
 20
3.8402674326
 30
0.0
 11
6.163603887
 21
3.8402674326
 31
0.0
 11
6.1609396706
 21
3.8268735125
 31
0.0
 11
6.1533526243
 21
3.8155186953
 31
0.0
 11
6.1419978071
 21
3.807931649
 31
0.0
 11
6.128603887
 21
3.8052674326
 31
0.0
 11
6.1152099668
 21
3.807931649
 31
0.0
 11
6.1038551496
 21
3.8155186953
 31
0.0
 11
6.0962681033
 21
3.8268735125
 31
0.0
 11
6.093603887
 21
3.8402674326
 31
0.0
  0
SPLINE
  5
463
100
AcDbEntity
  8
0
100
AcDbSpline
 62
7
  6
CONTINUOUS
 70
0
 71
3
 72
15
 73
11
 74
9
 42
0.0000001
 43
0.0000001
 44
0.0000000001
 12
0.0
 22
0.1099409465
 32
0.0
 13
0.0
 23
-0.1099409465
 33
0.0
 40
0.0
 40
0.0
 40
0.0
 40
0.0
 40
0.125
 40
0.25
 40
0.375
 40
0.5
 40
0.625
 40
0.75
 40
0.875
 40
1.0
 40
1.0
 40
1.0
 40
1.0
 10
4.791603887
 20
4.7502674326
 30
0.0
 10
4.791603887
 20
4.7548483054
 30
0.0
 10
4.7897815025
 20
4.7640100509
 30
0.0
 10
4.7819969345
 20
4.7756604802
 30
0.0
 10
4.7703465053
 20
4.7834450481
 30
0.0
 10
4.756603887
 20
4.7861786248
 30
0.0
 10
4.7428612687
 20
4.7834450481
 30
0.0
 10
4.7312108394
 20
4.7756604802
 30
0.0
 10
4.7234262715
 20
4.7640100509
 30
0.0
 10
4.721603887
 20
4.7548483054
 30
0.0
 10
4.721603887
 20
4.7502674326
 30
0.0
 11
4.791603887
 21
4.7502674326
 31
0.0
 11
4.7889396706
 21
4.7636613527
 31
0.0
 11
4.7813526243
 21
4.7750161699
 31
0.0
 11
4.7699978071
 21
4.7826032162
 31
0.0
 11
4.756603887
 21
4.7852674326
 31
0.0
 11
4.7432099668
 21
4.7826032162
 31
0.0
 11
4.7318551496
 21
4.7750161699
 31
0.0
 11
4.7242681033
 21
4.7636613527
 31
0.0
 11
4.721603887
 21
4.7502674326
 31
0.0
  0
SPLINE
  5
464
100
AcDbEntity
  8
0
100
AcDbSpline
 62
7
  6
CONTINUOUS
 70
0
 71
3
 72
15
 73
11
 74
9
 42
0.0000001
 43
0.0000001
 44
0.0000000001
 12
0.0
 22
-0.1099409465
 32
0.0
 13
0.0
 23
0.1099409465
 33
0.0
 40
0.0
 40
0.0
 40
0.0
 40
0.0
 40
0.125
 40
0.25
 40
0.375
 40
0.5
 40
0.625
 40
0.75
 40
0.875
 40
1.0
 40
1.0
 40
1.0
 40
1.0
 10
4.791603887
 20
3.7642674326
 30
0.0
 10
4.791603887
 20
3.7596865598
 30
0.0
 10
4.7897815025
 20
3.7505248143
 30
0.0
 10
4.7819969345
 20
3.738874385
 30
0.0
 10
4.7703465053
 20
3.7310898171
 30
0.0
 10
4.756603887
 20
3.7283562403
 30
0.0
 10
4.7428612687
 20
3.7310898171
 30
0.0
 10
4.7312108394
 20
3.738874385
 30
0.0
 10
4.7234262715
 20
3.7505248143
 30
0.0
 10
4.721603887
 20
3.7596865598
 30
0.0
 10
4.721603887
 20
3.7642674326
 30
0.0
 11
4.791603887
 21
3.7642674326
 31
0.0
 11
4.7889396706
 21
3.7508735125
 31
0.0
 11
4.7813526243
 21
3.7395186953
 31
0.0
 11
4.7699978071
 21
3.731931649
 31
0.0
 11
4.756603887
 21
3.7292674326
 31
0.0
 11
4.7432099668
 21
3.731931649
 31
0.0
 11
4.7318551496
 21
3.7395186953
 31
0.0
 11
4.7242681033
 21
3.7508735125
 31
0.0
 11
4.721603887
 21
3.7642674326
 31
0.0
  0
SPLINE
  5
465
100
AcDbEntity
  8
0
100
AcDbSpline
 62
7
  6
CONTINUOUS
 70
0
 71
3
 72
11
 73
7
 74
5
 42
0.0000001
 43
0.0000001
 44
0.0000000001
 12
0.0491825023
 22
0.0
 32
0.0
 13
0.0353053096
 23
-0.034352711
 33
0.0
 40
0.0
 40
0.0
 40
0.0
 40
0.0
 40
0.2634262803
 40
0.5337091681
 40
0.8019467143
 40
1.0
 40
1.0
 40
1.0
 40
1.0
 10
5.854603887
 20
4.1983851711
 30
0.0
 10
5.8589225415
 20
4.1983851711
 30
0.0
 10
5.8676988854
 20
4.1974663002
 30
0.0
 10
5.8802913585
 20
4.1933759166
 30
0.0
 10
5.8908417273
 20
4.1873291949
 30
0.0
 10
5.8967317038
 20
4.182403878
 30
0.0
 10
5.8990624813
 20
4.1801359889
 30
0.0
 11
5.854603887
 21
4.1983851711
 31
0.0
 11
5.8674897016
 21
4.1970387773
 31
0.0
 11
5.8801364336
 21
4.1929437761
 31
0.0
 11
5.8915859277
 21
4.1863898754
 31
0.0
 11
5.8990624813
 21
4.1801359889
 31
0.0
  0
SPLINE
  5
466
100
AcDbEntity
  8
0
100
AcDbSpline
 62
7
  6
CONTINUOUS
 70
0
 71
3
 72
8
 73
4
 74
2
 42
0.0000001
 43
0.0000001
 44
0.0000000001
 12
-0.0116261481
 22
0.0
 32
0.0
 13
-0.0114522036
 23
-0.0021604707
 33
0.0
 40
0.0
 40
0.0
 40
0.0
 40
0.0
 40
1.0
 40
1.0
 40
1.0
 40
1.0
 10
5.854603887
 20
4.1983851711
 30
0.0
 10
5.8507285043
 20
4.1983851711
 30
0.0
 10
5.8468425218
 20
4.1980199524
 30
0.0
 10
5.8430251206
 20
4.1972997955
 30
0.0
 11
5.854603887
 21
4.1983851711
 31
0.0
 11
5.8430251206
 21
4.1972997955
 31
0.0
  0
SPLINE
  5
467
100
AcDbEntity
  8
0
100
AcDbSpline
 62
7
  6
CONTINUOUS
 70
0
 71
3
 72
8
 73
4
 74
2
 42
0.0000001
 43
0.0000001
 44
0.0000000001
 12
0.0114462814
 22
-0.002158196
 32
0.0
 13
0.0116200157
 23
0.0
 33
0.0
 40
0.0
 40
0.0
 40
0.0
 40
0.0
 40
1.0
 40
1.0
 40
1.0
 40
1.0
 10
5.8430312116
 20
4.3172339161
 30
0.0
 10
5.8468466387
 20
4.3165145174
 30
0.0
 10
5.8507305484
 20
4.3161496941
 30
0.0
 10
5.854603887
 20
4.3161496941
 30
0.0
 11
5.8430312116
 21
4.3172339161
 31
0.0
 11
5.854603887
 21
4.3161496941
 31
0.0
  0
SPLINE
  5
468
100
AcDbEntity
  8
0
100
AcDbSpline
 62
7
  6
CONTINUOUS
 70
0
 71
3
 72
11
 73
7
 74
5
 42
0.0000001
 43
0.0000001
 44
0.0000000001
 12
-0.0353061177
 22
-0.0343579847
 32
0.0
 13
-0.0491866425
 23
0.0
 33
0.0
 40
0.0
 40
0.0
 40
0.0
 40
0.0
 40
0.1976939749
 40
0.4656794135
 40
0.7361958059
 40
1.0
 40
1.0
 40
1.0
 40
1.0
 10
5.8990655139
 20
4.3344018273
 30
0.0
 10
5.8967389117
 20
4.3321377051
 30
0.0
 10
5.8908571672
 20
4.3272173328
 30
0.0
 10
5.8803139771
 20
4.3211689571
 30
0.0
 10
5.867716321
 20
4.3170711171
 30
0.0
 10
5.8589291012
 20
4.3161496941
 30
0.0
 10
5.854603887
 20
4.3161496941
 30
0.0
 11
5.8990655139
 21
4.3344018273
 31
0.0
 11
5.8916030843
 21
4.328157285
 31
0.0
 11
5.8801660981
 21
4.3216042612
 31
0.0
 11
5.8675090605
 21
4.3175001745
 31
0.0
 11
5.854603887
 21
4.3161496941
 31
0.0
  0
SPLINE
  5
469
100
AcDbEntity
  8
0
100
AcDbSpline
 62
7
  6
CONTINUOUS
 70
0
 71
3
 72
21
 73
17
 74
15
 42
0.0000001
 43
0.0000001
 44
0.0000000001
 12
0.1538241878
 22
-0.0320810267
 32
0.0
 13
0.1538241899
 23
0.0320810268
 33
0.0
 40
0.0
 40
0.0
 40
0.0
 40
0.0
 40
0.0125713878
 40
0.0505366358
 40
0.1108576316
 40
0.1887929575
 40
0.2838628972
 40
0.3902953086
 40
0.499950768
 40
0.6096869373
 40
0.7162042868
 40
0.8112055134
 40
0.8891097768
 40
0.9495104275
 40
0.9874505007
 40
1.0
 40
1.0
 40
1.0
 40
1.0
 10
5.814603887
 20
4.6312674326
 30
0.0
 10
5.8152484815
 20
4.6311329983
 30
0.0
 10
5.8178410207
 20
4.6305987164
 30
0.0
 10
5.8235391882
 20
4.6294812391
 30
0.0
 10
5.8326297221
 20
4.6278769968
 30
0.0
 10
5.8447205576
 20
4.6260833038
 30
0.0
 10
5.8592690298
 20
4.6244471363
 30
0.0
 10
5.8755327803
 20
4.6233106643
 30
0.0
 10
5.8926003728
 20
4.6229077378
 30
0.0
 10
5.9096724352
 20
4.6233103438
 30
0.0
 10
5.92594125
 20
4.6244473442
 30
0.0
 10
5.9404889211
 20
4.6260836192
 30
0.0
 10
5.9525787248
 20
4.627877073
 30
0.0
 10
5.9616704645
 20
4.6294815566
 30
0.0
 10
5.9673702921
 20
4.6305994373
 30
0.0
 10
5.9699604148
 20
4.6311332323
 30
0.0
 10
5.970603887
 20
4.6312674326
 30
0.0
 11
5.814603887
 21
4.6312674326
 31
0.0
 11
5.8165386253
 21
4.6308687228
 31
0.0
 11
5.8223927993
 21
4.6297209154
 31
0.0
 11
5.8317272208
 21
4.6280746176
 31
0.0
 11
5.8438412162
 21
4.6262793539
 31
0.0
 11
5.858686661
 21
4.6246124723
 31
0.0
 11
5.8753703113
 21
4.6234490762
 31
0.0
 11
5.8925961485
 21
4.6230433203
 31
0.0
 11
5.9098346745
 21
4.623448945
 31
0.0
 11
5.926531627
 21
4.6246134433
 31
0.0
 11
5.9413663193
 21
4.6262793224
 31
0.0
 11
5.9534754988
 21
4.6280737879
 31
0.0
 11
5.9628222419
 21
4.6297222854
 31
0.0
 11
5.9686725189
 21
4.630869409
 31
0.0
 11
5.970603887
 21
4.6312674326
 31
0.0
  0
SPLINE
  5
46A
100
AcDbEntity
  8
0
100
AcDbSpline
 62
7
  6
CONTINUOUS
 70
0
 71
3
 72
21
 73
17
 74
15
 42
0.0000001
 43
0.0000001
 44
0.0000000001
 12
0.1538241899
 22
0.0320810268
 32
0.0
 13
0.1538241878
 23
-0.0320810267
 33
0.0
 40
0.0
 40
0.0
 40
0.0
 40
0.0
 40
0.0125494993
 40
0.0504895725
 40
0.1108902232
 40
0.1887944866
 40
0.2837957132
 40
0.3903130627
 40
0.500049232
 40
0.6097046914
 40
0.7161371028
 40
0.8112070425
 40
0.8891423684
 40
0.9494633642
 40
0.9874286122
 40
1.0
 40
1.0
 40
1.0
 40
1.0
 10
5.814603887
 20
3.8832674326
 30
0.0
 10
5.8152473592
 20
3.8834016329
 30
0.0
 10
5.8178374818
 20
3.8839354278
 30
0.0
 10
5.8235373094
 20
3.8850533086
 30
0.0
 10
5.8326290492
 20
3.8866577922
 30
0.0
 10
5.8447188528
 20
3.888451246
 30
0.0
 10
5.8592665239
 20
3.890087521
 30
0.0
 10
5.8755353387
 20
3.8912245214
 30
0.0
 10
5.8926074011
 20
3.8916271273
 30
0.0
 10
5.9096749937
 20
3.8912242009
 30
0.0
 10
5.9259387441
 20
3.8900877289
 30
0.0
 10
5.9404872164
 20
3.8884515614
 30
0.0
 10
5.9525780518
 20
3.8866578684
 30
0.0
 10
5.9616685857
 20
3.8850536261
 30
0.0
 10
5.9673667532
 20
3.8839361488
 30
0.0
 10
5.9699592925
 20
3.8834018669
 30
0.0
 10
5.970603887
 20
3.8832674326
 30
0.0
 11
5.814603887
 21
3.8832674326
 31
0.0
 11
5.816535255
 21
3.8836654562
 31
0.0
 11
5.822385532
 21
3.8848125798
 31
0.0
 11
5.8317322752
 21
3.8864610773
 31
0.0
 11
5.8438414546
 21
3.8882555428
 31
0.0
 11
5.8586761469
 21
3.8899214219
 31
0.0
 11
5.8753730994
 21
3.8910859202
 31
0.0
 11
5.8926116255
 21
3.8914915448
 31
0.0
 11
5.9098374627
 21
3.891085789
 31
0.0
 11
5.9265211129
 21
3.8899223929
 31
0.0
 11
5.9413665577
 21
3.8882555113
 31
0.0
 11
5.9534805531
 21
3.8864602476
 31
0.0
 11
5.9628149746
 21
3.8848139498
 31
0.0
 11
5.9686691487
 21
3.8836661424
 31
0.0
 11
5.970603887
 21
3.8832674326
 31
0.0
  0
SPLINE
  5
46B
100
AcDbEntity
  8
0
100
AcDbSpline
 62
7
  6
CONTINUOUS
 70
0
 71
3
 72
15
 73
11
 74
9
 42
0.0000001
 43
0.0000001
 44
0.0000000001
 12
0.144303637
 22
0.2708573861
 32
0.0
 13
-0.144303637
 23
0.2708573861
 33
0.0
 40
0.0
 40
0.0
 40
0.0
 40
0.0
 40
0.1355060615
 40
0.2616268072
 40
0.3821382325
 40
0.5000411188
 40
0.6179405518
 40
0.7384429083
 40
0.8645194725
 40
1.0
 40
1.0
 40
1.0
 40
1.0
 10
4.4311782611
 20
3.6238821231
 30
0.0
 10
4.437696267
 20
3.6361163957
 30
0.0
 10
4.4493295319
 20
3.6602713765
 30
0.0
 10
4.4625375143
 20
3.6971538053
 30
0.0
 10
4.4706339842
 20
3.7336729418
 30
0.0
 10
4.4733763794
 20
3.7701547743
 30
0.0
 10
4.4706303497
 20
3.806635379
 30
0.0
 10
4.4625321202
 20
3.8431481251
 30
0.0
 10
4.4493253789
 20
3.8800223308
 30
0.0
 10
4.4376950387
 20
3.9041707749
 30
0.0
 10
4.4311782611
 20
3.9164027421
 30
0.0
 11
4.4311782611
 21
3.6238821231
 31
0.0
 11
4.4490519114
 21
3.661431944
 31
0.0
 11
4.461934692
 21
3.6979315091
 31
0.0
 11
4.4698078114
 21
3.7340686916
 31
0.0
 11
4.4724683315
 21
3.7701550784
 31
0.0
 11
4.469804289
 21
3.8062401426
 31
0.0
 11
4.4619287759
 21
3.8423739549
 31
0.0
 11
4.4490488958
 21
3.8788601646
 31
0.0
 11
4.4311782611
 21
3.9164027421
 31
0.0
  0
SPLINE
  5
46C
100
AcDbEntity
  8
0
100
AcDbSpline
 62
7
  6
CONTINUOUS
 70
0
 71
3
 72
15
 73
11
 74
9
 42
0.0000001
 43
0.0000001
 44
0.0000000001
 12
-0.1524995809
 22
0.5724822844
 32
0.0
 13
0.1524995809
 23
0.5724822844
 33
0.0
 40
0.0
 40
0.0
 40
0.0
 40
0.0
 40
0.1303027146
 40
0.2554233163
 40
0.3781382012
 40
0.500042666
 40
0.6219428883
 40
0.7446469008
 40
0.8697222521
 40
1.0
 40
1.0
 40
1.0
 40
1.0
 10
4.0332145582
 20
3.9647468137
 30
0.0
 10
4.0265908551
 20
3.9896121456
 30
0.0
 10
4.0148190633
 20
4.0386912702
 30
0.0
 10
4.0017188253
 20
4.1122568902
 30
0.0
 10
3.9937247457
 20
4.18489498
 30
0.0
 10
3.991026436
 20
4.2572919103
 30
0.0
 10
3.9937283292
 20
4.3296865478
 30
0.0
 10
4.0017242197
 20
4.4023124188
 30
0.0
 10
4.0148233378
 20
4.4758619168
 30
0.0
 10
4.0265921242
 20
4.524927484
 30
0.0
 10
4.0332145582
 20
4.5497880515
 30
0.0
 11
4.0332145582
 21
3.9647468137
 31
0.0
 11
4.0153409079
 21
4.0398464554
 31
0.0
 11
4.0024581274
 21
4.1128455856
 31
0.0
 11
3.994585008
 21
4.1851199505
 31
0.0
 11
3.9919244879
 21
4.2572927241
 31
0.0
 11
3.9945885303
 21
4.3294628526
 31
0.0
 11
4.0024640434
 21
4.4017304773
 31
0.0
 11
4.0153439236
 21
4.4747028966
 31
0.0
 11
4.0332145582
 21
4.5497880515
 31
0.0
  0
SPLINE
  5
46D
100
AcDbEntity
  8
0
100
AcDbSpline
 62
7
  6
CONTINUOUS
 70
0
 71
3
 72
15
 73
11
 74
9
 42
0.0000001
 43
0.0000001
 44
0.0000000001
 12
0.1524995809
 22
0.5724822844
 32
0.0
 13
-0.1524995809
 23
0.5724822844
 33
0.0
 40
0.0
 40
0.0
 40
0.0
 40
0.0
 40
0.1303027146
 40
0.2554233163
 40
0.3781382012
 40
0.500042666
 40
0.6219428883
 40
0.7446469008
 40
0.8697222521
 40
1.0
 40
1.0
 40
1.0
 40
1.0
 10
4.4311782611
 20
3.9647468137
 30
0.0
 10
4.4378019642
 20
3.9896121456
 30
0.0
 10
4.449573756
 20
4.0386912702
 30
0.0
 10
4.4626739941
 20
4.1122568902
 30
0.0
 10
4.4706680736
 20
4.18489498
 30
0.0
 10
4.4733663833
 20
4.2572919103
 30
0.0
 10
4.4706644902
 20
4.3296865478
 30
0.0
 10
4.4626685997
 20
4.4023124188
 30
0.0
 10
4.4495694816
 20
4.4758619168
 30
0.0
 10
4.4378006951
 20
4.524927484
 30
0.0
 10
4.4311782611
 20
4.5497880515
 30
0.0
 11
4.4311782611
 21
3.9647468137
 31
0.0
 11
4.4490519114
 21
4.0398464554
 31
0.0
 11
4.461934692
 21
4.1128455856
 31
0.0
 11
4.4698078114
 21
4.1851199505
 31
0.0
 11
4.4724683315
 21
4.2572927241
 31
0.0
 11
4.469804289
 21
4.3294628526
 31
0.0
 11
4.4619287759
 21
4.4017304773
 31
0.0
 11
4.4490488958
 21
4.4747028966
 31
0.0
 11
4.4311782611
 21
4.5497880515
 31
0.0
  0
SPLINE
  5
46E
100
AcDbEntity
  8
0
100
AcDbSpline
 62
7
  6
CONTINUOUS
 70
0
 71
3
 72
15
 73
11
 74
9
 42
0.0000001
 43
0.0000001
 44
0.0000000001
 12
-0.144303637
 22
0.2708573861
 32
0.0
 13
0.144303637
 23
0.2708573861
 33
0.0
 40
0.0
 40
0.0
 40
0.0
 40
0.0
 40
0.1355060615
 40
0.2616268072
 40
0.3821382325
 40
0.5000411188
 40
0.6179405518
 40
0.7384429083
 40
0.8645194725
 40
1.0
 40
1.0
 40
1.0
 40
1.0
 10
4.0332145582
 20
4.5981321231
 30
0.0
 10
4.0266965524
 20
4.6103663957
 30
0.0
 10
4.0150632874
 20
4.6345213765
 30
0.0
 10
4.0018553051
 20
4.6714038053
 30
0.0
 10
3.9937588352
 20
4.7079229418
 30
0.0
 10
3.99101644
 20
4.7444047743
 30
0.0
 10
3.9937624697
 20
4.780885379
 30
0.0
 10
4.0018606992
 20
4.8173981251
 30
0.0
 10
4.0150674405
 20
4.8542723308
 30
0.0
 10
4.0266977806
 20
4.8784207749
 30
0.0
 10
4.0332145582
 20
4.8906527421
 30
0.0
 11
4.0332145582
 21
4.5981321231
 31
0.0
 11
4.0153409079
 21
4.635681944
 31
0.0
 11
4.0024581274
 21
4.6721815091
 31
0.0
 11
3.994585008
 21
4.7083186916
 31
0.0
 11
3.9919244879
 21
4.7444050784
 31
0.0
 11
3.9945885303
 21
4.7804901426
 31
0.0
 11
4.0024640434
 21
4.8166239549
 31
0.0
 11
4.0153439236
 21
4.8531101646
 31
0.0
 11
4.0332145582
 21
4.8906527421
 31
0.0
  0
SPLINE
  5
46F
100
AcDbEntity
  8
0
100
AcDbSpline
 62
7
  6
CONTINUOUS
 70
0
 71
3
 72
15
 73
11
 74
9
 42
0.0000001
 43
0.0000001
 44
0.0000000001
 12
0.144303637
 22
0.2708573861
 32
0.0
 13
-0.144303637
 23
0.2708573861
 33
0.0
 40
0.0
 40
0.0
 40
0.0
 40
0.0
 40
0.1355060615
 40
0.2616268072
 40
0.3821382325
 40
0.5000411188
 40
0.6179405518
 40
0.7384429083
 40
0.8645194725
 40
1.0
 40
1.0
 40
1.0
 40
1.0
 10
4.4311782611
 20
4.5981321231
 30
0.0
 10
4.437696267
 20
4.6103663957
 30
0.0
 10
4.4493295319
 20
4.6345213765
 30
0.0
 10
4.4625375143
 20
4.6714038053
 30
0.0
 10
4.4706339842
 20
4.7079229418
 30
0.0
 10
4.4733763794
 20
4.7444047743
 30
0.0
 10
4.4706303497
 20
4.780885379
 30
0.0
 10
4.4625321202
 20
4.8173981251
 30
0.0
 10
4.4493253789
 20
4.8542723308
 30
0.0
 10
4.4376950387
 20
4.8784207749
 30
0.0
 10
4.4311782611
 20
4.8906527421
 30
0.0
 11
4.4311782611
 21
4.5981321231
 31
0.0
 11
4.4490519114
 21
4.635681944
 31
0.0
 11
4.461934692
 21
4.6721815091
 31
0.0
 11
4.4698078114
 21
4.7083186916
 31
0.0
 11
4.4724683315
 21
4.7444050784
 31
0.0
 11
4.469804289
 21
4.7804901426
 31
0.0
 11
4.4619287759
 21
4.8166239549
 31
0.0
 11
4.4490488958
 21
4.8531101646
 31
0.0
 11
4.4311782611
 21
4.8906527421
 31
0.0
  0
SPLINE
  5
470
100
AcDbEntity
  8
0
100
AcDbSpline
 62
7
  6
CONTINUOUS
 70
0
 71
3
 72
15
 73
11
 74
9
 42
0.0000001
 43
0.0000001
 44
0.0000000001
 12
-0.144303637
 22
0.2708573861
 32
0.0
 13
0.144303637
 23
0.2708573861
 33
0.0
 40
0.0
 40
0.0
 40
0.0
 40
0.0
 40
0.1355060615
 40
0.2616268072
 40
0.3821382325
 40
0.5000411188
 40
0.6179405518
 40
0.7384429083
 40
0.8645194725
 40
1.0
 40
1.0
 40
1.0
 40
1.0
 10
4.0332145582
 20
3.6238821231
 30
0.0
 10
4.0266965524
 20
3.6361163957
 30
0.0
 10
4.0150632874
 20
3.6602713765
 30
0.0
 10
4.0018553051
 20
3.6971538053
 30
0.0
 10
3.9937588352
 20
3.7336729418
 30
0.0
 10
3.99101644
 20
3.7701547743
 30
0.0
 10
3.9937624697
 20
3.806635379
 30
0.0
 10
4.0018606992
 20
3.8431481251
 30
0.0
 10
4.0150674405
 20
3.8800223308
 30
0.0
 10
4.0266977806
 20
3.9041707749
 30
0.0
 10
4.0332145582
 20
3.9164027421
 30
0.0
 11
4.0332145582
 21
3.6238821231
 31
0.0
 11
4.0153409079
 21
3.661431944
 31
0.0
 11
4.0024581274
 21
3.6979315091
 31
0.0
 11
3.994585008
 21
3.7340686916
 31
0.0
 11
3.9919244879
 21
3.7701550784
 31
0.0
 11
3.9945885303
 21
3.8062401426
 31
0.0
 11
4.0024640434
 21
3.8423739549
 31
0.0
 11
4.0153439236
 21
3.8788601646
 31
0.0
 11
4.0332145582
 21
3.9164027421
 31
0.0
  0
ENDSEC
  0
SECTION
  2
OBJECTS
  0
DICTIONARY
  5
C
100
AcDbDictionary
280
0
281
1
  3
ACAD_GROUP
350
D
  3
ACAD_MLINESTYLE
350
17
  3
ACAD_LAYOUT
350
1A
  3
ACAD_PLOTSETTINGS
350
19
  3
ACAD_PLOTSTYLENAME
350
E
  0
DICTIONARY
  5
D
102
{ACAD_REACTORS
330
C
102
}
100
AcDbDictionary
280
0
281
1
  0
ACDBDICTIONARYWDFLT
  5
E
102
{ACAD_REACTORS
330
C
102
}
100
AcDbDictionary
281
1
  3
Normal
350
F
100
AcDbDictionaryWithDefault
340
F
  0
DICTIONARY
  5
17
102
{ACAD_REACTORS
330
C
102
}
100
AcDbDictionary
280
0
281
1
  3
Standard
350
18
  0
DICTIONARY
  5
19
102
{ACAD_REACTORS
330
C
102
}
100
AcDbDictionary
281
1
  0
DICTIONARY
  5
1A
102
{ACAD_REACTORS
330
C
102
}
100
AcDbDictionary
281
1
  3
Layout1
350
1E
  3
Model
350
22
  0
ACDBPLACEHOLDER
  5
F
102
{ACAD_REACTORS
330
E
102
}
  0
MLINESTYLE
  5
18
102
{ACAD_REACTORS
330
17
102
}
100
AcDbMlineStyle
  2
STANDARD
 70
0
  3

 62
256
 51
90.0
 52
90.0
 71
2
 49
0.5
 62
256
  6
BYLAYER
 49
-0.5
 62
256
  6
BYLAYER
  0
LAYOUT
  5
1E
102
{ACAD_REACTORS
330
1A
102
}
100
AcDbPlotSettings
  1

  2

  4

  6

 40
0.0
 41
0.0
 42
0.0
 43
0.0
 44
0.0
 45
0.0
 46
0.0
 47
0.0
 48
0.0
 49
0.0
140
0.0
141
0.0
142
1.0
143
1.0
 70
0
 72
0
 73
0
 74
0
  7

 75
0
147
1.0
148
0.0
149
0.0
100
AcDbLayout
  1
Layout1
 70
0
 71
0
 10
0.0
 20
0.0
 11
0.0
 21
0.0
 12
0.0
 22
0.0
 32
0.0
 14
0.0
 24
0.0
 34
0.0
 15
0.0
 25
0.0
 35
0.0
146
0.0
 13
0.0
 23
0.0
 33
0.0
 16
0.0
 26
0.0
 36
0.0
 17
0.0
 27
0.0
 37
0.0
 76
0
330
1B
331
0
345
0
346
0
  0
LAYOUT
  5
22
102
{ACAD_REACTORS
330
1A
102
}
100
AcDbPlotSettings
  1

  2

  4

  6

 40
0.0
 41
0.0
 42
0.0
 43
0.0
 44
0.0
 45
0.0
 46
0.0
 47
0.0
 48
0.0
 49
0.0
140
0.0
141
0.0
142
1.0
143
1.0
 70
0
 72
0
 73
0
 74
0
  7

 75
0
147
1.0
148
0.0
149
0.0
100
AcDbLayout
  1
Model
 70
0
 71
0
 10
0.0
 20
0.0
 11
0.0
 21
0.0
 12
0.0
 22
0.0
 32
0.0
 14
0.0
 24
0.0
 34
0.0
 15
0.0
 25
0.0
 35
0.0
146
0.0
 13
0.0
 23
0.0
 33
0.0
 16
0.0
 26
0.0
 36
0.0
 17
0.0
 27
0.0
 37
0.0
 76
0
330
1F
331
0
345
0
346
0
  0
ENDSEC
  0
EOF
