999
DXF file: FXCA-XAN.dxf
999
Pro/ENGINEER 2006240 by Parametric Technology Corporation
  0
SECTION
  2
HEADER
  9
$ACADVER
  1
AC1015
  9
$DWGCODEPAGE
  3
ANSI_1252
  9
$EXTMAX
 10
11.6929133858
 20
8.2677165354
 30
0.0
  9
$EXTMIN
 10
0.0
 20
0.0
 30
0.0
  9
$LIMMIN
 10
0.0
 20
0.0
  9
$LIMMAX
 10
11.6929133858
 20
8.2677165354
  9
$VIEWCTR
 10
5.8464566929
 20
4.1338582677
  9
$VIEWSIZE
 40
8.2677165354
  9
$CLAYER
  8
0
  9
$LTSCALE
 40
0.6431102362
  9
$CELTYPE
  6
BYLAYER
  9
$DIMSCALE
 40
1.0
  9
$DIMASZ
 40
0.1875
  9
$DIMEXO
 40
0.0730807087
  9
$DIMDLI
 40
0.4443307087
  9
$DIMEXE
 40
0.2104724409
  9
$DIMCEN
 40
0.1052362205
  9
$DIMLFAC
 40
1.0
  9
$DIMBLK
  1
_CLOSED
  9
$DIMTXT
 40
0.15625
  9
$DIMTOL
 70
0
  9
$DIMLIM
 70
0
  9
$DIMTFAC
 40
1.0
  9
$PDMODE
 70
3
  9
$PDSIZE
 40
0.3125
  9
$HANDSEED
  5
48A
  9
$MEASUREMENT
 70
0
  9
$INSUNITS
 70
1
  0
ENDSEC
  0
SECTION
  2
CLASSES
  0
CLASS
  1
ACDBDICTIONARYWDFLT
  2
AcDbDictionaryWithDefault
  3
AutoCAD 2000
 90
0
280
0
281
0
  0
CLASS
  1
ACDBPLACEHOLDER
  2
AcDbPlaceHolder
  3
AutoCAD 2000
 90
0
280
0
281
0
  0
CLASS
  1
LAYOUT
  2
AcDbLayout
  3
AutoCAD 2000
 90
0
280
0
281
0
  0
ENDSEC
  0
SECTION
  2
TABLES
  0
TABLE
  2
VPORT
  5
8
100
AcDbSymbolTable
 70
2
  0
VPORT
  5
1F4
100
AcDbSymbolTableRecord
100
AcDbViewportTableRecord
  2
*ACTIVE
 70
0
 10
0.0
 20
0.0
 11
1.0
 21
1.0
 12
5.8464566929
 22
4.1338582677
 13
0.0
 23
0.0
 14
1.0
 24
1.0
 15
0.0
 25
0.0
 16
0.0
 26
0.0
 36
1.0
 17
0.0
 27
0.0
 37
0.0
 40
8.2677165354
 41
1.4142857143
 42
50.0
 43
0.0
 44
0.0
 50
0.0
 51
0.0
 71
0
 72
100
 73
1
 74
1
 75
0
 76
0
 77
0
 78
0
  0
ENDTAB
  0
TABLE
  2
LTYPE
  5
5
100
AcDbSymbolTable
 70
6
  0
LTYPE
  5
14
100
AcDbSymbolTableRecord
100
AcDbLinetypeTableRecord
  2
BYBLOCK
 70
0
  3

 72
65
 73
0
 40
0.0
  0
LTYPE
  5
15
100
AcDbSymbolTableRecord
100
AcDbLinetypeTableRecord
  2
BYLAYER
 70
0
  3

 72
65
 73
0
 40
0.0
  0
LTYPE
  5
16
100
AcDbSymbolTableRecord
100
AcDbLinetypeTableRecord
  2
CONTINUOUS
 70
64
  3
Solid line
 72
65
 73
0
 40
0.0
  0
LTYPE
  5
1F5
100
AcDbSymbolTableRecord
100
AcDbLinetypeTableRecord
  2
CENTER
 70
64
  3
____ _ ____ _ ____ _ ____ _ ____ _ ____ _ ____
 72
65
 73
4
 40
0.6
 49
0.375
 74
0
 49
-0.075
 74
0
 49
0.075
 74
0
 49
-0.075
 74
0
  0
LTYPE
  5
1F6
100
AcDbSymbolTableRecord
100
AcDbLinetypeTableRecord
  2
HIDDEN
 70
64
  3
- - - - - - - - - - - - - - - - - - - -
 72
65
 73
2
 40
0.2
 49
0.1
 74
0
 49
-0.1
 74
0
  0
LTYPE
  5
1F7
100
AcDbSymbolTableRecord
100
AcDbLinetypeTableRecord
  2
PHANTOM
 70
64
  3
_____ _ _ _____ _ _ _____ _ _ _____
 72
65
 73
6
 40
0.8
 49
0.45
 74
0
 49
-0.05
 74
0
 49
0.1
 74
0
 49
-0.05
 74
0
 49
0.1
 74
0
 49
-0.05
 74
0
  0
LTYPE
  5
1F8
100
AcDbSymbolTableRecord
100
AcDbLinetypeTableRecord
  2
DOT
 70
64
  3
. . . . . . . . . . . . . . . . . . . .
 72
65
 73
2
 40
0.2
 49
0.1
 74
0
 49
-0.1
 74
0
  0
LTYPE
  5
1F9
100
AcDbSymbolTableRecord
100
AcDbLinetypeTableRecord
  2
DASHED
 70
64
  3
- - - - - - - - - - - - - - - - - - - -
 72
65
 73
2
 40
0.2
 49
0.1
 74
0
 49
-0.1
 74
0
  0
ENDTAB
  0
TABLE
  2
LAYER
  5
2
100
AcDbSymbolTable
 70
36
  0
LAYER
  5
10
100
AcDbSymbolTableRecord
100
AcDbLayerTableRecord
  2
0
 70
0
 62
7
  6
CONTINUOUS
370
-3
390
F
  0
LAYER
  5
1FA
100
AcDbSymbolTableRecord
100
AcDbLayerTableRecord
  2
DEFAULT_1
 70
0
 62
7
  6
CENTER
370
-3
390
F
  0
LAYER
  5
1FB
100
AcDbSymbolTableRecord
100
AcDbLayerTableRecord
  2
DEFAULT_2
 70
0
 62
8
  6
HIDDEN
370
-3
390
F
  0
LAYER
  5
1FC
100
AcDbSymbolTableRecord
100
AcDbLayerTableRecord
  2
DEFAULT_3
 70
0
 62
7
  6
PHANTOM
370
-3
390
F
  0
LAYER
  5
1FD
100
AcDbSymbolTableRecord
100
AcDbLayerTableRecord
  2
_BLACK_HOLE
 70
0
 62
7
  6
CONTINUOUS
370
-3
390
F
  0
LAYER
  5
1FE
100
AcDbSymbolTableRecord
100
AcDbLayerTableRecord
  2
01_ALL_DTM_PLN
 70
0
 62
7
  6
CONTINUOUS
370
-3
390
F
  0
LAYER
  5
1FF
100
AcDbSymbolTableRecord
100
AcDbLayerTableRecord
  2
01__ASM_ALL_DTM_PLN
 70
0
 62
7
  6
CONTINUOUS
370
-3
390
F
  0
LAYER
  5
200
100
AcDbSymbolTableRecord
100
AcDbLayerTableRecord
  2
01__ASM_DEF_DTM_PLN
 70
0
 62
7
  6
CONTINUOUS
370
-3
390
F
  0
LAYER
  5
201
100
AcDbSymbolTableRecord
100
AcDbLayerTableRecord
  2
01___PRT_ALL_DTM_PLN
 70
0
 62
7
  6
CONTINUOUS
370
-3
390
F
  0
LAYER
  5
202
100
AcDbSymbolTableRecord
100
AcDbLayerTableRecord
  2
01___PRT_DEF_DTM_PLN
 70
0
 62
7
  6
CONTINUOUS
370
-3
390
F
  0
LAYER
  5
203
100
AcDbSymbolTableRecord
100
AcDbLayerTableRecord
  2
02_ALL_AXES
 70
0
 62
7
  6
CONTINUOUS
370
-3
390
F
  0
LAYER
  5
204
100
AcDbSymbolTableRecord
100
AcDbLayerTableRecord
  2
02__ASM_ALL_AXES
 70
0
 62
7
  6
CONTINUOUS
370
-3
390
F
  0
LAYER
  5
205
100
AcDbSymbolTableRecord
100
AcDbLayerTableRecord
  2
02___PRT_ALL_AXES
 70
0
 62
7
  6
CONTINUOUS
370
-3
390
F
  0
LAYER
  5
206
100
AcDbSymbolTableRecord
100
AcDbLayerTableRecord
  2
03_ALL_CURVES
 70
0
 62
7
  6
CONTINUOUS
370
-3
390
F
  0
LAYER
  5
207
100
AcDbSymbolTableRecord
100
AcDbLayerTableRecord
  2
03__ASM_ALL_CURVES
 70
0
 62
7
  6
CONTINUOUS
370
-3
390
F
  0
LAYER
  5
208
100
AcDbSymbolTableRecord
100
AcDbLayerTableRecord
  2
03___PRT_ALL_CURVES
 70
0
 62
7
  6
CONTINUOUS
370
-3
390
F
  0
LAYER
  5
209
100
AcDbSymbolTableRecord
100
AcDbLayerTableRecord
  2
04_ALL_DTM_PNT
 70
0
 62
7
  6
CONTINUOUS
370
-3
390
F
  0
LAYER
  5
20A
100
AcDbSymbolTableRecord
100
AcDbLayerTableRecord
  2
04__ASM_ALL_DTM_PNT
 70
0
 62
7
  6
CONTINUOUS
370
-3
390
F
  0
LAYER
  5
20B
100
AcDbSymbolTableRecord
100
AcDbLayerTableRecord
  2
04___PRT_ALL_DTM_PNT
 70
0
 62
7
  6
CONTINUOUS
370
-3
390
F
  0
LAYER
  5
20C
100
AcDbSymbolTableRecord
100
AcDbLayerTableRecord
  2
05_ALL_DTM_CSYS
 70
0
 62
7
  6
CONTINUOUS
370
-3
390
F
  0
LAYER
  5
20D
100
AcDbSymbolTableRecord
100
AcDbLayerTableRecord
  2
05__ASM_ALL_DTM_CSYS
 70
0
 62
7
  6
CONTINUOUS
370
-3
390
F
  0
LAYER
  5
20E
100
AcDbSymbolTableRecord
100
AcDbLayerTableRecord
  2
05__ASM_DEF_DTM_CSYS
 70
0
 62
7
  6
CONTINUOUS
370
-3
390
F
  0
LAYER
  5
20F
100
AcDbSymbolTableRecord
100
AcDbLayerTableRecord
  2
05___PRT_ALL_DTM_CSYS
 70
0
 62
7
  6
CONTINUOUS
370
-3
390
F
  0
LAYER
  5
210
100
AcDbSymbolTableRecord
100
AcDbLayerTableRecord
  2
05___PRT_DEF_DTM_CSYS
 70
0
 62
7
  6
CONTINUOUS
370
-3
390
F
  0
LAYER
  5
211
100
AcDbSymbolTableRecord
100
AcDbLayerTableRecord
  2
06_ALL_SURFS
 70
0
 62
7
  6
CONTINUOUS
370
-3
390
F
  0
LAYER
  5
212
100
AcDbSymbolTableRecord
100
AcDbLayerTableRecord
  2
06__ASM_ALL_SURFS
 70
0
 62
7
  6
CONTINUOUS
370
-3
390
F
  0
LAYER
  5
213
100
AcDbSymbolTableRecord
100
AcDbLayerTableRecord
  2
06___PRT_ALL_SURFS
 70
0
 62
7
  6
CONTINUOUS
370
-3
390
F
  0
LAYER
  5
214
100
AcDbSymbolTableRecord
100
AcDbLayerTableRecord
  2
07__ASM_ALL_SKELETONS
 70
0
 62
7
  6
CONTINUOUS
370
-3
390
F
  0
LAYER
  5
215
100
AcDbSymbolTableRecord
100
AcDbLayerTableRecord
  2
126-002_HEX_FEATURES
 70
0
 62
7
  6
CONTINUOUS
370
-3
390
F
  0
LAYER
  5
216
100
AcDbSymbolTableRecord
100
AcDbLayerTableRecord
  2
126-002_REF_GEOMETRY
 70
0
 62
7
  6
CONTINUOUS
370
-3
390
F
  0
LAYER
  5
217
100
AcDbSymbolTableRecord
100
AcDbLayerTableRecord
  2
126-100_HEX_FEATURES
 70
0
 62
7
  6
CONTINUOUS
370
-3
390
F
  0
LAYER
  5
218
100
AcDbSymbolTableRecord
100
AcDbLayerTableRecord
  2
126-100_REF_GEOMETRY
 70
0
 62
7
  6
CONTINUOUS
370
-3
390
F
  0
LAYER
  5
219
100
AcDbSymbolTableRecord
100
AcDbLayerTableRecord
  2
126-101_HEX_FEATURES
 70
0
 62
7
  6
CONTINUOUS
370
-3
390
F
  0
LAYER
  5
21A
100
AcDbSymbolTableRecord
100
AcDbLayerTableRecord
  2
126-101_REF_GEOMETRY
 70
0
 62
7
  6
CONTINUOUS
370
-3
390
F
  0
LAYER
  5
21B
100
AcDbSymbolTableRecord
100
AcDbLayerTableRecord
  2
126-102_HEX_FEATURES
 70
0
 62
7
  6
CONTINUOUS
370
-3
390
F
  0
LAYER
  5
21C
100
AcDbSymbolTableRecord
100
AcDbLayerTableRecord
  2
126-102_REF_GEOMETRY
 70
0
 62
7
  6
CONTINUOUS
370
-3
390
F
  0
LAYER
  5
21D
100
AcDbSymbolTableRecord
100
AcDbLayerTableRecord
  2
126-103_HEX_FEATURES
 70
0
 62
7
  6
CONTINUOUS
370
-3
390
F
  0
LAYER
  5
21E
100
AcDbSymbolTableRecord
100
AcDbLayerTableRecord
  2
126-103_REF_GEOMETRY
 70
0
 62
7
  6
CONTINUOUS
370
-3
390
F
  0
LAYER
  5
21F
100
AcDbSymbolTableRecord
100
AcDbLayerTableRecord
  2
126-104_HEX_FEATURES
 70
0
 62
7
  6
CONTINUOUS
370
-3
390
F
  0
LAYER
  5
220
100
AcDbSymbolTableRecord
100
AcDbLayerTableRecord
  2
126-104_REF_GEOMETRY
 70
0
 62
7
  6
CONTINUOUS
370
-3
390
F
  0
LAYER
  5
221
100
AcDbSymbolTableRecord
100
AcDbLayerTableRecord
  2
250-19_BSPP_PORT_PER_S-186
 70
0
 62
7
  6
CONTINUOUS
370
-3
390
F
  0
LAYER
  5
222
100
AcDbSymbolTableRecord
100
AcDbLayerTableRecord
  2
ALL_DATUM_FEAT
 70
0
 62
7
  6
CONTINUOUS
370
-3
390
F
  0
LAYER
  5
223
100
AcDbSymbolTableRecord
100
AcDbLayerTableRecord
  2
AXIS
 70
0
 62
7
  6
CONTINUOUS
370
-3
390
F
  0
LAYER
  5
224
100
AcDbSymbolTableRecord
100
AcDbLayerTableRecord
  2
COPY_GEO_FET
 70
0
 62
7
  6
CONTINUOUS
370
-3
390
F
  0
LAYER
  5
225
100
AcDbSymbolTableRecord
100
AcDbLayerTableRecord
  2
COSMESTIC
 70
0
 62
7
  6
CONTINUOUS
370
-3
390
F
  0
LAYER
  5
226
100
AcDbSymbolTableRecord
100
AcDbLayerTableRecord
  2
COSMETIC
 70
0
 62
7
  6
CONTINUOUS
370
-3
390
F
  0
LAYER
  5
227
100
AcDbSymbolTableRecord
100
AcDbLayerTableRecord
  2
CSYS
 70
0
 62
7
  6
CONTINUOUS
370
-3
390
F
  0
LAYER
  5
228
100
AcDbSymbolTableRecord
100
AcDbLayerTableRecord
  2
CURVES
 70
0
 62
7
  6
CONTINUOUS
370
-3
390
F
  0
LAYER
  5
229
100
AcDbSymbolTableRecord
100
AcDbLayerTableRecord
  2
CUT_REF_SURF
 70
0
 62
7
  6
CONTINUOUS
370
-3
390
F
  0
LAYER
  5
22A
100
AcDbSymbolTableRecord
100
AcDbLayerTableRecord
  2
DATUM
 70
0
 62
7
  6
CONTINUOUS
370
-3
390
F
  0
LAYER
  5
22B
100
AcDbSymbolTableRecord
100
AcDbLayerTableRecord
  2
DATUMCURVES
 70
0
 62
7
  6
CONTINUOUS
370
-3
390
F
  0
LAYER
  5
22C
100
AcDbSymbolTableRecord
100
AcDbLayerTableRecord
  2
DATUM_PLANES
 70
0
 62
7
  6
CONTINUOUS
370
-3
390
F
  0
LAYER
  5
22D
100
AcDbSymbolTableRecord
100
AcDbLayerTableRecord
  2
DIMENSIONS
 70
0
 62
7
  6
CONTINUOUS
370
-3
390
F
  0
LAYER
  5
22E
100
AcDbSymbolTableRecord
100
AcDbLayerTableRecord
  2
DIMS
 70
0
 62
7
  6
CONTINUOUS
370
-3
390
F
  0
LAYER
  5
22F
100
AcDbSymbolTableRecord
100
AcDbLayerTableRecord
  2
DRAWINGNOTES
 70
0
 62
7
  6
CONTINUOUS
370
-3
390
F
  0
LAYER
  5
230
100
AcDbSymbolTableRecord
100
AcDbLayerTableRecord
  2
DTM
 70
0
 62
7
  6
CONTINUOUS
370
-3
390
F
  0
LAYER
  5
231
100
AcDbSymbolTableRecord
100
AcDbLayerTableRecord
  2
DTM_500002
 70
0
 62
7
  6
CONTINUOUS
370
-3
390
F
  0
LAYER
  5
232
100
AcDbSymbolTableRecord
100
AcDbLayerTableRecord
  2
DTM_515002
 70
0
 62
7
  6
CONTINUOUS
370
-3
390
F
  0
LAYER
  5
233
100
AcDbSymbolTableRecord
100
AcDbLayerTableRecord
  2
DTM_SPRING_RH
 70
0
 62
7
  6
CONTINUOUS
370
-3
390
F
  0
LAYER
  5
234
100
AcDbSymbolTableRecord
100
AcDbLayerTableRecord
  2
DTM_SP_RH_CONSTR
 70
0
 62
7
  6
CONTINUOUS
370
-3
390
F
  0
LAYER
  5
235
100
AcDbSymbolTableRecord
100
AcDbLayerTableRecord
  2
GEOMETRICTOLERANCES
 70
0
 62
7
  6
CONTINUOUS
370
-3
390
F
  0
LAYER
  5
236
100
AcDbSymbolTableRecord
100
AcDbLayerTableRecord
  2
PARAMETERDIMENSIONS
 70
0
 62
7
  6
CONTINUOUS
370
-3
390
F
  0
LAYER
  5
237
100
AcDbSymbolTableRecord
100
AcDbLayerTableRecord
  2
PLANE
 70
0
 62
7
  6
CONTINUOUS
370
-3
390
F
  0
LAYER
  5
238
100
AcDbSymbolTableRecord
100
AcDbLayerTableRecord
  2
STD_SAE-4_PORT
 70
0
 62
7
  6
CONTINUOUS
370
-3
390
F
  0
LAYER
  5
239
100
AcDbSymbolTableRecord
100
AcDbLayerTableRecord
  2
STD_SAE-6_PORT
 70
0
 62
7
  6
CONTINUOUS
370
-3
390
F
  0
LAYER
  5
23A
100
AcDbSymbolTableRecord
100
AcDbLayerTableRecord
  2
T-8A_CAVITY
 70
0
 62
7
  6
CONTINUOUS
370
-3
390
F
  0
LAYER
  5
23B
100
AcDbSymbolTableRecord
100
AcDbLayerTableRecord
  2
T-8A_CAVITY_REF_GEOMETRY
 70
0
 62
7
  6
CONTINUOUS
370
-3
390
F
  0
LAYER
  5
23C
100
AcDbSymbolTableRecord
100
AcDbLayerTableRecord
  2
TEXT
 70
0
 62
7
  6
CONTINUOUS
370
-3
390
F
  0
LAYER
  5
23D
100
AcDbSymbolTableRecord
100
AcDbLayerTableRecord
  2
THREAD
 70
0
 62
7
  6
CONTINUOUS
370
-3
390
F
  0
LAYER
  5
23E
100
AcDbSymbolTableRecord
100
AcDbLayerTableRecord
  2
XSEC_DATUMS
 70
0
 62
7
  6
CONTINUOUS
370
-3
390
F
  0
ENDTAB
  0
TABLE
  2
STYLE
  5
3
100
AcDbSymbolTable
 70
1
  0
STYLE
  5
11
100
AcDbSymbolTableRecord
100
AcDbTextStyleTableRecord
  2
STANDARD
 70
0
 40
0.0
 41
0.8
 50
0.0
 71
0
 42
0.2
  3
txt
  4

  0
ENDTAB
  0
TABLE
  2
VIEW
  5
6
100
AcDbSymbolTable
 70
0
  0
ENDTAB
  0
TABLE
  2
UCS
  5
7
100
AcDbSymbolTable
 70
0
  0
ENDTAB
  0
TABLE
  2
APPID
  5
9
100
AcDbSymbolTable
 70
1
  0
APPID
  5
23F
100
AcDbSymbolTableRecord
100
AcDbRegAppTableRecord
  2
ACAD
 70
0
  0
ENDTAB
  0
TABLE
  2
BLOCK_RECORD
  5
1
100
AcDbSymbolTable
 70
0
  0
BLOCK_RECORD
  5
1F
100
AcDbSymbolTableRecord
100
AcDbBlockTableRecord
  2
*MODEL_SPACE
  0
BLOCK_RECORD
  5
1B
100
AcDbSymbolTableRecord
100
AcDbBlockTableRecord
  2
*PAPER_SPACE
  0
ENDTAB
  0
TABLE
  2
DIMSTYLE
  5
A
100
AcDbSymbolTable
 70
1
100
AcDbDimStyleTable
 71
0
  0
DIMSTYLE
105
240
100
AcDbSymbolTableRecord
100
AcDbDimStyleTableRecord
  2
STANDARD
 70
0
  3

  4

 40
1.0
 41
0.1875
 42
0.0625
 43
0.38
 44
0.18
 45
0.0
 46
0.0
 47
0.01
 48
0.01
140
0.15625
141
0.09
142
0.0
143
25.4
144
1.0
145
0.0
146
1.0
147
0.09
 71
0.0
 72
0.0
 73
1
 74
1
 75
0
 76
0
 77
0
 78
4
170
0
171
2
172
0
173
0
174
0
175
0
176
0
177
0
178
0
270
2
271
2
272
2
273
2
274
2
275
0
280
0
281
0
282
0
283
1
284
4
285
0
286
0
287
3
288
0
340
11
  0
ENDTAB
  0
ENDSEC
  0
SECTION
  2
BLOCKS
  0
BLOCK
  5
20
100
AcDbEntity
  8
0
100
AcDbBlockBegin
  2
*MODEL_SPACE
 70
0
 10
0.0
 20
0.0
 30
0.0
  3
*MODEL_SPACE
  1

  0
ENDBLK
  5
21
100
AcDbEntity
  8
0
100
AcDbBlockEnd
  0
BLOCK
  5
1C
100
AcDbEntity
  8
0
100
AcDbBlockBegin
  2
*PAPER_SPACE
 70
0
 10
0.0
 20
0.0
 30
0.0
  3
*PAPER_SPACE
  1

  0
ENDBLK
  5
1D
100
AcDbEntity
  8
0
100
AcDbBlockEnd
  0
ENDSEC
  0
SECTION
  2
ENTITIES
  0
LINE
  5
241
100
AcDbEntity
  8
THREAD
100
AcDbLine
 62
7
  6
CONTINUOUS
 10
4.3082573967
 20
3.7577184326
 11
4.2741937308
 21
3.8167184326
  0
LINE
  5
242
100
AcDbEntity
  8
THREAD
100
AcDbLine
 62
7
  6
CONTINUOUS
 10
4.2741937308
 20
3.8167184326
 11
4.2741937308
 21
4.6767184326
  0
LINE
  5
243
100
AcDbEntity
  8
03__ASM_ALL_CURVES
100
AcDbLine
 62
40
  6
CONTINUOUS
 10
4.2741937308
 20
4.6767184326
 11
4.2741937308
 21
4.9255664326
  0
LINE
  5
244
100
AcDbEntity
  8
THREAD
100
AcDbLine
 62
7
  6
CONTINUOUS
 10
4.3082573967
 20
3.7577184326
 11
4.3082573967
 21
3.7586159601
  0
LINE
  5
245
100
AcDbEntity
  8
THREAD
100
AcDbLine
 62
7
  6
CONTINUOUS
 10
4.3082573967
 20
3.9770209051
 11
4.3082573967
 21
4.0283134876
  0
LINE
  5
246
100
AcDbEntity
  8
THREAD
100
AcDbLine
 62
7
  6
CONTINUOUS
 10
4.3082573967
 20
4.4651233776
 11
4.3082573967
 21
4.5164159601
  0
LINE
  5
247
100
AcDbEntity
  8
THREAD
100
AcDbLine
 62
7
  6
CONTINUOUS
 10
4.3082573967
 20
4.7348209051
 11
4.3082573967
 21
4.7357184326
  0
LINE
  5
248
100
AcDbEntity
  8
03__ASM_ALL_CURVES
100
AcDbLine
 62
40
  6
CONTINUOUS
 10
4.3173337308
 20
4.9183764326
 11
4.3173337308
 21
4.9039964326
  0
LINE
  5
249
100
AcDbEntity
  8
03__ASM_ALL_CURVES
100
AcDbLine
 62
40
  6
CONTINUOUS
 10
4.4227087308
 20
4.9543264335
 11
4.4254049808
 21
4.9615164317
  0
LINE
  5
24A
100
AcDbEntity
  8
03__ASM_ALL_CURVES
100
AcDbLine
 62
40
  6
CONTINUOUS
 10
4.4442787308
 20
4.939946433
 11
4.4415824808
 21
4.9327564328
  0
LINE
  5
24B
100
AcDbEntity
  8
THREAD
100
AcDbLine
 62
7
  6
CONTINUOUS
 10
4.3082573967
 20
4.7357184326
 11
4.2741937308
 21
4.6767184326
  0
LINE
  5
24C
100
AcDbEntity
  8
03__ASM_ALL_CURVES
100
AcDbLine
 62
40
  6
CONTINUOUS
 10
4.4254049808
 20
4.9615164317
 11
4.4281012308
 21
4.9651114335
  0
LINE
  5
24D
100
AcDbEntity
  8
03__ASM_ALL_CURVES
100
AcDbLine
 62
40
  6
CONTINUOUS
 10
4.4415824808
 20
4.9327564328
 11
4.4388862308
 21
4.9291614327
  0
LINE
  5
24E
100
AcDbEntity
  8
03__ASM_ALL_CURVES
100
AcDbLine
 62
40
  6
CONTINUOUS
 10
4.4227087308
 20
4.939946433
 11
4.4227087308
 21
4.9543264335
  0
LINE
  5
24F
100
AcDbEntity
  8
03__ASM_ALL_CURVES
100
AcDbLine
 62
40
  6
CONTINUOUS
 10
4.4442787308
 20
4.9543264335
 11
4.4442787308
 21
4.939946433
  0
LINE
  5
250
100
AcDbEntity
  8
03__ASM_ALL_CURVES
100
AcDbLine
 62
40
  6
CONTINUOUS
 10
4.4739374808
 20
4.9255664326
 11
4.4739374808
 21
4.9291614327
  0
LINE
  5
251
100
AcDbEntity
  8
03__ASM_ALL_CURVES
100
AcDbLine
 62
40
  6
CONTINUOUS
 10
4.5197737308
 20
4.9255664326
 11
4.5224699808
 21
4.9435414322
  0
LINE
  5
252
100
AcDbEntity
  8
03__ASM_ALL_CURVES
100
AcDbLine
 62
40
  6
CONTINUOUS
 10
4.5575212308
 20
4.9687064326
 11
4.5548249808
 21
4.9507314317
  0
LINE
  5
253
100
AcDbEntity
  8
03__ASM_ALL_CURVES
100
AcDbLine
 62
40
  6
CONTINUOUS
 10
4.5224699808
 20
4.9435414322
 11
4.5251662308
 21
4.9543264335
  0
LINE
  5
254
100
AcDbEntity
  8
03__ASM_ALL_CURVES
100
AcDbLine
 62
40
  6
CONTINUOUS
 10
4.6033574808
 20
4.9615164317
 11
4.6006612308
 21
4.9507314317
  0
LINE
  5
255
100
AcDbEntity
  8
03__ASM_ALL_CURVES
100
AcDbLine
 62
40
  6
CONTINUOUS
 10
4.5251662308
 20
4.9543264335
 11
4.5305587308
 21
4.9687064326
  0
LINE
  5
256
100
AcDbEntity
  8
03__ASM_ALL_CURVES
100
AcDbLine
 62
40
  6
CONTINUOUS
 10
4.5763949808
 20
4.939946433
 11
4.5736987308
 21
4.9327564328
  0
LINE
  5
257
100
AcDbEntity
  8
03__ASM_ALL_CURVES
100
AcDbLine
 62
40
  6
CONTINUOUS
 10
4.5736987308
 20
4.9327564328
 11
4.5710024808
 21
4.9291614327
  0
LINE
  5
258
100
AcDbEntity
  8
03__ASM_ALL_CURVES
100
AcDbLine
 62
40
  6
CONTINUOUS
 10
4.6087499808
 20
4.9687064326
 11
4.6033574808
 21
4.9615164317
  0
LINE
  5
259
100
AcDbEntity
  8
03__ASM_ALL_CURVES
100
AcDbLine
 62
40
  6
CONTINUOUS
 10
4.4281012308
 20
4.9651114335
 11
4.4334937308
 21
4.9687064326
  0
LINE
  5
25A
100
AcDbEntity
  8
03__ASM_ALL_CURVES
100
AcDbLine
 62
40
  6
CONTINUOUS
 10
4.6815487308
 20
4.9543264335
 11
4.6842449808
 21
4.9615164317
  0
LINE
  5
25B
100
AcDbEntity
  8
03__ASM_ALL_CURVES
100
AcDbLine
 62
40
  6
CONTINUOUS
 10
4.7031187308
 20
4.9543264335
 11
4.7004224808
 21
4.9471364326
  0
LINE
  5
25C
100
AcDbEntity
  8
03__ASM_ALL_CURVES
100
AcDbLine
 62
40
  6
CONTINUOUS
 10
4.7031187308
 20
4.939946433
 11
4.7004224808
 21
4.9327564328
  0
LINE
  5
25D
100
AcDbEntity
  8
03__ASM_ALL_CURVES
100
AcDbLine
 62
40
  6
CONTINUOUS
 10
4.6842449808
 20
4.9615164317
 11
4.6869412308
 21
4.9651114335
  0
LINE
  5
25E
100
AcDbEntity
  8
03__ASM_ALL_CURVES
100
AcDbLine
 62
40
  6
CONTINUOUS
 10
4.7004224808
 20
4.9327564328
 11
4.6977262308
 21
4.9291614327
  0
LINE
  5
25F
100
AcDbEntity
  8
03__ASM_ALL_CURVES
100
AcDbLine
 62
40
  6
CONTINUOUS
 10
4.7705249808
 20
4.9615164317
 11
4.7732212308
 21
4.9651114335
  0
LINE
  5
260
100
AcDbEntity
  8
03__ASM_ALL_CURVES
100
AcDbLine
 62
40
  6
CONTINUOUS
 10
4.4388862308
 20
4.9291614327
 11
4.4334937308
 21
4.9255664326
  0
LINE
  5
261
100
AcDbEntity
  8
03__ASM_ALL_CURVES
100
AcDbLine
 62
40
  6
CONTINUOUS
 10
4.5548249808
 20
4.9507314317
 11
4.5602174808
 21
4.9543264335
  0
LINE
  5
262
100
AcDbEntity
  8
03__ASM_ALL_CURVES
100
AcDbLine
 62
40
  6
CONTINUOUS
 10
4.5710024808
 20
4.9291614327
 11
4.5656099808
 21
4.9255664326
  0
LINE
  5
263
100
AcDbEntity
  8
03__ASM_ALL_CURVES
100
AcDbLine
 62
40
  6
CONTINUOUS
 10
4.6006612308
 20
4.9507314317
 11
4.6006612308
 21
4.9435414322
  0
LINE
  5
264
100
AcDbEntity
  8
03__ASM_ALL_CURVES
100
AcDbLine
 62
40
  6
CONTINUOUS
 10
4.6491937308
 20
4.9687064326
 11
4.6491937308
 21
4.9255664326
  0
LINE
  5
265
100
AcDbEntity
  8
03__ASM_ALL_CURVES
100
AcDbLine
 62
40
  6
CONTINUOUS
 10
4.7678287308
 20
4.9543264335
 11
4.7705249808
 21
4.9615164317
  0
LINE
  5
266
100
AcDbEntity
  8
03__ASM_ALL_CURVES
100
AcDbLine
 62
40
  6
CONTINUOUS
 10
4.7893987308
 20
4.939946433
 11
4.7867024808
 21
4.9327564328
  0
LINE
  5
267
100
AcDbEntity
  8
03__ASM_ALL_CURVES
100
AcDbLine
 62
40
  6
CONTINUOUS
 10
4.8298424808
 20
4.9687064326
 11
4.8109687308
 21
4.9363514326
  0
LINE
  5
268
100
AcDbEntity
  8
03__ASM_ALL_CURVES
100
AcDbLine
 62
40
  6
CONTINUOUS
 10
4.7867024808
 20
4.9327564328
 11
4.7840062308
 21
4.9291614327
  0
LINE
  5
269
100
AcDbEntity
  8
03__ASM_ALL_CURVES
100
AcDbLine
 62
40
  6
CONTINUOUS
 10
4.8675899808
 20
4.9327564328
 11
4.8621974808
 21
4.9255664326
  0
LINE
  5
26A
100
AcDbEntity
  8
03__ASM_ALL_CURVES
100
AcDbLine
 62
40
  6
CONTINUOUS
 10
4.6869412308
 20
4.9651114335
 11
4.6923337308
 21
4.9687064326
  0
LINE
  5
26B
100
AcDbEntity
  8
03__ASM_ALL_CURVES
100
AcDbLine
 62
40
  6
CONTINUOUS
 10
4.6977262308
 20
4.9291614327
 11
4.6923337308
 21
4.9255664326
  0
LINE
  5
26C
100
AcDbEntity
  8
03__ASM_ALL_CURVES
100
AcDbLine
 62
40
  6
CONTINUOUS
 10
4.7732212308
 20
4.9651114335
 11
4.7786137308
 21
4.9687064326
  0
LINE
  5
26D
100
AcDbEntity
  8
03__ASM_ALL_CURVES
100
AcDbLine
 62
40
  6
CONTINUOUS
 10
4.7031187308
 20
4.9543264335
 11
4.7031187308
 21
4.939946433
  0
LINE
  5
26E
100
AcDbEntity
  8
03__ASM_ALL_CURVES
100
AcDbLine
 62
40
  6
CONTINUOUS
 10
4.7327774808
 20
4.9255664326
 11
4.7327774808
 21
4.9291614327
  0
LINE
  5
26F
100
AcDbEntity
  8
THREAD
100
AcDbLine
 62
7
  6
CONTINUOUS
 10
4.7436937308
 20
3.7577184326
 11
4.7436937308
 21
3.7586159601
  0
LINE
  5
270
100
AcDbEntity
  8
THREAD
100
AcDbLine
 62
7
  6
CONTINUOUS
 10
4.7436937308
 20
3.9770209051
 11
4.7436937308
 21
4.0283134876
  0
LINE
  5
271
100
AcDbEntity
  8
THREAD
100
AcDbLine
 62
7
  6
CONTINUOUS
 10
4.7436937308
 20
4.4651233776
 11
4.7436937308
 21
4.5164159601
  0
LINE
  5
272
100
AcDbEntity
  8
THREAD
100
AcDbLine
 62
7
  6
CONTINUOUS
 10
4.7436937308
 20
4.7348209051
 11
4.7436937308
 21
4.7357184326
  0
LINE
  5
273
100
AcDbEntity
  8
03__ASM_ALL_CURVES
100
AcDbLine
 62
40
  6
CONTINUOUS
 10
4.7678287308
 20
4.939946433
 11
4.7678287308
 21
4.9543264335
  0
LINE
  5
274
100
AcDbEntity
  8
03__ASM_ALL_CURVES
100
AcDbLine
 62
40
  6
CONTINUOUS
 10
4.7893987308
 20
4.9543264335
 11
4.7893987308
 21
4.939946433
  0
LINE
  5
275
100
AcDbEntity
  8
THREAD
100
AcDbLine
 62
7
  6
CONTINUOUS
 10
4.8051937308
 20
3.8192184326
 11
4.8051937308
 21
4.6742184326
  0
LINE
  5
276
100
AcDbEntity
  8
03__ASM_ALL_CURVES
100
AcDbLine
 62
40
  6
CONTINUOUS
 10
4.8702862308
 20
4.9435414322
 11
4.8675899808
 21
4.9327564328
  0
LINE
  5
277
100
AcDbEntity
  8
03__ASM_ALL_CURVES
100
AcDbLine
 62
40
  6
CONTINUOUS
 10
4.7840062308
 20
4.9291614327
 11
4.7786137308
 21
4.9255664326
  0
LINE
  5
278
100
AcDbEntity
  8
03__ASM_ALL_CURVES
100
AcDbLine
 62
40
  6
CONTINUOUS
 10
4.7004224808
 20
4.9471364326
 11
4.6923337308
 21
4.9435414322
  0
LINE
  5
279
100
AcDbEntity
  8
03__ASM_ALL_CURVES
100
AcDbLine
 62
40
  6
CONTINUOUS
 10
4.4254049808
 20
4.9327564328
 11
4.4227087308
 21
4.939946433
  0
LINE
  5
27A
100
AcDbEntity
  8
03__ASM_ALL_CURVES
100
AcDbLine
 62
40
  6
CONTINUOUS
 10
4.4415824808
 20
4.9615164317
 11
4.4442787308
 21
4.9543264335
  0
LINE
  5
27B
100
AcDbEntity
  8
03__ASM_ALL_CURVES
100
AcDbLine
 62
40
  6
CONTINUOUS
 10
4.6006612308
 20
4.9435414322
 11
4.6033574808
 21
4.9327564328
  0
LINE
  5
27C
100
AcDbEntity
  8
03__ASM_ALL_CURVES
100
AcDbLine
 62
40
  6
CONTINUOUS
 10
4.8298424808
 20
4.9255664326
 11
4.8298424808
 21
4.9687064326
  0
LINE
  5
27D
100
AcDbEntity
  8
03__ASM_ALL_CURVES
100
AcDbLine
 62
40
  6
CONTINUOUS
 10
4.8702862308
 20
4.9507314317
 11
4.8702862308
 21
4.9435414322
  0
LINE
  5
27E
100
AcDbEntity
  8
03__ASM_ALL_CURVES
100
AcDbLine
 62
40
  6
CONTINUOUS
 10
5.1221574804
 20
4.9579214326
 11
5.1275499804
 21
4.9651114335
  0
LINE
  5
27F
100
AcDbEntity
  8
03__ASM_ALL_CURVES
100
AcDbLine
 62
40
  6
CONTINUOUS
 10
5.1491199804
 20
4.9363514326
 11
5.1437274804
 21
4.9291614327
  0
LINE
  5
280
100
AcDbEntity
  8
03__ASM_ALL_CURVES
100
AcDbLine
 62
40
  6
CONTINUOUS
 10
5.1652974804
 20
4.9579214326
 11
5.1706899804
 21
4.9651114335
  0
LINE
  5
281
100
AcDbEntity
  8
03__ASM_ALL_CURVES
100
AcDbLine
 62
40
  6
CONTINUOUS
 10
5.1275499804
 20
4.9651114335
 11
5.1329424804
 21
4.9687064326
  0
LINE
  5
282
100
AcDbEntity
  8
03__ASM_ALL_CURVES
100
AcDbLine
 62
40
  6
CONTINUOUS
 10
5.1706899804
 20
4.9651114335
 11
5.1760824804
 21
4.9687064326
  0
LINE
  5
283
100
AcDbEntity
  8
03__ASM_ALL_CURVES
100
AcDbLine
 62
40
  6
CONTINUOUS
 10
5.1437274804
 20
4.9291614327
 11
5.1383349804
 21
4.9255664326
  0
LINE
  5
284
100
AcDbEntity
  8
0
100
AcDbLine
 62
7
  6
CONTINUOUS
 10
4.9711937308
 20
3.8192184326
 11
4.9626716928
 21
3.8285658851
  0
LINE
  5
285
100
AcDbEntity
  8
03__ASM_ALL_CURVES
100
AcDbLine
 62
40
  6
CONTINUOUS
 10
4.5736987308
 20
4.9471364326
 11
4.5763949808
 21
4.939946433
  0
LINE
  5
286
100
AcDbEntity
  8
0
100
AcDbLine
 62
7
  6
CONTINUOUS
 10
4.9511937308
 20
3.8192184326
 11
4.9511937308
 21
4.6742184326
  0
LINE
  5
287
100
AcDbEntity
  8
0
100
AcDbLine
 62
7
  6
CONTINUOUS
 10
4.9597157688
 20
3.8285658851
 11
4.9597157688
 21
4.6648709801
  0
LINE
  5
288
100
AcDbEntity
  8
0
100
AcDbLine
 62
7
  6
CONTINUOUS
 10
4.9626716928
 20
3.8285658851
 11
4.9626716928
 21
4.6648709801
  0
LINE
  5
289
100
AcDbEntity
  8
0
100
AcDbLine
 62
7
  6
CONTINUOUS
 10
4.9711937308
 20
3.8192184326
 11
4.9711937308
 21
4.6742184326
  0
LINE
  5
28A
100
AcDbEntity
  8
03__ASM_ALL_CURVES
100
AcDbLine
 62
40
  6
CONTINUOUS
 10
4.9810537308
 20
4.9183764326
 11
4.9810537308
 21
4.9039964326
  0
LINE
  5
28B
100
AcDbEntity
  8
0
100
AcDbLine
 62
7
  6
CONTINUOUS
 10
5.0211937308
 20
4.6742184326
 11
5.0211937308
 21
3.8192184326
  0
LINE
  5
28C
100
AcDbEntity
  8
0
100
AcDbLine
 62
7
  6
CONTINUOUS
 10
5.0241937308
 20
4.6712184326
 11
5.0241937308
 21
3.8222184326
  0
LINE
  5
28D
100
AcDbEntity
  8
03__ASM_ALL_CURVES
100
AcDbLine
 62
40
  6
CONTINUOUS
 10
5.0241937308
 20
4.6814084326
 11
5.0241937308
 21
4.9255664326
  0
LINE
  5
28E
100
AcDbEntity
  8
0
100
AcDbLine
 62
7
  6
CONTINUOUS
 10
5.0266937308
 20
3.8296618083
 11
5.0266937308
 21
4.6637750569
  0
LINE
  5
28F
100
AcDbEntity
  8
03__ASM_ALL_CURVES
100
AcDbLine
 62
40
  6
CONTINUOUS
 10
5.1194612304
 20
4.9471364326
 11
5.1221574804
 21
4.9579214326
  0
LINE
  5
290
100
AcDbEntity
  8
03__ASM_ALL_CURVES
100
AcDbLine
 62
40
  6
CONTINUOUS
 10
5.1518162304
 20
4.9471364326
 11
5.1491199804
 21
4.9363514326
  0
LINE
  5
291
100
AcDbEntity
  8
03__ASM_ALL_CURVES
100
AcDbLine
 62
40
  6
CONTINUOUS
 10
5.1626012304
 20
4.9471364326
 11
5.1652974804
 21
4.9579214326
  0
LINE
  5
292
100
AcDbEntity
  8
03__ASM_ALL_CURVES
100
AcDbLine
 62
40
  6
CONTINUOUS
 10
5.1895637304
 20
4.9327564328
 11
5.1868674804
 21
4.9291614327
  0
LINE
  5
293
100
AcDbEntity
  8
0
100
AcDbLine
 62
7
  6
CONTINUOUS
 10
4.9711937308
 20
4.6742184326
 11
4.9626716928
 21
4.6648709801
  0
LINE
  5
294
100
AcDbEntity
  8
03__ASM_ALL_CURVES
100
AcDbLine
 62
40
  6
CONTINUOUS
 10
5.1868674804
 20
4.9291614327
 11
5.1814749804
 21
4.9255664326
  0
LINE
  5
295
100
AcDbEntity
  8
03__ASM_ALL_CURVES
100
AcDbLine
 62
40
  6
CONTINUOUS
 10
5.3863899804
 20
4.9651114335
 11
5.3917824804
 21
4.9687064326
  0
LINE
  5
296
100
AcDbEntity
  8
03__ASM_ALL_CURVES
100
AcDbLine
 62
40
  6
CONTINUOUS
 10
4.6842449808
 20
4.9471364326
 11
4.6815487308
 21
4.9543264335
  0
LINE
  5
297
100
AcDbEntity
  8
03__ASM_ALL_CURVES
100
AcDbLine
 62
40
  6
CONTINUOUS
 10
4.7004224808
 20
4.9615164317
 11
4.7031187308
 21
4.9543264335
  0
LINE
  5
298
100
AcDbEntity
  8
0
100
AcDbLine
 62
7
  6
CONTINUOUS
 10
5.0464161626
 20
3.8410485596
 11
5.0464161626
 21
4.6523883056
  0
LINE
  5
299
100
AcDbEntity
  8
0
100
AcDbLine
 62
7
  6
CONTINUOUS
 10
5.0489161626
 20
3.8417184326
 11
5.0489161626
 21
4.6517184326
  0
LINE
  5
29A
100
AcDbEntity
  8
03__ASM_ALL_CURVES
100
AcDbLine
 62
40
  6
CONTINUOUS
 10
5.0673337308
 20
4.9183764326
 11
5.0673337308
 21
4.9039964326
  0
LINE
  5
29B
100
AcDbEntity
  8
0
100
AcDbLine
 62
7
  6
CONTINUOUS
 10
5.0711937308
 20
3.8417184326
 11
5.0711937308
 21
4.6517184326
  0
LINE
  5
29C
100
AcDbEntity
  8
03__ASM_ALL_CURVES
100
AcDbLine
 62
40
  6
CONTINUOUS
 10
5.0817137304
 20
4.9687064326
 11
5.0817137304
 21
4.9255664326
  0
LINE
  5
29D
100
AcDbEntity
  8
0
100
AcDbLine
 62
7
  6
CONTINUOUS
 10
5.1411937308
 20
3.8422190476
 11
5.1411937308
 21
4.6512178176
  0
LINE
  5
29E
100
AcDbEntity
  8
03__ASM_ALL_CURVES
100
AcDbLine
 62
40
  6
CONTINUOUS
 10
5.2084374804
 20
4.9255664326
 11
5.2219187304
 21
4.9687064326
  0
LINE
  5
29F
100
AcDbEntity
  8
0
100
AcDbLine
 62
7
  6
CONTINUOUS
 10
5.2325556907
 20
4.6342184326
 11
5.2149465075
 21
4.6037184326
  0
LINE
  5
2A0
100
AcDbEntity
  8
03__ASM_ALL_CURVES
100
AcDbLine
 62
40
  6
CONTINUOUS
 10
5.3809974804
 20
4.9579214326
 11
5.3863899804
 21
4.9651114335
  0
LINE
  5
2A1
100
AcDbEntity
  8
03__ASM_ALL_CURVES
100
AcDbLine
 62
40
  6
CONTINUOUS
 10
5.4052637304
 20
4.9327564328
 11
5.4025674804
 21
4.9291614327
  0
LINE
  5
2A2
100
AcDbEntity
  8
03__ASM_ALL_CURVES
100
AcDbLine
 62
40
  6
CONTINUOUS
 10
5.4726699804
 20
4.9651114335
 11
5.4699737304
 21
4.9615164317
  0
LINE
  5
2A3
100
AcDbEntity
  8
03__ASM_ALL_CURVES
100
AcDbLine
 62
40
  6
CONTINUOUS
 10
5.4025674804
 20
4.9291614327
 11
5.3971749804
 21
4.9255664326
  0
LINE
  5
2A4
100
AcDbEntity
  8
03__ASM_ALL_CURVES
100
AcDbLine
 62
40
  6
CONTINUOUS
 10
5.4780624804
 20
4.9687064326
 11
5.4726699804
 21
4.9651114335
  0
LINE
  5
2A5
100
AcDbEntity
  8
03__ASM_ALL_CURVES
100
AcDbLine
 62
40
  6
CONTINUOUS
 10
5.4888474804
 20
4.9291614327
 11
5.4834549804
 21
4.9255664326
  0
LINE
  5
2A6
100
AcDbEntity
  8
03__ASM_ALL_CURVES
100
AcDbLine
 62
40
  6
CONTINUOUS
 10
5.5589499804
 20
4.9651114335
 11
5.5643424804
 21
4.9687064326
  0
LINE
  5
2A7
100
AcDbEntity
  8
03__ASM_ALL_CURVES
100
AcDbLine
 62
40
  6
CONTINUOUS
 10
5.5751274804
 20
4.9291614327
 11
5.5697349804
 21
4.9255664326
  0
LINE
  5
2A8
100
AcDbEntity
  8
03__ASM_ALL_CURVES
100
AcDbLine
 62
40
  6
CONTINUOUS
 10
6.0508260615
 20
3.6056284326
 11
6.0346485615
 21
3.6056284326
  0
LINE
  5
2A9
100
AcDbEntity
  8
03__ASM_ALL_CURVES
100
AcDbLine
 62
40
  6
CONTINUOUS
 10
5.947694499
 20
3.6056284326
 11
5.943650124
 21
3.6056284326
  0
LINE
  5
2AA
100
AcDbEntity
  8
03__ASM_ALL_CURVES
100
AcDbLine
 62
40
  6
CONTINUOUS
 10
5.915339499
 20
3.6056284326
 11
5.911295124
 21
3.6056284326
  0
LINE
  5
2AB
100
AcDbEntity
  8
03__ASM_ALL_CURVES
100
AcDbLine
 62
40
  6
CONTINUOUS
 10
6.0022935615
 20
3.6056284326
 11
6.0184710615
 21
3.6056284326
  0
LINE
  5
2AC
100
AcDbEntity
  8
03__ASM_ALL_CURVES
100
AcDbLine
 62
40
  6
CONTINUOUS
 10
6.0346485615
 20
3.6218059326
 11
6.044759499
 21
3.6218059326
  0
LINE
  5
2AD
100
AcDbEntity
  8
03__ASM_ALL_CURVES
100
AcDbLine
 62
40
  6
CONTINUOUS
 10
4.4281012308
 20
4.9291614327
 11
4.4254049808
 21
4.9327564328
  0
LINE
  5
2AE
100
AcDbEntity
  8
03__ASM_ALL_CURVES
100
AcDbLine
 62
40
  6
CONTINUOUS
 10
4.4388862308
 20
4.9651114335
 11
4.4415824808
 21
4.9615164317
  0
LINE
  5
2AF
100
AcDbEntity
  8
03__ASM_ALL_CURVES
100
AcDbLine
 62
40
  6
CONTINUOUS
 10
4.4739374808
 20
4.9291614327
 11
4.4766337308
 21
4.9255664326
  0
LINE
  5
2B0
100
AcDbEntity
  8
0
100
AcDbLine
 62
7
  6
CONTINUOUS
 10
5.2325556907
 20
3.8592184326
 11
5.2149465075
 21
3.8897184326
  0
LINE
  5
2B1
100
AcDbEntity
  8
03__ASM_ALL_CURVES
100
AcDbLine
 62
40
  6
CONTINUOUS
 10
4.7705249808
 20
4.9327564328
 11
4.7678287308
 21
4.939946433
  0
LINE
  5
2B2
100
AcDbEntity
  8
03__ASM_ALL_CURVES
100
AcDbLine
 62
40
  6
CONTINUOUS
 10
4.7867024808
 20
4.9615164317
 11
4.7893987308
 21
4.9543264335
  0
LINE
  5
2B3
100
AcDbEntity
  8
03__ASM_ALL_CURVES
100
AcDbLine
 62
40
  6
CONTINUOUS
 10
4.8675899808
 20
4.9615164317
 11
4.8702862308
 21
4.9507314317
  0
LINE
  5
2B4
100
AcDbEntity
  8
0
100
AcDbLine
 62
7
  6
CONTINUOUS
 10
5.1911937308
 20
3.8422190476
 11
5.1911937308
 21
4.6512178176
  0
LINE
  5
2B5
100
AcDbEntity
  8
0
100
AcDbLine
 62
7
  6
CONTINUOUS
 10
5.2036881773
 20
3.8962184326
 11
5.2036881773
 21
4.5972184326
  0
LINE
  5
2B6
100
AcDbEntity
  8
0
100
AcDbLine
 62
7
  6
CONTINUOUS
 10
5.2149465075
 20
3.8897184326
 11
5.2149465075
 21
4.6037184326
  0
LINE
  5
2B7
100
AcDbEntity
  8
0
100
AcDbLine
 62
7
  6
CONTINUOUS
 10
5.2325556907
 20
3.8592184326
 11
5.2325556907
 21
4.6342184326
  0
LINE
  5
2B8
100
AcDbEntity
  8
03__ASM_ALL_CURVES
100
AcDbLine
 62
40
  6
CONTINUOUS
 10
5.3783012304
 20
4.9471364326
 11
5.3809974804
 21
4.9579214326
  0
LINE
  5
2B9
100
AcDbEntity
  8
03__ASM_ALL_CURVES
100
AcDbLine
 62
40
  6
CONTINUOUS
 10
5.4915437304
 20
4.9327564328
 11
5.4888474804
 21
4.9291614327
  0
LINE
  5
2BA
100
AcDbEntity
  8
03__ASM_ALL_CURVES
100
AcDbLine
 62
40
  6
CONTINUOUS
 10
5.5535574804
 20
4.9579214326
 11
5.5589499804
 21
4.9651114335
  0
LINE
  5
2BB
100
AcDbEntity
  8
03__ASM_ALL_CURVES
100
AcDbLine
 62
40
  6
CONTINUOUS
 10
5.5805199804
 20
4.9363514326
 11
5.5751274804
 21
4.9291614327
  0
LINE
  5
2BC
100
AcDbEntity
  8
03__ASM_ALL_CURVES
100
AcDbLine
 62
40
  6
CONTINUOUS
 10
5.6182674804
 20
4.9291614327
 11
5.6128749804
 21
4.9255664326
  0
LINE
  5
2BD
100
AcDbEntity
  8
03__ASM_ALL_CURVES
100
AcDbLine
 62
40
  6
CONTINUOUS
 10
5.7018512304
 20
4.9291614327
 11
5.6964587304
 21
4.9255664326
  0
LINE
  5
2BE
100
AcDbEntity
  8
03__ASM_ALL_CURVES
100
AcDbLine
 62
40
  6
CONTINUOUS
 10
5.7908274804
 20
4.9507314317
 11
5.7854349804
 21
4.9471364326
  0
LINE
  5
2BF
100
AcDbEntity
  8
03__ASM_ALL_CURVES
100
AcDbLine
 62
40
  6
CONTINUOUS
 10
5.911295124
 20
3.6379834326
 11
5.915339499
 21
3.6379834326
  0
LINE
  5
2C0
100
AcDbEntity
  8
03__ASM_ALL_CURVES
100
AcDbLine
 62
40
  6
CONTINUOUS
 10
5.967916374
 20
3.6379834326
 11
5.988138249
 21
3.6379834326
  0
LINE
  5
2C1
100
AcDbEntity
  8
03__ASM_ALL_CURVES
100
AcDbLine
 62
40
  6
CONTINUOUS
 10
6.0346485615
 20
3.6379834326
 11
6.0508260615
 21
3.6379834326
  0
LINE
  5
2C2
100
AcDbEntity
  8
03__ASM_ALL_CURVES
100
AcDbLine
 62
40
  6
CONTINUOUS
 10
6.064981374
 20
3.6379834326
 11
6.085203249
 21
3.6379834326
  0
LINE
  5
2C3
100
AcDbEntity
  8
03__ASM_ALL_CURVES
100
AcDbLine
 62
40
  6
CONTINUOUS
 10
5.9628609097
 20
3.6523634326
 11
5.9588165347
 21
3.6523634326
  0
LINE
  5
2C4
100
AcDbEntity
  8
03__ASM_ALL_CURVES
100
AcDbLine
 62
40
  6
CONTINUOUS
 10
6.0498149722
 20
3.6523634326
 11
6.0659924722
 21
3.6523634326
  0
LINE
  5
2C5
100
AcDbEntity
  8
03__ASM_ALL_CURVES
100
AcDbLine
 62
40
  6
CONTINUOUS
 10
5.9952159097
 20
3.6685409326
 11
5.9851049722
 21
3.6685409326
  0
LINE
  5
2C6
100
AcDbEntity
  8
03__ASM_ALL_CURVES
100
AcDbLine
 62
40
  6
CONTINUOUS
 10
5.9305059097
 20
3.6685409326
 11
5.9203949722
 21
3.6685409326
  0
LINE
  5
2C7
100
AcDbEntity
  8
03__ASM_ALL_CURVES
100
AcDbLine
 62
40
  6
CONTINUOUS
 10
5.9203949722
 20
3.6847184326
 11
5.9305059097
 21
3.6847184326
  0
LINE
  5
2C8
100
AcDbEntity
  8
03__ASM_ALL_CURVES
100
AcDbLine
 62
40
  6
CONTINUOUS
 10
5.9588165347
 20
3.6847184326
 11
5.9628609097
 21
3.6847184326
  0
LINE
  5
2C9
100
AcDbEntity
  8
03__ASM_ALL_CURVES
100
AcDbLine
 62
40
  6
CONTINUOUS
 10
5.9851049722
 20
3.6847184326
 11
5.9952159097
 21
3.6847184326
  0
LINE
  5
2CA
100
AcDbEntity
  8
03__ASM_ALL_CURVES
100
AcDbLine
 62
40
  6
CONTINUOUS
 10
6.0154377847
 20
3.6847184326
 11
6.0356596597
 21
3.6847184326
  0
LINE
  5
2CB
100
AcDbEntity
  8
03__ASM_ALL_CURVES
100
AcDbLine
 62
40
  6
CONTINUOUS
 10
6.0558815347
 20
3.6847184326
 11
6.0599259097
 21
3.6847184326
  0
LINE
  5
2CC
100
AcDbEntity
  8
03__ASM_ALL_CURVES
100
AcDbLine
 62
40
  6
CONTINUOUS
 10
4.5548249808
 20
4.9291614327
 11
4.5521287308
 21
4.9327564328
  0
LINE
  5
2CD
100
AcDbEntity
  8
03__ASM_ALL_CURVES
100
AcDbLine
 62
40
  6
CONTINUOUS
 10
4.5710024808
 20
4.9507314317
 11
4.5736987308
 21
4.9471364326
  0
LINE
  5
2CE
100
AcDbEntity
  8
03__ASM_ALL_CURVES
100
AcDbLine
 62
40
  6
CONTINUOUS
 10
4.6033574808
 20
4.9327564328
 11
4.6087499808
 21
4.9255664326
  0
LINE
  5
2CF
100
AcDbEntity
  8
03__ASM_ALL_CURVES
100
AcDbLine
 62
40
  6
CONTINUOUS
 10
5.2650587304
 20
4.9687064326
 11
5.2650587304
 21
4.9255664326
  0
LINE
  5
2D0
100
AcDbEntity
  8
03__ASM_ALL_CURVES
100
AcDbLine
 62
40
  6
CONTINUOUS
 10
5.3081987304
 20
4.9687064326
 11
5.3081987304
 21
4.9255664326
  0
LINE
  5
2D1
100
AcDbEntity
  8
03__ASM_ALL_CURVES
100
AcDbLine
 62
40
  6
CONTINUOUS
 10
5.3405537304
 20
4.9255664326
 11
5.3405537304
 21
4.9687064326
  0
LINE
  5
2D2
100
AcDbEntity
  8
03__ASM_ALL_CURVES
100
AcDbLine
 62
40
  6
CONTINUOUS
 10
5.3621237304
 20
4.9255664326
 11
5.3621237304
 21
4.9687064326
  0
LINE
  5
2D3
100
AcDbEntity
  8
03__ASM_ALL_CURVES
100
AcDbLine
 62
40
  6
CONTINUOUS
 10
5.6209637304
 20
4.9327564328
 11
5.6182674804
 21
4.9291614327
  0
LINE
  5
2D4
100
AcDbEntity
  8
03__ASM_ALL_CURVES
100
AcDbLine
 62
40
  6
CONTINUOUS
 10
5.7072437304
 20
4.9363514326
 11
5.7018512304
 21
4.9291614327
  0
LINE
  5
2D5
100
AcDbEntity
  8
THREAD
100
AcDbLine
 62
7
  6
CONTINUOUS
 10
4.7436937308
 20
3.7577184326
 11
4.3082573967
 21
3.7577184326
  0
LINE
  5
2D6
100
AcDbEntity
  8
THREAD
100
AcDbLine
 62
7
  6
CONTINUOUS
 10
4.7436937308
 20
3.7586159601
 11
4.3082573967
 21
3.7586159601
  0
LINE
  5
2D7
100
AcDbEntity
  8
THREAD
100
AcDbLine
 62
7
  6
CONTINUOUS
 10
5.0211937308
 20
3.8192184326
 11
4.9711937308
 21
3.8192184326
  0
LINE
  5
2D8
100
AcDbEntity
  8
THREAD
100
AcDbLine
 62
7
  6
CONTINUOUS
 10
4.9511937308
 20
3.8192184326
 11
4.8051937308
 21
3.8192184326
  0
LINE
  5
2D9
100
AcDbEntity
  8
0
100
AcDbLine
 62
7
  6
CONTINUOUS
 10
5.0711937308
 20
3.8417184326
 11
5.0489161626
 21
3.8417184326
  0
LINE
  5
2DA
100
AcDbEntity
  8
0
100
AcDbLine
 62
7
  6
CONTINUOUS
 10
5.1411937308
 20
3.8422184326
 11
5.1911937308
 21
3.8422184326
  0
LINE
  5
2DB
100
AcDbEntity
  8
03__ASM_ALL_CURVES
100
AcDbLine
 62
40
  6
CONTINUOUS
 10
5.911295124
 20
3.6056284326
 11
5.907250749
 21
3.6083246827
  0
LINE
  5
2DC
100
AcDbEntity
  8
03__ASM_ALL_CURVES
100
AcDbLine
 62
40
  6
CONTINUOUS
 10
5.943650124
 20
3.6056284326
 11
5.939605749
 21
3.6083246827
  0
LINE
  5
2DD
100
AcDbEntity
  8
03__ASM_ALL_CURVES
100
AcDbLine
 62
40
  6
CONTINUOUS
 10
5.915339499
 20
3.6379834326
 11
5.919383874
 21
3.6352871832
  0
LINE
  5
2DE
100
AcDbEntity
  8
03__ASM_ALL_CURVES
100
AcDbLine
 62
40
  6
CONTINUOUS
 10
5.9588165347
 20
3.6523634326
 11
5.9547721597
 21
3.6550596827
  0
LINE
  5
2DF
100
AcDbEntity
  8
03__ASM_ALL_CURVES
100
AcDbLine
 62
40
  6
CONTINUOUS
 10
4.6869412308
 20
4.9291614327
 11
4.6842449808
 21
4.9327564328
  0
LINE
  5
2E0
100
AcDbEntity
  8
03__ASM_ALL_CURVES
100
AcDbLine
 62
40
  6
CONTINUOUS
 10
4.6977262308
 20
4.9651114335
 11
4.7004224808
 21
4.9615164317
  0
LINE
  5
2E1
100
AcDbEntity
  8
03__ASM_ALL_CURVES
100
AcDbLine
 62
40
  6
CONTINUOUS
 10
4.7327774808
 20
4.9291614327
 11
4.7354737308
 21
4.9255664326
  0
LINE
  5
2E2
100
AcDbEntity
  8
03__ASM_ALL_CURVES
100
AcDbLine
 62
40
  6
CONTINUOUS
 10
4.7732212308
 20
4.9291614327
 11
4.7705249808
 21
4.9327564328
  0
LINE
  5
2E3
100
AcDbEntity
  8
03__ASM_ALL_CURVES
100
AcDbLine
 62
40
  6
CONTINUOUS
 10
5.1221574804
 20
4.9363514326
 11
5.1194612304
 21
4.9471364326
  0
LINE
  5
2E4
100
AcDbEntity
  8
03__ASM_ALL_CURVES
100
AcDbLine
 62
40
  6
CONTINUOUS
 10
5.1491199804
 20
4.9579214326
 11
5.1518162304
 21
4.9471364326
  0
LINE
  5
2E5
100
AcDbEntity
  8
03__ASM_ALL_CURVES
100
AcDbLine
 62
40
  6
CONTINUOUS
 10
5.1652974804
 20
4.9363514326
 11
5.1626012304
 21
4.9471364326
  0
LINE
  5
2E6
100
AcDbEntity
  8
03__ASM_ALL_CURVES
100
AcDbLine
 62
40
  6
CONTINUOUS
 10
5.4052637304
 20
4.9471364326
 11
5.4052637304
 21
4.9327564328
  0
LINE
  5
2E7
100
AcDbEntity
  8
03__ASM_ALL_CURVES
100
AcDbLine
 62
40
  6
CONTINUOUS
 10
5.4699737304
 20
4.9615164317
 11
5.4699737304
 21
4.9579214326
  0
LINE
  5
2E8
100
AcDbEntity
  8
0
100
AcDbLine
 62
7
  6
CONTINUOUS
 10
5.4796937308
 20
3.8592184326
 11
5.4796937308
 21
4.6342184326
  0
LINE
  5
2E9
100
AcDbEntity
  8
03__ASM_ALL_CURVES
100
AcDbLine
 62
40
  6
CONTINUOUS
 10
5.5508612304
 20
4.9471364326
 11
5.5535574804
 21
4.9579214326
  0
LINE
  5
2EA
100
AcDbEntity
  8
03__ASM_ALL_CURVES
100
AcDbLine
 62
40
  6
CONTINUOUS
 10
5.5832162304
 20
4.9471364326
 11
5.5805199804
 21
4.9363514326
  0
LINE
  5
2EB
100
AcDbEntity
  8
03__ASM_ALL_CURVES
100
AcDbLine
 62
40
  6
CONTINUOUS
 10
5.7935237304
 20
4.9543264335
 11
5.7908274804
 21
4.9507314317
  0
LINE
  5
2EC
100
AcDbEntity
  8
THREAD
100
AcDbLine
 62
7
  6
CONTINUOUS
 10
4.8051937308
 20
3.8192184326
 11
4.7441424945
 21
3.7581671963
  0
LINE
  5
2ED
100
AcDbEntity
  8
0
100
AcDbLine
 62
7
  6
CONTINUOUS
 10
5.4796937308
 20
3.8592184326
 11
5.2325556907
 21
3.8592184326
  0
LINE
  5
2EE
100
AcDbEntity
  8
0
100
AcDbLine
 62
7
  6
CONTINUOUS
 10
5.2036881773
 20
3.8962184326
 11
5.1911937308
 21
3.8962184326
  0
LINE
  5
2EF
100
AcDbEntity
  8
0
100
AcDbLine
 62
7
  6
CONTINUOUS
 10
5.7021937308
 20
3.9037184326
 11
5.5241937308
 21
3.9037184326
  0
LINE
  5
2F0
100
AcDbEntity
  8
0
100
AcDbLine
 62
7
  6
CONTINUOUS
 10
6.3801937308
 20
3.9042184326
 11
6.3331937308
 21
3.9042184326
  0
LINE
  5
2F1
100
AcDbEntity
  8
0
100
AcDbLine
 62
7
  6
CONTINUOUS
 10
6.1821937308
 20
3.9042184326
 11
6.1191937308
 21
3.9042184326
  0
LINE
  5
2F2
100
AcDbEntity
  8
0
100
AcDbLine
 62
7
  6
CONTINUOUS
 10
6.1871937308
 20
3.9047184326
 11
6.2371937308
 21
3.9047184326
  0
LINE
  5
2F3
100
AcDbEntity
  8
0
100
AcDbLine
 62
7
  6
CONTINUOUS
 10
6.3071937308
 20
3.9587184326
 11
6.3281937308
 21
3.9587184326
  0
LINE
  5
2F4
100
AcDbEntity
  8
0
100
AcDbLine
 62
7
  6
CONTINUOUS
 10
5.7121937308
 20
3.9667184326
 11
5.9426937308
 21
3.9667184326
  0
LINE
  5
2F5
100
AcDbEntity
  8
0
100
AcDbLine
 62
7
  6
CONTINUOUS
 10
6.0516937308
 20
3.9667184326
 11
6.1141937308
 21
3.9667184326
  0
LINE
  5
2F6
100
AcDbEntity
  8
03__ASM_ALL_CURVES
100
AcDbLine
 62
40
  6
CONTINUOUS
 10
5.9305059097
 20
3.6847184326
 11
5.9345502847
 21
3.6820221832
  0
LINE
  5
2F7
100
AcDbEntity
  8
03__ASM_ALL_CURVES
100
AcDbLine
 62
40
  6
CONTINUOUS
 10
5.9628609097
 20
3.6847184326
 11
5.9669052847
 21
3.6820221832
  0
LINE
  5
2F8
100
AcDbEntity
  8
03__ASM_ALL_CURVES
100
AcDbLine
 62
40
  6
CONTINUOUS
 10
5.9952159097
 20
3.6847184326
 11
5.9992602847
 21
3.6820221832
  0
LINE
  5
2F9
100
AcDbEntity
  8
03__ASM_ALL_CURVES
100
AcDbLine
 62
40
  6
CONTINUOUS
 10
6.0599259097
 20
3.6847184326
 11
6.0639702847
 21
3.6820221832
  0
LINE
  5
2FA
100
AcDbEntity
  8
THREAD
100
AcDbLine
 62
7
  6
CONTINUOUS
 10
4.8051937308
 20
4.6742184326
 11
4.7441424945
 21
4.7352696688
  0
LINE
  5
2FB
100
AcDbEntity
  8
0
100
AcDbLine
 62
7
  6
CONTINUOUS
 10
4.9597157688
 20
4.6648709801
 11
4.9511937308
 21
4.6742184326
  0
LINE
  5
2FC
100
AcDbEntity
  8
03__ASM_ALL_CURVES
100
AcDbLine
 62
40
  6
CONTINUOUS
 10
4.7840062308
 20
4.9651114335
 11
4.7867024808
 21
4.9615164317
  0
LINE
  5
2FD
100
AcDbEntity
  8
03__ASM_ALL_CURVES
100
AcDbLine
 62
40
  6
CONTINUOUS
 10
4.8621974808
 20
4.9687064326
 11
4.8675899808
 21
4.9615164317
  0
LINE
  5
2FE
100
AcDbEntity
  8
03__ASM_ALL_CURVES
100
AcDbLine
 62
40
  6
CONTINUOUS
 10
5.907250749
 20
3.6083246827
 11
5.903206374
 21
3.6137171826
  0
LINE
  5
2FF
100
AcDbEntity
  8
03__ASM_ALL_CURVES
100
AcDbLine
 62
40
  6
CONTINUOUS
 10
5.2219187304
 20
4.9687064326
 11
5.2353999804
 21
4.9255664326
  0
LINE
  5
300
100
AcDbEntity
  8
03__ASM_ALL_CURVES
100
AcDbLine
 62
40
  6
CONTINUOUS
 10
5.4915437304
 20
4.939946433
 11
5.4915437304
 21
4.9327564328
  0
LINE
  5
301
100
AcDbEntity
  8
03__ASM_ALL_CURVES
100
AcDbLine
 62
40
  6
CONTINUOUS
 10
5.5131137304
 20
4.9687064326
 11
5.5131137304
 21
4.9255664326
  0
LINE
  5
302
100
AcDbEntity
  8
0
100
AcDbLine
 62
7
  6
CONTINUOUS
 10
5.5241937308
 20
3.9037184326
 11
5.5241937308
 21
4.5897184326
  0
LINE
  5
303
100
AcDbEntity
  8
03__ASM_ALL_CURVES
100
AcDbLine
 62
40
  6
CONTINUOUS
 10
5.5346837304
 20
4.9687064326
 11
5.5346837304
 21
4.9255664326
  0
LINE
  5
304
100
AcDbEntity
  8
03__ASM_ALL_CURVES
100
AcDbLine
 62
40
  6
CONTINUOUS
 10
5.7099399804
 20
4.9471364326
 11
5.7072437304
 21
4.9363514326
  0
LINE
  5
305
100
AcDbEntity
  8
0
100
AcDbLine
 62
7
  6
CONTINUOUS
 10
4.9597157688
 20
3.8285658851
 11
4.9511937308
 21
3.8192184326
  0
LINE
  5
306
100
AcDbEntity
  8
THREAD
100
AcDbLine
 62
7
  6
CONTINUOUS
 10
4.7436937308
 20
3.9770209051
 11
4.3082573967
 21
3.9770209051
  0
LINE
  5
307
100
AcDbEntity
  8
THREAD
100
AcDbLine
 62
7
  6
CONTINUOUS
 10
4.7436937308
 20
4.0283134876
 11
4.3082573967
 21
4.0283134876
  0
LINE
  5
308
100
AcDbEntity
  8
03__ASM_ALL_CURVES
100
AcDbLine
 62
40
  6
CONTINUOUS
 10
4.4334937308
 20
4.9255664326
 11
4.4281012308
 21
4.9291614327
  0
LINE
  5
309
100
AcDbEntity
  8
03__ASM_ALL_CURVES
100
AcDbLine
 62
40
  6
CONTINUOUS
 10
5.939605749
 20
3.6083246827
 11
5.9375835615
 21
3.6110209328
  0
LINE
  5
30A
100
AcDbEntity
  8
03__ASM_ALL_CURVES
100
AcDbLine
 62
40
  6
CONTINUOUS
 10
5.919383874
 20
3.6352871832
 11
5.923428249
 21
3.6298946826
  0
LINE
  5
30B
100
AcDbEntity
  8
03__ASM_ALL_CURVES
100
AcDbLine
 62
40
  6
CONTINUOUS
 10
5.9547721597
 20
3.6550596827
 11
5.9507277847
 21
3.6604521826
  0
LINE
  5
30C
100
AcDbEntity
  8
03__ASM_ALL_CURVES
100
AcDbLine
 62
40
  6
CONTINUOUS
 10
5.9345502847
 20
3.6820221832
 11
5.9365724722
 21
3.679325932
  0
LINE
  5
30D
100
AcDbEntity
  8
03__ASM_ALL_CURVES
100
AcDbLine
 62
40
  6
CONTINUOUS
 10
5.9669052847
 20
3.6820221832
 11
5.9709496597
 21
3.6766296826
  0
LINE
  5
30E
100
AcDbEntity
  8
03__ASM_ALL_CURVES
100
AcDbLine
 62
40
  6
CONTINUOUS
 10
5.3809974804
 20
4.9363514326
 11
5.3783012304
 21
4.9471364326
  0
LINE
  5
30F
100
AcDbEntity
  8
03__ASM_ALL_CURVES
100
AcDbLine
 62
40
  6
CONTINUOUS
 10
5.5993937304
 20
4.9327564328
 11
5.5993937304
 21
4.9687064326
  0
LINE
  5
310
100
AcDbEntity
  8
03__ASM_ALL_CURVES
100
AcDbLine
 62
40
  6
CONTINUOUS
 10
5.6209637304
 20
4.9687064326
 11
5.6209637304
 21
4.9327564328
  0
LINE
  5
311
100
AcDbEntity
  8
03__ASM_ALL_CURVES
100
AcDbLine
 62
40
  6
CONTINUOUS
 10
5.6425337304
 20
4.9687064326
 11
5.6425337304
 21
4.9255664326
  0
LINE
  5
312
100
AcDbEntity
  8
03__ASM_ALL_CURVES
100
AcDbLine
 62
40
  6
CONTINUOUS
 10
5.6856737304
 20
4.9255664326
 11
5.6856737304
 21
4.9687064326
  0
LINE
  5
313
100
AcDbEntity
  8
0
100
AcDbLine
 62
7
  6
CONTINUOUS
 10
5.7021937308
 20
3.9037184326
 11
5.7021937308
 21
4.5897184326
  0
LINE
  5
314
100
AcDbEntity
  8
03__ASM_ALL_CURVES
100
AcDbLine
 62
40
  6
CONTINUOUS
 10
4.4334937308
 20
4.9687064326
 11
4.4388862308
 21
4.9651114335
  0
LINE
  5
315
100
AcDbEntity
  8
03__ASM_ALL_CURVES
100
AcDbLine
 62
40
  6
CONTINUOUS
 10
4.5602174808
 20
4.9255664326
 11
4.5548249808
 21
4.9291614327
  0
LINE
  5
316
100
AcDbEntity
  8
03__ASM_ALL_CURVES
100
AcDbLine
 62
40
  6
CONTINUOUS
 10
4.5656099808
 20
4.9543264335
 11
4.5710024808
 21
4.9507314317
  0
LINE
  5
317
100
AcDbEntity
  8
03__ASM_ALL_CURVES
100
AcDbLine
 62
40
  6
CONTINUOUS
 10
5.9992602847
 20
3.6820221832
 11
6.0012824722
 21
3.679325932
  0
LINE
  5
318
100
AcDbEntity
  8
03__ASM_ALL_CURVES
100
AcDbLine
 62
40
  6
CONTINUOUS
 10
5.1275499804
 20
4.9291614327
 11
5.1221574804
 21
4.9363514326
  0
LINE
  5
319
100
AcDbEntity
  8
03__ASM_ALL_CURVES
100
AcDbLine
 62
40
  6
CONTINUOUS
 10
6.0639702847
 20
3.6820221832
 11
6.0659924722
 21
3.679325932
  0
LINE
  5
31A
100
AcDbEntity
  8
03__ASM_ALL_CURVES
100
AcDbLine
 62
40
  6
CONTINUOUS
 10
5.1706899804
 20
4.9291614327
 11
5.1652974804
 21
4.9363514326
  0
LINE
  5
31B
100
AcDbEntity
  8
03__ASM_ALL_CURVES
100
AcDbLine
 62
40
  6
CONTINUOUS
 10
5.1437274804
 20
4.9651114335
 11
5.1491199804
 21
4.9579214326
  0
LINE
  5
31C
100
AcDbEntity
  8
03__ASM_ALL_CURVES
100
AcDbLine
 62
40
  6
CONTINUOUS
 10
5.3405537304
 20
4.9687064326
 11
5.3621237304
 21
4.9255664326
  0
LINE
  5
31D
100
AcDbEntity
  8
0
100
AcDbLine
 62
7
  6
CONTINUOUS
 10
5.7121937308
 20
3.9137184326
 11
5.7121937308
 21
4.5797184326
  0
LINE
  5
31E
100
AcDbEntity
  8
03__ASM_ALL_CURVES
100
AcDbLine
 62
40
  6
CONTINUOUS
 10
5.7288137304
 20
4.9255664326
 11
5.7288137304
 21
4.9687064326
  0
LINE
  5
31F
100
AcDbEntity
  8
03__ASM_ALL_CURVES
100
AcDbLine
 62
40
  6
CONTINUOUS
 10
5.7719537304
 20
4.9255664326
 11
5.7719537304
 21
4.9687064326
  0
LINE
  5
320
100
AcDbEntity
  8
03__ASM_ALL_CURVES
100
AcDbLine
 62
40
  6
CONTINUOUS
 10
5.7935237304
 20
4.9615164317
 11
5.7935237304
 21
4.9543264335
  0
LINE
  5
321
100
AcDbEntity
  8
0
100
AcDbLine
 62
7
  6
CONTINUOUS
 10
6.1191937308
 20
4.5892184326
 11
6.1141937308
 21
4.5842184326
  0
LINE
  5
322
100
AcDbEntity
  8
0
100
AcDbLine
 62
7
  6
CONTINUOUS
 10
5.0464161626
 20
3.8410485596
 11
5.0266937308
 21
3.8296618083
  0
LINE
  5
323
100
AcDbEntity
  8
03__ASM_ALL_CURVES
100
AcDbLine
 62
40
  6
CONTINUOUS
 10
7.2941606059
 20
4.2071734326
 11
7.2779831059
 21
4.2071734326
  0
LINE
  5
324
100
AcDbEntity
  8
03__ASM_ALL_CURVES
100
AcDbLine
 62
40
  6
CONTINUOUS
 10
7.0939640434
 20
4.2071734326
 11
7.0899196684
 21
4.2071734326
  0
LINE
  5
325
100
AcDbEntity
  8
03__ASM_ALL_CURVES
100
AcDbLine
 62
40
  6
CONTINUOUS
 10
6.9625218559
 20
4.2071734326
 11
6.9544331059
 21
4.2071734326
  0
LINE
  5
326
100
AcDbEntity
  8
03__ASM_ALL_CURVES
100
AcDbLine
 62
40
  6
CONTINUOUS
 10
6.9382556059
 20
4.2071734326
 11
6.9220781059
 21
4.2071734326
  0
LINE
  5
327
100
AcDbEntity
  8
03__ASM_ALL_CURVES
100
AcDbLine
 62
40
  6
CONTINUOUS
 10
6.8351240434
 20
4.2071734326
 11
6.8310796684
 21
4.2071734326
  0
LINE
  5
328
100
AcDbEntity
  8
03__ASM_ALL_CURVES
100
AcDbLine
 62
40
  6
CONTINUOUS
 10
6.7057040434
 20
4.2071734326
 11
6.7016596684
 21
4.2071734326
  0
LINE
  5
329
100
AcDbEntity
  8
03__ASM_ALL_CURVES
100
AcDbLine
 62
40
  6
CONTINUOUS
 10
6.6733490434
 20
4.2071734326
 11
6.6693046684
 21
4.2071734326
  0
LINE
  5
32A
100
AcDbEntity
  8
03__ASM_ALL_CURVES
100
AcDbLine
 62
40
  6
CONTINUOUS
 10
6.8573681059
 20
4.2071734326
 11
6.8735456059
 21
4.2071734326
  0
LINE
  5
32B
100
AcDbEntity
  8
03__ASM_ALL_CURVES
100
AcDbLine
 62
40
  6
CONTINUOUS
 10
6.8897231059
 20
4.2071734326
 11
6.9059006059
 21
4.2071734326
  0
LINE
  5
32C
100
AcDbEntity
  8
03__ASM_ALL_CURVES
100
AcDbLine
 62
40
  6
CONTINUOUS
 10
7.0514981059
 20
4.2071734326
 11
7.0676756059
 21
4.2071734326
  0
LINE
  5
32D
100
AcDbEntity
  8
03__ASM_ALL_CURVES
100
AcDbLine
 62
40
  6
CONTINUOUS
 10
7.2456281059
 20
4.2071734326
 11
7.2618056059
 21
4.2071734326
  0
LINE
  5
32E
100
AcDbEntity
  8
03__ASM_ALL_CURVES
100
AcDbLine
 62
40
  6
CONTINUOUS
 10
6.8027690434
 20
4.2233509326
 11
6.7926581059
 21
4.2233509326
  0
LINE
  5
32F
100
AcDbEntity
  8
03__ASM_ALL_CURVES
100
AcDbLine
 62
40
  6
CONTINUOUS
 10
6.9220781059
 20
4.2233509326
 11
6.9321890434
 21
4.2233509326
  0
LINE
  5
330
100
AcDbEntity
  8
03__ASM_ALL_CURVES
100
AcDbLine
 62
40
  6
CONTINUOUS
 10
7.0191431059
 20
4.2233509326
 11
7.0292540434
 21
4.2233509326
  0
LINE
  5
331
100
AcDbEntity
  8
03__ASM_ALL_CURVES
100
AcDbLine
 62
40
  6
CONTINUOUS
 10
7.2779831059
 20
4.2233509326
 11
7.2880940434
 21
4.2233509326
  0
LINE
  5
332
100
AcDbEntity
  8
03__ASM_ALL_CURVES
100
AcDbLine
 62
40
  6
CONTINUOUS
 10
6.6693046684
 20
4.2395284326
 11
6.6733490434
 21
4.2395284326
  0
LINE
  5
333
100
AcDbEntity
  8
03__ASM_ALL_CURVES
100
AcDbLine
 62
40
  6
CONTINUOUS
 10
6.7016596684
 20
4.2395284326
 11
6.7057040434
 21
4.2395284326
  0
LINE
  5
334
100
AcDbEntity
  8
03__ASM_ALL_CURVES
100
AcDbLine
 62
40
  6
CONTINUOUS
 10
6.7582809184
 20
4.2395284326
 11
6.7785027934
 21
4.2395284326
  0
LINE
  5
335
100
AcDbEntity
  8
03__ASM_ALL_CURVES
100
AcDbLine
 62
40
  6
CONTINUOUS
 10
6.7926581059
 20
4.2395284326
 11
6.8027690434
 21
4.2395284326
  0
LINE
  5
336
100
AcDbEntity
  8
03__ASM_ALL_CURVES
100
AcDbLine
 62
40
  6
CONTINUOUS
 10
6.8310796684
 20
4.2395284326
 11
6.8351240434
 21
4.2395284326
  0
LINE
  5
337
100
AcDbEntity
  8
03__ASM_ALL_CURVES
100
AcDbLine
 62
40
  6
CONTINUOUS
 10
6.9220781059
 20
4.2395284326
 11
6.9382556059
 21
4.2395284326
  0
LINE
  5
338
100
AcDbEntity
  8
03__ASM_ALL_CURVES
100
AcDbLine
 62
40
  6
CONTINUOUS
 10
6.9544331059
 20
4.2395284326
 11
6.9625218559
 21
4.2395284326
  0
LINE
  5
339
100
AcDbEntity
  8
03__ASM_ALL_CURVES
100
AcDbLine
 62
40
  6
CONTINUOUS
 10
7.0191431059
 20
4.2395284326
 11
7.0353206059
 21
4.2395284326
  0
LINE
  5
33A
100
AcDbEntity
  8
03__ASM_ALL_CURVES
100
AcDbLine
 62
40
  6
CONTINUOUS
 10
7.0899196684
 20
4.2395284326
 11
7.0939640434
 21
4.2395284326
  0
LINE
  5
33B
100
AcDbEntity
  8
03__ASM_ALL_CURVES
100
AcDbLine
 62
40
  6
CONTINUOUS
 10
7.2779831059
 20
4.2395284326
 11
7.2941606059
 21
4.2395284326
  0
LINE
  5
33C
100
AcDbEntity
  8
03__ASM_ALL_CURVES
100
AcDbLine
 62
40
  6
CONTINUOUS
 10
7.3083159184
 20
4.2395284326
 11
7.3285377934
 21
4.2395284326
  0
LINE
  5
33D
100
AcDbEntity
  8
03__ASM_ALL_CURVES
100
AcDbLine
 62
40
  6
CONTINUOUS
 10
6.7016596684
 20
4.2539084326
 11
6.6976152934
 21
4.2539084326
  0
LINE
  5
33E
100
AcDbEntity
  8
03__ASM_ALL_CURVES
100
AcDbLine
 62
40
  6
CONTINUOUS
 10
6.7340146684
 20
4.2700859326
 11
6.7239037309
 21
4.2700859326
  0
LINE
  5
33F
100
AcDbEntity
  8
03__ASM_ALL_CURVES
100
AcDbLine
 62
40
  6
CONTINUOUS
 10
6.6693046684
 20
4.2700859326
 11
6.6591937309
 21
4.2700859326
  0
LINE
  5
340
100
AcDbEntity
  8
03__ASM_ALL_CURVES
100
AcDbLine
 62
40
  6
CONTINUOUS
 10
6.6591937309
 20
4.2862634326
 11
6.6693046684
 21
4.2862634326
  0
LINE
  5
341
100
AcDbEntity
  8
03__ASM_ALL_CURVES
100
AcDbLine
 62
40
  6
CONTINUOUS
 10
6.6976152934
 20
4.2862634326
 11
6.7016596684
 21
4.2862634326
  0
LINE
  5
342
100
AcDbEntity
  8
03__ASM_ALL_CURVES
100
AcDbLine
 62
40
  6
CONTINUOUS
 10
6.7239037309
 20
4.2862634326
 11
6.7340146684
 21
4.2862634326
  0
LINE
  5
343
100
AcDbEntity
  8
03__ASM_ALL_CURVES
100
AcDbLine
 62
40
  6
CONTINUOUS
 10
6.7542365434
 20
4.2862634326
 11
6.7744584184
 21
4.2862634326
  0
LINE
  5
344
100
AcDbEntity
  8
0
100
AcDbLine
 62
7
  6
CONTINUOUS
 10
5.0464161626
 20
4.6523883056
 11
5.0266937308
 21
4.6637750569
  0
LINE
  5
345
100
AcDbEntity
  8
03__ASM_ALL_CURVES
100
AcDbLine
 62
40
  6
CONTINUOUS
 10
4.6923337308
 20
4.9255664326
 11
4.6869412308
 21
4.9291614327
  0
LINE
  5
346
100
AcDbEntity
  8
03__ASM_ALL_CURVES
100
AcDbLine
 62
40
  6
CONTINUOUS
 10
4.6923337308
 20
4.9687064326
 11
4.6977262308
 21
4.9651114335
  0
LINE
  5
347
100
AcDbEntity
  8
03__ASM_ALL_CURVES
100
AcDbLine
 62
40
  6
CONTINUOUS
 10
4.7786137308
 20
4.9255664326
 11
4.7732212308
 21
4.9291614327
  0
LINE
  5
348
100
AcDbEntity
  8
03__ASM_ALL_CURVES
100
AcDbLine
 62
40
  6
CONTINUOUS
 10
4.7786137308
 20
4.9687064326
 11
4.7840062308
 21
4.9651114335
  0
LINE
  5
349
100
AcDbEntity
  8
0
100
AcDbLine
 62
7
  6
CONTINUOUS
 10
6.1191937308
 20
3.9042184326
 11
6.1141937308
 21
3.9092184326
  0
LINE
  5
34A
100
AcDbEntity
  8
03__ASM_ALL_CURVES
100
AcDbLine
 62
40
  6
CONTINUOUS
 10
5.1868674804
 20
4.9651114335
 11
5.1895637304
 21
4.9615164317
  0
LINE
  5
34B
100
AcDbEntity
  8
03__ASM_ALL_CURVES
100
AcDbLine
 62
40
  6
CONTINUOUS
 10
5.9952159097
 20
3.6685409326
 11
6.0012824722
 21
3.6523634326
  0
LINE
  5
34C
100
AcDbEntity
  8
03__ASM_ALL_CURVES
100
AcDbLine
 62
40
  6
CONTINUOUS
 10
5.5535574804
 20
4.9363514326
 11
5.5508612304
 21
4.9471364326
  0
LINE
  5
34D
100
AcDbEntity
  8
03__ASM_ALL_CURVES
100
AcDbLine
 62
40
  6
CONTINUOUS
 10
5.903206374
 20
3.6137171826
 11
5.9011841865
 21
3.6218059326
  0
LINE
  5
34E
100
AcDbEntity
  8
03__ASM_ALL_CURVES
100
AcDbLine
 62
40
  6
CONTINUOUS
 10
5.5805199804
 20
4.9579214326
 11
5.5832162304
 21
4.9471364326
  0
LINE
  5
34F
100
AcDbEntity
  8
03__ASM_ALL_CURVES
100
AcDbLine
 62
40
  6
CONTINUOUS
 10
5.923428249
 20
3.6298946826
 11
5.9254504365
 21
3.6218059326
  0
LINE
  5
350
100
AcDbEntity
  8
03__ASM_ALL_CURVES
100
AcDbLine
 62
40
  6
CONTINUOUS
 10
5.9507277847
 20
3.6604521826
 11
5.9487055972
 21
3.6685409326
  0
LINE
  5
351
100
AcDbEntity
  8
03__ASM_ALL_CURVES
100
AcDbLine
 62
40
  6
CONTINUOUS
 10
5.9203949722
 20
3.6523634326
 11
5.9203949722
 21
3.6847184326
  0
LINE
  5
352
100
AcDbEntity
  8
0
100
AcDbLine
 62
7
  6
CONTINUOUS
 10
5.5241937308
 20
3.9037184326
 11
5.4796937308
 21
3.8592184326
  0
LINE
  5
353
100
AcDbEntity
  8
0
100
AcDbLine
 62
7
  6
CONTINUOUS
 10
5.5241937308
 20
4.5897184326
 11
5.4796937308
 21
4.6342184326
  0
LINE
  5
354
100
AcDbEntity
  8
0
100
AcDbLine
 62
7
  6
CONTINUOUS
 10
6.3331937308
 20
3.9042184326
 11
6.3281937308
 21
3.9092184326
  0
LINE
  5
355
100
AcDbEntity
  8
03__ASM_ALL_CURVES
100
AcDbLine
 62
40
  6
CONTINUOUS
 10
5.3863899804
 20
4.9291614327
 11
5.3809974804
 21
4.9363514326
  0
LINE
  5
356
100
AcDbEntity
  8
03__ASM_ALL_CURVES
100
AcDbLine
 62
40
  6
CONTINUOUS
 10
5.4025674804
 20
4.9651114335
 11
5.4052637304
 21
4.9615164317
  0
LINE
  5
357
100
AcDbEntity
  8
03__ASM_ALL_CURVES
100
AcDbLine
 62
40
  6
CONTINUOUS
 10
5.4726699804
 20
4.9291614327
 11
5.4672774804
 21
4.9363514326
  0
LINE
  5
358
100
AcDbEntity
  8
03__ASM_ALL_CURVES
100
AcDbLine
 62
40
  6
CONTINUOUS
 10
5.9709496597
 20
3.6766296826
 11
5.9729718472
 21
3.6685409326
  0
LINE
  5
359
100
AcDbEntity
  8
03__ASM_ALL_CURVES
100
AcDbLine
 62
40
  6
CONTINUOUS
 10
5.7072437304
 20
4.9579214326
 11
5.7099399804
 21
4.9471364326
  0
LINE
  5
35A
100
AcDbEntity
  8
03__ASM_ALL_CURVES
100
AcDbLine
 62
40
  6
CONTINUOUS
 10
5.9365724722
 20
3.679325932
 11
5.9365724722
 21
3.6739334332
  0
LINE
  5
35B
100
AcDbEntity
  8
03__ASM_ALL_CURVES
100
AcDbLine
 62
40
  6
CONTINUOUS
 10
5.9375835615
 20
3.6110209328
 11
5.9375835615
 21
3.6379834326
  0
LINE
  5
35C
100
AcDbEntity
  8
03__ASM_ALL_CURVES
100
AcDbLine
 62
40
  6
CONTINUOUS
 10
5.9537610615
 20
3.6379834326
 11
5.9537610615
 21
3.6110209328
  0
LINE
  5
35D
100
AcDbEntity
  8
03__ASM_ALL_CURVES
100
AcDbLine
 62
40
  6
CONTINUOUS
 10
5.9780273115
 20
3.6379834326
 11
5.9780273115
 21
3.6056284326
  0
LINE
  5
35E
100
AcDbEntity
  8
03__ASM_ALL_CURVES
100
AcDbLine
 62
40
  6
CONTINUOUS
 10
5.9851049722
 20
3.6523634326
 11
5.9851049722
 21
3.6847184326
  0
LINE
  5
35F
100
AcDbEntity
  8
03__ASM_ALL_CURVES
100
AcDbLine
 62
40
  6
CONTINUOUS
 10
6.0012824722
 20
3.679325932
 11
6.0012824722
 21
3.6739334332
  0
LINE
  5
360
100
AcDbEntity
  8
03__ASM_ALL_CURVES
100
AcDbLine
 62
40
  6
CONTINUOUS
 10
6.0022935615
 20
3.6379834326
 11
6.0022935615
 21
3.6056284326
  0
LINE
  5
361
100
AcDbEntity
  8
03__ASM_ALL_CURVES
100
AcDbLine
 62
40
  6
CONTINUOUS
 10
6.0255487222
 20
3.6847184326
 11
6.0255487222
 21
3.6523634326
  0
LINE
  5
362
100
AcDbEntity
  8
03__ASM_ALL_CURVES
100
AcDbLine
 62
40
  6
CONTINUOUS
 10
6.0346485615
 20
3.6056284326
 11
6.0346485615
 21
3.6379834326
  0
LINE
  5
363
100
AcDbEntity
  8
0
100
AcDbLine
 62
7
  6
CONTINUOUS
 10
6.0089302365
 20
4.2046351141
 11
6.0131412771
 21
4.2119288503
  0
LINE
  5
364
100
AcDbEntity
  8
0
100
AcDbLine
 62
7
  6
CONTINUOUS
 10
6.3331937308
 20
4.5892184326
 11
6.3281937308
 21
4.5842184326
  0
LINE
  5
365
100
AcDbEntity
  8
0
100
AcDbLine
 62
7
  6
CONTINUOUS
 10
5.7121937308
 20
3.9137184326
 11
5.7021937308
 21
3.9037184326
  0
LINE
  5
366
100
AcDbEntity
  8
THREAD
100
AcDbLine
 62
7
  6
CONTINUOUS
 10
4.7436937308
 20
4.4651233776
 11
4.3082573967
 21
4.4651233776
  0
LINE
  5
367
100
AcDbEntity
  8
THREAD
100
AcDbLine
 62
7
  6
CONTINUOUS
 10
4.7436937308
 20
4.5164159601
 11
4.3082573967
 21
4.5164159601
  0
LINE
  5
368
100
AcDbEntity
  8
03__ASM_ALL_CURVES
100
AcDbLine
 62
40
  6
CONTINUOUS
 10
4.6923337308
 20
4.9435414322
 11
4.6842449808
 21
4.9471364326
  0
LINE
  5
369
100
AcDbEntity
  8
03__ASM_ALL_CURVES
100
AcDbLine
 62
40
  6
CONTINUOUS
 10
5.1329424804
 20
4.9255664326
 11
5.1275499804
 21
4.9291614327
  0
LINE
  5
36A
100
AcDbEntity
  8
03__ASM_ALL_CURVES
100
AcDbLine
 62
40
  6
CONTINUOUS
 10
5.1760824804
 20
4.9255664326
 11
5.1706899804
 21
4.9291614327
  0
LINE
  5
36B
100
AcDbEntity
  8
03__ASM_ALL_CURVES
100
AcDbLine
 62
40
  6
CONTINUOUS
 10
5.1383349804
 20
4.9687064326
 11
5.1437274804
 21
4.9651114335
  0
LINE
  5
36C
100
AcDbEntity
  8
03__ASM_ALL_CURVES
100
AcDbLine
 62
40
  6
CONTINUOUS
 10
5.1814749804
 20
4.9687064326
 11
5.1868674804
 21
4.9651114335
  0
LINE
  5
36D
100
AcDbEntity
  8
0
100
AcDbLine
 62
7
  6
CONTINUOUS
 10
5.7121937308
 20
4.5797184326
 11
5.7021937308
 21
4.5897184326
  0
LINE
  5
36E
100
AcDbEntity
  8
03__ASM_ALL_CURVES
100
AcDbLine
 62
40
  6
CONTINUOUS
 10
5.4699737304
 20
4.9579214326
 11
5.4726699804
 21
4.9543264335
  0
LINE
  5
36F
100
AcDbEntity
  8
03__ASM_ALL_CURVES
100
AcDbLine
 62
40
  6
CONTINUOUS
 10
5.4888474804
 20
4.9435414322
 11
5.4915437304
 21
4.939946433
  0
LINE
  5
370
100
AcDbEntity
  8
03__ASM_ALL_CURVES
100
AcDbLine
 62
40
  6
CONTINUOUS
 10
5.4915437304
 20
4.9615164317
 11
5.4888474804
 21
4.9651114335
  0
LINE
  5
371
100
AcDbEntity
  8
03__ASM_ALL_CURVES
100
AcDbLine
 62
40
  6
CONTINUOUS
 10
5.5589499804
 20
4.9291614327
 11
5.5535574804
 21
4.9363514326
  0
LINE
  5
372
100
AcDbEntity
  8
03__ASM_ALL_CURVES
100
AcDbLine
 62
40
  6
CONTINUOUS
 10
5.6020899804
 20
4.9291614327
 11
5.5993937304
 21
4.9327564328
  0
LINE
  5
373
100
AcDbEntity
  8
03__ASM_ALL_CURVES
100
AcDbLine
 62
40
  6
CONTINUOUS
 10
5.5751274804
 20
4.9651114335
 11
5.5805199804
 21
4.9579214326
  0
LINE
  5
374
100
AcDbEntity
  8
0
100
AcDbLine
 62
7
  6
CONTINUOUS
 10
6.0089188549
 20
4.2888214646
 11
6.013141275
 21
4.2815080185
  0
LINE
  5
375
100
AcDbEntity
  8
03__ASM_ALL_CURVES
100
AcDbLine
 62
40
  6
CONTINUOUS
 10
5.7854349804
 20
4.9471364326
 11
5.7935237304
 21
4.9255664326
  0
LINE
  5
376
100
AcDbEntity
  8
03__ASM_ALL_CURVES
100
AcDbLine
 62
40
  6
CONTINUOUS
 10
6.0659924722
 20
3.679325932
 11
6.0659924722
 21
3.6739334332
  0
LINE
  5
377
100
AcDbEntity
  8
0
100
AcDbLine
 62
7
  6
CONTINUOUS
 10
6.0681937308
 20
4.0844079661
 11
6.0681937308
 21
4.0858068233
  0
LINE
  5
378
100
AcDbEntity
  8
0
100
AcDbLine
 62
7
  6
CONTINUOUS
 10
6.0681937308
 20
4.1985081844
 11
6.0681937308
 21
4.2948903864
  0
LINE
  5
379
100
AcDbEntity
  8
0
100
AcDbLine
 62
7
  6
CONTINUOUS
 10
6.0681937308
 20
4.4076299694
 11
6.0681937308
 21
4.4090289151
  0
LINE
  5
37A
100
AcDbEntity
  8
03__ASM_ALL_CURVES
100
AcDbLine
 62
40
  6
CONTINUOUS
 10
6.0750923115
 20
3.6379834326
 11
6.0750923115
 21
3.6056284326
  0
LINE
  5
37B
100
AcDbEntity
  8
0
100
AcDbLine
 62
7
  6
CONTINUOUS
 10
6.1141937308
 20
3.9092184326
 11
6.1141937308
 21
4.5842184326
  0
LINE
  5
37C
100
AcDbEntity
  8
0
100
AcDbLine
 62
7
  6
CONTINUOUS
 10
6.1191937308
 20
3.9042184326
 11
6.1191937308
 21
4.5892184326
  0
LINE
  5
37D
100
AcDbEntity
  8
03__ASM_ALL_CURVES
100
AcDbLine
 62
40
  6
CONTINUOUS
 10
5.9011841865
 20
3.6218059326
 11
5.903206374
 21
3.6298946826
  0
LINE
  5
37E
100
AcDbEntity
  8
03__ASM_ALL_CURVES
100
AcDbLine
 62
40
  6
CONTINUOUS
 10
5.9254504365
 20
3.6218059326
 11
5.923428249
 21
3.6137171826
  0
LINE
  5
37F
100
AcDbEntity
  8
03__ASM_ALL_CURVES
100
AcDbLine
 62
40
  6
CONTINUOUS
 10
5.9487055972
 20
3.6685409326
 11
5.9507277847
 21
3.6766296826
  0
LINE
  5
380
100
AcDbEntity
  8
03__ASM_ALL_CURVES
100
AcDbLine
 62
40
  6
CONTINUOUS
 10
5.9729718472
 20
3.6685409326
 11
5.9709496597
 21
3.6604521826
  0
LINE
  5
381
100
AcDbEntity
  8
0
100
AcDbLine
 62
7
  6
CONTINUOUS
 10
5.7121937308
 20
4.5267184326
 11
5.9426937308
 21
4.5267184326
  0
LINE
  5
382
100
AcDbEntity
  8
0
100
AcDbLine
 62
7
  6
CONTINUOUS
 10
6.0516937308
 20
4.5267184326
 11
6.1141937308
 21
4.5267184326
  0
LINE
  5
383
100
AcDbEntity
  8
0
100
AcDbLine
 62
7
  6
CONTINUOUS
 10
6.3071937308
 20
4.5347184326
 11
6.3281937308
 21
4.5347184326
  0
LINE
  5
384
100
AcDbEntity
  8
0
100
AcDbLine
 62
7
  6
CONTINUOUS
 10
6.1871937308
 20
4.5887184326
 11
6.2371937308
 21
4.5887184326
  0
LINE
  5
385
100
AcDbEntity
  8
0
100
AcDbLine
 62
7
  6
CONTINUOUS
 10
6.3801937308
 20
4.5892184326
 11
6.3331937308
 21
4.5892184326
  0
LINE
  5
386
100
AcDbEntity
  8
0
100
AcDbLine
 62
7
  6
CONTINUOUS
 10
6.1821937308
 20
4.5892184326
 11
6.1191937308
 21
4.5892184326
  0
LINE
  5
387
100
AcDbEntity
  8
0
100
AcDbLine
 62
7
  6
CONTINUOUS
 10
5.7021937308
 20
4.5897184326
 11
5.5241937308
 21
4.5897184326
  0
LINE
  5
388
100
AcDbEntity
  8
0
100
AcDbLine
 62
7
  6
CONTINUOUS
 10
5.2036881773
 20
4.5972184326
 11
5.1911937308
 21
4.5972184326
  0
LINE
  5
389
100
AcDbEntity
  8
0
100
AcDbLine
 62
7
  6
CONTINUOUS
 10
5.4796937308
 20
4.6342184326
 11
5.2325556907
 21
4.6342184326
  0
LINE
  5
38A
100
AcDbEntity
  8
03__ASM_ALL_CURVES
100
AcDbLine
 62
40
  6
CONTINUOUS
 10
5.3917824804
 20
4.9255664326
 11
5.3863899804
 21
4.9291614327
  0
LINE
  5
38B
100
AcDbEntity
  8
03__ASM_ALL_CURVES
100
AcDbLine
 62
40
  6
CONTINUOUS
 10
5.3971749804
 20
4.9687064326
 11
5.4025674804
 21
4.9651114335
  0
LINE
  5
38C
100
AcDbEntity
  8
03__ASM_ALL_CURVES
100
AcDbLine
 62
40
  6
CONTINUOUS
 10
5.7018512304
 20
4.9651114335
 11
5.7072437304
 21
4.9579214326
  0
LINE
  5
38D
100
AcDbEntity
  8
0
100
AcDbLine
 62
7
  6
CONTINUOUS
 10
6.1821937308
 20
3.9042184326
 11
6.1821937308
 21
4.5892184326
  0
LINE
  5
38E
100
AcDbEntity
  8
0
100
AcDbLine
 62
7
  6
CONTINUOUS
 10
6.1871937308
 20
3.9047189526
 11
6.1871937308
 21
4.5887179126
  0
LINE
  5
38F
100
AcDbEntity
  8
0
100
AcDbLine
 62
7
  6
CONTINUOUS
 10
6.2371937308
 20
3.9047189526
 11
6.2371937308
 21
4.5887179126
  0
LINE
  5
390
100
AcDbEntity
  8
03__ASM_ALL_CURVES
100
AcDbLine
 62
40
  6
CONTINUOUS
 10
6.0518371597
 20
3.6604521826
 11
6.0498149722
 21
3.6523634326
  0
LINE
  5
391
100
AcDbEntity
  8
0
100
AcDbLine
 62
7
  6
CONTINUOUS
 10
5.1411937308
 20
4.6512184326
 11
5.1911937308
 21
4.6512184326
  0
LINE
  5
392
100
AcDbEntity
  8
0
100
AcDbLine
 62
7
  6
CONTINUOUS
 10
5.0711937308
 20
4.6517184326
 11
5.0489161626
 21
4.6517184326
  0
LINE
  5
393
100
AcDbEntity
  8
THREAD
100
AcDbLine
 62
7
  6
CONTINUOUS
 10
5.0211937308
 20
4.6742184326
 11
4.9711937308
 21
4.6742184326
  0
LINE
  5
394
100
AcDbEntity
  8
THREAD
100
AcDbLine
 62
7
  6
CONTINUOUS
 10
4.9511937308
 20
4.6742184326
 11
4.8051937308
 21
4.6742184326
  0
LINE
  5
395
100
AcDbEntity
  8
THREAD
100
AcDbLine
 62
7
  6
CONTINUOUS
 10
4.7436937308
 20
4.7348209051
 11
4.3082573967
 21
4.7348209051
  0
LINE
  5
396
100
AcDbEntity
  8
THREAD
100
AcDbLine
 62
7
  6
CONTINUOUS
 10
4.7436937308
 20
4.7357184326
 11
4.3082573967
 21
4.7357184326
  0
LINE
  5
397
100
AcDbEntity
  8
03__ASM_ALL_CURVES
100
AcDbLine
 62
40
  6
CONTINUOUS
 10
4.3173337308
 20
4.9063930993
 11
4.2741937308
 21
4.9111864326
  0
LINE
  5
398
100
AcDbEntity
  8
03__ASM_ALL_CURVES
100
AcDbLine
 62
40
  6
CONTINUOUS
 10
4.3173337308
 20
4.9051947659
 11
4.2741937308
 21
4.9111864326
  0
LINE
  5
399
100
AcDbEntity
  8
03__ASM_ALL_CURVES
100
AcDbLine
 62
40
  6
CONTINUOUS
 10
4.3173337308
 20
4.9039964326
 11
4.2741937308
 21
4.9111864326
  0
LINE
  5
39A
100
AcDbEntity
  8
03__ASM_ALL_CURVES
100
AcDbLine
 62
40
  6
CONTINUOUS
 10
5.4780624804
 20
4.9255664326
 11
5.4726699804
 21
4.9291614327
  0
LINE
  5
39B
100
AcDbEntity
  8
03__ASM_ALL_CURVES
100
AcDbLine
 62
40
  6
CONTINUOUS
 10
5.4726699804
 20
4.9543264335
 11
5.4888474804
 21
4.9435414322
  0
LINE
  5
39C
100
AcDbEntity
  8
03__ASM_ALL_CURVES
100
AcDbLine
 62
40
  6
CONTINUOUS
 10
5.4888474804
 20
4.9651114335
 11
5.4834549804
 21
4.9687064326
  0
LINE
  5
39D
100
AcDbEntity
  8
03__ASM_ALL_CURVES
100
AcDbLine
 62
40
  6
CONTINUOUS
 10
5.5643424804
 20
4.9255664326
 11
5.5589499804
 21
4.9291614327
  0
LINE
  5
39E
100
AcDbEntity
  8
03__ASM_ALL_CURVES
100
AcDbLine
 62
40
  6
CONTINUOUS
 10
6.6693046684
 20
4.2071734326
 11
6.6652602934
 21
4.2098696827
  0
LINE
  5
39F
100
AcDbEntity
  8
03__ASM_ALL_CURVES
100
AcDbLine
 62
40
  6
CONTINUOUS
 10
5.6074824804
 20
4.9255664326
 11
5.6020899804
 21
4.9291614327
  0
LINE
  5
3A0
100
AcDbEntity
  8
03__ASM_ALL_CURVES
100
AcDbLine
 62
40
  6
CONTINUOUS
 10
6.7016596684
 20
4.2071734326
 11
6.6976152934
 21
4.2098696827
  0
LINE
  5
3A1
100
AcDbEntity
  8
03__ASM_ALL_CURVES
100
AcDbLine
 62
40
  6
CONTINUOUS
 10
5.5697349804
 20
4.9687064326
 11
5.5751274804
 21
4.9651114335
  0
LINE
  5
3A2
100
AcDbEntity
  8
03__ASM_ALL_CURVES
100
AcDbLine
 62
40
  6
CONTINUOUS
 10
6.6733490434
 20
4.2395284326
 11
6.6773934184
 21
4.2368321832
  0
LINE
  5
3A3
100
AcDbEntity
  8
03__ASM_ALL_CURVES
100
AcDbLine
 62
40
  6
CONTINUOUS
 10
5.7908274804
 20
4.9651114335
 11
5.7935237304
 21
4.9615164317
  0
LINE
  5
3A4
100
AcDbEntity
  8
0
100
AcDbLine
 62
7
  6
CONTINUOUS
 10
6.3071937308
 20
4.5697184326
 11
6.3071937308
 21
3.9237184326
  0
LINE
  5
3A5
100
AcDbEntity
  8
0
100
AcDbLine
 62
7
  6
CONTINUOUS
 10
6.3281937308
 20
3.9092184326
 11
6.3281937308
 21
4.5842184326
  0
LINE
  5
3A6
100
AcDbEntity
  8
0
100
AcDbLine
 62
7
  6
CONTINUOUS
 10
6.3331937308
 20
3.9042184326
 11
6.3331937308
 21
4.5892184326
  0
LINE
  5
3A7
100
AcDbEntity
  8
03__ASM_ALL_CURVES
100
AcDbLine
 62
40
  6
CONTINUOUS
 10
5.903206374
 20
3.6298946826
 11
5.907250749
 21
3.6352871832
  0
LINE
  5
3A8
100
AcDbEntity
  8
03__ASM_ALL_CURVES
100
AcDbLine
 62
40
  6
CONTINUOUS
 10
5.9365724722
 20
3.6739334332
 11
5.9345502847
 21
3.671237182
  0
LINE
  5
3A9
100
AcDbEntity
  8
03__ASM_ALL_CURVES
100
AcDbLine
 62
40
  6
CONTINUOUS
 10
5.9507277847
 20
3.6766296826
 11
5.9547721597
 21
3.6820221832
  0
LINE
  5
3AA
100
AcDbEntity
  8
03__ASM_ALL_CURVES
100
AcDbLine
 62
40
  6
CONTINUOUS
 10
5.923428249
 20
3.6137171826
 11
5.919383874
 21
3.6083246827
  0
LINE
  5
3AB
100
AcDbEntity
  8
03__ASM_ALL_CURVES
100
AcDbLine
 62
40
  6
CONTINUOUS
 10
5.9709496597
 20
3.6604521826
 11
5.9669052847
 21
3.6550596827
  0
LINE
  5
3AC
100
AcDbEntity
  8
03__ASM_ALL_CURVES
100
AcDbLine
 62
40
  6
CONTINUOUS
 10
5.9537610615
 20
3.6110209328
 11
5.951738874
 21
3.6083246827
  0
LINE
  5
3AD
100
AcDbEntity
  8
03__ASM_ALL_CURVES
100
AcDbLine
 62
40
  6
CONTINUOUS
 10
6.0012824722
 20
3.6739334332
 11
5.9992602847
 21
3.671237182
  0
LINE
  5
3AE
100
AcDbEntity
  8
03__ASM_ALL_CURVES
100
AcDbLine
 62
40
  6
CONTINUOUS
 10
6.0498149722
 20
3.679325932
 11
6.0518371597
 21
3.6820221832
  0
LINE
  5
3AF
100
AcDbEntity
  8
0
100
AcDbLine
 62
7
  6
CONTINUOUS
 10
6.1871937308
 20
3.9092184326
 11
6.1821937308
 21
3.9042184326
  0
LINE
  5
3B0
100
AcDbEntity
  8
03__ASM_ALL_CURVES
100
AcDbLine
 62
40
  6
CONTINUOUS
 10
6.6733490434
 20
4.272782182
 11
6.6693046684
 21
4.2700859326
  0
LINE
  5
3B1
100
AcDbEntity
  8
03__ASM_ALL_CURVES
100
AcDbLine
 62
40
  6
CONTINUOUS
 10
6.6935709184
 20
4.2835671832
 11
6.6976152934
 21
4.2862634326
  0
LINE
  5
3B2
100
AcDbEntity
  8
03__ASM_ALL_CURVES
100
AcDbLine
 62
40
  6
CONTINUOUS
 10
6.6652602934
 20
4.2368321832
 11
6.6693046684
 21
4.2395284326
  0
LINE
  5
3B3
100
AcDbEntity
  8
03__ASM_ALL_CURVES
100
AcDbLine
 62
40
  6
CONTINUOUS
 10
6.7057040434
 20
4.2566046827
 11
6.7016596684
 21
4.2539084326
  0
LINE
  5
3B4
100
AcDbEntity
  8
03__ASM_ALL_CURVES
100
AcDbLine
 62
40
  6
CONTINUOUS
 10
6.7380590434
 20
4.272782182
 11
6.7340146684
 21
4.2700859326
  0
LINE
  5
3B5
100
AcDbEntity
  8
03__ASM_ALL_CURVES
100
AcDbLine
 62
40
  6
CONTINUOUS
 10
6.6976152934
 20
4.2368321832
 11
6.7016596684
 21
4.2395284326
  0
LINE
  5
3B6
100
AcDbEntity
  8
03__ASM_ALL_CURVES
100
AcDbLine
 62
40
  6
CONTINUOUS
 10
6.6773934184
 20
4.2098696827
 11
6.6733490434
 21
4.2071734326
  0
LINE
  5
3B7
100
AcDbEntity
  8
03__ASM_ALL_CURVES
100
AcDbLine
 62
40
  6
CONTINUOUS
 10
6.7097484184
 20
4.2098696827
 11
6.7057040434
 21
4.2071734326
  0
LINE
  5
3B8
100
AcDbEntity
  8
03__ASM_ALL_CURVES
100
AcDbLine
 62
40
  6
CONTINUOUS
 10
4.3173337308
 20
4.9087897659
 11
4.2741937308
 21
4.9111864326
  0
LINE
  5
3B9
100
AcDbEntity
  8
03__ASM_ALL_CURVES
100
AcDbLine
 62
40
  6
CONTINUOUS
 10
4.3173337308
 20
4.9075914326
 11
4.2741937308
 21
4.9111864326
  0
LINE
  5
3BA
100
AcDbEntity
  8
03__ASM_ALL_CURVES
100
AcDbLine
 62
40
  6
CONTINUOUS
 10
4.9810537308
 20
4.9147814326
 11
5.0673337308
 21
4.9075914326
  0
LINE
  5
3BB
100
AcDbEntity
  8
03__ASM_ALL_CURVES
100
AcDbLine
 62
40
  6
CONTINUOUS
 10
4.9810537308
 20
4.9159797659
 11
5.0673337308
 21
4.9063930993
  0
LINE
  5
3BC
100
AcDbEntity
  8
03__ASM_ALL_CURVES
100
AcDbLine
 62
40
  6
CONTINUOUS
 10
4.9810537308
 20
4.9171780993
 11
5.0673337308
 21
4.9051947659
  0
LINE
  5
3BD
100
AcDbEntity
  8
03__ASM_ALL_CURVES
100
AcDbLine
 62
40
  6
CONTINUOUS
 10
5.0673337308
 20
4.9039964326
 11
4.9810537308
 21
4.9183764326
  0
LINE
  5
3BE
100
AcDbEntity
  8
03__ASM_ALL_CURVES
100
AcDbLine
 62
40
  6
CONTINUOUS
 10
6.7057040434
 20
4.2395284326
 11
6.7097484184
 21
4.2368321832
  0
LINE
  5
3BF
100
AcDbEntity
  8
03__ASM_ALL_CURVES
100
AcDbLine
 62
40
  6
CONTINUOUS
 10
6.6976152934
 20
4.2539084326
 11
6.6935709184
 21
4.2566046827
  0
LINE
  5
3C0
100
AcDbEntity
  8
03__ASM_ALL_CURVES
100
AcDbLine
 62
40
  6
CONTINUOUS
 10
6.6693046684
 20
4.2862634326
 11
6.6733490434
 21
4.2835671832
  0
LINE
  5
3C1
100
AcDbEntity
  8
03__ASM_ALL_CURVES
100
AcDbLine
 62
40
  6
CONTINUOUS
 10
6.7016596684
 20
4.2862634326
 11
6.7057040434
 21
4.2835671832
  0
LINE
  5
3C2
100
AcDbEntity
  8
03__ASM_ALL_CURVES
100
AcDbLine
 62
40
  6
CONTINUOUS
 10
6.8310796684
 20
4.2071734326
 11
6.8270352934
 21
4.2098696827
  0
LINE
  5
3C3
100
AcDbEntity
  8
03__ASM_ALL_CURVES
100
AcDbLine
 62
40
  6
CONTINUOUS
 10
5.6964587304
 20
4.9687064326
 11
5.7018512304
 21
4.9651114335
  0
LINE
  5
3C4
100
AcDbEntity
  8
03__ASM_ALL_CURVES
100
AcDbLine
 62
40
  6
CONTINUOUS
 10
6.8027690434
 20
4.2395284326
 11
6.8068134184
 21
4.2368321832
  0
LINE
  5
3C5
100
AcDbEntity
  8
03__ASM_ALL_CURVES
100
AcDbLine
 62
40
  6
CONTINUOUS
 10
6.7340146684
 20
4.2862634326
 11
6.7380590434
 21
4.2835671832
  0
LINE
  5
3C6
100
AcDbEntity
  8
03__ASM_ALL_CURVES
100
AcDbLine
 62
40
  6
CONTINUOUS
 10
6.8351240434
 20
4.2395284326
 11
6.8391684184
 21
4.2368321832
  0
LINE
  5
3C7
100
AcDbEntity
  8
03__ASM_ALL_CURVES
100
AcDbLine
 62
40
  6
CONTINUOUS
 10
5.7854349804
 20
4.9687064326
 11
5.7908274804
 21
4.9651114335
  0
LINE
  5
3C8
100
AcDbEntity
  8
0
100
AcDbLine
 62
7
  6
CONTINUOUS
 10
6.1871937308
 20
4.5842184326
 11
6.1821937308
 21
4.5892184326
  0
LINE
  5
3C9
100
AcDbEntity
  8
0
100
AcDbLine
 62
7
  6
CONTINUOUS
 10
6.3801937308
 20
3.9042184326
 11
6.3801937308
 21
4.5892184326
  0
LINE
  5
3CA
100
AcDbEntity
  8
0
100
AcDbLine
 62
7
  6
CONTINUOUS
 10
6.3951937308
 20
3.9192184326
 11
6.3951937308
 21
4.5742184326
  0
LINE
  5
3CB
100
AcDbEntity
  8
03__ASM_ALL_CURVES
100
AcDbLine
 62
40
  6
CONTINUOUS
 10
6.0558815347
 20
3.6658446823
 11
6.0518371597
 21
3.6604521826
  0
LINE
  5
3CC
100
AcDbEntity
  8
03__ASM_ALL_CURVES
100
AcDbLine
 62
40
  6
CONTINUOUS
 10
6.0659924722
 20
3.6739334332
 11
6.0639702847
 21
3.671237182
  0
LINE
  5
3CD
100
AcDbEntity
  8
0
100
AcDbLine
 62
7
  6
CONTINUOUS
 10
6.3951937308
 20
3.9192184326
 11
6.3801937308
 21
3.9042184326
  0
LINE
  5
3CE
100
AcDbEntity
  8
03__ASM_ALL_CURVES
100
AcDbLine
 62
40
  6
CONTINUOUS
 10
5.9345502847
 20
3.671237182
 11
5.9305059097
 21
3.6685409326
  0
LINE
  5
3CF
100
AcDbEntity
  8
03__ASM_ALL_CURVES
100
AcDbLine
 62
40
  6
CONTINUOUS
 10
5.9547721597
 20
3.6820221832
 11
5.9588165347
 21
3.6847184326
  0
LINE
  5
3D0
100
AcDbEntity
  8
03__ASM_ALL_CURVES
100
AcDbLine
 62
40
  6
CONTINUOUS
 10
5.907250749
 20
3.6352871832
 11
5.911295124
 21
3.6379834326
  0
LINE
  5
3D1
100
AcDbEntity
  8
03__ASM_ALL_CURVES
100
AcDbLine
 62
40
  6
CONTINUOUS
 10
6.8068134184
 20
4.226047182
 11
6.8027690434
 21
4.2233509326
  0
LINE
  5
3D2
100
AcDbEntity
  8
03__ASM_ALL_CURVES
100
AcDbLine
 62
40
  6
CONTINUOUS
 10
6.8270352934
 20
4.2368321832
 11
6.8310796684
 21
4.2395284326
  0
LINE
  5
3D3
100
AcDbEntity
  8
03__ASM_ALL_CURVES
100
AcDbLine
 62
40
  6
CONTINUOUS
 10
5.9669052847
 20
3.6550596827
 11
5.9628609097
 21
3.6523634326
  0
LINE
  5
3D4
100
AcDbEntity
  8
03__ASM_ALL_CURVES
100
AcDbLine
 62
40
  6
CONTINUOUS
 10
5.9992602847
 20
3.671237182
 11
5.9952159097
 21
3.6685409326
  0
LINE
  5
3D5
100
AcDbEntity
  8
03__ASM_ALL_CURVES
100
AcDbLine
 62
40
  6
CONTINUOUS
 10
5.919383874
 20
3.6083246827
 11
5.915339499
 21
3.6056284326
  0
LINE
  5
3D6
100
AcDbEntity
  8
03__ASM_ALL_CURVES
100
AcDbLine
 62
40
  6
CONTINUOUS
 10
6.8391684184
 20
4.2098696827
 11
6.8351240434
 21
4.2071734326
  0
LINE
  5
3D7
100
AcDbEntity
  8
03__ASM_ALL_CURVES
100
AcDbLine
 62
40
  6
CONTINUOUS
 10
6.0518371597
 20
3.6820221832
 11
6.0558815347
 21
3.6847184326
  0
LINE
  5
3D8
100
AcDbEntity
  8
03__ASM_ALL_CURVES
100
AcDbLine
 62
40
  6
CONTINUOUS
 10
5.951738874
 20
3.6083246827
 11
5.947694499
 21
3.6056284326
  0
LINE
  5
3D9
100
AcDbEntity
  8
03__ASM_ALL_CURVES
100
AcDbLine
 62
40
  6
CONTINUOUS
 10
6.0639702847
 20
3.671237182
 11
6.0558815347
 21
3.6658446823
  0
LINE
  5
3DA
100
AcDbEntity
  8
03__ASM_ALL_CURVES
100
AcDbLine
 62
40
  6
CONTINUOUS
 10
4.9810537308
 20
4.9087897659
 11
5.0673337308
 21
4.9135830993
  0
LINE
  5
3DB
100
AcDbEntity
  8
03__ASM_ALL_CURVES
100
AcDbLine
 62
40
  6
CONTINUOUS
 10
4.9810537308
 20
4.9099880993
 11
5.0673337308
 21
4.9123847659
  0
LINE
  5
3DC
100
AcDbEntity
  8
03__ASM_ALL_CURVES
100
AcDbLine
 62
40
  6
CONTINUOUS
 10
4.3173337308
 20
4.9123847659
 11
4.2741937308
 21
4.9111864326
  0
LINE
  5
3DD
100
AcDbEntity
  8
03__ASM_ALL_CURVES
100
AcDbLine
 62
40
  6
CONTINUOUS
 10
4.2741937308
 20
4.9111864326
 11
5.8438537308
 21
4.9111864326
  0
LINE
  5
3DE
100
AcDbEntity
  8
03__ASM_ALL_CURVES
100
AcDbLine
 62
40
  6
CONTINUOUS
 10
5.7503837304
 20
4.9255664326
 11
5.7288137304
 21
4.9255664326
  0
LINE
  5
3DF
100
AcDbEntity
  8
03__ASM_ALL_CURVES
100
AcDbLine
 62
40
  6
CONTINUOUS
 10
5.6964587304
 20
4.9255664326
 11
5.6856737304
 21
4.9255664326
  0
LINE
  5
3E0
100
AcDbEntity
  8
03__ASM_ALL_CURVES
100
AcDbLine
 62
40
  6
CONTINUOUS
 10
5.6128749804
 20
4.9255664326
 11
5.6074824804
 21
4.9255664326
  0
LINE
  5
3E1
100
AcDbEntity
  8
03__ASM_ALL_CURVES
100
AcDbLine
 62
40
  6
CONTINUOUS
 10
5.5697349804
 20
4.9255664326
 11
5.5643424804
 21
4.9255664326
  0
LINE
  5
3E2
100
AcDbEntity
  8
03__ASM_ALL_CURVES
100
AcDbLine
 62
40
  6
CONTINUOUS
 10
5.4834549804
 20
4.9255664326
 11
5.4780624804
 21
4.9255664326
  0
LINE
  5
3E3
100
AcDbEntity
  8
03__ASM_ALL_CURVES
100
AcDbLine
 62
40
  6
CONTINUOUS
 10
5.3971749804
 20
4.9255664326
 11
5.3917824804
 21
4.9255664326
  0
LINE
  5
3E4
100
AcDbEntity
  8
03__ASM_ALL_CURVES
100
AcDbLine
 62
40
  6
CONTINUOUS
 10
5.1814749804
 20
4.9255664326
 11
5.1760824804
 21
4.9255664326
  0
LINE
  5
3E5
100
AcDbEntity
  8
03__ASM_ALL_CURVES
100
AcDbLine
 62
40
  6
CONTINUOUS
 10
5.1383349804
 20
4.9255664326
 11
5.1329424804
 21
4.9255664326
  0
LINE
  5
3E6
100
AcDbEntity
  8
03__ASM_ALL_CURVES
100
AcDbLine
 62
40
  6
CONTINUOUS
 10
4.7354737308
 20
4.9255664326
 11
4.7327774808
 21
4.9255664326
  0
LINE
  5
3E7
100
AcDbEntity
  8
03__ASM_ALL_CURVES
100
AcDbLine
 62
40
  6
CONTINUOUS
 10
4.5656099808
 20
4.9255664326
 11
4.5602174808
 21
4.9255664326
  0
LINE
  5
3E8
100
AcDbEntity
  8
03__ASM_ALL_CURVES
100
AcDbLine
 62
40
  6
CONTINUOUS
 10
4.4766337308
 20
4.9255664326
 11
4.4739374808
 21
4.9255664326
  0
LINE
  5
3E9
100
AcDbEntity
  8
03__ASM_ALL_CURVES
100
AcDbLine
 62
40
  6
CONTINUOUS
 10
5.0817137304
 20
4.9255664326
 11
5.1032837304
 21
4.9255664326
  0
LINE
  5
3EA
100
AcDbEntity
  8
03__ASM_ALL_CURVES
100
AcDbLine
 62
40
  6
CONTINUOUS
 10
5.6425337304
 20
4.9255664326
 11
5.6641037304
 21
4.9255664326
  0
LINE
  5
3EB
100
AcDbEntity
  8
03__ASM_ALL_CURVES
100
AcDbLine
 62
40
  6
CONTINUOUS
 10
4.8109687308
 20
4.9363514326
 11
4.8352349808
 21
4.9363514326
  0
LINE
  5
3EC
100
AcDbEntity
  8
03__ASM_ALL_CURVES
100
AcDbLine
 62
40
  6
CONTINUOUS
 10
5.2138299804
 20
4.939946433
 11
5.2300074804
 21
4.939946433
  0
LINE
  5
3ED
100
AcDbEntity
  8
03__ASM_ALL_CURVES
100
AcDbLine
 62
40
  6
CONTINUOUS
 10
5.7854349804
 20
4.9471364326
 11
5.7719537304
 21
4.9471364326
  0
LINE
  5
3EE
100
AcDbEntity
  8
03__ASM_ALL_CURVES
100
AcDbLine
 62
40
  6
CONTINUOUS
 10
5.3944787304
 20
4.9471364326
 11
5.4052637304
 21
4.9471364326
  0
LINE
  5
3EF
100
AcDbEntity
  8
03__ASM_ALL_CURVES
100
AcDbLine
 62
40
  6
CONTINUOUS
 10
5.5131137304
 20
4.9471364326
 11
5.5346837304
 21
4.9471364326
  0
LINE
  5
3F0
100
AcDbEntity
  8
03__ASM_ALL_CURVES
100
AcDbLine
 62
40
  6
CONTINUOUS
 10
5.7288137304
 20
4.9471364326
 11
5.7422949804
 21
4.9471364326
  0
LINE
  5
3F1
100
AcDbEntity
  8
03__ASM_ALL_CURVES
100
AcDbLine
 62
40
  6
CONTINUOUS
 10
4.5602174808
 20
4.9543264335
 11
4.5656099808
 21
4.9543264335
  0
LINE
  5
3F2
100
AcDbEntity
  8
03__ASM_ALL_CURVES
100
AcDbLine
 62
40
  6
CONTINUOUS
 10
5.4834549804
 20
4.9687064326
 11
5.4780624804
 21
4.9687064326
  0
LINE
  5
3F3
100
AcDbEntity
  8
03__ASM_ALL_CURVES
100
AcDbLine
 62
40
  6
CONTINUOUS
 10
4.5736987308
 20
4.9687064326
 11
4.5575212308
 21
4.9687064326
  0
LINE
  5
3F4
100
AcDbEntity
  8
03__ASM_ALL_CURVES
100
AcDbLine
 62
40
  6
CONTINUOUS
 10
4.5305587308
 20
4.9687064326
 11
4.5089887308
 21
4.9687064326
  0
LINE
  5
3F5
100
AcDbEntity
  8
03__ASM_ALL_CURVES
100
AcDbLine
 62
40
  6
CONTINUOUS
 10
5.1329424804
 20
4.9687064326
 11
5.1383349804
 21
4.9687064326
  0
LINE
  5
3F6
100
AcDbEntity
  8
03__ASM_ALL_CURVES
100
AcDbLine
 62
40
  6
CONTINUOUS
 10
5.1760824804
 20
4.9687064326
 11
5.1814749804
 21
4.9687064326
  0
LINE
  5
3F7
100
AcDbEntity
  8
03__ASM_ALL_CURVES
100
AcDbLine
 62
40
  6
CONTINUOUS
 10
5.2515774804
 20
4.9687064326
 11
5.2785399804
 21
4.9687064326
  0
LINE
  5
3F8
100
AcDbEntity
  8
03__ASM_ALL_CURVES
100
AcDbLine
 62
40
  6
CONTINUOUS
 10
5.3917824804
 20
4.9687064326
 11
5.3971749804
 21
4.9687064326
  0
LINE
  5
3F9
100
AcDbEntity
  8
03__ASM_ALL_CURVES
100
AcDbLine
 62
40
  6
CONTINUOUS
 10
5.5643424804
 20
4.9687064326
 11
5.5697349804
 21
4.9687064326
  0
LINE
  5
3FA
100
AcDbEntity
  8
03__ASM_ALL_CURVES
100
AcDbLine
 62
40
  6
CONTINUOUS
 10
5.6856737304
 20
4.9687064326
 11
5.6964587304
 21
4.9687064326
  0
LINE
  5
3FB
100
AcDbEntity
  8
03__ASM_ALL_CURVES
100
AcDbLine
 62
40
  6
CONTINUOUS
 10
5.7288137304
 20
4.9687064326
 11
5.7503837304
 21
4.9687064326
  0
LINE
  5
3FC
100
AcDbEntity
  8
03__ASM_ALL_CURVES
100
AcDbLine
 62
40
  6
CONTINUOUS
 10
5.7719537304
 20
4.9687064326
 11
5.7854349804
 21
4.9687064326
  0
LINE
  5
3FD
100
AcDbEntity
  8
03__ASM_ALL_CURVES
100
AcDbLine
 62
40
  6
CONTINUOUS
 10
4.3173337308
 20
4.9099880993
 11
4.2741937308
 21
4.9111864326
  0
LINE
  5
3FE
100
AcDbEntity
  8
03__ASM_ALL_CURVES
100
AcDbLine
 62
40
  6
CONTINUOUS
 10
4.9810537308
 20
4.9123847659
 11
5.0673337308
 21
4.9099880993
  0
LINE
  5
3FF
100
AcDbEntity
  8
03__ASM_ALL_CURVES
100
AcDbLine
 62
40
  6
CONTINUOUS
 10
4.9810537308
 20
4.9135830993
 11
5.0673337308
 21
4.9087897659
  0
LINE
  5
400
100
AcDbEntity
  8
03__ASM_ALL_CURVES
100
AcDbLine
 62
40
  6
CONTINUOUS
 10
6.9625218559
 20
4.2395284326
 11
6.9665662309
 21
4.2368321832
  0
LINE
  5
401
100
AcDbEntity
  8
03__ASM_ALL_CURVES
100
AcDbLine
 62
40
  6
CONTINUOUS
 10
7.0899196684
 20
4.2071734326
 11
7.0858752934
 21
4.2098696827
  0
LINE
  5
402
100
AcDbEntity
  8
03__ASM_ALL_CURVES
100
AcDbLine
 62
40
  6
CONTINUOUS
 10
7.0939640434
 20
4.2395284326
 11
7.0980084184
 21
4.2368321832
  0
LINE
  5
403
100
AcDbEntity
  8
0
100
AcDbLine
 62
7
  6
CONTINUOUS
 10
6.3951937308
 20
4.5742184326
 11
6.3801937308
 21
4.5892184326
  0
LINE
  5
404
100
AcDbEntity
  8
03__ASM_ALL_CURVES
100
AcDbLine
 62
40
  6
CONTINUOUS
 10
6.6652602934
 20
4.2098696827
 11
6.6612159184
 21
4.2152621826
  0
LINE
  5
405
100
AcDbEntity
  8
03__ASM_ALL_CURVES
100
AcDbLine
 62
40
  6
CONTINUOUS
 10
6.6976152934
 20
4.2098696827
 11
6.6935709184
 21
4.2152621826
  0
LINE
  5
406
100
AcDbEntity
  8
03__ASM_ALL_CURVES
100
AcDbLine
 62
40
  6
CONTINUOUS
 10
6.6773934184
 20
4.2368321832
 11
6.6794156059
 21
4.234135932
  0
LINE
  5
407
100
AcDbEntity
  8
03__ASM_ALL_CURVES
100
AcDbLine
 62
40
  6
CONTINUOUS
 10
6.6753712309
 20
4.2754784332
 11
6.6733490434
 21
4.272782182
  0
LINE
  5
408
100
AcDbEntity
  8
03__ASM_ALL_CURVES
100
AcDbLine
 62
40
  6
CONTINUOUS
 10
6.6895265434
 20
4.2781746826
 11
6.6935709184
 21
4.2835671832
  0
LINE
  5
409
100
AcDbEntity
  8
03__ASM_ALL_CURVES
100
AcDbLine
 62
40
  6
CONTINUOUS
 10
6.6612159184
 20
4.2314396826
 11
6.6652602934
 21
4.2368321832
  0
LINE
  5
40A
100
AcDbEntity
  8
03__ASM_ALL_CURVES
100
AcDbLine
 62
40
  6
CONTINUOUS
 10
6.7097484184
 20
4.2619971826
 11
6.7057040434
 21
4.2566046827
  0
LINE
  5
40B
100
AcDbEntity
  8
03__ASM_ALL_CURVES
100
AcDbLine
 62
40
  6
CONTINUOUS
 10
6.6794156059
 20
4.2125659328
 11
6.6773934184
 21
4.2098696827
  0
LINE
  5
40C
100
AcDbEntity
  8
03__ASM_ALL_CURVES
100
AcDbLine
 62
40
  6
CONTINUOUS
 10
6.6935709184
 20
4.2314396826
 11
6.6976152934
 21
4.2368321832
  0
LINE
  5
40D
100
AcDbEntity
  8
03__ASM_ALL_CURVES
100
AcDbLine
 62
40
  6
CONTINUOUS
 10
6.7400812309
 20
4.2754784332
 11
6.7380590434
 21
4.272782182
  0
LINE
  5
40E
100
AcDbEntity
  8
03__ASM_ALL_CURVES
100
AcDbLine
 62
40
  6
CONTINUOUS
 10
6.7137927934
 20
4.2152621826
 11
6.7097484184
 21
4.2098696827
  0
LINE
  5
40F
100
AcDbEntity
  8
03__ASM_ALL_CURVES
100
AcDbLine
 62
40
  6
CONTINUOUS
 10
6.9665662309
 20
4.2098696827
 11
6.9625218559
 21
4.2071734326
  0
LINE
  5
410
100
AcDbEntity
  8
03__ASM_ALL_CURVES
100
AcDbLine
 62
40
  6
CONTINUOUS
 10
7.0858752934
 20
4.2368321832
 11
7.0899196684
 21
4.2395284326
  0
LINE
  5
411
100
AcDbEntity
  8
03__ASM_ALL_CURVES
100
AcDbLine
 62
40
  6
CONTINUOUS
 10
7.0980084184
 20
4.2098696827
 11
7.0939640434
 21
4.2071734326
  0
LINE
  5
412
100
AcDbEntity
  8
03__ASM_ALL_CURVES
100
AcDbLine
 62
40
  6
CONTINUOUS
 10
4.9810537308
 20
4.9039964326
 11
5.0673337308
 21
4.9183764326
  0
LINE
  5
413
100
AcDbEntity
  8
03__ASM_ALL_CURVES
100
AcDbLine
 62
40
  6
CONTINUOUS
 10
4.9810537308
 20
4.9051947659
 11
5.0673337308
 21
4.9171780993
  0
LINE
  5
414
100
AcDbEntity
  8
03__ASM_ALL_CURVES
100
AcDbLine
 62
40
  6
CONTINUOUS
 10
4.9810537308
 20
4.9063930993
 11
5.0673337308
 21
4.9159797659
  0
LINE
  5
415
100
AcDbEntity
  8
03__ASM_ALL_CURVES
100
AcDbLine
 62
40
  6
CONTINUOUS
 10
4.3173337308
 20
4.9159797659
 11
4.2741937308
 21
4.9111864326
  0
LINE
  5
416
100
AcDbEntity
  8
03__ASM_ALL_CURVES
100
AcDbLine
 62
40
  6
CONTINUOUS
 10
4.9810537308
 20
4.9075914326
 11
5.0673337308
 21
4.9147814326
  0
LINE
  5
417
100
AcDbEntity
  8
03__ASM_ALL_CURVES
100
AcDbLine
 62
40
  6
CONTINUOUS
 10
4.3173337308
 20
4.9147814326
 11
4.2741937308
 21
4.9111864326
  0
LINE
  5
418
100
AcDbEntity
  8
03__ASM_ALL_CURVES
100
AcDbLine
 62
40
  6
CONTINUOUS
 10
4.3173337308
 20
4.9135830993
 11
4.2741937308
 21
4.9111864326
  0
LINE
  5
419
100
AcDbEntity
  8
03__ASM_ALL_CURVES
100
AcDbLine
 62
40
  6
CONTINUOUS
 10
6.6935709184
 20
4.2566046827
 11
6.6895265434
 21
4.2619971826
  0
LINE
  5
41A
100
AcDbEntity
  8
03__ASM_ALL_CURVES
100
AcDbLine
 62
40
  6
CONTINUOUS
 10
6.6733490434
 20
4.2835671832
 11
6.6753712309
 21
4.280870932
  0
LINE
  5
41B
100
AcDbEntity
  8
03__ASM_ALL_CURVES
100
AcDbLine
 62
40
  6
CONTINUOUS
 10
6.7097484184
 20
4.2368321832
 11
6.7137927934
 21
4.2314396826
  0
LINE
  5
41C
100
AcDbEntity
  8
03__ASM_ALL_CURVES
100
AcDbLine
 62
40
  6
CONTINUOUS
 10
6.7057040434
 20
4.2835671832
 11
6.7097484184
 21
4.2781746826
  0
LINE
  5
41D
100
AcDbEntity
  8
03__ASM_ALL_CURVES
100
AcDbLine
 62
40
  6
CONTINUOUS
 10
6.7380590434
 20
4.2835671832
 11
6.7400812309
 21
4.280870932
  0
LINE
  5
41E
100
AcDbEntity
  8
03__ASM_ALL_CURVES
100
AcDbLine
 62
40
  6
CONTINUOUS
 10
6.8270352934
 20
4.2098696827
 11
6.8229909184
 21
4.2152621826
  0
LINE
  5
41F
100
AcDbEntity
  8
03__ASM_ALL_CURVES
100
AcDbLine
 62
40
  6
CONTINUOUS
 10
6.8068134184
 20
4.2368321832
 11
6.8088356059
 21
4.234135932
  0
LINE
  5
420
100
AcDbEntity
  8
03__ASM_ALL_CURVES
100
AcDbLine
 62
40
  6
CONTINUOUS
 10
6.6591937309
 20
4.2539084326
 11
6.6591937309
 21
4.2862634326
  0
LINE
  5
421
100
AcDbEntity
  8
03__ASM_ALL_CURVES
100
AcDbLine
 62
40
  6
CONTINUOUS
 10
6.6753712309
 20
4.280870932
 11
6.6753712309
 21
4.2754784332
  0
LINE
  5
422
100
AcDbEntity
  8
03__ASM_ALL_CURVES
100
AcDbLine
 62
40
  6
CONTINUOUS
 10
6.6591937309
 20
4.2233509326
 11
6.6612159184
 21
4.2314396826
  0
LINE
  5
423
100
AcDbEntity
  8
03__ASM_ALL_CURVES
100
AcDbLine
 62
40
  6
CONTINUOUS
 10
6.6875043559
 20
4.2700859326
 11
6.6895265434
 21
4.2781746826
  0
LINE
  5
424
100
AcDbEntity
  8
03__ASM_ALL_CURVES
100
AcDbLine
 62
40
  6
CONTINUOUS
 10
6.6915487309
 20
4.2233509326
 11
6.6935709184
 21
4.2314396826
  0
LINE
  5
425
100
AcDbEntity
  8
03__ASM_ALL_CURVES
100
AcDbLine
 62
40
  6
CONTINUOUS
 10
6.7117706059
 20
4.2700859326
 11
6.7097484184
 21
4.2619971826
  0
LINE
  5
426
100
AcDbEntity
  8
03__ASM_ALL_CURVES
100
AcDbLine
 62
40
  6
CONTINUOUS
 10
6.7158149809
 20
4.2233509326
 11
6.7137927934
 21
4.2152621826
  0
LINE
  5
427
100
AcDbEntity
  8
03__ASM_ALL_CURVES
100
AcDbLine
 62
40
  6
CONTINUOUS
 10
6.8088356059
 20
4.2287434332
 11
6.8068134184
 21
4.226047182
  0
LINE
  5
428
100
AcDbEntity
  8
03__ASM_ALL_CURVES
100
AcDbLine
 62
40
  6
CONTINUOUS
 10
6.8229909184
 20
4.2314396826
 11
6.8270352934
 21
4.2368321832
  0
LINE
  5
429
100
AcDbEntity
  8
03__ASM_ALL_CURVES
100
AcDbLine
 62
40
  6
CONTINUOUS
 10
6.8432127934
 20
4.2152621826
 11
6.8391684184
 21
4.2098696827
  0
LINE
  5
42A
100
AcDbEntity
  8
03__ASM_ALL_CURVES
100
AcDbLine
 62
40
  6
CONTINUOUS
 10
4.2741937308
 20
4.9111864326
 11
4.3173337308
 21
4.9183764326
  0
LINE
  5
42B
100
AcDbEntity
  8
03__ASM_ALL_CURVES
100
AcDbLine
 62
40
  6
CONTINUOUS
 10
4.3173337308
 20
4.9171780993
 11
4.2741937308
 21
4.9111864326
  0
LINE
  5
42C
100
AcDbEntity
  8
03__ASM_ALL_CURVES
100
AcDbLine
 62
40
  6
CONTINUOUS
 10
6.8391684184
 20
4.2368321832
 11
6.8432127934
 21
4.2314396826
  0
LINE
  5
42D
100
AcDbEntity
  8
03__ASM_ALL_CURVES
100
AcDbLine
 62
40
  6
CONTINUOUS
 10
6.9665662309
 20
4.2368321832
 11
6.9706106059
 21
4.2314396826
  0
LINE
  5
42E
100
AcDbEntity
  8
03__ASM_ALL_CURVES
100
AcDbLine
 62
40
  6
CONTINUOUS
 10
6.7279481059
 20
4.2395284326
 11
6.7441256059
 21
4.2071734326
  0
LINE
  5
42F
100
AcDbEntity
  8
03__ASM_ALL_CURVES
100
AcDbLine
 62
40
  6
CONTINUOUS
 10
6.7340146684
 20
4.2700859326
 11
6.7400812309
 21
4.2539084326
  0
LINE
  5
430
100
AcDbEntity
  8
03__ASM_ALL_CURVES
100
AcDbLine
 62
40
  6
CONTINUOUS
 10
6.6612159184
 20
4.2152621826
 11
6.6591937309
 21
4.2233509326
  0
LINE
  5
431
100
AcDbEntity
  8
03__ASM_ALL_CURVES
100
AcDbLine
 62
40
  6
CONTINUOUS
 10
6.6935709184
 20
4.2152621826
 11
6.6915487309
 21
4.2233509326
  0
LINE
  5
432
100
AcDbEntity
  8
03__ASM_ALL_CURVES
100
AcDbLine
 62
40
  6
CONTINUOUS
 10
6.6895265434
 20
4.2619971826
 11
6.6875043559
 21
4.2700859326
  0
LINE
  5
433
100
AcDbEntity
  8
03__ASM_ALL_CURVES
100
AcDbLine
 62
40
  6
CONTINUOUS
 10
6.7137927934
 20
4.2314396826
 11
6.7158149809
 21
4.2233509326
  0
LINE
  5
434
100
AcDbEntity
  8
03__ASM_ALL_CURVES
100
AcDbLine
 62
40
  6
CONTINUOUS
 10
6.7097484184
 20
4.2781746826
 11
6.7117706059
 21
4.2700859326
  0
LINE
  5
435
100
AcDbEntity
  8
03__ASM_ALL_CURVES
100
AcDbLine
 62
40
  6
CONTINUOUS
 10
6.7239037309
 20
4.2539084326
 11
6.7239037309
 21
4.2862634326
  0
LINE
  5
436
100
AcDbEntity
  8
03__ASM_ALL_CURVES
100
AcDbLine
 62
40
  6
CONTINUOUS
 10
6.7279481059
 20
4.2071734326
 11
6.7279481059
 21
4.2395284326
  0
LINE
  5
437
100
AcDbEntity
  8
03__ASM_ALL_CURVES
100
AcDbLine
 62
40
  6
CONTINUOUS
 10
6.7400812309
 20
4.280870932
 11
6.7400812309
 21
4.2754784332
  0
LINE
  5
438
100
AcDbEntity
  8
03__ASM_ALL_CURVES
100
AcDbLine
 62
40
  6
CONTINUOUS
 10
6.7441256059
 20
4.2071734326
 11
6.7441256059
 21
4.2395284326
  0
LINE
  5
439
100
AcDbEntity
  8
03__ASM_ALL_CURVES
100
AcDbLine
 62
40
  6
CONTINUOUS
 10
6.7643474809
 20
4.2862634326
 11
6.7643474809
 21
4.2539084326
  0
LINE
  5
43A
100
AcDbEntity
  8
03__ASM_ALL_CURVES
100
AcDbLine
 62
40
  6
CONTINUOUS
 10
6.7683918559
 20
4.2395284326
 11
6.7683918559
 21
4.2071734326
  0
LINE
  5
43B
100
AcDbEntity
  8
03__ASM_ALL_CURVES
100
AcDbLine
 62
40
  6
CONTINUOUS
 10
6.7926581059
 20
4.2071734326
 11
6.7926581059
 21
4.2395284326
  0
LINE
  5
43C
100
AcDbEntity
  8
03__ASM_ALL_CURVES
100
AcDbLine
 62
40
  6
CONTINUOUS
 10
6.7967024809
 20
4.2862634326
 11
6.7967024809
 21
4.2539084326
  0
LINE
  5
43D
100
AcDbEntity
  8
03__ASM_ALL_CURVES
100
AcDbLine
 62
40
  6
CONTINUOUS
 10
6.8088356059
 20
4.234135932
 11
6.8088356059
 21
4.2287434332
  0
LINE
  5
43E
100
AcDbEntity
  8
03__ASM_ALL_CURVES
100
AcDbLine
 62
40
  6
CONTINUOUS
 10
6.8209687309
 20
4.2233509326
 11
6.8229909184
 21
4.2314396826
  0
LINE
  5
43F
100
AcDbEntity
  8
03__ASM_ALL_CURVES
100
AcDbLine
 62
40
  6
CONTINUOUS
 10
6.9706106059
 20
4.2152621826
 11
6.9665662309
 21
4.2098696827
  0
LINE
  5
440
100
AcDbEntity
  8
03__ASM_ALL_CURVES
100
AcDbLine
 62
40
  6
CONTINUOUS
 10
7.0858752934
 20
4.2098696827
 11
7.0818309184
 21
4.2152621826
  0
LINE
  5
441
100
AcDbEntity
  8
03__ASM_ALL_CURVES
100
AcDbLine
 62
40
  6
CONTINUOUS
 10
7.0980084184
 20
4.2368321832
 11
7.1020527934
 21
4.2314396826
  0
LINE
  5
442
100
AcDbEntity
  8
03__ASM_ALL_CURVES
100
AcDbLine
 62
40
  6
CONTINUOUS
 10
6.8027690434
 20
4.2233509326
 11
6.8088356059
 21
4.2071734326
  0
LINE
  5
443
100
AcDbEntity
  8
03__ASM_ALL_CURVES
100
AcDbLine
 62
40
  6
CONTINUOUS
 10
6.8229909184
 20
4.2152621826
 11
6.8209687309
 21
4.2233509326
  0
LINE
  5
444
100
AcDbEntity
  8
03__ASM_ALL_CURVES
100
AcDbLine
 62
40
  6
CONTINUOUS
 10
6.8432127934
 20
4.2314396826
 11
6.8452349809
 21
4.2233509326
  0
LINE
  5
445
100
AcDbEntity
  8
03__ASM_ALL_CURVES
100
AcDbLine
 62
40
  6
CONTINUOUS
 10
6.8573681059
 20
4.2395284326
 11
6.8573681059
 21
4.2071734326
  0
LINE
  5
446
100
AcDbEntity
  8
03__ASM_ALL_CURVES
100
AcDbLine
 62
40
  6
CONTINUOUS
 10
6.8897231059
 20
4.2395284326
 11
6.8897231059
 21
4.2071734326
  0
LINE
  5
447
100
AcDbEntity
  8
03__ASM_ALL_CURVES
100
AcDbLine
 62
40
  6
CONTINUOUS
 10
6.9220781059
 20
4.2071734326
 11
6.9220781059
 21
4.2395284326
  0
LINE
  5
448
100
AcDbEntity
  8
03__ASM_ALL_CURVES
100
AcDbLine
 62
40
  6
CONTINUOUS
 10
6.8452349809
 20
4.2233509326
 11
6.8432127934
 21
4.2152621826
  0
LINE
  5
449
100
AcDbEntity
  8
03__ASM_ALL_CURVES
100
AcDbLine
 62
40
  6
CONTINUOUS
 10
7.0818309184
 20
4.2314396826
 11
7.0858752934
 21
4.2368321832
  0
LINE
  5
44A
100
AcDbEntity
  8
03__ASM_ALL_CURVES
100
AcDbLine
 62
40
  6
CONTINUOUS
 10
7.1020527934
 20
4.2152621826
 11
7.0980084184
 21
4.2098696827
  0
LINE
  5
44B
100
AcDbEntity
  8
03__ASM_ALL_CURVES
100
AcDbLine
 62
40
  6
CONTINUOUS
 10
6.9706106059
 20
4.2314396826
 11
6.9726327934
 21
4.2233509326
  0
LINE
  5
44C
100
AcDbEntity
  8
03__ASM_ALL_CURVES
100
AcDbLine
 62
40
  6
CONTINUOUS
 10
6.9544331059
 20
4.2071734326
 11
6.9544331059
 21
4.2395284326
  0
LINE
  5
44D
100
AcDbEntity
  8
03__ASM_ALL_CURVES
100
AcDbLine
 62
40
  6
CONTINUOUS
 10
7.0191431059
 20
4.2071734326
 11
7.0191431059
 21
4.2395284326
  0
LINE
  5
44E
100
AcDbEntity
  8
03__ASM_ALL_CURVES
100
AcDbLine
 62
40
  6
CONTINUOUS
 10
6.9726327934
 20
4.2233509326
 11
6.9706106059
 21
4.2152621826
  0
LINE
  5
44F
100
AcDbEntity
  8
03__ASM_ALL_CURVES
100
AcDbLine
 62
40
  6
CONTINUOUS
 10
7.0818309184
 20
4.2152621826
 11
7.0798087309
 21
4.2233509326
  0
LINE
  5
450
100
AcDbEntity
  8
03__ASM_ALL_CURVES
100
AcDbLine
 62
40
  6
CONTINUOUS
 10
7.0514981059
 20
4.2395284326
 11
7.0514981059
 21
4.2071734326
  0
LINE
  5
451
100
AcDbEntity
  8
03__ASM_ALL_CURVES
100
AcDbLine
 62
40
  6
CONTINUOUS
 10
7.1182302934
 20
4.2071734326
 11
7.1242968559
 21
4.2395284326
  0
LINE
  5
452
100
AcDbEntity
  8
03__ASM_ALL_CURVES
100
AcDbLine
 62
40
  6
CONTINUOUS
 10
7.1303634184
 20
4.2071734326
 11
7.1364299809
 21
4.2395284326
  0
LINE
  5
453
100
AcDbEntity
  8
03__ASM_ALL_CURVES
100
AcDbLine
 62
40
  6
CONTINUOUS
 10
7.0798087309
 20
4.2233509326
 11
7.0818309184
 21
4.2314396826
  0
LINE
  5
454
100
AcDbEntity
  8
03__ASM_ALL_CURVES
100
AcDbLine
 62
40
  6
CONTINUOUS
 10
7.1040749809
 20
4.2233509326
 11
7.1020527934
 21
4.2152621826
  0
LINE
  5
455
100
AcDbEntity
  8
03__ASM_ALL_CURVES
100
AcDbLine
 62
40
  6
CONTINUOUS
 10
7.2132731059
 20
4.2395284326
 11
7.2294506059
 21
4.2071734326
  0
LINE
  5
456
100
AcDbEntity
  8
03__ASM_ALL_CURVES
100
AcDbLine
 62
40
  6
CONTINUOUS
 10
7.1020527934
 20
4.2314396826
 11
7.1040749809
 21
4.2233509326
  0
LINE
  5
457
100
AcDbEntity
  8
03__ASM_ALL_CURVES
100
AcDbLine
 62
40
  6
CONTINUOUS
 10
7.1121637309
 20
4.2395284326
 11
7.1182302934
 21
4.2071734326
  0
LINE
  5
458
100
AcDbEntity
  8
03__ASM_ALL_CURVES
100
AcDbLine
 62
40
  6
CONTINUOUS
 10
7.1242968559
 20
4.2395284326
 11
7.1303634184
 21
4.2071734326
  0
LINE
  5
459
100
AcDbEntity
  8
03__ASM_ALL_CURVES
100
AcDbLine
 62
40
  6
CONTINUOUS
 10
7.1890068559
 20
4.2395284326
 11
7.1890068559
 21
4.2071734326
  0
LINE
  5
45A
100
AcDbEntity
  8
03__ASM_ALL_CURVES
100
AcDbLine
 62
40
  6
CONTINUOUS
 10
7.2132731059
 20
4.2071734326
 11
7.2132731059
 21
4.2395284326
  0
LINE
  5
45B
100
AcDbEntity
  8
03__ASM_ALL_CURVES
100
AcDbLine
 62
40
  6
CONTINUOUS
 10
7.2294506059
 20
4.2071734326
 11
7.2294506059
 21
4.2395284326
  0
LINE
  5
45C
100
AcDbEntity
  8
03__ASM_ALL_CURVES
100
AcDbLine
 62
40
  6
CONTINUOUS
 10
7.2456281059
 20
4.2395284326
 11
7.2456281059
 21
4.2071734326
  0
LINE
  5
45D
100
AcDbEntity
  8
03__ASM_ALL_CURVES
100
AcDbLine
 62
40
  6
CONTINUOUS
 10
7.2779831059
 20
4.2071734326
 11
7.2779831059
 21
4.2395284326
  0
LINE
  5
45E
100
AcDbEntity
  8
03__ASM_ALL_CURVES
100
AcDbLine
 62
40
  6
CONTINUOUS
 10
7.3184268559
 20
4.2395284326
 11
7.3184268559
 21
4.2071734326
  0
CIRCLE
  5
45F
100
AcDbEntity
  8
0
100
AcDbCircle
 62
7
  6
CONTINUOUS
 10
6.0431937308
 20
4.2467184326
 40
0.0545
  0
ARC
  5
460
100
AcDbEntity
  8
0
100
AcDbCircle
 62
7
  6
CONTINUOUS
 10
5.2036881773
 20
3.8832184326
 40
0.013
100
AcDbArc
 50
29.999999997
 51
90.0
  0
ARC
  5
461
100
AcDbEntity
  8
0
100
AcDbCircle
 62
7
  6
CONTINUOUS
 10
5.2036881773
 20
4.6102184326
 40
0.013
100
AcDbArc
 50
270.0
 51
330.0000000004
  0
ARC
  5
462
100
AcDbEntity
  8
0
100
AcDbCircle
 62
7
  6
CONTINUOUS
 10
5.0291937308
 20
3.8253316812
 40
0.005
100
AcDbArc
 50
120.0000000123
 51
179.9999999997
  0
ARC
  5
463
100
AcDbEntity
  8
0
100
AcDbCircle
 62
7
  6
CONTINUOUS
 10
5.0291937308
 20
4.6681051839
 40
0.005
100
AcDbArc
 50
180.0000000002
 51
239.9999999914
  0
ARC
  5
464
100
AcDbEntity
  8
0
100
AcDbCircle
 62
7
  6
CONTINUOUS
 10
5.0489161626
 20
3.8367184326
 40
0.005
100
AcDbArc
 50
90.0
 51
120.0000000158
  0
ARC
  5
465
100
AcDbEntity
  8
0
100
AcDbCircle
 62
7
  6
CONTINUOUS
 10
5.0489161626
 20
4.6567184326
 40
0.005
100
AcDbArc
 50
239.9999999852
 51
270.0
  0
ARC
  5
466
100
AcDbEntity
  8
0
100
AcDbCircle
 62
7
  6
CONTINUOUS
 10
5.0211937308
 20
3.8222184326
 40
0.003
100
AcDbArc
 50
270.0
 51
360.0
  0
ARC
  5
467
100
AcDbEntity
  8
0
100
AcDbCircle
 62
7
  6
CONTINUOUS
 10
5.0211937308
 20
4.6712184326
 40
0.003
100
AcDbArc
 50
0.0
 51
90.0
  0
ARC
  5
468
100
AcDbEntity
  8
0
100
AcDbCircle
 62
7
  6
CONTINUOUS
 10
4.9611937308
 20
4.6662184326
 40
0.002
100
AcDbArc
 50
222.3553148142
 51
317.6446851858
  0
ARC
  5
469
100
AcDbEntity
  8
0
100
AcDbCircle
 62
7
  6
CONTINUOUS
 10
4.9611937308
 20
3.8272184326
 40
0.002
100
AcDbArc
 50
42.3553148142
 51
137.6446851858
  0
SPLINE
  5
46A
100
AcDbEntity
  8
0
100
AcDbSpline
 62
7
  6
CONTINUOUS
 70
0
 71
3
 72
15
 73
11
 74
9
 42
0.0000001
 43
0.0000001
 44
0.0000000001
 12
0.0
 22
0.1099409465
 32
0.0
 13
0.0
 23
-0.1099409465
 33
0.0
 40
0.0
 40
0.0
 40
0.0
 40
0.0
 40
0.125
 40
0.25
 40
0.375
 40
0.5
 40
0.625
 40
0.75
 40
0.875
 40
1.0
 40
1.0
 40
1.0
 40
1.0
 10
6.3071937308
 20
4.5697184326
 30
0.0
 10
6.3071937308
 20
4.5742993054
 30
0.0
 10
6.3053713463
 20
4.5834610509
 30
0.0
 10
6.2975867783
 20
4.5951114802
 30
0.0
 10
6.2859363491
 20
4.6028960481
 30
0.0
 10
6.2721937308
 20
4.6056296248
 30
0.0
 10
6.2584511125
 20
4.6028960481
 30
0.0
 10
6.2468006832
 20
4.5951114802
 30
0.0
 10
6.2390161153
 20
4.5834610509
 30
0.0
 10
6.2371937308
 20
4.5742993054
 30
0.0
 10
6.2371937308
 20
4.5697184326
 30
0.0
 11
6.3071937308
 21
4.5697184326
 31
0.0
 11
6.3045295144
 21
4.5831123527
 31
0.0
 11
6.2969424681
 21
4.5944671699
 31
0.0
 11
6.2855876509
 21
4.6020542162
 31
0.0
 11
6.2721937308
 21
4.6047184326
 31
0.0
 11
6.2587998106
 21
4.6020542162
 31
0.0
 11
6.2474449934
 21
4.5944671699
 31
0.0
 11
6.2398579471
 21
4.5831123527
 31
0.0
 11
6.2371937308
 21
4.5697184326
 31
0.0
  0
SPLINE
  5
46B
100
AcDbEntity
  8
0
100
AcDbSpline
 62
7
  6
CONTINUOUS
 70
0
 71
3
 72
15
 73
11
 74
9
 42
0.0000001
 43
0.0000001
 44
0.0000000001
 12
0.0
 22
-0.1099409465
 32
0.0
 13
0.0
 23
0.1099409465
 33
0.0
 40
0.0
 40
0.0
 40
0.0
 40
0.0
 40
0.125
 40
0.25
 40
0.375
 40
0.5
 40
0.625
 40
0.75
 40
0.875
 40
1.0
 40
1.0
 40
1.0
 40
1.0
 10
6.3071937308
 20
3.9237184326
 30
0.0
 10
6.3071937308
 20
3.9191375598
 30
0.0
 10
6.3053713463
 20
3.9099758143
 30
0.0
 10
6.2975867783
 20
3.898325385
 30
0.0
 10
6.2859363491
 20
3.8905408171
 30
0.0
 10
6.2721937308
 20
3.8878072403
 30
0.0
 10
6.2584511125
 20
3.8905408171
 30
0.0
 10
6.2468006832
 20
3.898325385
 30
0.0
 10
6.2390161153
 20
3.9099758143
 30
0.0
 10
6.2371937308
 20
3.9191375598
 30
0.0
 10
6.2371937308
 20
3.9237184326
 30
0.0
 11
6.3071937308
 21
3.9237184326
 31
0.0
 11
6.3045295144
 21
3.9103245125
 31
0.0
 11
6.2969424681
 21
3.8989696953
 31
0.0
 11
6.2855876509
 21
3.891382649
 31
0.0
 11
6.2721937308
 21
3.8887184326
 31
0.0
 11
6.2587998106
 21
3.891382649
 31
0.0
 11
6.2474449934
 21
3.8989696953
 31
0.0
 11
6.2398579471
 21
3.9103245125
 31
0.0
 11
6.2371937308
 21
3.9237184326
 31
0.0
  0
SPLINE
  5
46C
100
AcDbEntity
  8
0
100
AcDbSpline
 62
7
  6
CONTINUOUS
 70
0
 71
3
 72
15
 73
11
 74
9
 42
0.0000001
 43
0.0000001
 44
0.0000000001
 12
0.0
 22
0.1099409465
 32
0.0
 13
0.0
 23
-0.1099409465
 33
0.0
 40
0.0
 40
0.0
 40
0.0
 40
0.0
 40
0.125
 40
0.25
 40
0.375
 40
0.5
 40
0.625
 40
0.75
 40
0.875
 40
1.0
 40
1.0
 40
1.0
 40
1.0
 10
5.1411937308
 20
4.6322184326
 30
0.0
 10
5.1411937308
 20
4.6367993054
 30
0.0
 10
5.1393713463
 20
4.6459610509
 30
0.0
 10
5.1315867783
 20
4.6576114802
 30
0.0
 10
5.1199363491
 20
4.6653960481
 30
0.0
 10
5.1061937308
 20
4.6681296248
 30
0.0
 10
5.0924511125
 20
4.6653960481
 30
0.0
 10
5.0808006832
 20
4.6576114802
 30
0.0
 10
5.0730161153
 20
4.6459610509
 30
0.0
 10
5.0711937308
 20
4.6367993054
 30
0.0
 10
5.0711937308
 20
4.6322184326
 30
0.0
 11
5.1411937308
 21
4.6322184326
 31
0.0
 11
5.1385295144
 21
4.6456123527
 31
0.0
 11
5.1309424681
 21
4.6569671699
 31
0.0
 11
5.1195876509
 21
4.6645542162
 31
0.0
 11
5.1061937308
 21
4.6672184326
 31
0.0
 11
5.0927998106
 21
4.6645542162
 31
0.0
 11
5.0814449934
 21
4.6569671699
 31
0.0
 11
5.0738579471
 21
4.6456123527
 31
0.0
 11
5.0711937308
 21
4.6322184326
 31
0.0
  0
SPLINE
  5
46D
100
AcDbEntity
  8
0
100
AcDbSpline
 62
7
  6
CONTINUOUS
 70
0
 71
3
 72
15
 73
11
 74
9
 42
0.0000001
 43
0.0000001
 44
0.0000000001
 12
0.0
 22
-0.1099409465
 32
0.0
 13
0.0
 23
0.1099409465
 33
0.0
 40
0.0
 40
0.0
 40
0.0
 40
0.0
 40
0.125
 40
0.25
 40
0.375
 40
0.5
 40
0.625
 40
0.75
 40
0.875
 40
1.0
 40
1.0
 40
1.0
 40
1.0
 10
5.1411937308
 20
3.8612184326
 30
0.0
 10
5.1411937308
 20
3.8566375598
 30
0.0
 10
5.1393713463
 20
3.8474758143
 30
0.0
 10
5.1315867783
 20
3.835825385
 30
0.0
 10
5.1199363491
 20
3.8280408171
 30
0.0
 10
5.1061937308
 20
3.8253072403
 30
0.0
 10
5.0924511125
 20
3.8280408171
 30
0.0
 10
5.0808006832
 20
3.835825385
 30
0.0
 10
5.0730161153
 20
3.8474758143
 30
0.0
 10
5.0711937308
 20
3.8566375598
 30
0.0
 10
5.0711937308
 20
3.8612184326
 30
0.0
 11
5.1411937308
 21
3.8612184326
 31
0.0
 11
5.1385295144
 21
3.8478245125
 31
0.0
 11
5.1309424681
 21
3.8364696953
 31
0.0
 11
5.1195876509
 21
3.828882649
 31
0.0
 11
5.1061937308
 21
3.8262184326
 31
0.0
 11
5.0927998106
 21
3.828882649
 31
0.0
 11
5.0814449934
 21
3.8364696953
 31
0.0
 11
5.0738579471
 21
3.8478245125
 31
0.0
 11
5.0711937308
 21
3.8612184326
 31
0.0
  0
SPLINE
  5
46E
100
AcDbEntity
  8
0
100
AcDbSpline
 62
7
  6
CONTINUOUS
 70
0
 71
3
 72
12
 73
8
 74
6
 42
0.0000001
 43
0.0000001
 44
0.0000000001
 12
0.0472759459
 22
0.0
 32
0.0
 13
0.0310780989
 23
0.0357334099
 33
0.0
 40
0.0
 40
0.0
 40
0.0
 40
0.0
 40
0.236370937
 40
0.4762356035
 40
0.7201867425
 40
0.9645341135
 40
1.0
 40
1.0
 40
1.0
 40
1.0
 10
6.0091937308
 20
4.2810886542
 30
0.0
 10
6.0129186173
 20
4.2810886542
 30
0.0
 10
6.0204471094
 20
4.2818915971
 30
0.0
 10
6.0313040264
 20
4.2854596602
 30
0.0
 10
6.0413104073
 20
4.2912396802
 30
0.0
 10
6.04752895
 20
4.2967502474
 30
0.0
 10
6.0504766745
 20
4.3000405004
 30
0.0
 10
6.0508440786
 20
4.3004629394
 30
0.0
 11
6.0091937308
 21
4.2810886542
 31
0.0
 11
6.0203058622
 21
4.2822691429
 31
0.0
 11
6.0310838798
 21
4.2857942043
 31
0.0
 11
6.0410771552
 21
4.2915513753
 31
0.0
 11
6.0497234203
 21
4.2992119953
 31
0.0
 11
6.0508440786
 21
4.3004629394
 31
0.0
  0
SPLINE
  5
46F
100
AcDbEntity
  8
0
100
AcDbSpline
 62
7
  6
CONTINUOUS
 70
0
 71
3
 72
8
 73
4
 74
2
 42
0.0000001
 43
0.0000001
 44
0.0000000001
 12
-0.0073447002
 22
0.0
 32
0.0
 13
-0.0072918674
 23
0.0010201162
 33
0.0
 40
0.0
 40
0.0
 40
0.0
 40
0.0
 40
1.0
 40
1.0
 40
1.0
 40
1.0
 10
6.0091937308
 20
4.2810886542
 30
0.0
 10
6.0067454974
 20
4.2810886542
 30
0.0
 10
6.0042921905
 20
4.2812608158
 30
0.0
 10
6.001861568
 20
4.2816008545
 30
0.0
 11
6.0091937308
 21
4.2810886542
 31
0.0
 11
6.001861568
 21
4.2816008545
 31
0.0
  0
SPLINE
  5
470
100
AcDbEntity
  8
0
100
AcDbSpline
 62
7
  6
CONTINUOUS
 70
0
 71
3
 72
8
 73
4
 74
2
 42
0.0000001
 43
0.0000001
 44
0.0000000001
 12
0.0072865264
 22
0.0010186036
 32
0.0
 13
0.007339218
 23
0.0
 33
0.0
 40
0.0
 40
0.0
 40
0.0
 40
0.0
 40
1.0
 40
1.0
 40
1.0
 40
1.0
 10
6.0018670107
 20
4.2118367717
 30
0.0
 10
6.0042958528
 20
4.2121763063
 30
0.0
 10
6.0067473248
 20
4.212348211
 30
0.0
 10
6.0091937308
 20
4.212348211
 30
0.0
 11
6.0018670107
 21
4.2118367717
 31
0.0
 11
6.0091937308
 21
4.212348211
 31
0.0
  0
SPLINE
  5
471
100
AcDbEntity
  8
0
100
AcDbSpline
 62
7
  6
CONTINUOUS
 70
0
 71
3
 72
12
 73
8
 74
6
 42
0.0000001
 43
0.0000001
 44
0.0000000001
 12
-0.0310764153
 22
0.0356634086
 32
0.0
 13
-0.0472221326
 23
0.0
 33
0.0
 40
0.0
 40
0.0
 40
0.0
 40
0.0
 40
0.0343703567
 40
0.2789963805
 40
0.5232253806
 40
0.7633618566
 40
1.0
 40
1.0
 40
1.0
 40
1.0
 10
6.0508086834
 20
4.1930145842
 30
0.0
 10
6.0504526476
 20
4.1934231722
 30
0.0
 10
6.0475153521
 20
4.196698678
 30
0.0
 10
6.0413102632
 20
4.2021972891
 30
0.0
 10
6.0313038843
 20
4.2079772659
 30
0.0
 10
6.0204470167
 20
4.2115452818
 30
0.0
 10
6.0129185834
 20
4.212348211
 30
0.0
 10
6.0091937308
 20
4.212348211
 30
0.0
 11
6.0508086834
 21
4.1930145842
 31
0.0
 11
6.0497233034
 21
4.1942249966
 31
0.0
 11
6.0410770076
 21
4.2018855962
 31
0.0
 11
6.0310837197
 21
4.2076427323
 31
0.0
 11
6.020305762
 21
4.2111677437
 31
0.0
 11
6.0091937308
 21
4.212348211
 31
0.0
  0
SPLINE
  5
472
100
AcDbEntity
  8
0
100
AcDbSpline
 62
7
  6
CONTINUOUS
 70
0
 71
3
 72
8
 73
4
 74
2
 42
0.0000001
 43
0.0000001
 44
0.0000000001
 12
-0.008603229
 22
-0.0013122306
 32
0.0
 13
-0.0086589272
 23
-0.0008737802
 33
0.0
 40
0.0
 40
0.0
 40
0.0
 40
0.0
 40
1.0
 40
1.0
 40
1.0
 40
1.0
 10
6.0343733302
 20
4.41178741
 30
0.0
 10
6.0315055872
 20
4.4113499998
 30
0.0
 10
6.0286268948
 20
4.4109839233
 30
0.0
 10
6.0257405857
 20
4.4106926632
 30
0.0
 11
6.0343733302
 21
4.41178741
 31
0.0
 11
6.0257405857
 21
4.4106926632
 31
0.0
  0
SPLINE
  5
473
100
AcDbEntity
  8
0
100
AcDbSpline
 62
7
  6
CONTINUOUS
 70
0
 71
3
 72
8
 73
4
 74
2
 42
0.0000001
 43
0.0000001
 44
0.0000000001
 12
0.008601253
 22
-0.0008711783
 32
0.0
 13
0.0085462167
 23
-0.0013037585
 33
0.0
 40
0.0
 40
0.0
 40
0.0
 40
0.0
 40
1.0
 40
1.0
 40
1.0
 40
1.0
 10
6.0258023814
 20
4.0827379546
 30
0.0
 10
6.0286694657
 20
4.0824475618
 30
0.0
 10
6.0315290118
 20
4.0820833675
 30
0.0
 10
6.0343777507
 20
4.0816487813
 30
0.0
 11
6.0258023814
 21
4.0827379546
 31
0.0
 11
6.0343777507
 21
4.0816487813
 31
0.0
  0
SPLINE
  5
474
100
AcDbEntity
  8
0
100
AcDbSpline
 62
7
  6
CONTINUOUS
 70
0
 71
3
 72
22
 73
18
 74
16
 42
0.0000001
 43
0.0000001
 44
0.0000000001
 12
-0.1076692399
 22
0.0209570676
 32
0.0
 13
-0.1076692399
 23
-0.0209570677
 33
0.0
 40
0.0
 40
0.0
 40
0.0
 40
0.0
 40
0.0110239199
 40
0.0436132871
 40
0.0961991836
 40
0.166104814
 40
0.250686317
 40
0.3457136937
 40
0.4479316218
 40
0.5519080592
 40
0.6541097126
 40
0.7491061308
 40
0.8337162803
 40
0.9036568436
 40
0.9563177198
 40
0.9889510235
 40
1.0
 40
1.0
 40
1.0
 40
1.0
 10
6.0516937308
 20
3.9667184326
 30
0.0
 10
6.0512980851
 20
3.9667954423
 30
0.0
 10
6.0497322142
 20
3.9670970357
 30
0.0
 10
6.0462731641
 20
3.9677352878
 30
0.0
 10
6.0406814348
 20
3.9686779042
 30
0.0
 10
6.0331880088
 20
3.969766889
 30
0.0
 10
6.0241236148
 20
3.9708140971
 30
0.0
 10
6.013849812
 20
3.9716395112
 30
0.0
 10
6.0028424393
 20
3.9720931928
 30
0.0
 10
5.9915632045
 20
3.9720935544
 30
0.0
 10
5.9805575283
 20
3.9716406817
 30
0.0
 10
5.9702843425
 20
3.9708160966
 30
0.0
 10
5.9612186843
 20
3.9697694236
 30
0.0
 10
5.9537201775
 20
3.9686801635
 30
0.0
 10
5.9481228631
 20
3.9677368296
 30
0.0
 10
5.944658625
 20
3.9670976809
 30
0.0
 10
5.9430902757
 20
3.9667956173
 30
0.0
 10
5.9426937308
 20
3.9667184326
 30
0.0
 11
6.0516937308
 21
3.9667184326
 31
0.0
 11
6.0505063404
 21
3.9669471254
 31
0.0
 11
6.0469909396
 21
3.9675956782
 31
0.0
 11
6.0413029838
 21
3.9685541355
 31
0.0
 11
6.0337146371
 21
3.9696561172
 31
0.0
 11
6.0244980675
 21
3.9707197427
 31
0.0
 11
6.0141079047
 21
3.9715533198
 31
0.0
 11
6.0029051062
 21
3.972014283
 31
0.0
 11
5.9914999373
 21
3.972014648
 31
0.0
 11
5.9802988917
 21
3.9715545077
 31
0.0
 11
5.9699120512
 21
3.9707219833
 31
0.0
 11
5.9606922812
 21
3.9696586812
 31
0.0
 11
5.9531000758
 21
3.9685566085
 31
0.0
 11
5.9474039723
 21
3.9675970073
 31
0.0
 11
5.943883821
 21
3.9669476398
 31
0.0
 11
5.9426937308
 21
3.9667184326
 31
0.0
  0
SPLINE
  5
475
100
AcDbEntity
  8
0
100
AcDbSpline
 62
7
  6
CONTINUOUS
 70
0
 71
3
 72
14
 73
10
 74
8
 42
0.0000001
 43
0.0000001
 44
0.0000000001
 12
0.0756798019
 22
0.0
 32
0.0
 13
-0.0000430495
 23
-0.0759682038
 33
0.0
 40
0.0
 40
0.0
 40
0.0
 40
0.0
 40
0.1597729903
 40
0.3181046221
 40
0.4725773686
 40
0.620046114
 40
0.7574371822
 40
0.8834860469
 40
1.0
 40
1.0
 40
1.0
 40
1.0
 10
6.0431937308
 20
4.0910525725
 30
0.0
 10
6.0472242602
 20
4.0910525725
 30
0.0
 10
6.0552696207
 20
4.0902947355
 30
0.0
 10
6.0667833902
 20
4.0869487197
 30
0.0
 10
6.0771796262
 20
4.0816133857
 30
0.0
 10
6.0859085784
 20
4.0746589825
 30
0.0
 10
6.0925180974
 20
4.0665599082
 30
0.0
 10
6.0966814483
 20
4.0578079607
 30
0.0
 10
6.0976953979
 20
4.0516790531
 30
0.0
 10
6.097693726
 20
4.0487286012
 30
0.0
 11
6.0431937308
 21
4.0910525725
 31
0.0
 11
6.0552316221
 21
4.089914294
 31
0.0
 11
6.0667350202
 21
4.0865598497
 31
0.0
 11
6.0771229938
 21
4.0811972925
 31
0.0
 11
6.085819962
 21
4.0742031955
 31
0.0
 11
6.0923331285
 21
4.0660981708
 31
0.0
 11
6.0963419973
 21
4.0574420614
 31
0.0
 11
6.097693726
 21
4.0487286012
 31
0.0
  0
SPLINE
  5
476
100
AcDbEntity
  8
0
100
AcDbSpline
 62
7
  6
CONTINUOUS
 70
0
 71
3
 72
14
 73
10
 74
8
 42
0.0000001
 43
0.0000001
 44
0.0000000001
 12
-0.0756798032
 22
0.0
 32
0.0
 13
0.0000430704
 23
-0.0759682061
 33
0.0
 40
0.0
 40
0.0
 40
0.0
 40
0.0
 40
0.1597772621
 40
0.3181139349
 40
0.4725875703
 40
0.6200555628
 40
0.7574449069
 40
0.8834906313
 40
1.0
 40
1.0
 40
1.0
 40
1.0
 10
6.0431937308
 20
4.0910525725
 30
0.0
 10
6.0391630935
 20
4.0910525725
 30
0.0
 10
6.0311174963
 20
4.0902946929
 30
0.0
 10
6.0196035006
 20
4.0869485097
 30
0.0
 10
6.0092072119
 20
4.0816129872
 30
0.0
 10
6.000478386
 20
4.0746584888
 30
0.0
 10
5.993869072
 20
4.0665594317
 30
0.0
 10
5.9897059403
 20
4.0578076472
 30
0.0
 10
5.988692063
 20
4.05167894
 30
0.0
 10
5.9886937357
 20
4.0487286041
 30
0.0
 11
6.0431937308
 21
4.0910525725
 31
0.0
 11
6.0311555202
 21
4.0899142331
 31
0.0
 11
6.0196517834
 21
4.0865595872
 31
0.0
 11
6.0092638166
 21
4.0811968698
 31
0.0
 11
6.0005669896
 21
4.0742026877
 31
0.0
 11
5.9940540206
 21
4.0660976713
 31
0.0
 11
5.9900453613
 21
4.0574417268
 31
0.0
 11
5.9886937357
 21
4.0487286041
 31
0.0
  0
SPLINE
  5
477
100
AcDbEntity
  8
0
100
AcDbSpline
 62
7
  6
CONTINUOUS
 70
0
 71
3
 72
14
 73
10
 74
8
 42
0.0000001
 43
0.0000001
 44
0.0000000001
 12
-0.0756798023
 22
0.0
 32
0.0
 13
0.000043056
 23
0.0759682047
 33
0.0
 40
0.0
 40
0.0
 40
0.0
 40
0.0
 40
0.1597743015
 40
0.3181079926
 40
0.472581656
 40
0.6200490672
 40
0.757439704
 40
0.8834875549
 40
1.0
 40
1.0
 40
1.0
 40
1.0
 10
6.0431937308
 20
4.4023842927
 30
0.0
 10
6.0391631683
 20
4.4023842927
 30
0.0
 10
6.0311177221
 20
4.403142144
 30
0.0
 10
6.0196038557
 20
4.4064882229
 30
0.0
 10
6.009207607
 20
4.4118236266
 30
0.0
 10
6.0004787081
 20
4.4187780602
 30
0.0
 10
5.99386927
 20
4.4268771098
 30
0.0
 10
5.9897059893
 20
4.4356290071
 30
0.0
 10
5.9886920634
 20
4.4417578494
 30
0.0
 10
5.9886937356
 20
4.4447082632
 30
0.0
 11
6.0431937308
 21
4.4023842927
 31
0.0
 11
6.0311557414
 21
4.4035225899
 31
0.0
 11
6.0196522032
 21
4.4068771105
 31
0.0
 11
6.0092641941
 21
4.4122397503
 31
0.0
 11
6.0005673401
 21
4.4192338284
 31
0.0
 11
5.994054231
 21
4.4273388575
 31
0.0
 11
5.9900454304
 21
4.4359949139
 31
0.0
 11
5.9886937356
 21
4.4447082632
 31
0.0
  0
SPLINE
  5
478
100
AcDbEntity
  8
0
100
AcDbSpline
 62
7
  6
CONTINUOUS
 70
0
 71
3
 72
10
 73
6
 74
4
 42
0.0000001
 43
0.0000001
 44
0.0000000001
 12
0.0260234977
 22
-0.0076795452
 32
0.0
 13
0.0271143987
 23
0.0
 33
0.0
 40
0.0
 40
0.0
 40
0.0
 40
0.0
 40
0.2216973518
 40
0.6051357742
 40
1.0
 40
1.0
 40
1.0
 40
1.0
 10
6.0163927708
 20
4.0847502077
 30
0.0
 10
6.0183158844
 20
4.0841826961
 30
0.0
 10
6.0236307086
 20
4.0828555905
 30
0.0
 10
6.0325853683
 20
4.0815119208
 30
0.0
 10
6.0396248954
 20
4.0811751289
 30
0.0
 10
6.0431937308
 20
4.0811751289
 30
0.0
 11
6.0163927708
 21
4.0847502077
 31
0.0
 11
6.0222241126
 21
4.0832792893
 31
0.0
 11
6.0325000663
 21
4.0816993548
 31
0.0
 11
6.0431937308
 21
4.0811751289
 31
0.0
  0
SPLINE
  5
479
100
AcDbEntity
  8
0
100
AcDbSpline
 62
7
  6
CONTINUOUS
 70
0
 71
3
 72
8
 73
4
 74
2
 42
0.0000001
 43
0.0000001
 44
0.0000000001
 12
-0.0017537457
 22
0.0005175371
 32
0.0
 13
-0.001766216
 23
0.0004734943
 33
0.0
 40
0.0
 40
0.0
 40
0.0
 40
0.0
 40
1.0
 40
1.0
 40
1.0
 40
1.0
 10
6.0699948775
 20
4.4086866012
 30
0.0
 10
6.0694102956
 20
4.4088591135
 30
0.0
 10
6.068823494
 20
4.4090241124
 30
0.0
 10
6.0682347553
 20
4.4091819438
 30
0.0
 11
6.0699948775
 21
4.4086866012
 31
0.0
 11
6.0682347553
 21
4.4091819438
 31
0.0
  0
SPLINE
  5
47A
100
AcDbEntity
  8
0
100
AcDbSpline
 62
7
  6
CONTINUOUS
 70
0
 71
3
 72
10
 73
6
 74
4
 42
0.0000001
 43
0.0000001
 44
0.0000000001
 12
-0.0244424847
 22
0.0065526391
 32
0.0
 13
-0.0252873361
 23
0.0
 33
0.0
 40
0.0
 40
0.0
 40
0.0
 40
0.0
 40
0.1656508199
 40
0.5767002775
 40
1.0
 40
1.0
 40
1.0
 40
1.0
 10
6.0682347553
 20
4.4091819438
 30
0.0
 10
6.0668851161
 20
4.4095437605
 30
0.0
 10
6.0621510145
 20
4.4106722641
 30
0.0
 10
6.0537997151
 20
4.4119250934
 30
0.0
 10
6.0467617716
 20
4.4122617363
 30
0.0
 10
6.0431937308
 20
4.4122617363
 30
0.0
 11
6.0682347553
 21
4.4091819438
 31
0.0
 11
6.0641587054
 21
4.4101585638
 31
0.0
 11
6.0538850202
 21
4.4117377466
 31
0.0
 11
6.0431937308
 21
4.4122617363
 31
0.0
  0
SPLINE
  5
47B
100
AcDbEntity
  8
0
100
AcDbSpline
 62
7
  6
CONTINUOUS
 70
0
 71
3
 72
14
 73
10
 74
8
 42
0.0000001
 43
0.0000001
 44
0.0000000001
 12
0.0000430751
 22
-0.0759682063
 32
0.0
 13
-0.0756798036
 23
-0.0
 33
0.0
 40
0.0
 40
0.0
 40
0.0
 40
0.0
 40
0.1165080946
 40
0.2425528083
 40
0.37994164
 40
0.5274080494
 40
0.68188275
 40
0.8402214174
 40
1.0
 40
1.0
 40
1.0
 40
1.0
 10
6.0976937258
 20
4.4447082604
 30
0.0
 10
6.0976953986
 20
4.4417579567
 30
0.0
 10
6.0966815421
 20
4.4356293085
 30
0.0
 10
6.0925184747
 20
4.426877573
 30
0.0
 10
6.0859092445
 20
4.4187785492
 30
0.0
 10
6.0771804755
 20
4.4118240237
 30
0.0
 10
6.0667841778
 20
4.4064884331
 30
0.0
 10
6.0552700827
 20
4.4031421865
 30
0.0
 10
6.0472244014
 20
4.4023842927
 30
0.0
 10
6.0431937308
 20
4.4023842927
 30
0.0
 11
6.0976937258
 21
4.4447082604
 31
0.0
 11
6.0963421289
 21
4.4359952315
 31
0.0
 11
6.0923335333
 21
4.4273393416
 31
0.0
 11
6.0858206229
 21
4.4192343278
 31
0.0
 11
6.0771239245
 21
4.4122401769
 31
0.0
 11
6.0667359124
 21
4.4068773715
 31
0.0
 11
6.05523204
 21
4.403522651
 31
0.0
 11
6.0431937308
 21
4.4023842927
 31
0.0
  0
SPLINE
  5
47C
100
AcDbEntity
  8
0
100
AcDbSpline
 62
7
  6
CONTINUOUS
 70
0
 71
3
 72
10
 73
6
 74
4
 42
0.0000001
 43
0.0000001
 44
0.0000000001
 12
-0.027114969
 22
0.0
 32
0.0
 13
-0.0260239363
 23
-0.0076799309
 33
0.0
 40
0.0
 40
0.0
 40
0.0
 40
0.0
 40
0.3945154177
 40
0.7776575092
 40
1.0
 40
1.0
 40
1.0
 40
1.0
 10
6.0431937308
 20
4.4122617363
 30
0.0
 10
6.039627973
 20
4.4122617363
 30
0.0
 10
6.0325941427
 20
4.4119255005
 30
0.0
 10
6.0236391495
 20
4.4105829893
 30
0.0
 10
6.018320991
 20
4.4092556912
 30
0.0
 10
6.0163922488
 20
4.4086864995
 30
0.0
 11
6.0431937308
 21
4.4122617363
 31
0.0
 11
6.0325092653
 21
4.411738425
 31
0.0
 11
6.0222408144
 21
4.4101611277
 31
0.0
 11
6.0163922488
 21
4.4086864995
 31
0.0
  0
SPLINE
  5
47D
100
AcDbEntity
  8
0
100
AcDbSpline
 62
7
  6
CONTINUOUS
 70
0
 71
3
 72
10
 73
6
 74
4
 42
0.0000001
 43
0.0000001
 44
0.0000000001
 12
0.0252873494
 22
0.0
 32
0.0
 13
0.0244424716
 23
0.0065526571
 33
0.0
 40
0.0
 40
0.0
 40
0.0
 40
0.0
 40
0.4231245577
 40
0.8340525284
 40
1.0
 40
1.0
 40
1.0
 40
1.0
 10
6.0431937308
 20
4.0811751289
 30
0.0
 10
6.046760297
 20
4.0811751289
 30
0.0
 10
6.0537957369
 20
4.0815115162
 30
0.0
 10
6.0621471038
 20
4.0827638429
 30
0.0
 10
6.066882704
 20
4.0838924569
 30
0.0
 10
6.0682347594
 20
4.0842549226
 30
0.0
 11
6.0431937308
 21
4.0811751289
 31
0.0
 11
6.0538806126
 21
4.0816986804
 31
0.0
 11
6.0641513675
 21
4.083276741
 31
0.0
 11
6.0682347594
 21
4.0842549226
 31
0.0
  0
SPLINE
  5
47E
100
AcDbEntity
  8
0
100
AcDbSpline
 62
7
  6
CONTINUOUS
 70
0
 71
3
 72
8
 73
4
 74
2
 42
0.0000001
 43
0.0000001
 44
0.0000000001
 12
0.0017663581
 22
0.0004735339
 32
0.0
 13
0.0017538863
 23
0.0005175838
 33
0.0
 40
0.0
 40
0.0
 40
0.0
 40
0.0
 40
1.0
 40
1.0
 40
1.0
 40
1.0
 10
6.0682347594
 20
4.0842549226
 30
0.0
 10
6.0688235455
 20
4.0844127672
 30
0.0
 10
6.0694103942
 20
4.0845777805
 30
0.0
 10
6.0699950229
 20
4.0847503084
 30
0.0
 11
6.0682347594
 21
4.0842549226
 31
0.0
 11
6.0699950229
 21
4.0847503084
 31
0.0
  0
SPLINE
  5
47F
100
AcDbEntity
  8
0
100
AcDbSpline
 62
7
  6
CONTINUOUS
 70
0
 71
3
 72
22
 73
18
 74
16
 42
0.0000001
 43
0.0000001
 44
0.0000000001
 12
0.1076692399
 22
-0.0209570676
 32
0.0
 13
0.1076692399
 23
0.0209570677
 33
0.0
 40
0.0
 40
0.0
 40
0.0
 40
0.0
 40
0.0110239199
 40
0.0436132871
 40
0.0961991836
 40
0.166104814
 40
0.250686317
 40
0.3457136937
 40
0.4479316218
 40
0.5519080592
 40
0.6541097126
 40
0.7491061308
 40
0.8337162803
 40
0.9036568436
 40
0.9563177198
 40
0.9889510235
 40
1.0
 40
1.0
 40
1.0
 40
1.0
 10
5.9426937308
 20
4.5267184326
 30
0.0
 10
5.9430893765
 20
4.5266414229
 30
0.0
 10
5.9446552473
 20
4.5263398294
 30
0.0
 10
5.9481142975
 20
4.5257015774
 30
0.0
 10
5.9537060267
 20
4.524758961
 30
0.0
 10
5.9611994527
 20
4.5236699761
 30
0.0
 10
5.9702638468
 20
4.5226227681
 30
0.0
 10
5.9805376496
 20
4.521797354
 30
0.0
 10
5.9915450222
 20
4.5213436724
 30
0.0
 10
6.0028242571
 20
4.5213433108
 30
0.0
 10
6.0138299333
 20
4.5217961835
 30
0.0
 10
6.024103119
 20
4.5226207686
 30
0.0
 10
6.0331687773
 20
4.5236674415
 30
0.0
 10
6.0406672841
 20
4.5247567017
 30
0.0
 10
6.0462645985
 20
4.5257000356
 30
0.0
 10
6.0497288365
 20
4.5263391843
 30
0.0
 10
6.0512971858
 20
4.5266412479
 30
0.0
 10
6.0516937308
 20
4.5267184326
 30
0.0
 11
5.9426937308
 21
4.5267184326
 31
0.0
 11
5.9438811211
 21
4.5264897398
 31
0.0
 11
5.9473965219
 21
4.525841187
 31
0.0
 11
5.9530844778
 21
4.5248827297
 31
0.0
 11
5.9606728244
 21
4.523780748
 31
0.0
 11
5.9698893941
 21
4.5227171225
 31
0.0
 11
5.9802795568
 21
4.5218835454
 31
0.0
 11
5.9914823553
 21
4.5214225822
 31
0.0
 11
6.0028875242
 21
4.5214222172
 31
0.0
 11
6.0140885699
 21
4.5218823575
 31
0.0
 11
6.0244754103
 21
4.5227148819
 31
0.0
 11
6.0336951804
 21
4.523778184
 31
0.0
 11
6.0412873858
 21
4.5248802567
 31
0.0
 11
6.0469834893
 21
4.5258398579
 31
0.0
 11
6.0505036405
 21
4.5264892253
 31
0.0
 11
6.0516937308
 21
4.5267184326
 31
0.0
  0
SPLINE
  5
480
100
AcDbEntity
  8
0
100
AcDbSpline
 62
7
  6
CONTINUOUS
 70
0
 71
3
 72
14
 73
10
 74
8
 42
0.0000001
 43
0.0000001
 44
0.0000000001
 12
-0.0000406018
 22
-0.0716486759
 32
0.0
 13
-0.0713766725
 23
0.0
 33
0.0
 40
0.0
 40
0.0
 40
0.0
 40
0.0
 40
0.1182119485
 40
0.2388076034
 40
0.3685742348
 40
0.5112502663
 40
0.6664730405
 40
0.8308984782
 40
1.0
 40
1.0
 40
1.0
 40
1.0
 10
6.097693726
 20
4.0487286012
 30
0.0
 10
6.0976921261
 20
4.045905358
 30
0.0
 10
6.0967850963
 20
4.0401901032
 30
0.0
 10
6.0925718121
 20
4.0323259094
 30
0.0
 10
6.0858278079
 20
4.0256816399
 30
0.0
 10
6.0770089543
 20
4.0204527883
 30
0.0
 10
6.0666098091
 20
4.0167103067
 30
0.0
 10
6.0551620881
 20
4.0144715269
 30
0.0
 10
6.0472170321
 20
4.0139779333
 30
0.0
 10
6.0431937308
 20
4.0139779333
 30
0.0
 11
6.097693726
 21
4.0487286012
 31
0.0
 11
6.096347489
 21
4.0403990393
 31
0.0
 11
6.0923439525
 21
4.0327790341
 31
0.0
 11
6.0858353164
 21
4.026189038
 31
0.0
 11
6.0771397411
 21
4.0208885156
 31
0.0
 11
6.0667467605
 21
4.017049699
 31
0.0
 11
6.0552392809
 21
4.0147442897
 31
0.0
 11
6.0431937308
 21
4.0139779333
 31
0.0
  0
SPLINE
  5
481
100
AcDbEntity
  8
0
100
AcDbSpline
 62
7
  6
CONTINUOUS
 70
0
 71
3
 72
14
 73
10
 74
8
 42
0.0000001
 43
0.0000001
 44
0.0000000001
 12
0.0713766741
 22
0.0
 32
0.0
 13
0.0000406259
 23
-0.0716486784
 33
0.0
 40
0.0
 40
0.0
 40
0.0
 40
0.0
 40
0.169103199
 40
0.333529667
 40
0.4887535662
 40
0.6314301343
 40
0.7611969619
 40
0.8817925536
 40
1.0
 40
1.0
 40
1.0
 40
1.0
 10
6.0431937308
 20
4.4794589319
 30
0.0
 10
6.0472170721
 20
4.4794589319
 30
0.0
 10
6.055162193
 20
4.4789653295
 30
0.0
 10
6.0666100005
 20
4.4767265111
 30
0.0
 10
6.0770091949
 20
4.4729839712
 30
0.0
 10
6.0858280573
 20
4.4677550422
 30
0.0
 10
6.092572013
 20
4.461110696
 30
0.0
 10
6.0967851523
 20
4.4532465429
 30
0.0
 10
6.097692125
 20
4.4475313962
 30
0.0
 10
6.0976937258
 20
4.4447082604
 30
0.0
 11
6.0431937308
 21
4.4794589319
 31
0.0
 11
6.0552394002
 21
4.4786925601
 31
0.0
 11
6.0667469476
 21
4.4763871141
 31
0.0
 11
6.0771399896
 21
4.4725482312
 31
0.0
 11
6.0858355644
 21
4.4672476338
 31
0.0
 11
6.0923441485
 21
4.4606575663
 31
0.0
 11
6.0963475923
 21
4.4530375173
 31
0.0
 11
6.0976937258
 21
4.4447082604
 31
0.0
  0
SPLINE
  5
482
100
AcDbEntity
  8
0
100
AcDbSpline
 62
7
  6
CONTINUOUS
 70
0
 71
3
 72
14
 73
10
 74
8
 42
0.0000001
 43
0.0000001
 44
0.0000000001
 12
0.0000406215
 22
-0.0716486783
 32
0.0
 13
0.0713766739
 23
0.0
 33
0.0
 40
0.0
 40
0.0
 40
0.0
 40
0.0
 40
0.1182083296
 40
0.2388038045
 40
0.3685705476
 40
0.5112469839
 40
0.6664707323
 40
0.8308970161
 40
1.0
 40
1.0
 40
1.0
 40
1.0
 10
5.9886937357
 20
4.0487286041
 30
0.0
 10
5.9886953363
 20
4.0459054473
 30
0.0
 10
5.9896023198
 20
4.0401902824
 30
0.0
 10
5.9938154839
 20
4.0323261245
 30
0.0
 10
6.0005594435
 20
4.0256817945
 30
0.0
 10
6.0093783027
 20
4.0204528783
 30
0.0
 10
6.0197774882
 20
4.0167103474
 30
0.0
 10
6.0312252833
 20
4.0144715345
 30
0.0
 10
6.0391703946
 20
4.0139779333
 30
0.0
 10
6.0431937308
 20
4.0139779333
 30
0.0
 11
5.9886937357
 21
4.0487286041
 31
0.0
 11
5.9900398895
 21
4.0403992874
 31
0.0
 11
5.994043346
 21
4.0327792544
 31
0.0
 11
6.0005519359
 21
4.0261892012
 31
0.0
 11
6.0092475076
 21
4.020888617
 31
0.0
 11
6.0196405415
 21
4.0170497434
 31
0.0
 11
6.0311480766
 21
4.0147443031
 31
0.0
 11
6.0431937308
 21
4.0139779333
 31
0.0
  0
SPLINE
  5
483
100
AcDbEntity
  8
0
100
AcDbSpline
 62
7
  6
CONTINUOUS
 70
0
 71
3
 72
14
 73
10
 74
8
 42
0.0000001
 43
0.0000001
 44
0.0000000001
 12
0.0000406078
 22
0.0716486767
 32
0.0
 13
0.0713766728
 23
0.0
 33
0.0
 40
0.0
 40
0.0
 40
0.0
 40
0.0
 40
0.1182111631
 40
0.2388067343
 40
0.3685734864
 40
0.5112496433
 40
0.6664725732
 40
0.8308982202
 40
1.0
 40
1.0
 40
1.0
 40
1.0
 10
5.9886937356
 20
4.4447082632
 30
0.0
 10
5.9886953357
 20
4.4475314876
 30
0.0
 10
5.9896023552
 20
4.4532467221
 30
0.0
 10
5.9938156134
 20
4.4611109093
 30
0.0
 10
6.0005596097
 20
4.4677551934
 30
0.0
 10
6.0093784668
 20
4.4729840591
 30
0.0
 10
6.019777621
 20
4.4767265508
 30
0.0
 10
6.0312253561
 20
4.4789653369
 30
0.0
 10
6.0391704233
 20
4.4794589319
 30
0.0
 10
6.0431937308
 20
4.4794589319
 30
0.0
 11
5.9886937356
 21
4.4447082632
 31
0.0
 11
5.9900399545
 21
4.453037772
 31
0.0
 11
5.9940434717
 21
4.4606577807
 31
0.0
 11
6.0005521027
 21
4.4672477941
 31
0.0
 11
6.0092476801
 21
4.4725483304
 31
0.0
 11
6.0196406688
 21
4.4763871572
 31
0.0
 11
6.0311481623
 21
4.4786925731
 31
0.0
 11
6.0431937308
 21
4.4794589319
 31
0.0
  0
SPLINE
  5
484
100
AcDbEntity
  8
THREAD
100
AcDbSpline
 62
7
  6
CONTINUOUS
 70
0
 71
3
 72
15
 73
11
 74
9
 42
0.0000001
 43
0.0000001
 44
0.0000000001
 12
-0.1047017673
 22
0.2030163597
 32
0.0
 13
0.1047017673
 23
0.2030163597
 33
0.0
 40
0.0
 40
0.0
 40
0.0
 40
0.0
 40
0.1346257358
 40
0.2606745914
 40
0.3815608613
 40
0.5000347823
 40
0.6185057449
 40
0.7393842591
 40
0.8653963
 40
1.0
 40
1.0
 40
1.0
 40
1.0
 10
4.3082573967
 20
4.5164159601
 30
0.0
 10
4.3035588792
 20
4.525526369
 30
0.0
 10
4.2951699414
 20
4.5435514227
 30
0.0
 10
4.2856698146
 20
4.5710697542
 30
0.0
 10
4.2798499712
 20
4.5983587481
 30
0.0
 10
4.2778807727
 20
4.6256261966
 30
0.0
 10
4.279852169
 20
4.6528928807
 30
0.0
 10
4.2856730966
 20
4.6801779096
 30
0.0
 10
4.2951724908
 20
4.7076910662
 30
0.0
 10
4.3035596482
 20
4.7257119874
 30
0.0
 10
4.3082573967
 20
4.7348209051
 30
0.0
 11
4.3082573967
 21
4.5164159601
 31
0.0
 11
4.2954003336
 21
4.5443511796
 31
0.0
 11
4.2861184976
 21
4.5716068138
 31
0.0
 11
4.2804479455
 21
4.5986317842
 31
0.0
 11
4.2785331152
 21
4.6256263934
 31
0.0
 11
4.2804500798
 21
4.6526201735
 31
0.0
 11
4.2861220897
 21
4.6796430279
 31
0.0
 11
4.2954022138
 21
4.7068903613
 31
0.0
 11
4.3082573967
 21
4.7348209051
 31
0.0
  0
SPLINE
  5
485
100
AcDbEntity
  8
THREAD
100
AcDbSpline
 62
7
  6
CONTINUOUS
 70
0
 71
3
 72
15
 73
11
 74
9
 42
0.0000001
 43
0.0000001
 44
0.0000000001
 12
0.1643031241
 22
0.1839340856
 32
0.0
 13
-0.1643031241
 23
0.1839340856
 33
0.0
 40
0.0
 40
0.0
 40
0.0
 40
0.0
 40
0.1498215377
 40
0.2783315905
 40
0.3927788038
 40
0.5000592815
 40
0.6073304266
 40
0.7217569014
 40
0.8502022558
 40
1.0
 40
1.0
 40
1.0
 40
1.0
 10
4.7436937308
 20
4.5164159601
 30
0.0
 10
4.751899113
 20
4.5256017226
 30
0.0
 10
4.7663308925
 20
4.5434446812
 30
0.0
 10
4.7829286212
 20
4.5713030953
 30
0.0
 10
4.7929137282
 20
4.5985301693
 30
0.0
 10
4.7962747513
 20
4.625632525
 30
0.0
 10
4.7929069776
 20
4.6527321888
 30
0.0
 10
4.7829198603
 20
4.6799499654
 30
0.0
 10
4.7663251308
 20
4.7077994258
 30
0.0
 10
4.7518978099
 20
4.7256366014
 30
0.0
 10
4.7436937308
 20
4.7348209051
 30
0.0
 11
4.7436937308
 21
4.5164159601
 31
0.0
 11
4.7666622045
 21
4.5453608731
 31
0.0
 11
4.7825883894
 21
4.5727635881
 31
0.0
 11
4.7920373868
 21
4.5993613695
 31
0.0
 11
4.7951776958
 21
4.6256331334
 31
0.0
 11
4.7920311076
 21
4.6519018279
 31
0.0
 11
4.7825790754
 21
4.6784931027
 31
0.0
 11
4.7666588679
 21
4.7058808357
 31
0.0
 11
4.7436937308
 21
4.7348209051
 31
0.0
  0
SPLINE
  5
486
100
AcDbEntity
  8
THREAD
100
AcDbSpline
 62
7
  6
CONTINUOUS
 70
0
 71
3
 72
15
 73
11
 74
9
 42
0.0000001
 43
0.0000001
 44
0.0000000001
 12
-0.1047017673
 22
0.2030163597
 32
0.0
 13
0.1047017673
 23
0.2030163597
 33
0.0
 40
0.0
 40
0.0
 40
0.0
 40
0.0
 40
0.1346257358
 40
0.2606745914
 40
0.3815608613
 40
0.5000347823
 40
0.6185057449
 40
0.7393842591
 40
0.8653963
 40
1.0
 40
1.0
 40
1.0
 40
1.0
 10
4.3082573967
 20
3.7586159601
 30
0.0
 10
4.3035588792
 20
3.767726369
 30
0.0
 10
4.2951699414
 20
3.7857514227
 30
0.0
 10
4.2856698146
 20
3.8132697542
 30
0.0
 10
4.2798499712
 20
3.8405587481
 30
0.0
 10
4.2778807727
 20
3.8678261966
 30
0.0
 10
4.279852169
 20
3.8950928807
 30
0.0
 10
4.2856730966
 20
3.9223779096
 30
0.0
 10
4.2951724908
 20
3.9498910662
 30
0.0
 10
4.3035596482
 20
3.9679119874
 30
0.0
 10
4.3082573967
 20
3.9770209051
 30
0.0
 11
4.3082573967
 21
3.7586159601
 31
0.0
 11
4.2954003336
 21
3.7865511796
 31
0.0
 11
4.2861184976
 21
3.8138068138
 31
0.0
 11
4.2804479455
 21
3.8408317842
 31
0.0
 11
4.2785331152
 21
3.8678263934
 31
0.0
 11
4.2804500798
 21
3.8948201735
 31
0.0
 11
4.2861220897
 21
3.9218430279
 31
0.0
 11
4.2954022138
 21
3.9490903613
 31
0.0
 11
4.3082573967
 21
3.9770209051
 31
0.0
  0
SPLINE
  5
487
100
AcDbEntity
  8
THREAD
100
AcDbSpline
 62
7
  6
CONTINUOUS
 70
0
 71
3
 72
15
 73
11
 74
9
 42
0.0000001
 43
0.0000001
 44
0.0000000001
 12
0.1643031241
 22
0.1839340856
 32
0.0
 13
-0.1643031241
 23
0.1839340856
 33
0.0
 40
0.0
 40
0.0
 40
0.0
 40
0.0
 40
0.1498215377
 40
0.2783315905
 40
0.3927788038
 40
0.5000592815
 40
0.6073304266
 40
0.7217569014
 40
0.8502022558
 40
1.0
 40
1.0
 40
1.0
 40
1.0
 10
4.7436937308
 20
3.7586159601
 30
0.0
 10
4.751899113
 20
3.7678017226
 30
0.0
 10
4.7663308925
 20
3.7856446812
 30
0.0
 10
4.7829286212
 20
3.8135030953
 30
0.0
 10
4.7929137282
 20
3.8407301693
 30
0.0
 10
4.7962747513
 20
3.867832525
 30
0.0
 10
4.7929069776
 20
3.8949321888
 30
0.0
 10
4.7829198603
 20
3.9221499654
 30
0.0
 10
4.7663251308
 20
3.9499994258
 30
0.0
 10
4.7518978099
 20
3.9678366014
 30
0.0
 10
4.7436937308
 20
3.9770209051
 30
0.0
 11
4.7436937308
 21
3.7586159601
 31
0.0
 11
4.7666622045
 21
3.7875608731
 31
0.0
 11
4.7825883894
 21
3.8149635881
 31
0.0
 11
4.7920373868
 21
3.8415613695
 31
0.0
 11
4.7951776958
 21
3.8678331334
 31
0.0
 11
4.7920311076
 21
3.8941018279
 31
0.0
 11
4.7825790754
 21
3.9206931027
 31
0.0
 11
4.7666588679
 21
3.9480808357
 31
0.0
 11
4.7436937308
 21
3.9770209051
 31
0.0
  0
SPLINE
  5
488
100
AcDbEntity
  8
THREAD
100
AcDbSpline
 62
7
  6
CONTINUOUS
 70
0
 71
3
 72
15
 73
11
 74
9
 42
0.0000001
 43
0.0000001
 44
0.0000000001
 12
-0.1103563678
 22
0.4279612204
 32
0.0
 13
0.1103563678
 23
0.4279612204
 33
0.0
 40
0.0
 40
0.0
 40
0.0
 40
0.0
 40
0.1297189924
 40
0.2548338227
 40
0.3778008073
 40
0.5000360058
 40
0.6222676266
 40
0.7452254315
 40
0.8703025816
 40
1.0
 40
1.0
 40
1.0
 40
1.0
 10
4.3082573967
 20
4.0283134876
 30
0.0
 10
4.3034856244
 20
4.046818387
 30
0.0
 10
4.295002898
 20
4.083411409
 30
0.0
 10
4.2855777609
 20
4.138299217
 30
0.0
 10
4.2798272825
 20
4.1925923534
 30
0.0
 10
4.2778874147
 20
4.246733841
 30
0.0
 10
4.2798294516
 20
4.3008738915
 30
0.0
 10
4.2855810419
 20
4.3551594231
 30
0.0
 10
4.2950055165
 20
4.410037083
 30
0.0
 10
4.303486418
 20
4.4466215558
 30
0.0
 10
4.3082573967
 20
4.4651233776
 30
0.0
 11
4.3082573967
 21
4.0283134876
 31
0.0
 11
4.2954003336
 21
4.0841839266
 31
0.0
 11
4.2861184976
 21
4.1386951949
 31
0.0
 11
4.2804479455
 21
4.1927451359
 31
0.0
 11
4.2785331152
 21
4.2467343541
 31
0.0
 11
4.2804500798
 21
4.3007219144
 31
0.0
 11
4.2861220897
 21
4.3547676231
 31
0.0
 11
4.2954022138
 21
4.40926229
 31
0.0
 11
4.3082573967
 21
4.4651233776
 31
0.0
  0
SPLINE
  5
489
100
AcDbEntity
  8
THREAD
100
AcDbSpline
 62
7
  6
CONTINUOUS
 70
0
 71
3
 72
15
 73
11
 74
9
 42
0.0000001
 43
0.0000001
 44
0.0000000001
 12
0.1843202379
 22
0.4126856942
 32
0.0
 13
-0.1843202379
 23
0.4126856942
 33
0.0
 40
0.0
 40
0.0
 40
0.0
 40
0.0
 40
0.1377942686
 40
0.2640673782
 40
0.3836049145
 40
0.5000649493
 40
0.6165122554
 40
0.736022619
 40
0.8622283762
 40
1.0
 40
1.0
 40
1.0
 40
1.0
 10
4.7436937308
 20
4.0283134876
 30
0.0
 10
4.7521598216
 20
4.0472687287
 30
0.0
 10
4.7669913643
 20
4.0842496676
 30
0.0
 10
4.7833284796
 20
4.1397859487
 30
0.0
 10
4.793021649
 20
4.193616688
 30
0.0
 10
4.7962433055
 20
4.2467459909
 30
0.0
 10
4.7930151154
 20
4.2998707415
 30
0.0
 10
4.7833195938
 20
4.3536845241
 30
0.0
 10
4.7669851444
 20
4.4092030193
 30
0.0
 10
4.7521584303
 20
4.4461712515
 30
0.0
 10
4.7436937308
 20
4.4651233776
 30
0.0
 11
4.7436937308
 21
4.0283134876
 31
0.0
 11
4.7666622045
 21
4.0862033136
 31
0.0
 11
4.7825883894
 21
4.1410087437
 31
0.0
 11
4.7920373868
 21
4.1942043063
 31
0.0
 11
4.7951776958
 21
4.2467478343
 31
0.0
 11
4.7920311076
 21
4.2992852232
 31
0.0
 11
4.7825790754
 21
4.3524677729
 31
0.0
 11
4.7666588679
 21
4.4072432389
 31
0.0
 11
4.7436937308
 21
4.4651233776
 31
0.0
  0
ENDSEC
  0
SECTION
  2
OBJECTS
  0
DICTIONARY
  5
C
100
AcDbDictionary
280
0
281
1
  3
ACAD_GROUP
350
D
  3
ACAD_MLINESTYLE
350
17
  3
ACAD_LAYOUT
350
1A
  3
ACAD_PLOTSETTINGS
350
19
  3
ACAD_PLOTSTYLENAME
350
E
  0
DICTIONARY
  5
D
102
{ACAD_REACTORS
330
C
102
}
100
AcDbDictionary
280
0
281
1
  0
ACDBDICTIONARYWDFLT
  5
E
102
{ACAD_REACTORS
330
C
102
}
100
AcDbDictionary
281
1
  3
Normal
350
F
100
AcDbDictionaryWithDefault
340
F
  0
DICTIONARY
  5
17
102
{ACAD_REACTORS
330
C
102
}
100
AcDbDictionary
280
0
281
1
  3
Standard
350
18
  0
DICTIONARY
  5
19
102
{ACAD_REACTORS
330
C
102
}
100
AcDbDictionary
281
1
  0
DICTIONARY
  5
1A
102
{ACAD_REACTORS
330
C
102
}
100
AcDbDictionary
281
1
  3
Layout1
350
1E
  3
Model
350
22
  0
ACDBPLACEHOLDER
  5
F
102
{ACAD_REACTORS
330
E
102
}
  0
MLINESTYLE
  5
18
102
{ACAD_REACTORS
330
17
102
}
100
AcDbMlineStyle
  2
STANDARD
 70
0
  3

 62
256
 51
90.0
 52
90.0
 71
2
 49
0.5
 62
256
  6
BYLAYER
 49
-0.5
 62
256
  6
BYLAYER
  0
LAYOUT
  5
1E
102
{ACAD_REACTORS
330
1A
102
}
100
AcDbPlotSettings
  1

  2

  4

  6

 40
0.0
 41
0.0
 42
0.0
 43
0.0
 44
0.0
 45
0.0
 46
0.0
 47
0.0
 48
0.0
 49
0.0
140
0.0
141
0.0
142
1.0
143
1.0
 70
0
 72
0
 73
0
 74
0
  7

 75
0
147
1.0
148
0.0
149
0.0
100
AcDbLayout
  1
Layout1
 70
0
 71
0
 10
0.0
 20
0.0
 11
0.0
 21
0.0
 12
0.0
 22
0.0
 32
0.0
 14
0.0
 24
0.0
 34
0.0
 15
0.0
 25
0.0
 35
0.0
146
0.0
 13
0.0
 23
0.0
 33
0.0
 16
0.0
 26
0.0
 36
0.0
 17
0.0
 27
0.0
 37
0.0
 76
0
330
1B
331
0
345
0
346
0
  0
LAYOUT
  5
22
102
{ACAD_REACTORS
330
1A
102
}
100
AcDbPlotSettings
  1

  2

  4

  6

 40
0.0
 41
0.0
 42
0.0
 43
0.0
 44
0.0
 45
0.0
 46
0.0
 47
0.0
 48
0.0
 49
0.0
140
0.0
141
0.0
142
1.0
143
1.0
 70
0
 72
0
 73
0
 74
0
  7

 75
0
147
1.0
148
0.0
149
0.0
100
AcDbLayout
  1
Model
 70
0
 71
0
 10
0.0
 20
0.0
 11
0.0
 21
0.0
 12
0.0
 22
0.0
 32
0.0
 14
0.0
 24
0.0
 34
0.0
 15
0.0
 25
0.0
 35
0.0
146
0.0
 13
0.0
 23
0.0
 33
0.0
 16
0.0
 26
0.0
 36
0.0
 17
0.0
 27
0.0
 37
0.0
 76
0
330
1F
331
0
345
0
346
0
  0
ENDSEC
  0
EOF
