999
DXF file: FVFA-XAN.dxf
999
Pro/ENGINEER 2006240 by Parametric Technology Corporation
  0
SECTION
  2
HEADER
  9
$ACADVER
  1
AC1015
  9
$DWGCODEPAGE
  3
ANSI_1252
  9
$EXTMAX
 10
11.6929133858
 20
8.2677165354
 30
0.0
  9
$EXTMIN
 10
0.0
 20
0.0
 30
0.0
  9
$LIMMIN
 10
0.0
 20
0.0
  9
$LIMMAX
 10
11.6929133858
 20
8.2677165354
  9
$VIEWCTR
 10
5.8464566929
 20
4.1338582677
  9
$VIEWSIZE
 40
8.2677165354
  9
$CLAYER
  8
0
  9
$LTSCALE
 40
0.6431102362
  9
$CELTYPE
  6
BYLAYER
  9
$DIMSCALE
 40
1.0
  9
$DIMASZ
 40
0.1875
  9
$DIMEXO
 40
0.0730807087
  9
$DIMDLI
 40
0.4443307087
  9
$DIMEXE
 40
0.2104724409
  9
$DIMCEN
 40
0.1052362205
  9
$DIMLFAC
 40
1.0
  9
$DIMBLK
  1
_CLOSED
  9
$DIMTXT
 40
0.15625
  9
$DIMTOL
 70
0
  9
$DIMLIM
 70
0
  9
$DIMTFAC
 40
1.0
  9
$PDMODE
 70
3
  9
$PDSIZE
 40
0.3125
  9
$HANDSEED
  5
5C5
  9
$MEASUREMENT
 70
0
  9
$INSUNITS
 70
1
  0
ENDSEC
  0
SECTION
  2
CLASSES
  0
CLASS
  1
ACDBDICTIONARYWDFLT
  2
AcDbDictionaryWithDefault
  3
AutoCAD 2000
 90
0
280
0
281
0
  0
CLASS
  1
ACDBPLACEHOLDER
  2
AcDbPlaceHolder
  3
AutoCAD 2000
 90
0
280
0
281
0
  0
CLASS
  1
LAYOUT
  2
AcDbLayout
  3
AutoCAD 2000
 90
0
280
0
281
0
  0
ENDSEC
  0
SECTION
  2
TABLES
  0
TABLE
  2
VPORT
  5
8
100
AcDbSymbolTable
 70
2
  0
VPORT
  5
1F4
100
AcDbSymbolTableRecord
100
AcDbViewportTableRecord
  2
*ACTIVE
 70
0
 10
0.0
 20
0.0
 11
1.0
 21
1.0
 12
5.8464566929
 22
4.1338582677
 13
0.0
 23
0.0
 14
1.0
 24
1.0
 15
0.0
 25
0.0
 16
0.0
 26
0.0
 36
1.0
 17
0.0
 27
0.0
 37
0.0
 40
8.2677165354
 41
1.4142857143
 42
50.0
 43
0.0
 44
0.0
 50
0.0
 51
0.0
 71
0
 72
100
 73
1
 74
1
 75
0
 76
0
 77
0
 78
0
  0
ENDTAB
  0
TABLE
  2
LTYPE
  5
5
100
AcDbSymbolTable
 70
6
  0
LTYPE
  5
14
100
AcDbSymbolTableRecord
100
AcDbLinetypeTableRecord
  2
BYBLOCK
 70
0
  3

 72
65
 73
0
 40
0.0
  0
LTYPE
  5
15
100
AcDbSymbolTableRecord
100
AcDbLinetypeTableRecord
  2
BYLAYER
 70
0
  3

 72
65
 73
0
 40
0.0
  0
LTYPE
  5
16
100
AcDbSymbolTableRecord
100
AcDbLinetypeTableRecord
  2
CONTINUOUS
 70
64
  3
Solid line
 72
65
 73
0
 40
0.0
  0
LTYPE
  5
1F5
100
AcDbSymbolTableRecord
100
AcDbLinetypeTableRecord
  2
CENTER
 70
64
  3
____ _ ____ _ ____ _ ____ _ ____ _ ____ _ ____
 72
65
 73
4
 40
0.6
 49
0.375
 74
0
 49
-0.075
 74
0
 49
0.075
 74
0
 49
-0.075
 74
0
  0
LTYPE
  5
1F6
100
AcDbSymbolTableRecord
100
AcDbLinetypeTableRecord
  2
HIDDEN
 70
64
  3
- - - - - - - - - - - - - - - - - - - -
 72
65
 73
2
 40
0.2
 49
0.1
 74
0
 49
-0.1
 74
0
  0
LTYPE
  5
1F7
100
AcDbSymbolTableRecord
100
AcDbLinetypeTableRecord
  2
PHANTOM
 70
64
  3
_____ _ _ _____ _ _ _____ _ _ _____
 72
65
 73
6
 40
0.8
 49
0.45
 74
0
 49
-0.05
 74
0
 49
0.1
 74
0
 49
-0.05
 74
0
 49
0.1
 74
0
 49
-0.05
 74
0
  0
LTYPE
  5
1F8
100
AcDbSymbolTableRecord
100
AcDbLinetypeTableRecord
  2
DOT
 70
64
  3
. . . . . . . . . . . . . . . . . . . .
 72
65
 73
2
 40
0.2
 49
0.1
 74
0
 49
-0.1
 74
0
  0
LTYPE
  5
1F9
100
AcDbSymbolTableRecord
100
AcDbLinetypeTableRecord
  2
DASHED
 70
64
  3
- - - - - - - - - - - - - - - - - - - -
 72
65
 73
2
 40
0.2
 49
0.1
 74
0
 49
-0.1
 74
0
  0
ENDTAB
  0
TABLE
  2
LAYER
  5
2
100
AcDbSymbolTable
 70
36
  0
LAYER
  5
10
100
AcDbSymbolTableRecord
100
AcDbLayerTableRecord
  2
0
 70
0
 62
7
  6
CONTINUOUS
370
-3
390
F
  0
LAYER
  5
1FA
100
AcDbSymbolTableRecord
100
AcDbLayerTableRecord
  2
DEFAULT_1
 70
0
 62
7
  6
CENTER
370
-3
390
F
  0
LAYER
  5
1FB
100
AcDbSymbolTableRecord
100
AcDbLayerTableRecord
  2
DEFAULT_2
 70
0
 62
8
  6
HIDDEN
370
-3
390
F
  0
LAYER
  5
1FC
100
AcDbSymbolTableRecord
100
AcDbLayerTableRecord
  2
DEFAULT_3
 70
0
 62
7
  6
PHANTOM
370
-3
390
F
  0
LAYER
  5
1FD
100
AcDbSymbolTableRecord
100
AcDbLayerTableRecord
  2
_BLACK_HOLE
 70
0
 62
7
  6
CONTINUOUS
370
-3
390
F
  0
LAYER
  5
1FE
100
AcDbSymbolTableRecord
100
AcDbLayerTableRecord
  2
01_ALL_DTM_PLN
 70
0
 62
7
  6
CONTINUOUS
370
-3
390
F
  0
LAYER
  5
1FF
100
AcDbSymbolTableRecord
100
AcDbLayerTableRecord
  2
01__ASM_ALL_DTM_PLN
 70
0
 62
7
  6
CONTINUOUS
370
-3
390
F
  0
LAYER
  5
200
100
AcDbSymbolTableRecord
100
AcDbLayerTableRecord
  2
01__ASM_DEF_DTM_PLN
 70
0
 62
7
  6
CONTINUOUS
370
-3
390
F
  0
LAYER
  5
201
100
AcDbSymbolTableRecord
100
AcDbLayerTableRecord
  2
01___PRT_ALL_DTM_PLN
 70
0
 62
7
  6
CONTINUOUS
370
-3
390
F
  0
LAYER
  5
202
100
AcDbSymbolTableRecord
100
AcDbLayerTableRecord
  2
01___PRT_DEF_DTM_PLN
 70
0
 62
7
  6
CONTINUOUS
370
-3
390
F
  0
LAYER
  5
203
100
AcDbSymbolTableRecord
100
AcDbLayerTableRecord
  2
02_ALL_AXES
 70
0
 62
7
  6
CONTINUOUS
370
-3
390
F
  0
LAYER
  5
204
100
AcDbSymbolTableRecord
100
AcDbLayerTableRecord
  2
02__ASM_ALL_AXES
 70
0
 62
7
  6
CONTINUOUS
370
-3
390
F
  0
LAYER
  5
205
100
AcDbSymbolTableRecord
100
AcDbLayerTableRecord
  2
02___PRT_ALL_AXES
 70
0
 62
7
  6
CONTINUOUS
370
-3
390
F
  0
LAYER
  5
206
100
AcDbSymbolTableRecord
100
AcDbLayerTableRecord
  2
03_ALL_CURVES
 70
0
 62
7
  6
CONTINUOUS
370
-3
390
F
  0
LAYER
  5
207
100
AcDbSymbolTableRecord
100
AcDbLayerTableRecord
  2
03__ASM_ALL_CURVES
 70
0
 62
7
  6
CONTINUOUS
370
-3
390
F
  0
LAYER
  5
208
100
AcDbSymbolTableRecord
100
AcDbLayerTableRecord
  2
03___PRT_ALL_CURVES
 70
0
 62
7
  6
CONTINUOUS
370
-3
390
F
  0
LAYER
  5
209
100
AcDbSymbolTableRecord
100
AcDbLayerTableRecord
  2
04_ALL_DTM_PNT
 70
0
 62
7
  6
CONTINUOUS
370
-3
390
F
  0
LAYER
  5
20A
100
AcDbSymbolTableRecord
100
AcDbLayerTableRecord
  2
04__ASM_ALL_DTM_PNT
 70
0
 62
7
  6
CONTINUOUS
370
-3
390
F
  0
LAYER
  5
20B
100
AcDbSymbolTableRecord
100
AcDbLayerTableRecord
  2
04___PRT_ALL_DTM_PNT
 70
0
 62
7
  6
CONTINUOUS
370
-3
390
F
  0
LAYER
  5
20C
100
AcDbSymbolTableRecord
100
AcDbLayerTableRecord
  2
05_ALL_DTM_CSYS
 70
0
 62
7
  6
CONTINUOUS
370
-3
390
F
  0
LAYER
  5
20D
100
AcDbSymbolTableRecord
100
AcDbLayerTableRecord
  2
05__ASM_ALL_DTM_CSYS
 70
0
 62
7
  6
CONTINUOUS
370
-3
390
F
  0
LAYER
  5
20E
100
AcDbSymbolTableRecord
100
AcDbLayerTableRecord
  2
05__ASM_DEF_DTM_CSYS
 70
0
 62
7
  6
CONTINUOUS
370
-3
390
F
  0
LAYER
  5
20F
100
AcDbSymbolTableRecord
100
AcDbLayerTableRecord
  2
05___PRT_ALL_DTM_CSYS
 70
0
 62
7
  6
CONTINUOUS
370
-3
390
F
  0
LAYER
  5
210
100
AcDbSymbolTableRecord
100
AcDbLayerTableRecord
  2
05___PRT_DEF_DTM_CSYS
 70
0
 62
7
  6
CONTINUOUS
370
-3
390
F
  0
LAYER
  5
211
100
AcDbSymbolTableRecord
100
AcDbLayerTableRecord
  2
06_ALL_SURFS
 70
0
 62
7
  6
CONTINUOUS
370
-3
390
F
  0
LAYER
  5
212
100
AcDbSymbolTableRecord
100
AcDbLayerTableRecord
  2
06__ASM_ALL_SURFS
 70
0
 62
7
  6
CONTINUOUS
370
-3
390
F
  0
LAYER
  5
213
100
AcDbSymbolTableRecord
100
AcDbLayerTableRecord
  2
06___PRT_ALL_SURFS
 70
0
 62
7
  6
CONTINUOUS
370
-3
390
F
  0
LAYER
  5
214
100
AcDbSymbolTableRecord
100
AcDbLayerTableRecord
  2
07__ASM_ALL_SKELETONS
 70
0
 62
7
  6
CONTINUOUS
370
-3
390
F
  0
LAYER
  5
215
100
AcDbSymbolTableRecord
100
AcDbLayerTableRecord
  2
129-500_FEATURES
 70
0
 62
7
  6
CONTINUOUS
370
-3
390
F
  0
LAYER
  5
216
100
AcDbSymbolTableRecord
100
AcDbLayerTableRecord
  2
129-500_REF_GEOMETRY
 70
0
 62
7
  6
CONTINUOUS
370
-3
390
F
  0
LAYER
  5
217
100
AcDbSymbolTableRecord
100
AcDbLayerTableRecord
  2
129-501_FEATURES
 70
0
 62
7
  6
CONTINUOUS
370
-3
390
F
  0
LAYER
  5
218
100
AcDbSymbolTableRecord
100
AcDbLayerTableRecord
  2
129-501_REF_GEOMETRY
 70
0
 62
7
  6
CONTINUOUS
370
-3
390
F
  0
LAYER
  5
219
100
AcDbSymbolTableRecord
100
AcDbLayerTableRecord
  2
129-502_FEATURES
 70
0
 62
7
  6
CONTINUOUS
370
-3
390
F
  0
LAYER
  5
21A
100
AcDbSymbolTableRecord
100
AcDbLayerTableRecord
  2
129-502_REF_GEOMETRY
 70
0
 62
7
  6
CONTINUOUS
370
-3
390
F
  0
LAYER
  5
21B
100
AcDbSymbolTableRecord
100
AcDbLayerTableRecord
  2
ALL_DATUM_FEAT
 70
0
 62
7
  6
CONTINUOUS
370
-3
390
F
  0
LAYER
  5
21C
100
AcDbSymbolTableRecord
100
AcDbLayerTableRecord
  2
AXIS
 70
0
 62
7
  6
CONTINUOUS
370
-3
390
F
  0
LAYER
  5
21D
100
AcDbSymbolTableRecord
100
AcDbLayerTableRecord
  2
COPY_GEO_FET
 70
0
 62
7
  6
CONTINUOUS
370
-3
390
F
  0
LAYER
  5
21E
100
AcDbSymbolTableRecord
100
AcDbLayerTableRecord
  2
COSMETIC
 70
0
 62
7
  6
CONTINUOUS
370
-3
390
F
  0
LAYER
  5
21F
100
AcDbSymbolTableRecord
100
AcDbLayerTableRecord
  2
CSYS
 70
0
 62
7
  6
CONTINUOUS
370
-3
390
F
  0
LAYER
  5
220
100
AcDbSymbolTableRecord
100
AcDbLayerTableRecord
  2
CURVES
 70
0
 62
7
  6
CONTINUOUS
370
-3
390
F
  0
LAYER
  5
221
100
AcDbSymbolTableRecord
100
AcDbLayerTableRecord
  2
CUT_REF_SURF
 70
0
 62
7
  6
CONTINUOUS
370
-3
390
F
  0
LAYER
  5
222
100
AcDbSymbolTableRecord
100
AcDbLayerTableRecord
  2
DATUM
 70
0
 62
7
  6
CONTINUOUS
370
-3
390
F
  0
LAYER
  5
223
100
AcDbSymbolTableRecord
100
AcDbLayerTableRecord
  2
DATUMCURVES
 70
0
 62
7
  6
CONTINUOUS
370
-3
390
F
  0
LAYER
  5
224
100
AcDbSymbolTableRecord
100
AcDbLayerTableRecord
  2
DATUM_PLANES
 70
0
 62
7
  6
CONTINUOUS
370
-3
390
F
  0
LAYER
  5
225
100
AcDbSymbolTableRecord
100
AcDbLayerTableRecord
  2
DIMENSIONS
 70
0
 62
7
  6
CONTINUOUS
370
-3
390
F
  0
LAYER
  5
226
100
AcDbSymbolTableRecord
100
AcDbLayerTableRecord
  2
DIMS
 70
0
 62
7
  6
CONTINUOUS
370
-3
390
F
  0
LAYER
  5
227
100
AcDbSymbolTableRecord
100
AcDbLayerTableRecord
  2
DRAWINGNOTES
 70
0
 62
7
  6
CONTINUOUS
370
-3
390
F
  0
LAYER
  5
228
100
AcDbSymbolTableRecord
100
AcDbLayerTableRecord
  2
DTM
 70
0
 62
7
  6
CONTINUOUS
370
-3
390
F
  0
LAYER
  5
229
100
AcDbSymbolTableRecord
100
AcDbLayerTableRecord
  2
DTM230
 70
0
 62
7
  6
CONTINUOUS
370
-3
390
F
  0
LAYER
  5
22A
100
AcDbSymbolTableRecord
100
AcDbLayerTableRecord
  2
DTM_500001
 70
0
 62
7
  6
CONTINUOUS
370
-3
390
F
  0
LAYER
  5
22B
100
AcDbSymbolTableRecord
100
AcDbLayerTableRecord
  2
DTM_500002
 70
0
 62
7
  6
CONTINUOUS
370
-3
390
F
  0
LAYER
  5
22C
100
AcDbSymbolTableRecord
100
AcDbLayerTableRecord
  2
DTM_515002
 70
0
 62
7
  6
CONTINUOUS
370
-3
390
F
  0
LAYER
  5
22D
100
AcDbSymbolTableRecord
100
AcDbLayerTableRecord
  2
DTM_530-102
 70
0
 62
7
  6
CONTINUOUS
370
-3
390
F
  0
LAYER
  5
22E
100
AcDbSymbolTableRecord
100
AcDbLayerTableRecord
  2
DTM_SPRING_RH
 70
0
 62
7
  6
CONTINUOUS
370
-3
390
F
  0
LAYER
  5
22F
100
AcDbSymbolTableRecord
100
AcDbLayerTableRecord
  2
DTM_SP_RH_CONSTR
 70
0
 62
7
  6
CONTINUOUS
370
-3
390
F
  0
LAYER
  5
230
100
AcDbSymbolTableRecord
100
AcDbLayerTableRecord
  2
GEOMETRICTOLERANCES
 70
0
 62
7
  6
CONTINUOUS
370
-3
390
F
  0
LAYER
  5
231
100
AcDbSymbolTableRecord
100
AcDbLayerTableRecord
  2
LAY0001
 70
0
 62
7
  6
CONTINUOUS
370
-3
390
F
  0
LAYER
  5
232
100
AcDbSymbolTableRecord
100
AcDbLayerTableRecord
  2
PARAMETERDIMENSIONS
 70
0
 62
7
  6
CONTINUOUS
370
-3
390
F
  0
LAYER
  5
233
100
AcDbSymbolTableRecord
100
AcDbLayerTableRecord
  2
PART
 70
0
 62
7
  6
CONTINUOUS
370
-3
390
F
  0
LAYER
  5
234
100
AcDbSymbolTableRecord
100
AcDbLayerTableRecord
  2
PLANE
 70
0
 62
7
  6
CONTINUOUS
370
-3
390
F
  0
LAYER
  5
235
100
AcDbSymbolTableRecord
100
AcDbLayerTableRecord
  2
SUN_STD_SAE-6_PORT
 70
0
 62
7
  6
CONTINUOUS
370
-3
390
F
  0
LAYER
  5
236
100
AcDbSymbolTableRecord
100
AcDbLayerTableRecord
  2
T-8A_CAVITY-INCH
 70
0
 62
7
  6
CONTINUOUS
370
-3
390
F
  0
LAYER
  5
237
100
AcDbSymbolTableRecord
100
AcDbLayerTableRecord
  2
TEXT
 70
0
 62
7
  6
CONTINUOUS
370
-3
390
F
  0
LAYER
  5
238
100
AcDbSymbolTableRecord
100
AcDbLayerTableRecord
  2
THREAD
 70
0
 62
7
  6
CONTINUOUS
370
-3
390
F
  0
ENDTAB
  0
TABLE
  2
STYLE
  5
3
100
AcDbSymbolTable
 70
1
  0
STYLE
  5
11
100
AcDbSymbolTableRecord
100
AcDbTextStyleTableRecord
  2
STANDARD
 70
0
 40
0.0
 41
0.8
 50
0.0
 71
0
 42
0.2
  3
txt
  4

  0
ENDTAB
  0
TABLE
  2
VIEW
  5
6
100
AcDbSymbolTable
 70
0
  0
ENDTAB
  0
TABLE
  2
UCS
  5
7
100
AcDbSymbolTable
 70
0
  0
ENDTAB
  0
TABLE
  2
APPID
  5
9
100
AcDbSymbolTable
 70
1
  0
APPID
  5
239
100
AcDbSymbolTableRecord
100
AcDbRegAppTableRecord
  2
ACAD
 70
0
  0
ENDTAB
  0
TABLE
  2
BLOCK_RECORD
  5
1
100
AcDbSymbolTable
 70
0
  0
BLOCK_RECORD
  5
1F
100
AcDbSymbolTableRecord
100
AcDbBlockTableRecord
  2
*MODEL_SPACE
  0
BLOCK_RECORD
  5
1B
100
AcDbSymbolTableRecord
100
AcDbBlockTableRecord
  2
*PAPER_SPACE
  0
ENDTAB
  0
TABLE
  2
DIMSTYLE
  5
A
100
AcDbSymbolTable
 70
1
100
AcDbDimStyleTable
 71
0
  0
DIMSTYLE
105
23A
100
AcDbSymbolTableRecord
100
AcDbDimStyleTableRecord
  2
STANDARD
 70
0
  3

  4

 40
1.0
 41
0.1875
 42
0.0625
 43
0.38
 44
0.18
 45
0.0
 46
0.0
 47
0.01
 48
0.01
140
0.15625
141
0.09
142
0.0
143
25.4
144
1.0
145
0.0
146
1.0
147
0.09
 71
0.0
 72
0.0
 73
1
 74
1
 75
0
 76
0
 77
0
 78
4
170
0
171
2
172
0
173
0
174
0
175
0
176
0
177
0
178
0
270
2
271
2
272
2
273
2
274
2
275
0
280
0
281
0
282
0
283
1
284
4
285
0
286
0
287
3
288
0
340
11
  0
ENDTAB
  0
ENDSEC
  0
SECTION
  2
BLOCKS
  0
BLOCK
  5
20
100
AcDbEntity
  8
0
100
AcDbBlockBegin
  2
*MODEL_SPACE
 70
0
 10
0.0
 20
0.0
 30
0.0
  3
*MODEL_SPACE
  1

  0
ENDBLK
  5
21
100
AcDbEntity
  8
0
100
AcDbBlockEnd
  0
BLOCK
  5
1C
100
AcDbEntity
  8
0
100
AcDbBlockBegin
  2
*PAPER_SPACE
 70
0
 10
0.0
 20
0.0
 30
0.0
  3
*PAPER_SPACE
  1

  0
ENDBLK
  5
1D
100
AcDbEntity
  8
0
100
AcDbBlockEnd
  0
ENDSEC
  0
SECTION
  2
ENTITIES
  0
LINE
  5
23B
100
AcDbEntity
  8
0
100
AcDbLine
 62
7
  6
CONTINUOUS
 10
1.6464110745
 20
3.6405474326
 11
1.6464110745
 21
5.2545474326
  0
LINE
  5
23C
100
AcDbEntity
  8
03__ASM_ALL_CURVES
100
AcDbLine
 62
40
  6
CONTINUOUS
 10
1.6464110745
 20
5.2545474326
 11
1.6464110745
 21
5.7850474326
  0
LINE
  5
23D
100
AcDbEntity
  8
0
100
AcDbLine
 62
7
  6
CONTINUOUS
 10
1.7133837058
 20
3.5245474326
 11
1.7133837058
 21
3.524942774
  0
LINE
  5
23E
100
AcDbEntity
  8
0
100
AcDbLine
 62
7
  6
CONTINUOUS
 10
1.7133837058
 20
3.9628520911
 11
1.7133837058
 21
4.0096381155
  0
LINE
  5
23F
100
AcDbEntity
  8
0
100
AcDbLine
 62
7
  6
CONTINUOUS
 10
1.7133837058
 20
4.8854567497
 11
1.7133837058
 21
4.932242774
  0
LINE
  5
240
100
AcDbEntity
  8
0
100
AcDbLine
 62
7
  6
CONTINUOUS
 10
1.7133837058
 20
5.3701520911
 11
1.7133837058
 21
5.3705474326
  0
LINE
  5
241
100
AcDbEntity
  8
03__ASM_ALL_CURVES
100
AcDbLine
 62
40
  6
CONTINUOUS
 10
1.8160910745
 20
5.7567674326
 11
1.8160910745
 21
5.7002074326
  0
LINE
  5
242
100
AcDbEntity
  8
0
100
AcDbLine
 62
7
  6
CONTINUOUS
 10
1.7133837058
 20
5.3705474326
 11
1.6464110745
 21
5.2545474326
  0
LINE
  5
243
100
AcDbEntity
  8
0
100
AcDbLine
 62
7
  6
CONTINUOUS
 10
1.7133837058
 20
3.5245474326
 11
1.6464110745
 21
3.6405474326
  0
LINE
  5
244
100
AcDbEntity
  8
03__ASM_ALL_CURVES
100
AcDbLine
 62
40
  6
CONTINUOUS
 10
2.5527610745
 20
5.8910974326
 11
2.5439235745
 21
5.8793141021
  0
LINE
  5
245
100
AcDbEntity
  8
03__ASM_ALL_CURVES
100
AcDbLine
 62
40
  6
CONTINUOUS
 10
2.5527610745
 20
5.9028807631
 11
2.5527610745
 21
5.8910974326
  0
LINE
  5
246
100
AcDbEntity
  8
03__ASM_ALL_CURVES
100
AcDbLine
 62
40
  6
CONTINUOUS
 10
2.5615985745
 20
5.8321807673
 11
2.5615985745
 21
5.8203974326
  0
LINE
  5
247
100
AcDbEntity
  8
0
100
AcDbLine
 62
7
  6
CONTINUOUS
 10
2.6544110745
 20
5.4925474326
 11
2.5839743417
 21
5.3705474326
  0
LINE
  5
248
100
AcDbEntity
  8
03__ASM_ALL_CURVES
100
AcDbLine
 62
40
  6
CONTINUOUS
 10
2.5615985745
 20
5.8203974326
 11
2.5439235745
 21
5.7968307663
  0
LINE
  5
249
100
AcDbEntity
  8
0
100
AcDbLine
 62
7
  6
CONTINUOUS
 10
2.5839743417
 20
3.5245474326
 11
2.5839743417
 21
5.3705474326
  0
LINE
  5
24A
100
AcDbEntity
  8
03__ASM_ALL_CURVES
100
AcDbLine
 62
40
  6
CONTINUOUS
 10
2.6499735745
 20
5.7850474326
 11
2.6499735745
 21
5.7968307663
  0
LINE
  5
24B
100
AcDbEntity
  8
0
100
AcDbLine
 62
7
  6
CONTINUOUS
 10
2.6544110745
 20
3.4025474326
 11
2.6544110745
 21
5.4925474326
  0
LINE
  5
24C
100
AcDbEntity
  8
03__ASM_ALL_CURVES
100
AcDbLine
 62
40
  6
CONTINUOUS
 10
2.8002110745
 20
5.9264474326
 11
2.8002110745
 21
5.7850474326
  0
LINE
  5
24D
100
AcDbEntity
  8
03__ASM_ALL_CURVES
100
AcDbLine
 62
40
  6
CONTINUOUS
 10
2.9239360745
 20
5.9264474326
 11
2.9150985745
 21
5.8675307631
  0
LINE
  5
24E
100
AcDbEntity
  8
03__ASM_ALL_CURVES
100
AcDbLine
 62
40
  6
CONTINUOUS
 10
3.0741735745
 20
5.9028807631
 11
3.0653360745
 21
5.8675307631
  0
LINE
  5
24F
100
AcDbEntity
  8
03__ASM_ALL_CURVES
100
AcDbLine
 62
40
  6
CONTINUOUS
 10
2.9857985745
 20
5.8321807673
 11
2.9769610745
 21
5.8086141
  0
LINE
  5
250
100
AcDbEntity
  8
03__ASM_ALL_CURVES
100
AcDbLine
 62
40
  6
CONTINUOUS
 10
2.9769610745
 20
5.8086141
 11
2.9681235745
 21
5.7968307663
  0
LINE
  5
251
100
AcDbEntity
  8
03__ASM_ALL_CURVES
100
AcDbLine
 62
40
  6
CONTINUOUS
 10
3.0918485745
 20
5.9264474326
 11
3.0741735745
 21
5.9028807631
  0
LINE
  5
252
100
AcDbEntity
  8
03__ASM_ALL_CURVES
100
AcDbLine
 62
40
  6
CONTINUOUS
 10
3.1890610745
 20
5.9028807631
 11
3.1978985745
 21
5.9146641021
  0
LINE
  5
253
100
AcDbEntity
  8
03__ASM_ALL_CURVES
100
AcDbLine
 62
40
  6
CONTINUOUS
 10
3.1802235745
 20
5.8321807673
 11
3.1978985745
 21
5.8557474326
  0
LINE
  5
254
100
AcDbEntity
  8
03__ASM_ALL_CURVES
100
AcDbLine
 62
40
  6
CONTINUOUS
 10
3.2597610745
 20
5.8910974326
 11
3.2509235745
 21
5.8793141021
  0
LINE
  5
255
100
AcDbEntity
  8
03__ASM_ALL_CURVES
100
AcDbLine
 62
40
  6
CONTINUOUS
 10
3.2685985745
 20
5.8203974326
 11
3.2509235745
 21
5.7968307663
  0
LINE
  5
256
100
AcDbEntity
  8
03__ASM_ALL_CURVES
100
AcDbLine
 62
40
  6
CONTINUOUS
 10
3.3392985745
 20
5.9028807631
 11
3.3481360745
 21
5.9146641021
  0
LINE
  5
257
100
AcDbEntity
  8
03__ASM_ALL_CURVES
100
AcDbLine
 62
40
  6
CONTINUOUS
 10
2.4908985745
 20
5.9146641021
 11
2.5085735745
 21
5.9264474326
  0
LINE
  5
258
100
AcDbEntity
  8
03__ASM_ALL_CURVES
100
AcDbLine
 62
40
  6
CONTINUOUS
 10
2.5439235745
 20
5.8793141021
 11
2.5262485745
 21
5.8675307631
  0
LINE
  5
259
100
AcDbEntity
  8
03__ASM_ALL_CURVES
100
AcDbLine
 62
40
  6
CONTINUOUS
 10
2.5439235745
 20
5.7968307663
 11
2.5262485745
 21
5.7850474326
  0
LINE
  5
25A
100
AcDbEntity
  8
03__ASM_ALL_CURVES
100
AcDbLine
 62
40
  6
CONTINUOUS
 10
3.1068813988
 20
2.9077099347
 11
3.1135095238
 21
2.8988724305
  0
LINE
  5
25B
100
AcDbEntity
  8
03__ASM_ALL_CURVES
100
AcDbLine
 62
40
  6
CONTINUOUS
 10
3.1731626488
 20
2.8193349329
 11
3.1599063988
 21
2.8370099326
  0
LINE
  5
25C
100
AcDbEntity
  8
0
100
AcDbLine
 62
7
  6
CONTINUOUS
 10
2.6544110745
 20
3.4025474326
 11
2.5839743417
 21
3.5245474326
  0
LINE
  5
25D
100
AcDbEntity
  8
03__ASM_ALL_CURVES
100
AcDbLine
 62
40
  6
CONTINUOUS
 10
3.1101954522
 20
2.7539374326
 11
3.1433360772
 21
2.6478874326
  0
LINE
  5
25E
100
AcDbEntity
  8
0
100
AcDbLine
 62
7
  6
CONTINUOUS
 10
2.9274110745
 20
3.4025474326
 11
2.9274110745
 21
5.4925474326
  0
LINE
  5
25F
100
AcDbEntity
  8
0
100
AcDbLine
 62
7
  6
CONTINUOUS
 10
2.9774110745
 20
3.4025474326
 11
2.9774110745
 21
5.4925474326
  0
LINE
  5
260
100
AcDbEntity
  8
03__ASM_ALL_CURVES
100
AcDbLine
 62
40
  6
CONTINUOUS
 10
3.0604845238
 20
2.8104974326
 11
3.0604845238
 21
2.9165474326
  0
LINE
  5
261
100
AcDbEntity
  8
03__ASM_ALL_CURVES
100
AcDbLine
 62
40
  6
CONTINUOUS
 10
3.0653360745
 20
5.8675307631
 11
3.0653360745
 21
5.8439640979
  0
LINE
  5
262
100
AcDbEntity
  8
0
100
AcDbLine
 62
7
  6
CONTINUOUS
 10
3.0804110745
 20
5.4560474326
 11
3.0804110745
 21
3.4390474326
  0
LINE
  5
263
100
AcDbEntity
  8
0
100
AcDbLine
 62
7
  6
CONTINUOUS
 10
3.1014110745
 20
3.4025474326
 11
3.1014110745
 21
5.4925474326
  0
LINE
  5
264
100
AcDbEntity
  8
03__ASM_ALL_CURVES
100
AcDbLine
 62
40
  6
CONTINUOUS
 10
3.1135095238
 20
2.8988724305
 11
3.1135095238
 21
2.8811974347
  0
LINE
  5
265
100
AcDbEntity
  8
03__ASM_ALL_CURVES
100
AcDbLine
 62
40
  6
CONTINUOUS
 10
3.3304610745
 20
5.8793141021
 11
3.3392985745
 21
5.9028807631
  0
LINE
  5
266
100
AcDbEntity
  8
03__ASM_ALL_CURVES
100
AcDbLine
 62
40
  6
CONTINUOUS
 10
3.4011610745
 20
5.8321807673
 11
3.3923235745
 21
5.8086141
  0
LINE
  5
267
100
AcDbEntity
  8
03__ASM_ALL_CURVES
100
AcDbLine
 62
40
  6
CONTINUOUS
 10
3.3923235745
 20
5.8086141
 11
3.3834860745
 21
5.7968307663
  0
LINE
  5
268
100
AcDbEntity
  8
03__ASM_ALL_CURVES
100
AcDbLine
 62
40
  6
CONTINUOUS
 10
3.6220985745
 20
5.9028807631
 11
3.6309360745
 21
5.9146641021
  0
LINE
  5
269
100
AcDbEntity
  8
03__ASM_ALL_CURVES
100
AcDbLine
 62
40
  6
CONTINUOUS
 10
2.9150985745
 20
5.8675307631
 11
2.9327735745
 21
5.8793141021
  0
LINE
  5
26A
100
AcDbEntity
  8
03__ASM_ALL_CURVES
100
AcDbLine
 62
40
  6
CONTINUOUS
 10
2.9681235745
 20
5.7968307663
 11
2.9504485745
 21
5.7850474326
  0
LINE
  5
26B
100
AcDbEntity
  8
03__ASM_ALL_CURVES
100
AcDbLine
 62
40
  6
CONTINUOUS
 10
3.1978985745
 20
5.9146641021
 11
3.2155735745
 21
5.9264474326
  0
LINE
  5
26C
100
AcDbEntity
  8
03__ASM_ALL_CURVES
100
AcDbLine
 62
40
  6
CONTINUOUS
 10
3.1978985745
 20
5.8557474326
 11
3.2155735745
 21
5.8675307631
  0
LINE
  5
26D
100
AcDbEntity
  8
03__ASM_ALL_CURVES
100
AcDbLine
 62
40
  6
CONTINUOUS
 10
3.2509235745
 20
5.8793141021
 11
3.2332485745
 21
5.8675307631
  0
LINE
  5
26E
100
AcDbEntity
  8
03__ASM_ALL_CURVES
100
AcDbLine
 62
40
  6
CONTINUOUS
 10
3.3481360745
 20
5.9146641021
 11
3.3658110745
 21
5.9264474326
  0
LINE
  5
26F
100
AcDbEntity
  8
03__ASM_ALL_CURVES
100
AcDbLine
 62
40
  6
CONTINUOUS
 10
3.2509235745
 20
5.7968307663
 11
3.2332485745
 21
5.7850474326
  0
LINE
  5
270
100
AcDbEntity
  8
03__ASM_ALL_CURVES
100
AcDbLine
 62
40
  6
CONTINUOUS
 10
3.1864188988
 20
2.8104974326
 11
3.1731626488
 21
2.8193349329
  0
LINE
  5
271
100
AcDbEntity
  8
03__ASM_ALL_CURVES
100
AcDbLine
 62
40
  6
CONTINUOUS
 10
3.0936251488
 20
2.9165474326
 11
3.1068813988
 21
2.9077099347
  0
LINE
  5
272
100
AcDbEntity
  8
03__ASM_ALL_CURVES
100
AcDbLine
 62
40
  6
CONTINUOUS
 10
3.2129313988
 20
2.9077099347
 11
3.2261876488
 21
2.8900349326
  0
LINE
  5
273
100
AcDbEntity
  8
03__ASM_ALL_CURVES
100
AcDbLine
 62
40
  6
CONTINUOUS
 10
3.3189813988
 20
2.9077099347
 11
3.3256095238
 21
2.8988724305
  0
LINE
  5
274
100
AcDbEntity
  8
03__ASM_ALL_CURVES
100
AcDbLine
 62
40
  6
CONTINUOUS
 10
3.6093673225
 20
2.7450999347
 11
3.6159954475
 21
2.7362624305
  0
LINE
  5
275
100
AcDbEntity
  8
03__ASM_ALL_CURVES
100
AcDbLine
 62
40
  6
CONTINUOUS
 10
3.3289235772
 20
2.7539374326
 11
3.3819485772
 21
2.6478874326
  0
LINE
  5
276
100
AcDbEntity
  8
03__ASM_ALL_CURVES
100
AcDbLine
 62
40
  6
CONTINUOUS
 10
3.3057251488
 20
2.8635224326
 11
3.3256095238
 21
2.8104974326
  0
LINE
  5
277
100
AcDbEntity
  8
03__ASM_ALL_CURVES
100
AcDbLine
 62
40
  6
CONTINUOUS
 10
3.1599063988
 20
2.8370099326
 11
3.1532782738
 21
2.8635224326
  0
LINE
  5
278
100
AcDbEntity
  8
03__ASM_ALL_CURVES
100
AcDbLine
 62
40
  6
CONTINUOUS
 10
3.2261876488
 20
2.8900349326
 11
3.2328157738
 21
2.8635224326
  0
LINE
  5
279
100
AcDbEntity
  8
0
100
AcDbLine
 62
7
  6
CONTINUOUS
 10
3.1784110745
 20
3.4025474326
 11
3.1784110745
 21
5.4925474326
  0
LINE
  5
27A
100
AcDbEntity
  8
03__ASM_ALL_CURVES
100
AcDbLine
 62
40
  6
CONTINUOUS
 10
3.1802235745
 20
5.8203974326
 11
3.1802235745
 21
5.8321807673
  0
LINE
  5
27B
100
AcDbEntity
  8
03__ASM_ALL_CURVES
100
AcDbLine
 62
40
  6
CONTINUOUS
 10
3.1890610745
 20
5.8910974326
 11
3.1890610745
 21
5.9028807631
  0
LINE
  5
27C
100
AcDbEntity
  8
03__ASM_ALL_CURVES
100
AcDbLine
 62
40
  6
CONTINUOUS
 10
3.2228735772
 20
2.6478874326
 11
3.2228735772
 21
2.7539374326
  0
LINE
  5
27D
100
AcDbEntity
  8
129-501_FEATURES
100
AcDbLine
 62
7
  6
CONTINUOUS
 10
3.2404762285
 20
3.5100474326
 11
3.2404762285
 21
5.3850474326
  0
LINE
  5
27E
100
AcDbEntity
  8
03__ASM_ALL_CURVES
100
AcDbLine
 62
40
  6
CONTINUOUS
 10
3.2597610745
 20
5.9028807631
 11
3.2597610745
 21
5.8910974326
  0
LINE
  5
27F
100
AcDbEntity
  8
03__ASM_ALL_CURVES
100
AcDbLine
 62
40
  6
CONTINUOUS
 10
3.2685985745
 20
5.8321807673
 11
3.2685985745
 21
5.8203974326
  0
LINE
  5
280
100
AcDbEntity
  8
03__ASM_ALL_CURVES
100
AcDbLine
 62
40
  6
CONTINUOUS
 10
3.2725845238
 20
2.8104974326
 11
3.2725845238
 21
2.9165474326
  0
LINE
  5
281
100
AcDbEntity
  8
03__ASM_ALL_CURVES
100
AcDbLine
 62
40
  6
CONTINUOUS
 10
3.3256095238
 20
2.8988724305
 11
3.3256095238
 21
2.8811974347
  0
LINE
  5
282
100
AcDbEntity
  8
03__ASM_ALL_CURVES
100
AcDbLine
 62
40
  6
CONTINUOUS
 10
3.3289235772
 20
2.6478874326
 11
3.3289235772
 21
2.7539374326
  0
LINE
  5
283
100
AcDbEntity
  8
03__ASM_ALL_CURVES
100
AcDbLine
 62
40
  6
CONTINUOUS
 10
3.3304610745
 20
5.8321807673
 11
3.3304610745
 21
5.8793141021
  0
LINE
  5
284
100
AcDbEntity
  8
03__ASM_ALL_CURVES
100
AcDbLine
 62
40
  6
CONTINUOUS
 10
3.3819485772
 20
2.6478874326
 11
3.3819485772
 21
2.7539374326
  0
LINE
  5
285
100
AcDbEntity
  8
03__ASM_ALL_CURVES
100
AcDbLine
 62
40
  6
CONTINUOUS
 10
3.4011610745
 20
5.8793141021
 11
3.4011610745
 21
5.8321807673
  0
LINE
  5
286
100
AcDbEntity
  8
03__ASM_ALL_CURVES
100
AcDbLine
 62
40
  6
CONTINUOUS
 10
3.4051470238
 20
2.9165474326
 11
3.4051470238
 21
2.8104974326
  0
LINE
  5
287
100
AcDbEntity
  8
03__ASM_ALL_CURVES
100
AcDbLine
 62
40
  6
CONTINUOUS
 10
3.6132610745
 20
5.8793141021
 11
3.6220985745
 21
5.9028807631
  0
LINE
  5
288
100
AcDbEntity
  8
03__ASM_ALL_CURVES
100
AcDbLine
 62
40
  6
CONTINUOUS
 10
3.6839610745
 20
5.8321807673
 11
3.6751235745
 21
5.8086141
  0
LINE
  5
289
100
AcDbEntity
  8
03__ASM_ALL_CURVES
100
AcDbLine
 62
40
  6
CONTINUOUS
 10
3.7546610745
 20
5.8793141021
 11
3.7634985745
 21
5.9028807631
  0
LINE
  5
28A
100
AcDbEntity
  8
03__ASM_ALL_CURVES
100
AcDbLine
 62
40
  6
CONTINUOUS
 10
3.8253610745
 20
5.8321807673
 11
3.8165235745
 21
5.8086141
  0
LINE
  5
28B
100
AcDbEntity
  8
0
100
AcDbLine
 62
7
  6
CONTINUOUS
 10
3.6684110745
 20
5.4770474326
 11
3.6152948498
 21
5.3850474326
  0
LINE
  5
28C
100
AcDbEntity
  8
03__ASM_ALL_CURVES
100
AcDbLine
 62
40
  6
CONTINUOUS
 10
3.6751235745
 20
5.8086141
 11
3.6662860745
 21
5.7968307663
  0
LINE
  5
28D
100
AcDbEntity
  8
03__ASM_ALL_CURVES
100
AcDbLine
 62
40
  6
CONTINUOUS
 10
3.7634985745
 20
5.9028807631
 11
3.7723360745
 21
5.9146641021
  0
LINE
  5
28E
100
AcDbEntity
  8
03__ASM_ALL_CURVES
100
AcDbLine
 62
40
  6
CONTINUOUS
 10
3.8165235745
 20
5.8086141
 11
3.8076860745
 21
5.7968307663
  0
LINE
  5
28F
100
AcDbEntity
  8
03__ASM_ALL_CURVES
100
AcDbLine
 62
40
  6
CONTINUOUS
 10
3.9402485745
 20
5.8086141
 11
3.9225735745
 21
5.7850474326
  0
LINE
  5
290
100
AcDbEntity
  8
03__ASM_ALL_CURVES
100
AcDbLine
 62
40
  6
CONTINUOUS
 10
3.3834860745
 20
5.7968307663
 11
3.3658110745
 21
5.7850474326
  0
LINE
  5
291
100
AcDbEntity
  8
03__ASM_ALL_CURVES
100
AcDbLine
 62
40
  6
CONTINUOUS
 10
3.6309360745
 20
5.9146641021
 11
3.6486110745
 21
5.9264474326
  0
LINE
  5
292
100
AcDbEntity
  8
03__ASM_ALL_CURVES
100
AcDbLine
 62
40
  6
CONTINUOUS
 10
3.7723360745
 20
5.9146641021
 11
3.7900110745
 21
5.9264474326
  0
LINE
  5
293
100
AcDbEntity
  8
03__ASM_ALL_CURVES
100
AcDbLine
 62
40
  6
CONTINUOUS
 10
3.6662860745
 20
5.7968307663
 11
3.6486110745
 21
5.7850474326
  0
LINE
  5
294
100
AcDbEntity
  8
03__ASM_ALL_CURVES
100
AcDbLine
 62
40
  6
CONTINUOUS
 10
3.8076860745
 20
5.7968307663
 11
3.7900110745
 21
5.7850474326
  0
LINE
  5
295
100
AcDbEntity
  8
03__ASM_ALL_CURVES
100
AcDbLine
 62
40
  6
CONTINUOUS
 10
3.1996751488
 20
2.9165474326
 11
3.2129313988
 21
2.9077099347
  0
LINE
  5
296
100
AcDbEntity
  8
03__ASM_ALL_CURVES
100
AcDbLine
 62
40
  6
CONTINUOUS
 10
3.3057251488
 20
2.9165474326
 11
3.3189813988
 21
2.9077099347
  0
LINE
  5
297
100
AcDbEntity
  8
03__ASM_ALL_CURVES
100
AcDbLine
 62
40
  6
CONTINUOUS
 10
3.5961110725
 20
2.7539374326
 11
3.6093673225
 21
2.7450999347
  0
LINE
  5
298
100
AcDbEntity
  8
03__ASM_ALL_CURVES
100
AcDbLine
 62
40
  6
CONTINUOUS
 10
3.7021610725
 20
2.7539374326
 11
3.7154173225
 21
2.7450999347
  0
LINE
  5
299
100
AcDbEntity
  8
03__ASM_ALL_CURVES
100
AcDbLine
 62
40
  6
CONTINUOUS
 10
3.9010048225
 20
2.6478874326
 11
3.8877485725
 21
2.6567249329
  0
LINE
  5
29A
100
AcDbEntity
  8
03__ASM_ALL_CURVES
100
AcDbLine
 62
40
  6
CONTINUOUS
 10
3.7154173225
 20
2.7450999347
 11
3.7220454475
 21
2.7362624305
  0
LINE
  5
29B
100
AcDbEntity
  8
03__ASM_ALL_CURVES
100
AcDbLine
 62
40
  6
CONTINUOUS
 10
3.8877485725
 20
2.6567249329
 11
3.8744923225
 21
2.6743999326
  0
LINE
  5
29C
100
AcDbEntity
  8
03__ASM_ALL_CURVES
100
AcDbLine
 62
40
  6
CONTINUOUS
 10
3.9275173225
 20
2.7450999347
 11
3.9407735725
 21
2.7274249326
  0
LINE
  5
29D
100
AcDbEntity
  8
03__ASM_ALL_CURVES
100
AcDbLine
 62
40
  6
CONTINUOUS
 10
3.7021610725
 20
2.7009124326
 11
3.7220454475
 21
2.6478874326
  0
LINE
  5
29E
100
AcDbEntity
  8
03__ASM_ALL_CURVES
100
AcDbLine
 62
40
  6
CONTINUOUS
 10
3.4614860772
 20
2.7539374326
 11
3.4614860772
 21
2.6478874326
  0
LINE
  5
29F
100
AcDbEntity
  8
03__ASM_ALL_CURVES
100
AcDbLine
 62
40
  6
CONTINUOUS
 10
3.4983735745
 20
5.7850474326
 11
3.4983735745
 21
5.7968307663
  0
LINE
  5
2A0
100
AcDbEntity
  8
03__ASM_ALL_CURVES
100
AcDbLine
 62
40
  6
CONTINUOUS
 10
3.5310813988
 20
2.8104974326
 11
3.5310813988
 21
2.9165474326
  0
LINE
  5
2A1
100
AcDbEntity
  8
03__ASM_ALL_CURVES
100
AcDbLine
 62
40
  6
CONTINUOUS
 10
3.5629704475
 20
2.6478874326
 11
3.5629704475
 21
2.7539374326
  0
LINE
  5
2A2
100
AcDbEntity
  8
03__ASM_ALL_CURVES
100
AcDbLine
 62
40
  6
CONTINUOUS
 10
3.6132610745
 20
5.8321807673
 11
3.6132610745
 21
5.8793141021
  0
LINE
  5
2A3
100
AcDbEntity
  8
0
100
AcDbLine
 62
7
  6
CONTINUOUS
 10
3.6152948498
 20
3.5100474326
 11
3.6152948498
 21
5.3850474326
  0
LINE
  5
2A4
100
AcDbEntity
  8
03__ASM_ALL_CURVES
100
AcDbLine
 62
40
  6
CONTINUOUS
 10
3.6159954475
 20
2.7362624305
 11
3.6159954475
 21
2.7185874347
  0
LINE
  5
2A5
100
AcDbEntity
  8
0
100
AcDbLine
 62
7
  6
CONTINUOUS
 10
3.6684110745
 20
3.4180474326
 11
3.6684110745
 21
5.4770474326
  0
LINE
  5
2A6
100
AcDbEntity
  8
03__ASM_ALL_CURVES
100
AcDbLine
 62
40
  6
CONTINUOUS
 10
3.6690204475
 20
2.6478874326
 11
3.6690204475
 21
2.7539374326
  0
LINE
  5
2A7
100
AcDbEntity
  8
03__ASM_ALL_CURVES
100
AcDbLine
 62
40
  6
CONTINUOUS
 10
3.6839610745
 20
5.8793141021
 11
3.6839610745
 21
5.8321807673
  0
LINE
  5
2A8
100
AcDbEntity
  8
03__ASM_ALL_CURVES
100
AcDbLine
 62
40
  6
CONTINUOUS
 10
3.7220454475
 20
2.7362624305
 11
3.7220454475
 21
2.7185874347
  0
LINE
  5
2A9
100
AcDbEntity
  8
0
100
AcDbLine
 62
7
  6
CONTINUOUS
 10
3.7404110745
 20
3.4025474326
 11
3.7404110745
 21
5.4925474326
  0
LINE
  5
2AA
100
AcDbEntity
  8
03__ASM_ALL_CURVES
100
AcDbLine
 62
40
  6
CONTINUOUS
 10
3.7546610745
 20
5.8321807673
 11
3.7546610745
 21
5.8793141021
  0
LINE
  5
2AB
100
AcDbEntity
  8
03__ASM_ALL_CURVES
100
AcDbLine
 62
40
  6
CONTINUOUS
 10
3.1532782738
 20
2.8635224326
 11
3.1599063988
 21
2.8900349326
  0
LINE
  5
2AC
100
AcDbEntity
  8
03__ASM_ALL_CURVES
100
AcDbLine
 62
40
  6
CONTINUOUS
 10
3.9490860745
 20
5.8439640979
 11
3.9402485745
 21
5.8086141
  0
LINE
  5
2AD
100
AcDbEntity
  8
03__ASM_ALL_CURVES
100
AcDbLine
 62
40
  6
CONTINUOUS
 10
3.2328157738
 20
2.8635224326
 11
3.2261876488
 21
2.8370099326
  0
LINE
  5
2AE
100
AcDbEntity
  8
03__ASM_ALL_CURVES
100
AcDbLine
 62
40
  6
CONTINUOUS
 10
3.1433360772
 20
2.6478874326
 11
3.1764767022
 21
2.7539374326
  0
LINE
  5
2AF
100
AcDbEntity
  8
03__ASM_ALL_CURVES
100
AcDbLine
 62
40
  6
CONTINUOUS
 10
3.9142610725
 20
2.7539374326
 11
3.9275173225
 21
2.7450999347
  0
LINE
  5
2B0
100
AcDbEntity
  8
03__ASM_ALL_CURVES
100
AcDbLine
 62
40
  6
CONTINUOUS
 10
4.0203110725
 20
2.7539374326
 11
4.0335673225
 21
2.7450999347
  0
LINE
  5
2B1
100
AcDbEntity
  8
03__ASM_ALL_CURVES
100
AcDbLine
 62
40
  6
CONTINUOUS
 10
4.1164188932
 20
2.8104974326
 11
4.1031626432
 21
2.8193349329
  0
LINE
  5
2B2
100
AcDbEntity
  8
03__ASM_ALL_CURVES
100
AcDbLine
 62
40
  6
CONTINUOUS
 10
4.0236251432
 20
2.9165474326
 11
4.0368813932
 21
2.9077099347
  0
LINE
  5
2B3
100
AcDbEntity
  8
03__ASM_ALL_CURVES
100
AcDbLine
 62
40
  6
CONTINUOUS
 10
4.1296751432
 20
2.9165474326
 11
4.1429313932
 21
2.9077099347
  0
LINE
  5
2B4
100
AcDbEntity
  8
03__ASM_ALL_CURVES
100
AcDbLine
 62
40
  6
CONTINUOUS
 10
4.0335673225
 20
2.7450999347
 11
4.0401954475
 21
2.7362624305
  0
LINE
  5
2B5
100
AcDbEntity
  8
03__ASM_ALL_CURVES
100
AcDbLine
 62
40
  6
CONTINUOUS
 10
4.0368813932
 20
2.9077099347
 11
4.0435095182
 21
2.8988724305
  0
LINE
  5
2B6
100
AcDbEntity
  8
03__ASM_ALL_CURVES
100
AcDbLine
 62
40
  6
CONTINUOUS
 10
4.1031626432
 20
2.8193349329
 11
4.0899063932
 21
2.8370099326
  0
LINE
  5
2B7
100
AcDbEntity
  8
03__ASM_ALL_CURVES
100
AcDbLine
 62
40
  6
CONTINUOUS
 10
4.1429313932
 20
2.9077099347
 11
4.1561876432
 21
2.8900349326
  0
LINE
  5
2B8
100
AcDbEntity
  8
03__ASM_ALL_CURVES
100
AcDbLine
 62
40
  6
CONTINUOUS
 10
4.2489813932
 20
2.9077099347
 11
4.2556095182
 21
2.8988724305
  0
LINE
  5
2B9
100
AcDbEntity
  8
0
100
AcDbLine
 62
7
  6
CONTINUOUS
 10
3.6684110745
 20
3.4180474326
 11
3.6152948498
 21
3.5100474326
  0
LINE
  5
2BA
100
AcDbEntity
  8
03__ASM_ALL_CURVES
100
AcDbLine
 62
40
  6
CONTINUOUS
 10
4.0203110725
 20
2.7009124326
 11
4.0401954475
 21
2.6478874326
  0
LINE
  5
2BB
100
AcDbEntity
  8
03__ASM_ALL_CURVES
100
AcDbLine
 62
40
  6
CONTINUOUS
 10
2.9769610745
 20
5.8557474326
 11
2.9857985745
 21
5.8321807673
  0
LINE
  5
2BC
100
AcDbEntity
  8
03__ASM_ALL_CURVES
100
AcDbLine
 62
40
  6
CONTINUOUS
 10
3.0653360745
 20
5.8439640979
 11
3.0741735745
 21
5.8086141
  0
LINE
  5
2BD
100
AcDbEntity
  8
03__ASM_ALL_CURVES
100
AcDbLine
 62
40
  6
CONTINUOUS
 10
3.8744923225
 20
2.6743999326
 11
3.8678641975
 21
2.7009124326
  0
LINE
  5
2BE
100
AcDbEntity
  8
03__ASM_ALL_CURVES
100
AcDbLine
 62
40
  6
CONTINUOUS
 10
3.9407735725
 20
2.7274249326
 11
3.9474016975
 21
2.7009124326
  0
LINE
  5
2BF
100
AcDbEntity
  8
0
100
AcDbLine
 62
7
  6
CONTINUOUS
 10
3.7904110745
 20
3.4025474326
 11
3.7904110745
 21
5.4925474326
  0
LINE
  5
2C0
100
AcDbEntity
  8
03__ASM_ALL_CURVES
100
AcDbLine
 62
40
  6
CONTINUOUS
 10
3.8015829475
 20
2.7539374326
 11
3.8015829475
 21
2.6478874326
  0
LINE
  5
2C1
100
AcDbEntity
  8
03__ASM_ALL_CURVES
100
AcDbLine
 62
40
  6
CONTINUOUS
 10
3.8253610745
 20
5.8793141021
 11
3.8253610745
 21
5.8321807673
  0
LINE
  5
2C2
100
AcDbEntity
  8
0
100
AcDbLine
 62
7
  6
CONTINUOUS
 10
3.8934110745
 20
3.4025474326
 11
3.8934110745
 21
5.4925474326
  0
LINE
  5
2C3
100
AcDbEntity
  8
0
100
AcDbLine
 62
7
  6
CONTINUOUS
 10
3.9434110745
 20
3.4025474326
 11
3.9434110745
 21
5.4925474326
  0
LINE
  5
2C4
100
AcDbEntity
  8
03__ASM_ALL_CURVES
100
AcDbLine
 62
40
  6
CONTINUOUS
 10
3.9490860745
 20
5.8675307631
 11
3.9490860745
 21
5.8439640979
  0
LINE
  5
2C5
100
AcDbEntity
  8
0
100
AcDbLine
 62
7
  6
CONTINUOUS
 10
3.9784110745
 20
3.4180474326
 11
3.9784110745
 21
5.4770474326
  0
LINE
  5
2C6
100
AcDbEntity
  8
03__ASM_ALL_CURVES
100
AcDbLine
 62
40
  6
CONTINUOUS
 10
3.9871704475
 20
2.6478874326
 11
3.9871704475
 21
2.7539374326
  0
LINE
  5
2C7
100
AcDbEntity
  8
03__ASM_ALL_CURVES
100
AcDbLine
 62
40
  6
CONTINUOUS
 10
3.9904845182
 20
2.8104974326
 11
3.9904845182
 21
2.9165474326
  0
LINE
  5
2C8
100
AcDbEntity
  8
03__ASM_ALL_CURVES
100
AcDbLine
 62
40
  6
CONTINUOUS
 10
4.0401954475
 20
2.7362624305
 11
4.0401954475
 21
2.7185874347
  0
LINE
  5
2C9
100
AcDbEntity
  8
03__ASM_ALL_CURVES
100
AcDbLine
 62
40
  6
CONTINUOUS
 10
4.0435095182
 20
2.8988724305
 11
4.0435095182
 21
2.8811974347
  0
LINE
  5
2CA
100
AcDbEntity
  8
0
100
AcDbLine
 62
7
  6
CONTINUOUS
 10
4.0504110745
 20
3.4180474326
 11
4.0504110745
 21
5.4770474326
  0
LINE
  5
2CB
100
AcDbEntity
  8
0
100
AcDbLine
 62
7
  6
CONTINUOUS
 10
3.2404762285
 20
3.5100474326
 11
3.1784110745
 21
3.4025474326
  0
LINE
  5
2CC
100
AcDbEntity
  8
03__ASM_ALL_CURVES
100
AcDbLine
 62
40
  6
CONTINUOUS
 10
4.2357251432
 20
2.9165474326
 11
4.2489813932
 21
2.9077099347
  0
LINE
  5
2CD
100
AcDbEntity
  8
03__ASM_ALL_CURVES
100
AcDbLine
 62
40
  6
CONTINUOUS
 10
4.4345688932
 20
2.8104974326
 11
4.4213126432
 21
2.8193349329
  0
LINE
  5
2CE
100
AcDbEntity
  8
03__ASM_ALL_CURVES
100
AcDbLine
 62
40
  6
CONTINUOUS
 10
4.7494048225
 20
2.6478874326
 11
4.7361485725
 21
2.6567249329
  0
LINE
  5
2CF
100
AcDbEntity
  8
03__ASM_ALL_CURVES
100
AcDbLine
 62
40
  6
CONTINUOUS
 10
4.4478251432
 20
2.8723599305
 11
4.4610813932
 21
2.8635224326
  0
LINE
  5
2D0
100
AcDbEntity
  8
03__ASM_ALL_CURVES
100
AcDbLine
 62
40
  6
CONTINUOUS
 10
4.4478251432
 20
2.9165474326
 11
4.4610813932
 21
2.9077099347
  0
LINE
  5
2D1
100
AcDbEntity
  8
03__ASM_ALL_CURVES
100
AcDbLine
 62
40
  6
CONTINUOUS
 10
4.7626610725
 20
2.7539374326
 11
4.7759173225
 21
2.7450999347
  0
LINE
  5
2D2
100
AcDbEntity
  8
03__ASM_ALL_CURVES
100
AcDbLine
 62
40
  6
CONTINUOUS
 10
4.4213126432
 20
2.8193349329
 11
4.4146845182
 21
2.8281724331
  0
LINE
  5
2D3
100
AcDbEntity
  8
03__ASM_ALL_CURVES
100
AcDbLine
 62
40
  6
CONTINUOUS
 10
4.4610813932
 20
2.8635224326
 11
4.4743376432
 21
2.8458474336
  0
LINE
  5
2D4
100
AcDbEntity
  8
03__ASM_ALL_CURVES
100
AcDbLine
 62
40
  6
CONTINUOUS
 10
4.4610813932
 20
2.9077099347
 11
4.4677095182
 21
2.8988724305
  0
LINE
  5
2D5
100
AcDbEntity
  8
03__ASM_ALL_CURVES
100
AcDbLine
 62
40
  6
CONTINUOUS
 10
4.7361485725
 20
2.6567249329
 11
4.7228923225
 21
2.6743999326
  0
LINE
  5
2D6
100
AcDbEntity
  8
03__ASM_ALL_CURVES
100
AcDbLine
 62
40
  6
CONTINUOUS
 10
4.3053204475
 20
2.7539374326
 11
4.3318329475
 21
2.7009124326
  0
LINE
  5
2D7
100
AcDbEntity
  8
03__ASM_ALL_CURVES
100
AcDbLine
 62
40
  6
CONTINUOUS
 10
4.2357251432
 20
2.8635224326
 11
4.2556095182
 21
2.8104974326
  0
LINE
  5
2D8
100
AcDbEntity
  8
03__ASM_ALL_CURVES
100
AcDbLine
 62
40
  6
CONTINUOUS
 10
3.3392985745
 20
5.8086141
 11
3.3304610745
 21
5.8321807673
  0
LINE
  5
2D9
100
AcDbEntity
  8
03__ASM_ALL_CURVES
100
AcDbLine
 62
40
  6
CONTINUOUS
 10
4.0899063932
 20
2.8370099326
 11
4.0832782682
 21
2.8635224326
  0
LINE
  5
2DA
100
AcDbEntity
  8
03__ASM_ALL_CURVES
100
AcDbLine
 62
40
  6
CONTINUOUS
 10
4.1561876432
 20
2.8900349326
 11
4.1628157682
 21
2.8635224326
  0
LINE
  5
2DB
100
AcDbEntity
  8
03__ASM_ALL_CURVES
100
AcDbLine
 62
40
  6
CONTINUOUS
 10
4.1197329475
 20
2.7539374326
 11
4.1197329475
 21
2.6478874326
  0
LINE
  5
2DC
100
AcDbEntity
  8
0
100
AcDbLine
 62
7
  6
CONTINUOUS
 10
4.1217138328
 20
3.5415474326
 11
4.1217138328
 21
5.3535474326
  0
LINE
  5
2DD
100
AcDbEntity
  8
03__ASM_ALL_CURVES
100
AcDbLine
 62
40
  6
CONTINUOUS
 10
4.2025845182
 20
2.8104974326
 11
4.2025845182
 21
2.9165474326
  0
LINE
  5
2DE
100
AcDbEntity
  8
03__ASM_ALL_CURVES
100
AcDbLine
 62
40
  6
CONTINUOUS
 10
4.2257829475
 20
2.7539374326
 11
4.2257829475
 21
2.6478874326
  0
LINE
  5
2DF
100
AcDbEntity
  8
03__ASM_ALL_CURVES
100
AcDbLine
 62
40
  6
CONTINUOUS
 10
4.2556095182
 20
2.8988724305
 11
4.2556095182
 21
2.8811974347
  0
LINE
  5
2E0
100
AcDbEntity
  8
03__ASM_ALL_CURVES
100
AcDbLine
 62
40
  6
CONTINUOUS
 10
4.3318329475
 20
2.7009124326
 11
4.3318329475
 21
2.6478874326
  0
LINE
  5
2E1
100
AcDbEntity
  8
03__ASM_ALL_CURVES
100
AcDbLine
 62
40
  6
CONTINUOUS
 10
4.3351470182
 20
2.9165474326
 11
4.3351470182
 21
2.8104974326
  0
LINE
  5
2E2
100
AcDbEntity
  8
03__ASM_ALL_CURVES
100
AcDbLine
 62
40
  6
CONTINUOUS
 10
3.8678641975
 20
2.7009124326
 11
3.8744923225
 21
2.7274249326
  0
LINE
  5
2E3
100
AcDbEntity
  8
0
100
AcDbLine
 62
7
  6
CONTINUOUS
 10
4.6804110745
 20
5.4750474326
 11
4.6102630168
 21
5.3535474326
  0
LINE
  5
2E4
100
AcDbEntity
  8
03__ASM_ALL_CURVES
100
AcDbLine
 62
40
  6
CONTINUOUS
 10
5.1612135759
 20
5.8910974326
 11
5.1788885759
 21
5.9146641021
  0
LINE
  5
2E5
100
AcDbEntity
  8
03__ASM_ALL_CURVES
100
AcDbLine
 62
40
  6
CONTINUOUS
 10
5.1788885759
 20
5.9146641021
 11
5.1965635759
 21
5.9264474326
  0
LINE
  5
2E6
100
AcDbEntity
  8
03__ASM_ALL_CURVES
100
AcDbLine
 62
40
  6
CONTINUOUS
 10
5.3202885759
 20
5.9146641021
 11
5.3379635759
 21
5.9264474326
  0
LINE
  5
2E7
100
AcDbEntity
  8
03__ASM_ALL_CURVES
100
AcDbLine
 62
40
  6
CONTINUOUS
 10
5.2319135759
 20
5.7968307663
 11
5.2142385759
 21
5.7850474326
  0
LINE
  5
2E8
100
AcDbEntity
  8
03__ASM_ALL_CURVES
100
AcDbLine
 62
40
  6
CONTINUOUS
 10
5.3733135759
 20
5.7968307663
 11
5.3556385759
 21
5.7850474326
  0
LINE
  5
2E9
100
AcDbEntity
  8
03__ASM_ALL_CURVES
100
AcDbLine
 62
40
  6
CONTINUOUS
 10
6.8299251332
 20
2.6478874326
 11
6.8166688832
 21
2.6478874326
  0
LINE
  5
2EA
100
AcDbEntity
  8
03__ASM_ALL_CURVES
100
AcDbLine
 62
40
  6
CONTINUOUS
 10
6.4057251332
 20
2.6478874326
 11
6.3924688832
 21
2.6478874326
  0
LINE
  5
2EB
100
AcDbEntity
  8
03__ASM_ALL_CURVES
100
AcDbLine
 62
40
  6
CONTINUOUS
 10
6.2996751332
 20
2.6478874326
 11
6.2864188832
 21
2.6478874326
  0
LINE
  5
2EC
100
AcDbEntity
  8
03__ASM_ALL_CURVES
100
AcDbLine
 62
40
  6
CONTINUOUS
 10
4.7626610725
 20
2.6478874326
 11
4.7494048225
 21
2.6478874326
  0
LINE
  5
2ED
100
AcDbEntity
  8
03__ASM_ALL_CURVES
100
AcDbLine
 62
40
  6
CONTINUOUS
 10
3.9142610725
 20
2.6478874326
 11
3.9010048225
 21
2.6478874326
  0
LINE
  5
2EE
100
AcDbEntity
  8
03__ASM_ALL_CURVES
100
AcDbLine
 62
40
  6
CONTINUOUS
 10
3.2758985772
 20
2.6478874326
 11
3.2228735772
 21
2.6478874326
  0
LINE
  5
2EF
100
AcDbEntity
  8
03__ASM_ALL_CURVES
100
AcDbLine
 62
40
  6
CONTINUOUS
 10
4.6234704475
 20
2.6478874326
 11
4.6764954475
 21
2.6478874326
  0
LINE
  5
2F0
100
AcDbEntity
  8
03__ASM_ALL_CURVES
100
AcDbLine
 62
40
  6
CONTINUOUS
 10
5.8357063832
 20
2.6478874326
 11
5.8821032582
 21
2.6478874326
  0
LINE
  5
2F1
100
AcDbEntity
  8
03__ASM_ALL_CURVES
100
AcDbLine
 62
40
  6
CONTINUOUS
 10
6.6907345082
 20
2.6478874326
 11
6.7437595082
 21
2.6478874326
  0
LINE
  5
2F2
100
AcDbEntity
  8
03__ASM_ALL_CURVES
100
AcDbLine
 62
40
  6
CONTINUOUS
 10
6.1671126332
 20
2.6832374336
 11
6.2068813832
 21
2.6832374336
  0
LINE
  5
2F3
100
AcDbEntity
  8
03__ASM_ALL_CURVES
100
AcDbLine
 62
40
  6
CONTINUOUS
 10
6.0875751332
 20
2.7009124326
 11
6.0544345082
 21
2.7009124326
  0
LINE
  5
2F4
100
AcDbEntity
  8
03__ASM_ALL_CURVES
100
AcDbLine
 62
40
  6
CONTINUOUS
 10
4.0203110725
 20
2.7009124326
 11
3.9871704475
 21
2.7009124326
  0
LINE
  5
2F5
100
AcDbEntity
  8
03__ASM_ALL_CURVES
100
AcDbLine
 62
40
  6
CONTINUOUS
 10
3.7021610725
 20
2.7009124326
 11
3.6690204475
 21
2.7009124326
  0
LINE
  5
2F6
100
AcDbEntity
  8
03__ASM_ALL_CURVES
100
AcDbLine
 62
40
  6
CONTINUOUS
 10
3.5961110725
 20
2.7009124326
 11
3.5629704475
 21
2.7009124326
  0
LINE
  5
2F7
100
AcDbEntity
  8
03__ASM_ALL_CURVES
100
AcDbLine
 62
40
  6
CONTINUOUS
 10
3.2228735772
 20
2.7009124326
 11
3.2560142022
 21
2.7009124326
  0
LINE
  5
2F8
100
AcDbEntity
  8
03__ASM_ALL_CURVES
100
AcDbLine
 62
40
  6
CONTINUOUS
 10
4.5174204475
 20
2.7009124326
 11
4.5505610725
 21
2.7009124326
  0
LINE
  5
2F9
100
AcDbEntity
  8
03__ASM_ALL_CURVES
100
AcDbLine
 62
40
  6
CONTINUOUS
 10
6.5846845082
 20
2.7009124326
 11
6.6178251332
 21
2.7009124326
  0
LINE
  5
2FA
100
AcDbEntity
  8
03__ASM_ALL_CURVES
100
AcDbLine
 62
40
  6
CONTINUOUS
 10
5.8357063832
 20
2.7097499305
 11
5.8821032582
 21
2.7097499305
  0
LINE
  5
2FB
100
AcDbEntity
  8
03__ASM_ALL_CURVES
100
AcDbLine
 62
40
  6
CONTINUOUS
 10
6.4057251332
 20
2.7539374326
 11
6.3924688832
 21
2.7539374326
  0
LINE
  5
2FC
100
AcDbEntity
  8
03__ASM_ALL_CURVES
100
AcDbLine
 62
40
  6
CONTINUOUS
 10
6.2996751332
 20
2.7539374326
 11
6.2864188832
 21
2.7539374326
  0
LINE
  5
2FD
100
AcDbEntity
  8
03__ASM_ALL_CURVES
100
AcDbLine
 62
40
  6
CONTINUOUS
 10
5.8821032582
 20
2.7539374326
 11
5.8357063832
 21
2.7539374326
  0
LINE
  5
2FE
100
AcDbEntity
  8
03__ASM_ALL_CURVES
100
AcDbLine
 62
40
  6
CONTINUOUS
 10
3.2228735772
 20
2.7539374326
 11
3.2758985772
 21
2.7539374326
  0
LINE
  5
2FF
100
AcDbEntity
  8
03__ASM_ALL_CURVES
100
AcDbLine
 62
40
  6
CONTINUOUS
 10
3.4283454522
 20
2.7539374326
 11
3.4946267022
 21
2.7539374326
  0
LINE
  5
300
100
AcDbEntity
  8
03__ASM_ALL_CURVES
100
AcDbLine
 62
40
  6
CONTINUOUS
 10
3.5629704475
 20
2.7539374326
 11
3.5961110725
 21
2.7539374326
  0
LINE
  5
301
100
AcDbEntity
  8
03__ASM_ALL_CURVES
100
AcDbLine
 62
40
  6
CONTINUOUS
 10
3.6690204475
 20
2.7539374326
 11
3.7021610725
 21
2.7539374326
  0
LINE
  5
302
100
AcDbEntity
  8
03__ASM_ALL_CURVES
100
AcDbLine
 62
40
  6
CONTINUOUS
 10
3.9010048225
 20
2.7539374326
 11
3.9142610725
 21
2.7539374326
  0
LINE
  5
303
100
AcDbEntity
  8
03__ASM_ALL_CURVES
100
AcDbLine
 62
40
  6
CONTINUOUS
 10
3.9871704475
 20
2.7539374326
 11
4.0203110725
 21
2.7539374326
  0
LINE
  5
304
100
AcDbEntity
  8
03__ASM_ALL_CURVES
100
AcDbLine
 62
40
  6
CONTINUOUS
 10
4.1926423225
 20
2.7539374326
 11
4.2589235725
 21
2.7539374326
  0
LINE
  5
305
100
AcDbEntity
  8
03__ASM_ALL_CURVES
100
AcDbLine
 62
40
  6
CONTINUOUS
 10
4.5174204475
 20
2.7539374326
 11
4.5704454475
 21
2.7539374326
  0
LINE
  5
306
100
AcDbEntity
  8
03__ASM_ALL_CURVES
100
AcDbLine
 62
40
  6
CONTINUOUS
 10
4.7494048225
 20
2.7539374326
 11
4.7626610725
 21
2.7539374326
  0
LINE
  5
307
100
AcDbEntity
  8
03__ASM_ALL_CURVES
100
AcDbLine
 62
40
  6
CONTINUOUS
 10
6.0544345082
 20
2.7539374326
 11
6.0875751332
 21
2.7539374326
  0
LINE
  5
308
100
AcDbEntity
  8
03__ASM_ALL_CURVES
100
AcDbLine
 62
40
  6
CONTINUOUS
 10
6.5846845082
 20
2.7539374326
 11
6.6377095082
 21
2.7539374326
  0
LINE
  5
309
100
AcDbEntity
  8
03__ASM_ALL_CURVES
100
AcDbLine
 62
40
  6
CONTINUOUS
 10
6.8166688832
 20
2.7539374326
 11
6.8299251332
 21
2.7539374326
  0
LINE
  5
30A
100
AcDbEntity
  8
03__ASM_ALL_CURVES
100
AcDbLine
 62
40
  6
CONTINUOUS
 10
6.302989167
 20
2.8104974326
 11
6.289732917
 21
2.8104974326
  0
LINE
  5
30B
100
AcDbEntity
  8
03__ASM_ALL_CURVES
100
AcDbLine
 62
40
  6
CONTINUOUS
 10
4.4478251432
 20
2.8104974326
 11
4.4345688932
 21
2.8104974326
  0
LINE
  5
30C
100
AcDbEntity
  8
03__ASM_ALL_CURVES
100
AcDbLine
 62
40
  6
CONTINUOUS
 10
4.1296751432
 20
2.8104974326
 11
4.1164188932
 21
2.8104974326
  0
LINE
  5
30D
100
AcDbEntity
  8
03__ASM_ALL_CURVES
100
AcDbLine
 62
40
  6
CONTINUOUS
 10
3.1996751488
 20
2.8104974326
 11
3.1864188988
 21
2.8104974326
  0
LINE
  5
30E
100
AcDbEntity
  8
03__ASM_ALL_CURVES
100
AcDbLine
 62
40
  6
CONTINUOUS
 10
6.587998542
 20
2.8104974326
 11
6.641023542
 21
2.8104974326
  0
LINE
  5
30F
100
AcDbEntity
  8
03__ASM_ALL_CURVES
100
AcDbLine
 62
40
  6
CONTINUOUS
 10
3.4846845238
 20
2.8370099326
 11
3.5443376488
 21
2.8370099326
  0
LINE
  5
310
100
AcDbEntity
  8
03__ASM_ALL_CURVES
100
AcDbLine
 62
40
  6
CONTINUOUS
 10
4.7759173225
 20
2.7450999347
 11
4.7891735725
 21
2.7274249326
  0
LINE
  5
311
100
AcDbEntity
  8
03__ASM_ALL_CURVES
100
AcDbLine
 62
40
  6
CONTINUOUS
 10
2.4908985745
 20
5.7968307663
 11
2.4820610745
 21
5.8086141
  0
LINE
  5
312
100
AcDbEntity
  8
03__ASM_ALL_CURVES
100
AcDbLine
 62
40
  6
CONTINUOUS
 10
2.5439235745
 20
5.8557474326
 11
2.5615985745
 21
5.8321807673
  0
LINE
  5
313
100
AcDbEntity
  8
03__ASM_ALL_CURVES
100
AcDbLine
 62
40
  6
CONTINUOUS
 10
2.5439235745
 20
5.9146641021
 11
2.5527610745
 21
5.9028807631
  0
LINE
  5
314
100
AcDbEntity
  8
03__ASM_ALL_CURVES
100
AcDbLine
 62
40
  6
CONTINUOUS
 10
2.6499735745
 20
5.7968307663
 11
2.6588110745
 21
5.7850474326
  0
LINE
  5
315
100
AcDbEntity
  8
0
100
AcDbLine
 62
7
  6
CONTINUOUS
 10
3.2404762285
 20
5.3850474326
 11
3.1784110745
 21
5.4925474326
  0
LINE
  5
316
100
AcDbEntity
  8
03__ASM_ALL_CURVES
100
AcDbLine
 62
40
  6
CONTINUOUS
 10
3.3923235745
 20
5.9028807631
 11
3.4011610745
 21
5.8793141021
  0
LINE
  5
317
100
AcDbEntity
  8
03__ASM_ALL_CURVES
100
AcDbLine
 62
40
  6
CONTINUOUS
 10
3.6220985745
 20
5.8086141
 11
3.6132610745
 21
5.8321807673
  0
LINE
  5
318
100
AcDbEntity
  8
03__ASM_ALL_CURVES
100
AcDbLine
 62
40
  6
CONTINUOUS
 10
4.4677095182
 20
2.8988724305
 11
4.4677095182
 21
2.8900349326
  0
LINE
  5
319
100
AcDbEntity
  8
03__ASM_ALL_CURVES
100
AcDbLine
 62
40
  6
CONTINUOUS
 10
4.4743376432
 20
2.8458474336
 11
4.4743376432
 21
2.8370099326
  0
LINE
  5
31A
100
AcDbEntity
  8
03__ASM_ALL_CURVES
100
AcDbLine
 62
40
  6
CONTINUOUS
 10
4.5174204475
 20
2.6478874326
 11
4.5174204475
 21
2.7539374326
  0
LINE
  5
31B
100
AcDbEntity
  8
0
100
AcDbLine
 62
7
  6
CONTINUOUS
 10
4.6102630168
 20
3.5415474326
 11
4.6102630168
 21
5.3535474326
  0
LINE
  5
31C
100
AcDbEntity
  8
03__ASM_ALL_CURVES
100
AcDbLine
 62
40
  6
CONTINUOUS
 10
4.6234704475
 20
2.7539374326
 11
4.6234704475
 21
2.6478874326
  0
LINE
  5
31D
100
AcDbEntity
  8
03__ASM_ALL_CURVES
100
AcDbLine
 62
40
  6
CONTINUOUS
 10
4.6327310745
 20
5.7567674326
 11
4.6327310745
 21
5.7002074326
  0
LINE
  5
31E
100
AcDbEntity
  8
03__ASM_ALL_CURVES
100
AcDbLine
 62
40
  6
CONTINUOUS
 10
3.9474016975
 20
2.7009124326
 11
3.9407735725
 21
2.6743999326
  0
LINE
  5
31F
100
AcDbEntity
  8
03__ASM_ALL_CURVES
100
AcDbLine
 62
40
  6
CONTINUOUS
 10
4.0832782682
 20
2.8635224326
 11
4.0899063932
 21
2.8900349326
  0
LINE
  5
320
100
AcDbEntity
  8
03__ASM_ALL_CURVES
100
AcDbLine
 62
40
  6
CONTINUOUS
 10
4.1628157682
 20
2.8635224326
 11
4.1561876432
 21
2.8370099326
  0
LINE
  5
321
100
AcDbEntity
  8
THREAD
100
AcDbLine
 62
7
  6
CONTINUOUS
 10
5.0534332885
 20
5.3890474326
 11
5.0234110745
 21
5.3370474326
  0
LINE
  5
322
100
AcDbEntity
  8
03__ASM_ALL_CURVES
100
AcDbLine
 62
40
  6
CONTINUOUS
 10
3.5310813988
 20
2.9165474326
 11
3.4846845238
 21
2.8370099326
  0
LINE
  5
323
100
AcDbEntity
  8
03__ASM_ALL_CURVES
100
AcDbLine
 62
40
  6
CONTINUOUS
 10
5.2495885759
 20
5.8203974326
 11
5.2319135759
 21
5.7968307663
  0
LINE
  5
324
100
AcDbEntity
  8
03__ASM_ALL_CURVES
100
AcDbLine
 62
40
  6
CONTINUOUS
 10
5.3026135759
 20
5.8910974326
 11
5.3202885759
 21
5.9146641021
  0
LINE
  5
325
100
AcDbEntity
  8
03__ASM_ALL_CURVES
100
AcDbLine
 62
40
  6
CONTINUOUS
 10
3.1135095238
 20
2.8811974347
 11
3.1068813988
 21
2.8723599305
  0
LINE
  5
326
100
AcDbEntity
  8
03__ASM_ALL_CURVES
100
AcDbLine
 62
40
  6
CONTINUOUS
 10
3.1599063988
 20
2.8900349326
 11
3.1731626488
 21
2.9077099347
  0
LINE
  5
327
100
AcDbEntity
  8
03__ASM_ALL_CURVES
100
AcDbLine
 62
40
  6
CONTINUOUS
 10
5.3821510759
 20
5.8086141
 11
5.3733135759
 21
5.7968307663
  0
LINE
  5
328
100
AcDbEntity
  8
03__ASM_ALL_CURVES
100
AcDbLine
 62
40
  6
CONTINUOUS
 10
3.2261876488
 20
2.8370099326
 11
3.2129313988
 21
2.8193349329
  0
LINE
  5
329
100
AcDbEntity
  8
03__ASM_ALL_CURVES
100
AcDbLine
 62
40
  6
CONTINUOUS
 10
6.0272885759
 20
5.9146641021
 11
6.0449635759
 21
5.9264474326
  0
LINE
  5
32A
100
AcDbEntity
  8
03__ASM_ALL_CURVES
100
AcDbLine
 62
40
  6
CONTINUOUS
 10
6.409039167
 20
2.8635224326
 11
6.375898542
 21
2.8635224326
  0
LINE
  5
32B
100
AcDbEntity
  8
03__ASM_ALL_CURVES
100
AcDbLine
 62
40
  6
CONTINUOUS
 10
6.196939167
 20
2.8635224326
 11
6.163798542
 21
2.8635224326
  0
LINE
  5
32C
100
AcDbEntity
  8
03__ASM_ALL_CURVES
100
AcDbLine
 62
40
  6
CONTINUOUS
 10
4.2357251432
 20
2.8635224326
 11
4.2025845182
 21
2.8635224326
  0
LINE
  5
32D
100
AcDbEntity
  8
03__ASM_ALL_CURVES
100
AcDbLine
 62
40
  6
CONTINUOUS
 10
4.0236251432
 20
2.8635224326
 11
3.9904845182
 21
2.8635224326
  0
LINE
  5
32E
100
AcDbEntity
  8
03__ASM_ALL_CURVES
100
AcDbLine
 62
40
  6
CONTINUOUS
 10
3.3057251488
 20
2.8635224326
 11
3.2725845238
 21
2.8635224326
  0
LINE
  5
32F
100
AcDbEntity
  8
03__ASM_ALL_CURVES
100
AcDbLine
 62
40
  6
CONTINUOUS
 10
3.0936251488
 20
2.8635224326
 11
3.0604845238
 21
2.8635224326
  0
LINE
  5
330
100
AcDbEntity
  8
03__ASM_ALL_CURVES
100
AcDbLine
 62
40
  6
CONTINUOUS
 10
4.4345688932
 20
2.8723599305
 11
4.4478251432
 21
2.8723599305
  0
LINE
  5
331
100
AcDbEntity
  8
03__ASM_ALL_CURVES
100
AcDbLine
 62
40
  6
CONTINUOUS
 10
3.0604845238
 20
2.9165474326
 11
3.0936251488
 21
2.9165474326
  0
LINE
  5
332
100
AcDbEntity
  8
03__ASM_ALL_CURVES
100
AcDbLine
 62
40
  6
CONTINUOUS
 10
3.1864188988
 20
2.9165474326
 11
3.1996751488
 21
2.9165474326
  0
LINE
  5
333
100
AcDbEntity
  8
03__ASM_ALL_CURVES
100
AcDbLine
 62
40
  6
CONTINUOUS
 10
3.2725845238
 20
2.9165474326
 11
3.3057251488
 21
2.9165474326
  0
LINE
  5
334
100
AcDbEntity
  8
03__ASM_ALL_CURVES
100
AcDbLine
 62
40
  6
CONTINUOUS
 10
3.3720063988
 20
2.9165474326
 11
3.4382876488
 21
2.9165474326
  0
LINE
  5
335
100
AcDbEntity
  8
03__ASM_ALL_CURVES
100
AcDbLine
 62
40
  6
CONTINUOUS
 10
3.9904845182
 20
2.9165474326
 11
4.0236251432
 21
2.9165474326
  0
LINE
  5
336
100
AcDbEntity
  8
03__ASM_ALL_CURVES
100
AcDbLine
 62
40
  6
CONTINUOUS
 10
4.1164188932
 20
2.9165474326
 11
4.1296751432
 21
2.9165474326
  0
LINE
  5
337
100
AcDbEntity
  8
03__ASM_ALL_CURVES
100
AcDbLine
 62
40
  6
CONTINUOUS
 10
4.2025845182
 20
2.9165474326
 11
4.2357251432
 21
2.9165474326
  0
LINE
  5
338
100
AcDbEntity
  8
03__ASM_ALL_CURVES
100
AcDbLine
 62
40
  6
CONTINUOUS
 10
4.3020063932
 20
2.9165474326
 11
4.3682876432
 21
2.9165474326
  0
LINE
  5
339
100
AcDbEntity
  8
03__ASM_ALL_CURVES
100
AcDbLine
 62
40
  6
CONTINUOUS
 10
4.4345688932
 20
2.9165474326
 11
4.4478251432
 21
2.9165474326
  0
LINE
  5
33A
100
AcDbEntity
  8
03__ASM_ALL_CURVES
100
AcDbLine
 62
40
  6
CONTINUOUS
 10
6.163798542
 20
2.9165474326
 11
6.196939167
 21
2.9165474326
  0
LINE
  5
33B
100
AcDbEntity
  8
03__ASM_ALL_CURVES
100
AcDbLine
 62
40
  6
CONTINUOUS
 10
6.289732917
 20
2.9165474326
 11
6.302989167
 21
2.9165474326
  0
LINE
  5
33C
100
AcDbEntity
  8
03__ASM_ALL_CURVES
100
AcDbLine
 62
40
  6
CONTINUOUS
 10
6.375898542
 20
2.9165474326
 11
6.409039167
 21
2.9165474326
  0
LINE
  5
33D
100
AcDbEntity
  8
03__ASM_ALL_CURVES
100
AcDbLine
 62
40
  6
CONTINUOUS
 10
6.475320417
 20
2.9165474326
 11
6.541601667
 21
2.9165474326
  0
LINE
  5
33E
100
AcDbEntity
  8
03__ASM_ALL_CURVES
100
AcDbLine
 62
40
  6
CONTINUOUS
 10
6.607882917
 20
2.9165474326
 11
6.621139167
 21
2.9165474326
  0
LINE
  5
33F
100
AcDbEntity
  8
03__ASM_ALL_CURVES
100
AcDbLine
 62
40
  6
CONTINUOUS
 10
2.9150985745
 20
5.7968307663
 11
2.9062610745
 21
5.8086141
  0
LINE
  5
340
100
AcDbEntity
  8
03__ASM_ALL_CURVES
100
AcDbLine
 62
40
  6
CONTINUOUS
 10
2.9681235745
 20
5.8675307631
 11
2.9769610745
 21
5.8557474326
  0
LINE
  5
341
100
AcDbEntity
  8
03__ASM_ALL_CURVES
100
AcDbLine
 62
40
  6
CONTINUOUS
 10
3.0741735745
 20
5.8086141
 11
3.0918485745
 21
5.7850474326
  0
LINE
  5
342
100
AcDbEntity
  8
03__ASM_ALL_CURVES
100
AcDbLine
 62
40
  6
CONTINUOUS
 10
3.1978985745
 20
5.7968307663
 11
3.1802235745
 21
5.8203974326
  0
LINE
  5
343
100
AcDbEntity
  8
0
100
AcDbLine
 62
7
  6
CONTINUOUS
 10
4.6804110745
 20
3.4200474326
 11
4.6102630168
 21
3.5415474326
  0
LINE
  5
344
100
AcDbEntity
  8
03__ASM_ALL_CURVES
100
AcDbLine
 62
40
  6
CONTINUOUS
 10
3.6751235745
 20
5.9028807631
 11
3.6839610745
 21
5.8793141021
  0
LINE
  5
345
100
AcDbEntity
  8
03__ASM_ALL_CURVES
100
AcDbLine
 62
40
  6
CONTINUOUS
 10
3.7634985745
 20
5.8086141
 11
3.7546610745
 21
5.8321807673
  0
LINE
  5
346
100
AcDbEntity
  8
03__ASM_ALL_CURVES
100
AcDbLine
 62
40
  6
CONTINUOUS
 10
3.8165235745
 20
5.9028807631
 11
3.8253610745
 21
5.8793141021
  0
LINE
  5
347
100
AcDbEntity
  8
03__ASM_ALL_CURVES
100
AcDbLine
 62
40
  6
CONTINUOUS
 10
4.7228923225
 20
2.6743999326
 11
4.7162641975
 21
2.7009124326
  0
LINE
  5
348
100
AcDbEntity
  8
03__ASM_ALL_CURVES
100
AcDbLine
 62
40
  6
CONTINUOUS
 10
3.9402485745
 20
5.9028807631
 11
3.9490860745
 21
5.8675307631
  0
LINE
  5
349
100
AcDbEntity
  8
03__ASM_ALL_CURVES
100
AcDbLine
 62
40
  6
CONTINUOUS
 10
4.7891735725
 20
2.7274249326
 11
4.7958016975
 21
2.7009124326
  0
LINE
  5
34A
100
AcDbEntity
  8
03__ASM_ALL_CURVES
100
AcDbLine
 62
40
  6
CONTINUOUS
 10
4.8223141975
 20
2.7539374326
 11
4.8421985725
 21
2.6478874326
  0
LINE
  5
34B
100
AcDbEntity
  8
03__ASM_ALL_CURVES
100
AcDbLine
 62
40
  6
CONTINUOUS
 10
4.8620829475
 20
2.7539374326
 11
4.8819673225
 21
2.6478874326
  0
LINE
  5
34C
100
AcDbEntity
  8
0
100
AcDbLine
 62
7
  6
CONTINUOUS
 10
4.6804110745
 20
3.4200474326
 11
4.6804110745
 21
5.4750474326
  0
LINE
  5
34D
100
AcDbEntity
  8
0
100
AcDbLine
 62
7
  6
CONTINUOUS
 10
4.8024110745
 20
3.4200474326
 11
4.8024110745
 21
5.4750474326
  0
LINE
  5
34E
100
AcDbEntity
  8
03__ASM_ALL_CURVES
100
AcDbLine
 62
40
  6
CONTINUOUS
 10
4.8024110745
 20
5.5208274326
 11
4.8024110745
 21
5.7850474326
  0
LINE
  5
34F
100
AcDbEntity
  8
THREAD
100
AcDbLine
 62
7
  6
CONTINUOUS
 10
4.8494110745
 20
3.4940474326
 11
4.8494110745
 21
5.4010474326
  0
LINE
  5
350
100
AcDbEntity
  8
03__ASM_ALL_CURVES
100
AcDbLine
 62
40
  6
CONTINUOUS
 10
5.1523760759
 20
5.8557474326
 11
5.1612135759
 21
5.8910974326
  0
LINE
  5
351
100
AcDbEntity
  8
03__ASM_ALL_CURVES
100
AcDbLine
 62
40
  6
CONTINUOUS
 10
5.2584260759
 20
5.8557474326
 11
5.2495885759
 21
5.8203974326
  0
LINE
  5
352
100
AcDbEntity
  8
03__ASM_ALL_CURVES
100
AcDbLine
 62
40
  6
CONTINUOUS
 10
5.2937760759
 20
5.8557474326
 11
5.3026135759
 21
5.8910974326
  0
LINE
  5
353
100
AcDbEntity
  8
0
100
AcDbLine
 62
7
  6
CONTINUOUS
 10
4.1217138328
 20
3.5415474326
 11
4.0504110745
 21
3.4180474326
  0
LINE
  5
354
100
AcDbEntity
  8
03__ASM_ALL_CURVES
100
AcDbLine
 62
40
  6
CONTINUOUS
 10
3.3256095238
 20
2.8811974347
 11
3.3189813988
 21
2.8723599305
  0
LINE
  5
355
100
AcDbEntity
  8
03__ASM_ALL_CURVES
100
AcDbLine
 62
40
  6
CONTINUOUS
 10
6.0803135759
 20
5.7968307663
 11
6.0626385759
 21
5.7850474326
  0
LINE
  5
356
100
AcDbEntity
  8
03__ASM_ALL_CURVES
100
AcDbLine
 62
40
  6
CONTINUOUS
 10
6.3277635759
 20
5.9264474326
 11
6.3100885759
 21
5.9146641021
  0
LINE
  5
357
100
AcDbEntity
  8
03__ASM_ALL_CURVES
100
AcDbLine
 62
40
  6
CONTINUOUS
 10
6.3631135759
 20
5.7968307663
 11
6.3454385759
 21
5.7850474326
  0
LINE
  5
358
100
AcDbEntity
  8
03__ASM_ALL_CURVES
100
AcDbLine
 62
40
  6
CONTINUOUS
 10
6.5928885759
 20
5.9146641021
 11
6.6105635759
 21
5.9264474326
  0
LINE
  5
359
100
AcDbEntity
  8
0
100
AcDbLine
 62
7
  6
CONTINUOUS
 10
3.1784110745
 20
3.4025474326
 11
3.1014110745
 21
3.4025474326
  0
LINE
  5
35A
100
AcDbEntity
  8
0
100
AcDbLine
 62
7
  6
CONTINUOUS
 10
2.6544110745
 20
3.4025474326
 11
2.9774110745
 21
3.4025474326
  0
LINE
  5
35B
100
AcDbEntity
  8
0
100
AcDbLine
 62
7
  6
CONTINUOUS
 10
3.7404110745
 20
3.4025474326
 11
3.7904110745
 21
3.4025474326
  0
LINE
  5
35C
100
AcDbEntity
  8
0
100
AcDbLine
 62
7
  6
CONTINUOUS
 10
3.8934110745
 20
3.4025474326
 11
3.9434110745
 21
3.4025474326
  0
LINE
  5
35D
100
AcDbEntity
  8
0
100
AcDbLine
 62
7
  6
CONTINUOUS
 10
4.0504110745
 20
3.4180474326
 11
3.9784110745
 21
3.4180474326
  0
LINE
  5
35E
100
AcDbEntity
  8
0
100
AcDbLine
 62
7
  6
CONTINUOUS
 10
3.7404110745
 20
3.4180474326
 11
3.6684110745
 21
3.4180474326
  0
LINE
  5
35F
100
AcDbEntity
  8
0
100
AcDbLine
 62
7
  6
CONTINUOUS
 10
4.8024110745
 20
3.4200474326
 11
4.6804110745
 21
3.4200474326
  0
LINE
  5
360
100
AcDbEntity
  8
03__ASM_ALL_CURVES
100
AcDbLine
 62
40
  6
CONTINUOUS
 10
6.0875751332
 20
2.7539374326
 11
6.1008313832
 21
2.7450999347
  0
LINE
  5
361
100
AcDbEntity
  8
03__ASM_ALL_CURVES
100
AcDbLine
 62
40
  6
CONTINUOUS
 10
6.2864188832
 20
2.6478874326
 11
6.2731626332
 21
2.6567249329
  0
LINE
  5
362
100
AcDbEntity
  8
03__ASM_ALL_CURVES
100
AcDbLine
 62
40
  6
CONTINUOUS
 10
6.2731626332
 20
2.7185874347
 11
6.3129313832
 21
2.6920749315
  0
LINE
  5
363
100
AcDbEntity
  8
03__ASM_ALL_CURVES
100
AcDbLine
 62
40
  6
CONTINUOUS
 10
6.3924688832
 20
2.6478874326
 11
6.3792126332
 21
2.6567249329
  0
LINE
  5
364
100
AcDbEntity
  8
03__ASM_ALL_CURVES
100
AcDbLine
 62
40
  6
CONTINUOUS
 10
6.3129313832
 20
2.7450999347
 11
6.2996751332
 21
2.7539374326
  0
LINE
  5
365
100
AcDbEntity
  8
03__ASM_ALL_CURVES
100
AcDbLine
 62
40
  6
CONTINUOUS
 10
6.3792126332
 20
2.7185874347
 11
6.4189813832
 21
2.6920749315
  0
LINE
  5
366
100
AcDbEntity
  8
03__ASM_ALL_CURVES
100
AcDbLine
 62
40
  6
CONTINUOUS
 10
6.289732917
 20
2.8104974326
 11
6.276476667
 21
2.8193349329
  0
LINE
  5
367
100
AcDbEntity
  8
03__ASM_ALL_CURVES
100
AcDbLine
 62
40
  6
CONTINUOUS
 10
6.4189813832
 20
2.7450999347
 11
6.4057251332
 21
2.7539374326
  0
LINE
  5
368
100
AcDbEntity
  8
03__ASM_ALL_CURVES
100
AcDbLine
 62
40
  6
CONTINUOUS
 10
6.196939167
 20
2.9165474326
 11
6.210195417
 21
2.9077099347
  0
LINE
  5
369
100
AcDbEntity
  8
03__ASM_ALL_CURVES
100
AcDbLine
 62
40
  6
CONTINUOUS
 10
6.302989167
 20
2.9165474326
 11
6.316245417
 21
2.9077099347
  0
LINE
  5
36A
100
AcDbEntity
  8
03__ASM_ALL_CURVES
100
AcDbLine
 62
40
  6
CONTINUOUS
 10
3.1978985745
 20
5.8793141021
 11
3.1890610745
 21
5.8910974326
  0
LINE
  5
36B
100
AcDbEntity
  8
03__ASM_ALL_CURVES
100
AcDbLine
 62
40
  6
CONTINUOUS
 10
3.2509235745
 20
5.8557474326
 11
3.2685985745
 21
5.8321807673
  0
LINE
  5
36C
100
AcDbEntity
  8
03__ASM_ALL_CURVES
100
AcDbLine
 62
40
  6
CONTINUOUS
 10
3.2509235745
 20
5.9146641021
 11
3.2597610745
 21
5.9028807631
  0
LINE
  5
36D
100
AcDbEntity
  8
03__ASM_ALL_CURVES
100
AcDbLine
 62
40
  6
CONTINUOUS
 10
3.3481360745
 20
5.7968307663
 11
3.3392985745
 21
5.8086141
  0
LINE
  5
36E
100
AcDbEntity
  8
03__ASM_ALL_CURVES
100
AcDbLine
 62
40
  6
CONTINUOUS
 10
3.3834860745
 20
5.9146641021
 11
3.3923235745
 21
5.9028807631
  0
LINE
  5
36F
100
AcDbEntity
  8
03__ASM_ALL_CURVES
100
AcDbLine
 62
40
  6
CONTINUOUS
 10
3.4983735745
 20
5.7968307663
 11
3.5072110745
 21
5.7850474326
  0
LINE
  5
370
100
AcDbEntity
  8
03__ASM_ALL_CURVES
100
AcDbLine
 62
40
  6
CONTINUOUS
 10
5.8953595082
 20
2.6920749315
 11
5.8821032582
 21
2.7097499305
  0
LINE
  5
371
100
AcDbEntity
  8
03__ASM_ALL_CURVES
100
AcDbLine
 62
40
  6
CONTINUOUS
 10
5.8887313832
 20
2.7450999347
 11
5.8821032582
 21
2.7539374326
  0
LINE
  5
372
100
AcDbEntity
  8
THREAD
100
AcDbLine
 62
7
  6
CONTINUOUS
 10
5.0534332885
 20
3.5060474326
 11
5.0234110745
 21
3.5580474326
  0
LINE
  5
373
100
AcDbEntity
  8
0
100
AcDbLine
 62
7
  6
CONTINUOUS
 10
4.1217138328
 20
5.3535474326
 11
4.0504110745
 21
5.4770474326
  0
LINE
  5
374
100
AcDbEntity
  8
0
100
AcDbLine
 62
7
  6
CONTINUOUS
 10
4.9524110745
 20
3.4935474326
 11
4.9524110745
 21
5.4015474326
  0
LINE
  5
375
100
AcDbEntity
  8
03__ASM_ALL_CURVES
100
AcDbLine
 62
40
  6
CONTINUOUS
 10
4.9720910745
 20
5.7567674326
 11
4.9720910745
 21
5.7002074326
  0
LINE
  5
376
100
AcDbEntity
  8
0
100
AcDbLine
 62
7
  6
CONTINUOUS
 10
5.0024110745
 20
3.4935474326
 11
5.0024110745
 21
5.4015474326
  0
LINE
  5
377
100
AcDbEntity
  8
0
100
AcDbLine
 62
7
  6
CONTINUOUS
 10
5.0234110745
 20
3.5580474326
 11
5.0234110745
 21
5.3370474326
  0
LINE
  5
378
100
AcDbEntity
  8
03__ASM_ALL_CURVES
100
AcDbLine
 62
40
  6
CONTINUOUS
 10
5.0286510759
 20
5.9264474326
 11
5.0286510759
 21
5.7850474326
  0
LINE
  5
379
100
AcDbEntity
  8
THREAD
100
AcDbLine
 62
7
  6
CONTINUOUS
 10
5.0534332885
 20
3.5060474326
 11
5.0534332885
 21
5.3890474326
  0
LINE
  5
37A
100
AcDbEntity
  8
03__ASM_ALL_CURVES
100
AcDbLine
 62
40
  6
CONTINUOUS
 10
4.8421985725
 20
2.6478874326
 11
4.8620829475
 21
2.7539374326
  0
LINE
  5
37B
100
AcDbEntity
  8
03__ASM_ALL_CURVES
100
AcDbLine
 62
40
  6
CONTINUOUS
 10
4.8819673225
 20
2.6478874326
 11
4.9018516975
 21
2.7539374326
  0
LINE
  5
37C
100
AcDbEntity
  8
03__ASM_ALL_CURVES
100
AcDbLine
 62
40
  6
CONTINUOUS
 10
4.7162641975
 20
2.7009124326
 11
4.7228923225
 21
2.7274249326
  0
LINE
  5
37D
100
AcDbEntity
  8
03__ASM_ALL_CURVES
100
AcDbLine
 62
40
  6
CONTINUOUS
 10
4.7958016975
 20
2.7009124326
 11
4.7891735725
 21
2.6743999326
  0
LINE
  5
37E
100
AcDbEntity
  8
03__ASM_ALL_CURVES
100
AcDbLine
 62
40
  6
CONTINUOUS
 10
5.4440135759
 20
5.7850474326
 11
5.4882010759
 21
5.9264474326
  0
LINE
  5
37F
100
AcDbEntity
  8
03__ASM_ALL_CURVES
100
AcDbLine
 62
40
  6
CONTINUOUS
 10
4.3318329475
 20
2.7009124326
 11
4.3583454475
 21
2.7539374326
  0
LINE
  5
380
100
AcDbEntity
  8
03__ASM_ALL_CURVES
100
AcDbLine
 62
40
  6
CONTINUOUS
 10
3.6159954475
 20
2.7185874347
 11
3.6093673225
 21
2.7097499305
  0
LINE
  5
381
100
AcDbEntity
  8
03__ASM_ALL_CURVES
100
AcDbLine
 62
40
  6
CONTINUOUS
 10
6.0096135759
 20
5.8910974326
 11
6.0272885759
 21
5.9146641021
  0
LINE
  5
382
100
AcDbEntity
  8
03__ASM_ALL_CURVES
100
AcDbLine
 62
40
  6
CONTINUOUS
 10
3.7220454475
 20
2.7185874347
 11
3.7154173225
 21
2.7097499305
  0
LINE
  5
383
100
AcDbEntity
  8
03__ASM_ALL_CURVES
100
AcDbLine
 62
40
  6
CONTINUOUS
 10
6.0891510759
 20
5.8086141
 11
6.0803135759
 21
5.7968307663
  0
LINE
  5
384
100
AcDbEntity
  8
03__ASM_ALL_CURVES
100
AcDbLine
 62
40
  6
CONTINUOUS
 10
3.8744923225
 20
2.7274249326
 11
3.8877485725
 21
2.7450999347
  0
LINE
  5
385
100
AcDbEntity
  8
03__ASM_ALL_CURVES
100
AcDbLine
 62
40
  6
CONTINUOUS
 10
6.3100885759
 20
5.9146641021
 11
6.3012510759
 21
5.9028807631
  0
LINE
  5
386
100
AcDbEntity
  8
03__ASM_ALL_CURVES
100
AcDbLine
 62
40
  6
CONTINUOUS
 10
4.0435095182
 20
2.8811974347
 11
4.0368813932
 21
2.8723599305
  0
LINE
  5
387
100
AcDbEntity
  8
03__ASM_ALL_CURVES
100
AcDbLine
 62
40
  6
CONTINUOUS
 10
6.6459135759
 20
5.7968307663
 11
6.6282385759
 21
5.7850474326
  0
LINE
  5
388
100
AcDbEntity
  8
03__ASM_ALL_CURVES
100
AcDbLine
 62
40
  6
CONTINUOUS
 10
6.7873135759
 20
5.7968307663
 11
6.7696385759
 21
5.7850474326
  0
LINE
  5
389
100
AcDbEntity
  8
03__ASM_ALL_CURVES
100
AcDbLine
 62
40
  6
CONTINUOUS
 10
7.0612760759
 20
5.7968307663
 11
7.0436010759
 21
5.7850474326
  0
LINE
  5
38A
100
AcDbEntity
  8
0
100
AcDbLine
 62
7
  6
CONTINUOUS
 10
3.1014110745
 20
3.4905474326
 11
3.0804110745
 21
3.4905474326
  0
LINE
  5
38B
100
AcDbEntity
  8
0
100
AcDbLine
 62
7
  6
CONTINUOUS
 10
4.9524110745
 20
3.4935474326
 11
5.0024110745
 21
3.4935474326
  0
LINE
  5
38C
100
AcDbEntity
  8
THREAD
100
AcDbLine
 62
7
  6
CONTINUOUS
 10
4.8494110745
 20
3.4940474326
 11
4.8024110745
 21
3.4940474326
  0
LINE
  5
38D
100
AcDbEntity
  8
THREAD
100
AcDbLine
 62
7
  6
CONTINUOUS
 10
5.5229110745
 20
3.5060474326
 11
5.0534332885
 21
3.5060474326
  0
LINE
  5
38E
100
AcDbEntity
  8
0
100
AcDbLine
 62
7
  6
CONTINUOUS
 10
3.9784110745
 20
3.5060474326
 11
3.9434110745
 21
3.5060474326
  0
LINE
  5
38F
100
AcDbEntity
  8
0
100
AcDbLine
 62
7
  6
CONTINUOUS
 10
3.6152948498
 20
3.5100474326
 11
3.3024762285
 21
3.5100474326
  0
LINE
  5
390
100
AcDbEntity
  8
0
100
AcDbLine
 62
7
  6
CONTINUOUS
 10
2.5839743417
 20
3.5245474326
 11
1.7133837058
 21
3.5245474326
  0
LINE
  5
391
100
AcDbEntity
  8
0
100
AcDbLine
 62
7
  6
CONTINUOUS
 10
2.5839743417
 20
3.524942774
 11
1.7133837058
 21
3.524942774
  0
LINE
  5
392
100
AcDbEntity
  8
0
100
AcDbLine
 62
7
  6
CONTINUOUS
 10
4.6102630168
 20
3.5415474326
 11
4.6004110745
 21
3.5415474326
  0
LINE
  5
393
100
AcDbEntity
  8
0
100
AcDbLine
 62
7
  6
CONTINUOUS
 10
4.2564110745
 20
3.5415474326
 11
4.1217138328
 21
3.5415474326
  0
LINE
  5
394
100
AcDbEntity
  8
THREAD
100
AcDbLine
 62
7
  6
CONTINUOUS
 10
5.7274110745
 20
3.6035474326
 11
5.6204110745
 21
3.6035474326
  0
LINE
  5
395
100
AcDbEntity
  8
0
100
AcDbLine
 62
7
  6
CONTINUOUS
 10
6.8654110745
 20
3.6365474326
 11
6.9594110745
 21
3.6365474326
  0
LINE
  5
396
100
AcDbEntity
  8
0
100
AcDbLine
 62
7
  6
CONTINUOUS
 10
7.1829110745
 20
3.6365474326
 11
7.3094110745
 21
3.6365474326
  0
LINE
  5
397
100
AcDbEntity
  8
0
100
AcDbLine
 62
7
  6
CONTINUOUS
 10
6.9594110745
 20
3.6417974326
 11
7.0094110745
 21
3.6417974326
  0
LINE
  5
398
100
AcDbEntity
  8
0
100
AcDbLine
 62
7
  6
CONTINUOUS
 10
7.1124110745
 20
3.6417974326
 11
7.1624110745
 21
3.6417974326
  0
LINE
  5
399
100
AcDbEntity
  8
0
100
AcDbLine
 62
7
  6
CONTINUOUS
 10
7.1829110745
 20
3.7297974326
 11
7.1624110745
 21
3.7297974326
  0
LINE
  5
39A
100
AcDbEntity
  8
0
100
AcDbLine
 62
7
  6
CONTINUOUS
 10
6.8654110745
 20
3.7297974326
 11
6.3964110745
 21
3.7297974326
  0
LINE
  5
39B
100
AcDbEntity
  8
0
100
AcDbLine
 62
7
  6
CONTINUOUS
 10
6.0844110745
 20
3.7297974326
 11
5.7404110745
 21
3.7297974326
  0
LINE
  5
39C
100
AcDbEntity
  8
03__ASM_ALL_CURVES
100
AcDbLine
 62
40
  6
CONTINUOUS
 10
6.409039167
 20
2.9165474326
 11
6.422295417
 21
2.9077099347
  0
LINE
  5
39D
100
AcDbEntity
  8
03__ASM_ALL_CURVES
100
AcDbLine
 62
40
  6
CONTINUOUS
 10
6.8166688832
 20
2.6478874326
 11
6.8034126332
 21
2.6567249329
  0
LINE
  5
39E
100
AcDbEntity
  8
03__ASM_ALL_CURVES
100
AcDbLine
 62
40
  6
CONTINUOUS
 10
6.8299251332
 20
2.7539374326
 11
6.8431813832
 21
2.7450999347
  0
LINE
  5
39F
100
AcDbEntity
  8
03__ASM_ALL_CURVES
100
AcDbLine
 62
40
  6
CONTINUOUS
 10
6.621139167
 20
2.9165474326
 11
6.634395417
 21
2.9077099347
  0
LINE
  5
3A0
100
AcDbEntity
  8
03__ASM_ALL_CURVES
100
AcDbLine
 62
40
  6
CONTINUOUS
 10
2.5085735745
 20
5.7850474326
 11
2.4908985745
 21
5.7968307663
  0
LINE
  5
3A1
100
AcDbEntity
  8
03__ASM_ALL_CURVES
100
AcDbLine
 62
40
  6
CONTINUOUS
 10
3.6309360745
 20
5.7968307663
 11
3.6220985745
 21
5.8086141
  0
LINE
  5
3A2
100
AcDbEntity
  8
03__ASM_ALL_CURVES
100
AcDbLine
 62
40
  6
CONTINUOUS
 10
3.6662860745
 20
5.9146641021
 11
3.6751235745
 21
5.9028807631
  0
LINE
  5
3A3
100
AcDbEntity
  8
03__ASM_ALL_CURVES
100
AcDbLine
 62
40
  6
CONTINUOUS
 10
3.7723360745
 20
5.7968307663
 11
3.7634985745
 21
5.8086141
  0
LINE
  5
3A4
100
AcDbEntity
  8
03__ASM_ALL_CURVES
100
AcDbLine
 62
40
  6
CONTINUOUS
 10
6.1008313832
 20
2.7450999347
 11
6.1074595082
 21
2.7362624305
  0
LINE
  5
3A5
100
AcDbEntity
  8
03__ASM_ALL_CURVES
100
AcDbLine
 62
40
  6
CONTINUOUS
 10
3.8076860745
 20
5.9146641021
 11
3.8165235745
 21
5.9028807631
  0
LINE
  5
3A6
100
AcDbEntity
  8
03__ASM_ALL_CURVES
100
AcDbLine
 62
40
  6
CONTINUOUS
 10
6.2731626332
 20
2.6567249329
 11
6.2599063832
 21
2.6743999326
  0
LINE
  5
3A7
100
AcDbEntity
  8
03__ASM_ALL_CURVES
100
AcDbLine
 62
40
  6
CONTINUOUS
 10
6.2665345082
 20
2.7274249326
 11
6.2731626332
 21
2.7185874347
  0
LINE
  5
3A8
100
AcDbEntity
  8
THREAD
100
AcDbLine
 62
7
  6
CONTINUOUS
 10
5.5229110745
 20
3.5060474326
 11
5.5229110745
 21
5.3890474326
  0
LINE
  5
3A9
100
AcDbEntity
  8
03__ASM_ALL_CURVES
100
AcDbLine
 62
40
  6
CONTINUOUS
 10
4.0899063932
 20
2.8900349326
 11
4.1031626432
 21
2.9077099347
  0
LINE
  5
3AA
100
AcDbEntity
  8
03__ASM_ALL_CURVES
100
AcDbLine
 62
40
  6
CONTINUOUS
 10
3.9407735725
 20
2.6743999326
 11
3.9275173225
 21
2.6567249329
  0
LINE
  5
3AB
100
AcDbEntity
  8
03__ASM_ALL_CURVES
100
AcDbLine
 62
40
  6
CONTINUOUS
 10
4.0401954475
 20
2.7185874347
 11
4.0335673225
 21
2.7097499305
  0
LINE
  5
3AC
100
AcDbEntity
  8
03__ASM_ALL_CURVES
100
AcDbLine
 62
40
  6
CONTINUOUS
 10
6.3719510759
 20
5.8086141
 11
6.3631135759
 21
5.7968307663
  0
LINE
  5
3AD
100
AcDbEntity
  8
03__ASM_ALL_CURVES
100
AcDbLine
 62
40
  6
CONTINUOUS
 10
4.1561876432
 20
2.8370099326
 11
4.1429313932
 21
2.8193349329
  0
LINE
  5
3AE
100
AcDbEntity
  8
03__ASM_ALL_CURVES
100
AcDbLine
 62
40
  6
CONTINUOUS
 10
4.2556095182
 20
2.8811974347
 11
4.2489813932
 21
2.8723599305
  0
LINE
  5
3AF
100
AcDbEntity
  8
03__ASM_ALL_CURVES
100
AcDbLine
 62
40
  6
CONTINUOUS
 10
6.5752135759
 20
5.8910974326
 11
6.5928885759
 21
5.9146641021
  0
LINE
  5
3B0
100
AcDbEntity
  8
03__ASM_ALL_CURVES
100
AcDbLine
 62
40
  6
CONTINUOUS
 10
7.3529135759
 20
5.8675307631
 11
7.3352385759
 21
5.8557474326
  0
LINE
  5
3B1
100
AcDbEntity
  8
03__ASM_ALL_CURVES
100
AcDbLine
 62
40
  6
CONTINUOUS
 10
3.1068813988
 20
2.8723599305
 11
3.0936251488
 21
2.8635224326
  0
LINE
  5
3B2
100
AcDbEntity
  8
03__ASM_ALL_CURVES
100
AcDbLine
 62
40
  6
CONTINUOUS
 10
3.1731626488
 20
2.9077099347
 11
3.1864188988
 21
2.9165474326
  0
LINE
  5
3B3
100
AcDbEntity
  8
0
100
AcDbLine
 62
7
  6
CONTINUOUS
 10
2.5839743417
 20
3.9628520911
 11
1.7133837058
 21
3.9628520911
  0
LINE
  5
3B4
100
AcDbEntity
  8
0
100
AcDbLine
 62
7
  6
CONTINUOUS
 10
2.5839743417
 20
4.0096381155
 11
1.7133837058
 21
4.0096381155
  0
LINE
  5
3B5
100
AcDbEntity
  8
03__ASM_ALL_CURVES
100
AcDbLine
 62
40
  6
CONTINUOUS
 10
2.5262485745
 20
5.8675307631
 11
2.5439235745
 21
5.8557474326
  0
LINE
  5
3B6
100
AcDbEntity
  8
03__ASM_ALL_CURVES
100
AcDbLine
 62
40
  6
CONTINUOUS
 10
2.5262485745
 20
5.9264474326
 11
2.5439235745
 21
5.9146641021
  0
LINE
  5
3B7
100
AcDbEntity
  8
03__ASM_ALL_CURVES
100
AcDbLine
 62
40
  6
CONTINUOUS
 10
2.9327735745
 20
5.7850474326
 11
2.9150985745
 21
5.7968307663
  0
LINE
  5
3B8
100
AcDbEntity
  8
03__ASM_ALL_CURVES
100
AcDbLine
 62
40
  6
CONTINUOUS
 10
6.3129313832
 20
2.6920749315
 11
6.3195595082
 21
2.6832374336
  0
LINE
  5
3B9
100
AcDbEntity
  8
03__ASM_ALL_CURVES
100
AcDbLine
 62
40
  6
CONTINUOUS
 10
3.9225735745
 20
5.9264474326
 11
3.9402485745
 21
5.9028807631
  0
LINE
  5
3BA
100
AcDbEntity
  8
03__ASM_ALL_CURVES
100
AcDbLine
 62
40
  6
CONTINUOUS
 10
6.3792126332
 20
2.6567249329
 11
6.3659563832
 21
2.6743999326
  0
LINE
  5
3BB
100
AcDbEntity
  8
03__ASM_ALL_CURVES
100
AcDbLine
 62
40
  6
CONTINUOUS
 10
6.3195595082
 20
2.7362624305
 11
6.3129313832
 21
2.7450999347
  0
LINE
  5
3BC
100
AcDbEntity
  8
03__ASM_ALL_CURVES
100
AcDbLine
 62
40
  6
CONTINUOUS
 10
6.276476667
 20
2.8193349329
 11
6.263220417
 21
2.8370099326
  0
LINE
  5
3BD
100
AcDbEntity
  8
03__ASM_ALL_CURVES
100
AcDbLine
 62
40
  6
CONTINUOUS
 10
6.210195417
 20
2.9077099347
 11
6.216823542
 21
2.8988724305
  0
LINE
  5
3BE
100
AcDbEntity
  8
03__ASM_ALL_CURVES
100
AcDbLine
 62
40
  6
CONTINUOUS
 10
6.3725845082
 20
2.7274249326
 11
6.3792126332
 21
2.7185874347
  0
LINE
  5
3BF
100
AcDbEntity
  8
03__ASM_ALL_CURVES
100
AcDbLine
 62
40
  6
CONTINUOUS
 10
6.4189813832
 20
2.6920749315
 11
6.4256095082
 21
2.6832374336
  0
LINE
  5
3C0
100
AcDbEntity
  8
03__ASM_ALL_CURVES
100
AcDbLine
 62
40
  6
CONTINUOUS
 10
6.4256095082
 20
2.7362624305
 11
6.4189813832
 21
2.7450999347
  0
LINE
  5
3C1
100
AcDbEntity
  8
03__ASM_ALL_CURVES
100
AcDbLine
 62
40
  6
CONTINUOUS
 10
6.316245417
 20
2.9077099347
 11
6.329501667
 21
2.8900349326
  0
LINE
  5
3C2
100
AcDbEntity
  8
03__ASM_ALL_CURVES
100
AcDbLine
 62
40
  6
CONTINUOUS
 10
6.422295417
 20
2.9077099347
 11
6.428923542
 21
2.8988724305
  0
LINE
  5
3C3
100
AcDbEntity
  8
03__ASM_ALL_CURVES
100
AcDbLine
 62
40
  6
CONTINUOUS
 10
5.9483845082
 20
2.7539374326
 11
5.9748970082
 21
2.7009124326
  0
LINE
  5
3C4
100
AcDbEntity
  8
THREAD
100
AcDbLine
 62
7
  6
CONTINUOUS
 10
5.6204110745
 20
3.6035474326
 11
5.6204110745
 21
5.2915474326
  0
LINE
  5
3C5
100
AcDbEntity
  8
03__ASM_ALL_CURVES
100
AcDbLine
 62
40
  6
CONTINUOUS
 10
5.6296010759
 20
5.9264474326
 11
5.6296010759
 21
5.7850474326
  0
LINE
  5
3C6
100
AcDbEntity
  8
0
100
AcDbLine
 62
7
  6
CONTINUOUS
 10
5.7274110745
 20
3.6035474326
 11
5.7274110745
 21
5.2915474326
  0
LINE
  5
3C7
100
AcDbEntity
  8
0
100
AcDbLine
 62
7
  6
CONTINUOUS
 10
5.7404110745
 20
3.6165474326
 11
5.7404110745
 21
5.2785474326
  0
LINE
  5
3C8
100
AcDbEntity
  8
03__ASM_ALL_CURVES
100
AcDbLine
 62
40
  6
CONTINUOUS
 10
5.7710010759
 20
5.9264474326
 11
5.7710010759
 21
5.7850474326
  0
LINE
  5
3C9
100
AcDbEntity
  8
03__ASM_ALL_CURVES
100
AcDbLine
 62
40
  6
CONTINUOUS
 10
5.8357063832
 20
2.7539374326
 11
5.8357063832
 21
2.6478874326
  0
LINE
  5
3CA
100
AcDbEntity
  8
03__ASM_ALL_CURVES
100
AcDbLine
 62
40
  6
CONTINUOUS
 10
6.0007760759
 20
5.8557474326
 11
6.0096135759
 21
5.8910974326
  0
LINE
  5
3CB
100
AcDbEntity
  8
03__ASM_ALL_CURVES
100
AcDbLine
 62
40
  6
CONTINUOUS
 10
6.6635885759
 20
5.8203974326
 11
6.6459135759
 21
5.7968307663
  0
LINE
  5
3CC
100
AcDbEntity
  8
03__ASM_ALL_CURVES
100
AcDbLine
 62
40
  6
CONTINUOUS
 10
4.4677095182
 20
2.8900349326
 11
4.4610813932
 21
2.8811974347
  0
LINE
  5
3CD
100
AcDbEntity
  8
03__ASM_ALL_CURVES
100
AcDbLine
 62
40
  6
CONTINUOUS
 10
4.4743376432
 20
2.8370099326
 11
4.4610813932
 21
2.8193349329
  0
LINE
  5
3CE
100
AcDbEntity
  8
03__ASM_ALL_CURVES
100
AcDbLine
 62
40
  6
CONTINUOUS
 10
6.7961510759
 20
5.8086141
 11
6.7873135759
 21
5.7968307663
  0
LINE
  5
3CF
100
AcDbEntity
  8
03__ASM_ALL_CURVES
100
AcDbLine
 62
40
  6
CONTINUOUS
 10
3.2129313988
 20
2.8193349329
 11
3.1996751488
 21
2.8104974326
  0
LINE
  5
3D0
100
AcDbEntity
  8
03__ASM_ALL_CURVES
100
AcDbLine
 62
40
  6
CONTINUOUS
 10
3.3189813988
 20
2.8723599305
 11
3.3057251488
 21
2.8635224326
  0
LINE
  5
3D1
100
AcDbEntity
  8
03__ASM_ALL_CURVES
100
AcDbLine
 62
40
  6
CONTINUOUS
 10
9.8436423246
 20
4.3132174326
 11
9.7906173246
 21
4.3132174326
  0
LINE
  5
3D2
100
AcDbEntity
  8
03__ASM_ALL_CURVES
100
AcDbLine
 62
40
  6
CONTINUOUS
 10
9.1874579496
 20
4.3132174326
 11
9.1742016996
 21
4.3132174326
  0
LINE
  5
3D3
100
AcDbEntity
  8
03__ASM_ALL_CURVES
100
AcDbLine
 62
40
  6
CONTINUOUS
 10
8.7566298246
 20
4.3132174326
 11
8.7301173246
 21
4.3132174326
  0
LINE
  5
3D4
100
AcDbEntity
  8
03__ASM_ALL_CURVES
100
AcDbLine
 62
40
  6
CONTINUOUS
 10
8.6770923246
 20
4.3132174326
 11
8.6240673246
 21
4.3132174326
  0
LINE
  5
3D5
100
AcDbEntity
  8
03__ASM_ALL_CURVES
100
AcDbLine
 62
40
  6
CONTINUOUS
 10
8.3390579496
 20
4.3132174326
 11
8.3258016996
 21
4.3132174326
  0
LINE
  5
3D6
100
AcDbEntity
  8
03__ASM_ALL_CURVES
100
AcDbLine
 62
40
  6
CONTINUOUS
 10
7.9148579496
 20
4.3132174326
 11
7.9016016996
 21
4.3132174326
  0
LINE
  5
3D7
100
AcDbEntity
  8
03__ASM_ALL_CURVES
100
AcDbLine
 62
40
  6
CONTINUOUS
 10
7.8088079496
 20
4.3132174326
 11
7.7955516996
 21
4.3132174326
  0
LINE
  5
3D8
100
AcDbEntity
  8
03__ASM_ALL_CURVES
100
AcDbLine
 62
40
  6
CONTINUOUS
 10
8.4119673246
 20
4.3132174326
 11
8.4649923246
 21
4.3132174326
  0
LINE
  5
3D9
100
AcDbEntity
  8
03__ASM_ALL_CURVES
100
AcDbLine
 62
40
  6
CONTINUOUS
 10
8.5180173246
 20
4.3132174326
 11
8.5710423246
 21
4.3132174326
  0
LINE
  5
3DA
100
AcDbEntity
  8
03__ASM_ALL_CURVES
100
AcDbLine
 62
40
  6
CONTINUOUS
 10
9.0482673246
 20
4.3132174326
 11
9.1012923246
 21
4.3132174326
  0
LINE
  5
3DB
100
AcDbEntity
  8
03__ASM_ALL_CURVES
100
AcDbLine
 62
40
  6
CONTINUOUS
 10
9.6845673246
 20
4.3132174326
 11
9.7375923246
 21
4.3132174326
  0
LINE
  5
3DC
100
AcDbEntity
  8
03__ASM_ALL_CURVES
100
AcDbLine
 62
40
  6
CONTINUOUS
 10
2.9504485745
 20
5.8793141021
 11
2.9681235745
 21
5.8675307631
  0
LINE
  5
3DD
100
AcDbEntity
  8
03__ASM_ALL_CURVES
100
AcDbLine
 62
40
  6
CONTINUOUS
 10
3.2155735745
 20
5.7850474326
 11
3.1978985745
 21
5.7968307663
  0
LINE
  5
3DE
100
AcDbEntity
  8
03__ASM_ALL_CURVES
100
AcDbLine
 62
40
  6
CONTINUOUS
 10
3.2155735745
 20
5.8675307631
 11
3.1978985745
 21
5.8793141021
  0
LINE
  5
3DF
100
AcDbEntity
  8
03__ASM_ALL_CURVES
100
AcDbLine
 62
40
  6
CONTINUOUS
 10
3.2332485745
 20
5.8675307631
 11
3.2509235745
 21
5.8557474326
  0
LINE
  5
3E0
100
AcDbEntity
  8
03__ASM_ALL_CURVES
100
AcDbLine
 62
40
  6
CONTINUOUS
 10
3.3658110745
 20
5.7850474326
 11
3.3481360745
 21
5.7968307663
  0
LINE
  5
3E1
100
AcDbEntity
  8
03__ASM_ALL_CURVES
100
AcDbLine
 62
40
  6
CONTINUOUS
 10
3.2332485745
 20
5.9264474326
 11
3.2509235745
 21
5.9146641021
  0
LINE
  5
3E2
100
AcDbEntity
  8
03__ASM_ALL_CURVES
100
AcDbLine
 62
40
  6
CONTINUOUS
 10
3.3658110745
 20
5.9264474326
 11
3.3834860745
 21
5.9146641021
  0
LINE
  5
3E3
100
AcDbEntity
  8
03__ASM_ALL_CURVES
100
AcDbLine
 62
40
  6
CONTINUOUS
 10
6.8034126332
 20
2.6567249329
 11
6.7901563832
 21
2.6743999326
  0
LINE
  5
3E4
100
AcDbEntity
  8
03__ASM_ALL_CURVES
100
AcDbLine
 62
40
  6
CONTINUOUS
 10
6.634395417
 20
2.9077099347
 11
6.641023542
 21
2.8988724305
  0
LINE
  5
3E5
100
AcDbEntity
  8
03__ASM_ALL_CURVES
100
AcDbLine
 62
40
  6
CONTINUOUS
 10
6.8431813832
 20
2.7450999347
 11
6.8564376332
 21
2.7274249326
  0
LINE
  5
3E6
100
AcDbEntity
  8
03__ASM_ALL_CURVES
100
AcDbLine
 62
40
  6
CONTINUOUS
 10
6.1869970082
 20
2.7539374326
 11
6.2201376332
 21
2.6478874326
  0
LINE
  5
3E7
100
AcDbEntity
  8
03__ASM_ALL_CURVES
100
AcDbLine
 62
40
  6
CONTINUOUS
 10
5.1612135759
 20
5.8203974326
 11
5.1523760759
 21
5.8557474326
  0
LINE
  5
3E8
100
AcDbEntity
  8
03__ASM_ALL_CURVES
100
AcDbLine
 62
40
  6
CONTINUOUS
 10
5.2495885759
 20
5.8910974326
 11
5.2584260759
 21
5.8557474326
  0
LINE
  5
3E9
100
AcDbEntity
  8
03__ASM_ALL_CURVES
100
AcDbLine
 62
40
  6
CONTINUOUS
 10
5.3026135759
 20
5.8203974326
 11
5.2937760759
 21
5.8557474326
  0
LINE
  5
3EA
100
AcDbEntity
  8
03__ASM_ALL_CURVES
100
AcDbLine
 62
40
  6
CONTINUOUS
 10
5.8770510759
 20
5.7850474326
 11
5.8770510759
 21
5.9264474326
  0
LINE
  5
3EB
100
AcDbEntity
  8
03__ASM_ALL_CURVES
100
AcDbLine
 62
40
  6
CONTINUOUS
 10
5.8887313832
 20
2.7185874347
 11
5.8887313832
 21
2.7450999347
  0
LINE
  5
3EC
100
AcDbEntity
  8
03__ASM_ALL_CURVES
100
AcDbLine
 62
40
  6
CONTINUOUS
 10
5.8953595082
 20
2.6655624331
 11
5.8953595082
 21
2.6920749315
  0
LINE
  5
3ED
100
AcDbEntity
  8
03__ASM_ALL_CURVES
100
AcDbLine
 62
40
  6
CONTINUOUS
 10
5.9477510759
 20
5.7850474326
 11
5.9477510759
 21
5.9264474326
  0
LINE
  5
3EE
100
AcDbEntity
  8
03__ASM_ALL_CURVES
100
AcDbLine
 62
40
  6
CONTINUOUS
 10
5.9748970082
 20
2.7009124326
 11
5.9748970082
 21
2.6478874326
  0
LINE
  5
3EF
100
AcDbEntity
  8
03__ASM_ALL_CURVES
100
AcDbLine
 62
40
  6
CONTINUOUS
 10
6.0544345082
 20
2.6478874326
 11
6.0544345082
 21
2.7539374326
  0
LINE
  5
3F0
100
AcDbEntity
  8
03__ASM_ALL_CURVES
100
AcDbLine
 62
40
  6
CONTINUOUS
 10
6.0891510759
 20
5.8557474326
 11
6.0891510759
 21
5.8086141
  0
LINE
  5
3F1
100
AcDbEntity
  8
0
100
AcDbLine
 62
7
  6
CONTINUOUS
 10
6.1054110745
 20
4.3710623891
 11
6.1054110745
 21
4.5240060551
  0
LINE
  5
3F2
100
AcDbEntity
  8
03__ASM_ALL_CURVES
100
AcDbLine
 62
40
  6
CONTINUOUS
 10
6.1074595082
 20
2.7362624305
 11
6.1074595082
 21
2.7185874347
  0
LINE
  5
3F3
100
AcDbEntity
  8
0
100
AcDbLine
 62
7
  6
CONTINUOUS
 10
6.1124110745
 20
4.3588150019
 11
6.1124110745
 21
4.5360776041
  0
LINE
  5
3F4
100
AcDbEntity
  8
0
100
AcDbLine
 62
7
  6
CONTINUOUS
 10
6.1224110745
 20
4.3467389108
 11
6.1224110745
 21
4.5483711911
  0
LINE
  5
3F5
100
AcDbEntity
  8
0
100
AcDbLine
 62
7
  6
CONTINUOUS
 10
6.1294110745
 20
4.3388591071
 11
6.1294110745
 21
4.5561116082
  0
LINE
  5
3F6
100
AcDbEntity
  8
03__ASM_ALL_CURVES
100
AcDbLine
 62
40
  6
CONTINUOUS
 10
4.7228923225
 20
2.7274249326
 11
4.7361485725
 21
2.7450999347
  0
LINE
  5
3F7
100
AcDbEntity
  8
03__ASM_ALL_CURVES
100
AcDbLine
 62
40
  6
CONTINUOUS
 10
7.0789510759
 20
5.8203974326
 11
7.0612760759
 21
5.7968307663
  0
LINE
  5
3F8
100
AcDbEntity
  8
03__ASM_ALL_CURVES
100
AcDbLine
 62
40
  6
CONTINUOUS
 10
4.7891735725
 20
2.6743999326
 11
4.7759173225
 21
2.6567249329
  0
LINE
  5
3F9
100
AcDbEntity
  8
03__ASM_ALL_CURVES
100
AcDbLine
 62
40
  6
CONTINUOUS
 10
7.3617510759
 20
5.8793141021
 11
7.3529135759
 21
5.8675307631
  0
LINE
  5
3FA
100
AcDbEntity
  8
03__ASM_ALL_CURVES
100
AcDbLine
 62
40
  6
CONTINUOUS
 10
3.6093673225
 20
2.7097499305
 11
3.5961110725
 21
2.7009124326
  0
LINE
  5
3FB
100
AcDbEntity
  8
03__ASM_ALL_CURVES
100
AcDbLine
 62
40
  6
CONTINUOUS
 10
3.7154173225
 20
2.7097499305
 11
3.7021610725
 21
2.7009124326
  0
LINE
  5
3FC
100
AcDbEntity
  8
03__ASM_ALL_CURVES
100
AcDbLine
 62
40
  6
CONTINUOUS
 10
4.0368813932
 20
2.8723599305
 11
4.0236251432
 21
2.8635224326
  0
LINE
  5
3FD
100
AcDbEntity
  8
03__ASM_ALL_CURVES
100
AcDbLine
 62
40
  6
CONTINUOUS
 10
4.1031626432
 20
2.9077099347
 11
4.1164188932
 21
2.9165474326
  0
LINE
  5
3FE
100
AcDbEntity
  8
03__ASM_ALL_CURVES
100
AcDbLine
 62
40
  6
CONTINUOUS
 10
3.8877485725
 20
2.7450999347
 11
3.9010048225
 21
2.7539374326
  0
LINE
  5
3FF
100
AcDbEntity
  8
03__ASM_ALL_CURVES
100
AcDbLine
 62
40
  6
CONTINUOUS
 10
4.1429313932
 20
2.8193349329
 11
4.1296751432
 21
2.8104974326
  0
LINE
  5
400
100
AcDbEntity
  8
03__ASM_ALL_CURVES
100
AcDbLine
 62
40
  6
CONTINUOUS
 10
4.2489813932
 20
2.8723599305
 11
4.2357251432
 21
2.8635224326
  0
LINE
  5
401
100
AcDbEntity
  8
03__ASM_ALL_CURVES
100
AcDbLine
 62
40
  6
CONTINUOUS
 10
3.9275173225
 20
2.6567249329
 11
3.9142610725
 21
2.6478874326
  0
LINE
  5
402
100
AcDbEntity
  8
03__ASM_ALL_CURVES
100
AcDbLine
 62
40
  6
CONTINUOUS
 10
4.0335673225
 20
2.7097499305
 11
4.0203110725
 21
2.7009124326
  0
LINE
  5
403
100
AcDbEntity
  8
03__ASM_ALL_CURVES
100
AcDbLine
 62
40
  6
CONTINUOUS
 10
8.2330079496
 20
4.3662424326
 11
8.1998673246
 21
4.3662424326
  0
LINE
  5
404
100
AcDbEntity
  8
03__ASM_ALL_CURVES
100
AcDbLine
 62
40
  6
CONTINUOUS
 10
8.6240673246
 20
4.3662424326
 11
8.6572079496
 21
4.3662424326
  0
LINE
  5
405
100
AcDbEntity
  8
03__ASM_ALL_CURVES
100
AcDbLine
 62
40
  6
CONTINUOUS
 10
8.9422173246
 20
4.3662424326
 11
8.9753579496
 21
4.3662424326
  0
LINE
  5
406
100
AcDbEntity
  8
03__ASM_ALL_CURVES
100
AcDbLine
 62
40
  6
CONTINUOUS
 10
9.7906173246
 20
4.3662424326
 11
9.8237579496
 21
4.3662424326
  0
LINE
  5
407
100
AcDbEntity
  8
03__ASM_ALL_CURVES
100
AcDbLine
 62
40
  6
CONTINUOUS
 10
7.7955516996
 20
4.4192674326
 11
7.8088079496
 21
4.4192674326
  0
LINE
  5
408
100
AcDbEntity
  8
03__ASM_ALL_CURVES
100
AcDbLine
 62
40
  6
CONTINUOUS
 10
7.9016016996
 20
4.4192674326
 11
7.9148579496
 21
4.4192674326
  0
LINE
  5
409
100
AcDbEntity
  8
03__ASM_ALL_CURVES
100
AcDbLine
 62
40
  6
CONTINUOUS
 10
8.0871891996
 20
4.4192674326
 11
8.1534704496
 21
4.4192674326
  0
LINE
  5
40A
100
AcDbEntity
  8
03__ASM_ALL_CURVES
100
AcDbLine
 62
40
  6
CONTINUOUS
 10
8.1998673246
 20
4.4192674326
 11
8.2330079496
 21
4.4192674326
  0
LINE
  5
40B
100
AcDbEntity
  8
03__ASM_ALL_CURVES
100
AcDbLine
 62
40
  6
CONTINUOUS
 10
8.3258016996
 20
4.4192674326
 11
8.3390579496
 21
4.4192674326
  0
LINE
  5
40C
100
AcDbEntity
  8
03__ASM_ALL_CURVES
100
AcDbLine
 62
40
  6
CONTINUOUS
 10
8.6240673246
 20
4.4192674326
 11
8.6770923246
 21
4.4192674326
  0
LINE
  5
40D
100
AcDbEntity
  8
03__ASM_ALL_CURVES
100
AcDbLine
 62
40
  6
CONTINUOUS
 10
8.7301173246
 20
4.4192674326
 11
8.7566298246
 21
4.4192674326
  0
LINE
  5
40E
100
AcDbEntity
  8
03__ASM_ALL_CURVES
100
AcDbLine
 62
40
  6
CONTINUOUS
 10
8.9422173246
 20
4.4192674326
 11
8.9952423246
 21
4.4192674326
  0
LINE
  5
40F
100
AcDbEntity
  8
03__ASM_ALL_CURVES
100
AcDbLine
 62
40
  6
CONTINUOUS
 10
9.1742016996
 20
4.4192674326
 11
9.1874579496
 21
4.4192674326
  0
LINE
  5
410
100
AcDbEntity
  8
03__ASM_ALL_CURVES
100
AcDbLine
 62
40
  6
CONTINUOUS
 10
9.7906173246
 20
4.4192674326
 11
9.8436423246
 21
4.4192674326
  0
LINE
  5
411
100
AcDbEntity
  8
03__ASM_ALL_CURVES
100
AcDbLine
 62
40
  6
CONTINUOUS
 10
9.8900391996
 20
4.4192674326
 11
9.9563204496
 21
4.4192674326
  0
LINE
  5
412
100
AcDbEntity
  8
03__ASM_ALL_CURVES
100
AcDbLine
 62
40
  6
CONTINUOUS
 10
7.9016016996
 20
4.4758274326
 11
7.8883454496
 21
4.4758274326
  0
LINE
  5
413
100
AcDbEntity
  8
03__ASM_ALL_CURVES
100
AcDbLine
 62
40
  6
CONTINUOUS
 10
8.0076516996
 20
4.5288524326
 11
7.9745110746
 21
4.5288524326
  0
LINE
  5
414
100
AcDbEntity
  8
03__ASM_ALL_CURVES
100
AcDbLine
 62
40
  6
CONTINUOUS
 10
7.7955516996
 20
4.5288524326
 11
7.7624110746
 21
4.5288524326
  0
LINE
  5
415
100
AcDbEntity
  8
03__ASM_ALL_CURVES
100
AcDbLine
 62
40
  6
CONTINUOUS
 10
7.7624110746
 20
4.5818774326
 11
7.7955516996
 21
4.5818774326
  0
LINE
  5
416
100
AcDbEntity
  8
03__ASM_ALL_CURVES
100
AcDbLine
 62
40
  6
CONTINUOUS
 10
7.8883454496
 20
4.5818774326
 11
7.9016016996
 21
4.5818774326
  0
LINE
  5
417
100
AcDbEntity
  8
03__ASM_ALL_CURVES
100
AcDbLine
 62
40
  6
CONTINUOUS
 10
7.9745110746
 20
4.5818774326
 11
8.0076516996
 21
4.5818774326
  0
LINE
  5
418
100
AcDbEntity
  8
03__ASM_ALL_CURVES
100
AcDbLine
 62
40
  6
CONTINUOUS
 10
8.0739329496
 20
4.5818774326
 11
8.1402141996
 21
4.5818774326
  0
LINE
  5
419
100
AcDbEntity
  8
03__ASM_ALL_CURVES
100
AcDbLine
 62
40
  6
CONTINUOUS
 10
3.6486110745
 20
5.7850474326
 11
3.6309360745
 21
5.7968307663
  0
LINE
  5
41A
100
AcDbEntity
  8
03__ASM_ALL_CURVES
100
AcDbLine
 62
40
  6
CONTINUOUS
 10
3.7900110745
 20
5.7850474326
 11
3.7723360745
 21
5.7968307663
  0
LINE
  5
41B
100
AcDbEntity
  8
03__ASM_ALL_CURVES
100
AcDbLine
 62
40
  6
CONTINUOUS
 10
3.6486110745
 20
5.9264474326
 11
3.6662860745
 21
5.9146641021
  0
LINE
  5
41C
100
AcDbEntity
  8
03__ASM_ALL_CURVES
100
AcDbLine
 62
40
  6
CONTINUOUS
 10
3.7900110745
 20
5.9264474326
 11
3.8076860745
 21
5.9146641021
  0
LINE
  5
41D
100
AcDbEntity
  8
03__ASM_ALL_CURVES
100
AcDbLine
 62
40
  6
CONTINUOUS
 10
6.409039167
 20
2.8635224326
 11
6.428923542
 21
2.8104974326
  0
LINE
  5
41E
100
AcDbEntity
  8
03__ASM_ALL_CURVES
100
AcDbLine
 62
40
  6
CONTINUOUS
 10
5.4882010759
 20
5.9264474326
 11
5.5323885759
 21
5.7850474326
  0
LINE
  5
41F
100
AcDbEntity
  8
03__ASM_ALL_CURVES
100
AcDbLine
 62
40
  6
CONTINUOUS
 10
6.263220417
 20
2.8370099326
 11
6.256592292
 21
2.8635224326
  0
LINE
  5
420
100
AcDbEntity
  8
03__ASM_ALL_CURVES
100
AcDbLine
 62
40
  6
CONTINUOUS
 10
6.329501667
 20
2.8900349326
 11
6.336129792
 21
2.8635224326
  0
LINE
  5
421
100
AcDbEntity
  8
03__ASM_ALL_CURVES
100
AcDbLine
 62
40
  6
CONTINUOUS
 10
6.163798542
 20
2.8104974326
 11
6.163798542
 21
2.9165474326
  0
LINE
  5
422
100
AcDbEntity
  8
0
100
AcDbLine
 62
7
  6
CONTINUOUS
 10
6.1674110745
 20
4.0105306505
 11
6.1674110745
 21
4.0464017513
  0
LINE
  5
423
100
AcDbEntity
  8
0
100
AcDbLine
 62
7
  6
CONTINUOUS
 10
6.1674110745
 20
4.3103279318
 11
6.1674110745
 21
4.5849085136
  0
LINE
  5
424
100
AcDbEntity
  8
0
100
AcDbLine
 62
7
  6
CONTINUOUS
 10
6.1674110745
 20
4.8486932734
 11
6.1674110745
 21
4.8845677919
  0
LINE
  5
425
100
AcDbEntity
  8
0
100
AcDbLine
 62
7
  6
CONTINUOUS
 10
6.1744110745
 20
4.0497708893
 11
6.1744110745
 21
4.0085830804
  0
LINE
  5
426
100
AcDbEntity
  8
0
100
AcDbLine
 62
7
  6
CONTINUOUS
 10
6.1744110745
 20
4.3071248168
 11
6.1744110745
 21
4.5879986465
  0
LINE
  5
427
100
AcDbEntity
  8
0
100
AcDbLine
 62
7
  6
CONTINUOUS
 10
6.1744110745
 20
4.8453237387
 11
6.1744110745
 21
4.8866365678
  0
LINE
  5
428
100
AcDbEntity
  8
0
100
AcDbLine
 62
7
  6
CONTINUOUS
 10
6.1844110745
 20
4.0527395248
 11
6.1844110745
 21
4.0064352209
  0
LINE
  5
429
100
AcDbEntity
  8
0
100
AcDbLine
 62
7
  6
CONTINUOUS
 10
6.1844110745
 20
4.3025489381
 11
6.1844110745
 21
4.592413122
  0
LINE
  5
42A
100
AcDbEntity
  8
0
100
AcDbLine
 62
7
  6
CONTINUOUS
 10
6.1844110745
 20
4.8423552295
 11
6.1844110745
 21
4.8885479195
  0
LINE
  5
42B
100
AcDbEntity
  8
0
100
AcDbLine
 62
7
  6
CONTINUOUS
 10
6.1914110745
 20
4.0053739257
 11
6.1914110745
 21
4.0548175696
  0
LINE
  5
42C
100
AcDbEntity
  8
0
100
AcDbLine
 62
7
  6
CONTINUOUS
 10
6.1914110745
 20
4.2995299052
 11
6.1914110745
 21
4.5955032548
  0
LINE
  5
42D
100
AcDbEntity
  8
0
100
AcDbLine
 62
7
  6
CONTINUOUS
 10
6.1914110745
 20
4.8402772731
 11
6.1914110745
 21
4.8896646463
  0
LINE
  5
42E
100
AcDbEntity
  8
03__ASM_ALL_CURVES
100
AcDbLine
 62
40
  6
CONTINUOUS
 10
6.216823542
 20
2.8988724305
 11
6.216823542
 21
2.8811974347
  0
LINE
  5
42F
100
AcDbEntity
  8
0
100
AcDbLine
 62
7
  6
CONTINUOUS
 10
6.2294110745
 20
4.0016962227
 11
6.2294110745
 21
4.061403297
  0
LINE
  5
430
100
AcDbEntity
  8
0
100
AcDbLine
 62
7
  6
CONTINUOUS
 10
6.2294110745
 20
4.2924927569
 11
6.2294110745
 21
4.6027500266
  0
LINE
  5
431
100
AcDbEntity
  8
0
100
AcDbLine
 62
7
  6
CONTINUOUS
 10
6.2294110745
 20
4.8336915184
 11
6.2294110745
 21
4.8933734021
  0
LINE
  5
432
100
AcDbEntity
  8
0
100
AcDbLine
 62
7
  6
CONTINUOUS
 10
6.2364110745
 20
4.062077514
 11
6.2364110745
 21
4.0013591724
  0
LINE
  5
433
100
AcDbEntity
  8
0
100
AcDbLine
 62
7
  6
CONTINUOUS
 10
6.2364110745
 20
4.2924410055
 11
6.2364110745
 21
4.6027080182
  0
LINE
  5
434
100
AcDbEntity
  8
0
100
AcDbLine
 62
7
  6
CONTINUOUS
 10
6.2364110745
 20
4.8330173331
 11
6.2364110745
 21
4.8937265145
  0
LINE
  5
435
100
AcDbEntity
  8
0
100
AcDbLine
 62
7
  6
CONTINUOUS
 10
6.2464110745
 20
4.0618849021
 11
6.2464110745
 21
4.0014691659
  0
LINE
  5
436
100
AcDbEntity
  8
0
100
AcDbLine
 62
7
  6
CONTINUOUS
 10
6.2464110745
 20
4.292367075
 11
6.2464110745
 21
4.6026480063
  0
LINE
  5
437
100
AcDbEntity
  8
0
100
AcDbLine
 62
7
  6
CONTINUOUS
 10
6.2464110745
 20
4.833209982
 11
6.2464110745
 21
4.8936393767
  0
LINE
  5
438
100
AcDbEntity
  8
0
100
AcDbLine
 62
7
  6
CONTINUOUS
 10
6.2534110745
 20
4.0018221918
 11
6.2534110745
 21
4.0612107102
  0
LINE
  5
439
100
AcDbEntity
  8
0
100
AcDbLine
 62
7
  6
CONTINUOUS
 10
6.2534110745
 20
4.2923153236
 11
6.2534110745
 21
4.602605998
  0
LINE
  5
43A
100
AcDbEntity
  8
0
100
AcDbLine
 62
7
  6
CONTINUOUS
 10
6.2534110745
 20
4.833884196
 11
6.2534110745
 21
4.8933023077
  0
LINE
  5
43B
100
AcDbEntity
  8
03__ASM_ALL_CURVES
100
AcDbLine
 62
40
  6
CONTINUOUS
 10
6.2665345082
 20
2.7362624305
 11
6.2665345082
 21
2.7274249326
  0
LINE
  5
43C
100
AcDbEntity
  8
0
100
AcDbLine
 62
7
  6
CONTINUOUS
 10
6.2914110745
 20
4.0057489083
 11
6.2914110745
 21
4.0542238689
  0
LINE
  5
43D
100
AcDbEntity
  8
0
100
AcDbLine
 62
7
  6
CONTINUOUS
 10
6.2914110745
 20
4.30049001
 11
6.2914110745
 21
4.5948057502
  0
LINE
  5
43E
100
AcDbEntity
  8
0
100
AcDbLine
 62
7
  6
CONTINUOUS
 10
6.2914110745
 20
4.8408710151
 11
6.2914110745
 21
4.88941762
  0
LINE
  5
43F
100
AcDbEntity
  8
0
100
AcDbLine
 62
7
  6
CONTINUOUS
 10
6.2984110745
 20
4.0521458893
 11
6.2984110745
 21
4.0068653259
  0
LINE
  5
440
100
AcDbEntity
  8
0
100
AcDbLine
 62
7
  6
CONTINUOUS
 10
6.2984110745
 20
4.3035717062
 11
6.2984110745
 21
4.591616767
  0
LINE
  5
441
100
AcDbEntity
  8
0
100
AcDbLine
 62
7
  6
CONTINUOUS
 10
6.2984110745
 20
4.8429490503
 11
6.2984110745
 21
4.8883562605
  0
LINE
  5
442
100
AcDbEntity
  8
03__ASM_ALL_CURVES
100
AcDbLine
 62
40
  6
CONTINUOUS
 10
6.3012510759
 20
5.9028807631
 11
6.3012510759
 21
5.8910974326
  0
LINE
  5
443
100
AcDbEntity
  8
0
100
AcDbLine
 62
7
  6
CONTINUOUS
 10
6.3084110745
 20
4.0490263178
 11
6.3084110745
 21
4.0090500392
  0
LINE
  5
444
100
AcDbEntity
  8
0
100
AcDbLine
 62
7
  6
CONTINUOUS
 10
6.3084110745
 20
4.3079741294
 11
6.3084110745
 21
4.5870610766
  0
LINE
  5
445
100
AcDbEntity
  8
0
100
AcDbLine
 62
7
  6
CONTINUOUS
 10
6.3084110745
 20
4.8460683935
 11
6.3084110745
 21
4.8859554091
  0
LINE
  5
446
100
AcDbEntity
  8
0
100
AcDbLine
 62
7
  6
CONTINUOUS
 10
6.3154110745
 20
4.0111181217
 11
6.3154110745
 21
4.0453517664
  0
LINE
  5
447
100
AcDbEntity
  8
0
100
AcDbLine
 62
7
  6
CONTINUOUS
 10
6.3154110745
 20
4.3110558256
 11
6.3154110745
 21
4.5838720933
  0
LINE
  5
448
100
AcDbEntity
  8
0
100
AcDbLine
 62
7
  6
CONTINUOUS
 10
6.3154110745
 20
4.8497430264
 11
6.3154110745
 21
4.8840076994
  0
LINE
  5
449
100
AcDbEntity
  8
03__ASM_ALL_CURVES
100
AcDbLine
 62
40
  6
CONTINUOUS
 10
6.3195595082
 20
2.6832374336
 11
6.3195595082
 21
2.6655624331
  0
LINE
  5
44A
100
AcDbEntity
  8
0
100
AcDbLine
 62
7
  6
CONTINUOUS
 10
6.3534110745
 20
4.3412000149
 11
6.3534110745
 21
4.5539726672
  0
LINE
  5
44B
100
AcDbEntity
  8
0
100
AcDbLine
 62
7
  6
CONTINUOUS
 10
6.3604110745
 20
4.3489304284
 11
6.3604110745
 21
4.5461097503
  0
LINE
  5
44C
100
AcDbEntity
  8
0
100
AcDbLine
 62
7
  6
CONTINUOUS
 10
6.3704110745
 20
4.3624768396
 11
6.3704110745
 21
4.5327620335
  0
LINE
  5
44D
100
AcDbEntity
  8
03__ASM_ALL_CURVES
100
AcDbLine
 62
40
  6
CONTINUOUS
 10
6.3719510759
 20
5.8321807673
 11
6.3719510759
 21
5.8086141
  0
LINE
  5
44E
100
AcDbEntity
  8
03__ASM_ALL_CURVES
100
AcDbLine
 62
40
  6
CONTINUOUS
 10
6.3725845082
 20
2.7362624305
 11
6.3725845082
 21
2.7274249326
  0
LINE
  5
44F
100
AcDbEntity
  8
03__ASM_ALL_CURVES
100
AcDbLine
 62
40
  6
CONTINUOUS
 10
6.375898542
 20
2.8104974326
 11
6.375898542
 21
2.9165474326
  0
LINE
  5
450
100
AcDbEntity
  8
0
100
AcDbLine
 62
7
  6
CONTINUOUS
 10
6.3774110745
 20
4.3745356333
 11
6.3774110745
 21
4.5205354085
  0
LINE
  5
451
100
AcDbEntity
  8
03__ASM_ALL_CURVES
100
AcDbLine
 62
40
  6
CONTINUOUS
 10
6.4256095082
 20
2.6832374336
 11
6.4256095082
 21
2.6655624331
  0
LINE
  5
452
100
AcDbEntity
  8
03__ASM_ALL_CURVES
100
AcDbLine
 62
40
  6
CONTINUOUS
 10
6.428923542
 20
2.8988724305
 11
6.428923542
 21
2.8811974347
  0
LINE
  5
453
100
AcDbEntity
  8
03__ASM_ALL_CURVES
100
AcDbLine
 62
40
  6
CONTINUOUS
 10
6.5663760759
 20
5.8557474326
 11
6.5752135759
 21
5.8910974326
  0
LINE
  5
454
100
AcDbEntity
  8
03__ASM_ALL_CURVES
100
AcDbLine
 62
40
  6
CONTINUOUS
 10
6.6724260759
 20
5.8557474326
 11
6.6635885759
 21
5.8203974326
  0
LINE
  5
455
100
AcDbEntity
  8
THREAD
100
AcDbLine
 62
7
  6
CONTINUOUS
 10
5.6204110745
 20
3.6035474326
 11
5.5229110745
 21
3.5060474326
  0
LINE
  5
456
100
AcDbEntity
  8
0
100
AcDbLine
 62
7
  6
CONTINUOUS
 10
5.7404110745
 20
3.6165474326
 11
5.7274110745
 21
3.6035474326
  0
LINE
  5
457
100
AcDbEntity
  8
03__ASM_ALL_CURVES
100
AcDbLine
 62
40
  6
CONTINUOUS
 10
4.4213126432
 20
2.9077099347
 11
4.4345688932
 21
2.9165474326
  0
LINE
  5
458
100
AcDbEntity
  8
03__ASM_ALL_CURVES
100
AcDbLine
 62
40
  6
CONTINUOUS
 10
4.4610813932
 20
2.8811974347
 11
4.4478251432
 21
2.8723599305
  0
LINE
  5
459
100
AcDbEntity
  8
03__ASM_ALL_CURVES
100
AcDbLine
 62
40
  6
CONTINUOUS
 10
4.4610813932
 20
2.8193349329
 11
4.4478251432
 21
2.8104974326
  0
LINE
  5
45A
100
AcDbEntity
  8
0
100
AcDbLine
 62
7
  6
CONTINUOUS
 10
2.5839743417
 20
4.8854567497
 11
1.7133837058
 21
4.8854567497
  0
LINE
  5
45B
100
AcDbEntity
  8
THREAD
100
AcDbLine
 62
7
  6
CONTINUOUS
 10
5.6204110745
 20
5.2915474326
 11
5.5229110745
 21
5.3890474326
  0
LINE
  5
45C
100
AcDbEntity
  8
03__ASM_ALL_CURVES
100
AcDbLine
 62
40
  6
CONTINUOUS
 10
5.1788885759
 20
5.7968307663
 11
5.1612135759
 21
5.8203974326
  0
LINE
  5
45D
100
AcDbEntity
  8
03__ASM_ALL_CURVES
100
AcDbLine
 62
40
  6
CONTINUOUS
 10
5.3202885759
 20
5.7968307663
 11
5.3026135759
 21
5.8203974326
  0
LINE
  5
45E
100
AcDbEntity
  8
03__ASM_ALL_CURVES
100
AcDbLine
 62
40
  6
CONTINUOUS
 10
5.2319135759
 20
5.9146641021
 11
5.2495885759
 21
5.8910974326
  0
LINE
  5
45F
100
AcDbEntity
  8
03__ASM_ALL_CURVES
100
AcDbLine
 62
40
  6
CONTINUOUS
 10
5.3733135759
 20
5.9146641021
 11
5.3821510759
 21
5.9028807631
  0
LINE
  5
460
100
AcDbEntity
  8
03__ASM_ALL_CURVES
100
AcDbLine
 62
40
  6
CONTINUOUS
 10
6.7901563832
 20
2.6743999326
 11
6.7835282582
 21
2.7009124326
  0
LINE
  5
461
100
AcDbEntity
  8
03__ASM_ALL_CURVES
100
AcDbLine
 62
40
  6
CONTINUOUS
 10
6.0096135759
 20
5.8203974326
 11
6.0007760759
 21
5.8557474326
  0
LINE
  5
462
100
AcDbEntity
  8
03__ASM_ALL_CURVES
100
AcDbLine
 62
40
  6
CONTINUOUS
 10
6.4426510759
 20
5.9264474326
 11
6.4426510759
 21
5.7850474326
  0
LINE
  5
463
100
AcDbEntity
  8
03__ASM_ALL_CURVES
100
AcDbLine
 62
40
  6
CONTINUOUS
 10
6.508461042
 20
2.9165474326
 11
6.508461042
 21
2.8104974326
  0
LINE
  5
464
100
AcDbEntity
  8
03__ASM_ALL_CURVES
100
AcDbLine
 62
40
  6
CONTINUOUS
 10
6.5133510759
 20
5.9264474326
 11
6.5133510759
 21
5.7850474326
  0
LINE
  5
465
100
AcDbEntity
  8
03__ASM_ALL_CURVES
100
AcDbLine
 62
40
  6
CONTINUOUS
 10
6.5846845082
 20
2.6478874326
 11
6.5846845082
 21
2.7539374326
  0
LINE
  5
466
100
AcDbEntity
  8
03__ASM_ALL_CURVES
100
AcDbLine
 62
40
  6
CONTINUOUS
 10
6.641023542
 20
2.8988724305
 11
6.641023542
 21
2.8811974347
  0
LINE
  5
467
100
AcDbEntity
  8
03__ASM_ALL_CURVES
100
AcDbLine
 62
40
  6
CONTINUOUS
 10
6.6907345082
 20
2.7539374326
 11
6.6907345082
 21
2.6478874326
  0
LINE
  5
468
100
AcDbEntity
  8
03__ASM_ALL_CURVES
100
AcDbLine
 62
40
  6
CONTINUOUS
 10
6.7254510759
 20
5.8086141
 11
6.7254510759
 21
5.9264474326
  0
LINE
  5
469
100
AcDbEntity
  8
03__ASM_ALL_CURVES
100
AcDbLine
 62
40
  6
CONTINUOUS
 10
6.256592292
 20
2.8635224326
 11
6.263220417
 21
2.8900349326
  0
LINE
  5
46A
100
AcDbEntity
  8
03__ASM_ALL_CURVES
100
AcDbLine
 62
40
  6
CONTINUOUS
 10
6.336129792
 20
2.8635224326
 11
6.329501667
 21
2.8370099326
  0
LINE
  5
46B
100
AcDbEntity
  8
03__ASM_ALL_CURVES
100
AcDbLine
 62
40
  6
CONTINUOUS
 10
7.0877885759
 20
5.8557474326
 11
7.0789510759
 21
5.8203974326
  0
LINE
  5
46C
100
AcDbEntity
  8
03__ASM_ALL_CURVES
100
AcDbLine
 62
40
  6
CONTINUOUS
 10
6.1538563832
 20
2.6478874326
 11
6.1869970082
 21
2.7539374326
  0
LINE
  5
46D
100
AcDbEntity
  8
03__ASM_ALL_CURVES
100
AcDbLine
 62
40
  6
CONTINUOUS
 10
5.9748970082
 20
2.7009124326
 11
6.0014095082
 21
2.7539374326
  0
LINE
  5
46E
100
AcDbEntity
  8
03__ASM_ALL_CURVES
100
AcDbLine
 62
40
  6
CONTINUOUS
 10
4.7361485725
 20
2.7450999347
 11
4.7494048225
 21
2.7539374326
  0
LINE
  5
46F
100
AcDbEntity
  8
03__ASM_ALL_CURVES
100
AcDbLine
 62
40
  6
CONTINUOUS
 10
4.7759173225
 20
2.6567249329
 11
4.7626610725
 21
2.6478874326
  0
LINE
  5
470
100
AcDbEntity
  8
03__ASM_ALL_CURVES
100
AcDbLine
 62
40
  6
CONTINUOUS
 10
7.8088079496
 20
4.5376899305
 11
7.7955516996
 21
4.5288524326
  0
LINE
  5
471
100
AcDbEntity
  8
03__ASM_ALL_CURVES
100
AcDbLine
 62
40
  6
CONTINUOUS
 10
7.8750891996
 20
4.5730399347
 11
7.8883454496
 21
4.5818774326
  0
LINE
  5
472
100
AcDbEntity
  8
0
100
AcDbLine
 62
7
  6
CONTINUOUS
 10
2.5839743417
 20
4.932242774
 11
1.7133837058
 21
4.932242774
  0
LINE
  5
473
100
AcDbEntity
  8
0
100
AcDbLine
 62
7
  6
CONTINUOUS
 10
7.1829110745
 20
5.1652974326
 11
7.1624110745
 21
5.1652974326
  0
LINE
  5
474
100
AcDbEntity
  8
0
100
AcDbLine
 62
7
  6
CONTINUOUS
 10
6.8654110745
 20
5.1652974326
 11
6.3964110745
 21
5.1652974326
  0
LINE
  5
475
100
AcDbEntity
  8
0
100
AcDbLine
 62
7
  6
CONTINUOUS
 10
6.0844110745
 20
5.1652974326
 11
5.7404110745
 21
5.1652974326
  0
LINE
  5
476
100
AcDbEntity
  8
03__ASM_ALL_CURVES
100
AcDbLine
 62
40
  6
CONTINUOUS
 10
1.8160910745
 20
5.7049207659
 11
1.6464110745
 21
5.7284874326
  0
LINE
  5
477
100
AcDbEntity
  8
03__ASM_ALL_CURVES
100
AcDbLine
 62
40
  6
CONTINUOUS
 10
1.8160910745
 20
5.7002074326
 11
1.6464110745
 21
5.7284874326
  0
LINE
  5
478
100
AcDbEntity
  8
03__ASM_ALL_CURVES
100
AcDbLine
 62
40
  6
CONTINUOUS
 10
5.1965635759
 20
5.7850474326
 11
5.1788885759
 21
5.7968307663
  0
LINE
  5
479
100
AcDbEntity
  8
0
100
AcDbLine
 62
7
  6
CONTINUOUS
 10
5.7404110745
 20
5.2785474326
 11
5.7274110745
 21
5.2915474326
  0
LINE
  5
47A
100
AcDbEntity
  8
03__ASM_ALL_CURVES
100
AcDbLine
 62
40
  6
CONTINUOUS
 10
5.8770510759
 20
5.9264474326
 11
5.9477510759
 21
5.7850474326
  0
LINE
  5
47B
100
AcDbEntity
  8
03__ASM_ALL_CURVES
100
AcDbLine
 62
40
  6
CONTINUOUS
 10
6.8564376332
 20
2.7274249326
 11
6.8630657582
 21
2.7009124326
  0
LINE
  5
47C
100
AcDbEntity
  8
03__ASM_ALL_CURVES
100
AcDbLine
 62
40
  6
CONTINUOUS
 10
6.8895782582
 20
2.7539374326
 11
6.9094626332
 21
2.6478874326
  0
LINE
  5
47D
100
AcDbEntity
  8
03__ASM_ALL_CURVES
100
AcDbLine
 62
40
  6
CONTINUOUS
 10
6.9293470082
 20
2.7539374326
 11
6.9492313832
 21
2.6478874326
  0
LINE
  5
47E
100
AcDbEntity
  8
03__ASM_ALL_CURVES
100
AcDbLine
 62
40
  6
CONTINUOUS
 10
6.7961510759
 20
5.9264474326
 11
6.7961510759
 21
5.8086141
  0
LINE
  5
47F
100
AcDbEntity
  8
0
100
AcDbLine
 62
7
  6
CONTINUOUS
 10
6.8654110745
 20
5.2585474326
 11
6.8654110745
 21
3.6365474326
  0
LINE
  5
480
100
AcDbEntity
  8
03__ASM_ALL_CURVES
100
AcDbLine
 62
40
  6
CONTINUOUS
 10
6.8668510759
 20
5.9264474326
 11
6.8668510759
 21
5.7850474326
  0
LINE
  5
481
100
AcDbEntity
  8
0
100
AcDbLine
 62
7
  6
CONTINUOUS
 10
6.9594110745
 20
5.2585474326
 11
6.9594110745
 21
3.6365474326
  0
LINE
  5
482
100
AcDbEntity
  8
03__ASM_ALL_CURVES
100
AcDbLine
 62
40
  6
CONTINUOUS
 10
7.0082510759
 20
5.7850474326
 11
7.0082510759
 21
5.9264474326
  0
LINE
  5
483
100
AcDbEntity
  8
0
100
AcDbLine
 62
7
  6
CONTINUOUS
 10
7.0094110745
 20
3.6417974326
 11
7.0094110745
 21
5.2532974326
  0
LINE
  5
484
100
AcDbEntity
  8
03__ASM_ALL_CURVES
100
AcDbLine
 62
40
  6
CONTINUOUS
 10
6.594626667
 20
2.8370099326
 11
6.587998542
 21
2.8104974326
  0
LINE
  5
485
100
AcDbEntity
  8
03__ASM_ALL_CURVES
100
AcDbLine
 62
40
  6
CONTINUOUS
 10
5.8821032582
 20
2.7097499305
 11
5.8887313832
 21
2.7185874347
  0
LINE
  5
486
100
AcDbEntity
  8
03__ASM_ALL_CURVES
100
AcDbLine
 62
40
  6
CONTINUOUS
 10
5.8821032582
 20
2.6478874326
 11
5.8953595082
 21
2.6655624331
  0
LINE
  5
487
100
AcDbEntity
  8
03__ASM_ALL_CURVES
100
AcDbLine
 62
40
  6
CONTINUOUS
 10
6.216823542
 20
2.8811974347
 11
6.210195417
 21
2.8723599305
  0
LINE
  5
488
100
AcDbEntity
  8
03__ASM_ALL_CURVES
100
AcDbLine
 62
40
  6
CONTINUOUS
 10
6.1074595082
 20
2.7185874347
 11
6.1008313832
 21
2.7097499305
  0
LINE
  5
489
100
AcDbEntity
  8
03__ASM_ALL_CURVES
100
AcDbLine
 62
40
  6
CONTINUOUS
 10
6.263220417
 20
2.8900349326
 11
6.276476667
 21
2.9077099347
  0
LINE
  5
48A
100
AcDbEntity
  8
03__ASM_ALL_CURVES
100
AcDbLine
 62
40
  6
CONTINUOUS
 10
7.7822954496
 20
4.4104299347
 11
7.7955516996
 21
4.4192674326
  0
LINE
  5
48B
100
AcDbEntity
  8
03__ASM_ALL_CURVES
100
AcDbLine
 62
40
  6
CONTINUOUS
 10
7.9148579496
 20
4.4846649329
 11
7.9016016996
 21
4.4758274326
  0
LINE
  5
48C
100
AcDbEntity
  8
03__ASM_ALL_CURVES
100
AcDbLine
 62
40
  6
CONTINUOUS
 10
8.0209079496
 20
4.5376899305
 11
8.0076516996
 21
4.5288524326
  0
LINE
  5
48D
100
AcDbEntity
  8
03__ASM_ALL_CURVES
100
AcDbLine
 62
40
  6
CONTINUOUS
 10
7.8883454496
 20
4.4104299347
 11
7.9016016996
 21
4.4192674326
  0
LINE
  5
48E
100
AcDbEntity
  8
03__ASM_ALL_CURVES
100
AcDbLine
 62
40
  6
CONTINUOUS
 10
7.8220641996
 20
4.3220549329
 11
7.8088079496
 21
4.3132174326
  0
LINE
  5
48F
100
AcDbEntity
  8
03__ASM_ALL_CURVES
100
AcDbLine
 62
40
  6
CONTINUOUS
 10
7.9281141996
 20
4.3220549329
 11
7.9148579496
 21
4.3132174326
  0
LINE
  5
490
100
AcDbEntity
  8
0
100
AcDbLine
 62
7
  6
CONTINUOUS
 10
6.9594110745
 20
5.2532974326
 11
7.0094110745
 21
5.2532974326
  0
LINE
  5
491
100
AcDbEntity
  8
0
100
AcDbLine
 62
7
  6
CONTINUOUS
 10
7.1124110745
 20
5.2532974326
 11
7.1624110745
 21
5.2532974326
  0
LINE
  5
492
100
AcDbEntity
  8
0
100
AcDbLine
 62
7
  6
CONTINUOUS
 10
6.8654110745
 20
5.2585474326
 11
6.9594110745
 21
5.2585474326
  0
LINE
  5
493
100
AcDbEntity
  8
0
100
AcDbLine
 62
7
  6
CONTINUOUS
 10
7.1829110745
 20
5.2585474326
 11
7.3094110745
 21
5.2585474326
  0
LINE
  5
494
100
AcDbEntity
  8
THREAD
100
AcDbLine
 62
7
  6
CONTINUOUS
 10
5.7274110745
 20
5.2915474326
 11
5.6204110745
 21
5.2915474326
  0
LINE
  5
495
100
AcDbEntity
  8
0
100
AcDbLine
 62
7
  6
CONTINUOUS
 10
4.6102630168
 20
5.3535474326
 11
4.6004110745
 21
5.3535474326
  0
LINE
  5
496
100
AcDbEntity
  8
0
100
AcDbLine
 62
7
  6
CONTINUOUS
 10
4.2564110745
 20
5.3535474326
 11
4.1217138328
 21
5.3535474326
  0
LINE
  5
497
100
AcDbEntity
  8
0
100
AcDbLine
 62
7
  6
CONTINUOUS
 10
2.5839743417
 20
5.3701520911
 11
1.7133837058
 21
5.3701520911
  0
LINE
  5
498
100
AcDbEntity
  8
0
100
AcDbLine
 62
7
  6
CONTINUOUS
 10
2.5839743417
 20
5.3705474326
 11
1.7133837058
 21
5.3705474326
  0
LINE
  5
499
100
AcDbEntity
  8
0
100
AcDbLine
 62
7
  6
CONTINUOUS
 10
3.6152948498
 20
5.3850474326
 11
3.2404762285
 21
5.3850474326
  0
LINE
  5
49A
100
AcDbEntity
  8
THREAD
100
AcDbLine
 62
7
  6
CONTINUOUS
 10
5.5229110745
 20
5.3890474326
 11
5.0534332885
 21
5.3890474326
  0
LINE
  5
49B
100
AcDbEntity
  8
0
100
AcDbLine
 62
7
  6
CONTINUOUS
 10
3.9784110745
 20
5.3890474326
 11
3.9434110745
 21
5.3890474326
  0
LINE
  5
49C
100
AcDbEntity
  8
THREAD
100
AcDbLine
 62
7
  6
CONTINUOUS
 10
4.8494110745
 20
5.4010474326
 11
4.8024110745
 21
5.4010474326
  0
LINE
  5
49D
100
AcDbEntity
  8
0
100
AcDbLine
 62
7
  6
CONTINUOUS
 10
4.9524110745
 20
5.4015474326
 11
5.0024110745
 21
5.4015474326
  0
LINE
  5
49E
100
AcDbEntity
  8
0
100
AcDbLine
 62
7
  6
CONTINUOUS
 10
3.1014110745
 20
5.4045474326
 11
3.0804110745
 21
5.4045474326
  0
LINE
  5
49F
100
AcDbEntity
  8
0
100
AcDbLine
 62
7
  6
CONTINUOUS
 10
4.8024110745
 20
5.4750474326
 11
4.6804110745
 21
5.4750474326
  0
LINE
  5
4A0
100
AcDbEntity
  8
0
100
AcDbLine
 62
7
  6
CONTINUOUS
 10
4.0504110745
 20
5.4770474326
 11
3.9784110745
 21
5.4770474326
  0
LINE
  5
4A1
100
AcDbEntity
  8
0
100
AcDbLine
 62
7
  6
CONTINUOUS
 10
3.7404110745
 20
5.4770474326
 11
3.6684110745
 21
5.4770474326
  0
LINE
  5
4A2
100
AcDbEntity
  8
0
100
AcDbLine
 62
7
  6
CONTINUOUS
 10
3.1784110745
 20
5.4925474326
 11
3.1014110745
 21
5.4925474326
  0
LINE
  5
4A3
100
AcDbEntity
  8
0
100
AcDbLine
 62
7
  6
CONTINUOUS
 10
2.6544110745
 20
5.4925474326
 11
2.9774110745
 21
5.4925474326
  0
LINE
  5
4A4
100
AcDbEntity
  8
0
100
AcDbLine
 62
7
  6
CONTINUOUS
 10
3.7404110745
 20
5.4925474326
 11
3.7904110745
 21
5.4925474326
  0
LINE
  5
4A5
100
AcDbEntity
  8
0
100
AcDbLine
 62
7
  6
CONTINUOUS
 10
3.8934110745
 20
5.4925474326
 11
3.9434110745
 21
5.4925474326
  0
LINE
  5
4A6
100
AcDbEntity
  8
03__ASM_ALL_CURVES
100
AcDbLine
 62
40
  6
CONTINUOUS
 10
1.8160910745
 20
5.7190607659
 11
1.6464110745
 21
5.7284874326
  0
LINE
  5
4A7
100
AcDbEntity
  8
03__ASM_ALL_CURVES
100
AcDbLine
 62
40
  6
CONTINUOUS
 10
1.8160910745
 20
5.7143474326
 11
1.6464110745
 21
5.7284874326
  0
LINE
  5
4A8
100
AcDbEntity
  8
03__ASM_ALL_CURVES
100
AcDbLine
 62
40
  6
CONTINUOUS
 10
1.8160910745
 20
5.7096340993
 11
1.6464110745
 21
5.7284874326
  0
LINE
  5
4A9
100
AcDbEntity
  8
03__ASM_ALL_CURVES
100
AcDbLine
 62
40
  6
CONTINUOUS
 10
5.3379635759
 20
5.7850474326
 11
5.3202885759
 21
5.7968307663
  0
LINE
  5
4AA
100
AcDbEntity
  8
03__ASM_ALL_CURVES
100
AcDbLine
 62
40
  6
CONTINUOUS
 10
5.2142385759
 20
5.9264474326
 11
5.2319135759
 21
5.9146641021
  0
LINE
  5
4AB
100
AcDbEntity
  8
03__ASM_ALL_CURVES
100
AcDbLine
 62
40
  6
CONTINUOUS
 10
5.3556385759
 20
5.9264474326
 11
5.3733135759
 21
5.9146641021
  0
LINE
  5
4AC
100
AcDbEntity
  8
03__ASM_ALL_CURVES
100
AcDbLine
 62
40
  6
CONTINUOUS
 10
7.7955516996
 20
4.3132174326
 11
7.7822954496
 21
4.3220549329
  0
LINE
  5
4AD
100
AcDbEntity
  8
03__ASM_ALL_CURVES
100
AcDbLine
 62
40
  6
CONTINUOUS
 10
7.9016016996
 20
4.3132174326
 11
7.8883454496
 21
4.3220549329
  0
LINE
  5
4AE
100
AcDbEntity
  8
03__ASM_ALL_CURVES
100
AcDbLine
 62
40
  6
CONTINUOUS
 10
7.8088079496
 20
4.4192674326
 11
7.8220641996
 21
4.4104299347
  0
LINE
  5
4AF
100
AcDbEntity
  8
03__ASM_ALL_CURVES
100
AcDbLine
 62
40
  6
CONTINUOUS
 10
6.0272885759
 20
5.7968307663
 11
6.0096135759
 21
5.8203974326
  0
LINE
  5
4B0
100
AcDbEntity
  8
03__ASM_ALL_CURVES
100
AcDbLine
 62
40
  6
CONTINUOUS
 10
6.0803135759
 20
5.9146641021
 11
6.0891510759
 21
5.9028807631
  0
LINE
  5
4B1
100
AcDbEntity
  8
03__ASM_ALL_CURVES
100
AcDbLine
 62
40
  6
CONTINUOUS
 10
6.5752135759
 20
5.8203974326
 11
6.5663760759
 21
5.8557474326
  0
LINE
  5
4B2
100
AcDbEntity
  8
03__ASM_ALL_CURVES
100
AcDbLine
 62
40
  6
CONTINUOUS
 10
6.6635885759
 20
5.8910974326
 11
6.6724260759
 21
5.8557474326
  0
LINE
  5
4B3
100
AcDbEntity
  8
0
100
AcDbLine
 62
7
  6
CONTINUOUS
 10
7.1124110745
 20
3.6417974326
 11
7.1124110745
 21
5.2532974326
  0
LINE
  5
4B4
100
AcDbEntity
  8
03__ASM_ALL_CURVES
100
AcDbLine
 62
40
  6
CONTINUOUS
 10
7.1496510759
 20
5.7850474326
 11
7.1496510759
 21
5.9264474326
  0
LINE
  5
4B5
100
AcDbEntity
  8
0
100
AcDbLine
 62
7
  6
CONTINUOUS
 10
7.1624110745
 20
3.6417974326
 11
7.1624110745
 21
5.2532974326
  0
LINE
  5
4B6
100
AcDbEntity
  8
0
100
AcDbLine
 62
7
  6
CONTINUOUS
 10
7.1829110745
 20
3.6365486656
 11
7.1829110745
 21
5.2585461996
  0
LINE
  5
4B7
100
AcDbEntity
  8
0
100
AcDbLine
 62
7
  6
CONTINUOUS
 10
7.2004110745
 20
3.6365486656
 11
7.2004110745
 21
5.2585461996
  0
LINE
  5
4B8
100
AcDbEntity
  8
03__ASM_ALL_CURVES
100
AcDbLine
 62
40
  6
CONTINUOUS
 10
7.2910510759
 20
5.7850474326
 11
7.2910510759
 21
5.9264474326
  0
LINE
  5
4B9
100
AcDbEntity
  8
0
100
AcDbLine
 62
7
  6
CONTINUOUS
 10
7.2919110745
 20
3.6365474326
 11
7.2919110745
 21
5.2585474326
  0
LINE
  5
4BA
100
AcDbEntity
  8
0
100
AcDbLine
 62
7
  6
CONTINUOUS
 10
7.3094110745
 20
3.6365474326
 11
7.3094110745
 21
5.2585474326
  0
LINE
  5
4BB
100
AcDbEntity
  8
03__ASM_ALL_CURVES
100
AcDbLine
 62
40
  6
CONTINUOUS
 10
6.9094626332
 20
2.6478874326
 11
6.9293470082
 21
2.7539374326
  0
LINE
  5
4BC
100
AcDbEntity
  8
03__ASM_ALL_CURVES
100
AcDbLine
 62
40
  6
CONTINUOUS
 10
6.9492313832
 20
2.6478874326
 11
6.9691157582
 21
2.7539374326
  0
LINE
  5
4BD
100
AcDbEntity
  8
03__ASM_ALL_CURVES
100
AcDbLine
 62
40
  6
CONTINUOUS
 10
6.7835282582
 20
2.7009124326
 11
6.7901563832
 21
2.7274249326
  0
LINE
  5
4BE
100
AcDbEntity
  8
03__ASM_ALL_CURVES
100
AcDbLine
 62
40
  6
CONTINUOUS
 10
6.8630657582
 20
2.7009124326
 11
6.8564376332
 21
2.6743999326
  0
LINE
  5
4BF
100
AcDbEntity
  8
03__ASM_ALL_CURVES
100
AcDbLine
 62
40
  6
CONTINUOUS
 10
6.329501667
 20
2.8370099326
 11
6.316245417
 21
2.8193349329
  0
LINE
  5
4C0
100
AcDbEntity
  8
03__ASM_ALL_CURVES
100
AcDbLine
 62
40
  6
CONTINUOUS
 10
6.2731626332
 20
2.7450999347
 11
6.2665345082
 21
2.7362624305
  0
LINE
  5
4C1
100
AcDbEntity
  8
03__ASM_ALL_CURVES
100
AcDbLine
 62
40
  6
CONTINUOUS
 10
6.428923542
 20
2.8811974347
 11
6.422295417
 21
2.8723599305
  0
LINE
  5
4C2
100
AcDbEntity
  8
03__ASM_ALL_CURVES
100
AcDbLine
 62
40
  6
CONTINUOUS
 10
6.3792126332
 20
2.7450999347
 11
6.3725845082
 21
2.7362624305
  0
LINE
  5
4C3
100
AcDbEntity
  8
03__ASM_ALL_CURVES
100
AcDbLine
 62
40
  6
CONTINUOUS
 10
6.3195595082
 20
2.6655624331
 11
6.3129313832
 21
2.6567249329
  0
LINE
  5
4C4
100
AcDbEntity
  8
03__ASM_ALL_CURVES
100
AcDbLine
 62
40
  6
CONTINUOUS
 10
7.8154360746
 20
4.5465274347
 11
7.8088079496
 21
4.5376899305
  0
LINE
  5
4C5
100
AcDbEntity
  8
03__ASM_ALL_CURVES
100
AcDbLine
 62
40
  6
CONTINUOUS
 10
6.587998542
 20
2.8988724305
 11
6.594626667
 21
2.9077099347
  0
LINE
  5
4C6
100
AcDbEntity
  8
03__ASM_ALL_CURVES
100
AcDbLine
 62
40
  6
CONTINUOUS
 10
6.4256095082
 20
2.6655624331
 11
6.4189813832
 21
2.6567249329
  0
LINE
  5
4C7
100
AcDbEntity
  8
03__ASM_ALL_CURVES
100
AcDbLine
 62
40
  6
CONTINUOUS
 10
7.8618329496
 20
4.5553649326
 11
7.8750891996
 21
4.5730399347
  0
LINE
  5
4C8
100
AcDbEntity
  8
03__ASM_ALL_CURVES
100
AcDbLine
 62
40
  6
CONTINUOUS
 10
6.607882917
 20
2.8546849315
 11
6.594626667
 21
2.8370099326
  0
LINE
  5
4C9
100
AcDbEntity
  8
03__ASM_ALL_CURVES
100
AcDbLine
 62
40
  6
CONTINUOUS
 10
7.7690391996
 20
4.3927549326
 11
7.7822954496
 21
4.4104299347
  0
LINE
  5
4CA
100
AcDbEntity
  8
03__ASM_ALL_CURVES
100
AcDbLine
 62
40
  6
CONTINUOUS
 10
6.641023542
 20
2.8811974347
 11
6.634395417
 21
2.8723599305
  0
LINE
  5
4CB
100
AcDbEntity
  8
0
100
AcDbLine
 62
7
  6
CONTINUOUS
 10
7.3094110745
 20
3.6365474326
 11
7.3404110745
 21
3.6675474326
  0
LINE
  5
4CC
100
AcDbEntity
  8
03__ASM_ALL_CURVES
100
AcDbLine
 62
40
  6
CONTINUOUS
 10
8.2462641996
 20
4.3750799305
 11
8.2330079496
 21
4.3662424326
  0
LINE
  5
4CD
100
AcDbEntity
  8
03__ASM_ALL_CURVES
100
AcDbLine
 62
40
  6
CONTINUOUS
 10
8.3125454496
 20
4.4104299347
 11
8.3258016996
 21
4.4192674326
  0
LINE
  5
4CE
100
AcDbEntity
  8
03__ASM_ALL_CURVES
100
AcDbLine
 62
40
  6
CONTINUOUS
 10
8.3523141996
 20
4.3220549329
 11
8.3390579496
 21
4.3132174326
  0
LINE
  5
4CF
100
AcDbEntity
  8
03__ASM_ALL_CURVES
100
AcDbLine
 62
40
  6
CONTINUOUS
 10
6.210195417
 20
2.8723599305
 11
6.196939167
 21
2.8635224326
  0
LINE
  5
4D0
100
AcDbEntity
  8
03__ASM_ALL_CURVES
100
AcDbLine
 62
40
  6
CONTINUOUS
 10
6.276476667
 20
2.9077099347
 11
6.289732917
 21
2.9165474326
  0
LINE
  5
4D1
100
AcDbEntity
  8
03__ASM_ALL_CURVES
100
AcDbLine
 62
40
  6
CONTINUOUS
 10
6.1008313832
 20
2.7097499305
 11
6.0875751332
 21
2.7009124326
  0
LINE
  5
4D2
100
AcDbEntity
  8
03__ASM_ALL_CURVES
100
AcDbLine
 62
40
  6
CONTINUOUS
 10
6.316245417
 20
2.8193349329
 11
6.302989167
 21
2.8104974326
  0
LINE
  5
4D3
100
AcDbEntity
  8
03__ASM_ALL_CURVES
100
AcDbLine
 62
40
  6
CONTINUOUS
 10
6.422295417
 20
2.8723599305
 11
6.409039167
 21
2.8635224326
  0
LINE
  5
4D4
100
AcDbEntity
  8
03__ASM_ALL_CURVES
100
AcDbLine
 62
40
  6
CONTINUOUS
 10
4.6327310745
 20
5.7143474326
 11
4.9720910745
 21
5.7426274326
  0
LINE
  5
4D5
100
AcDbEntity
  8
03__ASM_ALL_CURVES
100
AcDbLine
 62
40
  6
CONTINUOUS
 10
4.6327310745
 20
5.7190607659
 11
4.9720910745
 21
5.7379140993
  0
LINE
  5
4D6
100
AcDbEntity
  8
03__ASM_ALL_CURVES
100
AcDbLine
 62
40
  6
CONTINUOUS
 10
4.6327310745
 20
5.7237740993
 11
4.9720910745
 21
5.7332007659
  0
LINE
  5
4D7
100
AcDbEntity
  8
03__ASM_ALL_CURVES
100
AcDbLine
 62
40
  6
CONTINUOUS
 10
1.6464110745
 20
5.7284874326
 11
7.5172910745
 21
5.7284874326
  0
LINE
  5
4D8
100
AcDbEntity
  8
03__ASM_ALL_CURVES
100
AcDbLine
 62
40
  6
CONTINUOUS
 10
7.2203510759
 20
5.7850474326
 11
7.1496510759
 21
5.7850474326
  0
LINE
  5
4D9
100
AcDbEntity
  8
03__ASM_ALL_CURVES
100
AcDbLine
 62
40
  6
CONTINUOUS
 10
7.0436010759
 20
5.7850474326
 11
7.0082510759
 21
5.7850474326
  0
LINE
  5
4DA
100
AcDbEntity
  8
03__ASM_ALL_CURVES
100
AcDbLine
 62
40
  6
CONTINUOUS
 10
6.7696385759
 20
5.7850474326
 11
6.7519635759
 21
5.7850474326
  0
LINE
  5
4DB
100
AcDbEntity
  8
03__ASM_ALL_CURVES
100
AcDbLine
 62
40
  6
CONTINUOUS
 10
6.6282385759
 20
5.7850474326
 11
6.6105635759
 21
5.7850474326
  0
LINE
  5
4DC
100
AcDbEntity
  8
03__ASM_ALL_CURVES
100
AcDbLine
 62
40
  6
CONTINUOUS
 10
6.3454385759
 20
5.7850474326
 11
6.3277635759
 21
5.7850474326
  0
LINE
  5
4DD
100
AcDbEntity
  8
03__ASM_ALL_CURVES
100
AcDbLine
 62
40
  6
CONTINUOUS
 10
6.0626385759
 20
5.7850474326
 11
6.0449635759
 21
5.7850474326
  0
LINE
  5
4DE
100
AcDbEntity
  8
03__ASM_ALL_CURVES
100
AcDbLine
 62
40
  6
CONTINUOUS
 10
5.3556385759
 20
5.7850474326
 11
5.3379635759
 21
5.7850474326
  0
LINE
  5
4DF
100
AcDbEntity
  8
03__ASM_ALL_CURVES
100
AcDbLine
 62
40
  6
CONTINUOUS
 10
5.2142385759
 20
5.7850474326
 11
5.1965635759
 21
5.7850474326
  0
LINE
  5
4E0
100
AcDbEntity
  8
03__ASM_ALL_CURVES
100
AcDbLine
 62
40
  6
CONTINUOUS
 10
3.5072110745
 20
5.7850474326
 11
3.4983735745
 21
5.7850474326
  0
LINE
  5
4E1
100
AcDbEntity
  8
03__ASM_ALL_CURVES
100
AcDbLine
 62
40
  6
CONTINUOUS
 10
3.2332485745
 20
5.7850474326
 11
3.2155735745
 21
5.7850474326
  0
LINE
  5
4E2
100
AcDbEntity
  8
03__ASM_ALL_CURVES
100
AcDbLine
 62
40
  6
CONTINUOUS
 10
2.9504485745
 20
5.7850474326
 11
2.9327735745
 21
5.7850474326
  0
LINE
  5
4E3
100
AcDbEntity
  8
03__ASM_ALL_CURVES
100
AcDbLine
 62
40
  6
CONTINUOUS
 10
2.6588110745
 20
5.7850474326
 11
2.6499735745
 21
5.7850474326
  0
LINE
  5
4E4
100
AcDbEntity
  8
03__ASM_ALL_CURVES
100
AcDbLine
 62
40
  6
CONTINUOUS
 10
2.5262485745
 20
5.7850474326
 11
2.5085735745
 21
5.7850474326
  0
LINE
  5
4E5
100
AcDbEntity
  8
03__ASM_ALL_CURVES
100
AcDbLine
 62
40
  6
CONTINUOUS
 10
5.0286510759
 20
5.7850474326
 11
5.0993510759
 21
5.7850474326
  0
LINE
  5
4E6
100
AcDbEntity
  8
03__ASM_ALL_CURVES
100
AcDbLine
 62
40
  6
CONTINUOUS
 10
6.8668510759
 20
5.7850474326
 11
6.9375510759
 21
5.7850474326
  0
LINE
  5
4E7
100
AcDbEntity
  8
03__ASM_ALL_CURVES
100
AcDbLine
 62
40
  6
CONTINUOUS
 10
1.8160910745
 20
5.7237740993
 11
1.6464110745
 21
5.7284874326
  0
LINE
  5
4E8
100
AcDbEntity
  8
03__ASM_ALL_CURVES
100
AcDbLine
 62
40
  6
CONTINUOUS
 10
4.6327310745
 20
5.7332007659
 11
4.9720910745
 21
5.7237740993
  0
LINE
  5
4E9
100
AcDbEntity
  8
03__ASM_ALL_CURVES
100
AcDbLine
 62
40
  6
CONTINUOUS
 10
4.6327310745
 20
5.7379140993
 11
4.9720910745
 21
5.7190607659
  0
LINE
  5
4EA
100
AcDbEntity
  8
03__ASM_ALL_CURVES
100
AcDbLine
 62
40
  6
CONTINUOUS
 10
4.6327310745
 20
5.7426274326
 11
4.9720910745
 21
5.7143474326
  0
LINE
  5
4EB
100
AcDbEntity
  8
03__ASM_ALL_CURVES
100
AcDbLine
 62
40
  6
CONTINUOUS
 10
4.6327310745
 20
5.7473407659
 11
4.9720910745
 21
5.7096340993
  0
LINE
  5
4EC
100
AcDbEntity
  8
03__ASM_ALL_CURVES
100
AcDbLine
 62
40
  6
CONTINUOUS
 10
4.6327310745
 20
5.7520540993
 11
4.9720910745
 21
5.7049207659
  0
LINE
  5
4ED
100
AcDbEntity
  8
03__ASM_ALL_CURVES
100
AcDbLine
 62
40
  6
CONTINUOUS
 10
4.9720910745
 20
5.7002074326
 11
4.6327310745
 21
5.7567674326
  0
LINE
  5
4EE
100
AcDbEntity
  8
03__ASM_ALL_CURVES
100
AcDbLine
 62
40
  6
CONTINUOUS
 10
7.9148579496
 20
4.4192674326
 11
7.9281141996
 21
4.4104299347
  0
LINE
  5
4EF
100
AcDbEntity
  8
03__ASM_ALL_CURVES
100
AcDbLine
 62
40
  6
CONTINUOUS
 10
7.8883454496
 20
4.4758274326
 11
7.8750891996
 21
4.4846649329
  0
LINE
  5
4F0
100
AcDbEntity
  8
03__ASM_ALL_CURVES
100
AcDbLine
 62
40
  6
CONTINUOUS
 10
7.7955516996
 20
4.5818774326
 11
7.8088079496
 21
4.5730399347
  0
LINE
  5
4F1
100
AcDbEntity
  8
03__ASM_ALL_CURVES
100
AcDbLine
 62
40
  6
CONTINUOUS
 10
6.0449635759
 20
5.7850474326
 11
6.0272885759
 21
5.7968307663
  0
LINE
  5
4F2
100
AcDbEntity
  8
03__ASM_ALL_CURVES
100
AcDbLine
 62
40
  6
CONTINUOUS
 10
7.9016016996
 20
4.5818774326
 11
7.9148579496
 21
4.5730399347
  0
LINE
  5
4F3
100
AcDbEntity
  8
03__ASM_ALL_CURVES
100
AcDbLine
 62
40
  6
CONTINUOUS
 10
8.3258016996
 20
4.3132174326
 11
8.3125454496
 21
4.3220549329
  0
LINE
  5
4F4
100
AcDbEntity
  8
03__ASM_ALL_CURVES
100
AcDbLine
 62
40
  6
CONTINUOUS
 10
8.2330079496
 20
4.4192674326
 11
8.2462641996
 21
4.4104299347
  0
LINE
  5
4F5
100
AcDbEntity
  8
03__ASM_ALL_CURVES
100
AcDbLine
 62
40
  6
CONTINUOUS
 10
8.0076516996
 20
4.5818774326
 11
8.0209079496
 21
4.5730399347
  0
LINE
  5
4F6
100
AcDbEntity
  8
03__ASM_ALL_CURVES
100
AcDbLine
 62
40
  6
CONTINUOUS
 10
6.0626385759
 20
5.9264474326
 11
6.0803135759
 21
5.9146641021
  0
LINE
  5
4F7
100
AcDbEntity
  8
03__ASM_ALL_CURVES
100
AcDbLine
 62
40
  6
CONTINUOUS
 10
8.3390579496
 20
4.4192674326
 11
8.3523141996
 21
4.4104299347
  0
LINE
  5
4F8
100
AcDbEntity
  8
03__ASM_ALL_CURVES
100
AcDbLine
 62
40
  6
CONTINUOUS
 10
6.3100885759
 20
5.7968307663
 11
6.2924135759
 21
5.8203974326
  0
LINE
  5
4F9
100
AcDbEntity
  8
03__ASM_ALL_CURVES
100
AcDbLine
 62
40
  6
CONTINUOUS
 10
6.3012510759
 20
5.8910974326
 11
6.3100885759
 21
5.8793141021
  0
LINE
  5
4FA
100
AcDbEntity
  8
03__ASM_ALL_CURVES
100
AcDbLine
 62
40
  6
CONTINUOUS
 10
6.3631135759
 20
5.8439640979
 11
6.3719510759
 21
5.8321807673
  0
LINE
  5
4FB
100
AcDbEntity
  8
03__ASM_ALL_CURVES
100
AcDbLine
 62
40
  6
CONTINUOUS
 10
6.3719510759
 20
5.9028807631
 11
6.3631135759
 21
5.9146641021
  0
LINE
  5
4FC
100
AcDbEntity
  8
0
100
AcDbLine
 62
7
  6
CONTINUOUS
 10
7.3404110745
 20
3.6675474326
 11
7.3404110745
 21
5.2275474326
  0
LINE
  5
4FD
100
AcDbEntity
  8
03__ASM_ALL_CURVES
100
AcDbLine
 62
40
  6
CONTINUOUS
 10
7.3617510759
 20
5.9028807631
 11
7.3617510759
 21
5.8793141021
  0
LINE
  5
4FE
100
AcDbEntity
  8
03__ASM_ALL_CURVES
100
AcDbLine
 62
40
  6
CONTINUOUS
 10
7.9281141996
 20
4.5023399326
 11
7.9148579496
 21
4.4846649329
  0
LINE
  5
4FF
100
AcDbEntity
  8
03__ASM_ALL_CURVES
100
AcDbLine
 62
40
  6
CONTINUOUS
 10
7.8286923246
 20
4.3308924331
 11
7.8220641996
 21
4.3220549329
  0
LINE
  5
500
100
AcDbEntity
  8
03__ASM_ALL_CURVES
100
AcDbLine
 62
40
  6
CONTINUOUS
 10
7.8750891996
 20
4.3927549326
 11
7.8883454496
 21
4.4104299347
  0
LINE
  5
501
100
AcDbEntity
  8
03__ASM_ALL_CURVES
100
AcDbLine
 62
40
  6
CONTINUOUS
 10
8.0275360746
 20
4.5465274347
 11
8.0209079496
 21
4.5376899305
  0
LINE
  5
502
100
AcDbEntity
  8
03__ASM_ALL_CURVES
100
AcDbLine
 62
40
  6
CONTINUOUS
 10
7.9413704496
 20
4.3397299326
 11
7.9281141996
 21
4.3220549329
  0
LINE
  5
503
100
AcDbEntity
  8
03__ASM_ALL_CURVES
100
AcDbLine
 62
40
  6
CONTINUOUS
 10
6.7901563832
 20
2.7274249326
 11
6.8034126332
 21
2.7450999347
  0
LINE
  5
504
100
AcDbEntity
  8
03__ASM_ALL_CURVES
100
AcDbLine
 62
40
  6
CONTINUOUS
 10
6.8564376332
 20
2.6743999326
 11
6.8431813832
 21
2.6567249329
  0
LINE
  5
505
100
AcDbEntity
  8
03__ASM_ALL_CURVES
100
AcDbLine
 62
40
  6
CONTINUOUS
 10
6.2864188832
 20
2.7539374326
 11
6.2731626332
 21
2.7450999347
  0
LINE
  5
506
100
AcDbEntity
  8
03__ASM_ALL_CURVES
100
AcDbLine
 62
40
  6
CONTINUOUS
 10
6.594626667
 20
2.9077099347
 11
6.607882917
 21
2.9165474326
  0
LINE
  5
507
100
AcDbEntity
  8
03__ASM_ALL_CURVES
100
AcDbLine
 62
40
  6
CONTINUOUS
 10
6.3924688832
 20
2.7539374326
 11
6.3792126332
 21
2.7450999347
  0
LINE
  5
508
100
AcDbEntity
  8
03__ASM_ALL_CURVES
100
AcDbLine
 62
40
  6
CONTINUOUS
 10
8.7698860746
 20
4.3220549329
 11
8.7566298246
 21
4.3132174326
  0
LINE
  5
509
100
AcDbEntity
  8
03__ASM_ALL_CURVES
100
AcDbLine
 62
40
  6
CONTINUOUS
 10
6.634395417
 20
2.8723599305
 11
6.607882917
 21
2.8546849315
  0
LINE
  5
50A
100
AcDbEntity
  8
03__ASM_ALL_CURVES
100
AcDbLine
 62
40
  6
CONTINUOUS
 10
6.3129313832
 20
2.6567249329
 11
6.2996751332
 21
2.6478874326
  0
LINE
  5
50B
100
AcDbEntity
  8
03__ASM_ALL_CURVES
100
AcDbLine
 62
40
  6
CONTINUOUS
 10
6.4189813832
 20
2.6567249329
 11
6.4057251332
 21
2.6478874326
  0
LINE
  5
50C
100
AcDbEntity
  8
03__ASM_ALL_CURVES
100
AcDbLine
 62
40
  6
CONTINUOUS
 10
9.1609454496
 20
4.4104299347
 11
9.1742016996
 21
4.4192674326
  0
LINE
  5
50D
100
AcDbEntity
  8
03__ASM_ALL_CURVES
100
AcDbLine
 62
40
  6
CONTINUOUS
 10
4.6327310745
 20
5.7002074326
 11
4.9720910745
 21
5.7567674326
  0
LINE
  5
50E
100
AcDbEntity
  8
03__ASM_ALL_CURVES
100
AcDbLine
 62
40
  6
CONTINUOUS
 10
4.6327310745
 20
5.7049207659
 11
4.9720910745
 21
5.7520540993
  0
LINE
  5
50F
100
AcDbEntity
  8
03__ASM_ALL_CURVES
100
AcDbLine
 62
40
  6
CONTINUOUS
 10
4.6327310745
 20
5.7096340993
 11
4.9720910745
 21
5.7473407659
  0
LINE
  5
510
100
AcDbEntity
  8
03__ASM_ALL_CURVES
100
AcDbLine
 62
40
  6
CONTINUOUS
 10
1.8160910745
 20
5.7426274326
 11
1.6464110745
 21
5.7284874326
  0
LINE
  5
511
100
AcDbEntity
  8
03__ASM_ALL_CURVES
100
AcDbLine
 62
40
  6
CONTINUOUS
 10
1.8160910745
 20
5.7379140993
 11
1.6464110745
 21
5.7284874326
  0
LINE
  5
512
100
AcDbEntity
  8
03__ASM_ALL_CURVES
100
AcDbLine
 62
40
  6
CONTINUOUS
 10
1.8160910745
 20
5.7332007659
 11
1.6464110745
 21
5.7284874326
  0
LINE
  5
513
100
AcDbEntity
  8
03__ASM_ALL_CURVES
100
AcDbLine
 62
40
  6
CONTINUOUS
 10
5.4616885759
 20
5.8321807673
 11
5.5147135759
 21
5.8321807673
  0
LINE
  5
514
100
AcDbEntity
  8
03__ASM_ALL_CURVES
100
AcDbLine
 62
40
  6
CONTINUOUS
 10
7.3352385759
 20
5.8557474326
 11
7.2910510759
 21
5.8557474326
  0
LINE
  5
515
100
AcDbEntity
  8
03__ASM_ALL_CURVES
100
AcDbLine
 62
40
  6
CONTINUOUS
 10
6.0538010759
 20
5.8557474326
 11
6.0891510759
 21
5.8557474326
  0
LINE
  5
516
100
AcDbEntity
  8
03__ASM_ALL_CURVES
100
AcDbLine
 62
40
  6
CONTINUOUS
 10
6.4426510759
 20
5.8557474326
 11
6.5133510759
 21
5.8557474326
  0
LINE
  5
517
100
AcDbEntity
  8
03__ASM_ALL_CURVES
100
AcDbLine
 62
40
  6
CONTINUOUS
 10
7.1496510759
 20
5.8557474326
 11
7.1938385759
 21
5.8557474326
  0
LINE
  5
518
100
AcDbEntity
  8
03__ASM_ALL_CURVES
100
AcDbLine
 62
40
  6
CONTINUOUS
 10
2.5085735745
 20
5.8675307631
 11
2.5262485745
 21
5.8675307631
  0
LINE
  5
519
100
AcDbEntity
  8
03__ASM_ALL_CURVES
100
AcDbLine
 62
40
  6
CONTINUOUS
 10
3.2155735745
 20
5.8675307631
 11
3.2332485745
 21
5.8675307631
  0
LINE
  5
51A
100
AcDbEntity
  8
03__ASM_ALL_CURVES
100
AcDbLine
 62
40
  6
CONTINUOUS
 10
2.9327735745
 20
5.8793141021
 11
2.9504485745
 21
5.8793141021
  0
LINE
  5
51B
100
AcDbEntity
  8
03__ASM_ALL_CURVES
100
AcDbLine
 62
40
  6
CONTINUOUS
 10
6.3454385759
 20
5.9264474326
 11
6.3277635759
 21
5.9264474326
  0
LINE
  5
51C
100
AcDbEntity
  8
03__ASM_ALL_CURVES
100
AcDbLine
 62
40
  6
CONTINUOUS
 10
2.9769610745
 20
5.9264474326
 11
2.9239360745
 21
5.9264474326
  0
LINE
  5
51D
100
AcDbEntity
  8
03__ASM_ALL_CURVES
100
AcDbLine
 62
40
  6
CONTINUOUS
 10
2.5085735745
 20
5.9264474326
 11
2.5262485745
 21
5.9264474326
  0
LINE
  5
51E
100
AcDbEntity
  8
03__ASM_ALL_CURVES
100
AcDbLine
 62
40
  6
CONTINUOUS
 10
3.2155735745
 20
5.9264474326
 11
3.2332485745
 21
5.9264474326
  0
LINE
  5
51F
100
AcDbEntity
  8
03__ASM_ALL_CURVES
100
AcDbLine
 62
40
  6
CONTINUOUS
 10
5.1965635759
 20
5.9264474326
 11
5.2142385759
 21
5.9264474326
  0
LINE
  5
520
100
AcDbEntity
  8
03__ASM_ALL_CURVES
100
AcDbLine
 62
40
  6
CONTINUOUS
 10
5.3379635759
 20
5.9264474326
 11
5.3556385759
 21
5.9264474326
  0
LINE
  5
521
100
AcDbEntity
  8
03__ASM_ALL_CURVES
100
AcDbLine
 62
40
  6
CONTINUOUS
 10
5.5854135759
 20
5.9264474326
 11
5.6737885759
 21
5.9264474326
  0
LINE
  5
522
100
AcDbEntity
  8
03__ASM_ALL_CURVES
100
AcDbLine
 62
40
  6
CONTINUOUS
 10
6.0449635759
 20
5.9264474326
 11
6.0626385759
 21
5.9264474326
  0
LINE
  5
523
100
AcDbEntity
  8
03__ASM_ALL_CURVES
100
AcDbLine
 62
40
  6
CONTINUOUS
 10
6.6105635759
 20
5.9264474326
 11
6.6282385759
 21
5.9264474326
  0
LINE
  5
524
100
AcDbEntity
  8
03__ASM_ALL_CURVES
100
AcDbLine
 62
40
  6
CONTINUOUS
 10
7.0082510759
 20
5.9264474326
 11
7.0436010759
 21
5.9264474326
  0
LINE
  5
525
100
AcDbEntity
  8
03__ASM_ALL_CURVES
100
AcDbLine
 62
40
  6
CONTINUOUS
 10
7.1496510759
 20
5.9264474326
 11
7.2203510759
 21
5.9264474326
  0
LINE
  5
526
100
AcDbEntity
  8
03__ASM_ALL_CURVES
100
AcDbLine
 62
40
  6
CONTINUOUS
 10
7.2910510759
 20
5.9264474326
 11
7.3352385759
 21
5.9264474326
  0
LINE
  5
527
100
AcDbEntity
  8
03__ASM_ALL_CURVES
100
AcDbLine
 62
40
  6
CONTINUOUS
 10
6.3277635759
 20
5.7850474326
 11
6.3100885759
 21
5.7968307663
  0
LINE
  5
528
100
AcDbEntity
  8
03__ASM_ALL_CURVES
100
AcDbLine
 62
40
  6
CONTINUOUS
 10
6.3100885759
 20
5.8793141021
 11
6.3631135759
 21
5.8439640979
  0
LINE
  5
529
100
AcDbEntity
  8
03__ASM_ALL_CURVES
100
AcDbLine
 62
40
  6
CONTINUOUS
 10
6.3631135759
 20
5.9146641021
 11
6.3454385759
 21
5.9264474326
  0
LINE
  5
52A
100
AcDbEntity
  8
03__ASM_ALL_CURVES
100
AcDbLine
 62
40
  6
CONTINUOUS
 10
6.6105635759
 20
5.7850474326
 11
6.5928885759
 21
5.7968307663
  0
LINE
  5
52B
100
AcDbEntity
  8
03__ASM_ALL_CURVES
100
AcDbLine
 62
40
  6
CONTINUOUS
 10
8.7566298246
 20
4.4192674326
 11
8.7698860746
 21
4.4104299347
  0
LINE
  5
52C
100
AcDbEntity
  8
03__ASM_ALL_CURVES
100
AcDbLine
 62
40
  6
CONTINUOUS
 10
6.7519635759
 20
5.7850474326
 11
6.7342885759
 21
5.7968307663
  0
LINE
  5
52D
100
AcDbEntity
  8
03__ASM_ALL_CURVES
100
AcDbLine
 62
40
  6
CONTINUOUS
 10
6.6282385759
 20
5.9264474326
 11
6.6459135759
 21
5.9146641021
  0
LINE
  5
52E
100
AcDbEntity
  8
0
100
AcDbLine
 62
7
  6
CONTINUOUS
 10
7.3094110745
 20
5.2585474326
 11
7.3404110745
 21
5.2275474326
  0
LINE
  5
52F
100
AcDbEntity
  8
03__ASM_ALL_CURVES
100
AcDbLine
 62
40
  6
CONTINUOUS
 10
6.5928885759
 20
5.7968307663
 11
6.5752135759
 21
5.8203974326
  0
LINE
  5
530
100
AcDbEntity
  8
03__ASM_ALL_CURVES
100
AcDbLine
 62
40
  6
CONTINUOUS
 10
7.7822954496
 20
4.3220549329
 11
7.7690391996
 21
4.3397299326
  0
LINE
  5
531
100
AcDbEntity
  8
03__ASM_ALL_CURVES
100
AcDbLine
 62
40
  6
CONTINUOUS
 10
6.6459135759
 20
5.9146641021
 11
6.6635885759
 21
5.8910974326
  0
LINE
  5
532
100
AcDbEntity
  8
03__ASM_ALL_CURVES
100
AcDbLine
 62
40
  6
CONTINUOUS
 10
6.7342885759
 20
5.7968307663
 11
6.7254510759
 21
5.8086141
  0
LINE
  5
533
100
AcDbEntity
  8
03__ASM_ALL_CURVES
100
AcDbLine
 62
40
  6
CONTINUOUS
 10
7.8883454496
 20
4.3220549329
 11
7.8750891996
 21
4.3397299326
  0
LINE
  5
534
100
AcDbEntity
  8
03__ASM_ALL_CURVES
100
AcDbLine
 62
40
  6
CONTINUOUS
 10
7.8220641996
 20
4.4104299347
 11
7.8286923246
 21
4.4015924305
  0
LINE
  5
535
100
AcDbEntity
  8
03__ASM_ALL_CURVES
100
AcDbLine
 62
40
  6
CONTINUOUS
 10
7.9281141996
 20
4.4104299347
 11
7.9413704496
 21
4.3927549326
  0
LINE
  5
536
100
AcDbEntity
  8
03__ASM_ALL_CURVES
100
AcDbLine
 62
40
  6
CONTINUOUS
 10
7.8750891996
 20
4.4846649329
 11
7.8618329496
 21
4.5023399326
  0
LINE
  5
537
100
AcDbEntity
  8
03__ASM_ALL_CURVES
100
AcDbLine
 62
40
  6
CONTINUOUS
 10
7.8088079496
 20
4.5730399347
 11
7.8154360746
 21
4.5642024305
  0
LINE
  5
538
100
AcDbEntity
  8
03__ASM_ALL_CURVES
100
AcDbLine
 62
40
  6
CONTINUOUS
 10
7.0789510759
 20
5.8910974326
 11
7.0877885759
 21
5.8557474326
  0
LINE
  5
539
100
AcDbEntity
  8
03__ASM_ALL_CURVES
100
AcDbLine
 62
40
  6
CONTINUOUS
 10
7.7624110746
 20
4.4758274326
 11
7.7624110746
 21
4.5818774326
  0
LINE
  5
53A
100
AcDbEntity
  8
03__ASM_ALL_CURVES
100
AcDbLine
 62
40
  6
CONTINUOUS
 10
7.8154360746
 20
4.5642024305
 11
7.8154360746
 21
4.5465274347
  0
LINE
  5
53B
100
AcDbEntity
  8
03__ASM_ALL_CURVES
100
AcDbLine
 62
40
  6
CONTINUOUS
 10
7.7624110746
 20
4.3662424326
 11
7.7690391996
 21
4.3927549326
  0
LINE
  5
53C
100
AcDbEntity
  8
03__ASM_ALL_CURVES
100
AcDbLine
 62
40
  6
CONTINUOUS
 10
7.8552048246
 20
4.5288524326
 11
7.8618329496
 21
4.5553649326
  0
LINE
  5
53D
100
AcDbEntity
  8
03__ASM_ALL_CURVES
100
AcDbLine
 62
40
  6
CONTINUOUS
 10
7.8684610746
 20
4.3662424326
 11
7.8750891996
 21
4.3927549326
  0
LINE
  5
53E
100
AcDbEntity
  8
03__ASM_ALL_CURVES
100
AcDbLine
 62
40
  6
CONTINUOUS
 10
7.9347423246
 20
4.5288524326
 11
7.9281141996
 21
4.5023399326
  0
LINE
  5
53F
100
AcDbEntity
  8
03__ASM_ALL_CURVES
100
AcDbLine
 62
40
  6
CONTINUOUS
 10
7.9479985746
 20
4.3662424326
 11
7.9413704496
 21
4.3397299326
  0
LINE
  5
540
100
AcDbEntity
  8
03__ASM_ALL_CURVES
100
AcDbLine
 62
40
  6
CONTINUOUS
 10
8.2528923246
 20
4.3839174347
 11
8.2462641996
 21
4.3750799305
  0
LINE
  5
541
100
AcDbEntity
  8
03__ASM_ALL_CURVES
100
AcDbLine
 62
40
  6
CONTINUOUS
 10
8.2992891996
 20
4.3927549326
 11
8.3125454496
 21
4.4104299347
  0
LINE
  5
542
100
AcDbEntity
  8
03__ASM_ALL_CURVES
100
AcDbLine
 62
40
  6
CONTINUOUS
 10
8.3655704496
 20
4.3397299326
 11
8.3523141996
 21
4.3220549329
  0
LINE
  5
543
100
AcDbEntity
  8
03__ASM_ALL_CURVES
100
AcDbLine
 62
40
  6
CONTINUOUS
 10
6.8034126332
 20
2.7450999347
 11
6.8166688832
 21
2.7539374326
  0
LINE
  5
544
100
AcDbEntity
  8
03__ASM_ALL_CURVES
100
AcDbLine
 62
40
  6
CONTINUOUS
 10
9.2007141996
 20
4.3220549329
 11
9.1874579496
 21
4.3132174326
  0
LINE
  5
545
100
AcDbEntity
  8
03__ASM_ALL_CURVES
100
AcDbLine
 62
40
  6
CONTINUOUS
 10
6.8431813832
 20
2.6567249329
 11
6.8299251332
 21
2.6478874326
  0
LINE
  5
546
100
AcDbEntity
  8
03__ASM_ALL_CURVES
100
AcDbLine
 62
40
  6
CONTINUOUS
 10
1.6464110745
 20
5.7284874326
 11
1.8160910745
 21
5.7567674326
  0
LINE
  5
547
100
AcDbEntity
  8
03__ASM_ALL_CURVES
100
AcDbLine
 62
40
  6
CONTINUOUS
 10
1.8160910745
 20
5.7520540993
 11
1.6464110745
 21
5.7284874326
  0
LINE
  5
548
100
AcDbEntity
  8
03__ASM_ALL_CURVES
100
AcDbLine
 62
40
  6
CONTINUOUS
 10
1.8160910745
 20
5.7473407659
 11
1.6464110745
 21
5.7284874326
  0
LINE
  5
549
100
AcDbEntity
  8
03__ASM_ALL_CURVES
100
AcDbLine
 62
40
  6
CONTINUOUS
 10
9.1742016996
 20
4.3132174326
 11
9.1609454496
 21
4.3220549329
  0
LINE
  5
54A
100
AcDbEntity
  8
03__ASM_ALL_CURVES
100
AcDbLine
 62
40
  6
CONTINUOUS
 10
9.1874579496
 20
4.4192674326
 11
9.2007141996
 21
4.4104299347
  0
LINE
  5
54B
100
AcDbEntity
  8
03__ASM_ALL_CURVES
100
AcDbLine
 62
40
  6
CONTINUOUS
 10
7.0436010759
 20
5.9264474326
 11
7.0612760759
 21
5.9146641021
  0
LINE
  5
54C
100
AcDbEntity
  8
03__ASM_ALL_CURVES
100
AcDbLine
 62
40
  6
CONTINUOUS
 10
7.9148579496
 20
4.5730399347
 11
7.9281141996
 21
4.5553649326
  0
LINE
  5
54D
100
AcDbEntity
  8
03__ASM_ALL_CURVES
100
AcDbLine
 62
40
  6
CONTINUOUS
 10
8.0209079496
 20
4.5730399347
 11
8.0275360746
 21
4.5642024305
  0
LINE
  5
54E
100
AcDbEntity
  8
03__ASM_ALL_CURVES
100
AcDbLine
 62
40
  6
CONTINUOUS
 10
7.0612760759
 20
5.9146641021
 11
7.0789510759
 21
5.8910974326
  0
LINE
  5
54F
100
AcDbEntity
  8
03__ASM_ALL_CURVES
100
AcDbLine
 62
40
  6
CONTINUOUS
 10
8.3125454496
 20
4.3220549329
 11
8.2992891996
 21
4.3397299326
  0
LINE
  5
550
100
AcDbEntity
  8
03__ASM_ALL_CURVES
100
AcDbLine
 62
40
  6
CONTINUOUS
 10
8.2462641996
 20
4.4104299347
 11
8.2528923246
 21
4.4015924305
  0
LINE
  5
551
100
AcDbEntity
  8
03__ASM_ALL_CURVES
100
AcDbLine
 62
40
  6
CONTINUOUS
 10
8.3523141996
 20
4.4104299347
 11
8.3655704496
 21
4.3927549326
  0
LINE
  5
552
100
AcDbEntity
  8
03__ASM_ALL_CURVES
100
AcDbLine
 62
40
  6
CONTINUOUS
 10
7.9877673246
 20
4.4192674326
 11
8.0407923246
 21
4.3132174326
  0
LINE
  5
553
100
AcDbEntity
  8
03__ASM_ALL_CURVES
100
AcDbLine
 62
40
  6
CONTINUOUS
 10
7.3352385759
 20
5.8557474326
 11
7.3617510759
 21
5.7850474326
  0
LINE
  5
554
100
AcDbEntity
  8
03__ASM_ALL_CURVES
100
AcDbLine
 62
40
  6
CONTINUOUS
 10
7.7690391996
 20
4.3397299326
 11
7.7624110746
 21
4.3662424326
  0
LINE
  5
555
100
AcDbEntity
  8
03__ASM_ALL_CURVES
100
AcDbLine
 62
40
  6
CONTINUOUS
 10
7.8750891996
 20
4.3397299326
 11
7.8684610746
 21
4.3662424326
  0
LINE
  5
556
100
AcDbEntity
  8
03__ASM_ALL_CURVES
100
AcDbLine
 62
40
  6
CONTINUOUS
 10
7.8618329496
 20
4.5023399326
 11
7.8552048246
 21
4.5288524326
  0
LINE
  5
557
100
AcDbEntity
  8
03__ASM_ALL_CURVES
100
AcDbLine
 62
40
  6
CONTINUOUS
 10
7.9413704496
 20
4.3927549326
 11
7.9479985746
 21
4.3662424326
  0
LINE
  5
558
100
AcDbEntity
  8
03__ASM_ALL_CURVES
100
AcDbLine
 62
40
  6
CONTINUOUS
 10
7.9745110746
 20
4.4758274326
 11
7.9745110746
 21
4.5818774326
  0
LINE
  5
559
100
AcDbEntity
  8
03__ASM_ALL_CURVES
100
AcDbLine
 62
40
  6
CONTINUOUS
 10
7.9877673246
 20
4.3132174326
 11
7.9877673246
 21
4.4192674326
  0
LINE
  5
55A
100
AcDbEntity
  8
03__ASM_ALL_CURVES
100
AcDbLine
 62
40
  6
CONTINUOUS
 10
8.0275360746
 20
4.5642024305
 11
8.0275360746
 21
4.5465274347
  0
LINE
  5
55B
100
AcDbEntity
  8
03__ASM_ALL_CURVES
100
AcDbLine
 62
40
  6
CONTINUOUS
 10
8.0407923246
 20
4.3132174326
 11
8.0407923246
 21
4.4192674326
  0
LINE
  5
55C
100
AcDbEntity
  8
03__ASM_ALL_CURVES
100
AcDbLine
 62
40
  6
CONTINUOUS
 10
8.1070735746
 20
4.5818774326
 11
8.1070735746
 21
4.4758274326
  0
LINE
  5
55D
100
AcDbEntity
  8
03__ASM_ALL_CURVES
100
AcDbLine
 62
40
  6
CONTINUOUS
 10
8.1203298246
 20
4.4192674326
 11
8.1203298246
 21
4.3132174326
  0
LINE
  5
55E
100
AcDbEntity
  8
03__ASM_ALL_CURVES
100
AcDbLine
 62
40
  6
CONTINUOUS
 10
8.1998673246
 20
4.3132174326
 11
8.1998673246
 21
4.4192674326
  0
LINE
  5
55F
100
AcDbEntity
  8
03__ASM_ALL_CURVES
100
AcDbLine
 62
40
  6
CONTINUOUS
 10
8.2131235746
 20
4.5818774326
 11
8.2131235746
 21
4.4758274326
  0
LINE
  5
560
100
AcDbEntity
  8
03__ASM_ALL_CURVES
100
AcDbLine
 62
40
  6
CONTINUOUS
 10
8.2926610746
 20
4.3662424326
 11
8.2992891996
 21
4.3927549326
  0
LINE
  5
561
100
AcDbEntity
  8
03__ASM_ALL_CURVES
100
AcDbLine
 62
40
  6
CONTINUOUS
 10
8.7831423246
 20
4.3397299326
 11
8.7698860746
 21
4.3220549329
  0
LINE
  5
562
100
AcDbEntity
  8
03__ASM_ALL_CURVES
100
AcDbLine
 62
40
  6
CONTINUOUS
 10
7.3352385759
 20
5.9264474326
 11
7.3529135759
 21
5.9146641021
  0
LINE
  5
563
100
AcDbEntity
  8
03__ASM_ALL_CURVES
100
AcDbLine
 62
40
  6
CONTINUOUS
 10
7.3529135759
 20
5.9146641021
 11
7.3617510759
 21
5.9028807631
  0
LINE
  5
564
100
AcDbEntity
  8
03__ASM_ALL_CURVES
100
AcDbLine
 62
40
  6
CONTINUOUS
 10
8.0076516996
 20
4.5288524326
 11
8.0275360746
 21
4.4758274326
  0
LINE
  5
565
100
AcDbEntity
  8
03__ASM_ALL_CURVES
100
AcDbLine
 62
40
  6
CONTINUOUS
 10
8.2330079496
 20
4.3662424326
 11
8.2528923246
 21
4.3132174326
  0
LINE
  5
566
100
AcDbEntity
  8
03__ASM_ALL_CURVES
100
AcDbLine
 62
40
  6
CONTINUOUS
 10
7.9281141996
 20
4.5553649326
 11
7.9347423246
 21
4.5288524326
  0
LINE
  5
567
100
AcDbEntity
  8
03__ASM_ALL_CURVES
100
AcDbLine
 62
40
  6
CONTINUOUS
 10
8.2528923246
 20
4.4015924305
 11
8.2528923246
 21
4.3839174347
  0
LINE
  5
568
100
AcDbEntity
  8
03__ASM_ALL_CURVES
100
AcDbLine
 62
40
  6
CONTINUOUS
 10
8.4119673246
 20
4.4192674326
 11
8.4119673246
 21
4.3132174326
  0
LINE
  5
569
100
AcDbEntity
  8
03__ASM_ALL_CURVES
100
AcDbLine
 62
40
  6
CONTINUOUS
 10
8.5180173246
 20
4.4192674326
 11
8.5180173246
 21
4.3132174326
  0
LINE
  5
56A
100
AcDbEntity
  8
03__ASM_ALL_CURVES
100
AcDbLine
 62
40
  6
CONTINUOUS
 10
8.3721985746
 20
4.3662424326
 11
8.3655704496
 21
4.3397299326
  0
LINE
  5
56B
100
AcDbEntity
  8
03__ASM_ALL_CURVES
100
AcDbLine
 62
40
  6
CONTINUOUS
 10
9.1476891996
 20
4.3927549326
 11
9.1609454496
 21
4.4104299347
  0
LINE
  5
56C
100
AcDbEntity
  8
03__ASM_ALL_CURVES
100
AcDbLine
 62
40
  6
CONTINUOUS
 10
9.2139704496
 20
4.3397299326
 11
9.2007141996
 21
4.3220549329
  0
LINE
  5
56D
100
AcDbEntity
  8
03__ASM_ALL_CURVES
100
AcDbLine
 62
40
  6
CONTINUOUS
 10
8.7698860746
 20
4.4104299347
 11
8.7831423246
 21
4.3927549326
  0
LINE
  5
56E
100
AcDbEntity
  8
03__ASM_ALL_CURVES
100
AcDbLine
 62
40
  6
CONTINUOUS
 10
9.1609454496
 20
4.3220549329
 11
9.1476891996
 21
4.3397299326
  0
LINE
  5
56F
100
AcDbEntity
  8
03__ASM_ALL_CURVES
100
AcDbLine
 62
40
  6
CONTINUOUS
 10
8.2992891996
 20
4.3397299326
 11
8.2926610746
 21
4.3662424326
  0
LINE
  5
570
100
AcDbEntity
  8
03__ASM_ALL_CURVES
100
AcDbLine
 62
40
  6
CONTINUOUS
 10
8.3655704496
 20
4.3927549326
 11
8.3721985746
 21
4.3662424326
  0
LINE
  5
571
100
AcDbEntity
  8
03__ASM_ALL_CURVES
100
AcDbLine
 62
40
  6
CONTINUOUS
 10
8.6240673246
 20
4.3132174326
 11
8.6240673246
 21
4.4192674326
  0
LINE
  5
572
100
AcDbEntity
  8
03__ASM_ALL_CURVES
100
AcDbLine
 62
40
  6
CONTINUOUS
 10
8.7301173246
 20
4.3132174326
 11
8.7301173246
 21
4.4192674326
  0
LINE
  5
573
100
AcDbEntity
  8
03__ASM_ALL_CURVES
100
AcDbLine
 62
40
  6
CONTINUOUS
 10
8.7897704496
 20
4.3662424326
 11
8.7831423246
 21
4.3397299326
  0
LINE
  5
574
100
AcDbEntity
  8
03__ASM_ALL_CURVES
100
AcDbLine
 62
40
  6
CONTINUOUS
 10
9.2007141996
 20
4.4104299347
 11
9.2139704496
 21
4.3927549326
  0
LINE
  5
575
100
AcDbEntity
  8
03__ASM_ALL_CURVES
100
AcDbLine
 62
40
  6
CONTINUOUS
 10
8.7831423246
 20
4.3927549326
 11
8.7897704496
 21
4.3662424326
  0
LINE
  5
576
100
AcDbEntity
  8
03__ASM_ALL_CURVES
100
AcDbLine
 62
40
  6
CONTINUOUS
 10
8.9422173246
 20
4.3132174326
 11
8.9422173246
 21
4.4192674326
  0
LINE
  5
577
100
AcDbEntity
  8
03__ASM_ALL_CURVES
100
AcDbLine
 62
40
  6
CONTINUOUS
 10
9.0482673246
 20
4.4192674326
 11
9.0482673246
 21
4.3132174326
  0
LINE
  5
578
100
AcDbEntity
  8
03__ASM_ALL_CURVES
100
AcDbLine
 62
40
  6
CONTINUOUS
 10
9.1410610746
 20
4.3662424326
 11
9.1476891996
 21
4.3927549326
  0
LINE
  5
579
100
AcDbEntity
  8
03__ASM_ALL_CURVES
100
AcDbLine
 62
40
  6
CONTINUOUS
 10
9.2205985746
 20
4.3662424326
 11
9.2139704496
 21
4.3397299326
  0
LINE
  5
57A
100
AcDbEntity
  8
03__ASM_ALL_CURVES
100
AcDbLine
 62
40
  6
CONTINUOUS
 10
9.1476891996
 20
4.3397299326
 11
9.1410610746
 21
4.3662424326
  0
LINE
  5
57B
100
AcDbEntity
  8
03__ASM_ALL_CURVES
100
AcDbLine
 62
40
  6
CONTINUOUS
 10
9.2669954496
 20
4.3132174326
 11
9.2868798246
 21
4.4192674326
  0
LINE
  5
57C
100
AcDbEntity
  8
03__ASM_ALL_CURVES
100
AcDbLine
 62
40
  6
CONTINUOUS
 10
9.3067641996
 20
4.3132174326
 11
9.3266485746
 21
4.4192674326
  0
LINE
  5
57D
100
AcDbEntity
  8
03__ASM_ALL_CURVES
100
AcDbLine
 62
40
  6
CONTINUOUS
 10
9.5785173246
 20
4.4192674326
 11
9.6315423246
 21
4.3132174326
  0
LINE
  5
57E
100
AcDbEntity
  8
03__ASM_ALL_CURVES
100
AcDbLine
 62
40
  6
CONTINUOUS
 10
9.2139704496
 20
4.3927549326
 11
9.2205985746
 21
4.3662424326
  0
LINE
  5
57F
100
AcDbEntity
  8
03__ASM_ALL_CURVES
100
AcDbLine
 62
40
  6
CONTINUOUS
 10
9.2471110746
 20
4.4192674326
 11
9.2669954496
 21
4.3132174326
  0
LINE
  5
580
100
AcDbEntity
  8
03__ASM_ALL_CURVES
100
AcDbLine
 62
40
  6
CONTINUOUS
 10
9.2868798246
 20
4.4192674326
 11
9.3067641996
 21
4.3132174326
  0
LINE
  5
581
100
AcDbEntity
  8
03__ASM_ALL_CURVES
100
AcDbLine
 62
40
  6
CONTINUOUS
 10
9.4989798246
 20
4.4192674326
 11
9.4989798246
 21
4.3132174326
  0
LINE
  5
582
100
AcDbEntity
  8
03__ASM_ALL_CURVES
100
AcDbLine
 62
40
  6
CONTINUOUS
 10
9.5785173246
 20
4.3132174326
 11
9.5785173246
 21
4.4192674326
  0
LINE
  5
583
100
AcDbEntity
  8
03__ASM_ALL_CURVES
100
AcDbLine
 62
40
  6
CONTINUOUS
 10
9.6315423246
 20
4.3132174326
 11
9.6315423246
 21
4.4192674326
  0
LINE
  5
584
100
AcDbEntity
  8
03__ASM_ALL_CURVES
100
AcDbLine
 62
40
  6
CONTINUOUS
 10
9.6845673246
 20
4.4192674326
 11
9.6845673246
 21
4.3132174326
  0
LINE
  5
585
100
AcDbEntity
  8
03__ASM_ALL_CURVES
100
AcDbLine
 62
40
  6
CONTINUOUS
 10
9.7906173246
 20
4.3132174326
 11
9.7906173246
 21
4.4192674326
  0
LINE
  5
586
100
AcDbEntity
  8
03__ASM_ALL_CURVES
100
AcDbLine
 62
40
  6
CONTINUOUS
 10
9.9231798246
 20
4.4192674326
 11
9.9231798246
 21
4.3132174326
  0
CIRCLE
  5
587
100
AcDbEntity
  8
129-501_FEATURES
100
AcDbCircle
 62
7
  6
CONTINUOUS
 10
4.4284110745
 20
4.4475474326
 40
0.172
  0
CIRCLE
  5
588
100
AcDbEntity
  8
0
100
AcDbCircle
 62
7
  6
CONTINUOUS
 10
6.2404110745
 20
4.4475474326
 40
0.156
  0
ARC
  5
589
100
AcDbEntity
  8
0
100
AcDbCircle
 62
7
  6
CONTINUOUS
 10
4.9957750471
 20
3.5535474326
 40
0.028
100
AcDbArc
 50
9.2483582463
 51
76.1357511411
  0
ARC
  5
58A
100
AcDbEntity
  8
0
100
AcDbCircle
 62
7
  6
CONTINUOUS
 10
4.9957750471
 20
5.3415474326
 40
0.028
100
AcDbArc
 50
283.8642488589
 51
350.7516417537
  0
SPLINE
  5
58B
100
AcDbEntity
  8
0
100
AcDbSpline
 62
7
  6
CONTINUOUS
 70
0
 71
3
 72
15
 73
11
 74
9
 42
0.0000001
 43
0.0000001
 44
0.0000000001
 12
0.0
 22
0.1617702498
 32
0.0
 13
0.0
 23
-0.1617702498
 33
0.0
 40
0.0
 40
0.0
 40
0.0
 40
0.0
 40
0.125
 40
0.25
 40
0.375
 40
0.5
 40
0.625
 40
0.75
 40
0.875
 40
1.0
 40
1.0
 40
1.0
 40
1.0
 10
7.1124110745
 20
5.2167974326
 30
0.0
 10
7.1124110745
 20
5.2235378597
 30
0.0
 10
7.1097295659
 20
5.2370187138
 30
0.0
 10
7.0982751302
 20
5.2541614883
 30
0.0
 10
7.0811323558
 20
5.265615924
 30
0.0
 10
7.0609110745
 20
5.2696381869
 30
0.0
 10
7.0406897933
 20
5.265615924
 30
0.0
 10
7.0235470188
 20
5.2541614883
 30
0.0
 10
7.0120925832
 20
5.2370187138
 30
0.0
 10
7.0094110745
 20
5.2235378597
 30
0.0
 10
7.0094110745
 20
5.2167974326
 30
0.0
 11
7.1124110745
 21
5.2167974326
 31
0.0
 11
7.1084908705
 21
5.2365056294
 31
0.0
 11
7.0973270738
 21
5.2532134318
 31
0.0
 11
7.0806192713
 21
5.2643772285
 31
0.0
 11
7.0609110745
 21
5.2682974326
 31
0.0
 11
7.0412028778
 21
5.2643772285
 31
0.0
 11
7.0244950753
 21
5.2532134318
 31
0.0
 11
7.0133312786
 21
5.2365056294
 31
0.0
 11
7.0094110745
 21
5.2167974326
 31
0.0
  0
SPLINE
  5
58C
100
AcDbEntity
  8
0
100
AcDbSpline
 62
7
  6
CONTINUOUS
 70
0
 71
3
 72
15
 73
11
 74
9
 42
0.0000001
 43
0.0000001
 44
0.0000000001
 12
0.0
 22
-0.1617702498
 32
0.0
 13
0.0
 23
0.1617702498
 33
0.0
 40
0.0
 40
0.0
 40
0.0
 40
0.0
 40
0.125
 40
0.25
 40
0.375
 40
0.5
 40
0.625
 40
0.75
 40
0.875
 40
1.0
 40
1.0
 40
1.0
 40
1.0
 10
7.1124110745
 20
3.6782974326
 30
0.0
 10
7.1124110745
 20
3.6715570055
 30
0.0
 10
7.1097295659
 20
3.6580761514
 30
0.0
 10
7.0982751302
 20
3.6409333769
 30
0.0
 10
7.0811323558
 20
3.6294789412
 30
0.0
 10
7.0609110745
 20
3.6254566783
 30
0.0
 10
7.0406897933
 20
3.6294789412
 30
0.0
 10
7.0235470188
 20
3.6409333769
 30
0.0
 10
7.0120925832
 20
3.6580761514
 30
0.0
 10
7.0094110745
 20
3.6715570055
 30
0.0
 10
7.0094110745
 20
3.6782974326
 30
0.0
 11
7.1124110745
 21
3.6782974326
 31
0.0
 11
7.1084908705
 21
3.6585892358
 31
0.0
 11
7.0973270738
 21
3.6418814334
 31
0.0
 11
7.0806192713
 21
3.6307176367
 31
0.0
 11
7.0609110745
 21
3.6267974326
 31
0.0
 11
7.0412028778
 21
3.6307176367
 31
0.0
 11
7.0244950753
 21
3.6418814334
 31
0.0
 11
7.0133312786
 21
3.6585892358
 31
0.0
 11
7.0094110745
 21
3.6782974326
 31
0.0
  0
SPLINE
  5
58D
100
AcDbEntity
  8
0
100
AcDbSpline
 62
7
  6
CONTINUOUS
 70
0
 71
3
 72
14
 73
10
 74
8
 42
0.0000001
 43
0.0000001
 44
0.0000000001
 12
0.0
 22
0.1323573704
 32
0.0
 13
-0.0715842835
 23
-0.1113582083
 33
0.0
 40
0.0
 40
0.0
 40
0.0
 40
0.0
 40
0.152777901
 40
0.305555802
 40
0.458333703
 40
0.6111116041
 40
0.7638895051
 40
0.9166674061
 40
1.0
 40
1.0
 40
1.0
 40
1.0
 10
4.9524110745
 20
5.3650474326
 30
0.0
 10
4.9524110745
 20
5.3717878597
 30
0.0
 10
4.9497295659
 20
5.3852687138
 30
0.0
 10
4.9382751302
 20
5.4024114883
 30
0.0
 10
4.9211323558
 20
5.413865924
 30
0.0
 10
4.9009110745
 20
5.4178881869
 30
0.0
 10
4.8806897933
 20
5.413865924
 30
0.0
 10
4.8661444391
 20
5.404147029
 30
0.0
 10
4.8595776938
 20
5.3959819285
 30
0.0
 10
4.8575892591
 20
5.3928886724
 30
0.0
 11
4.9524110745
 21
5.3650474326
 31
0.0
 11
4.9484908705
 21
5.3847556294
 31
0.0
 11
4.9373270738
 21
5.4014634318
 31
0.0
 11
4.9206192713
 21
5.4126272285
 31
0.0
 11
4.9009110745
 21
5.4165474326
 31
0.0
 11
4.8812028778
 21
5.4126272285
 31
0.0
 11
4.8644950753
 21
5.4014634318
 31
0.0
 11
4.8575892591
 21
5.3928886724
 31
0.0
  0
SPLINE
  5
58E
100
AcDbEntity
  8
0
100
AcDbSpline
 62
7
  6
CONTINUOUS
 70
0
 71
3
 72
9
 73
5
 74
3
 42
0.0000001
 43
0.0000001
 44
0.0000000001
 12
-0.0159076891
 22
-0.0247463783
 32
0.0
 13
0.0
 23
-0.0294128795
 33
0.0
 40
0.0
 40
0.0
 40
0.0
 40
0.0
 40
0.3125024955
 40
1.0
 40
1.0
 40
1.0
 40
1.0
 10
4.8575892591
 20
5.3928886724
 30
0.0
 10
4.855932195
 20
5.390310904
 30
0.0
 10
4.8513612697
 20
5.3815921528
 30
0.0
 10
4.8494110745
 20
5.3717878597
 30
0.0
 10
4.8494110745
 20
5.3650474326
 30
0.0
 11
4.8575892591
 21
5.3928886724
 31
0.0
 11
4.8533312786
 21
5.3847556294
 31
0.0
 11
4.8494110745
 21
5.3650474326
 31
0.0
  0
SPLINE
  5
58F
100
AcDbEntity
  8
0
100
AcDbSpline
 62
7
  6
CONTINUOUS
 70
0
 71
3
 72
14
 73
10
 74
8
 42
0.0000001
 43
0.0000001
 44
0.0000000001
 12
0.0
 22
-0.1323573704
 32
0.0
 13
-0.0715842835
 23
0.1113582083
 33
0.0
 40
0.0
 40
0.0
 40
0.0
 40
0.0
 40
0.152777901
 40
0.305555802
 40
0.458333703
 40
0.6111116041
 40
0.7638895051
 40
0.9166674061
 40
1.0
 40
1.0
 40
1.0
 40
1.0
 10
4.9524110745
 20
3.5300474326
 30
0.0
 10
4.9524110745
 20
3.5233070055
 30
0.0
 10
4.9497295659
 20
3.5098261514
 30
0.0
 10
4.9382751302
 20
3.4926833769
 30
0.0
 10
4.9211323558
 20
3.4812289412
 30
0.0
 10
4.9009110745
 20
3.4772066783
 30
0.0
 10
4.8806897933
 20
3.4812289412
 30
0.0
 10
4.8661444391
 20
3.4909478362
 30
0.0
 10
4.8595776938
 20
3.4991129367
 30
0.0
 10
4.8575892591
 20
3.5022061928
 30
0.0
 11
4.9524110745
 21
3.5300474326
 31
0.0
 11
4.9484908705
 21
3.5103392358
 31
0.0
 11
4.9373270738
 21
3.4936314334
 31
0.0
 11
4.9206192713
 21
3.4824676367
 31
0.0
 11
4.9009110745
 21
3.4785474326
 31
0.0
 11
4.8812028778
 21
3.4824676367
 31
0.0
 11
4.8644950753
 21
3.4936314334
 31
0.0
 11
4.8575892591
 21
3.5022061928
 31
0.0
  0
SPLINE
  5
590
100
AcDbEntity
  8
0
100
AcDbSpline
 62
7
  6
CONTINUOUS
 70
0
 71
3
 72
9
 73
5
 74
3
 42
0.0000001
 43
0.0000001
 44
0.0000000001
 12
-0.0159076891
 22
0.0247463783
 32
0.0
 13
0.0
 23
0.0294128795
 33
0.0
 40
0.0
 40
0.0
 40
0.0
 40
0.0
 40
0.3125024955
 40
1.0
 40
1.0
 40
1.0
 40
1.0
 10
4.8575892591
 20
3.5022061928
 30
0.0
 10
4.855932195
 20
3.5047839612
 30
0.0
 10
4.8513612697
 20
3.5135027124
 30
0.0
 10
4.8494110745
 20
3.5233070055
 30
0.0
 10
4.8494110745
 20
3.5300474326
 30
0.0
 11
4.8575892591
 21
3.5022061928
 31
0.0
 11
4.8533312786
 21
3.5103392358
 31
0.0
 11
4.8494110745
 21
3.5300474326
 31
0.0
  0
SPLINE
  5
591
100
AcDbEntity
  8
0
100
AcDbSpline
 62
7
  6
CONTINUOUS
 70
0
 71
3
 72
15
 73
11
 74
9
 42
0.0000001
 43
0.0000001
 44
0.0000000001
 12
0.0
 22
0.1617702498
 32
0.0
 13
-0.0
 23
-0.1617702498
 33
0.0
 40
0.0
 40
0.0
 40
0.0
 40
0.0
 40
0.125
 40
0.25
 40
0.375
 40
0.5
 40
0.625
 40
0.75
 40
0.875
 40
1.0
 40
1.0
 40
1.0
 40
1.0
 10
3.0804110745
 20
5.4560474326
 30
0.0
 10
3.0804110745
 20
5.4627878597
 30
0.0
 10
3.0777295659
 20
5.4762687138
 30
0.0
 10
3.0662751302
 20
5.4934114883
 30
0.0
 10
3.0491323558
 20
5.504865924
 30
0.0
 10
3.0289110745
 20
5.5088881869
 30
0.0
 10
3.0086897933
 20
5.504865924
 30
0.0
 10
2.9915470188
 20
5.4934114883
 30
0.0
 10
2.9800925832
 20
5.4762687138
 30
0.0
 10
2.9774110745
 20
5.4627878597
 30
0.0
 10
2.9774110745
 20
5.4560474326
 30
0.0
 11
3.0804110745
 21
5.4560474326
 31
0.0
 11
3.0764908705
 21
5.4757556294
 31
0.0
 11
3.0653270738
 21
5.4924634318
 31
0.0
 11
3.0486192713
 21
5.5036272285
 31
0.0
 11
3.0289110745
 21
5.5075474326
 31
0.0
 11
3.0092028778
 21
5.5036272285
 31
0.0
 11
2.9924950753
 21
5.4924634318
 31
0.0
 11
2.9813312786
 21
5.4757556294
 31
0.0
 11
2.9774110745
 21
5.4560474326
 31
0.0
  0
SPLINE
  5
592
100
AcDbEntity
  8
0
100
AcDbSpline
 62
7
  6
CONTINUOUS
 70
0
 71
3
 72
15
 73
11
 74
9
 42
0.0000001
 43
0.0000001
 44
0.0000000001
 12
0.0
 22
-0.1617702498
 32
0.0
 13
-0.0
 23
0.1617702498
 33
0.0
 40
0.0
 40
0.0
 40
0.0
 40
0.0
 40
0.125
 40
0.25
 40
0.375
 40
0.5
 40
0.625
 40
0.75
 40
0.875
 40
1.0
 40
1.0
 40
1.0
 40
1.0
 10
3.0804110745
 20
3.4390474326
 30
0.0
 10
3.0804110745
 20
3.4323070055
 30
0.0
 10
3.0777295659
 20
3.4188261514
 30
0.0
 10
3.0662751302
 20
3.4016833769
 30
0.0
 10
3.0491323558
 20
3.3902289412
 30
0.0
 10
3.0289110745
 20
3.3862066783
 30
0.0
 10
3.0086897933
 20
3.3902289412
 30
0.0
 10
2.9915470188
 20
3.4016833769
 30
0.0
 10
2.9800925832
 20
3.4188261514
 30
0.0
 10
2.9774110745
 20
3.4323070055
 30
0.0
 10
2.9774110745
 20
3.4390474326
 30
0.0
 11
3.0804110745
 21
3.4390474326
 31
0.0
 11
3.0764908705
 21
3.4193392358
 31
0.0
 11
3.0653270738
 21
3.4026314334
 31
0.0
 11
3.0486192713
 21
3.3914676367
 31
0.0
 11
3.0289110745
 21
3.3875474326
 31
0.0
 11
3.0092028778
 21
3.3914676367
 31
0.0
 11
2.9924950753
 21
3.4026314334
 31
0.0
 11
2.9813312786
 21
3.4193392358
 31
0.0
 11
2.9774110745
 21
3.4390474326
 31
0.0
  0
SPLINE
  5
593
100
AcDbEntity
  8
0
100
AcDbSpline
 62
7
  6
CONTINUOUS
 70
0
 71
3
 72
15
 73
11
 74
9
 42
0.0000001
 43
0.0000001
 44
0.0000000001
 12
0.0
 22
0.1617702498
 32
0.0
 13
-0.0
 23
-0.1617702498
 33
0.0
 40
0.0
 40
0.0
 40
0.0
 40
0.0
 40
0.125
 40
0.25
 40
0.375
 40
0.5
 40
0.625
 40
0.75
 40
0.875
 40
1.0
 40
1.0
 40
1.0
 40
1.0
 10
3.8934110745
 20
5.4560474326
 30
0.0
 10
3.8934110745
 20
5.4627878597
 30
0.0
 10
3.8907295659
 20
5.4762687138
 30
0.0
 10
3.8792751302
 20
5.4934114883
 30
0.0
 10
3.8621323558
 20
5.504865924
 30
0.0
 10
3.8419110745
 20
5.5088881869
 30
0.0
 10
3.8216897933
 20
5.504865924
 30
0.0
 10
3.8045470188
 20
5.4934114883
 30
0.0
 10
3.7930925832
 20
5.4762687138
 30
0.0
 10
3.7904110745
 20
5.4627878597
 30
0.0
 10
3.7904110745
 20
5.4560474326
 30
0.0
 11
3.8934110745
 21
5.4560474326
 31
0.0
 11
3.8894908705
 21
5.4757556294
 31
0.0
 11
3.8783270738
 21
5.4924634318
 31
0.0
 11
3.8616192713
 21
5.5036272285
 31
0.0
 11
3.8419110745
 21
5.5075474326
 31
0.0
 11
3.8222028778
 21
5.5036272285
 31
0.0
 11
3.8054950753
 21
5.4924634318
 31
0.0
 11
3.7943312786
 21
5.4757556294
 31
0.0
 11
3.7904110745
 21
5.4560474326
 31
0.0
  0
SPLINE
  5
594
100
AcDbEntity
  8
0
100
AcDbSpline
 62
7
  6
CONTINUOUS
 70
0
 71
3
 72
15
 73
11
 74
9
 42
0.0000001
 43
0.0000001
 44
0.0000000001
 12
0.0
 22
-0.1617702498
 32
0.0
 13
-0.0
 23
0.1617702498
 33
0.0
 40
0.0
 40
0.0
 40
0.0
 40
0.0
 40
0.125
 40
0.25
 40
0.375
 40
0.5
 40
0.625
 40
0.75
 40
0.875
 40
1.0
 40
1.0
 40
1.0
 40
1.0
 10
3.8934110745
 20
3.4390474326
 30
0.0
 10
3.8934110745
 20
3.4323070055
 30
0.0
 10
3.8907295659
 20
3.4188261514
 30
0.0
 10
3.8792751302
 20
3.4016833769
 30
0.0
 10
3.8621323558
 20
3.3902289412
 30
0.0
 10
3.8419110745
 20
3.3862066783
 30
0.0
 10
3.8216897933
 20
3.3902289412
 30
0.0
 10
3.8045470188
 20
3.4016833769
 30
0.0
 10
3.7930925832
 20
3.4188261514
 30
0.0
 10
3.7904110745
 20
3.4323070055
 30
0.0
 10
3.7904110745
 20
3.4390474326
 30
0.0
 11
3.8934110745
 21
3.4390474326
 31
0.0
 11
3.8894908705
 21
3.4193392358
 31
0.0
 11
3.8783270738
 21
3.4026314334
 31
0.0
 11
3.8616192713
 21
3.3914676367
 31
0.0
 11
3.8419110745
 21
3.3875474326
 31
0.0
 11
3.8222028778
 21
3.3914676367
 31
0.0
 11
3.8054950753
 21
3.4026314334
 31
0.0
 11
3.7943312786
 21
3.4193392358
 31
0.0
 11
3.7904110745
 21
3.4390474326
 31
0.0
  0
SPLINE
  5
595
100
AcDbEntity
  8
0
100
AcDbSpline
 62
7
  6
CONTINUOUS
 70
0
 71
3
 72
14
 73
10
 74
8
 42
0.0000001
 43
0.0000001
 44
0.0000000001
 12
-0.2174062771
 22
0.0
 32
0.0
 13
0.0001344125
 23
-0.2182382378
 33
0.0
 40
0.0
 40
0.0
 40
0.0
 40
0.0
 40
0.1590141434
 40
0.3170056609
 40
0.4717498425
 40
0.6198022843
 40
0.7577326444
 40
0.8839572811
 40
1.0
 40
1.0
 40
1.0
 40
1.0
 10
6.2404110745
 20
4.0624627808
 30
0.0
 10
6.2288875169
 20
4.0624627808
 30
0.0
 10
6.2058533932
 20
4.0602501022
 30
0.0
 10
6.1728797945
 20
4.0504835939
 30
0.0
 10
6.143090123
 20
4.0349219916
 30
0.0
 10
6.1180895864
 20
4.0146894678
 30
0.0
 10
6.099190551
 20
3.9912357026
 30
0.0
 10
6.0873107209
 20
3.9660445198
 30
0.0
 10
6.0844058747
 20
3.9484631846
 30
0.0
 10
6.0844110739
 20
3.9400215317
 30
0.0
 11
6.2404110745
 21
4.0624627808
 31
0.0
 11
6.205999649
 21
4.0591483856
 31
0.0
 11
6.1730716103
 21
4.0493732512
 31
0.0
 11
6.143284129
 21
4.0337363044
 31
0.0
 11
6.1183491106
 21
4.013382387
 31
0.0
 11
6.0997055111
 21
3.989895541
 31
0.0
 11
6.088258952
 21
3.9649547871
 31
0.0
 11
6.0844110739
 21
3.9400215317
 31
0.0
  0
SPLINE
  5
596
100
AcDbEntity
  8
0
100
AcDbSpline
 62
7
  6
CONTINUOUS
 70
0
 71
3
 72
14
 73
10
 74
8
 42
0.0000001
 43
0.0000001
 44
0.0000000001
 12
0.2174062762
 22
0.0
 32
0.0
 13
-0.0001344064
 23
0.2182382383
 33
0.0
 40
0.0
 40
0.0
 40
0.0
 40
0.0
 40
0.1590134383
 40
0.3170042965
 40
0.4717478806
 40
0.6198001944
 40
0.7577309131
 40
0.8839563895
 40
1.0
 40
1.0
 40
1.0
 40
1.0
 10
6.2404110745
 20
4.8326320844
 30
0.0
 10
6.251934581
 20
4.8326320844
 30
0.0
 10
6.2749686049
 20
4.8348447435
 30
0.0
 10
6.3079420771
 20
4.844611169
 30
0.0
 10
6.3377316898
 20
4.860172661
 30
0.0
 10
6.3627322613
 20
4.8804050972
 30
0.0
 10
6.3816314185
 20
4.9038588643
 30
0.0
 10
6.3935113846
 20
4.929050154
 30
0.0
 10
6.3964162743
 20
4.9466316165
 30
0.0
 10
6.3964110753
 20
4.9550733342
 30
0.0
 11
6.2404110745
 21
4.8326320844
 31
0.0
 11
6.2748223488
 21
4.8359464501
 31
0.0
 11
6.3077502624
 21
4.8457215018
 31
0.0
 11
6.3375376619
 21
4.8613583246
 31
0.0
 11
6.3624727167
 21
4.8817121533
 31
0.0
 11
6.3811164384
 21
4.9051990016
 31
0.0
 11
6.3925631399
 21
4.9301398909
 31
0.0
 11
6.3964110753
 21
4.9550733342
 31
0.0
  0
SPLINE
  5
597
100
AcDbEntity
  8
0
100
AcDbSpline
 62
7
  6
CONTINUOUS
 70
0
 71
3
 72
8
 73
4
 74
2
 42
0.0000001
 43
0.0000001
 44
0.0000000001
 12
-0.0110121268
 22
0.0
 32
0.0
 13
-0.0110102061
 23
-0.0003696463
 33
0.0
 40
0.0
 40
0.0
 40
0.0
 40
0.0
 40
1.0
 40
1.0
 40
1.0
 40
1.0
 10
6.2404110745
 20
4.893928293
 30
0.0
 10
6.2367403656
 20
4.893928293
 30
0.0
 10
6.2330686903
 20
4.8938675388
 30
0.0
 10
6.2293986216
 20
4.8937443233
 30
0.0
 11
6.2404110745
 21
4.893928293
 31
0.0
 11
6.2293986216
 21
4.8937443233
 31
0.0
  0
SPLINE
  5
598
100
AcDbEntity
  8
0
100
AcDbSpline
 62
7
  6
CONTINUOUS
 70
0
 71
3
 72
9
 73
5
 74
3
 42
0.0000001
 43
0.0000001
 44
0.0000000001
 12
-0.038230231
 22
-0.0012835059
 32
0.0
 13
-0.037765206
 23
-0.0061082619
 33
0.0
 40
0.0
 40
0.0
 40
0.0
 40
0.0
 40
0.56498924
 40
1.0
 40
1.0
 40
1.0
 40
1.0
 10
6.2293986216
 20
4.8937443233
 30
0.0
 10
6.2221987319
 20
4.893502601
 30
0.0
 10
6.2094662657
 20
4.8926492911
 30
0.0
 10
6.1968140289
 20
4.8910025396
 30
0.0
 10
6.1913379386
 20
4.8901168198
 30
0.0
 11
6.2293986216
 21
4.8937443233
 31
0.0
 11
6.2078369294
 21
4.8922851024
 31
0.0
 11
6.1913379386
 21
4.8901168198
 31
0.0
  0
SPLINE
  5
599
100
AcDbEntity
  8
0
100
AcDbSpline
 62
7
  6
CONTINUOUS
 70
0
 71
3
 72
9
 73
5
 74
3
 42
0.0000001
 43
0.0000001
 44
0.0000000001
 12
-0.0242725802
 22
-0.0039259227
 32
0.0
 13
-0.0237621583
 23
-0.0063561087
 33
0.0
 40
0.0
 40
0.0
 40
0.0
 40
0.0
 40
0.6047456171
 40
1.0
 40
1.0
 40
1.0
 40
1.0
 10
6.1913379386
 20
4.8901168198
 30
0.0
 10
6.1864450264
 20
4.8893254249
 30
0.0
 10
6.1783908252
 20
4.8877931977
 30
0.0
 10
6.1704217927
 20
4.8858537643
 30
0.0
 10
6.1672910936
 20
4.8850163377
 30
0.0
 11
6.1913379386
 21
4.8901168198
 31
0.0
 11
6.1767346883
 21
4.8873232872
 31
0.0
 11
6.1672910936
 21
4.8850163377
 31
0.0
  0
SPLINE
  5
59A
100
AcDbEntity
  8
0
100
AcDbSpline
 62
7
  6
CONTINUOUS
 70
0
 71
3
 72
9
 73
5
 74
3
 42
0.0000001
 43
0.0000001
 44
0.0000000001
 12
-0.0371387114
 22
-0.0099341854
 32
0.0
 13
-0.0339517867
 23
-0.0180724963
 33
0.0
 40
0.0
 40
0.0
 40
0.0
 40
0.0
 40
0.5127784634
 40
1.0
 40
1.0
 40
1.0
 40
1.0
 10
6.1672910936
 20
4.8850163377
 30
0.0
 10
6.1609431165
 20
4.8833183256
 30
0.0
 10
6.1487166546
 20
4.8794388085
 30
0.0
 10
6.1369723606
 20
4.8742217931
 30
0.0
 10
6.1314583467
 20
4.87128669
 30
0.0
 11
6.1672910936
 21
4.8850163377
 31
0.0
 11
6.1485309659
 21
4.8789879758
 31
0.0
 11
6.1314583467
 21
4.87128669
 31
0.0
  0
SPLINE
  5
59B
100
AcDbEntity
  8
0
100
AcDbSpline
 62
7
  6
CONTINUOUS
 70
0
 71
3
 72
14
 73
10
 74
8
 42
0.0000001
 43
0.0000001
 44
0.0000000001
 12
-0.0001343736
 22
-0.2182382442
 32
0.0
 13
0.217406271
 23
-0.0
 33
0.0
 40
0.0
 40
0.0
 40
0.0
 40
0.0
 40
0.1160492604
 40
0.2422791447
 40
0.380213652
 40
0.5282639565
 40
0.6830058277
 40
0.8409932332
 40
1.0
 40
1.0
 40
1.0
 40
1.0
 10
6.0844110736
 20
4.9550733372
 30
0.0
 10
6.0844058756
 20
4.9466312083
 30
0.0
 10
6.0873110298
 20
4.9290490082
 30
0.0
 10
6.0991918484
 20
4.903856992
 30
0.0
 10
6.1180917524
 20
4.8804032384
 30
0.0
 10
6.1430926746
 20
4.8601712505
 30
0.0
 10
6.172882034
 20
4.8446104175
 30
0.0
 10
6.2058547699
 20
4.8348445788
 30
0.0
 10
6.2288880518
 20
4.8326320844
 30
0.0
 10
6.2404110745
 20
4.8326320844
 30
0.0
 11
6.0844110736
 21
4.9550733372
 31
0.0
 11
6.0882593715
 21
4.9301387046
 31
0.0
 11
6.0997068702
 21
4.9051971275
 31
0.0
 11
6.1183515643
 21
4.8817100004
 31
0.0
 11
6.143286648
 21
4.8613568991
 31
0.0
 11
6.1730739372
 21
4.8457206692
 31
0.0
 11
6.2060012314
 21
4.8359461716
 31
0.0
 11
6.2404110745
 21
4.8326320844
 31
0.0
  0
SPLINE
  5
59C
100
AcDbEntity
  8
0
100
AcDbSpline
 62
7
  6
CONTINUOUS
 70
0
 71
3
 72
8
 73
4
 74
2
 42
0.0000001
 43
0.0000001
 44
0.0000000001
 12
0.0130160425
 22
0.0
 32
0.0
 13
0.0130113948
 23
0.0005177216
 33
0.0
 40
0.0
 40
0.0
 40
0.0
 40
0.0
 40
1.0
 40
1.0
 40
1.0
 40
1.0
 10
6.2404110745
 20
4.0011665722
 30
0.0
 10
6.2447497554
 20
4.0011665722
 30
0.0
 10
6.249089786
 20
4.0012514501
 30
0.0
 10
6.2534269176
 20
4.001424024
 30
0.0
 11
6.2404110745
 21
4.0011665722
 31
0.0
 11
6.2534269176
 21
4.001424024
 31
0.0
  0
SPLINE
  5
59D
100
AcDbEntity
  8
0
100
AcDbSpline
 62
7
  6
CONTINUOUS
 70
0
 71
3
 72
9
 73
5
 74
3
 42
0.0000001
 43
0.0000001
 44
0.0000000001
 12
0.0382469695
 22
0.0015218417
 32
0.0
 13
0.0377406208
 23
0.0063989691
 33
0.0
 40
0.0
 40
0.0
 40
0.0
 40
0.0
 40
0.5120611442
 40
1.0
 40
1.0
 40
1.0
 40
1.0
 10
6.2534269176
 20
4.001424024
 30
0.0
 10
6.2599551799
 20
4.0016837826
 30
0.0
 10
6.272691343
 20
4.0025790777
 30
0.0
 10
6.2853471976
 20
4.0042687748
 30
0.0
 10
6.2914855694
 20
4.0053095434
 30
0.0
 11
6.2534269176
 21
4.001424024
 31
0.0
 11
6.272977511
 21
4.0028089717
 31
0.0
 11
6.2914855694
 21
4.0053095434
 31
0.0
  0
SPLINE
  5
59E
100
AcDbEntity
  8
0
100
AcDbSpline
 62
7
  6
CONTINUOUS
 70
0
 71
3
 72
9
 73
5
 74
3
 42
0.0000001
 43
0.0000001
 44
0.0000000001
 12
0.0243013033
 22
0.0041203161
 32
0.0
 13
0.0237560221
 23
0.0066060639
 33
0.0
 40
0.0
 40
0.0
 40
0.0
 40
0.0
 40
0.5203407435
 40
1.0
 40
1.0
 40
1.0
 40
1.0
 10
6.2914855694
 20
4.0053095434
 30
0.0
 10
6.2957005555
 20
4.0060241995
 30
0.0
 10
6.3037675428
 20
4.0075936372
 30
0.0
 10
6.3117489762
 20
4.0095722327
 30
0.0
 10
6.3155472415
 20
4.0106284526
 30
0.0
 11
6.2914855694
 21
4.0053095434
 31
0.0
 11
6.3040725557
 21
4.0077682656
 31
0.0
 11
6.3155472415
 21
4.0106284526
 31
0.0
  0
SPLINE
  5
59F
100
AcDbEntity
  8
0
100
AcDbSpline
 62
7
  6
CONTINUOUS
 70
0
 71
3
 72
9
 73
5
 74
3
 42
0.0000001
 43
0.0000001
 44
0.0000000001
 12
0.0350252011
 22
0.0097397921
 32
0.0
 13
0.0321065085
 23
0.0170904545
 33
0.0
 40
0.0
 40
0.0
 40
0.0
 40
0.0
 40
0.4841780859
 40
1.0
 40
1.0
 40
1.0
 40
1.0
 10
6.3155472415
 20
4.0106284526
 30
0.0
 10
6.3212000531
 20
4.0122003839
 30
0.0
 10
6.3327374103
 20
4.0159372334
 30
0.0
 10
6.3438438347
 20
4.0208698771
 30
0.0
 10
6.3493642482
 20
4.0238084208
 30
0.0
 11
6.3155472415
 21
4.0106284526
 31
0.0
 11
6.3322713012
 21
4.0160993133
 31
0.0
 11
6.3493642482
 21
4.0238084208
 31
0.0
  0
SPLINE
  5
5A0
100
AcDbEntity
  8
0
100
AcDbSpline
 62
7
  6
CONTINUOUS
 70
0
 71
3
 72
9
 73
5
 74
3
 42
0.0000001
 43
0.0000001
 44
0.0000000001
 12
-0.0322072378
 22
0.0171827884
 32
0.0
 13
-0.0351463718
 23
0.0097767339
 33
0.0
 40
0.0
 40
0.0
 40
0.0
 40
0.0
 40
0.6211173
 40
1.0
 40
1.0
 40
1.0
 40
1.0
 10
6.3494687899
 20
4.8712289964
 30
0.0
 10
6.3428006324
 20
4.8747865054
 30
0.0
 10
6.3315851817
 20
4.8795883231
 30
0.0
 10
6.3199780049
 20
4.8832336272
 30
0.0
 10
6.3155392208
 20
4.8844683723
 30
0.0
 11
6.3494687899
 21
4.8712289964
 31
0.0
 11
6.3287172888
 21
4.880305322
 31
0.0
 11
6.3155392208
 21
4.8844683723
 31
0.0
  0
SPLINE
  5
5A1
100
AcDbEntity
  8
0
100
AcDbSpline
 62
7
  6
CONTINUOUS
 70
0
 71
3
 72
9
 73
5
 74
3
 42
0.0000001
 43
0.0000001
 44
0.0000000001
 12
-0.0237569026
 22
0.0066085033
 32
0.0
 13
-0.0243052133
 23
0.004120625
 33
0.0
 40
0.0
 40
0.0
 40
0.0
 40
0.0
 40
0.5891425642
 40
1.0
 40
1.0
 40
1.0
 40
1.0
 10
6.3155392208
 20
4.8844683723
 30
0.0
 10
6.31087382
 20
4.8857661559
 30
0.0
 10
6.3028779244
 20
4.8876944771
 30
0.0
 10
6.2948023262
 20
4.8892224872
 30
0.0
 10
6.291473667
 20
4.889786817
 30
0.0
 11
6.3155392208
 21
4.8844683723
 31
0.0
 11
6.3014247112
 21
4.8878993245
 31
0.0
 11
6.291473667
 21
4.889786817
 31
0.0
  0
SPLINE
  5
5A2
100
AcDbEntity
  8
0
100
AcDbSpline
 62
7
  6
CONTINUOUS
 70
0
 71
3
 72
9
 73
5
 74
3
 42
0.0000001
 43
0.0000001
 44
0.0000000001
 12
-0.0377302117
 22
0.0063966545
 32
0.0
 13
-0.0382373025
 23
0.0015219449
 33
0.0
 40
0.0
 40
0.0
 40
0.0
 40
0.0
 40
0.5252190823
 40
1.0
 40
1.0
 40
1.0
 40
1.0
 10
6.291473667
 20
4.889786817
 30
0.0
 10
6.2848681246
 20
4.8909066987
 30
0.0
 10
6.2722108631
 20
4.8925630683
 30
0.0
 10
6.2594771856
 20
4.8934298582
 30
0.0
 10
6.2534257384
 20
4.8936707217
 30
0.0
 11
6.291473667
 21
4.889786817
 31
0.0
 11
6.2715513743
 21
4.8924288029
 31
0.0
 11
6.2534257384
 21
4.8936707217
 31
0.0
  0
SPLINE
  5
5A3
100
AcDbEntity
  8
0
100
AcDbSpline
 62
7
  6
CONTINUOUS
 70
0
 71
3
 72
8
 73
4
 74
2
 42
0.0000001
 43
0.0000001
 44
0.0000000001
 12
-0.0130100471
 22
0.000517834
 32
0.0
 13
-0.0130150535
 23
0.0
 33
0.0
 40
0.0
 40
0.0
 40
0.0
 40
0.0
 40
1.0
 40
1.0
 40
1.0
 40
1.0
 10
6.2534257384
 20
4.8936707217
 30
0.0
 10
6.249089056
 20
4.893843333
 30
0.0
 10
6.2447494257
 20
4.893928293
 30
0.0
 10
6.2404110745
 20
4.893928293
 30
0.0
 11
6.2534257384
 21
4.8936707217
 31
0.0
 11
6.2404110745
 21
4.893928293
 31
0.0
  0
SPLINE
  5
5A4
100
AcDbEntity
  8
0
100
AcDbSpline
 62
7
  6
CONTINUOUS
 70
0
 71
3
 72
9
 73
5
 74
3
 42
0.0000001
 43
0.0000001
 44
0.0000000001
 12
0.0340442316
 22
-0.0181628867
 32
0.0
 13
0.0372515004
 23
-0.0099692133
 33
0.0
 40
0.0
 40
0.0
 40
0.0
 40
0.0
 40
0.5877234827
 40
1.0
 40
1.0
 40
1.0
 40
1.0
 10
6.1313532129
 20
4.0238659486
 30
0.0
 10
6.1380227443
 20
4.0203076969
 30
0.0
 10
6.1498779763
 20
4.0152321829
 30
0.0
 10
6.1621708409
 20
4.0114488112
 30
0.0
 10
6.1672901472
 20
4.010078787
 30
0.0
 11
6.1313532129
 21
4.0238659486
 31
0.0
 11
6.1521091074
 21
4.0147880297
 31
0.0
 11
6.1672901472
 21
4.010078787
 31
0.0
  0
SPLINE
  5
5A5
100
AcDbEntity
  8
0
100
AcDbSpline
 62
7
  6
CONTINUOUS
 70
0
 71
3
 72
9
 73
5
 74
3
 42
0.0000001
 43
0.0000001
 44
0.0000000001
 12
0.0237686086
 22
-0.0063609338
 32
0.0
 13
0.0242821012
 23
-0.0039277864
 33
0.0
 40
0.0
 40
0.0
 40
0.0
 40
0.0
 40
0.5060139567
 40
1.0
 40
1.0
 40
1.0
 40
1.0
 10
6.1672901472
 20
4.010078787
 30
0.0
 10
6.1712992298
 20
4.0090058799
 30
0.0
 10
6.1792842109
 20
4.0071155726
 30
0.0
 10
6.1873485368
 20
4.005623802
 30
0.0
 10
6.1913468765
 20
4.0049770447
 30
0.0
 11
6.1672901472
 21
4.010078787
 31
0.0
 11
6.1794005698
 21
4.0071948815
 31
0.0
 11
6.1913468765
 21
4.0049770447
 31
0.0
  0
SPLINE
  5
5A6
100
AcDbEntity
  8
0
100
AcDbSpline
 62
7
  6
CONTINUOUS
 70
0
 71
3
 72
9
 73
5
 74
3
 42
0.0000001
 43
0.0000001
 44
0.0000000001
 12
0.0377568198
 22
-0.006107409
 32
0.0
 13
0.0382233135
 23
-0.0012838464
 33
0.0
 40
0.0
 40
0.0
 40
0.0
 40
0.0
 40
0.4725920729
 40
1.0
 40
1.0
 40
1.0
 40
1.0
 10
6.1913468765
 20
4.0049770447
 30
0.0
 10
6.1972947344
 20
4.0040149404
 30
0.0
 10
6.2099490576
 20
4.0024012937
 30
0.0
 10
6.2226797078
 20
4.0015763502
 30
0.0
 10
6.2293994673
 20
4.0013506466
 30
0.0
 11
6.1913468765
 21
4.0049770447
 31
0.0
 11
6.2092724472
 21
4.0026658987
 31
0.0
 11
6.2293994673
 21
4.0013506466
 31
0.0
  0
SPLINE
  5
5A7
100
AcDbEntity
  8
0
100
AcDbSpline
 62
7
  6
CONTINUOUS
 70
0
 71
3
 72
8
 73
4
 74
2
 42
0.0000001
 43
0.0000001
 44
0.0000000001
 12
0.011009234
 22
-0.0003697787
 32
0.0
 13
0.0110114205
 23
0.0
 33
0.0
 40
0.0
 40
0.0
 40
0.0
 40
0.0
 40
1.0
 40
1.0
 40
1.0
 40
1.0
 10
6.2293994673
 20
4.0013506466
 30
0.0
 10
6.233069212
 20
4.0012273871
 30
0.0
 10
6.236740601
 20
4.0011665722
 30
0.0
 10
6.2404110745
 20
4.0011665722
 30
0.0
 11
6.2293994673
 21
4.0013506466
 31
0.0
 11
6.2404110745
 21
4.0011665722
 31
0.0
  0
SPLINE
  5
5A8
100
AcDbEntity
  8
0
100
AcDbSpline
 62
7
  6
CONTINUOUS
 70
0
 71
3
 72
14
 73
10
 74
8
 42
0.0000001
 43
0.0000001
 44
0.0000000001
 12
0.0001343846
 22
0.2182382423
 32
0.0
 13
-0.2174062728
 23
-0.0
 33
0.0
 40
0.0
 40
0.0
 40
0.0
 40
0.0
 40
0.1160472554
 40
0.2422755238
 40
0.3802091755
 40
0.5282596487
 40
0.6830024133
 40
0.8409917007
 40
1.0
 40
1.0
 40
1.0
 40
1.0
 10
6.3964110754
 20
3.9400215289
 30
0.0
 10
6.3964162738
 20
3.9484635119
 30
0.0
 10
6.3935112141
 20
3.9660454468
 30
0.0
 10
6.3816306859
 20
3.9912372343
 30
0.0
 10
6.3627310423
 20
4.0146909818
 30
0.0
 10
6.3377302292
 20
4.0349231325
 30
0.0
 10
6.3079407525
 20
4.050484212
 30
0.0
 10
6.2749677397
 20
4.0602502411
 30
0.0
 10
6.2519342084
 20
4.0624627808
 30
0.0
 10
6.2404110745
 20
4.0624627808
 30
0.0
 11
6.3964110754
 21
3.9400215289
 31
0.0
 11
6.3925629062
 21
3.9649557396
 31
0.0
 11
6.3811156963
 21
3.989897063
 31
0.0
 11
6.3624712741
 21
4.0133841688
 31
0.0
 11
6.3375362874
 21
4.0337374473
 31
0.0
 11
6.3077489034
 21
4.0493739152
 31
0.0
 11
6.2748212465
 21
4.0591486296
 31
0.0
 11
6.2404110745
 21
4.0624627808
 31
0.0
  0
SPLINE
  5
5A9
100
AcDbEntity
  8
0
100
AcDbSpline
 62
7
  6
CONTINUOUS
 70
0
 71
3
 72
22
 73
18
 74
16
 42
0.0000001
 43
0.0000001
 44
0.0000000001
 12
-0.3072938126
 22
-0.0667891076
 32
0.0
 13
-0.3072938128
 23
0.0667891073
 33
0.0
 40
0.0
 40
0.0
 40
0.0
 40
0.0
 40
0.0110875899
 40
0.043813122
 40
0.0965532293
 40
0.1665186975
 40
0.2510933848
 40
0.3460139288
 40
0.4481388017
 40
0.552035763
 40
0.6541865927
 40
0.7491513348
 40
0.8336967976
 40
0.9036198901
 40
0.9562685546
 40
0.9889400206
 40
1.0
 40
1.0
 40
1.0
 40
1.0
 10
6.3964110745
 20
5.1652974326
 30
0.0
 10
6.3952753586
 20
5.1650505892
 30
0.0
 10
6.39078541
 20
5.1640848666
 30
0.0
 10
6.3808725353
 20
5.1620416077
 30
0.0
 10
6.3648603659
 20
5.1590243985
 30
0.0
 10
6.343411288
 20
5.1555369331
 30
0.0
 10
6.3174726335
 20
5.1521807203
 30
0.0
 10
6.2880629178
 20
5.149532031
 30
0.0
 10
6.2565399156
 20
5.1480753413
 30
0.0
 10
6.2242246112
 20
5.1480766094
 30
0.0
 10
6.1926943779
 20
5.1495362812
 30
0.0
 10
6.1632806386
 20
5.152188232
 30
0.0
 10
6.1373451689
 20
5.1555466232
 30
0.0
 10
6.1159132467
 20
5.1590330698
 30
0.0
 10
6.0999205917
 20
5.1620474495
 30
0.0
 10
6.0900255355
 20
5.1640872575
 30
0.0
 10
6.0855439623
 20
5.1650512039
 30
0.0
 10
6.0844110745
 20
5.1652974326
 30
0.0
 11
6.3964110745
 21
5.1652974326
 31
0.0
 11
6.3930023291
 21
5.1645642758
 31
0.0
 11
6.3829229909
 21
5.1624870866
 31
0.0
 11
6.3666244381
 21
5.1594174177
 31
0.0
 11
6.344907183
 21
5.1558895104
 31
0.0
 11
6.318530391
 21
5.1524812523
 31
0.0
 11
6.2888007661
 21
5.1498085128
 31
0.0
 11
6.256719797
 21
5.1483291653
 31
0.0
 11
6.2240474714
 21
5.1483304447
 31
0.0
 11
6.1919584721
 21
5.1498128505
 31
0.0
 11
6.162215265
 21
5.1524897332
 31
0.0
 11
6.1358479222
 21
5.155899404
 31
0.0
 11
6.1141441047
 21
5.1594269239
 31
0.0
 11
6.0978739687
 21
5.1624921081
 31
0.0
 11
6.0878113275
 21
5.1645660832
 31
0.0
 11
6.0844110745
 21
5.1652974326
 31
0.0
  0
SPLINE
  5
5AA
100
AcDbEntity
  8
0
100
AcDbSpline
 62
7
  6
CONTINUOUS
 70
0
 71
3
 72
22
 73
18
 74
16
 42
0.0000001
 43
0.0000001
 44
0.0000000001
 12
0.3072938126
 22
0.0667891076
 32
0.0
 13
0.3072938128
 23
-0.0667891073
 33
0.0
 40
0.0
 40
0.0
 40
0.0
 40
0.0
 40
0.0110875899
 40
0.043813122
 40
0.0965532293
 40
0.1665186975
 40
0.2510933848
 40
0.3460139288
 40
0.4481388017
 40
0.552035763
 40
0.6541865927
 40
0.7491513348
 40
0.8336967976
 40
0.9036198901
 40
0.9562685546
 40
0.9889400206
 40
1.0
 40
1.0
 40
1.0
 40
1.0
 10
6.0844110745
 20
3.7297974326
 30
0.0
 10
6.0855467905
 20
3.730044276
 30
0.0
 10
6.0900367391
 20
3.7310099986
 30
0.0
 10
6.0999496138
 20
3.7330532575
 30
0.0
 10
6.1159617832
 20
3.7360704667
 30
0.0
 10
6.137410861
 20
3.7395579321
 30
0.0
 10
6.1633495156
 20
3.7429141448
 30
0.0
 10
6.1927592313
 20
3.7455628342
 30
0.0
 10
6.2242822335
 20
3.7470195239
 30
0.0
 10
6.2565975378
 20
3.7470182558
 30
0.0
 10
6.2881277712
 20
3.745558584
 30
0.0
 10
6.3175415105
 20
3.7429066332
 30
0.0
 10
6.3434769802
 20
3.739548242
 30
0.0
 10
6.3649089024
 20
3.7360617954
 30
0.0
 10
6.3809015574
 20
3.7330474156
 30
0.0
 10
6.3907966136
 20
3.7310076077
 30
0.0
 10
6.3952781868
 20
3.7300436613
 30
0.0
 10
6.3964110745
 20
3.7297974326
 30
0.0
 11
6.0844110745
 21
3.7297974326
 31
0.0
 11
6.08781982
 21
3.7305305894
 31
0.0
 11
6.0978991582
 21
3.7326077786
 31
0.0
 11
6.114197711
 21
3.7356774475
 31
0.0
 11
6.1359149661
 21
3.7392053548
 31
0.0
 11
6.1622917581
 21
3.7426136129
 31
0.0
 11
6.192021383
 21
3.7452863524
 31
0.0
 11
6.2241023521
 21
3.7467656999
 31
0.0
 11
6.2567746777
 21
3.7467644205
 31
0.0
 11
6.288863677
 21
3.7452820147
 31
0.0
 11
6.3186068841
 21
3.742605132
 31
0.0
 11
6.3449742269
 21
3.7391954612
 31
0.0
 11
6.3666780444
 21
3.7356679413
 31
0.0
 11
6.3829481803
 21
3.7326027571
 31
0.0
 11
6.3930108216
 21
3.730528782
 31
0.0
 11
6.3964110745
 21
3.7297974326
 31
0.0
  0
SPLINE
  5
5AB
100
AcDbEntity
  8
0
100
AcDbSpline
 62
7
  6
CONTINUOUS
 70
0
 71
3
 72
14
 73
10
 74
8
 42
0.0000001
 43
0.0000001
 44
0.0000000001
 12
0.0001258961
 22
-0.2044107389
 32
0.0
 13
0.2036314909
 23
0.0
 33
0.0
 40
0.0
 40
0.0
 40
0.0
 40
0.0
 40
0.1182325353
 40
0.2384015659
 40
0.3678212125
 40
0.5104861865
 40
0.6659634732
 40
0.8306775991
 40
1.0
 40
1.0
 40
1.0
 40
1.0
 10
6.0844110739
 20
3.9400215317
 30
0.0
 10
6.0844160355
 20
3.9319655318
 30
0.0
 10
6.0869906783
 20
3.9156840419
 30
0.0
 10
6.0990539346
 20
3.8933174948
 30
0.0
 10
6.1183967232
 20
3.8745316875
 30
0.0
 10
6.1436877202
 20
3.8598503986
 30
0.0
 10
6.1734762925
 20
3.8494152658
 30
0.0
 10
6.206218438
 20
3.8432092132
 30
0.0
 10
6.2289179502
 20
3.8418454651
 30
0.0
 10
6.2404110745
 20
3.8418454651
 30
0.0
 11
6.0844110739
 21
3.9400215317
 31
0.0
 11
6.0882595778
 21
3.9162552544
 31
0.0
 11
6.0997060887
 21
3.894627309
 31
0.0
 11
6.1183493006
 21
3.8760004597
 31
0.0
 11
6.1432852811
 21
3.861095353
 31
0.0
 11
6.1730727518
 21
3.8503684369
 31
0.0
 11
6.2059969567
 21
3.8439657598
 31
0.0
 11
6.2404110745
 21
3.8418454651
 31
0.0
  0
SPLINE
  5
5AC
100
AcDbEntity
  8
0
100
AcDbSpline
 62
7
  6
CONTINUOUS
 70
0
 71
3
 72
14
 73
10
 74
8
 42
0.0000001
 43
0.0000001
 44
0.0000000001
 12
0.2036314889
 22
0.0
 32
0.0
 13
0.00012587
 23
0.2044107451
 33
0.0
 40
0.0
 40
0.0
 40
0.0
 40
0.0
 40
0.1693214175
 40
0.3340350738
 40
0.4895117484
 40
0.6321766513
 40
0.7615964192
 40
0.8817658625
 40
1.0
 40
1.0
 40
1.0
 40
1.0
 10
6.2404110745
 20
3.8418454651
 30
0.0
 10
6.251904132
 20
3.8418454651
 30
0.0
 10
6.2746035449
 20
3.8432091995
 30
0.0
 10
6.3073455573
 20
3.8494151934
 30
0.0
 10
6.3371340721
 20
3.8598502448
 30
0.0
 10
6.3624250793
 20
3.8745314338
 30
0.0
 10
6.381767972
 20
3.8933171746
 30
0.0
 10
6.3938314102
 20
3.9156837931
 30
0.0
 10
6.3964061147
 20
3.9319654195
 30
0.0
 10
6.3964110754
 20
3.9400215289
 30
0.0
 11
6.2404110745
 21
3.8418454651
 31
0.0
 11
6.274824993
 21
3.8439657348
 31
0.0
 11
6.3077491104
 21
3.8503683593
 31
0.0
 11
6.3375364846
 21
3.8610951745
 31
0.0
 11
6.3624725007
 21
3.8760001929
 31
0.0
 11
6.3811158123
 21
3.894626977
 31
0.0
 11
6.3925624661
 21
3.9162549415
 31
0.0
 11
6.3964110754
 21
3.9400215289
 31
0.0
  0
SPLINE
  5
5AD
100
AcDbEntity
  8
0
100
AcDbSpline
 62
7
  6
CONTINUOUS
 70
0
 71
3
 72
14
 73
10
 74
8
 42
0.0000001
 43
0.0000001
 44
0.0000000001
 12
-0.2036314887
 22
0.0
 32
0.0
 13
-0.0001258597
 23
-0.2044107483
 33
0.0
 40
0.0
 40
0.0
 40
0.0
 40
0.0
 40
0.1693212972
 40
0.3340348527
 40
0.4895114619
 40
0.6321763141
 40
0.7615960165
 40
0.8817654889
 40
1.0
 40
1.0
 40
1.0
 40
1.0
 10
6.2404110745
 20
5.0532494001
 30
0.0
 10
6.2289180253
 20
5.0532494001
 30
0.0
 10
6.2062186275
 20
5.0518856675
 30
0.0
 10
6.1734766335
 20
5.0456796818
 30
0.0
 10
6.1436881302
 20
5.0352446434
 30
0.0
 10
6.1183971275
 20
5.0205634724
 30
0.0
 10
6.0990542252
 20
5.0017777517
 30
0.0
 10
6.0869907524
 20
4.9794111254
 30
0.0
 10
6.0844160339
 20
4.9631294722
 30
0.0
 10
6.0844110736
 20
4.9550733372
 30
0.0
 11
6.2404110745
 21
5.0532494001
 31
0.0
 11
6.2059971805
 21
5.0511291335
 31
0.0
 11
6.1730730824
 21
5.0447265178
 31
0.0
 11
6.1432857177
 21
5.0339997154
 31
0.0
 11
6.1183497033
 21
5.0190947145
 31
0.0
 11
6.0997063864
 21
5.0004679545
 31
0.0
 11
6.0882597075
 21
4.9788399966
 31
0.0
 11
6.0844110736
 21
4.9550733372
 31
0.0
  0
SPLINE
  5
5AE
100
AcDbEntity
  8
0
100
AcDbSpline
 62
7
  6
CONTINUOUS
 70
0
 71
3
 72
14
 73
10
 74
8
 42
0.0000001
 43
0.0000001
 44
0.0000000001
 12
-0.0001258905
 22
0.2044107399
 32
0.0
 13
-0.2036314907
 23
-0.0
 33
0.0
 40
0.0
 40
0.0
 40
0.0
 40
0.0
 40
0.1182329972
 40
0.2384019325
 40
0.3678215344
 40
0.5104864512
 40
0.6659636654
 40
0.8306776985
 40
1.0
 40
1.0
 40
1.0
 40
1.0
 10
6.3964110753
 20
4.9550733342
 30
0.0
 10
6.3964061138
 20
4.9631293657
 30
0.0
 10
6.3938314556
 20
4.9794108805
 30
0.0
 10
6.3817681641
 20
5.0017774326
 30
0.0
 10
6.3624253723
 20
5.0205632159
 30
0.0
 10
6.3371343797
 20
5.0352444876
 30
0.0
 10
6.3073458195
 20
5.0456796082
 30
0.0
 10
6.2746036912
 20
5.0518856535
 30
0.0
 10
6.2519041921
 20
5.0532494001
 30
0.0
 10
6.2404110745
 20
5.0532494001
 30
0.0
 11
6.3964110753
 21
4.9550733342
 31
0.0
 11
6.392562541
 21
4.978839701
 31
0.0
 11
6.3811160153
 21
5.0004676166
 31
0.0
 11
6.3624727961
 21
5.0190944457
 31
0.0
 11
6.3375368189
 21
5.033999535
 31
0.0
 11
6.3077493593
 21
5.0447264385
 31
0.0
 11
6.2748251722
 21
5.051129108
 31
0.0
 11
6.2404110745
 21
5.0532494001
 31
0.0
  0
SPLINE
  5
5AF
100
AcDbEntity
  8
129-501_FEATURES
100
AcDbSpline
 62
7
  6
CONTINUOUS
 70
0
 71
3
 72
8
 73
4
 74
2
 42
0.0000001
 43
0.0000001
 44
0.0000000001
 12
0.0018513412
 22
0.0000612177
 32
0.0
 13
0.0018514595
 23
0.0000575689
 33
0.0
 40
0.0
 40
0.0
 40
0.0
 40
0.0
 40
1.0
 40
1.0
 40
1.0
 40
1.0
 10
3.2404762285
 20
3.5100474326
 30
0.0
 10
3.2410933422
 20
3.5100678385
 30
0.0
 10
3.2417104763
 20
3.5100876364
 30
0.0
 10
3.2423276295
 20
3.510106826
 30
0.0
 11
3.2404762285
 21
3.5100474326
 31
0.0
 11
3.2423276295
 21
3.510106826
 31
0.0
  0
SPLINE
  5
5B0
100
AcDbEntity
  8
129-501_FEATURES
100
AcDbSpline
 62
7
  6
CONTINUOUS
 70
0
 71
3
 72
14
 73
10
 74
8
 42
0.0000001
 43
0.0000001
 44
0.0000000001
 12
0.0582760396
 22
0.0018120231
 32
0.0
 13
0.0582760438
 23
-0.0018118871
 33
0.0
 40
0.0
 40
0.0
 40
0.0
 40
0.0
 40
0.0923323562
 40
0.2335131596
 40
0.4071094166
 40
0.5923760946
 40
0.7657663751
 40
0.9075037992
 40
1.0
 40
1.0
 40
1.0
 40
1.0
 10
3.2423276295
 20
3.510106826
 30
0.0
 10
3.2441212175
 20
3.5101625955
 30
0.0
 10
3.2486576998
 20
3.5102906463
 30
0.0
 10
3.2565681226
 20
3.5104565362
 30
0.0
 10
3.2662859184
 20
3.5105652052
 30
0.0
 10
3.2766303452
 20
3.5105653829
 30
0.0
 10
3.2863549592
 20
3.510457034
 30
0.0
 10
3.2942753848
 20
3.5102911705
 30
0.0
 10
3.2988258647
 20
3.5101627584
 30
0.0
 10
3.3006226356
 20
3.5101068942
 30
0.0
 11
3.2423276295
 21
3.510106826
 31
0.0
 11
3.2477088481
 21
3.5102587159
 31
0.0
 11
3.2559384693
 21
3.5104312861
 31
0.0
 11
3.2660592233
 21
3.5105444476
 31
0.0
 11
3.2768610442
 21
3.5105446331
 31
0.0
 11
3.2869697942
 21
3.5104320178
 31
0.0
 11
3.2952318667
 21
3.5102590136
 31
0.0
 11
3.3006226356
 21
3.5101068942
 31
0.0
  0
SPLINE
  5
5B1
100
AcDbEntity
  8
129-501_FEATURES
100
AcDbSpline
 62
7
  6
CONTINUOUS
 70
0
 71
3
 72
8
 73
4
 74
2
 42
0.0000001
 43
0.0000001
 44
0.0000000001
 12
0.0018536516
 22
-0.0000576327
 32
0.0
 13
0.001853533
 23
-0.0000612902
 33
0.0
 40
0.0
 40
0.0
 40
0.0
 40
0.0
 40
1.0
 40
1.0
 40
1.0
 40
1.0
 10
3.3006226356
 20
3.5101068942
 30
0.0
 10
3.3012405194
 20
3.5100876833
 30
0.0
 10
3.3018583841
 20
3.5100678627
 30
0.0
 10
3.3024762285
 20
3.5100474326
 30
0.0
 11
3.3006226356
 21
3.5101068942
 31
0.0
 11
3.3024762285
 21
3.5100474326
 31
0.0
  0
SPLINE
  5
5B2
100
AcDbEntity
  8
129-501_FEATURES
100
AcDbSpline
 62
7
  6
CONTINUOUS
 70
0
 71
3
 72
12
 73
8
 74
6
 42
0.0000001
 43
0.0000001
 44
0.0000000001
 12
-0.1126364153
 22
0.1055975666
 32
0.0
 13
-0.1536976991
 23
-0.0
 33
0.0
 40
0.0
 40
0.0
 40
0.0
 40
0.0
 40
0.0219999265
 40
0.234292132
 40
0.4723501537
 40
0.7336979704
 40
1.0
 40
1.0
 40
1.0
 40
1.0
 10
4.5722677688
 20
5.0185886624
 30
0.0
 10
4.5714417712
 20
5.019363042
 30
0.0
 10
4.5625174508
 20
5.0274688475
 30
0.0
 10
4.5420108417
 20
5.0407506824
 30
0.0
 10
4.507721503
 20
5.0537546597
 30
0.0
 10
4.4691209165
 20
5.0614886112
 30
0.0
 10
4.4420544109
 20
5.0631820711
 30
0.0
 10
4.4284110745
 20
5.0631820711
 30
0.0
 11
4.5722677688
 21
5.0185886624
 31
0.0
 11
4.5697547948
 21
5.0208719221
 31
0.0
 11
4.5426525283
 21
5.0390407767
 31
0.0
 11
4.508590311
 21
5.0524018429
 31
0.0
 11
4.4692561443
 21
5.0605465583
 31
0.0
 11
4.4284110745
 21
5.0631820711
 31
0.0
  0
SPLINE
  5
5B3
100
AcDbEntity
  8
129-501_FEATURES
100
AcDbSpline
 62
7
  6
CONTINUOUS
 70
0
 71
3
 72
14
 73
10
 74
8
 42
0.0000001
 43
0.0000001
 44
0.0000000001
 12
-0.0000481637
 22
-0.2397652388
 32
0.0
 13
-0.2385706157
 23
0.0
 33
0.0
 40
0.0
 40
0.0
 40
0.0
 40
0.0
 40
0.0583039435
 40
0.1907267847
 40
0.3361191452
 40
0.4894171787
 40
0.6536544328
 40
0.8269587815
 40
1.0
 40
1.0
 40
1.0
 40
1.0
 10
4.6004029721
 20
5.0881853104
 30
0.0
 10
4.6004020361
 20
5.0835255574
 30
0.0
 10
4.5991756892
 20
5.0682755798
 30
0.0
 10
4.5904555407
 20
5.0425720387
 30
0.0
 10
4.5707197493
 20
5.0140768857
 30
0.0
 10
4.5430241139
 20
4.9893725021
 30
0.0
 10
4.5087803458
 20
4.9700395702
 30
0.0
 10
4.4697961719
 20
4.9577164393
 30
0.0
 10
4.4421719246
 20
4.9549131424
 30
0.0
 10
4.4284110745
 20
4.9549131424
 30
0.0
 11
4.6004029721
 21
5.0881853104
 31
0.0
 11
4.599304467
 21
5.0742640441
 31
0.0
 11
4.5895400207
 21
5.0442187015
 31
0.0
 11
4.5700874216
 21
5.0155004336
 31
0.0
 11
4.5429430391
 21
4.9909907744
 31
0.0
 11
4.5088865641
 21
4.9716155334
 31
0.0
 11
4.4694806414
 21
4.9591011746
 31
0.0
 11
4.4284110745
 21
4.9549131424
 31
0.0
  0
SPLINE
  5
5B4
100
AcDbEntity
  8
129-501_FEATURES
100
AcDbSpline
 62
7
  6
CONTINUOUS
 70
0
 71
3
 72
12
 73
8
 74
6
 42
0.0000001
 43
0.0000001
 44
0.0000000001
 12
0.1126358875
 22
-0.1055998695
 32
0.0
 13
0.1536989044
 23
0.0
 33
0.0
 40
0.0
 40
0.0
 40
0.0
 40
0.0
 40
0.0219213126
 40
0.2342269445
 40
0.4722998175
 40
0.7336704447
 40
1.0
 40
1.0
 40
1.0
 40
1.0
 10
4.2845534695
 20
3.8765070496
 30
0.0
 10
4.2853765116
 20
3.8757354204
 30
0.0
 10
4.2942978515
 20
3.8676311993
 30
0.0
 10
4.3148013632
 20
3.8543488318
 30
0.0
 10
4.3490928773
 20
3.8413421726
 30
0.0
 10
4.3876969131
 20
3.8336066124
 30
0.0
 10
4.4147662209
 20
3.8319127941
 30
0.0
 10
4.4284110745
 20
3.8319127941
 30
0.0
 11
4.2845534695
 21
3.8765070496
 31
0.0
 11
4.287057331
 21
3.8742317599
 31
0.0
 11
4.3141598479
 21
3.8560591136
 31
0.0
 11
4.3482237774
 21
3.8426953758
 31
0.0
 11
4.387561482
 21
3.8345489021
 31
0.0
 11
4.4284110745
 21
3.8319127941
 31
0.0
  0
SPLINE
  5
5B5
100
AcDbEntity
  8
129-501_FEATURES
100
AcDbSpline
 62
7
  6
CONTINUOUS
 70
0
 71
3
 72
14
 73
10
 74
8
 42
0.0000001
 43
0.0000001
 44
0.0000000001
 12
0.0000476326
 22
0.2397658939
 32
0.0
 13
0.2385704168
 23
-0.0
 33
0.0
 40
0.0
 40
0.0
 40
0.0
 40
0.0
 40
0.0582252357
 40
0.1906557773
 40
0.3360576184
 40
0.4893672695
 40
0.653616713
 40
0.8269378887
 40
1.0
 40
1.0
 40
1.0
 40
1.0
 10
4.256419194
 20
3.8069096321
 30
0.0
 10
4.2564201185
 20
3.8115631073
 30
0.0
 10
4.2576443011
 20
3.8268074212
 30
0.0
 10
4.2663585843
 20
3.8525078588
 30
0.0
 10
4.2860924835
 20
3.8810072617
 30
0.0
 10
4.3137881892
 20
3.9057156468
 30
0.0
 10
4.3480337432
 20
3.9250520822
 30
0.0
 10
4.3870213211
 20
3.9373777831
 30
0.0
 10
4.4146485745
 20
3.9401817228
 30
0.0
 10
4.4284110745
 20
3.9401817228
 30
0.0
 11
4.256419194
 21
3.8069096321
 31
0.0
 11
4.2575147566
 21
3.8208122705
 31
0.0
 11
4.2672746229
 21
3.850861005
 31
0.0
 11
4.286725065
 21
3.8795834307
 31
0.0
 11
4.3138694805
 21
3.9040971434
 31
0.0
 11
4.3479273608
 21
3.9234757289
 31
0.0
 11
4.3873366346
 21
3.9359926843
 31
0.0
 11
4.4284110745
 21
3.9401817228
 31
0.0
  0
SPLINE
  5
5B6
100
AcDbEntity
  8
129-501_FEATURES
100
AcDbSpline
 62
7
  6
CONTINUOUS
 70
0
 71
3
 72
14
 73
10
 74
8
 42
0.0000001
 43
0.0000001
 44
0.0000000001
 12
-0.1699975643
 22
-0.0322733075
 32
0.0
 13
-0.173034087
 23
0.0
 33
0.0
 40
0.0
 40
0.0
 40
0.0
 40
0.0
 40
0.0243915035
 40
0.0993305657
 40
0.2205033873
 40
0.3769701117
 40
0.5670870277
 40
0.7808212796
 40
1.0
 40
1.0
 40
1.0
 40
1.0
 10
4.6004110745
 20
5.3535474326
 30
0.0
 10
4.5990289091
 20
5.3532850344
 30
0.0
 10
4.5933979722
 20
5.3522284434
 30
0.0
 10
4.5808775981
 20
5.3499918769
 30
0.0
 10
4.5607974629
 20
5.3467655909
 30
0.0
 10
4.534056562
 20
5.343159428
 30
0.0
 10
4.5018986442
 20
5.33987612
 30
0.0
 10
4.4660257125
 20
5.3376038456
 30
0.0
 10
4.4410528711
 20
5.3370709005
 30
0.0
 10
4.4284110745
 20
5.3370709005
 30
0.0
 11
4.6004110745
 21
5.3535474326
 31
0.0
 11
4.5962629048
 21
5.3527690833
 31
0.0
 11
4.5834978843
 21
5.3504892461
 31
0.0
 11
4.5627960952
 21
5.3471647589
 31
0.0
 11
4.5359644785
 21
5.3435495167
 31
0.0
 11
4.5032374576
 21
5.3402125364
 31
0.0
 11
4.4663278614
 21
5.3378786534
 31
0.0
 11
4.4284110745
 21
5.3370709005
 31
0.0
  0
SPLINE
  5
5B7
100
AcDbEntity
  8
129-501_FEATURES
100
AcDbSpline
 62
7
  6
CONTINUOUS
 70
0
 71
3
 72
14
 73
10
 74
8
 42
0.0000001
 43
0.0000001
 44
0.0000000001
 12
-0.1730341003
 22
0.0
 32
0.0
 13
-0.1699975743
 23
0.0322733101
 33
0.0
 40
0.0
 40
0.0
 40
0.0
 40
0.0
 40
0.2186519339
 40
0.4323137425
 40
0.6227913115
 40
0.7792210868
 40
0.9003061551
 40
0.9754738894
 40
1.0
 40
1.0
 40
1.0
 40
1.0
 10
4.4284110745
 20
5.3370709005
 30
0.0
 10
4.415799661
 20
5.3370709005
 30
0.0
 10
4.3908614032
 20
5.3376018252
 30
0.0
 10
4.3550019632
 20
5.3398693397
 30
0.0
 10
4.3228293331
 20
5.343151592
 30
0.0
 10
4.2960747734
 20
5.3467583054
 30
0.0
 10
4.275988532
 20
5.3499843854
 30
0.0
 10
4.2634524116
 20
5.3522231973
 30
0.0
 10
4.2578008676
 20
5.3532835863
 30
0.0
 10
4.2564110745
 20
5.3535474326
 30
0.0
 11
4.4284110745
 21
5.3370709005
 31
0.0
 11
4.390585375
 21
5.3378747789
 31
0.0
 11
4.353688034
 21
5.3402038798
 31
0.0
 11
4.3208986629
 21
5.343544597
 31
0.0
 11
4.2940732092
 21
5.347157716
 31
0.0
 11
4.2733862198
 21
5.3504786069
 31
0.0
 11
4.2605821459
 21
5.352764837
 31
0.0
 11
4.2564110745
 21
5.3535474326
 31
0.0
  0
SPLINE
  5
5B8
100
AcDbEntity
  8
129-501_FEATURES
100
AcDbSpline
 62
7
  6
CONTINUOUS
 70
0
 71
3
 72
14
 73
10
 74
8
 42
0.0000001
 43
0.0000001
 44
0.0000000001
 12
0.1730340996
 22
0.0
 32
0.0
 13
0.1699975737
 23
-0.03227331
 33
0.0
 40
0.0
 40
0.0
 40
0.0
 40
0.0
 40
0.218662227
 40
0.4323375369
 40
0.6228109088
 40
0.7792434157
 40
0.9003238364
 40
0.9754803745
 40
1.0
 40
1.0
 40
1.0
 40
1.0
 10
4.4284110745
 20
3.5580239647
 30
0.0
 10
4.4410230817
 20
3.5580239647
 30
0.0
 10
4.4659627122
 20
3.5574929857
 30
0.0
 10
4.5018232744
 20
3.5552252818
 30
0.0
 10
4.5339965812
 20
3.5519428275
 30
0.0
 10
4.5607507776
 20
3.5483360577
 30
0.0
 10
4.5808362603
 20
3.5451100254
 30
0.0
 10
4.5933711079
 20
3.5428714132
 30
0.0
 10
4.5990216489
 20
3.5418112091
 30
0.0
 10
4.6004110745
 20
3.5415474326
 30
0.0
 11
4.4284110745
 21
3.5580239647
 31
0.0
 11
4.4662385538
 21
3.5572200107
 31
0.0
 11
4.5031382186
 21
3.5548906419
 31
0.0
 11
4.5359268534
 21
3.5515498641
 31
0.0
 11
4.5627527614
 21
3.5479365785
 31
0.0
 11
4.5834389447
 21
3.5446157405
 31
0.0
 11
4.5962411065
 21
3.5423298236
 31
0.0
 11
4.6004110745
 21
3.5415474326
 31
0.0
  0
SPLINE
  5
5B9
100
AcDbEntity
  8
129-501_FEATURES
100
AcDbSpline
 62
7
  6
CONTINUOUS
 70
0
 71
3
 72
14
 73
10
 74
8
 42
0.0000001
 43
0.0000001
 44
0.0000000001
 12
0.2385763059
 22
0.0
 32
0.0
 13
0.0000323917
 23
-0.2397700933
 33
0.0
 40
0.0
 40
0.0
 40
0.0
 40
0.0
 40
0.1727261639
 40
0.3460795137
 40
0.5105410294
 40
0.6636329788
 40
0.8089860453
 40
0.9416114695
 40
1.0
 40
1.0
 40
1.0
 40
1.0
 10
4.4284110745
 20
3.9401817228
 30
0.0
 10
4.4421471979
 20
3.9401817228
 30
0.0
 10
4.4697505054
 20
3.9373856159
 30
0.0
 10
4.5087368102
 20
3.9250765759
 30
0.0
 10
4.542990615
 20
3.9057465732
 30
0.0
 10
4.5706892406
 20
3.8810482477
 30
0.0
 10
4.5904356605
 20
3.8525645484
 30
0.0
 10
4.5991732789
 20
3.8268437746
 30
0.0
 10
4.6004023201
 20
3.8115703801
 30
0.0
 10
4.6004029505
 20
3.8069037723
 30
0.0
 11
4.4284110745
 21
3.9401817228
 31
0.0
 11
4.4694076124
 21
3.9360087557
 31
0.0
 11
4.5088299246
 21
3.9235041322
 31
0.0
 11
4.5429372831
 21
3.9041082431
 31
0.0
 11
4.5700506405
 21
3.8796362879
 31
0.0
 11
4.589511416
 21
3.8509338861
 31
0.0
 11
4.5993021529
 21
3.8208454779
 31
0.0
 11
4.6004029505
 21
3.8069037723
 31
0.0
  0
SPLINE
  5
5BA
100
AcDbEntity
  8
129-501_FEATURES
100
AcDbSpline
 62
7
  6
CONTINUOUS
 70
0
 71
3
 72
14
 73
10
 74
8
 42
0.0000001
 43
0.0000001
 44
0.0000000001
 12
-0.2385765309
 22
0.0
 32
0.0
 13
-0.0000329693
 23
0.2397693759
 33
0.0
 40
0.0
 40
0.0
 40
0.0
 40
0.0
 40
0.1727025693
 40
0.3460367979
 40
0.5104847598
 40
0.663563786
 40
0.8089062713
 40
0.9415234793
 40
1.0
 40
1.0
 40
1.0
 40
1.0
 10
4.4284110745
 20
4.9549131424
 30
0.0
 10
4.4146768146
 20
4.9549131424
 30
0.0
 10
4.3870769112
 20
4.9577085235
 30
0.0
 10
4.3480944444
 20
4.9700146623
 30
0.0
 10
4.3138426363
 20
4.9893407198
 30
0.0
 10
4.2861440654
 20
5.0140345638
 30
0.0
 10
4.2663954938
 20
5.0425135301
 30
0.0
 10
4.2576512895
 20
5.0682377977
 30
0.0
 10
4.2564198224
 20
5.0835175566
 30
0.0
 10
4.2564191798
 20
5.0881911829
 30
0.0
 11
4.4284110745
 21
4.9549131424
 31
0.0
 11
4.3874200404
 21
4.9590849752
 31
0.0
 11
4.3480015397
 21
4.9715866562
 31
0.0
 11
4.3138957235
 21
4.9909787906
 31
0.0
 11
4.2867823805
 21
5.0154462113
 31
0.0
 11
4.2673191765
 21
5.0441439557
 31
0.0
 11
4.2575232741
 21
5.0742286525
 31
0.0
 11
4.2564191798
 21
5.0881911829
 31
0.0
  0
SPLINE
  5
5BB
100
AcDbEntity
  8
129-501_FEATURES
100
AcDbSpline
 62
7
  6
CONTINUOUS
 70
0
 71
3
 72
12
 73
8
 74
6
 42
0.0000001
 43
0.0000001
 44
0.0000000001
 12
-0.1536899374
 22
0.0
 32
0.0
 13
-0.1126373847
 23
-0.1055849278
 33
0.0
 40
0.0
 40
0.0
 40
0.0
 40
0.0
 40
0.2667610361
 40
0.5279987663
 40
0.7656766123
 40
0.9781928078
 40
1.0
 40
1.0
 40
1.0
 40
1.0
 10
4.4284110745
 20
5.0631820711
 30
0.0
 10
4.4147449122
 20
5.0631820711
 30
0.0
 10
4.3876617237
 20
5.0614848448
 30
0.0
 10
4.349066268
 20
5.0537430537
 30
0.0
 10
4.314793986
 20
5.0407406254
 30
0.0
 10
4.2943032343
 20
5.0274685905
 30
0.0
 10
4.2853788089
 20
5.0193614608
 30
0.0
 10
4.2845600406
 20
5.0185939572
 30
0.0
 11
4.4284110745
 21
5.0631820711
 31
0.0
 11
4.3874979631
 21
5.0605375965
 31
0.0
 11
4.3481841741
 21
5.0523879213
 31
0.0
 11
4.3141792937
 21
5.0390457496
 31
0.0
 11
4.2870507137
 21
5.0208572832
 31
0.0
 11
4.2845600406
 21
5.0185939572
 31
0.0
  0
SPLINE
  5
5BC
100
AcDbEntity
  8
129-501_FEATURES
100
AcDbSpline
 62
7
  6
CONTINUOUS
 70
0
 71
3
 72
12
 73
8
 74
6
 42
0.0000001
 43
0.0000001
 44
0.0000000001
 12
0.1536913023
 22
0.0
 32
0.0
 13
0.112636806
 23
0.1055875155
 33
0.0
 40
0.0
 40
0.0
 40
0.0
 40
0.0
 40
0.2667899348
 40
0.5280512064
 40
0.7657445443
 40
0.9782746641
 40
1.0
 40
1.0
 40
1.0
 40
1.0
 10
4.4284110745
 20
3.8319127941
 30
0.0
 10
4.4420788387
 20
3.8319127941
 30
0.0
 10
4.4691649661
 20
3.833610398
 30
0.0
 10
4.5077640414
 20
3.8413538804
 30
0.0
 10
4.5420385965
 20
3.854359119
 30
0.0
 10
4.5625261285
 20
3.8676317311
 30
0.0
 10
4.5714474469
 20
3.8757372237
 30
0.0
 10
4.5722631377
 20
3.8765018651
 30
0.0
 11
4.4284110745
 21
3.8319127941
 31
0.0
 11
4.4693289609
 21
3.8345578983
 31
0.0
 11
4.5086464276
 21
3.8427094138
 31
0.0
 11
4.5426531138
 21
3.8560543895
 31
0.0
 11
4.5697819511
 21
3.8742468358
 31
0.0
 11
4.5722631377
 21
3.8765018651
 31
0.0
  0
SPLINE
  5
5BD
100
AcDbEntity
  8
129-501_FEATURES
100
AcDbSpline
 62
7
  6
CONTINUOUS
 70
0
 71
3
 72
14
 73
10
 74
8
 42
0.0000001
 43
0.0000001
 44
0.0000000001
 12
0.1699975639
 22
0.0322733074
 32
0.0
 13
0.1730340865
 23
-0.0
 33
0.0
 40
0.0
 40
0.0
 40
0.0
 40
0.0
 40
0.0243865249
 40
0.0993139872
 40
0.2204848876
 40
0.3769577799
 40
0.5670738206
 40
0.7808190329
 40
1.0
 40
1.0
 40
1.0
 40
1.0
 10
4.2564110745
 20
3.5415474326
 30
0.0
 10
4.2577929578
 20
3.5418097772
 30
0.0
 10
4.2634229545
 20
3.5428661943
 30
0.0
 10
4.2759422737
 20
3.545102597
 30
0.0
 10
4.2960219798
 20
3.5483288791
 30
0.0
 10
4.3227630635
 20
3.5519351441
 30
0.0
 10
4.3549219058
 20
3.5552186248
 30
0.0
 10
4.3907955453
 20
3.5574909978
 30
0.0
 10
4.4157691484
 20
3.5580239647
 30
0.0
 10
4.4284110745
 20
3.5580239647
 30
0.0
 11
4.2564110745
 21
3.5415474326
 31
0.0
 11
4.2605583972
 21
3.5423256248
 31
0.0
 11
4.2733214374
 21
3.5446051335
 31
0.0
 11
4.2940228877
 21
3.5479296333
 31
0.0
 11
4.3208555519
 21
3.5515450942
 31
0.0
 11
4.3535824139
 21
3.5548821378
 31
0.0
 11
4.3904938993
 21
3.5572161953
 31
0.0
 11
4.4284110745
 21
3.5580239647
 31
0.0
  0
SPLINE
  5
5BE
100
AcDbEntity
  8
129-501_FEATURES
100
AcDbSpline
 62
7
  6
CONTINUOUS
 70
0
 71
3
 72
14
 73
10
 74
8
 42
0.0000001
 43
0.0000001
 44
0.0000000001
 12
0.2253494868
 22
0.0
 32
0.0
 13
-0.0000454946
 23
-0.2264779062
 33
0.0
 40
0.0
 40
0.0
 40
0.0
 40
0.0
 40
0.1794313529
 40
0.3558350377
 40
0.5177806479
 40
0.6658061424
 40
0.8036249032
 40
0.9334283041
 40
1.0
 40
1.0
 40
1.0
 40
1.0
 10
4.4284110745
 20
5.1981578752
 30
0.0
 10
4.441889329
 20
5.1981578752
 30
0.0
 10
4.4686551821
 20
5.1963833141
 30
0.0
 10
4.5068560969
 20
5.188328001
 30
0.0
 10
4.5410443636
 20
5.1748639552
 30
0.0
 10
4.5693450054
 20
5.1561065807
 30
0.0
 10
4.5900179163
 20
5.1320177166
 30
0.0
 10
4.5991238221
 20
5.1080287661
 30
0.0
 10
4.6004039817
 20
5.0932109831
 30
0.0
 10
4.6004029721
 20
5.0881853104
 30
0.0
 11
4.4284110745
 21
5.1981578752
 31
0.0
 11
4.4687524833
 21
5.1954118198
 31
0.0
 11
4.5076021622
 21
5.1869879191
 31
0.0
 11
4.541422848
 21
5.1732766267
 31
0.0
 11
4.5689579807
 21
5.154447468
 31
0.0
 11
4.5888204386
 21
5.1305718726
 31
0.0
 11
4.5990682276
 21
5.1031745841
 31
0.0
 11
4.6004029721
 21
5.0881853104
 31
0.0
  0
SPLINE
  5
5BF
100
AcDbEntity
  8
129-501_FEATURES
100
AcDbSpline
 62
7
  6
CONTINUOUS
 70
0
 71
3
 72
14
 73
10
 74
8
 42
0.0000001
 43
0.0000001
 44
0.0000000001
 12
-0.0000311406
 22
0.2264707365
 32
0.0
 13
0.2253440518
 23
0.0
 33
0.0
 40
0.0
 40
0.0
 40
0.0
 40
0.0
 40
0.0663547611
 40
0.195886482
 40
0.3336343314
 40
0.481771693
 40
0.6437257127
 40
0.8202548891
 40
1.0
 40
1.0
 40
1.0
 40
1.0
 10
4.2564191798
 20
5.0881911829
 30
0.0
 10
4.256418491
 20
5.0932003201
 30
0.0
 10
4.2576922116
 20
5.1079806256
 30
0.0
 10
4.2667591293
 20
5.1319352765
 30
0.0
 10
4.2873921816
 20
5.1560350647
 30
0.0
 10
4.3156820304
 20
5.1748165663
 30
0.0
 10
4.3498803257
 20
5.1883039851
 30
0.0
 10
4.3881111782
 20
5.1963781754
 30
0.0
 10
4.4149095774
 20
5.1981578752
 30
0.0
 10
4.4284110745
 20
5.1981578752
 30
0.0
 11
4.2564191798
 21
5.0881911829
 31
0.0
 11
4.2577461016
 21
5.1031315697
 31
0.0
 11
4.267947786
 21
5.1304799736
 31
0.0
 11
4.2877722498
 21
5.15436539
 31
0.0
 11
4.3153122217
 21
5.1732306864
 31
0.0
 11
4.3491268606
 21
5.1869595828
 31
0.0
 11
4.3880004301
 21
5.1954022169
 31
0.0
 11
4.4284110745
 21
5.1981578752
 31
0.0
  0
SPLINE
  5
5C0
100
AcDbEntity
  8
129-501_FEATURES
100
AcDbSpline
 62
7
  6
CONTINUOUS
 70
0
 71
3
 72
14
 73
10
 74
8
 42
0.0000001
 43
0.0000001
 44
0.0000000001
 12
0.0000305951
 22
-0.226471704
 32
0.0
 13
-0.2253441278
 23
-0.0
 33
0.0
 40
0.0
 40
0.0
 40
0.0
 40
0.0
 40
0.0664632615
 40
0.1960207673
 40
0.3337960858
 40
0.4819586397
 40
0.643868256
 40
0.8202794065
 40
1.0
 40
1.0
 40
1.0
 40
1.0
 10
4.6004029505
 20
3.8069037723
 30
0.0
 10
4.6004036283
 20
3.8018864229
 30
0.0
 10
4.5991269353
 20
3.787095912
 30
0.0
 10
4.5900473526
 20
3.7631326113
 30
0.0
 10
4.569402233
 20
3.73903543
 30
0.0
 10
4.5411066755
 20
3.7202616873
 30
0.0
 10
4.5069158008
 20
3.7067844196
 30
0.0
 10
4.4686984336
 20
3.6987157354
 30
0.0
 10
4.4419107347
 20
3.69693699
 30
0.0
 10
4.4284110745
 20
3.69693699
 30
0.0
 11
4.6004029505
 21
3.8069037723
 31
0.0
 11
4.5990716647
 21
3.7919391712
 31
0.0
 11
4.5888589851
 21
3.7645886583
 31
0.0
 11
4.5690226003
 21
3.7407050805
 31
0.0
 11
4.5414725411
 21
3.7218444468
 31
0.0
 11
4.5076644851
 21
3.7081259047
 31
0.0
 11
4.4688162468
 21
3.6996918886
 31
0.0
 11
4.4284110745
 21
3.69693699
 31
0.0
  0
SPLINE
  5
5C1
100
AcDbEntity
  8
129-501_FEATURES
100
AcDbSpline
 62
7
  6
CONTINUOUS
 70
0
 71
3
 72
14
 73
10
 74
8
 42
0.0000001
 43
0.0000001
 44
0.0000000001
 12
-0.2253495525
 22
0.0
 32
0.0
 13
0.0000449929
 23
0.2264787798
 33
0.0
 40
0.0
 40
0.0
 40
0.0
 40
0.0
 40
0.1794169376
 40
0.3557022371
 40
0.5176163253
 40
0.6656614861
 40
0.8035040351
 40
0.9333306495
 40
1.0
 40
1.0
 40
1.0
 40
1.0
 10
4.4284110745
 20
3.69693699
 30
0.0
 10
4.414933899
 20
3.69693699
 30
0.0
 10
4.3881780063
 20
3.6987107442
 30
0.0
 10
4.3499889882
 20
3.706761237
 30
0.0
 10
4.3158078361
 20
3.7202159453
 30
0.0
 10
4.2875018744
 20
3.7389666455
 30
0.0
 10
4.2668183379
 20
3.7630529446
 30
0.0
 10
4.2577010365
 20
3.787049598
 30
0.0
 10
4.2564181941
 20
3.8018765677
 30
0.0
 10
4.256419194
 20
3.8069096321
 30
0.0
 11
4.4284110745
 21
3.69693699
 31
0.0
 11
4.3880728796
 21
3.6996826001
 31
0.0
 11
4.3492486916
 21
3.7080982207
 31
0.0
 11
4.3154321736
 21
3.7218009134
 31
0.0
 11
4.2878886066
 21
3.7406256048
 31
0.0
 11
4.2680155823
 21
3.7644993929
 31
0.0
 11
4.2577578783
 21
3.7918985656
 31
0.0
 11
4.256419194
 21
3.8069096321
 31
0.0
  0
SPLINE
  5
5C2
100
AcDbEntity
  8
0
100
AcDbSpline
 62
7
  6
CONTINUOUS
 70
0
 71
3
 72
15
 73
11
 74
9
 42
0.0000001
 43
0.0000001
 44
0.0000000001
 12
-0.2213747218
 22
0.4040882066
 32
0.0
 13
0.2213747218
 23
0.4040882066
 33
0.0
 40
0.0
 40
0.0
 40
0.0
 40
0.0
 40
0.1362689323
 40
0.2625086123
 40
0.3826701771
 40
0.5000541276
 40
0.6174398887
 40
0.7376002095
 40
0.8637647663
 40
1.0
 40
1.0
 40
1.0
 40
1.0
 10
1.7133837058
 20
3.524942774
 30
0.0
 10
1.7033282068
 20
3.5432976635
 30
0.0
 10
1.6853813828
 20
3.5794788088
 30
0.0
 10
1.6649581468
 20
3.6347271448
 30
0.0
 10
1.6524304775
 20
3.6893614346
 30
0.0
 10
1.648183548
 20
3.7439228078
 30
0.0
 10
1.6524382752
 20
3.7984833604
 30
0.0
 10
1.6649702771
 20
3.8531048133
 30
0.0
 10
1.6853909644
 20
3.9083357894
 30
0.0
 10
1.7033306934
 20
3.9445017407
 30
0.0
 10
1.7133837058
 20
3.9628520911
 30
0.0
 11
1.7133837058
 21
3.524942774
 31
0.0
 11
1.6857565168
 21
3.5813242753
 31
0.0
 11
1.6658583046
 21
3.6359802544
 31
0.0
 11
1.6537007167
 21
3.6899938146
 31
0.0
 11
1.6495894082
 21
3.7439224254
 31
0.0
 11
1.6537083507
 21
3.7978512904
 31
0.0
 11
1.6658725837
 21
3.8518627669
 31
0.0
 11
1.6857626463
 21
3.906484877
 31
0.0
 11
1.7133837058
 21
3.9628520911
 31
0.0
  0
SPLINE
  5
5C3
100
AcDbEntity
  8
0
100
AcDbSpline
 62
7
  6
CONTINUOUS
 70
0
 71
3
 72
15
 73
11
 74
9
 42
0.0000001
 43
0.0000001
 44
0.0000000001
 12
-0.234492798
 22
0.8560667942
 32
0.0
 13
0.234492798
 23
0.8560667942
 33
0.0
 40
0.0
 40
0.0
 40
0.0
 40
0.0
 40
0.1307996738
 40
0.2559776872
 40
0.3784527301
 40
0.5000562826
 40
0.6216607353
 40
0.7441319501
 40
0.8692332372
 40
1.0
 40
1.0
 40
1.0
 40
1.0
 10
1.7133837058
 20
4.0096381155
 30
0.0
 10
1.7031598453
 20
4.0469625347
 30
0.0
 10
1.6849873829
 20
4.1205328002
 30
0.0
 10
1.6647351049
 20
4.2307338193
 30
0.0
 10
1.6523740942
 20
4.3393786189
 30
0.0
 10
1.6482001116
 20
4.4475977353
 30
0.0
 10
1.6523817675
 20
4.555815414
 30
0.0
 10
1.6647472268
 20
4.6644359492
 30
0.0
 10
1.6849972806
 20
4.7746030974
 30
0.0
 10
1.7031624177
 20
4.8481417219
 30
0.0
 10
1.7133837058
 20
4.8854567497
 30
0.0
 11
1.7133837058
 21
4.0096381155
 31
0.0
 11
1.6857565168
 21
4.122401118
 31
0.0
 11
1.6658583046
 21
4.2317130762
 31
0.0
 11
1.6537007167
 21
4.3397401965
 31
0.0
 11
1.6495894082
 21
4.4475974182
 31
0.0
 11
1.6537083507
 21
4.5554551483
 31
0.0
 11
1.6658725837
 21
4.6634781012
 31
0.0
 11
1.6857626463
 21
4.7727223213
 31
0.0
 11
1.7133837058
 21
4.8854567497
 31
0.0
  0
SPLINE
  5
5C4
100
AcDbEntity
  8
0
100
AcDbSpline
 62
7
  6
CONTINUOUS
 70
0
 71
3
 72
15
 73
11
 74
9
 42
0.0000001
 43
0.0000001
 44
0.0000000001
 12
-0.2213747218
 22
0.4040882066
 32
0.0
 13
0.2213747218
 23
0.4040882066
 33
0.0
 40
0.0
 40
0.0
 40
0.0
 40
0.0
 40
0.1362689323
 40
0.2625086123
 40
0.3826701771
 40
0.5000541276
 40
0.6174398887
 40
0.7376002095
 40
0.8637647663
 40
1.0
 40
1.0
 40
1.0
 40
1.0
 10
1.7133837058
 20
4.932242774
 30
0.0
 10
1.7033282068
 20
4.9505976635
 30
0.0
 10
1.6853813828
 20
4.9867788088
 30
0.0
 10
1.6649581468
 20
5.0420271448
 30
0.0
 10
1.6524304775
 20
5.0966614346
 30
0.0
 10
1.648183548
 20
5.1512228078
 30
0.0
 10
1.6524382752
 20
5.2057833604
 30
0.0
 10
1.6649702771
 20
5.2604048133
 30
0.0
 10
1.6853909644
 20
5.3156357894
 30
0.0
 10
1.7033306934
 20
5.3518017407
 30
0.0
 10
1.7133837058
 20
5.3701520911
 30
0.0
 11
1.7133837058
 21
4.932242774
 31
0.0
 11
1.6857565168
 21
4.9886242753
 31
0.0
 11
1.6658583046
 21
5.0432802544
 31
0.0
 11
1.6537007167
 21
5.0972938146
 31
0.0
 11
1.6495894082
 21
5.1512224254
 31
0.0
 11
1.6537083507
 21
5.2051512904
 31
0.0
 11
1.6658725837
 21
5.2591627669
 31
0.0
 11
1.6857626463
 21
5.313784877
 31
0.0
 11
1.7133837058
 21
5.3701520911
 31
0.0
  0
ENDSEC
  0
SECTION
  2
OBJECTS
  0
DICTIONARY
  5
C
100
AcDbDictionary
280
0
281
1
  3
ACAD_GROUP
350
D
  3
ACAD_MLINESTYLE
350
17
  3
ACAD_LAYOUT
350
1A
  3
ACAD_PLOTSETTINGS
350
19
  3
ACAD_PLOTSTYLENAME
350
E
  0
DICTIONARY
  5
D
102
{ACAD_REACTORS
330
C
102
}
100
AcDbDictionary
280
0
281
1
  0
ACDBDICTIONARYWDFLT
  5
E
102
{ACAD_REACTORS
330
C
102
}
100
AcDbDictionary
281
1
  3
Normal
350
F
100
AcDbDictionaryWithDefault
340
F
  0
DICTIONARY
  5
17
102
{ACAD_REACTORS
330
C
102
}
100
AcDbDictionary
280
0
281
1
  3
Standard
350
18
  0
DICTIONARY
  5
19
102
{ACAD_REACTORS
330
C
102
}
100
AcDbDictionary
281
1
  0
DICTIONARY
  5
1A
102
{ACAD_REACTORS
330
C
102
}
100
AcDbDictionary
281
1
  3
Layout1
350
1E
  3
Model
350
22
  0
ACDBPLACEHOLDER
  5
F
102
{ACAD_REACTORS
330
E
102
}
  0
MLINESTYLE
  5
18
102
{ACAD_REACTORS
330
17
102
}
100
AcDbMlineStyle
  2
STANDARD
 70
0
  3

 62
256
 51
90.0
 52
90.0
 71
2
 49
0.5
 62
256
  6
BYLAYER
 49
-0.5
 62
256
  6
BYLAYER
  0
LAYOUT
  5
1E
102
{ACAD_REACTORS
330
1A
102
}
100
AcDbPlotSettings
  1

  2

  4

  6

 40
0.0
 41
0.0
 42
0.0
 43
0.0
 44
0.0
 45
0.0
 46
0.0
 47
0.0
 48
0.0
 49
0.0
140
0.0
141
0.0
142
1.0
143
1.0
 70
0
 72
0
 73
0
 74
0
  7

 75
0
147
1.0
148
0.0
149
0.0
100
AcDbLayout
  1
Layout1
 70
0
 71
0
 10
0.0
 20
0.0
 11
0.0
 21
0.0
 12
0.0
 22
0.0
 32
0.0
 14
0.0
 24
0.0
 34
0.0
 15
0.0
 25
0.0
 35
0.0
146
0.0
 13
0.0
 23
0.0
 33
0.0
 16
0.0
 26
0.0
 36
0.0
 17
0.0
 27
0.0
 37
0.0
 76
0
330
1B
331
0
345
0
346
0
  0
LAYOUT
  5
22
102
{ACAD_REACTORS
330
1A
102
}
100
AcDbPlotSettings
  1

  2

  4

  6

 40
0.0
 41
0.0
 42
0.0
 43
0.0
 44
0.0
 45
0.0
 46
0.0
 47
0.0
 48
0.0
 49
0.0
140
0.0
141
0.0
142
1.0
143
1.0
 70
0
 72
0
 73
0
 74
0
  7

 75
0
147
1.0
148
0.0
149
0.0
100
AcDbLayout
  1
Model
 70
0
 71
0
 10
0.0
 20
0.0
 11
0.0
 21
0.0
 12
0.0
 22
0.0
 32
0.0
 14
0.0
 24
0.0
 34
0.0
 15
0.0
 25
0.0
 35
0.0
146
0.0
 13
0.0
 23
0.0
 33
0.0
 16
0.0
 26
0.0
 36
0.0
 17
0.0
 27
0.0
 37
0.0
 76
0
330
1F
331
0
345
0
346
0
  0
ENDSEC
  0
EOF
