999
DXF file: FSFA-XAN.dxf
999
Pro/ENGINEER 2006240 by Parametric Technology Corporation
  0
SECTION
  2
HEADER
  9
$ACADVER
  1
AC1015
  9
$DWGCODEPAGE
  3
ANSI_1252
  9
$EXTMAX
 10
11.6929133858
 20
8.2677165354
 30
0.0
  9
$EXTMIN
 10
0.0
 20
0.0
 30
0.0
  9
$LIMMIN
 10
0.0
 20
0.0
  9
$LIMMAX
 10
11.6929133858
 20
8.2677165354
  9
$VIEWCTR
 10
5.8464566929
 20
4.1338582677
  9
$VIEWSIZE
 40
8.2677165354
  9
$CLAYER
  8
0
  9
$LTSCALE
 40
0.6431102362
  9
$CELTYPE
  6
BYLAYER
  9
$DIMSCALE
 40
1.0
  9
$DIMASZ
 40
0.1875
  9
$DIMEXO
 40
0.0730807087
  9
$DIMDLI
 40
0.4443307087
  9
$DIMEXE
 40
0.2104724409
  9
$DIMCEN
 40
0.1052362205
  9
$DIMLFAC
 40
1.0
  9
$DIMBLK
  1
_CLOSED
  9
$DIMTXT
 40
0.15625
  9
$DIMTOL
 70
0
  9
$DIMLIM
 70
0
  9
$DIMTFAC
 40
1.0
  9
$PDMODE
 70
3
  9
$PDSIZE
 40
0.3125
  9
$HANDSEED
  5
4D2
  9
$MEASUREMENT
 70
0
  9
$INSUNITS
 70
1
  0
ENDSEC
  0
SECTION
  2
CLASSES
  0
CLASS
  1
ACDBDICTIONARYWDFLT
  2
AcDbDictionaryWithDefault
  3
AutoCAD 2000
 90
0
280
0
281
0
  0
CLASS
  1
ACDBPLACEHOLDER
  2
AcDbPlaceHolder
  3
AutoCAD 2000
 90
0
280
0
281
0
  0
CLASS
  1
LAYOUT
  2
AcDbLayout
  3
AutoCAD 2000
 90
0
280
0
281
0
  0
ENDSEC
  0
SECTION
  2
TABLES
  0
TABLE
  2
VPORT
  5
8
100
AcDbSymbolTable
 70
2
  0
VPORT
  5
1F4
100
AcDbSymbolTableRecord
100
AcDbViewportTableRecord
  2
*ACTIVE
 70
0
 10
0.0
 20
0.0
 11
1.0
 21
1.0
 12
5.8464566929
 22
4.1338582677
 13
0.0
 23
0.0
 14
1.0
 24
1.0
 15
0.0
 25
0.0
 16
0.0
 26
0.0
 36
1.0
 17
0.0
 27
0.0
 37
0.0
 40
8.2677165354
 41
1.4142857143
 42
50.0
 43
0.0
 44
0.0
 50
0.0
 51
0.0
 71
0
 72
100
 73
1
 74
1
 75
0
 76
0
 77
0
 78
0
  0
ENDTAB
  0
TABLE
  2
LTYPE
  5
5
100
AcDbSymbolTable
 70
6
  0
LTYPE
  5
14
100
AcDbSymbolTableRecord
100
AcDbLinetypeTableRecord
  2
BYBLOCK
 70
0
  3

 72
65
 73
0
 40
0.0
  0
LTYPE
  5
15
100
AcDbSymbolTableRecord
100
AcDbLinetypeTableRecord
  2
BYLAYER
 70
0
  3

 72
65
 73
0
 40
0.0
  0
LTYPE
  5
16
100
AcDbSymbolTableRecord
100
AcDbLinetypeTableRecord
  2
CONTINUOUS
 70
64
  3
Solid line
 72
65
 73
0
 40
0.0
  0
LTYPE
  5
1F5
100
AcDbSymbolTableRecord
100
AcDbLinetypeTableRecord
  2
CENTER
 70
64
  3
____ _ ____ _ ____ _ ____ _ ____ _ ____ _ ____
 72
65
 73
4
 40
0.6
 49
0.375
 74
0
 49
-0.075
 74
0
 49
0.075
 74
0
 49
-0.075
 74
0
  0
LTYPE
  5
1F6
100
AcDbSymbolTableRecord
100
AcDbLinetypeTableRecord
  2
HIDDEN
 70
64
  3
- - - - - - - - - - - - - - - - - - - -
 72
65
 73
2
 40
0.2
 49
0.1
 74
0
 49
-0.1
 74
0
  0
LTYPE
  5
1F7
100
AcDbSymbolTableRecord
100
AcDbLinetypeTableRecord
  2
PHANTOM
 70
64
  3
_____ _ _ _____ _ _ _____ _ _ _____
 72
65
 73
6
 40
0.8
 49
0.45
 74
0
 49
-0.05
 74
0
 49
0.1
 74
0
 49
-0.05
 74
0
 49
0.1
 74
0
 49
-0.05
 74
0
  0
LTYPE
  5
1F8
100
AcDbSymbolTableRecord
100
AcDbLinetypeTableRecord
  2
DOT
 70
64
  3
. . . . . . . . . . . . . . . . . . . .
 72
65
 73
2
 40
0.2
 49
0.1
 74
0
 49
-0.1
 74
0
  0
LTYPE
  5
1F9
100
AcDbSymbolTableRecord
100
AcDbLinetypeTableRecord
  2
DASHED
 70
64
  3
- - - - - - - - - - - - - - - - - - - -
 72
65
 73
2
 40
0.2
 49
0.1
 74
0
 49
-0.1
 74
0
  0
ENDTAB
  0
TABLE
  2
LAYER
  5
2
100
AcDbSymbolTable
 70
36
  0
LAYER
  5
10
100
AcDbSymbolTableRecord
100
AcDbLayerTableRecord
  2
0
 70
0
 62
7
  6
CONTINUOUS
370
-3
390
F
  0
LAYER
  5
1FA
100
AcDbSymbolTableRecord
100
AcDbLayerTableRecord
  2
DEFAULT_1
 70
0
 62
7
  6
CENTER
370
-3
390
F
  0
LAYER
  5
1FB
100
AcDbSymbolTableRecord
100
AcDbLayerTableRecord
  2
DEFAULT_2
 70
0
 62
8
  6
HIDDEN
370
-3
390
F
  0
LAYER
  5
1FC
100
AcDbSymbolTableRecord
100
AcDbLayerTableRecord
  2
DEFAULT_3
 70
0
 62
7
  6
PHANTOM
370
-3
390
F
  0
LAYER
  5
1FD
100
AcDbSymbolTableRecord
100
AcDbLayerTableRecord
  2
_BLACK_HOLE
 70
0
 62
7
  6
CONTINUOUS
370
-3
390
F
  0
LAYER
  5
1FE
100
AcDbSymbolTableRecord
100
AcDbLayerTableRecord
  2
01_ALL_DTM_PLN
 70
0
 62
7
  6
CONTINUOUS
370
-3
390
F
  0
LAYER
  5
1FF
100
AcDbSymbolTableRecord
100
AcDbLayerTableRecord
  2
01__ASM_ALL_DTM_PLN
 70
0
 62
7
  6
CONTINUOUS
370
-3
390
F
  0
LAYER
  5
200
100
AcDbSymbolTableRecord
100
AcDbLayerTableRecord
  2
01__ASM_DEF_DTM_PLN
 70
0
 62
7
  6
CONTINUOUS
370
-3
390
F
  0
LAYER
  5
201
100
AcDbSymbolTableRecord
100
AcDbLayerTableRecord
  2
01___PRT_ALL_DTM_PLN
 70
0
 62
7
  6
CONTINUOUS
370
-3
390
F
  0
LAYER
  5
202
100
AcDbSymbolTableRecord
100
AcDbLayerTableRecord
  2
01___PRT_DEF_DTM_PLN
 70
0
 62
7
  6
CONTINUOUS
370
-3
390
F
  0
LAYER
  5
203
100
AcDbSymbolTableRecord
100
AcDbLayerTableRecord
  2
02_ALL_AXES
 70
0
 62
7
  6
CONTINUOUS
370
-3
390
F
  0
LAYER
  5
204
100
AcDbSymbolTableRecord
100
AcDbLayerTableRecord
  2
02__ASM_ALL_AXES
 70
0
 62
7
  6
CONTINUOUS
370
-3
390
F
  0
LAYER
  5
205
100
AcDbSymbolTableRecord
100
AcDbLayerTableRecord
  2
02___PRT_ALL_AXES
 70
0
 62
7
  6
CONTINUOUS
370
-3
390
F
  0
LAYER
  5
206
100
AcDbSymbolTableRecord
100
AcDbLayerTableRecord
  2
03_ALL_CURVES
 70
0
 62
7
  6
CONTINUOUS
370
-3
390
F
  0
LAYER
  5
207
100
AcDbSymbolTableRecord
100
AcDbLayerTableRecord
  2
03__ASM_ALL_CURVES
 70
0
 62
7
  6
CONTINUOUS
370
-3
390
F
  0
LAYER
  5
208
100
AcDbSymbolTableRecord
100
AcDbLayerTableRecord
  2
03___PRT_ALL_CURVES
 70
0
 62
7
  6
CONTINUOUS
370
-3
390
F
  0
LAYER
  5
209
100
AcDbSymbolTableRecord
100
AcDbLayerTableRecord
  2
04_ALL_DTM_PNT
 70
0
 62
7
  6
CONTINUOUS
370
-3
390
F
  0
LAYER
  5
20A
100
AcDbSymbolTableRecord
100
AcDbLayerTableRecord
  2
04__ASM_ALL_DTM_PNT
 70
0
 62
7
  6
CONTINUOUS
370
-3
390
F
  0
LAYER
  5
20B
100
AcDbSymbolTableRecord
100
AcDbLayerTableRecord
  2
04___PRT_ALL_DTM_PNT
 70
0
 62
7
  6
CONTINUOUS
370
-3
390
F
  0
LAYER
  5
20C
100
AcDbSymbolTableRecord
100
AcDbLayerTableRecord
  2
05_ALL_DTM_CSYS
 70
0
 62
7
  6
CONTINUOUS
370
-3
390
F
  0
LAYER
  5
20D
100
AcDbSymbolTableRecord
100
AcDbLayerTableRecord
  2
05__ASM_ALL_DTM_CSYS
 70
0
 62
7
  6
CONTINUOUS
370
-3
390
F
  0
LAYER
  5
20E
100
AcDbSymbolTableRecord
100
AcDbLayerTableRecord
  2
05__ASM_DEF_DTM_CSYS
 70
0
 62
7
  6
CONTINUOUS
370
-3
390
F
  0
LAYER
  5
20F
100
AcDbSymbolTableRecord
100
AcDbLayerTableRecord
  2
05___PRT_ALL_DTM_CSYS
 70
0
 62
7
  6
CONTINUOUS
370
-3
390
F
  0
LAYER
  5
210
100
AcDbSymbolTableRecord
100
AcDbLayerTableRecord
  2
05___PRT_DEF_DTM_CSYS
 70
0
 62
7
  6
CONTINUOUS
370
-3
390
F
  0
LAYER
  5
211
100
AcDbSymbolTableRecord
100
AcDbLayerTableRecord
  2
06_ALL_SURFS
 70
0
 62
7
  6
CONTINUOUS
370
-3
390
F
  0
LAYER
  5
212
100
AcDbSymbolTableRecord
100
AcDbLayerTableRecord
  2
06__ASM_ALL_SURFS
 70
0
 62
7
  6
CONTINUOUS
370
-3
390
F
  0
LAYER
  5
213
100
AcDbSymbolTableRecord
100
AcDbLayerTableRecord
  2
06___PRT_ALL_SURFS
 70
0
 62
7
  6
CONTINUOUS
370
-3
390
F
  0
LAYER
  5
214
100
AcDbSymbolTableRecord
100
AcDbLayerTableRecord
  2
07__ASM_ALL_SKELETONS
 70
0
 62
7
  6
CONTINUOUS
370
-3
390
F
  0
LAYER
  5
215
100
AcDbSymbolTableRecord
100
AcDbLayerTableRecord
  2
129-007_FEATURES
 70
0
 62
7
  6
CONTINUOUS
370
-3
390
F
  0
LAYER
  5
216
100
AcDbSymbolTableRecord
100
AcDbLayerTableRecord
  2
129-007_REF_GEOMETRY
 70
0
 62
7
  6
CONTINUOUS
370
-3
390
F
  0
LAYER
  5
217
100
AcDbSymbolTableRecord
100
AcDbLayerTableRecord
  2
129-009_FEATURES
 70
0
 62
7
  6
CONTINUOUS
370
-3
390
F
  0
LAYER
  5
218
100
AcDbSymbolTableRecord
100
AcDbLayerTableRecord
  2
129-009_REF_GEOMETRY
 70
0
 62
7
  6
CONTINUOUS
370
-3
390
F
  0
LAYER
  5
219
100
AcDbSymbolTableRecord
100
AcDbLayerTableRecord
  2
129-100_FEATURES
 70
0
 62
7
  6
CONTINUOUS
370
-3
390
F
  0
LAYER
  5
21A
100
AcDbSymbolTableRecord
100
AcDbLayerTableRecord
  2
129-100_REF_GEOMETRY
 70
0
 62
7
  6
CONTINUOUS
370
-3
390
F
  0
LAYER
  5
21B
100
AcDbSymbolTableRecord
100
AcDbLayerTableRecord
  2
129-101_FEATURES
 70
0
 62
7
  6
CONTINUOUS
370
-3
390
F
  0
LAYER
  5
21C
100
AcDbSymbolTableRecord
100
AcDbLayerTableRecord
  2
129-101_REF_GEOMETRY
 70
0
 62
7
  6
CONTINUOUS
370
-3
390
F
  0
LAYER
  5
21D
100
AcDbSymbolTableRecord
100
AcDbLayerTableRecord
  2
129-102_FEATURES
 70
0
 62
7
  6
CONTINUOUS
370
-3
390
F
  0
LAYER
  5
21E
100
AcDbSymbolTableRecord
100
AcDbLayerTableRecord
  2
129-102_REF_GEOMETRY
 70
0
 62
7
  6
CONTINUOUS
370
-3
390
F
  0
LAYER
  5
21F
100
AcDbSymbolTableRecord
100
AcDbLayerTableRecord
  2
129-103_FEATURES
 70
0
 62
7
  6
CONTINUOUS
370
-3
390
F
  0
LAYER
  5
220
100
AcDbSymbolTableRecord
100
AcDbLayerTableRecord
  2
129-103_REF_GEOMETRY
 70
0
 62
7
  6
CONTINUOUS
370
-3
390
F
  0
LAYER
  5
221
100
AcDbSymbolTableRecord
100
AcDbLayerTableRecord
  2
129-104_FEATURES
 70
0
 62
7
  6
CONTINUOUS
370
-3
390
F
  0
LAYER
  5
222
100
AcDbSymbolTableRecord
100
AcDbLayerTableRecord
  2
129-104_REF_GEOMETRY
 70
0
 62
7
  6
CONTINUOUS
370
-3
390
F
  0
LAYER
  5
223
100
AcDbSymbolTableRecord
100
AcDbLayerTableRecord
  2
COPY_GEO_FET
 70
0
 62
7
  6
CONTINUOUS
370
-3
390
F
  0
LAYER
  5
224
100
AcDbSymbolTableRecord
100
AcDbLayerTableRecord
  2
COSMETIC
 70
0
 62
7
  6
CONTINUOUS
370
-3
390
F
  0
LAYER
  5
225
100
AcDbSymbolTableRecord
100
AcDbLayerTableRecord
  2
CURVES
 70
0
 62
7
  6
CONTINUOUS
370
-3
390
F
  0
LAYER
  5
226
100
AcDbSymbolTableRecord
100
AcDbLayerTableRecord
  2
CUT_REF_SURF
 70
0
 62
7
  6
CONTINUOUS
370
-3
390
F
  0
LAYER
  5
227
100
AcDbSymbolTableRecord
100
AcDbLayerTableRecord
  2
DATUM
 70
0
 62
7
  6
CONTINUOUS
370
-3
390
F
  0
LAYER
  5
228
100
AcDbSymbolTableRecord
100
AcDbLayerTableRecord
  2
DATUMCURVES
 70
0
 62
7
  6
CONTINUOUS
370
-3
390
F
  0
LAYER
  5
229
100
AcDbSymbolTableRecord
100
AcDbLayerTableRecord
  2
DIMENSIONS
 70
0
 62
7
  6
CONTINUOUS
370
-3
390
F
  0
LAYER
  5
22A
100
AcDbSymbolTableRecord
100
AcDbLayerTableRecord
  2
DTM
 70
0
 62
7
  6
CONTINUOUS
370
-3
390
F
  0
LAYER
  5
22B
100
AcDbSymbolTableRecord
100
AcDbLayerTableRecord
  2
DTM230
 70
0
 62
7
  6
CONTINUOUS
370
-3
390
F
  0
LAYER
  5
22C
100
AcDbSymbolTableRecord
100
AcDbLayerTableRecord
  2
DTM_500001
 70
0
 62
7
  6
CONTINUOUS
370
-3
390
F
  0
LAYER
  5
22D
100
AcDbSymbolTableRecord
100
AcDbLayerTableRecord
  2
DTM_500002
 70
0
 62
7
  6
CONTINUOUS
370
-3
390
F
  0
LAYER
  5
22E
100
AcDbSymbolTableRecord
100
AcDbLayerTableRecord
  2
DTM_515002
 70
0
 62
7
  6
CONTINUOUS
370
-3
390
F
  0
LAYER
  5
22F
100
AcDbSymbolTableRecord
100
AcDbLayerTableRecord
  2
DTM_SPRING_LH
 70
0
 62
7
  6
CONTINUOUS
370
-3
390
F
  0
LAYER
  5
230
100
AcDbSymbolTableRecord
100
AcDbLayerTableRecord
  2
DTM_SP_LH_CONSTR
 70
0
 62
7
  6
CONTINUOUS
370
-3
390
F
  0
LAYER
  5
231
100
AcDbSymbolTableRecord
100
AcDbLayerTableRecord
  2
DTM_WIRE
 70
0
 62
7
  6
CONTINUOUS
370
-3
390
F
  0
LAYER
  5
232
100
AcDbSymbolTableRecord
100
AcDbLayerTableRecord
  2
GEOMETRICTOLERANCES
 70
0
 62
7
  6
CONTINUOUS
370
-3
390
F
  0
LAYER
  5
233
100
AcDbSymbolTableRecord
100
AcDbLayerTableRecord
  2
PARAMETERDIMENSIONS
 70
0
 62
7
  6
CONTINUOUS
370
-3
390
F
  0
LAYER
  5
234
100
AcDbSymbolTableRecord
100
AcDbLayerTableRecord
  2
PLANE
 70
0
 62
7
  6
CONTINUOUS
370
-3
390
F
  0
LAYER
  5
235
100
AcDbSymbolTableRecord
100
AcDbLayerTableRecord
  2
T-8A_CAVITY
 70
0
 62
7
  6
CONTINUOUS
370
-3
390
F
  0
LAYER
  5
236
100
AcDbSymbolTableRecord
100
AcDbLayerTableRecord
  2
TEXT
 70
0
 62
7
  6
CONTINUOUS
370
-3
390
F
  0
LAYER
  5
237
100
AcDbSymbolTableRecord
100
AcDbLayerTableRecord
  2
THREAD
 70
0
 62
7
  6
CONTINUOUS
370
-3
390
F
  0
LAYER
  5
238
100
AcDbSymbolTableRecord
100
AcDbLayerTableRecord
  2
XSEC_DATUMS
 70
0
 62
7
  6
CONTINUOUS
370
-3
390
F
  0
ENDTAB
  0
TABLE
  2
STYLE
  5
3
100
AcDbSymbolTable
 70
1
  0
STYLE
  5
11
100
AcDbSymbolTableRecord
100
AcDbTextStyleTableRecord
  2
STANDARD
 70
0
 40
0.0
 41
0.8
 50
0.0
 71
0
 42
0.2
  3
txt
  4

  0
ENDTAB
  0
TABLE
  2
VIEW
  5
6
100
AcDbSymbolTable
 70
0
  0
ENDTAB
  0
TABLE
  2
UCS
  5
7
100
AcDbSymbolTable
 70
0
  0
ENDTAB
  0
TABLE
  2
APPID
  5
9
100
AcDbSymbolTable
 70
1
  0
APPID
  5
239
100
AcDbSymbolTableRecord
100
AcDbRegAppTableRecord
  2
ACAD
 70
0
  0
ENDTAB
  0
TABLE
  2
BLOCK_RECORD
  5
1
100
AcDbSymbolTable
 70
0
  0
BLOCK_RECORD
  5
1F
100
AcDbSymbolTableRecord
100
AcDbBlockTableRecord
  2
*MODEL_SPACE
  0
BLOCK_RECORD
  5
1B
100
AcDbSymbolTableRecord
100
AcDbBlockTableRecord
  2
*PAPER_SPACE
  0
ENDTAB
  0
TABLE
  2
DIMSTYLE
  5
A
100
AcDbSymbolTable
 70
1
100
AcDbDimStyleTable
 71
0
  0
DIMSTYLE
105
23A
100
AcDbSymbolTableRecord
100
AcDbDimStyleTableRecord
  2
STANDARD
 70
0
  3

  4

 40
1.0
 41
0.1875
 42
0.0625
 43
0.38
 44
0.18
 45
0.0
 46
0.0
 47
0.01
 48
0.01
140
0.15625
141
0.09
142
0.0
143
25.4
144
1.0
145
0.0
146
1.0
147
0.09
 71
0.0
 72
0.0
 73
1
 74
1
 75
0
 76
0
 77
0
 78
4
170
0
171
2
172
0
173
0
174
0
175
0
176
0
177
0
178
0
270
2
271
2
272
2
273
2
274
2
275
0
280
0
281
0
282
0
283
1
284
4
285
0
286
0
287
3
288
0
340
11
  0
ENDTAB
  0
ENDSEC
  0
SECTION
  2
BLOCKS
  0
BLOCK
  5
20
100
AcDbEntity
  8
0
100
AcDbBlockBegin
  2
*MODEL_SPACE
 70
0
 10
0.0
 20
0.0
 30
0.0
  3
*MODEL_SPACE
  1

  0
ENDBLK
  5
21
100
AcDbEntity
  8
0
100
AcDbBlockEnd
  0
BLOCK
  5
1C
100
AcDbEntity
  8
0
100
AcDbBlockBegin
  2
*PAPER_SPACE
 70
0
 10
0.0
 20
0.0
 30
0.0
  3
*PAPER_SPACE
  1

  0
ENDBLK
  5
1D
100
AcDbEntity
  8
0
100
AcDbBlockEnd
  0
ENDSEC
  0
SECTION
  2
ENTITIES
  0
LINE
  5
23B
100
AcDbEntity
  8
03__ASM_ALL_CURVES
100
AcDbLine
 62
40
  6
CONTINUOUS
 10
1.3900895908
 20
5.8091048701
 11
1.3900895908
 21
5.6418923701
  0
LINE
  5
23C
100
AcDbEntity
  8
03__ASM_ALL_CURVES
100
AcDbLine
 62
40
  6
CONTINUOUS
 10
1.5468513095
 20
5.6418923701
 11
1.5468513095
 21
5.6558267455
  0
LINE
  5
23D
100
AcDbEntity
  8
0
100
AcDbLine
 62
7
  6
CONTINUOUS
 10
1.6326520908
 20
3.4586393701
 11
1.6326520908
 21
5.0726393701
  0
LINE
  5
23E
100
AcDbEntity
  8
03__ASM_ALL_CURVES
100
AcDbLine
 62
40
  6
CONTINUOUS
 10
1.6326520908
 20
5.0726393701
 11
1.6326520908
 21
5.6418923701
  0
LINE
  5
23F
100
AcDbEntity
  8
0
100
AcDbLine
 62
7
  6
CONTINUOUS
 10
1.699624722
 20
3.3426393701
 11
1.699624722
 21
3.3430347115
  0
LINE
  5
240
100
AcDbEntity
  8
0
100
AcDbLine
 62
7
  6
CONTINUOUS
 10
1.699624722
 20
3.7809440286
 11
1.699624722
 21
3.827730053
  0
LINE
  5
241
100
AcDbEntity
  8
0
100
AcDbLine
 62
7
  6
CONTINUOUS
 10
1.699624722
 20
4.7035486872
 11
1.699624722
 21
4.7503347115
  0
LINE
  5
242
100
AcDbEntity
  8
0
100
AcDbLine
 62
7
  6
CONTINUOUS
 10
1.699624722
 20
5.1882440286
 11
1.699624722
 21
5.1886393701
  0
LINE
  5
243
100
AcDbEntity
  8
03__ASM_ALL_CURVES
100
AcDbLine
 62
40
  6
CONTINUOUS
 10
1.7245145908
 20
5.8091048701
 11
1.7245145908
 21
5.6418923701
  0
LINE
  5
244
100
AcDbEntity
  8
03__ASM_ALL_CURVES
100
AcDbLine
 62
40
  6
CONTINUOUS
 10
2.0484888095
 20
5.7812361168
 11
2.0380380283
 21
5.7394329918
  0
LINE
  5
245
100
AcDbEntity
  8
0
100
AcDbLine
 62
7
  6
CONTINUOUS
 10
1.699624722
 20
5.1886393701
 11
1.6326520908
 21
5.0726393701
  0
LINE
  5
246
100
AcDbEntity
  8
03__ASM_ALL_CURVES
100
AcDbLine
 62
40
  6
CONTINUOUS
 10
1.8499239658
 20
5.7812361168
 11
1.860374747
 21
5.7951704984
  0
LINE
  5
247
100
AcDbEntity
  8
03__ASM_ALL_CURVES
100
AcDbLine
 62
40
  6
CONTINUOUS
 10
1.8394731845
 20
5.6976298718
 11
1.860374747
 21
5.7254986201
  0
LINE
  5
248
100
AcDbEntity
  8
0
100
AcDbLine
 62
7
  6
CONTINUOUS
 10
1.699624722
 20
3.3426393701
 11
1.6326520908
 21
3.4586393701
  0
LINE
  5
249
100
AcDbEntity
  8
03__ASM_ALL_CURVES
100
AcDbLine
 62
40
  6
CONTINUOUS
 10
1.8333070908
 20
5.6084498701
 11
1.8333070908
 21
5.5415648701
  0
LINE
  5
24A
100
AcDbEntity
  8
03__ASM_ALL_CURVES
100
AcDbLine
 62
40
  6
CONTINUOUS
 10
1.8394731845
 20
5.6836954951
 11
1.8394731845
 21
5.6976298718
  0
LINE
  5
24B
100
AcDbEntity
  8
03__ASM_ALL_CURVES
100
AcDbLine
 62
40
  6
CONTINUOUS
 10
1.8499239658
 20
5.7673017451
 11
1.8499239658
 21
5.7812361168
  0
LINE
  5
24C
100
AcDbEntity
  8
03__ASM_ALL_CURVES
100
AcDbLine
 62
40
  6
CONTINUOUS
 10
1.9335302158
 20
5.7812361168
 11
1.9335302158
 21
5.7673017451
  0
LINE
  5
24D
100
AcDbEntity
  8
03__ASM_ALL_CURVES
100
AcDbLine
 62
40
  6
CONTINUOUS
 10
1.943980997
 20
5.6976298718
 11
1.943980997
 21
5.6836954951
  0
LINE
  5
24E
100
AcDbEntity
  8
03__ASM_ALL_CURVES
100
AcDbLine
 62
40
  6
CONTINUOUS
 10
2.0380380283
 20
5.7394329918
 11
2.0380380283
 21
5.7115642434
  0
LINE
  5
24F
100
AcDbEntity
  8
03__ASM_ALL_CURVES
100
AcDbLine
 62
40
  6
CONTINUOUS
 10
2.194799747
 20
5.6836954951
 11
2.1843489658
 21
5.6418923701
  0
LINE
  5
250
100
AcDbEntity
  8
03__ASM_ALL_CURVES
100
AcDbLine
 62
40
  6
CONTINUOUS
 10
2.3515614658
 20
5.7533673734
 11
2.362012247
 21
5.7812361168
  0
LINE
  5
251
100
AcDbEntity
  8
03__ASM_ALL_CURVES
100
AcDbLine
 62
40
  6
CONTINUOUS
 10
1.9335302158
 20
5.7673017451
 11
1.9230794345
 21
5.7533673734
  0
LINE
  5
252
100
AcDbEntity
  8
03__ASM_ALL_CURVES
100
AcDbLine
 62
40
  6
CONTINUOUS
 10
1.943980997
 20
5.6836954951
 11
1.9230794345
 21
5.6558267455
  0
LINE
  5
253
100
AcDbEntity
  8
03__ASM_ALL_CURVES
100
AcDbLine
 62
40
  6
CONTINUOUS
 10
2.069390372
 20
5.8091048701
 11
2.0484888095
 21
5.7812361168
  0
LINE
  5
254
100
AcDbEntity
  8
03__ASM_ALL_CURVES
100
AcDbLine
 62
40
  6
CONTINUOUS
 10
2.1843489658
 20
5.7812361168
 11
2.194799747
 21
5.7951704984
  0
LINE
  5
255
100
AcDbEntity
  8
03__ASM_ALL_CURVES
100
AcDbLine
 62
40
  6
CONTINUOUS
 10
2.2157013095
 20
5.7115642434
 11
2.194799747
 21
5.6836954951
  0
LINE
  5
256
100
AcDbEntity
  8
03__ASM_ALL_CURVES
100
AcDbLine
 62
40
  6
CONTINUOUS
 10
2.2679552158
 20
5.7533673734
 11
2.2575044345
 21
5.7394329918
  0
LINE
  5
257
100
AcDbEntity
  8
03__ASM_ALL_CURVES
100
AcDbLine
 62
40
  6
CONTINUOUS
 10
2.2679552158
 20
5.7812361168
 11
2.2679552158
 21
5.7533673734
  0
LINE
  5
258
100
AcDbEntity
  8
03__ASM_ALL_CURVES
100
AcDbLine
 62
40
  6
CONTINUOUS
 10
2.4351677158
 20
5.7533673734
 11
2.4247169345
 21
5.7254986201
  0
LINE
  5
259
100
AcDbEntity
  8
03__ASM_ALL_CURVES
100
AcDbLine
 62
40
  6
CONTINUOUS
 10
2.4351677158
 20
5.6976298718
 11
2.4247169345
 21
5.6697611209
  0
LINE
  5
25A
100
AcDbEntity
  8
03__ASM_ALL_CURVES
100
AcDbLine
 62
40
  6
CONTINUOUS
 10
2.6859864658
 20
5.7533673734
 11
2.696437247
 21
5.7812361168
  0
LINE
  5
25B
100
AcDbEntity
  8
03__ASM_ALL_CURVES
100
AcDbLine
 62
40
  6
CONTINUOUS
 10
2.362012247
 20
5.7812361168
 11
2.3724630283
 21
5.7951704984
  0
LINE
  5
25C
100
AcDbEntity
  8
03__ASM_ALL_CURVES
100
AcDbLine
 62
40
  6
CONTINUOUS
 10
2.4247169345
 20
5.6697611209
 11
2.4142661533
 21
5.6558267455
  0
LINE
  5
25D
100
AcDbEntity
  8
03__ASM_ALL_CURVES
100
AcDbLine
 62
40
  6
CONTINUOUS
 10
2.696437247
 20
5.7812361168
 11
2.7068880283
 21
5.7951704984
  0
LINE
  5
25E
100
AcDbEntity
  8
03__ASM_ALL_CURVES
100
AcDbLine
 62
40
  6
CONTINUOUS
 10
1.860374747
 20
5.7951704984
 11
1.8812763095
 21
5.8091048701
  0
LINE
  5
25F
100
AcDbEntity
  8
03__ASM_ALL_CURVES
100
AcDbLine
 62
40
  6
CONTINUOUS
 10
1.860374747
 20
5.7254986201
 11
1.8812763095
 21
5.7394329918
  0
LINE
  5
260
100
AcDbEntity
  8
03__ASM_ALL_CURVES
100
AcDbLine
 62
40
  6
CONTINUOUS
 10
2.4351677158
 20
5.7533673734
 11
2.4351677158
 21
5.6976298718
  0
LINE
  5
261
100
AcDbEntity
  8
03__ASM_ALL_CURVES
100
AcDbLine
 62
40
  6
CONTINUOUS
 10
2.5501263095
 20
5.6418923701
 11
2.5501263095
 21
5.6558267455
  0
LINE
  5
262
100
AcDbEntity
  8
0
100
AcDbLine
 62
7
  6
CONTINUOUS
 10
2.5701642871
 20
3.3426393701
 11
2.5701642871
 21
5.1886393701
  0
LINE
  5
263
100
AcDbEntity
  8
03__ASM_ALL_CURVES
100
AcDbLine
 62
40
  6
CONTINUOUS
 10
2.6189970908
 20
5.6084498701
 11
2.6189970908
 21
5.5415648701
  0
LINE
  5
264
100
AcDbEntity
  8
0
100
AcDbLine
 62
7
  6
CONTINUOUS
 10
2.6316520908
 20
3.2361393701
 11
2.6316520908
 21
5.2951393701
  0
LINE
  5
265
100
AcDbEntity
  8
03__ASM_ALL_CURVES
100
AcDbLine
 62
40
  6
CONTINUOUS
 10
2.8950020908
 20
5.6418923701
 11
2.905452872
 21
5.7115642434
  0
LINE
  5
266
100
AcDbEntity
  8
03__ASM_ALL_CURVES
100
AcDbLine
 62
40
  6
CONTINUOUS
 10
2.905452872
 20
5.7115642434
 11
2.9159036533
 21
5.7533673734
  0
LINE
  5
267
100
AcDbEntity
  8
03__ASM_ALL_CURVES
100
AcDbLine
 62
40
  6
CONTINUOUS
 10
2.7695927158
 20
5.7533673734
 11
2.7591419345
 21
5.7254986201
  0
LINE
  5
268
100
AcDbEntity
  8
03__ASM_ALL_CURVES
100
AcDbLine
 62
40
  6
CONTINUOUS
 10
2.7695927158
 20
5.6976298718
 11
2.7591419345
 21
5.6697611209
  0
LINE
  5
269
100
AcDbEntity
  8
03__ASM_ALL_CURVES
100
AcDbLine
 62
40
  6
CONTINUOUS
 10
2.9159036533
 20
5.7533673734
 11
2.9368052158
 21
5.8091048701
  0
LINE
  5
26A
100
AcDbEntity
  8
0
100
AcDbLine
 62
7
  6
CONTINUOUS
 10
2.6316520908
 20
5.2951393701
 11
2.5701642871
 21
5.1886393701
  0
LINE
  5
26B
100
AcDbEntity
  8
03__ASM_ALL_CURVES
100
AcDbLine
 62
40
  6
CONTINUOUS
 10
2.7591419345
 20
5.6697611209
 11
2.7486911533
 21
5.6558267455
  0
LINE
  5
26C
100
AcDbEntity
  8
03__ASM_ALL_CURVES
100
AcDbLine
 62
40
  6
CONTINUOUS
 10
1.9230794345
 20
5.7533673734
 11
1.902177872
 21
5.7394329918
  0
LINE
  5
26D
100
AcDbEntity
  8
03__ASM_ALL_CURVES
100
AcDbLine
 62
40
  6
CONTINUOUS
 10
1.9230794345
 20
5.6558267455
 11
1.902177872
 21
5.6418923701
  0
LINE
  5
26E
100
AcDbEntity
  8
03__ASM_ALL_CURVES
100
AcDbLine
 62
40
  6
CONTINUOUS
 10
2.194799747
 20
5.7951704984
 11
2.2157013095
 21
5.8091048701
  0
LINE
  5
26F
100
AcDbEntity
  8
03__ASM_ALL_CURVES
100
AcDbLine
 62
40
  6
CONTINUOUS
 10
2.2575044345
 20
5.7394329918
 11
2.2157013095
 21
5.7115642434
  0
LINE
  5
270
100
AcDbEntity
  8
03__ASM_ALL_CURVES
100
AcDbLine
 62
40
  6
CONTINUOUS
 10
2.3724630283
 20
5.7951704984
 11
2.3933645908
 21
5.8091048701
  0
LINE
  5
271
100
AcDbEntity
  8
0
100
AcDbLine
 62
7
  6
CONTINUOUS
 10
2.6316520908
 20
3.2361393701
 11
2.5701642871
 21
3.3426393701
  0
LINE
  5
272
100
AcDbEntity
  8
03__ASM_ALL_CURVES
100
AcDbLine
 62
40
  6
CONTINUOUS
 10
2.0380380283
 20
5.7115642434
 11
2.0484888095
 21
5.6697611209
  0
LINE
  5
273
100
AcDbEntity
  8
03__ASM_ALL_CURVES
100
AcDbLine
 62
40
  6
CONTINUOUS
 10
2.7695927158
 20
5.7533673734
 11
2.7695927158
 21
5.6976298718
  0
LINE
  5
274
100
AcDbEntity
  8
0
100
AcDbLine
 62
7
  6
CONTINUOUS
 10
2.8196520908
 20
3.2361393701
 11
2.8196520908
 21
5.2951393701
  0
LINE
  5
275
100
AcDbEntity
  8
03__ASM_ALL_CURVES
100
AcDbLine
 62
40
  6
CONTINUOUS
 10
2.8196520908
 20
5.3285818701
 11
2.8196520908
 21
5.6418923701
  0
LINE
  5
276
100
AcDbEntity
  8
THREAD
100
AcDbLine
 62
7
  6
CONTINUOUS
 10
2.8666520908
 20
3.3121393701
 11
2.8666520908
 21
5.2191393701
  0
LINE
  5
277
100
AcDbEntity
  8
0
100
AcDbLine
 62
7
  6
CONTINUOUS
 10
2.9696520908
 20
3.3116393701
 11
2.9696520908
 21
5.2196393701
  0
LINE
  5
278
100
AcDbEntity
  8
0
100
AcDbLine
 62
7
  6
CONTINUOUS
 10
3.0196520908
 20
3.3116393701
 11
3.0196520908
 21
5.2196393701
  0
LINE
  5
279
100
AcDbEntity
  8
03__ASM_ALL_CURVES
100
AcDbLine
 62
40
  6
CONTINUOUS
 10
3.0203070908
 20
5.6084498701
 11
3.0203070908
 21
5.5415648701
  0
LINE
  5
27A
100
AcDbEntity
  8
0
100
AcDbLine
 62
7
  6
CONTINUOUS
 10
3.0406520908
 20
3.3761393701
 11
3.0406520908
 21
5.1551393701
  0
LINE
  5
27B
100
AcDbEntity
  8
03__ASM_ALL_CURVES
100
AcDbLine
 62
40
  6
CONTINUOUS
 10
3.0831161533
 20
5.7115642434
 11
3.072665372
 21
5.6697611209
  0
LINE
  5
27C
100
AcDbEntity
  8
03__ASM_ALL_CURVES
100
AcDbLine
 62
40
  6
CONTINUOUS
 10
3.233503028
 20
5.7254986201
 11
3.2439538092
 21
5.7673017451
  0
LINE
  5
27D
100
AcDbEntity
  8
THREAD
100
AcDbLine
 62
7
  6
CONTINUOUS
 10
3.0706743048
 20
5.2071393701
 11
3.0406520908
 21
5.1551393701
  0
LINE
  5
27E
100
AcDbEntity
  8
03__ASM_ALL_CURVES
100
AcDbLine
 62
40
  6
CONTINUOUS
 10
3.072665372
 20
5.6697611209
 11
3.0517638095
 21
5.6418923701
  0
LINE
  5
27F
100
AcDbEntity
  8
03__ASM_ALL_CURVES
100
AcDbLine
 62
40
  6
CONTINUOUS
 10
3.2439538092
 20
5.7673017451
 11
3.2648553717
 21
5.7951704984
  0
LINE
  5
280
100
AcDbEntity
  8
03__ASM_ALL_CURVES
100
AcDbLine
 62
40
  6
CONTINUOUS
 10
3.3484616217
 20
5.6836954951
 11
3.3275600592
 21
5.6558267455
  0
LINE
  5
281
100
AcDbEntity
  8
03__ASM_ALL_CURVES
100
AcDbLine
 62
40
  6
CONTINUOUS
 10
3.4111663092
 20
5.7673017451
 11
3.4320678717
 21
5.7951704984
  0
LINE
  5
282
100
AcDbEntity
  8
03__ASM_ALL_CURVES
100
AcDbLine
 62
40
  6
CONTINUOUS
 10
2.4142661533
 20
5.6558267455
 11
2.3933645908
 21
5.6418923701
  0
LINE
  5
283
100
AcDbEntity
  8
03__ASM_ALL_CURVES
100
AcDbLine
 62
40
  6
CONTINUOUS
 10
2.7068880283
 20
5.7951704984
 11
2.7277895908
 21
5.8091048701
  0
LINE
  5
284
100
AcDbEntity
  8
03__ASM_ALL_CURVES
100
AcDbLine
 62
40
  6
CONTINUOUS
 10
2.7486911533
 20
5.6558267455
 11
2.7277895908
 21
5.6418923701
  0
LINE
  5
285
100
AcDbEntity
  8
THREAD
100
AcDbLine
 62
7
  6
CONTINUOUS
 10
3.0706743048
 20
3.3241393701
 11
3.0406520908
 21
3.3761393701
  0
LINE
  5
286
100
AcDbEntity
  8
THREAD
100
AcDbLine
 62
7
  6
CONTINUOUS
 10
3.0706743048
 20
3.3241393701
 11
3.0706743048
 21
5.2071393701
  0
LINE
  5
287
100
AcDbEntity
  8
03__ASM_ALL_CURVES
100
AcDbLine
 62
40
  6
CONTINUOUS
 10
3.0831161533
 20
5.7394329918
 11
3.0831161533
 21
5.7115642434
  0
LINE
  5
288
100
AcDbEntity
  8
03__ASM_ALL_CURVES
100
AcDbLine
 62
40
  6
CONTINUOUS
 10
3.0871920905
 20
5.8091048701
 11
3.0871920905
 21
5.6418923701
  0
LINE
  5
289
100
AcDbEntity
  8
03__ASM_ALL_CURVES
100
AcDbLine
 62
40
  6
CONTINUOUS
 10
3.358912403
 20
5.7254986201
 11
3.3484616217
 21
5.6836954951
  0
LINE
  5
28A
100
AcDbEntity
  8
03__ASM_ALL_CURVES
100
AcDbLine
 62
40
  6
CONTINUOUS
 10
3.400715528
 20
5.7254986201
 11
3.4111663092
 21
5.7673017451
  0
LINE
  5
28B
100
AcDbEntity
  8
03__ASM_ALL_CURVES
100
AcDbLine
 62
40
  6
CONTINUOUS
 10
3.5783788092
 20
5.6418923701
 11
3.6306327155
 21
5.8091048701
  0
LINE
  5
28C
100
AcDbEntity
  8
03__ASM_ALL_CURVES
100
AcDbLine
 62
40
  6
CONTINUOUS
 10
3.5052233405
 20
5.6697611209
 11
3.4947725592
 21
5.6558267455
  0
LINE
  5
28D
100
AcDbEntity
  8
03__ASM_ALL_CURVES
100
AcDbLine
 62
40
  6
CONTINUOUS
 10
3.2648553717
 20
5.7951704984
 11
3.2857569342
 21
5.8091048701
  0
LINE
  5
28E
100
AcDbEntity
  8
03__ASM_ALL_CURVES
100
AcDbLine
 62
40
  6
CONTINUOUS
 10
3.4320678717
 20
5.7951704984
 11
3.4529694342
 21
5.8091048701
  0
LINE
  5
28F
100
AcDbEntity
  8
03__ASM_ALL_CURVES
100
AcDbLine
 62
40
  6
CONTINUOUS
 10
3.3275600592
 20
5.6558267455
 11
3.3066584967
 21
5.6418923701
  0
LINE
  5
290
100
AcDbEntity
  8
03__ASM_ALL_CURVES
100
AcDbLine
 62
40
  6
CONTINUOUS
 10
2.4247169345
 20
5.7254986201
 11
2.3933645908
 21
5.7115642434
  0
LINE
  5
291
100
AcDbEntity
  8
03__ASM_ALL_CURVES
100
AcDbLine
 62
40
  6
CONTINUOUS
 10
2.7591419345
 20
5.7254986201
 11
2.7277895908
 21
5.7115642434
  0
LINE
  5
292
100
AcDbEntity
  8
03__ASM_ALL_CURVES
100
AcDbLine
 62
40
  6
CONTINUOUS
 10
1.5468513095
 20
5.6558267455
 11
1.5573020908
 21
5.6418923701
  0
LINE
  5
293
100
AcDbEntity
  8
03__ASM_ALL_CURVES
100
AcDbLine
 62
40
  6
CONTINUOUS
 10
2.362012247
 20
5.7254986201
 11
2.3515614658
 21
5.7533673734
  0
LINE
  5
294
100
AcDbEntity
  8
03__ASM_ALL_CURVES
100
AcDbLine
 62
40
  6
CONTINUOUS
 10
2.4247169345
 20
5.7812361168
 11
2.4351677158
 21
5.7533673734
  0
LINE
  5
295
100
AcDbEntity
  8
THREAD
100
AcDbLine
 62
7
  6
CONTINUOUS
 10
3.5401520908
 20
3.3241393701
 11
3.5401520908
 21
5.2071393701
  0
LINE
  5
296
100
AcDbEntity
  8
THREAD
100
AcDbLine
 62
7
  6
CONTINUOUS
 10
3.6376520908
 20
3.4216393701
 11
3.6376520908
 21
5.1096393701
  0
LINE
  5
297
100
AcDbEntity
  8
03__ASM_ALL_CURVES
100
AcDbLine
 62
40
  6
CONTINUOUS
 10
3.4947725592
 20
5.6558267455
 11
3.4738709967
 21
5.6418923701
  0
LINE
  5
298
100
AcDbEntity
  8
03__ASM_ALL_CURVES
100
AcDbLine
 62
40
  6
CONTINUOUS
 10
4.2324856465
 20
2.7652299951
 11
4.2168094746
 21
2.7756807767
  0
LINE
  5
299
100
AcDbEntity
  8
03__ASM_ALL_CURVES
100
AcDbLine
 62
40
  6
CONTINUOUS
 10
1.860374747
 20
5.6558267455
 11
1.8394731845
 21
5.6836954951
  0
LINE
  5
29A
100
AcDbEntity
  8
03__ASM_ALL_CURVES
100
AcDbLine
 62
40
  6
CONTINUOUS
 10
1.860374747
 20
5.7533673734
 11
1.8499239658
 21
5.7673017451
  0
LINE
  5
29B
100
AcDbEntity
  8
03__ASM_ALL_CURVES
100
AcDbLine
 62
40
  6
CONTINUOUS
 10
1.9230794345
 20
5.7254986201
 11
1.943980997
 21
5.6976298718
  0
LINE
  5
29C
100
AcDbEntity
  8
03__ASM_ALL_CURVES
100
AcDbLine
 62
40
  6
CONTINUOUS
 10
1.9230794345
 20
5.7951704984
 11
1.9335302158
 21
5.7812361168
  0
LINE
  5
29D
100
AcDbEntity
  8
03__ASM_ALL_CURVES
100
AcDbLine
 62
40
  6
CONTINUOUS
 10
4.1384286152
 20
2.8801885913
 11
4.1462667011
 21
2.8697378051
  0
LINE
  5
29E
100
AcDbEntity
  8
03__ASM_ALL_CURVES
100
AcDbLine
 62
40
  6
CONTINUOUS
 10
4.2168094746
 20
2.7756807767
 11
4.2011333027
 21
2.7965823388
  0
LINE
  5
29F
100
AcDbEntity
  8
03__ASM_ALL_CURVES
100
AcDbLine
 62
40
  6
CONTINUOUS
 10
2.0484888095
 20
5.6697611209
 11
2.069390372
 21
5.6418923701
  0
LINE
  5
2A0
100
AcDbEntity
  8
03__ASM_ALL_CURVES
100
AcDbLine
 62
40
  6
CONTINUOUS
 10
2.696437247
 20
5.7254986201
 11
2.6859864658
 21
5.7533673734
  0
LINE
  5
2A1
100
AcDbEntity
  8
03__ASM_ALL_CURVES
100
AcDbLine
 62
40
  6
CONTINUOUS
 10
2.7591419345
 20
5.7812361168
 11
2.7695927158
 21
5.7533673734
  0
LINE
  5
2A2
100
AcDbEntity
  8
03__ASM_ALL_CURVES
100
AcDbLine
 62
40
  6
CONTINUOUS
 10
3.072665372
 20
5.7812361168
 11
3.0831161533
 21
5.7394329918
  0
LINE
  5
2A3
100
AcDbEntity
  8
03__ASM_ALL_CURVES
100
AcDbLine
 62
40
  6
CONTINUOUS
 10
3.2439538092
 20
5.6836954951
 11
3.233503028
 21
5.7254986201
  0
LINE
  5
2A4
100
AcDbEntity
  8
03__ASM_ALL_CURVES
100
AcDbLine
 62
40
  6
CONTINUOUS
 10
3.7978452155
 20
5.8091048701
 11
3.7978452155
 21
5.6418923701
  0
LINE
  5
2A5
100
AcDbEntity
  8
0
100
AcDbLine
 62
7
  6
CONTINUOUS
 10
3.8686520908
 20
3.4216393701
 11
3.8686520908
 21
5.1096393701
  0
LINE
  5
2A6
100
AcDbEntity
  8
0
100
AcDbLine
 62
7
  6
CONTINUOUS
 10
3.8816520908
 20
3.4346393701
 11
3.8816520908
 21
5.0966393701
  0
LINE
  5
2A7
100
AcDbEntity
  8
03__ASM_ALL_CURVES
100
AcDbLine
 62
40
  6
CONTINUOUS
 10
3.9650577155
 20
5.8091048701
 11
3.9650577155
 21
5.6418923701
  0
LINE
  5
2A8
100
AcDbEntity
  8
03__ASM_ALL_CURVES
100
AcDbLine
 62
40
  6
CONTINUOUS
 10
4.236778028
 20
5.7254986201
 11
4.2472288092
 21
5.7673017451
  0
LINE
  5
2A9
100
AcDbEntity
  8
03__ASM_ALL_CURVES
100
AcDbLine
 62
40
  6
CONTINUOUS
 10
4.2472288092
 20
5.7673017451
 11
4.2681303717
 21
5.7951704984
  0
LINE
  5
2AA
100
AcDbEntity
  8
03__ASM_ALL_CURVES
100
AcDbLine
 62
40
  6
CONTINUOUS
 10
4.3412858405
 20
5.6697611209
 11
4.3308350592
 21
5.6558267455
  0
LINE
  5
2AB
100
AcDbEntity
  8
03__ASM_ALL_CURVES
100
AcDbLine
 62
40
  6
CONTINUOUS
 10
4.6025553717
 20
5.7951704984
 11
4.5921045905
 21
5.7812361168
  0
LINE
  5
2AC
100
AcDbEntity
  8
03__ASM_ALL_CURVES
100
AcDbLine
 62
40
  6
CONTINUOUS
 10
4.2681303717
 20
5.7951704984
 11
4.2890319342
 21
5.8091048701
  0
LINE
  5
2AD
100
AcDbEntity
  8
03__ASM_ALL_CURVES
100
AcDbLine
 62
40
  6
CONTINUOUS
 10
4.3308350592
 20
5.6558267455
 11
4.3099334967
 21
5.6418923701
  0
LINE
  5
2AE
100
AcDbEntity
  8
03__ASM_ALL_CURVES
100
AcDbLine
 62
40
  6
CONTINUOUS
 10
4.6234569342
 20
5.8091048701
 11
4.6025553717
 21
5.7951704984
  0
LINE
  5
2AF
100
AcDbEntity
  8
03__ASM_ALL_CURVES
100
AcDbLine
 62
40
  6
CONTINUOUS
 10
4.1227524433
 20
2.8906393701
 11
4.1384286152
 21
2.8801885913
  0
LINE
  5
2B0
100
AcDbEntity
  8
03__ASM_ALL_CURVES
100
AcDbLine
 62
40
  6
CONTINUOUS
 10
4.2481618183
 20
2.8906393701
 11
4.2638379902
 21
2.8801885913
  0
LINE
  5
2B1
100
AcDbEntity
  8
03__ASM_ALL_CURVES
100
AcDbLine
 62
40
  6
CONTINUOUS
 10
4.3735711933
 20
2.8906393701
 11
4.3892473652
 21
2.8801885913
  0
LINE
  5
2B2
100
AcDbEntity
  8
03__ASM_ALL_CURVES
100
AcDbLine
 62
40
  6
CONTINUOUS
 10
4.2638379902
 20
2.8801885913
 11
4.2795141621
 21
2.8592870263
  0
LINE
  5
2B3
100
AcDbEntity
  8
03__ASM_ALL_CURVES
100
AcDbLine
 62
40
  6
CONTINUOUS
 10
4.3892473652
 20
2.8801885913
 11
4.3970854511
 21
2.8697378051
  0
LINE
  5
2B4
100
AcDbEntity
  8
03__ASM_ALL_CURVES
100
AcDbLine
 62
40
  6
CONTINUOUS
 10
2.2575044345
 20
5.7951704984
 11
2.2679552158
 21
5.7812361168
  0
LINE
  5
2B5
100
AcDbEntity
  8
03__ASM_ALL_CURVES
100
AcDbLine
 62
40
  6
CONTINUOUS
 10
2.3724630283
 20
5.6558267455
 11
2.362012247
 21
5.6697611209
  0
LINE
  5
2B6
100
AcDbEntity
  8
03__ASM_ALL_CURVES
100
AcDbLine
 62
40
  6
CONTINUOUS
 10
4.3735711933
 20
2.8279346826
 11
4.3970854511
 21
2.7652299951
  0
LINE
  5
2B7
100
AcDbEntity
  8
03__ASM_ALL_CURVES
100
AcDbLine
 62
40
  6
CONTINUOUS
 10
3.3484616217
 20
5.7673017451
 11
3.358912403
 21
5.7254986201
  0
LINE
  5
2B8
100
AcDbEntity
  8
03__ASM_ALL_CURVES
100
AcDbLine
 62
40
  6
CONTINUOUS
 10
3.4111663092
 20
5.6836954951
 11
3.400715528
 21
5.7254986201
  0
LINE
  5
2B9
100
AcDbEntity
  8
03__ASM_ALL_CURVES
100
AcDbLine
 62
40
  6
CONTINUOUS
 10
4.2011333027
 20
2.7965823388
 11
4.1932952168
 21
2.8279346826
  0
LINE
  5
2BA
100
AcDbEntity
  8
03__ASM_ALL_CURVES
100
AcDbLine
 62
40
  6
CONTINUOUS
 10
4.0835620136
 20
2.7652299951
 11
4.0835620136
 21
2.8906393701
  0
LINE
  5
2BB
100
AcDbEntity
  8
03__ASM_ALL_CURVES
100
AcDbLine
 62
40
  6
CONTINUOUS
 10
4.0904670905
 20
5.6418923701
 11
4.0904670905
 21
5.8091048701
  0
LINE
  5
2BC
100
AcDbEntity
  8
03__ASM_ALL_CURVES
100
AcDbLine
 62
40
  6
CONTINUOUS
 10
4.1462667011
 20
2.8697378051
 11
4.1462667011
 21
2.8488362476
  0
LINE
  5
2BD
100
AcDbEntity
  8
03__ASM_ALL_CURVES
100
AcDbLine
 62
40
  6
CONTINUOUS
 10
4.1740733405
 20
5.6418923701
 11
4.1740733405
 21
5.8091048701
  0
LINE
  5
2BE
100
AcDbEntity
  8
03__ASM_ALL_CURVES
100
AcDbLine
 62
40
  6
CONTINUOUS
 10
4.6757108405
 20
5.6697611209
 11
4.6652600592
 21
5.6558267455
  0
LINE
  5
2BF
100
AcDbEntity
  8
03__ASM_ALL_CURVES
100
AcDbLine
 62
40
  6
CONTINUOUS
 10
4.9160788092
 20
5.7673017451
 11
4.9369803717
 21
5.7951704984
  0
LINE
  5
2C0
100
AcDbEntity
  8
03__ASM_ALL_CURVES
100
AcDbLine
 62
40
  6
CONTINUOUS
 10
4.6652600592
 20
5.6558267455
 11
4.6443584967
 21
5.6418923701
  0
LINE
  5
2C1
100
AcDbEntity
  8
03__ASM_ALL_CURVES
100
AcDbLine
 62
40
  6
CONTINUOUS
 10
4.9369803717
 20
5.7951704984
 11
4.9578819342
 21
5.8091048701
  0
LINE
  5
2C2
100
AcDbEntity
  8
03__ASM_ALL_CURVES
100
AcDbLine
 62
40
  6
CONTINUOUS
 10
4.9996850592
 20
5.6558267455
 11
4.9787834967
 21
5.6418923701
  0
LINE
  5
2C3
100
AcDbEntity
  8
03__ASM_ALL_CURVES
100
AcDbLine
 62
40
  6
CONTINUOUS
 10
7.3520806449
 20
2.7652299951
 11
7.336404473
 21
2.7652299951
  0
LINE
  5
2C4
100
AcDbEntity
  8
03__ASM_ALL_CURVES
100
AcDbLine
 62
40
  6
CONTINUOUS
 10
5.9843898837
 20
2.7652299951
 11
5.9687137119
 21
2.7652299951
  0
LINE
  5
2C5
100
AcDbEntity
  8
03__ASM_ALL_CURVES
100
AcDbLine
 62
40
  6
CONTINUOUS
 10
5.6081617587
 20
2.7652299951
 11
5.5924855869
 21
2.7652299951
  0
LINE
  5
2C6
100
AcDbEntity
  8
03__ASM_ALL_CURVES
100
AcDbLine
 62
40
  6
CONTINUOUS
 10
4.2481618183
 20
2.7652299951
 11
4.2324856465
 21
2.7652299951
  0
LINE
  5
2C7
100
AcDbEntity
  8
03__ASM_ALL_CURVES
100
AcDbLine
 62
40
  6
CONTINUOUS
 10
7.6891183402
 20
2.7652299951
 11
7.7518230277
 21
2.7652299951
  0
LINE
  5
2C8
100
AcDbEntity
  8
03__ASM_ALL_CURVES
100
AcDbLine
 62
40
  6
CONTINUOUS
 10
2.4142661533
 20
5.7951704984
 11
2.4247169345
 21
5.7812361168
  0
LINE
  5
2C9
100
AcDbEntity
  8
03__ASM_ALL_CURVES
100
AcDbLine
 62
40
  6
CONTINUOUS
 10
2.5501263095
 20
5.6558267455
 11
2.5605770908
 21
5.6418923701
  0
LINE
  5
2CA
100
AcDbEntity
  8
03__ASM_ALL_CURVES
100
AcDbLine
 62
40
  6
CONTINUOUS
 10
2.7068880283
 20
5.6558267455
 11
2.696437247
 21
5.6697611209
  0
LINE
  5
2CB
100
AcDbEntity
  8
03__ASM_ALL_CURVES
100
AcDbLine
 62
40
  6
CONTINUOUS
 10
2.7486911533
 20
5.7951704984
 11
2.7591419345
 21
5.7812361168
  0
LINE
  5
2CC
100
AcDbEntity
  8
03__ASM_ALL_CURVES
100
AcDbLine
 62
40
  6
CONTINUOUS
 10
3.6306327155
 20
5.8091048701
 11
3.6828866217
 21
5.6418923701
  0
LINE
  5
2CD
100
AcDbEntity
  8
03__ASM_ALL_CURVES
100
AcDbLine
 62
40
  6
CONTINUOUS
 10
4.2795141621
 20
2.8592870263
 11
4.287352248
 21
2.8279346826
  0
LINE
  5
2CE
100
AcDbEntity
  8
03__ASM_ALL_CURVES
100
AcDbLine
 62
40
  6
CONTINUOUS
 10
4.3343807636
 20
2.7652299951
 11
4.3343807636
 21
2.8906393701
  0
LINE
  5
2CF
100
AcDbEntity
  8
03__ASM_ALL_CURVES
100
AcDbLine
 62
40
  6
CONTINUOUS
 10
4.3412858405
 20
5.7254986201
 11
4.3412858405
 21
5.6697611209
  0
LINE
  5
2D0
100
AcDbEntity
  8
03__ASM_ALL_CURVES
100
AcDbLine
 62
40
  6
CONTINUOUS
 10
4.3970854511
 20
2.8697378051
 11
4.3970854511
 21
2.8488362476
  0
LINE
  5
2D1
100
AcDbEntity
  8
03__ASM_ALL_CURVES
100
AcDbLine
 62
40
  6
CONTINUOUS
 10
4.4911424824
 20
2.8906393701
 11
4.4911424824
 21
2.7652299951
  0
LINE
  5
2D2
100
AcDbEntity
  8
03__ASM_ALL_CURVES
100
AcDbLine
 62
40
  6
CONTINUOUS
 10
4.5921045905
 20
5.7812361168
 11
4.5921045905
 21
5.7673017451
  0
LINE
  5
2D3
100
AcDbEntity
  8
03__ASM_ALL_CURVES
100
AcDbLine
 62
40
  6
CONTINUOUS
 10
4.905628028
 20
5.7254986201
 11
4.9160788092
 21
5.7673017451
  0
LINE
  5
2D4
100
AcDbEntity
  8
03__ASM_ALL_CURVES
100
AcDbLine
 62
40
  6
CONTINUOUS
 10
4.1932952168
 20
2.8279346826
 11
4.2011333027
 21
2.8592870263
  0
LINE
  5
2D5
100
AcDbEntity
  8
03__ASM_ALL_CURVES
100
AcDbLine
 62
40
  6
CONTINUOUS
 10
5.0205866217
 20
5.6836954951
 11
4.9996850592
 21
5.6558267455
  0
LINE
  5
2D6
100
AcDbEntity
  8
03__ASM_ALL_CURVES
100
AcDbLine
 62
40
  6
CONTINUOUS
 10
5.1773483405
 20
5.6697611209
 11
5.1668975592
 21
5.6558267455
  0
LINE
  5
2D7
100
AcDbEntity
  8
03__ASM_ALL_CURVES
100
AcDbLine
 62
40
  6
CONTINUOUS
 10
5.1668975592
 20
5.6558267455
 11
5.1459959967
 21
5.6418923701
  0
LINE
  5
2D8
100
AcDbEntity
  8
03__ASM_ALL_CURVES
100
AcDbLine
 62
40
  6
CONTINUOUS
 10
5.490871778
 20
5.6558267455
 11
5.4699702155
 21
5.6418923701
  0
LINE
  5
2D9
100
AcDbEntity
  8
03__ASM_ALL_CURVES
100
AcDbLine
 62
40
  6
CONTINUOUS
 10
4.5851995136
 20
2.7965823388
 11
4.6557422871
 21
2.7965823388
  0
LINE
  5
2DA
100
AcDbEntity
  8
03__ASM_ALL_CURVES
100
AcDbLine
 62
40
  6
CONTINUOUS
 10
7.4774900199
 20
2.8279346826
 11
7.4382995902
 21
2.8279346826
  0
LINE
  5
2DB
100
AcDbEntity
  8
03__ASM_ALL_CURVES
100
AcDbLine
 62
40
  6
CONTINUOUS
 10
7.2266712699
 20
2.8279346826
 11
7.1874808402
 21
2.8279346826
  0
LINE
  5
2DC
100
AcDbEntity
  8
03__ASM_ALL_CURVES
100
AcDbLine
 62
40
  6
CONTINUOUS
 10
5.7335711337
 20
2.8279346826
 11
5.694380704
 21
2.8279346826
  0
LINE
  5
2DD
100
AcDbEntity
  8
03__ASM_ALL_CURVES
100
AcDbLine
 62
40
  6
CONTINUOUS
 10
5.4827523837
 20
2.8279346826
 11
5.443561954
 21
2.8279346826
  0
LINE
  5
2DE
100
AcDbEntity
  8
03__ASM_ALL_CURVES
100
AcDbLine
 62
40
  6
CONTINUOUS
 10
4.3735711933
 20
2.8279346826
 11
4.3343807636
 21
2.8279346826
  0
LINE
  5
2DF
100
AcDbEntity
  8
03__ASM_ALL_CURVES
100
AcDbLine
 62
40
  6
CONTINUOUS
 10
4.1227524433
 20
2.8279346826
 11
4.0835620136
 21
2.8279346826
  0
LINE
  5
2E0
100
AcDbEntity
  8
03__ASM_ALL_CURVES
100
AcDbLine
 62
40
  6
CONTINUOUS
 10
5.9687137119
 20
2.8383854614
 11
5.9843898837
 21
2.8383854614
  0
LINE
  5
2E1
100
AcDbEntity
  8
03__ASM_ALL_CURVES
100
AcDbLine
 62
40
  6
CONTINUOUS
 10
4.0835620136
 20
2.8906393701
 11
4.1227524433
 21
2.8906393701
  0
LINE
  5
2E2
100
AcDbEntity
  8
03__ASM_ALL_CURVES
100
AcDbLine
 62
40
  6
CONTINUOUS
 10
4.2324856465
 20
2.8906393701
 11
4.2481618183
 21
2.8906393701
  0
LINE
  5
2E3
100
AcDbEntity
  8
03__ASM_ALL_CURVES
100
AcDbLine
 62
40
  6
CONTINUOUS
 10
4.3343807636
 20
2.8906393701
 11
4.3735711933
 21
2.8906393701
  0
LINE
  5
2E4
100
AcDbEntity
  8
03__ASM_ALL_CURVES
100
AcDbLine
 62
40
  6
CONTINUOUS
 10
4.4519520527
 20
2.8906393701
 11
4.5303329121
 21
2.8906393701
  0
LINE
  5
2E5
100
AcDbEntity
  8
03__ASM_ALL_CURVES
100
AcDbLine
 62
40
  6
CONTINUOUS
 10
5.443561954
 20
2.8906393701
 11
5.4827523837
 21
2.8906393701
  0
LINE
  5
2E6
100
AcDbEntity
  8
03__ASM_ALL_CURVES
100
AcDbLine
 62
40
  6
CONTINUOUS
 10
5.5924855869
 20
2.8906393701
 11
5.6081617587
 21
2.8906393701
  0
LINE
  5
2E7
100
AcDbEntity
  8
03__ASM_ALL_CURVES
100
AcDbLine
 62
40
  6
CONTINUOUS
 10
5.694380704
 20
2.8906393701
 11
5.7335711337
 21
2.8906393701
  0
LINE
  5
2E8
100
AcDbEntity
  8
03__ASM_ALL_CURVES
100
AcDbLine
 62
40
  6
CONTINUOUS
 10
5.8119519931
 20
2.8906393701
 11
5.8903328525
 21
2.8906393701
  0
LINE
  5
2E9
100
AcDbEntity
  8
03__ASM_ALL_CURVES
100
AcDbLine
 62
40
  6
CONTINUOUS
 10
5.9687137119
 20
2.8906393701
 11
5.9843898837
 21
2.8906393701
  0
LINE
  5
2EA
100
AcDbEntity
  8
03__ASM_ALL_CURVES
100
AcDbLine
 62
40
  6
CONTINUOUS
 10
7.1874808402
 20
2.8906393701
 11
7.2266712699
 21
2.8906393701
  0
LINE
  5
2EB
100
AcDbEntity
  8
03__ASM_ALL_CURVES
100
AcDbLine
 62
40
  6
CONTINUOUS
 10
7.336404473
 20
2.8906393701
 11
7.3520806449
 21
2.8906393701
  0
LINE
  5
2EC
100
AcDbEntity
  8
03__ASM_ALL_CURVES
100
AcDbLine
 62
40
  6
CONTINUOUS
 10
7.4382995902
 20
2.8906393701
 11
7.4774900199
 21
2.8906393701
  0
LINE
  5
2ED
100
AcDbEntity
  8
03__ASM_ALL_CURVES
100
AcDbLine
 62
40
  6
CONTINUOUS
 10
7.5558708793
 20
2.8906393701
 11
7.6342517387
 21
2.8906393701
  0
LINE
  5
2EE
100
AcDbEntity
  8
03__ASM_ALL_CURVES
100
AcDbLine
 62
40
  6
CONTINUOUS
 10
7.712632598
 20
2.8906393701
 11
7.7283087699
 21
2.8906393701
  0
LINE
  5
2EF
100
AcDbEntity
  8
03__ASM_ALL_CURVES
100
AcDbLine
 62
40
  6
CONTINUOUS
 10
5.5924855869
 20
2.7652299951
 11
5.576809415
 21
2.7756807767
  0
LINE
  5
2F0
100
AcDbEntity
  8
03__ASM_ALL_CURVES
100
AcDbLine
 62
40
  6
CONTINUOUS
 10
5.4827523837
 20
2.8906393701
 11
5.4984285556
 21
2.8801885913
  0
LINE
  5
2F1
100
AcDbEntity
  8
03__ASM_ALL_CURVES
100
AcDbLine
 62
40
  6
CONTINUOUS
 10
5.6081617587
 20
2.8906393701
 11
5.6238379306
 21
2.8801885913
  0
LINE
  5
2F2
100
AcDbEntity
  8
03__ASM_ALL_CURVES
100
AcDbLine
 62
40
  6
CONTINUOUS
 10
3.0517638095
 20
5.8091048701
 11
3.072665372
 21
5.7812361168
  0
LINE
  5
2F3
100
AcDbEntity
  8
03__ASM_ALL_CURVES
100
AcDbLine
 62
40
  6
CONTINUOUS
 10
3.2648553717
 20
5.6558267455
 11
3.2439538092
 21
5.6836954951
  0
LINE
  5
2F4
100
AcDbEntity
  8
03__ASM_ALL_CURVES
100
AcDbLine
 62
40
  6
CONTINUOUS
 10
4.6400661152
 20
2.7652299951
 11
4.6400661152
 21
2.8906393701
  0
LINE
  5
2F5
100
AcDbEntity
  8
03__ASM_ALL_CURVES
100
AcDbLine
 62
40
  6
CONTINUOUS
 10
4.6757108405
 20
5.6976298718
 11
4.6757108405
 21
5.6697611209
  0
LINE
  5
2F6
100
AcDbEntity
  8
03__ASM_ALL_CURVES
100
AcDbLine
 62
40
  6
CONTINUOUS
 10
4.7593170905
 20
5.8091048701
 11
4.7593170905
 21
5.6418923701
  0
LINE
  5
2F7
100
AcDbEntity
  8
0
100
AcDbLine
 62
7
  6
CONTINUOUS
 10
4.7726520908
 20
3.5481393701
 11
4.7726520908
 21
4.9831393701
  0
LINE
  5
2F8
100
AcDbEntity
  8
03__ASM_ALL_CURVES
100
AcDbLine
 62
40
  6
CONTINUOUS
 10
4.8429233405
 20
5.8091048701
 11
4.8429233405
 21
5.6418923701
  0
LINE
  5
2F9
100
AcDbEntity
  8
0
100
AcDbLine
 62
7
  6
CONTINUOUS
 10
4.8666520908
 20
5.1471239627
 11
4.8666520908
 21
3.3841547775
  0
LINE
  5
2FA
100
AcDbEntity
  8
03__ASM_ALL_CURVES
100
AcDbLine
 62
40
  6
CONTINUOUS
 10
4.287352248
 20
2.8279346826
 11
4.2795141621
 21
2.7965823388
  0
LINE
  5
2FB
100
AcDbEntity
  8
03__ASM_ALL_CURVES
100
AcDbLine
 62
40
  6
CONTINUOUS
 10
5.031037403
 20
5.7254986201
 11
5.0205866217
 21
5.6836954951
  0
LINE
  5
2FC
100
AcDbEntity
  8
03__ASM_ALL_CURVES
100
AcDbLine
 62
40
  6
CONTINUOUS
 10
5.5117733405
 20
5.6836954951
 11
5.490871778
 21
5.6558267455
  0
LINE
  5
2FD
100
AcDbEntity
  8
THREAD
100
AcDbLine
 62
7
  6
CONTINUOUS
 10
3.6376520908
 20
3.4216393701
 11
3.5401520908
 21
3.3241393701
  0
LINE
  5
2FE
100
AcDbEntity
  8
03__ASM_ALL_CURVES
100
AcDbLine
 62
40
  6
CONTINUOUS
 10
5.8357475592
 20
5.7394329918
 11
5.8148459967
 21
5.7254986201
  0
LINE
  5
2FF
100
AcDbEntity
  8
0
100
AcDbLine
 62
7
  6
CONTINUOUS
 10
2.8196520908
 20
3.2361393701
 11
2.6316520908
 21
3.2361393701
  0
LINE
  5
300
100
AcDbEntity
  8
0
100
AcDbLine
 62
7
  6
CONTINUOUS
 10
2.9696520908
 20
3.3116393701
 11
3.0196520908
 21
3.3116393701
  0
LINE
  5
301
100
AcDbEntity
  8
THREAD
100
AcDbLine
 62
7
  6
CONTINUOUS
 10
2.8666520908
 20
3.3121393701
 11
2.8196520908
 21
3.3121393701
  0
LINE
  5
302
100
AcDbEntity
  8
THREAD
100
AcDbLine
 62
7
  6
CONTINUOUS
 10
3.5401520908
 20
3.3241393701
 11
3.0706743048
 21
3.3241393701
  0
LINE
  5
303
100
AcDbEntity
  8
0
100
AcDbLine
 62
7
  6
CONTINUOUS
 10
2.5701642871
 20
3.3426393701
 11
1.699624722
 21
3.3426393701
  0
LINE
  5
304
100
AcDbEntity
  8
0
100
AcDbLine
 62
7
  6
CONTINUOUS
 10
2.5701642871
 20
3.3430347115
 11
1.699624722
 21
3.3430347115
  0
LINE
  5
305
100
AcDbEntity
  8
0
100
AcDbLine
 62
7
  6
CONTINUOUS
 10
4.9606520908
 20
3.3813893701
 11
5.0106520908
 21
3.3813893701
  0
LINE
  5
306
100
AcDbEntity
  8
0
100
AcDbLine
 62
7
  6
CONTINUOUS
 10
5.1136520908
 20
3.3813893701
 11
5.1636520908
 21
3.3813893701
  0
LINE
  5
307
100
AcDbEntity
  8
0
100
AcDbLine
 62
7
  6
CONTINUOUS
 10
4.8666520908
 20
3.3841393701
 11
4.9606520908
 21
3.3841393701
  0
LINE
  5
308
100
AcDbEntity
  8
0
100
AcDbLine
 62
7
  6
CONTINUOUS
 10
5.1981520908
 20
3.3841393701
 11
5.2921520908
 21
3.3841393701
  0
LINE
  5
309
100
AcDbEntity
  8
03__ASM_ALL_CURVES
100
AcDbLine
 62
40
  6
CONTINUOUS
 10
5.7335711337
 20
2.8906393701
 11
5.7492473056
 21
2.8801885913
  0
LINE
  5
30A
100
AcDbEntity
  8
03__ASM_ALL_CURVES
100
AcDbLine
 62
40
  6
CONTINUOUS
 10
5.9687137119
 20
2.7652299951
 11
5.95303754
 21
2.7756807767
  0
LINE
  5
30B
100
AcDbEntity
  8
03__ASM_ALL_CURVES
100
AcDbLine
 62
40
  6
CONTINUOUS
 10
5.9843898837
 20
2.8383854614
 11
6.0000660556
 21
2.8279346826
  0
LINE
  5
30C
100
AcDbEntity
  8
03__ASM_ALL_CURVES
100
AcDbLine
 62
40
  6
CONTINUOUS
 10
5.9843898837
 20
2.8906393701
 11
6.0000660556
 21
2.8801885913
  0
LINE
  5
30D
100
AcDbEntity
  8
03__ASM_ALL_CURVES
100
AcDbLine
 62
40
  6
CONTINUOUS
 10
1.8812763095
 20
5.6418923701
 11
1.860374747
 21
5.6558267455
  0
LINE
  5
30E
100
AcDbEntity
  8
03__ASM_ALL_CURVES
100
AcDbLine
 62
40
  6
CONTINUOUS
 10
1.8812763095
 20
5.7394329918
 11
1.860374747
 21
5.7533673734
  0
LINE
  5
30F
100
AcDbEntity
  8
03__ASM_ALL_CURVES
100
AcDbLine
 62
40
  6
CONTINUOUS
 10
1.902177872
 20
5.7394329918
 11
1.9230794345
 21
5.7254986201
  0
LINE
  5
310
100
AcDbEntity
  8
03__ASM_ALL_CURVES
100
AcDbLine
 62
40
  6
CONTINUOUS
 10
1.902177872
 20
5.8091048701
 11
1.9230794345
 21
5.7951704984
  0
LINE
  5
311
100
AcDbEntity
  8
THREAD
100
AcDbLine
 62
7
  6
CONTINUOUS
 10
3.6376520908
 20
5.1096393701
 11
3.5401520908
 21
5.2071393701
  0
LINE
  5
312
100
AcDbEntity
  8
03__ASM_ALL_CURVES
100
AcDbLine
 62
40
  6
CONTINUOUS
 10
5.576809415
 20
2.7756807767
 11
5.5611332431
 21
2.7965823388
  0
LINE
  5
313
100
AcDbEntity
  8
03__ASM_ALL_CURVES
100
AcDbLine
 62
40
  6
CONTINUOUS
 10
5.4984285556
 20
2.8801885913
 11
5.5062666415
 21
2.8697378051
  0
LINE
  5
314
100
AcDbEntity
  8
03__ASM_ALL_CURVES
100
AcDbLine
 62
40
  6
CONTINUOUS
 10
3.4320678717
 20
5.6558267455
 11
3.4111663092
 21
5.6836954951
  0
LINE
  5
315
100
AcDbEntity
  8
03__ASM_ALL_CURVES
100
AcDbLine
 62
40
  6
CONTINUOUS
 10
3.3275600592
 20
5.7951704984
 11
3.3484616217
 21
5.7673017451
  0
LINE
  5
316
100
AcDbEntity
  8
03__ASM_ALL_CURVES
100
AcDbLine
 62
40
  6
CONTINUOUS
 10
5.6238379306
 20
2.8801885913
 11
5.6395141025
 21
2.8592870263
  0
LINE
  5
317
100
AcDbEntity
  8
03__ASM_ALL_CURVES
100
AcDbLine
 62
40
  6
CONTINUOUS
 10
3.4947725592
 20
5.7951704984
 11
3.5052233405
 21
5.7812361168
  0
LINE
  5
318
100
AcDbEntity
  8
03__ASM_ALL_CURVES
100
AcDbLine
 62
40
  6
CONTINUOUS
 10
4.2472288092
 20
5.6836954951
 11
4.236778028
 21
5.7254986201
  0
LINE
  5
319
100
AcDbEntity
  8
0
100
AcDbLine
 62
7
  6
CONTINUOUS
 10
4.9606520908
 20
3.3813893701
 11
4.9606520908
 21
5.1498893701
  0
LINE
  5
31A
100
AcDbEntity
  8
0
100
AcDbLine
 62
7
  6
CONTINUOUS
 10
5.0106520908
 20
3.3813893701
 11
5.0106520908
 21
5.1498893701
  0
LINE
  5
31B
100
AcDbEntity
  8
03__ASM_ALL_CURVES
100
AcDbLine
 62
40
  6
CONTINUOUS
 10
5.0937420905
 20
5.6697611209
 11
5.0937420905
 21
5.8091048701
  0
LINE
  5
31C
100
AcDbEntity
  8
0
100
AcDbLine
 62
7
  6
CONTINUOUS
 10
5.1136520908
 20
3.3813893701
 11
5.1136520908
 21
5.1498893701
  0
LINE
  5
31D
100
AcDbEntity
  8
0
100
AcDbLine
 62
7
  6
CONTINUOUS
 10
5.1636520908
 20
3.3813893701
 11
5.1636520908
 21
5.1498893701
  0
LINE
  5
31E
100
AcDbEntity
  8
03__ASM_ALL_CURVES
100
AcDbLine
 62
40
  6
CONTINUOUS
 10
5.1773483405
 20
5.8091048701
 11
5.1773483405
 21
5.6697611209
  0
LINE
  5
31F
100
AcDbEntity
  8
0
100
AcDbLine
 62
7
  6
CONTINUOUS
 10
5.1981520908
 20
5.1471239627
 11
5.1981520908
 21
3.3841547775
  0
LINE
  5
320
100
AcDbEntity
  8
03__ASM_ALL_CURVES
100
AcDbLine
 62
40
  6
CONTINUOUS
 10
5.5222241217
 20
5.7254986201
 11
5.5117733405
 21
5.6836954951
  0
LINE
  5
321
100
AcDbEntity
  8
03__ASM_ALL_CURVES
100
AcDbLine
 62
40
  6
CONTINUOUS
 10
5.8461983405
 20
5.7533673734
 11
5.8357475592
 21
5.7394329918
  0
LINE
  5
322
100
AcDbEntity
  8
0
100
AcDbLine
 62
7
  6
CONTINUOUS
 10
3.8816520908
 20
3.4346393701
 11
3.8686520908
 21
3.4216393701
  0
LINE
  5
323
100
AcDbEntity
  8
0
100
AcDbLine
 62
7
  6
CONTINUOUS
 10
6.4606520908
 20
3.4043893701
 11
6.5106520908
 21
3.4043893701
  0
LINE
  5
324
100
AcDbEntity
  8
0
100
AcDbLine
 62
7
  6
CONTINUOUS
 10
6.6136520908
 20
3.4043893701
 11
6.6636520908
 21
3.4043893701
  0
LINE
  5
325
100
AcDbEntity
  8
0
100
AcDbLine
 62
7
  6
CONTINUOUS
 10
7.9736520908
 20
3.4043893701
 11
8.0236520908
 21
3.4043893701
  0
LINE
  5
326
100
AcDbEntity
  8
0
100
AcDbLine
 62
7
  6
CONTINUOUS
 10
8.1266520908
 20
3.4043893701
 11
8.1766520908
 21
3.4043893701
  0
LINE
  5
327
100
AcDbEntity
  8
0
100
AcDbLine
 62
7
  6
CONTINUOUS
 10
6.7921520908
 20
3.4076393701
 11
6.6981520908
 21
3.4076393701
  0
LINE
  5
328
100
AcDbEntity
  8
0
100
AcDbLine
 62
7
  6
CONTINUOUS
 10
6.4606520908
 20
3.4076393701
 11
6.3666520908
 21
3.4076393701
  0
LINE
  5
329
100
AcDbEntity
  8
THREAD
100
AcDbLine
 62
7
  6
CONTINUOUS
 10
3.8686520908
 20
3.4216393701
 11
3.6376520908
 21
3.4216393701
  0
LINE
  5
32A
100
AcDbEntity
  8
0
100
AcDbLine
 62
7
  6
CONTINUOUS
 10
8.2986520908
 20
3.4311393701
 11
8.2111520908
 21
3.4311393701
  0
LINE
  5
32B
100
AcDbEntity
  8
0
100
AcDbLine
 62
7
  6
CONTINUOUS
 10
7.9736520908
 20
3.4311393701
 11
7.8796520908
 21
3.4311393701
  0
LINE
  5
32C
100
AcDbEntity
  8
0
100
AcDbLine
 62
7
  6
CONTINUOUS
 10
5.1981520908
 20
3.4693893701
 11
5.1636520908
 21
3.4693893701
  0
LINE
  5
32D
100
AcDbEntity
  8
0
100
AcDbLine
 62
7
  6
CONTINUOUS
 10
6.6981520908
 20
3.4923893701
 11
6.6636520908
 21
3.4923893701
  0
LINE
  5
32E
100
AcDbEntity
  8
0
100
AcDbLine
 62
7
  6
CONTINUOUS
 10
8.2111520908
 20
3.5168893701
 11
8.1766520908
 21
3.5168893701
  0
LINE
  5
32F
100
AcDbEntity
  8
0
100
AcDbLine
 62
7
  6
CONTINUOUS
 10
4.7726520908
 20
3.5481393701
 11
4.3708593502
 21
3.5481393701
  0
LINE
  5
330
100
AcDbEntity
  8
0
100
AcDbLine
 62
7
  6
CONTINUOUS
 10
4.0184448313
 20
3.5481393701
 11
3.8816520908
 21
3.5481393701
  0
LINE
  5
331
100
AcDbEntity
  8
0
100
AcDbLine
 62
7
  6
CONTINUOUS
 10
6.2726520908
 20
3.5628893701
 11
6.0278593502
 21
3.5628893701
  0
LINE
  5
332
100
AcDbEntity
  8
0
100
AcDbLine
 62
7
  6
CONTINUOUS
 10
5.6754448313
 20
3.5628893701
 11
5.3861520908
 21
3.5628893701
  0
LINE
  5
333
100
AcDbEntity
  8
0
100
AcDbLine
 62
7
  6
CONTINUOUS
 10
7.7856520908
 20
3.5783893701
 11
7.6838593502
 21
3.5783893701
  0
LINE
  5
334
100
AcDbEntity
  8
0
100
AcDbLine
 62
7
  6
CONTINUOUS
 10
7.3314448313
 20
3.5783893701
 11
6.8861520908
 21
3.5783893701
  0
LINE
  5
335
100
AcDbEntity
  8
03__ASM_ALL_CURVES
100
AcDbLine
 62
40
  6
CONTINUOUS
 10
2.3933645908
 20
5.6418923701
 11
2.3724630283
 21
5.6558267455
  0
LINE
  5
336
100
AcDbEntity
  8
03__ASM_ALL_CURVES
100
AcDbLine
 62
40
  6
CONTINUOUS
 10
2.236602872
 20
5.8091048701
 11
2.2575044345
 21
5.7951704984
  0
LINE
  5
337
100
AcDbEntity
  8
03__ASM_ALL_CURVES
100
AcDbLine
 62
40
  6
CONTINUOUS
 10
2.3933645908
 20
5.8091048701
 11
2.4142661533
 21
5.7951704984
  0
LINE
  5
338
100
AcDbEntity
  8
0
100
AcDbLine
 62
7
  6
CONTINUOUS
 10
3.8816520908
 20
5.0966393701
 11
3.8686520908
 21
5.1096393701
  0
LINE
  5
339
100
AcDbEntity
  8
03__ASM_ALL_CURVES
100
AcDbLine
 62
40
  6
CONTINUOUS
 10
5.7492473056
 20
2.8801885913
 11
5.7570853915
 21
2.8697378051
  0
LINE
  5
33A
100
AcDbEntity
  8
03__ASM_ALL_CURVES
100
AcDbLine
 62
40
  6
CONTINUOUS
 10
5.95303754
 20
2.7756807767
 11
5.945199454
 21
2.7861315582
  0
LINE
  5
33B
100
AcDbEntity
  8
03__ASM_ALL_CURVES
100
AcDbLine
 62
40
  6
CONTINUOUS
 10
6.0000660556
 20
2.8279346826
 11
6.0157422275
 21
2.8070331213
  0
LINE
  5
33C
100
AcDbEntity
  8
03__ASM_ALL_CURVES
100
AcDbLine
 62
40
  6
CONTINUOUS
 10
6.0000660556
 20
2.8801885913
 11
6.0079041415
 21
2.8697378051
  0
LINE
  5
33D
100
AcDbEntity
  8
03__ASM_ALL_CURVES
100
AcDbLine
 62
40
  6
CONTINUOUS
 10
4.0904670905
 20
5.8091048701
 11
4.1740733405
 21
5.6418923701
  0
LINE
  5
33E
100
AcDbEntity
  8
03__ASM_ALL_CURVES
100
AcDbLine
 62
40
  6
CONTINUOUS
 10
5.5611332431
 20
2.7965823388
 11
5.5532951572
 21
2.8279346826
  0
LINE
  5
33F
100
AcDbEntity
  8
03__ASM_ALL_CURVES
100
AcDbLine
 62
40
  6
CONTINUOUS
 10
5.2609545905
 20
5.8091048701
 11
5.2609545905
 21
5.6418923701
  0
LINE
  5
340
100
AcDbEntity
  8
0
100
AcDbLine
 62
7
  6
CONTINUOUS
 10
5.2921520908
 20
5.1471239627
 11
5.2921520908
 21
3.3841547775
  0
LINE
  5
341
100
AcDbEntity
  8
0
100
AcDbLine
 62
7
  6
CONTINUOUS
 10
5.3861520908
 20
3.5628893701
 11
5.3861520908
 21
4.9683893701
  0
LINE
  5
342
100
AcDbEntity
  8
03__ASM_ALL_CURVES
100
AcDbLine
 62
40
  6
CONTINUOUS
 10
5.4281670905
 20
5.6418923701
 11
5.4281670905
 21
5.8091048701
  0
LINE
  5
343
100
AcDbEntity
  8
03__ASM_ALL_CURVES
100
AcDbLine
 62
40
  6
CONTINUOUS
 10
5.443561954
 20
2.7652299951
 11
5.443561954
 21
2.8906393701
  0
LINE
  5
344
100
AcDbEntity
  8
03__ASM_ALL_CURVES
100
AcDbLine
 62
40
  6
CONTINUOUS
 10
5.5062666415
 20
2.8697378051
 11
5.5062666415
 21
2.8488362476
  0
LINE
  5
345
100
AcDbEntity
  8
03__ASM_ALL_CURVES
100
AcDbLine
 62
40
  6
CONTINUOUS
 10
4.6400661152
 20
2.8906393701
 11
4.5851995136
 21
2.7965823388
  0
LINE
  5
346
100
AcDbEntity
  8
03__ASM_ALL_CURVES
100
AcDbLine
 62
40
  6
CONTINUOUS
 10
4.1462667011
 20
2.8488362476
 11
4.1384286152
 21
2.8383854614
  0
LINE
  5
347
100
AcDbEntity
  8
03__ASM_ALL_CURVES
100
AcDbLine
 62
40
  6
CONTINUOUS
 10
4.2011333027
 20
2.8592870263
 11
4.2168094746
 21
2.8801885913
  0
LINE
  5
348
100
AcDbEntity
  8
03__ASM_ALL_CURVES
100
AcDbLine
 62
40
  6
CONTINUOUS
 10
4.2795141621
 20
2.7965823388
 11
4.2638379902
 21
2.7756807767
  0
LINE
  5
349
100
AcDbEntity
  8
0
100
AcDbLine
 62
7
  6
CONTINUOUS
 10
8.9666520908
 20
3.7456393701
 11
8.3211520908
 21
3.7456393701
  0
LINE
  5
34A
100
AcDbEntity
  8
0
100
AcDbLine
 62
7
  6
CONTINUOUS
 10
2.5701642871
 20
3.7809440286
 11
1.699624722
 21
3.7809440286
  0
LINE
  5
34B
100
AcDbEntity
  8
0
100
AcDbLine
 62
7
  6
CONTINUOUS
 10
5.9691465387
 20
3.8251830726
 11
5.7342017257
 21
3.8251830726
  0
LINE
  5
34C
100
AcDbEntity
  8
0
100
AcDbLine
 62
7
  6
CONTINUOUS
 10
2.5701642871
 20
3.827730053
 11
1.699624722
 21
3.827730053
  0
LINE
  5
34D
100
AcDbEntity
  8
03__ASM_ALL_CURVES
100
AcDbLine
 62
40
  6
CONTINUOUS
 10
2.7277895908
 20
5.6418923701
 11
2.7068880283
 21
5.6558267455
  0
LINE
  5
34E
100
AcDbEntity
  8
03__ASM_ALL_CURVES
100
AcDbLine
 62
40
  6
CONTINUOUS
 10
2.7277895908
 20
5.8091048701
 11
2.7486911533
 21
5.7951704984
  0
LINE
  5
34F
100
AcDbEntity
  8
03__ASM_ALL_CURVES
100
AcDbLine
 62
40
  6
CONTINUOUS
 10
7.336404473
 20
2.7652299951
 11
7.3207283012
 21
2.7756807767
  0
LINE
  5
350
100
AcDbEntity
  8
03__ASM_ALL_CURVES
100
AcDbLine
 62
40
  6
CONTINUOUS
 10
7.2266712699
 20
2.8906393701
 11
7.2423474418
 21
2.8801885913
  0
LINE
  5
351
100
AcDbEntity
  8
03__ASM_ALL_CURVES
100
AcDbLine
 62
40
  6
CONTINUOUS
 10
7.3520806449
 20
2.8906393701
 11
7.3677568168
 21
2.8801885913
  0
LINE
  5
352
100
AcDbEntity
  8
03__ASM_ALL_CURVES
100
AcDbLine
 62
40
  6
CONTINUOUS
 10
4.2681303717
 20
5.6558267455
 11
4.2472288092
 21
5.6836954951
  0
LINE
  5
353
100
AcDbEntity
  8
03__ASM_ALL_CURVES
100
AcDbLine
 62
40
  6
CONTINUOUS
 10
4.3308350592
 20
5.7951704984
 11
4.3412858405
 21
5.7812361168
  0
LINE
  5
354
100
AcDbEntity
  8
03__ASM_ALL_CURVES
100
AcDbLine
 62
40
  6
CONTINUOUS
 10
5.7335711337
 20
2.8279346826
 11
5.7570853915
 21
2.7652299951
  0
LINE
  5
355
100
AcDbEntity
  8
03__ASM_ALL_CURVES
100
AcDbLine
 62
40
  6
CONTINUOUS
 10
4.9160788092
 20
5.6836954951
 11
4.905628028
 21
5.7254986201
  0
LINE
  5
356
100
AcDbEntity
  8
03__ASM_ALL_CURVES
100
AcDbLine
 62
40
  6
CONTINUOUS
 10
5.6395141025
 20
2.8592870263
 11
5.6473521884
 21
2.8279346826
  0
LINE
  5
357
100
AcDbEntity
  8
03__ASM_ALL_CURVES
100
AcDbLine
 62
40
  6
CONTINUOUS
 10
5.0205866217
 20
5.7673017451
 11
5.031037403
 21
5.7254986201
  0
LINE
  5
358
100
AcDbEntity
  8
03__ASM_ALL_CURVES
100
AcDbLine
 62
40
  6
CONTINUOUS
 10
5.5953795905
 20
5.6418923701
 11
5.5953795905
 21
5.8091048701
  0
LINE
  5
359
100
AcDbEntity
  8
03__ASM_ALL_CURVES
100
AcDbLine
 62
40
  6
CONTINUOUS
 10
5.694380704
 20
2.7652299951
 11
5.694380704
 21
2.8906393701
  0
LINE
  5
35A
100
AcDbEntity
  8
03__ASM_ALL_CURVES
100
AcDbLine
 62
40
  6
CONTINUOUS
 10
5.7570853915
 20
2.8697378051
 11
5.7570853915
 21
2.8488362476
  0
LINE
  5
35B
100
AcDbEntity
  8
03__ASM_ALL_CURVES
100
AcDbLine
 62
40
  6
CONTINUOUS
 10
5.7625920905
 20
5.6418923701
 11
5.7625920905
 21
5.8091048701
  0
LINE
  5
35C
100
AcDbEntity
  8
03__ASM_ALL_CURVES
100
AcDbLine
 62
40
  6
CONTINUOUS
 10
4.3970854511
 20
2.8488362476
 11
4.3892473652
 21
2.8383854614
  0
LINE
  5
35D
100
AcDbEntity
  8
0
100
AcDbLine
 62
7
  6
CONTINUOUS
 10
5.932761077
 20
4.1333127998
 11
5.7705431045
 21
4.1333127998
  0
LINE
  5
35E
100
AcDbEntity
  8
03__ASM_ALL_CURVES
100
AcDbLine
 62
40
  6
CONTINUOUS
 10
9.8442518943
 20
4.2990818701
 11
9.8285757224
 21
4.2990818701
  0
LINE
  5
35F
100
AcDbEntity
  8
03__ASM_ALL_CURVES
100
AcDbLine
 62
40
  6
CONTINUOUS
 10
2.3933645908
 20
5.7115642434
 11
2.362012247
 21
5.7254986201
  0
LINE
  5
360
100
AcDbEntity
  8
03__ASM_ALL_CURVES
100
AcDbLine
 62
40
  6
CONTINUOUS
 10
3.2857569342
 20
5.6418923701
 11
3.2648553717
 21
5.6558267455
  0
LINE
  5
361
100
AcDbEntity
  8
03__ASM_ALL_CURVES
100
AcDbLine
 62
40
  6
CONTINUOUS
 10
7.4774900199
 20
2.8906393701
 11
7.4931661918
 21
2.8801885913
  0
LINE
  5
362
100
AcDbEntity
  8
03__ASM_ALL_CURVES
100
AcDbLine
 62
40
  6
CONTINUOUS
 10
3.4529694342
 20
5.6418923701
 11
3.4320678717
 21
5.6558267455
  0
LINE
  5
363
100
AcDbEntity
  8
03__ASM_ALL_CURVES
100
AcDbLine
 62
40
  6
CONTINUOUS
 10
3.3066584967
 20
5.8091048701
 11
3.3275600592
 21
5.7951704984
  0
LINE
  5
364
100
AcDbEntity
  8
03__ASM_ALL_CURVES
100
AcDbLine
 62
40
  6
CONTINUOUS
 10
7.7283087699
 20
2.8906393701
 11
7.7439849418
 21
2.8801885913
  0
LINE
  5
365
100
AcDbEntity
  8
03__ASM_ALL_CURVES
100
AcDbLine
 62
40
  6
CONTINUOUS
 10
3.4738709967
 20
5.8091048701
 11
3.4947725592
 21
5.7951704984
  0
LINE
  5
366
100
AcDbEntity
  8
03__ASM_ALL_CURVES
100
AcDbLine
 62
40
  6
CONTINUOUS
 10
4.6025553717
 20
5.6558267455
 11
4.5816538092
 21
5.6836954951
  0
LINE
  5
367
100
AcDbEntity
  8
03__ASM_ALL_CURVES
100
AcDbLine
 62
40
  6
CONTINUOUS
 10
4.5921045905
 20
5.7673017451
 11
4.6025553717
 21
5.7533673734
  0
LINE
  5
368
100
AcDbEntity
  8
03__ASM_ALL_CURVES
100
AcDbLine
 62
40
  6
CONTINUOUS
 10
4.6652600592
 20
5.7115642434
 11
4.6757108405
 21
5.6976298718
  0
LINE
  5
369
100
AcDbEntity
  8
03__ASM_ALL_CURVES
100
AcDbLine
 62
40
  6
CONTINUOUS
 10
4.6757108405
 20
5.7812361168
 11
4.6652600592
 21
5.7951704984
  0
LINE
  5
36A
100
AcDbEntity
  8
03__ASM_ALL_CURVES
100
AcDbLine
 62
40
  6
CONTINUOUS
 10
5.8461983405
 20
5.7812361168
 11
5.8461983405
 21
5.7533673734
  0
LINE
  5
36B
100
AcDbEntity
  8
03__ASM_ALL_CURVES
100
AcDbLine
 62
40
  6
CONTINUOUS
 10
5.8511424228
 20
2.8906393701
 11
5.8511424228
 21
2.7652299951
  0
LINE
  5
36C
100
AcDbEntity
  8
03__ASM_ALL_CURVES
100
AcDbLine
 62
40
  6
CONTINUOUS
 10
6.0079041415
 20
2.8697378051
 11
6.0079041415
 21
2.8592870263
  0
LINE
  5
36D
100
AcDbEntity
  8
03__ASM_ALL_CURVES
100
AcDbLine
 62
40
  6
CONTINUOUS
 10
6.0157422275
 20
2.8070331213
 11
6.0157422275
 21
2.7965823388
  0
LINE
  5
36E
100
AcDbEntity
  8
03__ASM_ALL_CURVES
100
AcDbLine
 62
40
  6
CONTINUOUS
 10
5.5532951572
 20
2.8279346826
 11
5.5611332431
 21
2.8592870263
  0
LINE
  5
36F
100
AcDbEntity
  8
03__ASM_ALL_CURVES
100
AcDbLine
 62
40
  6
CONTINUOUS
 10
5.6473521884
 20
2.8279346826
 11
5.6395141025
 21
2.7965823388
  0
LINE
  5
370
100
AcDbEntity
  8
03__ASM_ALL_CURVES
100
AcDbLine
 62
40
  6
CONTINUOUS
 10
4.1384286152
 20
2.8383854614
 11
4.1227524433
 21
2.8279346826
  0
LINE
  5
371
100
AcDbEntity
  8
03__ASM_ALL_CURVES
100
AcDbLine
 62
40
  6
CONTINUOUS
 10
4.2168094746
 20
2.8801885913
 11
4.2324856465
 21
2.8906393701
  0
LINE
  5
372
100
AcDbEntity
  8
03__ASM_ALL_CURVES
100
AcDbLine
 62
40
  6
CONTINUOUS
 10
9.9696612693
 20
4.3617865576
 11
9.9304708396
 21
4.3617865576
  0
LINE
  5
373
100
AcDbEntity
  8
03__ASM_ALL_CURVES
100
AcDbLine
 62
40
  6
CONTINUOUS
 10
9.7188425193
 20
4.3617865576
 11
9.6796520896
 21
4.3617865576
  0
LINE
  5
374
100
AcDbEntity
  8
0
100
AcDbLine
 62
7
  6
CONTINUOUS
 10
5.932761077
 20
4.3979659404
 11
5.7705431045
 21
4.3979659404
  0
LINE
  5
375
100
AcDbEntity
  8
03__ASM_ALL_CURVES
100
AcDbLine
 62
40
  6
CONTINUOUS
 10
9.6796520896
 20
4.4244912451
 11
9.7188425193
 21
4.4244912451
  0
LINE
  5
376
100
AcDbEntity
  8
03__ASM_ALL_CURVES
100
AcDbLine
 62
40
  6
CONTINUOUS
 10
9.8285757224
 20
4.4244912451
 11
9.8442518943
 21
4.4244912451
  0
LINE
  5
377
100
AcDbEntity
  8
03__ASM_ALL_CURVES
100
AcDbLine
 62
40
  6
CONTINUOUS
 10
9.9304708396
 20
4.4244912451
 11
9.9696612693
 21
4.4244912451
  0
LINE
  5
378
100
AcDbEntity
  8
03__ASM_ALL_CURVES
100
AcDbLine
 62
40
  6
CONTINUOUS
 10
10.0480421287
 20
4.4244912451
 11
10.1264229881
 21
4.4244912451
  0
LINE
  5
379
100
AcDbEntity
  8
03__ASM_ALL_CURVES
100
AcDbLine
 62
40
  6
CONTINUOUS
 10
2.7277895908
 20
5.7115642434
 11
2.696437247
 21
5.7254986201
  0
LINE
  5
37A
100
AcDbEntity
  8
03__ASM_ALL_CURVES
100
AcDbLine
 62
40
  6
CONTINUOUS
 10
4.2890319342
 20
5.6418923701
 11
4.2681303717
 21
5.6558267455
  0
LINE
  5
37B
100
AcDbEntity
  8
03__ASM_ALL_CURVES
100
AcDbLine
 62
40
  6
CONTINUOUS
 10
4.9369803717
 20
5.6558267455
 11
4.9160788092
 21
5.6836954951
  0
LINE
  5
37C
100
AcDbEntity
  8
03__ASM_ALL_CURVES
100
AcDbLine
 62
40
  6
CONTINUOUS
 10
5.1041928717
 20
5.6558267455
 11
5.0937420905
 21
5.6697611209
  0
LINE
  5
37D
100
AcDbEntity
  8
03__ASM_ALL_CURVES
100
AcDbLine
 62
40
  6
CONTINUOUS
 10
4.9996850592
 20
5.7951704984
 11
5.0205866217
 21
5.7673017451
  0
LINE
  5
37E
100
AcDbEntity
  8
03__ASM_ALL_CURVES
100
AcDbLine
 62
40
  6
CONTINUOUS
 10
7.3207283012
 20
2.7756807767
 11
7.3050521293
 21
2.7965823388
  0
LINE
  5
37F
100
AcDbEntity
  8
03__ASM_ALL_CURVES
100
AcDbLine
 62
40
  6
CONTINUOUS
 10
7.2423474418
 20
2.8801885913
 11
7.2501855277
 21
2.8697378051
  0
LINE
  5
380
100
AcDbEntity
  8
03__ASM_ALL_CURVES
100
AcDbLine
 62
40
  6
CONTINUOUS
 10
5.5117733405
 20
5.7673017451
 11
5.5222241217
 21
5.7254986201
  0
LINE
  5
381
100
AcDbEntity
  8
0
100
AcDbLine
 62
7
  6
CONTINUOUS
 10
6.2726520908
 20
3.5628893701
 11
6.2726520908
 21
4.9683893701
  0
LINE
  5
382
100
AcDbEntity
  8
0
100
AcDbLine
 62
7
  6
CONTINUOUS
 10
6.3666520908
 20
3.4076543667
 11
6.3666520908
 21
5.1236243734
  0
LINE
  5
383
100
AcDbEntity
  8
0
100
AcDbLine
 62
7
  6
CONTINUOUS
 10
6.4606520908
 20
3.4043893701
 11
6.4606520908
 21
5.1268893701
  0
LINE
  5
384
100
AcDbEntity
  8
03__ASM_ALL_CURVES
100
AcDbLine
 62
40
  6
CONTINUOUS
 10
5.5062666415
 20
2.8488362476
 11
5.4984285556
 21
2.8383854614
  0
LINE
  5
385
100
AcDbEntity
  8
03__ASM_ALL_CURVES
100
AcDbLine
 62
40
  6
CONTINUOUS
 10
4.2638379902
 20
2.7756807767
 11
4.2481618183
 21
2.7652299951
  0
LINE
  5
386
100
AcDbEntity
  8
03__ASM_ALL_CURVES
100
AcDbLine
 62
40
  6
CONTINUOUS
 10
4.3892473652
 20
2.8383854614
 11
4.3735711933
 21
2.8279346826
  0
LINE
  5
387
100
AcDbEntity
  8
0
100
AcDbLine
 62
7
  6
CONTINUOUS
 10
2.5701642871
 20
4.7035486872
 11
1.699624722
 21
4.7035486872
  0
LINE
  5
388
100
AcDbEntity
  8
0
100
AcDbLine
 62
7
  6
CONTINUOUS
 10
5.9690962922
 20
4.7060956676
 11
5.7341629195
 21
4.7060956676
  0
LINE
  5
389
100
AcDbEntity
  8
0
100
AcDbLine
 62
7
  6
CONTINUOUS
 10
2.5701642871
 20
4.7503347115
 11
1.699624722
 21
4.7503347115
  0
LINE
  5
38A
100
AcDbEntity
  8
0
100
AcDbLine
 62
7
  6
CONTINUOUS
 10
8.9666520908
 20
4.7856393701
 11
8.9236520908
 21
4.7856393701
  0
LINE
  5
38B
100
AcDbEntity
  8
0
100
AcDbLine
 62
7
  6
CONTINUOUS
 10
8.8456520908
 20
4.7856393701
 11
8.3211520908
 21
4.7856393701
  0
LINE
  5
38C
100
AcDbEntity
  8
03__ASM_ALL_CURVES
100
AcDbLine
 62
40
  6
CONTINUOUS
 10
1.8333070908
 20
5.5415648701
 11
1.6326520908
 21
5.5750073701
  0
LINE
  5
38D
100
AcDbEntity
  8
03__ASM_ALL_CURVES
100
AcDbLine
 62
40
  6
CONTINUOUS
 10
4.3099334967
 20
5.8091048701
 11
4.3308350592
 21
5.7951704984
  0
LINE
  5
38E
100
AcDbEntity
  8
03__ASM_ALL_CURVES
100
AcDbLine
 62
40
  6
CONTINUOUS
 10
4.6234569342
 20
5.6418923701
 11
4.6025553717
 21
5.6558267455
  0
LINE
  5
38F
100
AcDbEntity
  8
03__ASM_ALL_CURVES
100
AcDbLine
 62
40
  6
CONTINUOUS
 10
4.6025553717
 20
5.7533673734
 11
4.6652600592
 21
5.7115642434
  0
LINE
  5
390
100
AcDbEntity
  8
03__ASM_ALL_CURVES
100
AcDbLine
 62
40
  6
CONTINUOUS
 10
4.6652600592
 20
5.7951704984
 11
4.6443584967
 21
5.8091048701
  0
LINE
  5
391
100
AcDbEntity
  8
03__ASM_ALL_CURVES
100
AcDbLine
 62
40
  6
CONTINUOUS
 10
4.9578819342
 20
5.6418923701
 11
4.9369803717
 21
5.6558267455
  0
LINE
  5
392
100
AcDbEntity
  8
03__ASM_ALL_CURVES
100
AcDbLine
 62
40
  6
CONTINUOUS
 10
7.3677568168
 20
2.8801885913
 11
7.3834329887
 21
2.8592870263
  0
LINE
  5
393
100
AcDbEntity
  8
03__ASM_ALL_CURVES
100
AcDbLine
 62
40
  6
CONTINUOUS
 10
7.4931661918
 20
2.8801885913
 11
7.5010042777
 21
2.8697378051
  0
LINE
  5
394
100
AcDbEntity
  8
03__ASM_ALL_CURVES
100
AcDbLine
 62
40
  6
CONTINUOUS
 10
5.490871778
 20
5.7951704984
 11
5.5117733405
 21
5.7673017451
  0
LINE
  5
395
100
AcDbEntity
  8
03__ASM_ALL_CURVES
100
AcDbLine
 62
40
  6
CONTINUOUS
 10
5.8148459967
 20
5.7254986201
 11
5.8461983405
 21
5.6418923701
  0
LINE
  5
396
100
AcDbEntity
  8
0
100
AcDbLine
 62
7
  6
CONTINUOUS
 10
6.5106520908
 20
3.4043893701
 11
6.5106520908
 21
5.1268893701
  0
LINE
  5
397
100
AcDbEntity
  8
0
100
AcDbLine
 62
7
  6
CONTINUOUS
 10
6.6136520908
 20
3.4043893701
 11
6.6136520908
 21
5.1268893701
  0
LINE
  5
398
100
AcDbEntity
  8
0
100
AcDbLine
 62
7
  6
CONTINUOUS
 10
6.6636520908
 20
3.4043893701
 11
6.6636520908
 21
5.1268893701
  0
LINE
  5
399
100
AcDbEntity
  8
0
100
AcDbLine
 62
7
  6
CONTINUOUS
 10
6.6981520908
 20
3.4076543667
 11
6.6981520908
 21
5.1236243734
  0
LINE
  5
39A
100
AcDbEntity
  8
03__ASM_ALL_CURVES
100
AcDbLine
 62
40
  6
CONTINUOUS
 10
5.5611332431
 20
2.8592870263
 11
5.576809415
 21
2.8801885913
  0
LINE
  5
39B
100
AcDbEntity
  8
03__ASM_ALL_CURVES
100
AcDbLine
 62
40
  6
CONTINUOUS
 10
5.6395141025
 20
2.7965823388
 11
5.6238379306
 21
2.7756807767
  0
LINE
  5
39C
100
AcDbEntity
  8
03__ASM_ALL_CURVES
100
AcDbLine
 62
40
  6
CONTINUOUS
 10
5.7570853915
 20
2.8488362476
 11
5.7492473056
 21
2.8383854614
  0
LINE
  5
39D
100
AcDbEntity
  8
0
100
AcDbLine
 62
7
  6
CONTINUOUS
 10
7.7856520908
 20
4.9528893701
 11
7.6838593502
 21
4.9528893701
  0
LINE
  5
39E
100
AcDbEntity
  8
0
100
AcDbLine
 62
7
  6
CONTINUOUS
 10
7.3314448313
 20
4.9528893701
 11
6.8861520908
 21
4.9528893701
  0
LINE
  5
39F
100
AcDbEntity
  8
0
100
AcDbLine
 62
7
  6
CONTINUOUS
 10
6.2726520908
 20
4.9683893701
 11
6.0278593502
 21
4.9683893701
  0
LINE
  5
3A0
100
AcDbEntity
  8
0
100
AcDbLine
 62
7
  6
CONTINUOUS
 10
5.6754448313
 20
4.9683893701
 11
5.3861520908
 21
4.9683893701
  0
LINE
  5
3A1
100
AcDbEntity
  8
0
100
AcDbLine
 62
7
  6
CONTINUOUS
 10
4.7726520908
 20
4.9831393701
 11
4.3708593502
 21
4.9831393701
  0
LINE
  5
3A2
100
AcDbEntity
  8
0
100
AcDbLine
 62
7
  6
CONTINUOUS
 10
4.0184448313
 20
4.9831393701
 11
3.8816520908
 21
4.9831393701
  0
LINE
  5
3A3
100
AcDbEntity
  8
0
100
AcDbLine
 62
7
  6
CONTINUOUS
 10
8.2111520908
 20
5.0143893701
 11
8.1766520908
 21
5.0143893701
  0
LINE
  5
3A4
100
AcDbEntity
  8
0
100
AcDbLine
 62
7
  6
CONTINUOUS
 10
6.6981520908
 20
5.0388893701
 11
6.6636520908
 21
5.0388893701
  0
LINE
  5
3A5
100
AcDbEntity
  8
0
100
AcDbLine
 62
7
  6
CONTINUOUS
 10
5.1981520908
 20
5.0618893701
 11
5.1636520908
 21
5.0618893701
  0
LINE
  5
3A6
100
AcDbEntity
  8
0
100
AcDbLine
 62
7
  6
CONTINUOUS
 10
8.2986520908
 20
5.1001393701
 11
8.2111520908
 21
5.1001393701
  0
LINE
  5
3A7
100
AcDbEntity
  8
0
100
AcDbLine
 62
7
  6
CONTINUOUS
 10
7.9736520908
 20
5.1001393701
 11
7.8796520908
 21
5.1001393701
  0
LINE
  5
3A8
100
AcDbEntity
  8
THREAD
100
AcDbLine
 62
7
  6
CONTINUOUS
 10
3.8686520908
 20
5.1096393701
 11
3.6376520908
 21
5.1096393701
  0
LINE
  5
3A9
100
AcDbEntity
  8
0
100
AcDbLine
 62
7
  6
CONTINUOUS
 10
6.7921520908
 20
5.1236393701
 11
6.6981520908
 21
5.1236393701
  0
LINE
  5
3AA
100
AcDbEntity
  8
0
100
AcDbLine
 62
7
  6
CONTINUOUS
 10
6.4606520908
 20
5.1236393701
 11
6.3666520908
 21
5.1236393701
  0
LINE
  5
3AB
100
AcDbEntity
  8
0
100
AcDbLine
 62
7
  6
CONTINUOUS
 10
6.4606520908
 20
5.1268893701
 11
6.5106520908
 21
5.1268893701
  0
LINE
  5
3AC
100
AcDbEntity
  8
0
100
AcDbLine
 62
7
  6
CONTINUOUS
 10
6.6136520908
 20
5.1268893701
 11
6.6636520908
 21
5.1268893701
  0
LINE
  5
3AD
100
AcDbEntity
  8
0
100
AcDbLine
 62
7
  6
CONTINUOUS
 10
7.9736520908
 20
5.1268893701
 11
8.0236520908
 21
5.1268893701
  0
LINE
  5
3AE
100
AcDbEntity
  8
0
100
AcDbLine
 62
7
  6
CONTINUOUS
 10
8.1266520908
 20
5.1268893701
 11
8.1766520908
 21
5.1268893701
  0
LINE
  5
3AF
100
AcDbEntity
  8
0
100
AcDbLine
 62
7
  6
CONTINUOUS
 10
4.8666520908
 20
5.1471393701
 11
4.9606520908
 21
5.1471393701
  0
LINE
  5
3B0
100
AcDbEntity
  8
0
100
AcDbLine
 62
7
  6
CONTINUOUS
 10
5.1981520908
 20
5.1471393701
 11
5.2921520908
 21
5.1471393701
  0
LINE
  5
3B1
100
AcDbEntity
  8
0
100
AcDbLine
 62
7
  6
CONTINUOUS
 10
4.9606520908
 20
5.1498893701
 11
5.0106520908
 21
5.1498893701
  0
LINE
  5
3B2
100
AcDbEntity
  8
0
100
AcDbLine
 62
7
  6
CONTINUOUS
 10
5.1136520908
 20
5.1498893701
 11
5.1636520908
 21
5.1498893701
  0
LINE
  5
3B3
100
AcDbEntity
  8
0
100
AcDbLine
 62
7
  6
CONTINUOUS
 10
2.5701642871
 20
5.1882440286
 11
1.699624722
 21
5.1882440286
  0
LINE
  5
3B4
100
AcDbEntity
  8
0
100
AcDbLine
 62
7
  6
CONTINUOUS
 10
2.5701642871
 20
5.1886393701
 11
1.699624722
 21
5.1886393701
  0
LINE
  5
3B5
100
AcDbEntity
  8
THREAD
100
AcDbLine
 62
7
  6
CONTINUOUS
 10
3.5401520908
 20
5.2071393701
 11
3.0706743048
 21
5.2071393701
  0
LINE
  5
3B6
100
AcDbEntity
  8
THREAD
100
AcDbLine
 62
7
  6
CONTINUOUS
 10
2.8666520908
 20
5.2191393701
 11
2.8196520908
 21
5.2191393701
  0
LINE
  5
3B7
100
AcDbEntity
  8
0
100
AcDbLine
 62
7
  6
CONTINUOUS
 10
2.9696520908
 20
5.2196393701
 11
3.0196520908
 21
5.2196393701
  0
LINE
  5
3B8
100
AcDbEntity
  8
03__ASM_ALL_CURVES
100
AcDbLine
 62
40
  6
CONTINUOUS
 10
1.8333070908
 20
5.5582861201
 11
1.6326520908
 21
5.5750073701
  0
LINE
  5
3B9
100
AcDbEntity
  8
03__ASM_ALL_CURVES
100
AcDbLine
 62
40
  6
CONTINUOUS
 10
1.8333070908
 20
5.5527123701
 11
1.6326520908
 21
5.5750073701
  0
LINE
  5
3BA
100
AcDbEntity
  8
03__ASM_ALL_CURVES
100
AcDbLine
 62
40
  6
CONTINUOUS
 10
2.6189970908
 20
5.5973023701
 11
3.0203070908
 21
5.5527123701
  0
LINE
  5
3BB
100
AcDbEntity
  8
03__ASM_ALL_CURVES
100
AcDbLine
 62
40
  6
CONTINUOUS
 10
1.8333070908
 20
5.5471386201
 11
1.6326520908
 21
5.5750073701
  0
LINE
  5
3BC
100
AcDbEntity
  8
03__ASM_ALL_CURVES
100
AcDbLine
 62
40
  6
CONTINUOUS
 10
2.6189970908
 20
5.6028761201
 11
3.0203070908
 21
5.5471386201
  0
LINE
  5
3BD
100
AcDbEntity
  8
03__ASM_ALL_CURVES
100
AcDbLine
 62
40
  6
CONTINUOUS
 10
3.0203070908
 20
5.5415648701
 11
2.6189970908
 21
5.6084498701
  0
LINE
  5
3BE
100
AcDbEntity
  8
03__ASM_ALL_CURVES
100
AcDbLine
 62
40
  6
CONTINUOUS
 10
5.1250944342
 20
5.6418923701
 11
5.1041928717
 21
5.6558267455
  0
LINE
  5
3BF
100
AcDbEntity
  8
03__ASM_ALL_CURVES
100
AcDbLine
 62
40
  6
CONTINUOUS
 10
4.9787834967
 20
5.8091048701
 11
4.9996850592
 21
5.7951704984
  0
LINE
  5
3C0
100
AcDbEntity
  8
03__ASM_ALL_CURVES
100
AcDbLine
 62
40
  6
CONTINUOUS
 10
7.7439849418
 20
2.8801885913
 11
7.7518230277
 21
2.8697378051
  0
LINE
  5
3C1
100
AcDbEntity
  8
03__ASM_ALL_CURVES
100
AcDbLine
 62
40
  6
CONTINUOUS
 10
5.8357475592
 20
5.7951704984
 11
5.8461983405
 21
5.7812361168
  0
LINE
  5
3C2
100
AcDbEntity
  8
0
100
AcDbLine
 62
7
  6
CONTINUOUS
 10
6.7921520908
 20
3.4076543667
 11
6.7921520908
 21
5.1236243734
  0
LINE
  5
3C3
100
AcDbEntity
  8
0
100
AcDbLine
 62
7
  6
CONTINUOUS
 10
6.8861520908
 20
3.5783893701
 11
6.8861520908
 21
4.9528893701
  0
LINE
  5
3C4
100
AcDbEntity
  8
03__ASM_ALL_CURVES
100
AcDbLine
 62
40
  6
CONTINUOUS
 10
6.0079041415
 20
2.8592870263
 11
6.0000660556
 21
2.8488362476
  0
LINE
  5
3C5
100
AcDbEntity
  8
03__ASM_ALL_CURVES
100
AcDbLine
 62
40
  6
CONTINUOUS
 10
6.0157422275
 20
2.7965823388
 11
6.0000660556
 21
2.7756807767
  0
LINE
  5
3C6
100
AcDbEntity
  8
03__ASM_ALL_CURVES
100
AcDbLine
 62
40
  6
CONTINUOUS
 10
5.4984285556
 20
2.8383854614
 11
5.4827523837
 21
2.8279346826
  0
LINE
  5
3C7
100
AcDbEntity
  8
03__ASM_ALL_CURVES
100
AcDbLine
 62
40
  6
CONTINUOUS
 10
5.576809415
 20
2.8801885913
 11
5.5924855869
 21
2.8906393701
  0
LINE
  5
3C8
100
AcDbEntity
  8
03__ASM_ALL_CURVES
100
AcDbLine
 62
40
  6
CONTINUOUS
 10
5.6238379306
 20
2.7756807767
 11
5.6081617587
 21
2.7652299951
  0
LINE
  5
3C9
100
AcDbEntity
  8
03__ASM_ALL_CURVES
100
AcDbLine
 62
40
  6
CONTINUOUS
 10
5.7492473056
 20
2.8383854614
 11
5.7335711337
 21
2.8279346826
  0
LINE
  5
3CA
100
AcDbEntity
  8
03__ASM_ALL_CURVES
100
AcDbLine
 62
40
  6
CONTINUOUS
 10
5.95303754
 20
2.8801885913
 11
5.9687137119
 21
2.8906393701
  0
LINE
  5
3CB
100
AcDbEntity
  8
0
100
AcDbLine
 62
7
  6
CONTINUOUS
 10
2.8196520908
 20
5.2951393701
 11
2.6316520908
 21
5.2951393701
  0
LINE
  5
3CC
100
AcDbEntity
  8
03__ASM_ALL_CURVES
100
AcDbLine
 62
40
  6
CONTINUOUS
 10
1.8333070908
 20
5.5694336201
 11
1.6326520908
 21
5.5750073701
  0
LINE
  5
3CD
100
AcDbEntity
  8
03__ASM_ALL_CURVES
100
AcDbLine
 62
40
  6
CONTINUOUS
 10
2.6189970908
 20
5.5805811201
 11
3.0203070908
 21
5.5694336201
  0
LINE
  5
3CE
100
AcDbEntity
  8
03__ASM_ALL_CURVES
100
AcDbLine
 62
40
  6
CONTINUOUS
 10
1.8333070908
 20
5.5638598701
 11
1.6326520908
 21
5.5750073701
  0
LINE
  5
3CF
100
AcDbEntity
  8
03__ASM_ALL_CURVES
100
AcDbLine
 62
40
  6
CONTINUOUS
 10
2.6189970908
 20
5.5861548701
 11
3.0203070908
 21
5.5638598701
  0
LINE
  5
3D0
100
AcDbEntity
  8
03__ASM_ALL_CURVES
100
AcDbLine
 62
40
  6
CONTINUOUS
 10
2.6189970908
 20
5.5917286201
 11
3.0203070908
 21
5.5582861201
  0
LINE
  5
3D1
100
AcDbEntity
  8
03__ASM_ALL_CURVES
100
AcDbLine
 62
40
  6
CONTINUOUS
 10
5.4699702155
 20
5.8091048701
 11
5.490871778
 21
5.7951704984
  0
LINE
  5
3D2
100
AcDbEntity
  8
03__ASM_ALL_CURVES
100
AcDbLine
 62
40
  6
CONTINUOUS
 10
5.8148459967
 20
5.8091048701
 11
5.8357475592
 21
5.7951704984
  0
LINE
  5
3D3
100
AcDbEntity
  8
03__ASM_ALL_CURVES
100
AcDbLine
 62
40
  6
CONTINUOUS
 10
7.4774900199
 20
2.8279346826
 11
7.5010042777
 21
2.7652299951
  0
LINE
  5
3D4
100
AcDbEntity
  8
03__ASM_ALL_CURVES
100
AcDbLine
 62
40
  6
CONTINUOUS
 10
7.3050521293
 20
2.7965823388
 11
7.2972140434
 21
2.8279346826
  0
LINE
  5
3D5
100
AcDbEntity
  8
03__ASM_ALL_CURVES
100
AcDbLine
 62
40
  6
CONTINUOUS
 10
7.3834329887
 20
2.8592870263
 11
7.3912710746
 21
2.8279346826
  0
LINE
  5
3D6
100
AcDbEntity
  8
03__ASM_ALL_CURVES
100
AcDbLine
 62
40
  6
CONTINUOUS
 10
7.1874808402
 20
2.7652299951
 11
7.1874808402
 21
2.8906393701
  0
LINE
  5
3D7
100
AcDbEntity
  8
03__ASM_ALL_CURVES
100
AcDbLine
 62
40
  6
CONTINUOUS
 10
7.2501855277
 20
2.8697378051
 11
7.2501855277
 21
2.8488362476
  0
LINE
  5
3D8
100
AcDbEntity
  8
03__ASM_ALL_CURVES
100
AcDbLine
 62
40
  6
CONTINUOUS
 10
6.0000660556
 20
2.8488362476
 11
5.9843898837
 21
2.8383854614
  0
LINE
  5
3D9
100
AcDbEntity
  8
03__ASM_ALL_CURVES
100
AcDbLine
 62
40
  6
CONTINUOUS
 10
6.0000660556
 20
2.7756807767
 11
5.9843898837
 21
2.7652299951
  0
LINE
  5
3DA
100
AcDbEntity
  8
03__ASM_ALL_CURVES
100
AcDbLine
 62
40
  6
CONTINUOUS
 10
2.6189970908
 20
5.5582861201
 11
3.0203070908
 21
5.5917286201
  0
LINE
  5
3DB
100
AcDbEntity
  8
03__ASM_ALL_CURVES
100
AcDbLine
 62
40
  6
CONTINUOUS
 10
2.6189970908
 20
5.5638598701
 11
3.0203070908
 21
5.5861548701
  0
LINE
  5
3DC
100
AcDbEntity
  8
03__ASM_ALL_CURVES
100
AcDbLine
 62
40
  6
CONTINUOUS
 10
1.8333070908
 20
5.5861548701
 11
1.6326520908
 21
5.5750073701
  0
LINE
  5
3DD
100
AcDbEntity
  8
03__ASM_ALL_CURVES
100
AcDbLine
 62
40
  6
CONTINUOUS
 10
2.6189970908
 20
5.5694336201
 11
3.0203070908
 21
5.5805811201
  0
LINE
  5
3DE
100
AcDbEntity
  8
03__ASM_ALL_CURVES
100
AcDbLine
 62
40
  6
CONTINUOUS
 10
1.8333070908
 20
5.5805811201
 11
1.6326520908
 21
5.5750073701
  0
LINE
  5
3DF
100
AcDbEntity
  8
03__ASM_ALL_CURVES
100
AcDbLine
 62
40
  6
CONTINUOUS
 10
1.6326520908
 20
5.5750073701
 11
6.0301320908
 21
5.5750073701
  0
LINE
  5
3E0
100
AcDbEntity
  8
03__ASM_ALL_CURVES
100
AcDbLine
 62
40
  6
CONTINUOUS
 10
5.6789858405
 20
5.6418923701
 11
5.5953795905
 21
5.6418923701
  0
LINE
  5
3E1
100
AcDbEntity
  8
03__ASM_ALL_CURVES
100
AcDbLine
 62
40
  6
CONTINUOUS
 10
5.4699702155
 20
5.6418923701
 11
5.4281670905
 21
5.6418923701
  0
LINE
  5
3E2
100
AcDbEntity
  8
03__ASM_ALL_CURVES
100
AcDbLine
 62
40
  6
CONTINUOUS
 10
5.1459959967
 20
5.6418923701
 11
5.1250944342
 21
5.6418923701
  0
LINE
  5
3E3
100
AcDbEntity
  8
03__ASM_ALL_CURVES
100
AcDbLine
 62
40
  6
CONTINUOUS
 10
4.9787834967
 20
5.6418923701
 11
4.9578819342
 21
5.6418923701
  0
LINE
  5
3E4
100
AcDbEntity
  8
03__ASM_ALL_CURVES
100
AcDbLine
 62
40
  6
CONTINUOUS
 10
4.6443584967
 20
5.6418923701
 11
4.6234569342
 21
5.6418923701
  0
LINE
  5
3E5
100
AcDbEntity
  8
03__ASM_ALL_CURVES
100
AcDbLine
 62
40
  6
CONTINUOUS
 10
4.3099334967
 20
5.6418923701
 11
4.2890319342
 21
5.6418923701
  0
LINE
  5
3E6
100
AcDbEntity
  8
03__ASM_ALL_CURVES
100
AcDbLine
 62
40
  6
CONTINUOUS
 10
3.4738709967
 20
5.6418923701
 11
3.4529694342
 21
5.6418923701
  0
LINE
  5
3E7
100
AcDbEntity
  8
03__ASM_ALL_CURVES
100
AcDbLine
 62
40
  6
CONTINUOUS
 10
3.3066584967
 20
5.6418923701
 11
3.2857569342
 21
5.6418923701
  0
LINE
  5
3E8
100
AcDbEntity
  8
03__ASM_ALL_CURVES
100
AcDbLine
 62
40
  6
CONTINUOUS
 10
2.5605770908
 20
5.6418923701
 11
2.5501263095
 21
5.6418923701
  0
LINE
  5
3E9
100
AcDbEntity
  8
03__ASM_ALL_CURVES
100
AcDbLine
 62
40
  6
CONTINUOUS
 10
1.902177872
 20
5.6418923701
 11
1.8812763095
 21
5.6418923701
  0
LINE
  5
3EA
100
AcDbEntity
  8
03__ASM_ALL_CURVES
100
AcDbLine
 62
40
  6
CONTINUOUS
 10
1.5573020908
 20
5.6418923701
 11
1.5468513095
 21
5.6418923701
  0
LINE
  5
3EB
100
AcDbEntity
  8
03__ASM_ALL_CURVES
100
AcDbLine
 62
40
  6
CONTINUOUS
 10
2.1843489658
 20
5.6418923701
 11
2.2679552158
 21
5.6418923701
  0
LINE
  5
3EC
100
AcDbEntity
  8
03__ASM_ALL_CURVES
100
AcDbLine
 62
40
  6
CONTINUOUS
 10
3.0871920905
 20
5.6418923701
 11
3.1707983405
 21
5.6418923701
  0
LINE
  5
3ED
100
AcDbEntity
  8
03__ASM_ALL_CURVES
100
AcDbLine
 62
40
  6
CONTINUOUS
 10
5.2609545905
 20
5.6418923701
 11
5.3445608405
 21
5.6418923701
  0
LINE
  5
3EE
100
AcDbEntity
  8
03__ASM_ALL_CURVES
100
AcDbLine
 62
40
  6
CONTINUOUS
 10
3.5992803717
 20
5.6976298718
 11
3.6619850592
 21
5.6976298718
  0
LINE
  5
3EF
100
AcDbEntity
  8
03__ASM_ALL_CURVES
100
AcDbLine
 62
40
  6
CONTINUOUS
 10
5.8148459967
 20
5.7254986201
 11
5.7625920905
 21
5.7254986201
  0
LINE
  5
3F0
100
AcDbEntity
  8
03__ASM_ALL_CURVES
100
AcDbLine
 62
40
  6
CONTINUOUS
 10
4.2994827155
 20
5.7254986201
 11
4.3412858405
 21
5.7254986201
  0
LINE
  5
3F1
100
AcDbEntity
  8
03__ASM_ALL_CURVES
100
AcDbLine
 62
40
  6
CONTINUOUS
 10
4.7593170905
 20
5.7254986201
 11
4.8429233405
 21
5.7254986201
  0
LINE
  5
3F2
100
AcDbEntity
  8
03__ASM_ALL_CURVES
100
AcDbLine
 62
40
  6
CONTINUOUS
 10
5.5953795905
 20
5.7254986201
 11
5.6476334967
 21
5.7254986201
  0
LINE
  5
3F3
100
AcDbEntity
  8
03__ASM_ALL_CURVES
100
AcDbLine
 62
40
  6
CONTINUOUS
 10
1.8812763095
 20
5.7394329918
 11
1.902177872
 21
5.7394329918
  0
LINE
  5
3F4
100
AcDbEntity
  8
03__ASM_ALL_CURVES
100
AcDbLine
 62
40
  6
CONTINUOUS
 10
4.6443584967
 20
5.8091048701
 11
4.6234569342
 21
5.8091048701
  0
LINE
  5
3F5
100
AcDbEntity
  8
03__ASM_ALL_CURVES
100
AcDbLine
 62
40
  6
CONTINUOUS
 10
2.9368052158
 20
5.8091048701
 11
2.8531989658
 21
5.8091048701
  0
LINE
  5
3F6
100
AcDbEntity
  8
03__ASM_ALL_CURVES
100
AcDbLine
 62
40
  6
CONTINUOUS
 10
1.8812763095
 20
5.8091048701
 11
1.902177872
 21
5.8091048701
  0
LINE
  5
3F7
100
AcDbEntity
  8
03__ASM_ALL_CURVES
100
AcDbLine
 62
40
  6
CONTINUOUS
 10
2.2157013095
 20
5.8091048701
 11
2.236602872
 21
5.8091048701
  0
LINE
  5
3F8
100
AcDbEntity
  8
03__ASM_ALL_CURVES
100
AcDbLine
 62
40
  6
CONTINUOUS
 10
3.2857569342
 20
5.8091048701
 11
3.3066584967
 21
5.8091048701
  0
LINE
  5
3F9
100
AcDbEntity
  8
03__ASM_ALL_CURVES
100
AcDbLine
 62
40
  6
CONTINUOUS
 10
3.4529694342
 20
5.8091048701
 11
3.4738709967
 21
5.8091048701
  0
LINE
  5
3FA
100
AcDbEntity
  8
03__ASM_ALL_CURVES
100
AcDbLine
 62
40
  6
CONTINUOUS
 10
3.7455913092
 20
5.8091048701
 11
3.8500991217
 21
5.8091048701
  0
LINE
  5
3FB
100
AcDbEntity
  8
03__ASM_ALL_CURVES
100
AcDbLine
 62
40
  6
CONTINUOUS
 10
4.2890319342
 20
5.8091048701
 11
4.3099334967
 21
5.8091048701
  0
LINE
  5
3FC
100
AcDbEntity
  8
03__ASM_ALL_CURVES
100
AcDbLine
 62
40
  6
CONTINUOUS
 10
4.9578819342
 20
5.8091048701
 11
4.9787834967
 21
5.8091048701
  0
LINE
  5
3FD
100
AcDbEntity
  8
03__ASM_ALL_CURVES
100
AcDbLine
 62
40
  6
CONTINUOUS
 10
5.4281670905
 20
5.8091048701
 11
5.4699702155
 21
5.8091048701
  0
LINE
  5
3FE
100
AcDbEntity
  8
03__ASM_ALL_CURVES
100
AcDbLine
 62
40
  6
CONTINUOUS
 10
5.5953795905
 20
5.8091048701
 11
5.6789858405
 21
5.8091048701
  0
LINE
  5
3FF
100
AcDbEntity
  8
03__ASM_ALL_CURVES
100
AcDbLine
 62
40
  6
CONTINUOUS
 10
5.7625920905
 20
5.8091048701
 11
5.8148459967
 21
5.8091048701
  0
LINE
  5
400
100
AcDbEntity
  8
03__ASM_ALL_CURVES
100
AcDbLine
 62
40
  6
CONTINUOUS
 10
7.4382995902
 20
2.7652299951
 11
7.4382995902
 21
2.8906393701
  0
LINE
  5
401
100
AcDbEntity
  8
03__ASM_ALL_CURVES
100
AcDbLine
 62
40
  6
CONTINUOUS
 10
7.5010042777
 20
2.8697378051
 11
7.5010042777
 21
2.8488362476
  0
LINE
  5
402
100
AcDbEntity
  8
03__ASM_ALL_CURVES
100
AcDbLine
 62
40
  6
CONTINUOUS
 10
7.595061309
 20
2.8906393701
 11
7.595061309
 21
2.7652299951
  0
LINE
  5
403
100
AcDbEntity
  8
03__ASM_ALL_CURVES
100
AcDbLine
 62
40
  6
CONTINUOUS
 10
7.2972140434
 20
2.8279346826
 11
7.3050521293
 21
2.8592870263
  0
LINE
  5
404
100
AcDbEntity
  8
03__ASM_ALL_CURVES
100
AcDbLine
 62
40
  6
CONTINUOUS
 10
7.3912710746
 20
2.8279346826
 11
7.3834329887
 21
2.7965823388
  0
LINE
  5
405
100
AcDbEntity
  8
03__ASM_ALL_CURVES
100
AcDbLine
 62
40
  6
CONTINUOUS
 10
2.6189970908
 20
5.5415648701
 11
3.0203070908
 21
5.6084498701
  0
LINE
  5
406
100
AcDbEntity
  8
03__ASM_ALL_CURVES
100
AcDbLine
 62
40
  6
CONTINUOUS
 10
2.6189970908
 20
5.5471386201
 11
3.0203070908
 21
5.6028761201
  0
LINE
  5
407
100
AcDbEntity
  8
03__ASM_ALL_CURVES
100
AcDbLine
 62
40
  6
CONTINUOUS
 10
1.8333070908
 20
5.6028761201
 11
1.6326520908
 21
5.5750073701
  0
LINE
  5
408
100
AcDbEntity
  8
03__ASM_ALL_CURVES
100
AcDbLine
 62
40
  6
CONTINUOUS
 10
2.6189970908
 20
5.5527123701
 11
3.0203070908
 21
5.5973023701
  0
LINE
  5
409
100
AcDbEntity
  8
03__ASM_ALL_CURVES
100
AcDbLine
 62
40
  6
CONTINUOUS
 10
1.8333070908
 20
5.5973023701
 11
1.6326520908
 21
5.5750073701
  0
LINE
  5
40A
100
AcDbEntity
  8
03__ASM_ALL_CURVES
100
AcDbLine
 62
40
  6
CONTINUOUS
 10
1.8333070908
 20
5.5917286201
 11
1.6326520908
 21
5.5750073701
  0
LINE
  5
40B
100
AcDbEntity
  8
03__ASM_ALL_CURVES
100
AcDbLine
 62
40
  6
CONTINUOUS
 10
7.7518230277
 20
2.8697378051
 11
7.7518230277
 21
2.8488362476
  0
LINE
  5
40C
100
AcDbEntity
  8
0
100
AcDbLine
 62
7
  6
CONTINUOUS
 10
7.7856520908
 20
3.5783893701
 11
7.7856520908
 21
4.9528893701
  0
LINE
  5
40D
100
AcDbEntity
  8
0
100
AcDbLine
 62
7
  6
CONTINUOUS
 10
7.8796520908
 20
3.431153956
 11
7.8796520908
 21
5.1001247842
  0
LINE
  5
40E
100
AcDbEntity
  8
0
100
AcDbLine
 62
7
  6
CONTINUOUS
 10
7.9736520908
 20
3.4043893701
 11
7.9736520908
 21
5.1268893701
  0
LINE
  5
40F
100
AcDbEntity
  8
03__ASM_ALL_CURVES
100
AcDbLine
 62
40
  6
CONTINUOUS
 10
7.6969564262
 20
2.7965823388
 11
7.6891183402
 21
2.7652299951
  0
LINE
  5
410
100
AcDbEntity
  8
03__ASM_ALL_CURVES
100
AcDbLine
 62
40
  6
CONTINUOUS
 10
7.2501855277
 20
2.8488362476
 11
7.2423474418
 21
2.8383854614
  0
LINE
  5
411
100
AcDbEntity
  8
03__ASM_ALL_CURVES
100
AcDbLine
 62
40
  6
CONTINUOUS
 10
7.3050521293
 20
2.8592870263
 11
7.3207283012
 21
2.8801885913
  0
LINE
  5
412
100
AcDbEntity
  8
03__ASM_ALL_CURVES
100
AcDbLine
 62
40
  6
CONTINUOUS
 10
7.3834329887
 20
2.7965823388
 11
7.3677568168
 21
2.7756807767
  0
LINE
  5
413
100
AcDbEntity
  8
03__ASM_ALL_CURVES
100
AcDbLine
 62
40
  6
CONTINUOUS
 10
7.2423474418
 20
2.8383854614
 11
7.2266712699
 21
2.8279346826
  0
LINE
  5
414
100
AcDbEntity
  8
03__ASM_ALL_CURVES
100
AcDbLine
 62
40
  6
CONTINUOUS
 10
7.3207283012
 20
2.8801885913
 11
7.336404473
 21
2.8906393701
  0
LINE
  5
415
100
AcDbEntity
  8
03__ASM_ALL_CURVES
100
AcDbLine
 62
40
  6
CONTINUOUS
 10
9.7345186912
 20
4.3722373364
 11
9.7188425193
 21
4.3617865576
  0
LINE
  5
416
100
AcDbEntity
  8
03__ASM_ALL_CURVES
100
AcDbLine
 62
40
  6
CONTINUOUS
 10
9.8128995506
 20
4.4140404663
 11
9.8285757224
 21
4.4244912451
  0
LINE
  5
417
100
AcDbEntity
  8
03__ASM_ALL_CURVES
100
AcDbLine
 62
40
  6
CONTINUOUS
 10
7.3677568168
 20
2.7756807767
 11
7.3520806449
 21
2.7652299951
  0
LINE
  5
418
100
AcDbEntity
  8
03__ASM_ALL_CURVES
100
AcDbLine
 62
40
  6
CONTINUOUS
 10
7.4931661918
 20
2.8383854614
 11
7.4774900199
 21
2.8279346826
  0
LINE
  5
419
100
AcDbEntity
  8
03__ASM_ALL_CURVES
100
AcDbLine
 62
40
  6
CONTINUOUS
 10
1.6326520908
 20
5.5750073701
 11
1.8333070908
 21
5.6084498701
  0
LINE
  5
41A
100
AcDbEntity
  8
0
100
AcDbLine
 62
7
  6
CONTINUOUS
 10
8.0236520908
 20
3.4043893701
 11
8.0236520908
 21
5.1268893701
  0
LINE
  5
41B
100
AcDbEntity
  8
0
100
AcDbLine
 62
7
  6
CONTINUOUS
 10
8.1266520908
 20
3.4043893701
 11
8.1266520908
 21
5.1268893701
  0
LINE
  5
41C
100
AcDbEntity
  8
0
100
AcDbLine
 62
7
  6
CONTINUOUS
 10
8.1766520908
 20
3.4043893701
 11
8.1766520908
 21
5.1268893701
  0
LINE
  5
41D
100
AcDbEntity
  8
0
100
AcDbLine
 62
7
  6
CONTINUOUS
 10
8.2111520908
 20
3.431153956
 11
8.2111520908
 21
5.1001247842
  0
LINE
  5
41E
100
AcDbEntity
  8
0
100
AcDbLine
 62
7
  6
CONTINUOUS
 10
8.2986520908
 20
3.4311393701
 11
8.2986520908
 21
5.1001393701
  0
LINE
  5
41F
100
AcDbEntity
  8
0
100
AcDbLine
 62
7
  6
CONTINUOUS
 10
8.3211520908
 20
3.4536615028
 11
8.3211520908
 21
5.0776172374
  0
LINE
  5
420
100
AcDbEntity
  8
03__ASM_ALL_CURVES
100
AcDbLine
 62
40
  6
CONTINUOUS
 10
7.5010042777
 20
2.8488362476
 11
7.4931661918
 21
2.8383854614
  0
LINE
  5
421
100
AcDbEntity
  8
03__ASM_ALL_CURVES
100
AcDbLine
 62
40
  6
CONTINUOUS
 10
7.6891183402
 20
2.8697378051
 11
7.6969564262
 21
2.8801885913
  0
LINE
  5
422
100
AcDbEntity
  8
03__ASM_ALL_CURVES
100
AcDbLine
 62
40
  6
CONTINUOUS
 10
7.712632598
 20
2.8174839001
 11
7.6969564262
 21
2.7965823388
  0
LINE
  5
423
100
AcDbEntity
  8
03__ASM_ALL_CURVES
100
AcDbLine
 62
40
  6
CONTINUOUS
 10
7.7518230277
 20
2.8488362476
 11
7.7439849418
 21
2.8383854614
  0
LINE
  5
424
100
AcDbEntity
  8
0
100
AcDbLine
 62
7
  6
CONTINUOUS
 10
8.3211520908
 20
3.4536393701
 11
8.2986520908
 21
3.4311393701
  0
LINE
  5
425
100
AcDbEntity
  8
03__ASM_ALL_CURVES
100
AcDbLine
 62
40
  6
CONTINUOUS
 10
7.6969564262
 20
2.8801885913
 11
7.712632598
 21
2.8906393701
  0
LINE
  5
426
100
AcDbEntity
  8
03__ASM_ALL_CURVES
100
AcDbLine
 62
40
  6
CONTINUOUS
 10
9.8599280662
 20
4.3095326517
 11
9.8442518943
 21
4.2990818701
  0
LINE
  5
427
100
AcDbEntity
  8
03__ASM_ALL_CURVES
100
AcDbLine
 62
40
  6
CONTINUOUS
 10
9.9853374412
 20
4.3722373364
 11
9.9696612693
 21
4.3617865576
  0
LINE
  5
428
100
AcDbEntity
  8
03__ASM_ALL_CURVES
100
AcDbLine
 62
40
  6
CONTINUOUS
 10
7.7439849418
 20
2.8383854614
 11
7.712632598
 21
2.8174839001
  0
LINE
  5
429
100
AcDbEntity
  8
03__ASM_ALL_CURVES
100
AcDbLine
 62
40
  6
CONTINUOUS
 10
9.8285757224
 20
4.2990818701
 11
9.8128995506
 21
4.3095326517
  0
LINE
  5
42A
100
AcDbEntity
  8
03__ASM_ALL_CURVES
100
AcDbLine
 62
40
  6
CONTINUOUS
 10
9.7188425193
 20
4.4244912451
 11
9.7345186912
 21
4.4140404663
  0
LINE
  5
42B
100
AcDbEntity
  8
03__ASM_ALL_CURVES
100
AcDbLine
 62
40
  6
CONTINUOUS
 10
9.8442518943
 20
4.4244912451
 11
9.8599280662
 21
4.4140404663
  0
LINE
  5
42C
100
AcDbEntity
  8
03__ASM_ALL_CURVES
100
AcDbLine
 62
40
  6
CONTINUOUS
 10
9.9696612693
 20
4.4244912451
 11
9.9853374412
 21
4.4140404663
  0
LINE
  5
42D
100
AcDbEntity
  8
0
100
AcDbLine
 62
7
  6
CONTINUOUS
 10
8.3211520908
 20
5.0776393701
 11
8.2986520908
 21
5.1001393701
  0
LINE
  5
42E
100
AcDbEntity
  8
0
100
AcDbLine
 62
7
  6
CONTINUOUS
 10
8.9796520908
 20
3.7586393701
 11
8.9666520908
 21
3.7456393701
  0
LINE
  5
42F
100
AcDbEntity
  8
0
100
AcDbLine
 62
7
  6
CONTINUOUS
 10
8.9796520908
 20
4.7726393701
 11
8.9666520908
 21
4.7856393701
  0
LINE
  5
430
100
AcDbEntity
  8
03__ASM_ALL_CURVES
100
AcDbLine
 62
40
  6
CONTINUOUS
 10
9.7423567771
 20
4.3826881226
 11
9.7345186912
 21
4.3722373364
  0
LINE
  5
431
100
AcDbEntity
  8
03__ASM_ALL_CURVES
100
AcDbLine
 62
40
  6
CONTINUOUS
 10
9.7972233787
 20
4.3931389013
 11
9.8128995506
 21
4.4140404663
  0
LINE
  5
432
100
AcDbEntity
  8
0
100
AcDbLine
 62
7
  6
CONTINUOUS
 10
8.9666520908
 20
3.7456393701
 11
8.9666520908
 21
4.7856393701
  0
LINE
  5
433
100
AcDbEntity
  8
0
100
AcDbLine
 62
7
  6
CONTINUOUS
 10
8.9796520908
 20
3.7586621507
 11
8.9796520908
 21
4.7726165894
  0
LINE
  5
434
100
AcDbEntity
  8
03__ASM_ALL_CURVES
100
AcDbLine
 62
40
  6
CONTINUOUS
 10
9.8756042381
 20
4.3304342138
 11
9.8599280662
 21
4.3095326517
  0
LINE
  5
435
100
AcDbEntity
  8
03__ASM_ALL_CURVES
100
AcDbLine
 62
40
  6
CONTINUOUS
 10
9.9931755271
 20
4.3826881226
 11
9.9853374412
 21
4.3722373364
  0
LINE
  5
436
100
AcDbEntity
  8
03__ASM_ALL_CURVES
100
AcDbLine
 62
40
  6
CONTINUOUS
 10
9.8128995506
 20
4.3095326517
 11
9.7972233787
 21
4.3304342138
  0
LINE
  5
437
100
AcDbEntity
  8
03__ASM_ALL_CURVES
100
AcDbLine
 62
40
  6
CONTINUOUS
 10
9.7345186912
 20
4.4140404663
 11
9.7423567771
 21
4.4035896801
  0
LINE
  5
438
100
AcDbEntity
  8
03__ASM_ALL_CURVES
100
AcDbLine
 62
40
  6
CONTINUOUS
 10
9.8599280662
 20
4.4140404663
 11
9.8756042381
 21
4.3931389013
  0
LINE
  5
439
100
AcDbEntity
  8
03__ASM_ALL_CURVES
100
AcDbLine
 62
40
  6
CONTINUOUS
 10
9.9853374412
 20
4.4140404663
 11
9.9931755271
 21
4.4035896801
  0
LINE
  5
43A
100
AcDbEntity
  8
03__ASM_ALL_CURVES
100
AcDbLine
 62
40
  6
CONTINUOUS
 10
9.6796520896
 20
4.2990818701
 11
9.6796520896
 21
4.4244912451
  0
LINE
  5
43B
100
AcDbEntity
  8
03__ASM_ALL_CURVES
100
AcDbLine
 62
40
  6
CONTINUOUS
 10
9.7423567771
 20
4.4035896801
 11
9.7423567771
 21
4.3826881226
  0
LINE
  5
43C
100
AcDbEntity
  8
03__ASM_ALL_CURVES
100
AcDbLine
 62
40
  6
CONTINUOUS
 10
9.7893852927
 20
4.3617865576
 11
9.7972233787
 21
4.3931389013
  0
LINE
  5
43D
100
AcDbEntity
  8
03__ASM_ALL_CURVES
100
AcDbLine
 62
40
  6
CONTINUOUS
 10
9.883442324
 20
4.3617865576
 11
9.8756042381
 21
4.3304342138
  0
LINE
  5
43E
100
AcDbEntity
  8
03__ASM_ALL_CURVES
100
AcDbLine
 62
40
  6
CONTINUOUS
 10
9.9696612693
 20
4.3617865576
 11
9.9931755271
 21
4.2990818701
  0
LINE
  5
43F
100
AcDbEntity
  8
03__ASM_ALL_CURVES
100
AcDbLine
 62
40
  6
CONTINUOUS
 10
9.7972233787
 20
4.3304342138
 11
9.7893852927
 21
4.3617865576
  0
LINE
  5
440
100
AcDbEntity
  8
03__ASM_ALL_CURVES
100
AcDbLine
 62
40
  6
CONTINUOUS
 10
9.8756042381
 20
4.3931389013
 11
9.883442324
 21
4.3617865576
  0
LINE
  5
441
100
AcDbEntity
  8
03__ASM_ALL_CURVES
100
AcDbLine
 62
40
  6
CONTINUOUS
 10
9.9304708396
 20
4.2990818701
 11
9.9304708396
 21
4.4244912451
  0
LINE
  5
442
100
AcDbEntity
  8
03__ASM_ALL_CURVES
100
AcDbLine
 62
40
  6
CONTINUOUS
 10
9.9931755271
 20
4.4035896801
 11
9.9931755271
 21
4.3826881226
  0
LINE
  5
443
100
AcDbEntity
  8
03__ASM_ALL_CURVES
100
AcDbLine
 62
40
  6
CONTINUOUS
 10
10.0872325584
 20
4.4244912451
 11
10.0872325584
 21
4.2990818701
  0
LINE
  5
444
100
AcDbEntity
  8
03__ASM_ALL_CURVES
100
AcDbLine
 62
40
  6
CONTINUOUS
 10
10.2126419334
 20
4.4244912451
 11
10.2126419334
 21
4.2990818701
  0
CIRCLE
  5
445
100
AcDbEntity
  8
0
100
AcDbCircle
 62
7
  6
CONTINUOUS
 10
5.8516520908
 20
4.2656393701
 40
0.156
  0
ARC
  5
446
100
AcDbEntity
  8
0
100
AcDbCircle
 62
7
  6
CONTINUOUS
 10
4.7726520908
 20
3.4541393701
 40
0.094
100
AcDbArc
 50
0.0000066186
 51
90.0
  0
ARC
  5
447
100
AcDbEntity
  8
0
100
AcDbCircle
 62
7
  6
CONTINUOUS
 10
4.7726520908
 20
5.0771393701
 40
0.094
100
AcDbArc
 50
270.0
 51
359.9999933814
  0
ARC
  5
448
100
AcDbEntity
  8
0
100
AcDbCircle
 62
7
  6
CONTINUOUS
 10
7.7856520908
 20
5.0468893701
 40
0.094
100
AcDbArc
 50
270.0
 51
359.9999936477
  0
ARC
  5
449
100
AcDbEntity
  8
0
100
AcDbCircle
 62
7
  6
CONTINUOUS
 10
7.7856520908
 20
3.4843893701
 40
0.094
100
AcDbArc
 50
0.0000063523
 51
90.0
  0
ARC
  5
44A
100
AcDbEntity
  8
0
100
AcDbCircle
 62
7
  6
CONTINUOUS
 10
6.8861520908
 20
5.0468893701
 40
0.094
100
AcDbArc
 50
180.000000275
 51
270.0
  0
ARC
  5
44B
100
AcDbEntity
  8
0
100
AcDbCircle
 62
7
  6
CONTINUOUS
 10
6.8861520908
 20
3.4843893701
 40
0.094
100
AcDbArc
 50
90.0
 51
179.999999725
  0
ARC
  5
44C
100
AcDbEntity
  8
0
100
AcDbCircle
 62
7
  6
CONTINUOUS
 10
6.2726520908
 20
5.0623893701
 40
0.094
100
AcDbArc
 50
270.0
 51
359.9999935119
  0
ARC
  5
44D
100
AcDbEntity
  8
0
100
AcDbCircle
 62
7
  6
CONTINUOUS
 10
6.2726520908
 20
3.4688893701
 40
0.094
100
AcDbArc
 50
0.0000064881
 51
90.0
  0
ARC
  5
44E
100
AcDbEntity
  8
0
100
AcDbCircle
 62
7
  6
CONTINUOUS
 10
5.3861520908
 20
5.0623893701
 40
0.094
100
AcDbArc
 50
180.0000002809
 51
270.0
  0
ARC
  5
44F
100
AcDbEntity
  8
0
100
AcDbCircle
 62
7
  6
CONTINUOUS
 10
5.3861520908
 20
3.4688893701
 40
0.094
100
AcDbArc
 50
90.0
 51
179.9999997191
  0
ARC
  5
450
100
AcDbEntity
  8
0
100
AcDbCircle
 62
7
  6
CONTINUOUS
 10
3.0130160622
 20
3.3716393701
 40
0.028
100
AcDbArc
 50
9.2483578877
 51
76.1357488605
  0
ARC
  5
451
100
AcDbEntity
  8
0
100
AcDbCircle
 62
7
  6
CONTINUOUS
 10
3.0130160622
 20
5.1596393701
 40
0.028
100
AcDbArc
 50
283.8642511395
 51
350.7516421123
  0
SPLINE
  5
452
100
AcDbEntity
  8
0
100
AcDbSpline
 62
7
  6
CONTINUOUS
 70
0
 71
3
 72
15
 73
11
 74
9
 42
0.0000001
 43
0.0000001
 44
0.0000000001
 12
0.0
 22
0.1617702498
 32
0.0
 13
-0.0
 23
-0.1617702498
 33
0.0
 40
0.0
 40
0.0
 40
0.0
 40
0.0
 40
0.125
 40
0.25
 40
0.375
 40
0.5
 40
0.625
 40
0.75
 40
0.875
 40
1.0
 40
1.0
 40
1.0
 40
1.0
 10
8.1266520908
 20
5.0903893701
 30
0.0
 10
8.1266520908
 20
5.0971297972
 30
0.0
 10
8.1239705822
 20
5.1106106513
 30
0.0
 10
8.1125161465
 20
5.1277534258
 30
0.0
 10
8.095373372
 20
5.1392078615
 30
0.0
 10
8.0751520908
 20
5.1432301244
 30
0.0
 10
8.0549308095
 20
5.1392078615
 30
0.0
 10
8.0377880351
 20
5.1277534258
 30
0.0
 10
8.0263335994
 20
5.1106106513
 30
0.0
 10
8.0236520908
 20
5.0971297972
 30
0.0
 10
8.0236520908
 20
5.0903893701
 30
0.0
 11
8.1266520908
 21
5.0903893701
 31
0.0
 11
8.1227318867
 21
5.1100975669
 31
0.0
 11
8.11156809
 21
5.1268053693
 31
0.0
 11
8.0948602875
 21
5.137969166
 31
0.0
 11
8.0751520908
 21
5.1418893701
 31
0.0
 11
8.055443894
 21
5.137969166
 31
0.0
 11
8.0387360915
 21
5.1268053693
 31
0.0
 11
8.0275722948
 21
5.1100975669
 31
0.0
 11
8.0236520908
 21
5.0903893701
 31
0.0
  0
SPLINE
  5
453
100
AcDbEntity
  8
0
100
AcDbSpline
 62
7
  6
CONTINUOUS
 70
0
 71
3
 72
15
 73
11
 74
9
 42
0.0000001
 43
0.0000001
 44
0.0000000001
 12
0.0
 22
-0.1617702498
 32
0.0
 13
-0.0
 23
0.1617702498
 33
0.0
 40
0.0
 40
0.0
 40
0.0
 40
0.0
 40
0.125
 40
0.25
 40
0.375
 40
0.5
 40
0.625
 40
0.75
 40
0.875
 40
1.0
 40
1.0
 40
1.0
 40
1.0
 10
8.1266520908
 20
3.4408893701
 30
0.0
 10
8.1266520908
 20
3.434148943
 30
0.0
 10
8.1239705822
 20
3.4206680889
 30
0.0
 10
8.1125161465
 20
3.4035253144
 30
0.0
 10
8.095373372
 20
3.3920708787
 30
0.0
 10
8.0751520908
 20
3.3880486158
 30
0.0
 10
8.0549308095
 20
3.3920708787
 30
0.0
 10
8.0377880351
 20
3.4035253144
 30
0.0
 10
8.0263335994
 20
3.4206680889
 30
0.0
 10
8.0236520908
 20
3.434148943
 30
0.0
 10
8.0236520908
 20
3.4408893701
 30
0.0
 11
8.1266520908
 21
3.4408893701
 31
0.0
 11
8.1227318867
 21
3.4211811733
 31
0.0
 11
8.11156809
 21
3.4044733709
 31
0.0
 11
8.0948602875
 21
3.3933095742
 31
0.0
 11
8.0751520908
 21
3.3893893701
 31
0.0
 11
8.055443894
 21
3.3933095742
 31
0.0
 11
8.0387360915
 21
3.4044733709
 31
0.0
 11
8.0275722948
 21
3.4211811733
 31
0.0
 11
8.0236520908
 21
3.4408893701
 31
0.0
  0
SPLINE
  5
454
100
AcDbEntity
  8
0
100
AcDbSpline
 62
7
  6
CONTINUOUS
 70
0
 71
3
 72
15
 73
11
 74
9
 42
0.0000001
 43
0.0000001
 44
0.0000000001
 12
0.0
 22
0.1617702498
 32
0.0
 13
0.0
 23
-0.1617702498
 33
0.0
 40
0.0
 40
0.0
 40
0.0
 40
0.0
 40
0.125
 40
0.25
 40
0.375
 40
0.5
 40
0.625
 40
0.75
 40
0.875
 40
1.0
 40
1.0
 40
1.0
 40
1.0
 10
6.6136520908
 20
5.0903893701
 30
0.0
 10
6.6136520908
 20
5.0971297972
 30
0.0
 10
6.6109705822
 20
5.1106106513
 30
0.0
 10
6.5995161465
 20
5.1277534258
 30
0.0
 10
6.582373372
 20
5.1392078615
 30
0.0
 10
6.5621520908
 20
5.1432301244
 30
0.0
 10
6.5419308095
 20
5.1392078615
 30
0.0
 10
6.5247880351
 20
5.1277534258
 30
0.0
 10
6.5133335994
 20
5.1106106513
 30
0.0
 10
6.5106520908
 20
5.0971297972
 30
0.0
 10
6.5106520908
 20
5.0903893701
 30
0.0
 11
6.6136520908
 21
5.0903893701
 31
0.0
 11
6.6097318867
 21
5.1100975669
 31
0.0
 11
6.59856809
 21
5.1268053693
 31
0.0
 11
6.5818602875
 21
5.137969166
 31
0.0
 11
6.5621520908
 21
5.1418893701
 31
0.0
 11
6.542443894
 21
5.137969166
 31
0.0
 11
6.5257360915
 21
5.1268053693
 31
0.0
 11
6.5145722948
 21
5.1100975669
 31
0.0
 11
6.5106520908
 21
5.0903893701
 31
0.0
  0
SPLINE
  5
455
100
AcDbEntity
  8
0
100
AcDbSpline
 62
7
  6
CONTINUOUS
 70
0
 71
3
 72
15
 73
11
 74
9
 42
0.0000001
 43
0.0000001
 44
0.0000000001
 12
0.0
 22
-0.1617702498
 32
0.0
 13
0.0
 23
0.1617702498
 33
0.0
 40
0.0
 40
0.0
 40
0.0
 40
0.0
 40
0.125
 40
0.25
 40
0.375
 40
0.5
 40
0.625
 40
0.75
 40
0.875
 40
1.0
 40
1.0
 40
1.0
 40
1.0
 10
6.6136520908
 20
3.4408893701
 30
0.0
 10
6.6136520908
 20
3.434148943
 30
0.0
 10
6.6109705822
 20
3.4206680889
 30
0.0
 10
6.5995161465
 20
3.4035253144
 30
0.0
 10
6.582373372
 20
3.3920708787
 30
0.0
 10
6.5621520908
 20
3.3880486158
 30
0.0
 10
6.5419308095
 20
3.3920708787
 30
0.0
 10
6.5247880351
 20
3.4035253144
 30
0.0
 10
6.5133335994
 20
3.4206680889
 30
0.0
 10
6.5106520908
 20
3.434148943
 30
0.0
 10
6.5106520908
 20
3.4408893701
 30
0.0
 11
6.6136520908
 21
3.4408893701
 31
0.0
 11
6.6097318867
 21
3.4211811733
 31
0.0
 11
6.59856809
 21
3.4044733709
 31
0.0
 11
6.5818602875
 21
3.3933095742
 31
0.0
 11
6.5621520908
 21
3.3893893701
 31
0.0
 11
6.542443894
 21
3.3933095742
 31
0.0
 11
6.5257360915
 21
3.4044733709
 31
0.0
 11
6.5145722948
 21
3.4211811733
 31
0.0
 11
6.5106520908
 21
3.4408893701
 31
0.0
  0
SPLINE
  5
456
100
AcDbEntity
  8
0
100
AcDbSpline
 62
7
  6
CONTINUOUS
 70
0
 71
3
 72
15
 73
11
 74
9
 42
0.0000001
 43
0.0000001
 44
0.0000000001
 12
0.0
 22
0.1617702498
 32
0.0
 13
0.0
 23
-0.1617702498
 33
0.0
 40
0.0
 40
0.0
 40
0.0
 40
0.0
 40
0.125
 40
0.25
 40
0.375
 40
0.5
 40
0.625
 40
0.75
 40
0.875
 40
1.0
 40
1.0
 40
1.0
 40
1.0
 10
5.1136520908
 20
5.1133893701
 30
0.0
 10
5.1136520908
 20
5.1201297972
 30
0.0
 10
5.1109705822
 20
5.1336106513
 30
0.0
 10
5.0995161465
 20
5.1507534258
 30
0.0
 10
5.082373372
 20
5.1622078615
 30
0.0
 10
5.0621520908
 20
5.1662301244
 30
0.0
 10
5.0419308095
 20
5.1622078615
 30
0.0
 10
5.0247880351
 20
5.1507534258
 30
0.0
 10
5.0133335994
 20
5.1336106513
 30
0.0
 10
5.0106520908
 20
5.1201297972
 30
0.0
 10
5.0106520908
 20
5.1133893701
 30
0.0
 11
5.1136520908
 21
5.1133893701
 31
0.0
 11
5.1097318867
 21
5.1330975669
 31
0.0
 11
5.09856809
 21
5.1498053693
 31
0.0
 11
5.0818602875
 21
5.160969166
 31
0.0
 11
5.0621520908
 21
5.1648893701
 31
0.0
 11
5.042443894
 21
5.160969166
 31
0.0
 11
5.0257360915
 21
5.1498053693
 31
0.0
 11
5.0145722948
 21
5.1330975669
 31
0.0
 11
5.0106520908
 21
5.1133893701
 31
0.0
  0
SPLINE
  5
457
100
AcDbEntity
  8
0
100
AcDbSpline
 62
7
  6
CONTINUOUS
 70
0
 71
3
 72
15
 73
11
 74
9
 42
0.0000001
 43
0.0000001
 44
0.0000000001
 12
0.0
 22
-0.1617702498
 32
0.0
 13
0.0
 23
0.1617702498
 33
0.0
 40
0.0
 40
0.0
 40
0.0
 40
0.0
 40
0.125
 40
0.25
 40
0.375
 40
0.5
 40
0.625
 40
0.75
 40
0.875
 40
1.0
 40
1.0
 40
1.0
 40
1.0
 10
5.1136520908
 20
3.4178893701
 30
0.0
 10
5.1136520908
 20
3.411148943
 30
0.0
 10
5.1109705822
 20
3.3976680889
 30
0.0
 10
5.0995161465
 20
3.3805253144
 30
0.0
 10
5.082373372
 20
3.3690708787
 30
0.0
 10
5.0621520908
 20
3.3650486158
 30
0.0
 10
5.0419308095
 20
3.3690708787
 30
0.0
 10
5.0247880351
 20
3.3805253144
 30
0.0
 10
5.0133335994
 20
3.3976680889
 30
0.0
 10
5.0106520908
 20
3.411148943
 30
0.0
 10
5.0106520908
 20
3.4178893701
 30
0.0
 11
5.1136520908
 21
3.4178893701
 31
0.0
 11
5.1097318867
 21
3.3981811733
 31
0.0
 11
5.09856809
 21
3.3814733709
 31
0.0
 11
5.0818602875
 21
3.3703095742
 31
0.0
 11
5.0621520908
 21
3.3663893701
 31
0.0
 11
5.042443894
 21
3.3703095742
 31
0.0
 11
5.0257360915
 21
3.3814733709
 31
0.0
 11
5.0145722948
 21
3.3981811733
 31
0.0
 11
5.0106520908
 21
3.4178893701
 31
0.0
  0
SPLINE
  5
458
100
AcDbEntity
  8
0
100
AcDbSpline
 62
7
  6
CONTINUOUS
 70
0
 71
3
 72
15
 73
11
 74
9
 42
0.0000001
 43
0.0000001
 44
0.0000000001
 12
0.0
 22
0.1617702498
 32
0.0
 13
0.0
 23
-0.1617702498
 33
0.0
 40
0.0
 40
0.0
 40
0.0
 40
0.0
 40
0.125
 40
0.25
 40
0.375
 40
0.5
 40
0.625
 40
0.75
 40
0.875
 40
1.0
 40
1.0
 40
1.0
 40
1.0
 10
2.9696520908
 20
5.1831393701
 30
0.0
 10
2.9696520908
 20
5.1898797972
 30
0.0
 10
2.9669705822
 20
5.2033606513
 30
0.0
 10
2.9555161465
 20
5.2205034258
 30
0.0
 10
2.938373372
 20
5.2319578615
 30
0.0
 10
2.9181520908
 20
5.2359801244
 30
0.0
 10
2.8979308095
 20
5.2319578615
 30
0.0
 10
2.8807880351
 20
5.2205034258
 30
0.0
 10
2.8693335994
 20
5.2033606513
 30
0.0
 10
2.8666520908
 20
5.1898797972
 30
0.0
 10
2.8666520908
 20
5.1831393701
 30
0.0
 11
2.9696520908
 21
5.1831393701
 31
0.0
 11
2.9657318867
 21
5.2028475669
 31
0.0
 11
2.95456809
 21
5.2195553693
 31
0.0
 11
2.9378602875
 21
5.230719166
 31
0.0
 11
2.9181520908
 21
5.2346393701
 31
0.0
 11
2.898443894
 21
5.230719166
 31
0.0
 11
2.8817360915
 21
5.2195553693
 31
0.0
 11
2.8705722948
 21
5.2028475669
 31
0.0
 11
2.8666520908
 21
5.1831393701
 31
0.0
  0
SPLINE
  5
459
100
AcDbEntity
  8
0
100
AcDbSpline
 62
7
  6
CONTINUOUS
 70
0
 71
3
 72
15
 73
11
 74
9
 42
0.0000001
 43
0.0000001
 44
0.0000000001
 12
0.0
 22
-0.1617702498
 32
0.0
 13
0.0
 23
0.1617702498
 33
0.0
 40
0.0
 40
0.0
 40
0.0
 40
0.0
 40
0.125
 40
0.25
 40
0.375
 40
0.5
 40
0.625
 40
0.75
 40
0.875
 40
1.0
 40
1.0
 40
1.0
 40
1.0
 10
2.9696520908
 20
3.3481393701
 30
0.0
 10
2.9696520908
 20
3.341398943
 30
0.0
 10
2.9669705822
 20
3.3279180889
 30
0.0
 10
2.9555161465
 20
3.3107753144
 30
0.0
 10
2.938373372
 20
3.2993208787
 30
0.0
 10
2.9181520908
 20
3.2952986158
 30
0.0
 10
2.8979308095
 20
3.2993208787
 30
0.0
 10
2.8807880351
 20
3.3107753144
 30
0.0
 10
2.8693335994
 20
3.3279180889
 30
0.0
 10
2.8666520908
 20
3.341398943
 30
0.0
 10
2.8666520908
 20
3.3481393701
 30
0.0
 11
2.9696520908
 21
3.3481393701
 31
0.0
 11
2.9657318867
 21
3.3284311733
 31
0.0
 11
2.95456809
 21
3.3117233709
 31
0.0
 11
2.9378602875
 21
3.3005595742
 31
0.0
 11
2.9181520908
 21
3.2966393701
 31
0.0
 11
2.898443894
 21
3.3005595742
 31
0.0
 11
2.8817360915
 21
3.3117233709
 31
0.0
 11
2.8705722948
 21
3.3284311733
 31
0.0
 11
2.8666520908
 21
3.3481393701
 31
0.0
  0
SPLINE
  5
45A
100
AcDbEntity
  8
0
100
AcDbSpline
 62
7
  6
CONTINUOUS
 70
0
 71
3
 72
15
 73
11
 74
9
 42
0.0000001
 43
0.0000001
 44
0.0000000001
 12
-0.2213747391
 22
0.4040882383
 32
0.0
 13
0.2213747391
 23
0.4040882383
 33
0.0
 40
0.0
 40
0.0
 40
0.0
 40
0.0
 40
0.1363385306
 40
0.2625242499
 40
0.3826814249
 40
0.5000474403
 40
0.6174094987
 40
0.7375563123
 40
0.8636900968
 40
1.0
 40
1.0
 40
1.0
 40
1.0
 10
1.699624722
 20
3.3430347115
 30
0.0
 10
1.6895640864
 20
3.3613989771
 30
0.0
 10
1.6716168829
 20
3.3975827528
 30
0.0
 10
1.6511954352
 20
3.4528334706
 30
0.0
 10
1.6386712558
 20
3.5074565132
 30
0.0
 10
1.6344250705
 20
3.5620107607
 30
0.0
 10
1.638677775
 20
3.6165628583
 30
0.0
 10
1.6512050444
 20
3.671174642
 30
0.0
 10
1.6716242112
 20
3.7264111181
 30
0.0
 10
1.6895661989
 20
3.7625836191
 30
0.0
 10
1.699624722
 20
3.7809440286
 30
0.0
 11
1.699624722
 21
3.3430347115
 31
0.0
 11
1.6719848729
 21
3.3994457253
 31
0.0
 11
1.6520972693
 21
3.4540791124
 31
0.0
 11
1.6399409527
 21
3.5080908899
 31
0.0
 11
1.6358304242
 21
3.5620112768
 31
0.0
 11
1.6399472581
 21
3.6159293542
 31
0.0
 11
1.652107839
 21
3.6699352783
 31
0.0
 11
1.6719900793
 21
3.7245451523
 31
0.0
 11
1.699624722
 21
3.7809440286
 31
0.0
  0
SPLINE
  5
45B
100
AcDbEntity
  8
0
100
AcDbSpline
 62
7
  6
CONTINUOUS
 70
0
 71
3
 72
15
 73
11
 74
9
 42
0.0000001
 43
0.0000001
 44
0.0000000001
 12
-0.2344928018
 22
0.8560668082
 32
0.0
 13
0.2344928018
 23
0.8560668082
 33
0.0
 40
0.0
 40
0.0
 40
0.0
 40
0.0
 40
0.130867655
 40
0.2559934432
 40
0.3784643323
 40
0.5000493322
 40
0.6216294027
 40
0.7440877225
 40
0.8691603039
 40
1.0
 40
1.0
 40
1.0
 40
1.0
 10
1.699624722
 20
3.827730053
 30
0.0
 10
1.6893955476
 20
3.8650738716
 30
0.0
 10
1.6712229145
 20
3.9386489723
 30
0.0
 10
1.6509725159
 20
4.0488537559
 30
0.0
 10
1.6386148929
 20
4.1574766147
 30
0.0
 10
1.6344416221
 20
4.2656817696
 30
0.0
 10
1.638621315
 20
4.373882935
 30
0.0
 10
1.65098213
 20
4.4824843267
 30
0.0
 10
1.6712304722
 20
4.5926611872
 30
0.0
 10
1.689397733
 20
4.6662128469
 30
0.0
 10
1.699624722
 20
4.7035486872
 30
0.0
 11
1.699624722
 21
3.827730053
 31
0.0
 11
1.6719848729
 21
3.9405520805
 31
0.0
 11
1.6520972693
 21
4.0498188547
 31
0.0
 11
1.6399409527
 21
4.1578424097
 31
0.0
 11
1.6358304242
 21
4.2656831836
 31
0.0
 11
1.6399472581
 21
4.3735193384
 31
0.0
 11
1.652107839
 21
4.4815311864
 31
0.0
 11
1.6719900793
 21
4.5907509345
 31
0.0
 11
1.699624722
 21
4.7035486872
 31
0.0
  0
SPLINE
  5
45C
100
AcDbEntity
  8
0
100
AcDbSpline
 62
7
  6
CONTINUOUS
 70
0
 71
3
 72
15
 73
11
 74
9
 42
0.0000001
 43
0.0000001
 44
0.0000000001
 12
-0.2213747391
 22
0.4040882383
 32
0.0
 13
0.2213747391
 23
0.4040882383
 33
0.0
 40
0.0
 40
0.0
 40
0.0
 40
0.0
 40
0.1363385306
 40
0.2625242499
 40
0.3826814249
 40
0.5000474403
 40
0.6174094987
 40
0.7375563123
 40
0.8636900968
 40
1.0
 40
1.0
 40
1.0
 40
1.0
 10
1.699624722
 20
4.7503347115
 30
0.0
 10
1.6895640864
 20
4.7686989771
 30
0.0
 10
1.6716168829
 20
4.8048827528
 30
0.0
 10
1.6511954352
 20
4.8601334706
 30
0.0
 10
1.6386712558
 20
4.9147565132
 30
0.0
 10
1.6344250705
 20
4.9693107607
 30
0.0
 10
1.638677775
 20
5.0238628583
 30
0.0
 10
1.6512050444
 20
5.078474642
 30
0.0
 10
1.6716242112
 20
5.1337111181
 30
0.0
 10
1.6895661989
 20
5.1698836191
 30
0.0
 10
1.699624722
 20
5.1882440286
 30
0.0
 11
1.699624722
 21
4.7503347115
 31
0.0
 11
1.6719848729
 21
4.8067457253
 31
0.0
 11
1.6520972693
 21
4.8613791124
 31
0.0
 11
1.6399409527
 21
4.9153908899
 31
0.0
 11
1.6358304242
 21
4.9693112768
 31
0.0
 11
1.6399472581
 21
5.0232293542
 31
0.0
 11
1.652107839
 21
5.0772352783
 31
0.0
 11
1.6719900793
 21
5.1318451523
 31
0.0
 11
1.699624722
 21
5.1882440286
 31
0.0
  0
SPLINE
  5
45D
100
AcDbEntity
  8
0
100
AcDbSpline
 62
7
  6
CONTINUOUS
 70
0
 71
3
 72
8
 73
4
 74
2
 42
0.0000001
 43
0.0000001
 44
0.0000000001
 12
-0.0023656203
 22
-0.0001774224
 32
0.0
 13
-0.0023664042
 23
-0.0001667679
 33
0.0
 40
0.0
 40
0.0
 40
0.0
 40
0.0
 40
1.0
 40
1.0
 40
1.0
 40
1.0
 10
8.9236520908
 20
4.7856393701
 30
0.0
 10
8.9228635507
 20
4.7855802293
 30
0.0
 10
8.9220748759
 20
4.7855228624
 30
0.0
 10
8.9212860745
 20
4.7854672731
 30
0.0
 11
8.9236520908
 21
4.7856393701
 31
0.0
 11
8.9212860745
 21
4.7854672731
 31
0.0
  0
SPLINE
  5
45E
100
AcDbEntity
  8
0
100
AcDbSpline
 62
7
  6
CONTINUOUS
 70
0
 71
3
 72
14
 73
10
 74
8
 42
0.0000001
 43
0.0000001
 44
0.0000000001
 12
-0.0731520438
 22
-0.0051552515
 32
0.0
 13
-0.0731519846
 23
0.0051560884
 33
0.0
 40
0.0
 40
0.0
 40
0.0
 40
0.0
 40
0.0958039039
 40
0.2391656767
 40
0.4106318181
 40
0.5934913826
 40
0.7652427098
 40
0.9057046459
 40
1.0
 40
1.0
 40
1.0
 40
1.0
 10
8.9212860745
 20
4.7854672731
 30
0.0
 10
8.9189499907
 20
4.785302642
 30
0.0
 10
8.9131153977
 20
4.7849305777
 30
0.0
 10
8.903088105
 20
4.7844596299
 30
0.0
 10
8.890924952
 20
4.784158476
 30
0.0
 10
8.8780638502
 20
4.7841623023
 30
0.0
 10
8.8659647756
 20
4.7844693044
 30
0.0
 10
8.8560383992
 20
4.7849397577
 30
0.0
 10
8.8503113987
 20
4.7853056313
 30
0.0
 10
8.8480121012
 20
4.7854676964
 30
0.0
 11
8.9212860745
 21
4.7854672731
 31
0.0
 11
8.9142746965
 21
4.7850202503
 31
0.0
 11
8.9037730747
 21
4.7845272308
 31
0.0
 11
8.8912027488
 21
4.7842161832
 31
0.0
 11
8.8777930587
 21
4.7842201703
 31
0.0
 11
8.8652020191
 21
4.7845394619
 31
0.0
 11
8.8549130253
 21
4.7850269056
 31
0.0
 11
8.8480121012
 21
4.7854676964
 31
0.0
  0
SPLINE
  5
45F
100
AcDbEntity
  8
0
100
AcDbSpline
 62
7
  6
CONTINUOUS
 70
0
 71
3
 72
8
 73
4
 74
2
 42
0.0000001
 43
0.0000001
 44
0.0000000001
 12
-0.0023603965
 22
0.0001663716
 32
0.0
 13
-0.0023596165
 23
0.0001769721
 33
0.0
 40
0.0
 40
0.0
 40
0.0
 40
0.0
 40
1.0
 40
1.0
 40
1.0
 40
1.0
 10
8.8480121012
 20
4.7854676964
 30
0.0
 10
8.8472253024
 20
4.7855231536
 30
0.0
 10
8.8464386296
 20
4.7855803794
 30
0.0
 10
8.8456520908
 20
4.7856393701
 30
0.0
 11
8.8480121012
 21
4.7854676964
 31
0.0
 11
8.8456520908
 21
4.7856393701
 31
0.0
  0
SPLINE
  5
460
100
AcDbEntity
  8
0
100
AcDbSpline
 62
7
  6
CONTINUOUS
 70
0
 71
3
 72
9
 73
5
 74
3
 42
0.0000001
 43
0.0000001
 44
0.0000000001
 12
-0.0069184209
 22
-0.0173511467
 32
0.0
 13
0.0000073248
 23
-0.0186902061
 33
0.0
 40
0.0
 40
0.0
 40
0.0
 40
0.0
 40
0.0780801822
 40
1.0
 40
1.0
 40
1.0
 40
1.0
 10
4.3057208965
 20
4.0182727505
 30
0.0
 10
4.3055408327
 20
4.0178211569
 30
0.0
 10
4.3033155941
 20
4.0120043914
 30
0.0
 10
4.3021498398
 20
4.0057829937
 30
0.0
 10
4.3021520908
 20
4.0000393699
 30
0.0
 11
4.3057208965
 21
4.0182727505
 31
0.0
 11
4.3051997978
 21
4.0169103418
 31
0.0
 11
4.3021520908
 21
4.0000393699
 31
0.0
  0
SPLINE
  5
461
100
AcDbEntity
  8
0
100
AcDbSpline
 62
7
  6
CONTINUOUS
 70
0
 71
3
 72
10
 73
6
 74
4
 42
0.0000001
 43
0.0000001
 44
0.0000000001
 12
-0.0241068444
 22
-0.0280858575
 32
0.0
 13
0.0000145204
 23
-0.0370507561
 33
0.0
 40
0.0
 40
0.0
 40
0.0
 40
0.0
 40
0.0489132498
 40
0.5349387377
 40
1.0
 40
1.0
 40
1.0
 40
1.0
 10
7.61823357
 20
4.0338660792
 30
0.0
 10
7.617840522
 20
4.0334081556
 30
0.0
 10
7.6136185652
 20
4.0283335395
 30
0.0
 10
7.607347751
 20
4.0175128065
 30
0.0
 10
7.6051498398
 20
4.0057829937
 30
0.0
 10
7.6051520908
 20
4.0000393699
 30
0.0
 11
7.61823357
 21
4.0338660792
 31
0.0
 11
7.6170756875
 21
4.0324741712
 31
0.0
 11
7.6081997978
 21
4.0169103418
 31
0.0
 11
7.6051520908
 21
4.0000393699
 31
0.0
  0
SPLINE
  5
462
100
AcDbEntity
  8
0
100
AcDbSpline
 62
7
  6
CONTINUOUS
 70
0
 71
3
 72
9
 73
5
 74
3
 42
0.0000001
 43
0.0000001
 44
0.0000000001
 12
0.0078032708
 22
0.0183091229
 32
0.0
 13
-0.0000078056
 23
0.0199170115
 33
0.0
 40
0.0
 40
0.0
 40
0.0
 40
0.0
 40
0.1348666246
 40
1.0
 40
1.0
 40
1.0
 40
1.0
 10
4.0851158592
 20
4.5118726174
 30
0.0
 10
4.0854666595
 20
4.5126957139
 30
0.0
 10
4.0879120685
 20
4.5188659828
 30
0.0
 10
4.0891543417
 20
4.5254957465
 30
0.0
 10
4.0891520908
 20
4.5312393703
 30
0.0
 11
4.0851158592
 21
4.5118726174
 31
0.0
 11
4.0861043838
 21
4.5143683983
 31
0.0
 11
4.0891520908
 21
4.5312393703
 31
0.0
  0
SPLINE
  5
463
100
AcDbEntity
  8
0
100
AcDbSpline
 62
7
  6
CONTINUOUS
 70
0
 71
3
 72
9
 73
5
 74
3
 42
0.0000001
 43
0.0000001
 44
0.0000000001
 12
0.0109995155
 22
0.0212320478
 32
0.0
 13
-0.0000093784
 23
0.0239303364
 33
0.0
 40
0.0
 40
0.0
 40
0.0
 40
0.0
 40
0.2799569926
 40
1.0
 40
1.0
 40
1.0
 40
1.0
 10
7.3864058331
 20
4.50824637
 30
0.0
 10
7.3874322969
 20
4.5102277234
 30
0.0
 10
7.3906617475
 20
4.5175300697
 30
0.0
 10
7.3921543417
 20
4.5254957465
 30
0.0
 10
7.3921520908
 20
4.5312393703
 30
0.0
 11
7.3864058331
 21
4.50824637
 31
0.0
 11
7.3891043838
 21
4.5143683983
 31
0.0
 11
7.3921520908
 21
4.5312393703
 31
0.0
  0
SPLINE
  5
464
100
AcDbEntity
  8
0
100
AcDbSpline
 62
7
  6
CONTINUOUS
 70
0
 71
3
 72
9
 73
5
 74
3
 42
0.0000001
 43
0.0000001
 44
0.0000000001
 12
0.0000093656
 22
0.0239303603
 32
0.0
 13
-0.0109995342
 23
0.0212320555
 33
0.0
 40
0.0
 40
0.0
 40
0.0
 40
0.0
 40
0.720082517
 40
1.0
 40
1.0
 40
1.0
 40
1.0
 10
7.3921520908
 20
4.0000393703
 30
0.0
 10
7.3921543388
 20
4.005783315
 30
0.0
 10
7.3906616567
 20
4.0137490077
 30
0.0
 10
7.3874321394
 20
4.0210513279
 30
0.0
 10
7.3864058188
 20
4.0230324024
 30
0.0
 11
7.3921520908
 21
4.0000393703
 31
0.0
 11
7.3891040485
 21
4.016911256
 31
0.0
 11
7.3864058188
 21
4.0230324024
 31
0.0
  0
SPLINE
  5
465
100
AcDbEntity
  8
0
100
AcDbSpline
 62
7
  6
CONTINUOUS
 70
0
 71
3
 72
10
 73
6
 74
4
 42
0.0000001
 43
0.0000001
 44
0.0000000001
 12
-0.0000145005
 22
-0.0370507474
 32
0.0
 13
0.0241068461
 23
-0.0280858496
 33
0.0
 40
0.0
 40
0.0
 40
0.0
 40
0.0
 40
0.4650873547
 40
0.9510968083
 40
1.0
 40
1.0
 40
1.0
 40
1.0
 10
7.6051520908
 20
4.5312393699
 30
0.0
 10
7.6051498428
 20
4.5254954252
 30
0.0
 10
7.6073479039
 20
4.5137654794
 30
0.0
 10
7.6136188351
 20
4.5029448451
 30
0.0
 10
7.6178406019
 20
4.497870492
 30
0.0
 10
7.6182335691
 20
4.4974126628
 30
0.0
 11
7.6051520908
 21
4.5312393699
 31
0.0
 11
7.608200133
 21
4.5143674842
 31
0.0
 11
7.6170759203
 21
4.4988042803
 31
0.0
 11
7.6182335691
 21
4.4974126628
 31
0.0
  0
SPLINE
  5
466
100
AcDbEntity
  8
0
100
AcDbSpline
 62
7
  6
CONTINUOUS
 70
0
 71
3
 72
9
 73
5
 74
3
 42
0.0000001
 43
0.0000001
 44
0.0000000001
 12
-0.0000073148
 22
-0.0186902337
 32
0.0
 13
0.0069184376
 23
-0.0173511755
 33
0.0
 40
0.0
 40
0.0
 40
0.0
 40
0.0
 40
0.9219699658
 40
1.0
 40
1.0
 40
1.0
 40
1.0
 10
4.3021520908
 20
4.5312393699
 30
0.0
 10
4.3021498428
 20
4.5254954252
 30
0.0
 10
4.3033156662
 20
4.5192740121
 30
0.0
 10
4.3055409621
 20
4.5134572572
 30
0.0
 10
4.3057209107
 20
4.513005953
 30
0.0
 11
4.3021520908
 21
4.5312393699
 31
0.0
 11
4.305200133
 21
4.5143674842
 31
0.0
 11
4.3057209107
 21
4.513005953
 31
0.0
  0
SPLINE
  5
467
100
AcDbEntity
  8
0
100
AcDbSpline
 62
7
  6
CONTINUOUS
 70
0
 71
3
 72
9
 73
5
 74
3
 42
0.0000001
 43
0.0000001
 44
0.0000000001
 12
0.0000077949
 22
0.0199170318
 32
0.0
 13
-0.0078032832
 23
0.0183091416
 33
0.0
 40
0.0
 40
0.0
 40
0.0
 40
0.0
 40
0.8651808294
 40
1.0
 40
1.0
 40
1.0
 40
1.0
 10
4.0891520908
 20
4.0000393703
 30
0.0
 10
4.0891543388
 20
4.005783315
 30
0.0
 10
4.0879119924
 20
4.0124130921
 30
0.0
 10
4.0854665249
 20
4.0185833452
 30
0.0
 10
4.0851158475
 20
4.0194061529
 30
0.0
 11
4.0891520908
 21
4.0000393703
 31
0.0
 11
4.0861040485
 21
4.016911256
 31
0.0
 11
4.0851158475
 21
4.0194061529
 31
0.0
  0
SPLINE
  5
468
100
AcDbEntity
  8
0
100
AcDbSpline
 62
7
  6
CONTINUOUS
 70
0
 71
3
 72
11
 73
7
 74
5
 42
0.0000001
 43
0.0000001
 44
0.0000000001
 12
-0.000024487
 22
0.0624817512
 32
0.0
 13
-0.0579475018
 23
0.0230420323
 33
0.0
 40
0.0
 40
0.0
 40
0.0
 40
0.0
 40
0.2702514641
 40
0.545681526
 40
0.8346580023
 40
1.0
 40
1.0
 40
1.0
 40
1.0
 10
7.3921520908
 20
4.5312393703
 30
0.0
 10
7.3921498849
 20
4.5368679652
 30
0.0
 10
7.3900570576
 20
4.5482485121
 30
0.0
 10
7.3807890344
 20
4.5632908168
 30
0.0
 10
7.3688246586
 20
4.5729522148
 30
0.0
 10
7.3603167638
 20
4.5771016651
 30
0.0
 10
7.3571230452
 20
4.5783716037
 30
0.0
 11
7.3921520908
 21
4.5312393703
 31
0.0
 11
7.3891040485
 21
4.5477612586
 31
0.0
 11
7.3802282613
 21
4.5624038316
 31
0.0
 11
7.3663690946
 21
4.5738343391
 31
0.0
 11
7.3571230452
 21
4.5783716037
 31
0.0
  0
SPLINE
  5
469
100
AcDbEntity
  8
0
100
AcDbSpline
 62
7
  6
CONTINUOUS
 70
0
 71
3
 72
8
 73
4
 74
2
 42
0.0000001
 43
0.0000001
 44
0.0000000001
 12
-0.0035139
 22
0.0013972543
 32
0.0
 13
-0.0035861624
 23
0.0012044322
 33
0.0
 40
0.0
 40
0.0
 40
0.0
 40
0.0
 40
1.0
 40
1.0
 40
1.0
 40
1.0
 10
7.3571230452
 20
4.5783716037
 30
0.0
 10
7.3559517452
 20
4.5788373551
 30
0.0
 10
7.3547673436
 20
4.5792707997
 30
0.0
 10
7.3535719561
 20
4.5796722771
 30
0.0
 11
7.3571230452
 21
4.5783716037
 31
0.0
 11
7.3535719561
 21
4.5796722771
 31
0.0
  0
SPLINE
  5
46A
100
AcDbEntity
  8
0
100
AcDbSpline
 62
7
  6
CONTINUOUS
 70
0
 71
3
 72
12
 73
8
 74
6
 42
0.0000001
 43
0.0000001
 44
0.0000000001
 12
-0.083983662
 22
-0.0067027594
 32
0.0
 13
-0.0000330615
 23
-0.0844763853
 33
0.0
 40
0.0
 40
0.0
 40
0.0
 40
0.0
 40
0.1580739351
 40
0.3826703237
 40
0.5963986243
 40
0.8001233588
 40
1.0
 40
1.0
 40
1.0
 40
1.0
 10
7.6615025115
 20
4.5832764045
 30
0.0
 10
7.6570773022
 20
4.5829232273
 30
0.0
 10
7.6464188823
 20
4.5811398386
 30
0.0
 10
7.6307464945
 20
4.5747829573
 30
0.0
 10
7.6165146199
 20
4.5632902121
 30
0.0
 10
7.6072469754
 20
4.5482480717
 30
0.0
 10
7.6051542935
 20
4.5368676553
 30
0.0
 10
7.6051520908
 20
4.5312393699
 30
0.0
 11
7.6615025115
 21
4.5832764045
 31
0.0
 11
7.6483745177
 21
4.5810581786
 31
0.0
 11
7.6309341246
 21
4.5738337675
 31
0.0
 11
7.6170756875
 21
4.5624035651
 31
0.0
 11
7.6081997978
 21
4.547760382
 31
0.0
 11
7.6051520908
 21
4.5312393699
 31
0.0
  0
SPLINE
  5
46B
100
AcDbEntity
  8
0
100
AcDbSpline
 62
7
  6
CONTINUOUS
 70
0
 71
3
 72
11
 73
7
 74
5
 42
0.0000001
 43
0.0000001
 44
0.0000000001
 12
-0.0000278738
 22
0.0711236795
 32
0.0
 13
-0.0687081941
 23
0.018028953
 33
0.0
 40
0.0
 40
0.0
 40
0.0
 40
0.0
 40
0.2374143866
 40
0.4793781421
 40
0.7332423463
 40
1.0
 40
1.0
 40
1.0
 40
1.0
 10
4.0891520908
 20
4.5312393703
 30
0.0
 10
4.0891498849
 20
4.5368679652
 30
0.0
 10
4.0870570576
 20
4.5482485121
 30
0.0
 10
4.0777890344
 20
4.5632908168
 30
0.0
 10
4.0635570177
 20
4.5747833659
 30
0.0
 10
4.052038359
 20
4.579455264
 30
0.0
 10
4.0459288801
 20
4.5810583844
 30
0.0
 11
4.0891520908
 21
4.5312393703
 31
0.0
 11
4.0861040485
 21
4.5477612586
 31
0.0
 11
4.0772282613
 21
4.5624038316
 31
0.0
 11
4.0633690946
 21
4.5738343391
 31
0.0
 11
4.0459288801
 21
4.5810583844
 31
0.0
  0
SPLINE
  5
46C
100
AcDbEntity
  8
0
100
AcDbSpline
 62
7
  6
CONTINUOUS
 70
0
 71
3
 72
8
 73
4
 74
2
 42
0.0000001
 43
0.0000001
 44
0.0000000001
 12
-0.0036194917
 22
0.0009497505
 32
0.0
 13
-0.0036627215
 23
0.0007652817
 33
0.0
 40
0.0
 40
0.0
 40
0.0
 40
0.0
 40
1.0
 40
1.0
 40
1.0
 40
1.0
 10
4.0459288801
 20
4.5810583844
 30
0.0
 10
4.0447223829
 20
4.5813749679
 30
0.0
 10
4.0435077929
 20
4.5816607164
 30
0.0
 10
4.0422868857
 20
4.5819158103
 30
0.0
 11
4.0459288801
 21
4.5810583844
 31
0.0
 11
4.0422868857
 21
4.5819158103
 31
0.0
  0
SPLINE
  5
46D
100
AcDbEntity
  8
0
100
AcDbSpline
 62
7
  6
CONTINUOUS
 70
0
 71
3
 72
12
 73
8
 74
6
 42
0.0000001
 43
0.0000001
 44
0.0000000001
 12
0.0000331017
 22
-0.0844632837
 32
0.0
 13
0.0839697828
 23
-0.006716003
 33
0.0
 40
0.0
 40
0.0
 40
0.0
 40
0.0
 40
0.1999186393
 40
0.4036681486
 40
0.6174386239
 40
0.8420662377
 40
1.0
 40
1.0
 40
1.0
 40
1.0
 10
7.6051520908
 20
4.0000393699
 30
0.0
 10
7.6051542966
 20
3.994410775
 30
0.0
 10
7.6072471239
 20
3.9830302281
 30
0.0
 10
7.6165151471
 20
3.9679879234
 30
0.0
 10
7.6307471639
 20
3.9564953742
 30
0.0
 10
7.6464154416
 20
3.9501404159
 30
0.0
 10
7.65706893
 20
3.9483569379
 30
0.0
 10
7.6614894846
 20
3.9480033766
 30
0.0
 11
7.6051520908
 21
4.0000393699
 31
0.0
 11
7.608200133
 21
3.9835174816
 31
0.0
 11
7.6170759203
 21
3.9688749086
 31
0.0
 11
7.6309350869
 21
3.9574444011
 31
0.0
 11
7.6483753014
 21
3.9502203558
 31
0.0
 11
7.6614894846
 21
3.9480033766
 31
0.0
  0
SPLINE
  5
46E
100
AcDbEntity
  8
0
100
AcDbSpline
 62
7
  6
CONTINUOUS
 70
0
 71
3
 72
8
 73
4
 74
2
 42
0.0000001
 43
0.0000001
 44
0.0000000001
 12
0.0015601014
 22
0.0002915712
 32
0.0
 13
0.0015536879
 23
0.0003246252
 33
0.0
 40
0.0
 40
0.0
 40
0.0
 40
0.0
 40
1.0
 40
1.0
 40
1.0
 40
1.0
 10
4.0407299525
 20
3.9490548446
 30
0.0
 10
4.0412499864
 20
3.949152035
 30
0.0
 10
4.041769019
 20
3.9492547275
 30
0.0
 10
4.042286915
 20
3.9493629359
 30
0.0
 11
4.0407299525
 21
3.9490548446
 31
0.0
 11
4.042286915
 21
3.9493629359
 31
0.0
  0
SPLINE
  5
46F
100
AcDbEntity
  8
0
100
AcDbSpline
 62
7
  6
CONTINUOUS
 70
0
 71
3
 72
8
 73
4
 74
2
 42
0.0000001
 43
0.0000001
 44
0.0000000001
 12
0.0036634849
 22
0.0007654429
 32
0.0
 13
0.003620236
 23
0.0009499891
 33
0.0
 40
0.0
 40
0.0
 40
0.0
 40
0.0
 40
1.0
 40
1.0
 40
1.0
 40
1.0
 10
4.042286915
 20
3.9493629359
 30
0.0
 10
4.0435080766
 20
3.9496180835
 30
0.0
 10
4.0447229185
 20
3.9499038985
 30
0.0
 10
4.0459296638
 20
3.9502205616
 30
0.0
 11
4.042286915
 21
3.9493629359
 31
0.0
 11
4.0459296638
 21
3.9502205616
 31
0.0
  0
SPLINE
  5
470
100
AcDbEntity
  8
0
100
AcDbSpline
 62
7
  6
CONTINUOUS
 70
0
 71
3
 72
11
 73
7
 74
5
 42
0.0000001
 43
0.0000001
 44
0.0000000001
 12
0.0687072401
 22
0.0180295239
 32
0.0
 13
0.0000278353
 23
0.0711228707
 33
0.0
 40
0.0
 40
0.0
 40
0.0
 40
0.0
 40
0.2667649785
 40
0.5206213556
 40
0.7625959694
 40
1.0
 40
1.0
 40
1.0
 40
1.0
 10
4.0459296638
 20
3.9502205616
 30
0.0
 10
4.0520392256
 20
3.9518237768
 30
0.0
 10
4.063557687
 20
3.9564957829
 30
0.0
 10
4.0777895616
 20
3.9679885281
 30
0.0
 10
4.0870572061
 20
3.9830306685
 30
0.0
 10
4.089149888
 20
3.9944110849
 30
0.0
 10
4.0891520908
 20
4.0000393703
 30
0.0
 11
4.0459296638
 21
3.9502205616
 31
0.0
 11
4.0633700569
 21
3.9574449727
 31
0.0
 11
4.077228494
 21
3.9688751751
 31
0.0
 11
4.0861043838
 21
3.9835183582
 31
0.0
 11
4.0891520908
 21
4.0000393703
 31
0.0
  0
SPLINE
  5
471
100
AcDbEntity
  8
0
100
AcDbSpline
 62
7
  6
CONTINUOUS
 70
0
 71
3
 72
8
 73
4
 74
2
 42
0.0000001
 43
0.0000001
 44
0.0000000001
 12
0.0036535627
 22
0.0012230615
 32
0.0
 13
0.0035787296
 23
0.0014230449
 33
0.0
 40
0.0
 40
0.0
 40
0.0
 40
0.0
 40
1.0
 40
1.0
 40
1.0
 40
1.0
 10
7.3535059641
 20
3.9515843362
 30
0.0
 10
7.3547238184
 20
3.9519920233
 30
0.0
 10
7.355930318
 20
3.9524328617
 30
0.0
 10
7.3571232279
 20
3.95290721
 30
0.0
 11
7.3535059641
 21
3.9515843362
 31
0.0
 11
7.3571232279
 21
3.95290721
 31
0.0
  0
SPLINE
  5
472
100
AcDbEntity
  8
0
100
AcDbSpline
 62
7
  6
CONTINUOUS
 70
0
 71
3
 72
11
 73
7
 74
5
 42
0.0000001
 43
0.0000001
 44
0.0000000001
 12
0.0579472809
 22
0.0230421375
 32
0.0
 13
0.0000244534
 23
0.0624815605
 33
0.0
 40
0.0
 40
0.0
 40
0.0
 40
0.0
 40
0.1653572804
 40
0.4543224426
 40
0.7297625728
 40
1.0
 40
1.0
 40
1.0
 40
1.0
 10
7.3571232279
 20
3.95290721
 30
0.0
 10
7.3603172295
 20
3.9541772717
 30
0.0
 10
7.3688251381
 20
3.9583268303
 30
0.0
 10
7.3807895616
 20
3.9679885281
 30
0.0
 10
7.3900572061
 20
3.9830306685
 30
0.0
 10
7.392149888
 20
3.9944110849
 30
0.0
 10
7.3921520908
 20
4.0000393703
 30
0.0
 11
7.3571232279
 21
3.95290721
 31
0.0
 11
7.3663700569
 21
3.9574449727
 31
0.0
 11
7.380228494
 21
3.9688751751
 31
0.0
 11
7.3891043838
 21
3.9835183582
 31
0.0
 11
7.3921520908
 21
4.0000393703
 31
0.0
  0
SPLINE
  5
473
100
AcDbEntity
  8
0
100
AcDbSpline
 62
7
  6
CONTINUOUS
 70
0
 71
3
 72
11
 73
7
 74
5
 42
0.0000001
 43
0.0000001
 44
0.0000000001
 12
0.0000273997
 22
-0.0699138891
 32
0.0
 13
0.067234988
 23
-0.0188389164
 33
0.0
 40
0.0
 40
0.0
 40
0.0
 40
0.0
 40
0.2415226065
 40
0.4876733043
 40
0.7459303763
 40
1.0
 40
1.0
 40
1.0
 40
1.0
 10
4.3021520908
 20
4.0000393699
 30
0.0
 10
4.3021542966
 20
3.994410775
 30
0.0
 10
4.3042471239
 20
3.9830302281
 30
0.0
 10
4.3135151471
 20
3.9679879234
 30
0.0
 10
4.327429715
 20
3.9567517185
 30
0.0
 10
4.3385150751
 20
3.9521321434
 30
0.0
 10
4.3442091978
 20
3.9505366779
 30
0.0
 11
4.3021520908
 21
4.0000393699
 31
0.0
 11
4.305200133
 21
3.9835174816
 31
0.0
 11
4.3140759203
 21
3.9688749086
 31
0.0
 11
4.3279350869
 21
3.9574444011
 31
0.0
 11
4.3442091978
 21
3.9505366779
 31
0.0
  0
SPLINE
  5
474
100
AcDbEntity
  8
0
100
AcDbSpline
 62
7
  6
CONTINUOUS
 70
0
 71
3
 72
9
 73
5
 74
3
 42
0.0000001
 43
0.0000001
 44
0.0000000001
 12
0.002790273
 22
-0.0007818209
 32
0.0
 13
0.0028190464
 23
-0.0006708789
 33
0.0
 40
0.0
 40
0.0
 40
0.0
 40
0.0
 40
0.4169608606
 40
1.0
 40
1.0
 40
1.0
 40
1.0
 10
4.3442091978
 20
3.9505366779
 30
0.0
 10
4.3445970093
 20
3.950428015
 30
0.0
 10
4.3455292891
 20
3.9501751447
 30
0.0
 10
4.3464664219
 20
3.9499407657
 30
0.0
 10
4.3470142934
 20
3.9498103828
 30
0.0
 11
4.3442091978
 21
3.9505366779
 31
0.0
 11
4.3453753014
 21
3.9502203558
 31
0.0
 11
4.3470142934
 21
3.9498103828
 31
0.0
  0
SPLINE
  5
475
100
AcDbEntity
  8
0
100
AcDbSpline
 62
7
  6
CONTINUOUS
 70
0
 71
3
 72
8
 73
4
 74
2
 42
0.0000001
 43
0.0000001
 44
0.0000000001
 12
-0.0015978553
 22
-0.0003432252
 32
0.0
 13
-0.001589954
 23
-0.0003783795
 33
0.0
 40
0.0
 40
0.0
 40
0.0
 40
0.0
 40
1.0
 40
1.0
 40
1.0
 40
1.0
 10
4.3486082368
 20
4.5818291438
 30
0.0
 10
4.3480756183
 20
4.5817147354
 30
0.0
 10
4.3475442428
 20
4.5815944755
 30
0.0
 10
4.3470142581
 20
4.581468349
 30
0.0
 11
4.3486082368
 21
4.5818291438
 31
0.0
 11
4.3470142581
 21
4.581468349
 31
0.0
  0
SPLINE
  5
476
100
AcDbEntity
  8
0
100
AcDbSpline
 62
7
  6
CONTINUOUS
 70
0
 71
3
 72
9
 73
5
 74
3
 42
0.0000001
 43
0.0000001
 44
0.0000000001
 12
-0.0028192527
 22
-0.0006709297
 32
0.0
 13
-0.002790475
 23
-0.0007818882
 33
0.0
 40
0.0
 40
0.0
 40
0.0
 40
0.0
 40
0.5832634737
 40
1.0
 40
1.0
 40
1.0
 40
1.0
 10
4.3470142581
 20
4.581468349
 30
0.0
 10
4.3464661358
 20
4.5813379061
 30
0.0
 10
4.3455289355
 20
4.5811035044
 30
0.0
 10
4.3445965892
 20
4.5808506087
 30
0.0
 10
4.3442089583
 20
4.5807419949
 30
0.0
 11
4.3470142581
 21
4.581468349
 31
0.0
 11
4.3453745177
 21
4.5810581786
 31
0.0
 11
4.3442089583
 21
4.5807419949
 31
0.0
  0
SPLINE
  5
477
100
AcDbEntity
  8
0
100
AcDbSpline
 62
7
  6
CONTINUOUS
 70
0
 71
3
 72
11
 73
7
 74
5
 42
0.0000001
 43
0.0000001
 44
0.0000000001
 12
-0.0672347149
 22
-0.0188390968
 32
0.0
 13
-0.0000273621
 23
-0.069913643
 33
0.0
 40
0.0
 40
0.0
 40
0.0
 40
0.0
 40
0.2540829322
 40
0.5123300138
 40
0.758489825
 40
1.0
 40
1.0
 40
1.0
 40
1.0
 10
4.3442089583
 20
4.5807419949
 30
0.0
 10
4.3385145604
 20
4.5791464306
 30
0.0
 10
4.3274291972
 20
4.5745267284
 30
0.0
 10
4.3135146199
 20
4.5632902121
 30
0.0
 10
4.3042469754
 20
4.5482480717
 30
0.0
 10
4.3021542935
 20
4.5368676553
 30
0.0
 10
4.3021520908
 20
4.5312393699
 30
0.0
 11
4.3442089583
 21
4.5807419949
 31
0.0
 11
4.3279341246
 21
4.5738337675
 31
0.0
 11
4.3140756875
 21
4.5624035651
 31
0.0
 11
4.3051997978
 21
4.547760382
 31
0.0
 11
4.3021520908
 21
4.5312393699
 31
0.0
  0
SPLINE
  5
478
100
AcDbEntity
  8
0
100
AcDbSpline
 62
7
  6
CONTINUOUS
 70
0
 71
3
 72
22
 73
18
 74
16
 42
0.0000001
 43
0.0000001
 44
0.0000000001
 12
-0.3472214278
 22
-0.0746832575
 32
0.0
 13
-0.3472214208
 23
0.0746832584
 33
0.0
 40
0.0
 40
0.0
 40
0.0
 40
0.0
 40
0.0120574259
 40
0.0465774994
 40
0.1006857811
 40
0.1714635581
 40
0.2560667941
 40
0.3498974151
 40
0.4493425574
 40
0.5501301829
 40
0.6495705519
 40
0.7433183977
 40
0.8278857727
 40
0.898718881
 40
0.9530704332
 40
0.9878314592
 40
1.0
 40
1.0
 40
1.0
 40
1.0
 10
4.3708593502
 20
4.9831393701
 30
0.0
 10
4.369463818
 20
4.9828392075
 30
0.0
 10
4.3640702469
 20
4.9816920409
 30
0.0
 10
4.3523891052
 20
4.9793162314
 30
0.0
 10
4.3338322531
 20
4.9758754301
 30
0.0
 10
4.3093376615
 20
4.9719673852
 30
0.0
 10
4.2800612807
 20
4.9682623608
 30
0.0
 10
4.2472806264
 20
4.9653858377
 30
0.0
 10
4.2124908506
 20
4.9638226627
 30
0.0
 10
4.1770011785
 20
4.9638184676
 30
0.0
 10
4.1422213906
 20
4.9653729768
 30
0.0
 10
4.1094545909
 20
4.9682400159
 30
0.0
 10
4.0801846564
 20
4.9719362496
 30
0.0
 10
4.0556583401
 20
4.975842943
 30
0.0
 10
4.0370380167
 20
4.9792919072
 30
0.0
 10
4.0252875885
 20
4.9816807184
 30
0.0
 10
4.019853224
 20
4.9828364413
 30
0.0
 10
4.0184448313
 20
4.9831393701
 30
0.0
 11
4.3708593502
 21
4.9831393701
 31
0.0
 11
4.3666706911
 21
4.982248502
 31
0.0
 11
4.3546563144
 21
4.9798054807
 31
0.0
 11
4.3357607664
 21
4.9763039317
 31
0.0
 11
4.3109364519
 21
4.97234743
 31
0.0
 11
4.2811255652
 21
4.96858067
 31
0.0
 11
4.2479274828
 21
4.9656733568
 31
0.0
 11
4.2126437058
 21
4.9640916495
 31
0.0
 11
4.1768476943
 21
4.9640874285
 31
0.0
 11
4.1415652398
 21
4.9656607593
 31
0.0
 11
4.1083957198
 21
4.9685572266
 31
0.0
 11
4.0785964623
 21
4.9723144142
 31
0.0
 11
4.0537517321
 21
4.9762676723
 31
0.0
 11
4.0347705686
 21
4.9797813939
 31
0.0
 11
4.02267211
 21
4.982240382
 31
0.0
 11
4.0184448313
 21
4.9831393701
 31
0.0
  0
SPLINE
  5
479
100
AcDbEntity
  8
0
100
AcDbSpline
 62
7
  6
CONTINUOUS
 70
0
 71
3
 72
16
 73
12
 74
10
 42
0.0000001
 43
0.0000001
 44
0.0000000001
 12
-0.2191251988
 22
-0.2191607759
 32
0.0
 13
-0.2191448852
 23
0.2191559212
 33
0.0
 40
0.0
 40
0.0
 40
0.0
 40
0.0
 40
0.0363459026
 40
0.1602729598
 40
0.2943560084
 40
0.4324201445
 40
0.569254907
 40
0.7074894891
 40
0.841554689
 40
0.9653438066
 40
1.0
 40
1.0
 40
1.0
 40
1.0
 10
5.9922201681
 20
4.6873160005
 30
0.0
 10
5.9895654004
 20
4.6846608017
 30
0.0
 10
5.9774384792
 20
4.673370268
 30
0.0
 10
5.9522826764
 20
4.6560366605
 30
0.0
 10
5.914415222
 20
4.6400619124
 30
0.0
 10
5.872811258
 20
4.6317246894
 30
0.0
 10
5.8299619402
 20
4.6317758632
 30
0.0
 10
5.7883628118
 20
4.6402218157
 30
0.0
 10
5.7505376046
 20
4.656301541
 30
0.0
 10
5.7255898299
 20
4.6735994329
 30
0.0
 10
5.7136197218
 20
4.6847800993
 30
0.0
 10
5.711088146
 20
4.6873118026
 30
0.0
 11
5.9922201681
 21
4.6873160005
 31
0.0
 11
5.9839844906
 21
4.679635254
 31
0.0
 11
5.9525466477
 21
4.6577391187
 31
0.0
 11
5.9143916346
 21
4.6415402221
 31
0.0
 11
5.8725480598
 21
4.6331217506
 31
0.0
 11
5.8302461198
 21
4.6331724422
 31
0.0
 11
5.7883725117
 21
4.6417080854
 31
0.0
 11
5.7502678306
 21
4.6580110037
 31
0.0
 11
5.718929923
 21
4.6799757159
 31
0.0
 11
5.711088146
 21
4.6873118026
 31
0.0
  0
SPLINE
  5
47A
100
AcDbEntity
  8
0
100
AcDbSpline
 62
7
  6
CONTINUOUS
 70
0
 71
3
 72
9
 73
5
 74
3
 42
0.0000001
 43
0.0000001
 44
0.0000000001
 12
0.0075760217
 22
0.00852387
 32
0.0
 13
0.0066399215
 23
0.0092845131
 33
0.0
 40
0.0
 40
0.0
 40
0.0
 40
0.0
 40
0.8404463387
 40
1.0
 40
1.0
 40
1.0
 40
1.0
 10
5.9837348021
 20
4.6791140526
 30
0.0
 10
5.9858572154
 20
4.6815020044
 30
0.0
 10
5.9882619684
 20
4.684450003
 30
0.0
 10
5.9905023322
 20
4.6875249361
 30
0.0
 10
5.9908554734
 20
4.6880187288
 30
0.0
 11
5.9837348021
 21
4.6791140526
 31
0.0
 11
5.9897832308
 21
4.6865469338
 31
0.0
 11
5.9908554734
 21
4.6880187288
 31
0.0
  0
SPLINE
  5
47B
100
AcDbEntity
  8
0
100
AcDbSpline
 62
7
  6
CONTINUOUS
 70
0
 71
3
 72
9
 73
5
 74
3
 42
0.0000001
 43
0.0000001
 44
0.0000000001
 12
0.0310450194
 22
0.0434098335
 32
0.0
 13
0.0
 23
0.0531849237
 33
0.0
 40
0.0
 40
0.0
 40
0.0
 40
0.0
 40
0.4963805035
 40
1.0
 40
1.0
 40
1.0
 40
1.0
 10
5.9908554734
 20
4.6880187288
 30
0.0
 10
5.9959921876
 20
4.6952013271
 30
0.0
 10
6.0045004357
 20
4.7110249606
 30
0.0
 10
6.0076520908
 20
4.7288816017
 30
0.0
 10
6.0076520908
 20
4.7378099232
 30
0.0
 11
5.9908554734
 21
4.6880187288
 31
0.0
 11
6.0031190143
 21
4.7114113335
 31
0.0
 11
6.0076520908
 21
4.7378099232
 31
0.0
  0
SPLINE
  5
47C
100
AcDbEntity
  8
0
100
AcDbSpline
 62
7
  6
CONTINUOUS
 70
0
 71
3
 72
16
 73
12
 74
10
 42
0.0000001
 43
0.0000001
 44
0.0000000001
 12
0.2191303925
 22
0.2191606022
 32
0.0
 13
0.2191413865
 23
-0.2191576571
 33
0.0
 40
0.0
 40
0.0
 40
0.0
 40
0.0
 40
0.0363846856
 40
0.1604919743
 40
0.2946062369
 40
0.4326071532
 40
0.569416272
 40
0.7076867796
 40
0.8417918229
 40
0.9655271361
 40
1.0
 40
1.0
 40
1.0
 40
1.0
 10
5.7110848371
 20
3.8439636365
 30
0.0
 10
5.7137425006
 20
3.8466216664
 30
0.0
 10
5.7258867325
 20
3.8579271478
 30
0.0
 10
5.7510684166
 20
3.8752699721
 30
0.0
 10
5.7889559388
 20
3.8912369213
 30
0.0
 10
5.830556484
 20
3.8995593785
 30
0.0
 10
5.8734002358
 20
3.8994971226
 30
0.0
 10
5.9150024015
 20
3.8910389155
 30
0.0
 10
5.9528245556
 20
3.8749454458
 30
0.0
 10
5.977749205
 20
3.8576501372
 30
0.0
 10
5.9896991017
 20
3.8464840236
 30
0.0
 10
5.9922172454
 20
3.8439656929
 30
0.0
 11
5.7110848371
 21
3.8439636365
 31
0.0
 11
5.7193297645
 21
3.8516522573
 31
0.0
 11
5.7508182669
 21
3.8735732119
 31
0.0
 11
5.7889881444
 21
3.8897618884
 31
0.0
 11
5.8308153579
 21
3.8981627973
 31
0.0
 11
5.873109398
 21
3.8981011269
 31
0.0
 11
5.9149916181
 21
3.8895519215
 31
0.0
 11
5.9531020802
 21
3.8732311024
 31
0.0
 11
5.9844183239
 21
3.8512643995
 31
0.0
 11
5.9922172454
 21
3.8439656929
 31
0.0
  0
SPLINE
  5
47D
100
AcDbEntity
  8
0
100
AcDbSpline
 62
7
  6
CONTINUOUS
 70
0
 71
3
 72
9
 73
5
 74
3
 42
0.0000001
 43
0.0000001
 44
0.0000000001
 12
-0.0075794617
 22
-0.0085269282
 32
0.0
 13
-0.006642652
 23
-0.0092881824
 33
0.0
 40
0.0
 40
0.0
 40
0.0
 40
0.0
 40
0.8405786712
 40
1.0
 40
1.0
 40
1.0
 40
1.0
 10
5.719572934
 20
3.8521686867
 30
0.0
 10
5.7174492227
 20
3.8497795021
 30
0.0
 10
5.7150434289
 20
3.8468303817
 30
0.0
 10
5.712802156
 20
3.843754225
 30
0.0
 10
5.7124491626
 20
3.8432606469
 30
0.0
 11
5.719572934
 21
3.8521686867
 31
0.0
 11
5.7135209508
 21
3.8447318063
 31
0.0
 11
5.7124491626
 21
3.8432606469
 31
0.0
  0
SPLINE
  5
47E
100
AcDbEntity
  8
0
100
AcDbSpline
 62
7
  6
CONTINUOUS
 70
0
 71
3
 72
9
 73
5
 74
3
 42
0.0000001
 43
0.0000001
 44
0.0000000001
 12
-0.0310457995
 22
-0.0434102295
 32
0.0
 13
0.0
 23
-0.0531857023
 33
0.0
 40
0.0
 40
0.0
 40
0.0
 40
0.0
 40
0.4963878761
 40
1.0
 40
1.0
 40
1.0
 40
1.0
 10
5.7124491626
 20
3.8432606469
 30
0.0
 10
5.7073122431
 20
3.8360778764
 30
0.0
 10
5.698803792
 20
3.820254041
 30
0.0
 10
5.6956520908
 20
3.8023971385
 30
0.0
 10
5.6956520908
 20
3.793468817
 30
0.0
 11
5.7124491626
 21
3.8432606469
 31
0.0
 11
5.7001851672
 21
3.8198674067
 31
0.0
 11
5.6956520908
 21
3.793468817
 31
0.0
  0
SPLINE
  5
47F
100
AcDbEntity
  8
0
100
AcDbSpline
 62
7
  6
CONTINUOUS
 70
0
 71
3
 72
9
 73
5
 74
3
 42
0.0000001
 43
0.0000001
 44
0.0000000001
 12
-0.003420688
 22
-0.0168039974
 32
0.0
 13
-0.0060086186
 23
-0.0160506102
 33
0.0
 40
0.0
 40
0.0
 40
0.0
 40
0.0
 40
0.2545748563
 40
1.0
 40
1.0
 40
1.0
 40
1.0
 10
4.3483924347
 20
3.9435244495
 30
0.0
 10
4.348102161
 20
3.9420984911
 30
0.0
 10
4.3468508412
 20
3.936520026
 30
0.0
 10
4.3451603474
 20
3.9310518359
 30
0.0
 10
4.3436673556
 20
3.9270636597
 30
0.0
 11
4.3483924347
 21
3.9435244495
 31
0.0
 11
4.3474365897
 21
3.9392653639
 31
0.0
 11
4.3436673556
 21
3.9270636597
 31
0.0
  0
SPLINE
  5
480
100
AcDbEntity
  8
0
100
AcDbSpline
 62
7
  6
CONTINUOUS
 70
0
 71
3
 72
8
 73
4
 74
2
 42
0.0000001
 43
0.0000001
 44
0.0000000001
 12
-0.0049990896
 22
-0.0133538912
 32
0.0
 13
-0.006692924
 23
-0.0125852502
 33
0.0
 40
0.0
 40
0.0
 40
0.0
 40
0.0
 40
1.0
 40
1.0
 40
1.0
 40
1.0
 10
4.3436673556
 20
3.9270636597
 30
0.0
 10
4.3420009924
 20
3.9226123626
 30
0.0
 10
4.3400445542
 20
3.918270628
 30
0.0
 10
4.3378135795
 20
3.9140755447
 30
0.0
 11
4.3436673556
 21
3.9270636597
 31
0.0
 11
4.3378135795
 21
3.9140755447
 31
0.0
  0
SPLINE
  5
481
100
AcDbEntity
  8
0
100
AcDbSpline
 62
7
  6
CONTINUOUS
 70
0
 71
3
 72
18
 73
14
 74
12
 42
0.0000001
 43
0.0000001
 44
0.0000000001
 12
-0.1582895501
 22
-0.2976447357
 32
0.0
 13
-0.1583315926
 23
0.2976223219
 33
0.0
 40
0.0
 40
0.0
 40
0.0
 40
0.0
 40
0.0805522249
 40
0.16206523
 40
0.2469053285
 40
0.3400182933
 40
0.444741505
 40
0.5551910382
 40
0.6599079621
 40
0.7531068795
 40
0.8379832092
 40
0.9194682831
 40
1.0
 40
1.0
 40
1.0
 40
1.0
 10
4.3378135795
 20
3.9140755447
 30
0.0
 10
4.3335633877
 20
3.9060835628
 30
0.0
 10
4.3230076533
 20
3.8910751182
 30
0.0
 10
4.3022073707
 20
3.8724874465
 30
0.0
 10
4.2769148426
 20
3.8577642311
 30
0.0
 10
4.2469281992
 20
3.8470060599
 30
0.0
 10
4.2126944962
 20
3.8411034255
 30
0.0
 10
4.1766487661
 20
3.8411002369
 30
0.0
 10
4.1424051893
 20
3.8469978033
 30
0.0
 10
4.1124043478
 20
3.8577559366
 30
0.0
 10
4.087101927
 20
3.8724836087
 30
0.0
 10
4.0663022859
 20
3.8910696741
 30
0.0
 10
4.0557481731
 20
3.9060724131
 30
0.0
 10
4.0514979347
 20
3.9140617586
 30
0.0
 11
4.3378135795
 21
3.9140755447
 31
0.0
 11
4.3223050645
 21
3.8918577343
 31
0.0
 11
4.3019590272
 21
3.8734783639
 31
0.0
 11
4.2773733376
 21
3.8589894802
 31
0.0
 11
4.2479422777
 21
3.8482767144
 31
0.0
 11
4.2132469745
 21
3.8421884254
 31
0.0
 11
4.1760953931
 21
3.8421850723
 31
0.0
 11
4.1414009832
 21
3.8482662106
 31
0.0
 11
4.1119412041
 21
3.8589846026
 31
0.0
 11
4.0873445171
 21
3.8734788287
 31
0.0
 11
4.0670048721
 21
3.8918512598
 31
0.0
 11
4.0514979347
 21
3.9140617586
 31
0.0
  0
SPLINE
  5
482
100
AcDbEntity
  8
0
100
AcDbSpline
 62
7
  6
CONTINUOUS
 70
0
 71
3
 72
8
 73
4
 74
2
 42
0.0000001
 43
0.0000001
 44
0.0000000001
 12
-0.0067024907
 22
0.0125989439
 32
0.0
 13
-0.0050048045
 23
0.0133694893
 33
0.0
 40
0.0
 40
0.0
 40
0.0
 40
0.0
 40
1.0
 40
1.0
 40
1.0
 40
1.0
 10
4.0514979347
 20
3.9140617586
 30
0.0
 10
4.0492637712
 20
3.9182614066
 30
0.0
 10
4.047304752
 20
3.9226080859
 30
0.0
 10
4.0456364839
 20
3.9270645823
 30
0.0
 11
4.0514979347
 21
3.9140617586
 31
0.0
 11
4.0456364839
 21
3.9270645823
 31
0.0
  0
SPLINE
  5
483
100
AcDbEntity
  8
0
100
AcDbSpline
 62
7
  6
CONTINUOUS
 70
0
 71
3
 72
9
 73
5
 74
3
 42
0.0000001
 43
0.0000001
 44
0.0000000001
 12
-0.0060094587
 22
0.0160532534
 32
0.0
 13
-0.00342066
 23
0.0168068471
 33
0.0
 40
0.0
 40
0.0
 40
0.0
 40
0.0
 40
0.7446649521
 40
1.0
 40
1.0
 40
1.0
 40
1.0
 10
4.0456364839
 20
3.9270645823
 30
0.0
 10
4.0441448061
 20
3.9310493474
 30
0.0
 10
4.0424538141
 20
3.9365183355
 30
0.0
 10
4.0412021379
 20
3.9420976799
 30
0.0
 10
4.0409109998
 20
3.9435281389
 30
0.0
 11
4.0456364839
 21
3.9270645823
 31
0.0
 11
4.0418699731
 21
3.9392556703
 31
0.0
 11
4.0409109998
 21
3.9435281389
 31
0.0
  0
SPLINE
  5
484
100
AcDbEntity
  8
0
100
AcDbSpline
 62
7
  6
CONTINUOUS
 70
0
 71
3
 72
9
 73
5
 74
3
 42
0.0000001
 43
0.0000001
 44
0.0000000001
 12
0.0034191553
 22
0.0168481345
 32
0.0
 13
0.0060207193
 23
0.0160920364
 33
0.0
 40
0.0
 40
0.0
 40
0.0
 40
0.0
 40
0.2678085163
 40
1.0
 40
1.0
 40
1.0
 40
1.0
 10
4.0408988212
 20
4.5876904117
 30
0.0
 10
4.0412040475
 20
4.5891944363
 30
0.0
 10
4.0424611856
 20
4.5947864105
 30
0.0
 10
4.0441597145
 20
4.6002668267
 30
0.0
 10
4.0456291543
 20
4.6041943107
 30
0.0
 11
4.0408988212
 21
4.5876904117
 31
0.0
 11
4.0419090492
 21
4.5921815918
 31
0.0
 11
4.0456291543
 21
4.6041943107
 31
0.0
  0
SPLINE
  5
485
100
AcDbEntity
  8
0
100
AcDbSpline
 62
7
  6
CONTINUOUS
 70
0
 71
3
 72
8
 73
4
 74
2
 42
0.0000001
 43
0.0000001
 44
0.0000000001
 12
0.0051449157
 22
0.0137512091
 32
0.0
 13
0.0069385261
 23
0.0129334091
 33
0.0
 40
0.0
 40
0.0
 40
0.0
 40
0.0
 40
1.0
 40
1.0
 40
1.0
 40
1.0
 10
4.0456291543
 20
4.6041943107
 30
0.0
 10
4.0473441262
 20
4.6087780471
 30
0.0
 10
4.0493666495
 20
4.6132456912
 30
0.0
 10
4.0516794916
 20
4.6175568276
 30
0.0
 11
4.0456291543
 21
4.6041943107
 31
0.0
 11
4.0516794916
 21
4.6175568276
 31
0.0
  0
SPLINE
  5
486
100
AcDbEntity
  8
0
100
AcDbSpline
 62
7
  6
CONTINUOUS
 70
0
 71
3
 72
18
 73
14
 74
12
 42
0.0000001
 43
0.0000001
 44
0.0000000001
 12
0.1589972061
 22
0.2963707091
 32
0.0
 13
0.159044157
 23
-0.296345387
 33
0.0
 40
0.0
 40
0.0
 40
0.0
 40
0.0
 40
0.0813940366
 40
0.1635106259
 40
0.2487814326
 40
0.341671812
 40
0.4449008371
 40
0.5550236473
 40
0.658270204
 40
0.7512431553
 40
0.8365470382
 40
0.9186327069
 40
1.0
 40
1.0
 40
1.0
 40
1.0
 10
4.0516794916
 20
4.6175568276
 30
0.0
 10
4.0559932997
 20
4.6255977637
 30
0.0
 10
4.066688099
 20
4.6406572649
 30
0.0
 10
4.0876977539
 20
4.6592283654
 30
0.0
 10
4.1130858043
 20
4.673828357
 30
0.0
 10
4.1429071291
 20
4.6843859408
 30
0.0
 10
4.1768369183
 20
4.6901722064
 30
0.0
 10
4.2124262745
 20
4.6901757319
 30
0.0
 10
4.2463682732
 20
4.6843942143
 30
0.0
 10
4.2762053911
 20
4.6738355654
 30
0.0
 10
4.3016022281
 20
4.6592314258
 30
0.0
 10
4.3226100784
 20
4.6406627421
 30
0.0
 10
4.3333027329
 20
4.6256098898
 30
0.0
 10
4.3376163971
 20
4.6175722825
 30
0.0
 11
4.0516794916
 21
4.6175568276
 31
0.0
 11
4.0674124028
 21
4.6398835789
 31
0.0
 11
4.0879587807
 21
4.6582454531
 31
0.0
 11
4.1126868813
 21
4.6726428829
 31
0.0
 11
4.1420233175
 21
4.6831786029
 31
0.0
 11
4.176153928
 21
4.6890987942
 31
0.0
 11
4.2131075091
 21
4.6891025273
 31
0.0
 11
4.2472450864
 21
4.683188082
 31
0.0
 11
4.2766089521
 21
4.6726467614
 31
0.0
 11
4.3013469765
 21
4.6582443167
 31
0.0
 11
4.3218861024
 21
4.6398898989
 31
0.0
 11
4.3376163971
 21
4.6175722825
 31
0.0
  0
SPLINE
  5
487
100
AcDbEntity
  8
0
100
AcDbSpline
 62
7
  6
CONTINUOUS
 70
0
 71
3
 72
8
 73
4
 74
2
 42
0.0000001
 43
0.0000001
 44
0.0000000001
 12
0.0069493964
 22
-0.0129487407
 32
0.0
 13
0.0051513346
 23
-0.0137687571
 33
0.0
 40
0.0
 40
0.0
 40
0.0
 40
0.0
 40
1.0
 40
1.0
 40
1.0
 40
1.0
 10
4.3376163971
 20
4.6175722825
 30
0.0
 10
4.3399328625
 20
4.6132560356
 30
0.0
 10
4.3419583088
 20
4.6087828373
 30
0.0
 10
4.3436754204
 20
4.6041932516
 30
0.0
 11
4.3376163971
 21
4.6175722825
 31
0.0
 11
4.3436754204
 21
4.6041932516
 31
0.0
  0
SPLINE
  5
488
100
AcDbEntity
  8
0
100
AcDbSpline
 62
7
  6
CONTINUOUS
 70
0
 71
3
 72
9
 73
5
 74
3
 42
0.0000001
 43
0.0000001
 44
0.0000000001
 12
0.006021721
 22
-0.0160951713
 32
0.0
 13
0.0034191247
 23
-0.0168515179
 33
0.0
 40
0.0
 40
0.0
 40
0.0
 40
0.0
 40
0.7312984257
 40
1.0
 40
1.0
 40
1.0
 40
1.0
 10
4.3436754204
 20
4.6041932516
 30
0.0
 10
4.345143312
 20
4.6002697938
 30
0.0
 10
4.3468424331
 20
4.5947884307
 30
0.0
 10
4.3480999952
 20
4.589195412
 30
0.0
 10
4.3484062366
 20
4.5876860688
 30
0.0
 11
4.3436754204
 21
4.6041932516
 31
0.0
 11
4.3473922966
 21
4.5921930562
 31
0.0
 11
4.3484062366
 21
4.5876860688
 31
0.0
  0
SPLINE
  5
489
100
AcDbEntity
  8
0
100
AcDbSpline
 62
7
  6
CONTINUOUS
 70
0
 71
3
 72
9
 73
5
 74
3
 42
0.0000001
 43
0.0000001
 44
0.0000000001
 12
0.0
 22
-0.0531893876
 32
0.0
 13
0.0310494921
 23
-0.0434121036
 33
0.0
 40
0.0
 40
0.0
 40
0.0
 40
0.0
 40
0.5035772298
 40
1.0
 40
1.0
 40
1.0
 40
1.0
 10
5.6956520908
 20
4.7378099232
 30
0.0
 10
5.6956520908
 20
4.7288816017
 30
0.0
 10
5.6988040103
 20
4.7110234618
 30
0.0
 10
5.7073134223
 20
4.6951986709
 30
0.0
 10
5.7124513139
 20
4.6880150853
 30
0.0
 11
5.6956520908
 21
4.7378099232
 31
0.0
 11
5.7001851672
 21
4.7114113335
 31
0.0
 11
5.7124513139
 21
4.6880150853
 31
0.0
  0
SPLINE
  5
48A
100
AcDbEntity
  8
0
100
AcDbSpline
 62
7
  6
CONTINUOUS
 70
0
 71
3
 72
9
 73
5
 74
3
 42
0.0000001
 43
0.0000001
 44
0.0000000001
 12
0.0065096234
 22
-0.0091014837
 32
0.0
 13
0.0074106007
 23
-0.0083705056
 33
0.0
 40
0.0
 40
0.0
 40
0.0
 40
0.0
 40
0.1623568019
 40
1.0
 40
1.0
 40
1.0
 40
1.0
 10
5.7124513139
 20
4.6880150853
 30
0.0
 10
5.7128036078
 20
4.6875225227
 30
0.0
 10
5.7149999391
 20
4.6845081605
 30
0.0
 10
5.7173542521
 20
4.6816157852
 30
0.0
 10
5.7194233985
 20
4.6792786195
 30
0.0
 11
5.7124513139
 21
4.6880150853
 31
0.0
 11
5.7135209508
 21
4.6865469338
 31
0.0
 11
5.7194233985
 21
4.6792786195
 31
0.0
  0
SPLINE
  5
48B
100
AcDbEntity
  8
0
100
AcDbSpline
 62
7
  6
CONTINUOUS
 70
0
 71
3
 72
8
 73
4
 74
2
 42
0.0000001
 43
0.0000001
 44
0.0000000001
 12
-0.0007263688
 22
0.0008690347
 32
0.0
 13
-0.0007382725
 23
0.0008583796
 33
0.0
 40
0.0
 40
0.0
 40
0.0
 40
0.0
 40
1.0
 40
1.0
 40
1.0
 40
1.0
 10
5.9904748637
 20
4.687686785
 30
0.0
 10
5.9902327408
 20
4.6879764633
 30
0.0
 10
5.9899886125
 20
4.6882643797
 30
0.0
 10
5.9897425217
 20
4.6885505062
 30
0.0
 11
5.9904748637
 21
4.687686785
 31
0.0
 11
5.9897425217
 21
4.6885505062
 31
0.0
  0
SPLINE
  5
48C
100
AcDbEntity
  8
0
100
AcDbSpline
 62
7
  6
CONTINUOUS
 70
0
 71
3
 72
16
 73
12
 74
10
 42
0.0000001
 43
0.0000001
 44
0.0000000001
 12
-0.1957173204
 22
0.2275579263
 32
0.0
 13
-0.1954191701
 23
-0.2278023335
 33
0.0
 40
0.0
 40
0.0
 40
0.0
 40
0.0
 40
0.0943601262
 40
0.1977041784
 40
0.314482429
 40
0.4385247831
 40
0.5623611841
 40
0.6860864184
 40
0.8027159631
 40
0.906033528
 40
1.0
 40
1.0
 40
1.0
 40
1.0
 10
5.9897425217
 20
4.6885505062
 30
0.0
 10
5.9835865513
 20
4.6957079711
 30
0.0
 10
5.9681153706
 20
4.7083577061
 30
0.0
 10
5.9395315141
 20
4.7217239934
 30
0.0
 10
5.9062154366
 20
4.7304373464
 30
0.0
 10
5.8700340276
 20
4.7346758674
 30
0.0
 10
5.8329287798
 20
4.7346547725
 30
0.0
 10
5.7967984761
 20
4.7303813217
 30
0.0
 10
5.7635400774
 20
4.7216416437
 30
0.0
 10
5.7350267463
 20
4.7082548138
 30
0.0
 10
5.7196125248
 20
4.695604386
 30
0.0
 10
5.7134915748
 20
4.6884691255
 30
0.0
 11
5.9897425217
 21
4.6885505062
 31
0.0
 11
5.9682492539
 21
4.7068154806
 31
0.0
 11
5.9404657801
 21
4.7203192122
 31
0.0
 11
5.9067817148
 21
4.7294779711
 31
0.0
 11
5.8699744126
 21
4.7339532473
 31
0.0
 11
5.832957611
 21
4.7339314029
 31
0.0
 11
5.796249515
 21
4.7294257657
 31
0.0
 11
5.7626192943
 21
4.720238488
 31
0.0
 11
5.7348645149
 21
4.7066939209
 31
0.0
 11
5.7134915748
 21
4.6884691255
 31
0.0
  0
SPLINE
  5
48D
100
AcDbEntity
  8
0
100
AcDbSpline
 62
7
  6
CONTINUOUS
 70
0
 71
3
 72
8
 73
4
 74
2
 42
0.0000001
 43
0.0000001
 44
0.0000000001
 12
-0.0006622207
 22
-0.0007719582
 32
0.0
 13
-0.0006526014
 23
-0.0007805576
 33
0.0
 40
0.0
 40
0.0
 40
0.0
 40
0.0
 40
1.0
 40
1.0
 40
1.0
 40
1.0
 10
5.7134915748
 20
4.6884691255
 30
0.0
 10
5.7132708346
 20
4.6882118061
 30
0.0
 10
5.7130516821
 20
4.6879530432
 30
0.0
 10
5.7128341483
 20
4.6876928574
 30
0.0
 11
5.7134915748
 21
4.6884691255
 31
0.0
 11
5.7128341483
 21
4.6876928574
 31
0.0
  0
SPLINE
  5
48E
100
AcDbEntity
  8
0
100
AcDbSpline
 62
7
  6
CONTINUOUS
 70
0
 71
3
 72
8
 73
4
 74
2
 42
0.0000001
 43
0.0000001
 44
0.0000000001
 12
0.0007067214
 22
-0.0008454747
 32
0.0
 13
0.0007179934
 23
-0.000835388
 33
0.0
 40
0.0
 40
0.0
 40
0.0
 40
0.0
 40
1.0
 40
1.0
 40
1.0
 40
1.0
 10
5.7128305795
 20
3.8435903749
 30
0.0
 10
5.7130661533
 20
3.84330855
 30
0.0
 10
5.7133036254
 20
3.8430283933
 30
0.0
 10
5.7135429565
 20
3.8427499307
 30
0.0
 11
5.7128305795
 21
3.8435903749
 31
0.0
 11
5.7135429565
 21
3.8427499307
 31
0.0
  0
SPLINE
  5
48F
100
AcDbEntity
  8
0
100
AcDbSpline
 62
7
  6
CONTINUOUS
 70
0
 71
3
 72
16
 73
12
 74
10
 42
0.0000001
 43
0.0000001
 44
0.0000000001
 12
0.195672639
 22
-0.2276658462
 32
0.0
 13
0.1953845743
 23
0.2279015129
 33
0.0
 40
0.0
 40
0.0
 40
0.0
 40
0.0
 40
0.0943330226
 40
0.1976710949
 40
0.314453583
 40
0.4385108628
 40
0.562364953
 40
0.6861057846
 40
0.8027418571
 40
0.9060568301
 40
1.0
 40
1.0
 40
1.0
 40
1.0
 10
5.7135429565
 20
3.8427499307
 30
0.0
 10
5.7196957537
 20
3.8355911282
 30
0.0
 10
5.7351633033
 20
3.8229362807
 30
0.0
 10
5.7637472481
 20
3.8095631634
 30
0.0
 10
5.7970697353
 20
3.8008443915
 30
0.0
 10
5.8332611082
 20
3.7966029385
 30
0.0
 10
5.870377822
 20
3.7966236603
 30
0.0
 10
5.9065184614
 20
3.8008992812
 30
0.0
 10
5.9397841007
 20
3.8096436155
 30
0.0
 10
5.9682988276
 20
3.8230366412
 30
0.0
 10
5.9837105202
 20
3.835691932
 30
0.0
 10
5.989828869
 20
3.8428285289
 30
0.0
 11
5.7135429565
 21
3.8427499307
 31
0.0
 11
5.7350282081
 21
3.8244802863
 31
0.0
 11
5.7628122121
 21
3.8109691595
 31
0.0
 11
5.7965024478
 21
3.8018045874
 31
0.0
 11
5.8333204943
 21
3.7973260318
 31
0.0
 11
5.870349173
 21
3.7973474916
 31
0.0
 11
5.9070682968
 21
3.8018555896
 31
0.0
 11
5.940705598
 21
3.8110478995
 31
0.0
 11
5.9684622961
 21
3.8245993002
 31
0.0
 11
5.989828869
 21
3.8428285289
 31
0.0
  0
SPLINE
  5
490
100
AcDbEntity
  8
0
100
AcDbSpline
 62
7
  6
CONTINUOUS
 70
0
 71
3
 72
8
 73
4
 74
2
 42
0.0000001
 43
0.0000001
 44
0.0000000001
 12
0.0006446068
 22
0.0007518857
 32
0.0
 13
0.000635483
 23
0.0007600401
 33
0.0
 40
0.0
 40
0.0
 40
0.0
 40
0.0
 40
1.0
 40
1.0
 40
1.0
 40
1.0
 10
5.989828869
 20
3.8428285289
 30
0.0
 10
5.9900437379
 20
3.8430791575
 30
0.0
 10
5.9902571005
 20
3.8433311545
 30
0.0
 10
5.9904689282
 20
3.8435845012
 30
0.0
 11
5.989828869
 21
3.8428285289
 31
0.0
 11
5.9904689282
 21
3.8435845012
 31
0.0
  0
SPLINE
  5
491
100
AcDbEntity
  8
0
100
AcDbSpline
 62
7
  6
CONTINUOUS
 70
0
 71
3
 72
9
 73
5
 74
3
 42
0.0000001
 43
0.0000001
 44
0.0000000001
 12
0.0
 22
0.0531880866
 32
0.0
 13
-0.0310481884
 23
0.043411442
 33
0.0
 40
0.0
 40
0.0
 40
0.0
 40
0.0
 40
0.5035895481
 40
1.0
 40
1.0
 40
1.0
 40
1.0
 10
6.0076520908
 20
3.793468817
 30
0.0
 10
6.0076520908
 20
3.8023971385
 30
0.0
 10
6.0045002483
 20
3.8202548416
 30
0.0
 10
5.9959911756
 20
3.8360792951
 30
0.0
 10
5.9908536272
 20
3.843262593
 30
0.0
 11
6.0076520908
 21
3.793468817
 31
0.0
 11
6.0031190143
 21
3.8198674067
 31
0.0
 11
5.9908536272
 21
3.843262593
 31
0.0
  0
SPLINE
  5
492
100
AcDbEntity
  8
0
100
AcDbSpline
 62
7
  6
CONTINUOUS
 70
0
 71
3
 72
9
 73
5
 74
3
 42
0.0000001
 43
0.0000001
 44
0.0000000001
 12
-0.0064958657
 22
0.0090824912
 32
0.0
 13
-0.0073932353
 23
0.008354578
 33
0.0
 40
0.0
 40
0.0
 40
0.0
 40
0.0
 40
0.1628147269
 40
1.0
 40
1.0
 40
1.0
 40
1.0
 10
5.9908536272
 20
3.843262593
 30
0.0
 10
5.9905010863
 20
3.8437555141
 30
0.0
 10
5.9883093768
 20
3.8467635726
 30
0.0
 10
5.985960347
 20
3.8496501549
 30
0.0
 10
5.9838971778
 20
3.8519815982
 30
0.0
 11
5.9908536272
 21
3.843262593
 31
0.0
 11
5.9897832308
 21
3.8447318063
 31
0.0
 11
5.9838971778
 21
3.8519815982
 31
0.0
  0
SPLINE
  5
493
100
AcDbEntity
  8
0
100
AcDbSpline
 62
7
  6
CONTINUOUS
 70
0
 71
3
 72
8
 73
4
 74
2
 42
0.0000001
 43
0.0000001
 44
0.0000000001
 12
-0.0015174693
 22
-0.0119438444
 32
0.0
 13
-0.0028041238
 23
-0.0117099433
 33
0.0
 40
0.0
 40
0.0
 40
0.0
 40
0.0
 40
1.0
 40
1.0
 40
1.0
 40
1.0
 10
7.6627428207
 20
3.9517136743
 30
0.0
 10
7.6622369976
 20
3.9477323929
 30
0.0
 10
7.6615186217
 20
3.9437761837
 30
0.0
 10
7.6605839137
 20
3.9398728692
 30
0.0
 11
7.6627428207
 21
3.9517136743
 31
0.0
 11
7.6605839137
 21
3.9398728692
 31
0.0
  0
SPLINE
  5
494
100
AcDbEntity
  8
0
100
AcDbSpline
 62
7
  6
CONTINUOUS
 70
0
 71
3
 72
8
 73
4
 74
2
 42
0.0000001
 43
0.0000001
 44
0.0000000001
 12
-0.0001859271
 22
-0.0007764266
 32
0.0
 13
-0.0001916369
 23
-0.000775007
 33
0.0
 40
0.0
 40
0.0
 40
0.0
 40
0.0
 40
1.0
 40
1.0
 40
1.0
 40
1.0
 10
7.6605839137
 20
3.9398728692
 30
0.0
 10
7.660521938
 20
3.9396140603
 30
0.0
 10
7.6604590112
 20
3.939355484
 30
0.0
 10
7.6603951323
 20
3.9390971483
 30
0.0
 11
7.6605839137
 21
3.9398728692
 31
0.0
 11
7.6603951323
 21
3.9390971483
 31
0.0
  0
SPLINE
  5
495
100
AcDbEntity
  8
0
100
AcDbSpline
 62
7
  6
CONTINUOUS
 70
0
 71
3
 72
20
 73
16
 74
14
 42
0.0000001
 43
0.0000001
 44
0.0000000001
 12
-0.0938903416
 22
-0.3797060294
 32
0.0
 13
-0.0939314643
 23
0.3796967179
 33
0.0
 40
0.0
 40
0.0
 40
0.0
 40
0.0
 40
0.0697291681
 40
0.1397709412
 40
0.2104344903
 40
0.283812329
 40
0.3637470164
 40
0.4525783885
 40
0.5473420493
 40
0.6361885077
 40
0.7161942504
 40
0.7896005521
 40
0.8602374932
 40
0.9302562528
 40
1.0
 40
1.0
 40
1.0
 40
1.0
 10
7.6603951323
 20
3.9390971483
 30
0.0
 10
7.6582128338
 20
3.9302716198
 30
0.0
 10
7.6516108907
 20
3.9131439955
 30
0.0
 10
7.6356160826
 20
3.8906214753
 30
0.0
 10
7.6146064277
 20
3.8720503748
 30
0.0
 10
7.5892183773
 20
3.8574503832
 30
0.0
 10
7.5593970524
 20
3.8468927994
 30
0.0
 10
7.5254672632
 20
3.8411065337
 30
0.0
 10
7.489877907
 20
3.8411030083
 30
0.0
 10
7.4559359084
 20
3.8468845259
 30
0.0
 10
7.4260987904
 20
3.8574431748
 30
0.0
 10
7.4007019535
 20
3.8720473144
 30
0.0
 10
7.3796941031
 20
3.8906159981
 30
0.0
 10
7.363699525
 20
3.9131327663
 30
0.0
 10
7.3570955957
 20
3.9302585267
 30
0.0
 10
7.354911885
 20
3.939085684
 30
0.0
 11
7.6603951323
 21
3.9390971483
 31
0.0
 11
7.65062469
 21
3.9137219126
 31
0.0
 11
7.6348917788
 21
3.8913951613
 31
0.0
 11
7.6143454008
 21
3.8730332871
 31
0.0
 11
7.5896173002
 21
3.8586358573
 31
0.0
 11
7.560280864
 21
3.8481001373
 31
0.0
 11
7.5261502535
 21
3.8421799459
 31
0.0
 11
7.4891966724
 21
3.8421762129
 31
0.0
 11
7.4550590951
 21
3.8480906582
 31
0.0
 11
7.4256952294
 21
3.8586319788
 31
0.0
 11
7.4009572051
 21
3.8730344235
 31
0.0
 11
7.3804180792
 21
3.8913888413
 31
0.0
 11
7.3646877845
 21
3.9137064577
 31
0.0
 11
7.354911885
 21
3.939085684
 31
0.0
  0
SPLINE
  5
496
100
AcDbEntity
  8
0
100
AcDbSpline
 62
7
  6
CONTINUOUS
 70
0
 71
3
 72
8
 73
4
 74
2
 42
0.0000001
 43
0.0000001
 44
0.0000000001
 12
-0.000194558
 22
0.0007864568
 32
0.0
 13
-0.0001886781
 23
0.0007879191
 33
0.0
 40
0.0
 40
0.0
 40
0.0
 40
0.0
 40
1.0
 40
1.0
 40
1.0
 40
1.0
 10
7.354911885
 20
3.939085684
 30
0.0
 10
7.3548470323
 20
3.9393478362
 30
0.0
 10
7.3547831602
 20
3.9396102364
 30
0.0
 10
7.3547202675
 20
3.9398728761
 30
0.0
 11
7.354911885
 21
3.939085684
 31
0.0
 11
7.3547202675
 21
3.9398728761
 31
0.0
  0
SPLINE
  5
497
100
AcDbEntity
  8
0
100
AcDbSpline
 62
7
  6
CONTINUOUS
 70
0
 71
3
 72
8
 73
4
 74
2
 42
0.0000001
 43
0.0000001
 44
0.0000000001
 12
-0.0028047822
 22
0.0117127612
 32
0.0
 13
-0.0015175298
 23
0.0119467451
 33
0.0
 40
0.0
 40
0.0
 40
0.0
 40
0.0
 40
1.0
 40
1.0
 40
1.0
 40
1.0
 10
7.3547202675
 20
3.9398728761
 30
0.0
 10
7.3537853401
 20
3.9437771299
 30
0.0
 10
7.3530668443
 20
3.9477343032
 30
0.0
 10
7.352561001
 20
3.9517165516
 30
0.0
 11
7.3547202675
 21
3.9398728761
 31
0.0
 11
7.352561001
 21
3.9517165516
 31
0.0
  0
SPLINE
  5
498
100
AcDbEntity
  8
0
100
AcDbSpline
 62
7
  6
CONTINUOUS
 70
0
 71
3
 72
8
 73
4
 74
2
 42
0.0000001
 43
0.0000001
 44
0.0000000001
 12
0.0015165767
 22
0.0119012029
 32
0.0
 13
0.0027943698
 23
0.0116683933
 33
0.0
 40
0.0
 40
0.0
 40
0.0
 40
0.0
 40
1.0
 40
1.0
 40
1.0
 40
1.0
 10
7.3525666818
 20
4.5796073948
 30
0.0
 10
7.3530722073
 20
4.5835744625
 30
0.0
 10
7.3537888155
 20
4.58751649
 30
0.0
 10
7.3547202721
 20
4.5914059544
 30
0.0
 11
7.3525666818
 21
4.5796073948
 31
0.0
 11
7.3547202721
 21
4.5914059544
 31
0.0
  0
SPLINE
  5
499
100
AcDbEntity
  8
0
100
AcDbSpline
 62
7
  6
CONTINUOUS
 70
0
 71
3
 72
8
 73
4
 74
2
 42
0.0000001
 43
0.0000001
 44
0.0000000001
 12
0.00014557
 22
0.0006078537
 32
0.0
 13
0.0001490699
 23
0.0006069862
 33
0.0
 40
0.0
 40
0.0
 40
0.0
 40
0.0
 40
1.0
 40
1.0
 40
1.0
 40
1.0
 10
7.3547202721
 20
4.5914059544
 30
0.0
 10
7.3547687954
 20
4.5916085723
 30
0.0
 10
7.3548179018
 20
4.5918110475
 30
0.0
 10
7.3548675918
 20
4.5920133763
 30
0.0
 11
7.3547202721
 21
4.5914059544
 31
0.0
 11
7.3548675918
 21
4.5920133763
 31
0.0
  0
SPLINE
  5
49A
100
AcDbEntity
  8
0
100
AcDbSpline
 62
7
  6
CONTINUOUS
 70
0
 71
3
 72
20
 73
16
 74
14
 42
0.0000001
 43
0.0000001
 44
0.0000000001
 12
0.0933678908
 22
0.3801774295
 32
0.0
 13
0.0934027017
 23
-0.3801696313
 33
0.0
 40
0.0
 40
0.0
 40
0.0
 40
0.0
 40
0.069088158
 40
0.1385088196
 40
0.2087574904
 40
0.2818734815
 40
0.3621191062
 40
0.4523705504
 40
0.5475569921
 40
0.6378030174
 40
0.7181227168
 40
0.7912699323
 40
0.8614945318
 40
0.9308975193
 40
1.0
 40
1.0
 40
1.0
 40
1.0
 10
7.3548675918
 20
4.5920133763
 30
0.0
 10
7.357017797
 20
4.600768629
 30
0.0
 10
7.3635193452
 20
4.6177711727
 30
0.0
 10
7.3792965282
 20
4.640203622
 30
0.0
 10
7.4000968108
 20
4.6587912937
 30
0.0
 10
7.425389339
 20
4.6735145091
 30
0.0
 10
7.4553759823
 20
4.6842726803
 30
0.0
 10
7.4896096853
 20
4.6901753147
 30
0.0
 10
7.5256554154
 20
4.6901785033
 30
0.0
 10
7.5598989922
 20
4.6842809369
 30
0.0
 10
7.5898998337
 20
4.6735228036
 30
0.0
 10
7.6152022546
 20
4.6587951315
 30
0.0
 10
7.6360018957
 20
4.6402090661
 30
0.0
 10
7.6517792984
 20
4.6177813869
 30
0.0
 10
7.6582827556
 20
4.600779958
 30
0.0
 10
7.6604342084
 20
4.5920230698
 30
0.0
 11
7.3548675918
 21
4.5920133763
 31
0.0
 11
7.364490602
 21
4.6172031955
 31
0.0
 11
7.379999117
 21
4.6394210059
 31
0.0
 11
7.4003451543
 21
4.6578003763
 31
0.0
 11
7.4249308439
 21
4.67228926
 31
0.0
 11
7.4543619038
 21
4.6830020258
 31
0.0
 11
7.489057207
 21
4.6890903148
 31
0.0
 11
7.5262087884
 21
4.6890936679
 31
0.0
 11
7.5609031984
 21
4.6830125295
 31
0.0
 11
7.5903629774
 21
4.6722941376
 31
0.0
 11
7.6149596644
 21
4.6577999115
 31
0.0
 11
7.6352993095
 21
4.6394274804
 31
0.0
 11
7.6508062468
 21
4.6172169816
 31
0.0
 11
7.6604342084
 21
4.5920230698
 31
0.0
  0
SPLINE
  5
49B
100
AcDbEntity
  8
0
100
AcDbSpline
 62
7
  6
CONTINUOUS
 70
0
 71
3
 72
8
 73
4
 74
2
 42
0.0000001
 43
0.0000001
 44
0.0000000001
 12
0.0001515076
 22
-0.0006166696
 32
0.0
 13
0.000147895
 23
-0.0006175652
 33
0.0
 40
0.0
 40
0.0
 40
0.0
 40
0.0
 40
1.0
 40
1.0
 40
1.0
 40
1.0
 10
7.6604342084
 20
4.5920230698
 30
0.0
 10
7.6604847109
 20
4.5918175133
 30
0.0
 10
7.6605346111
 20
4.5916118055
 30
0.0
 10
7.6605839094
 20
4.5914059504
 30
0.0
 11
7.6604342084
 21
4.5920230698
 31
0.0
 11
7.6605839094
 21
4.5914059504
 31
0.0
  0
SPLINE
  5
49C
100
AcDbEntity
  8
0
100
AcDbSpline
 62
7
  6
CONTINUOUS
 70
0
 71
3
 72
8
 73
4
 74
2
 42
0.0000001
 43
0.0000001
 44
0.0000000001
 12
0.0027949305
 22
-0.0116707903
 32
0.0
 13
0.0015166299
 23
-0.0119036697
 33
0.0
 40
0.0
 40
0.0
 40
0.0
 40
0.0
 40
1.0
 40
1.0
 40
1.0
 40
1.0
 10
7.6605839094
 20
4.5914059504
 30
0.0
 10
7.6615155529
 20
4.587515687
 30
0.0
 10
7.6622322634
 20
4.5835728396
 30
0.0
 10
7.6627378067
 20
4.5796049497
 30
0.0
 11
7.6605839094
 21
4.5914059504
 31
0.0
 11
7.6627378067
 21
4.5796049497
 31
0.0
  0
SPLINE
  5
49D
100
AcDbEntity
  8
0
100
AcDbSpline
 62
7
  6
CONTINUOUS
 70
0
 71
3
 72
20
 73
16
 74
14
 42
0.0000001
 43
0.0000001
 44
0.0000000001
 12
0.0
 22
-0.4567349245
 32
0.0
 13
0.0
 23
0.4567349245
 33
0.0
 40
0.0
 40
0.0
 40
0.0
 40
0.0
 40
0.0714807899
 40
0.1442682139
 40
0.219313775
 40
0.2969958771
 40
0.3770819549
 40
0.4588301198
 40
0.5411698802
 40
0.6229180451
 40
0.7030041229
 40
0.780686225
 40
0.8557317861
 40
0.9285192101
 40
1.0
 40
1.0
 40
1.0
 40
1.0
 10
4.0386520908
 20
4.6068893701
 30
0.0
 10
4.0386520908
 20
4.596006779
 30
0.0
 10
4.0417724444
 20
4.5739247758
 30
0.0
 10
4.0554390714
 20
4.5430378153
 30
0.0
 10
4.0771855169
 20
4.5159935148
 30
0.0
 10
4.1056535008
 20
4.4943359398
 30
0.0
 10
4.1391644212
 20
4.4792230186
 30
0.0
 10
4.1758028292
 20
4.4714609699
 30
0.0
 10
4.2135013523
 20
4.4714609699
 30
0.0
 10
4.2501397604
 20
4.4792230186
 30
0.0
 10
4.2836506808
 20
4.4943359398
 30
0.0
 10
4.3121186646
 20
4.5159935148
 30
0.0
 10
4.3338651101
 20
4.5430378153
 30
0.0
 10
4.3475317371
 20
4.5739247758
 30
0.0
 10
4.3506520908
 20
4.596006779
 30
0.0
 10
4.3506520908
 20
4.6068893701
 30
0.0
 11
4.0386520908
 21
4.6068893701
 31
0.0
 11
4.0431851672
 21
4.5745578327
 31
0.0
 11
4.0565209508
 21
4.5441052868
 31
0.0
 11
4.0778844141
 21
4.5173015235
 31
0.0
 11
4.1060339903
 21
4.4957042803
 31
0.0
 11
4.1393337284
 21
4.4805687103
 31
0.0
 11
4.1758483686
 21
4.4727744379
 31
0.0
 11
4.2134558129
 21
4.4727744379
 31
0.0
 11
4.2499704531
 21
4.4805687103
 31
0.0
 11
4.2832701913
 21
4.4957042803
 31
0.0
 11
4.3114197675
 21
4.5173015235
 31
0.0
 11
4.3327832308
 21
4.5441052868
 31
0.0
 11
4.3461190143
 21
4.5745578327
 31
0.0
 11
4.3506520908
 21
4.6068893701
 31
0.0
  0
SPLINE
  5
49E
100
AcDbEntity
  8
0
100
AcDbSpline
 62
7
  6
CONTINUOUS
 70
0
 71
3
 72
20
 73
16
 74
14
 42
0.0000001
 43
0.0000001
 44
0.0000000001
 12
0.0
 22
0.4567349245
 32
0.0
 13
0.0
 23
-0.4567349245
 33
0.0
 40
0.0
 40
0.0
 40
0.0
 40
0.0
 40
0.0714807899
 40
0.1442682139
 40
0.219313775
 40
0.2969958771
 40
0.3770819549
 40
0.4588301198
 40
0.5411698802
 40
0.6229180451
 40
0.7030041229
 40
0.780686225
 40
0.8557317861
 40
0.9285192101
 40
1.0
 40
1.0
 40
1.0
 40
1.0
 10
4.3506520908
 20
3.9243893701
 30
0.0
 10
4.3506520908
 20
3.9352719611
 30
0.0
 10
4.3475317371
 20
3.9573539644
 30
0.0
 10
4.3338651101
 20
3.9882409249
 30
0.0
 10
4.3121186646
 20
4.0152852254
 30
0.0
 10
4.2836506808
 20
4.0369428003
 30
0.0
 10
4.2501397604
 20
4.0520557216
 30
0.0
 10
4.2135013523
 20
4.0598177703
 30
0.0
 10
4.1758028292
 20
4.0598177703
 30
0.0
 10
4.1391644212
 20
4.0520557216
 30
0.0
 10
4.1056535008
 20
4.0369428003
 30
0.0
 10
4.0771855169
 20
4.0152852254
 30
0.0
 10
4.0554390714
 20
3.9882409249
 30
0.0
 10
4.0417724444
 20
3.9573539644
 30
0.0
 10
4.0386520908
 20
3.9352719611
 30
0.0
 10
4.0386520908
 20
3.9243893701
 30
0.0
 11
4.3506520908
 21
3.9243893701
 31
0.0
 11
4.3461190143
 21
3.9567209075
 31
0.0
 11
4.3327832308
 21
3.9871734534
 31
0.0
 11
4.3114197675
 21
4.0139772167
 31
0.0
 11
4.2832701913
 21
4.0355744599
 31
0.0
 11
4.2499704531
 21
4.0507100299
 31
0.0
 11
4.2134558129
 21
4.0585043022
 31
0.0
 11
4.1758483686
 21
4.0585043022
 31
0.0
 11
4.1393337284
 21
4.0507100299
 31
0.0
 11
4.1060339903
 21
4.0355744599
 31
0.0
 11
4.0778844141
 21
4.0139772167
 31
0.0
 11
4.0565209508
 21
3.9871734534
 31
0.0
 11
4.0431851672
 21
3.9567209075
 31
0.0
 11
4.0386520908
 21
3.9243893701
 31
0.0
  0
SPLINE
  5
49F
100
AcDbEntity
  8
0
100
AcDbSpline
 62
7
  6
CONTINUOUS
 70
0
 71
3
 72
20
 73
16
 74
14
 42
0.0000001
 43
0.0000001
 44
0.0000000001
 12
-0.3468285851
 22
-0.0774589634
 32
0.0
 13
-0.3468286138
 23
0.0774589616
 33
0.0
 40
0.0
 40
0.0
 40
0.0
 40
0.0
 40
0.0136462043
 40
0.0565399572
 40
0.125691377
 40
0.215025809
 40
0.3228595451
 40
0.4407345756
 40
0.5598269947
 40
0.6779064851
 40
0.7857167312
 40
0.8748932163
 40
0.9440216385
 40
0.9865735271
 40
1.0
 40
1.0
 40
1.0
 40
1.0
 10
7.6838593502
 20
4.9528893701
 30
0.0
 10
7.6822817189
 20
4.9525370298
 30
0.0
 10
7.6757412458
 20
4.9510946191
 30
0.0
 10
7.6611659482
 20
4.9480502121
 30
0.0
 10
7.6377070392
 20
4.94370327
 30
0.0
 10
7.606505283
 20
4.9389924993
 30
0.0
 10
7.5693829548
 20
4.9350228664
 30
0.0
 10
7.5285800878
 20
4.9327738579
 30
0.0
 10
7.4865002767
 20
4.9327793785
 30
0.0
 10
7.4456766124
 20
4.9350421241
 30
0.0
 10
7.4085529345
 20
4.93902461
 30
0.0
 10
7.3773765088
 20
4.9437406484
 30
0.0
 10
7.3539795297
 20
4.9480818448
 30
0.0
 10
7.3394725057
 20
4.9511143417
 30
0.0
 10
7.3329970597
 20
4.9525427032
 30
0.0
 10
7.3314448313
 20
4.9528893701
 30
0.0
 11
7.6838593502
 21
4.9528893701
 31
0.0
 11
7.679123637
 21
4.9518450125
 31
0.0
 11
7.6642021106
 21
4.9487294833
 31
0.0
 11
7.6400380204
 21
4.9442565311
 31
0.0
 11
7.6086453865
 21
4.9395256714
 31
0.0
 11
7.5705401355
 21
4.9354624996
 31
0.0
 11
7.5287135003
 21
4.9331651625
 31
0.0
 11
7.4863911943
 21
4.9331706974
 31
0.0
 11
7.4444927145
 21
4.9354848307
 31
0.0
 11
7.4063971381
 21
4.9395599819
 31
0.0
 11
7.3750613581
 21
4.9442914303
 31
0.0
 11
7.3509063634
 21
4.9487686137
 31
0.0
 11
7.3361042457
 21
4.9518616275
 31
0.0
 11
7.3314448313
 21
4.9528893701
 31
0.0
  0
SPLINE
  5
4A0
100
AcDbEntity
  8
0
100
AcDbSpline
 62
7
  6
CONTINUOUS
 70
0
 71
3
 72
20
 73
16
 74
14
 42
0.0000001
 43
0.0000001
 44
0.0000000001
 12
0.3468285851
 22
0.0774589634
 32
0.0
 13
0.3468286138
 23
-0.0774589616
 33
0.0
 40
0.0
 40
0.0
 40
0.0
 40
0.0
 40
0.0136462043
 40
0.0565399572
 40
0.125691377
 40
0.215025809
 40
0.3228595451
 40
0.4407345756
 40
0.5598269947
 40
0.6779064851
 40
0.7857167312
 40
0.8748932163
 40
0.9440216385
 40
0.9865735271
 40
1.0
 40
1.0
 40
1.0
 40
1.0
 10
7.3314448313
 20
3.5783893701
 30
0.0
 10
7.3330224626
 20
3.5787417104
 30
0.0
 10
7.3395629358
 20
3.5801841211
 30
0.0
 10
7.3541382334
 20
3.5832285281
 30
0.0
 10
7.3775971423
 20
3.5875754702
 30
0.0
 10
7.4087988985
 20
3.5922862409
 30
0.0
 10
7.4459212268
 20
3.5962558738
 30
0.0
 10
7.4867240938
 20
3.5985048822
 30
0.0
 10
7.5288039049
 20
3.5984993617
 30
0.0
 10
7.5696275692
 20
3.5962366161
 30
0.0
 10
7.606751247
 20
3.5922541302
 30
0.0
 10
7.6379276727
 20
3.5875380918
 30
0.0
 10
7.6613246519
 20
3.5831968954
 30
0.0
 10
7.6758316758
 20
3.5801643985
 30
0.0
 10
7.6823071219
 20
3.578736037
 30
0.0
 10
7.6838593502
 20
3.5783893701
 30
0.0
 11
7.3314448313
 21
3.5783893701
 31
0.0
 11
7.3361805446
 21
3.5794337277
 31
0.0
 11
7.351102071
 21
3.5825492569
 31
0.0
 11
7.3752661611
 21
3.5870222091
 31
0.0
 11
7.406658795
 21
3.5917530688
 31
0.0
 11
7.4447640461
 21
3.5958162406
 31
0.0
 11
7.4865906812
 21
3.5981135777
 31
0.0
 11
7.5289129872
 21
3.5981080428
 31
0.0
 11
7.5708114671
 21
3.5957939095
 31
0.0
 11
7.6089070435
 21
3.5917187583
 31
0.0
 11
7.6402428234
 21
3.5869873099
 31
0.0
 11
7.6643978181
 21
3.5825101265
 31
0.0
 11
7.6791999359
 21
3.5794171127
 31
0.0
 11
7.6838593502
 21
3.5783893701
 31
0.0
  0
SPLINE
  5
4A1
100
AcDbEntity
  8
0
100
AcDbSpline
 62
7
  6
CONTINUOUS
 70
0
 71
3
 72
20
 73
16
 74
14
 42
0.0000001
 43
0.0000001
 44
0.0000000001
 12
-0.3470309626
 22
-0.0760108882
 32
0.0
 13
-0.3470309896
 23
0.0760108862
 33
0.0
 40
0.0
 40
0.0
 40
0.0
 40
0.0
 40
0.0136553405
 40
0.0565434205
 40
0.125667042
 40
0.214991257
 40
0.3228351289
 40
0.4407213697
 40
0.5598183853
 40
0.6779086205
 40
0.7857289944
 40
0.8748976686
 40
0.9440037253
 40
0.9865597503
 40
1.0
 40
1.0
 40
1.0
 40
1.0
 10
6.0278593502
 20
4.9683893701
 30
0.0
 10
6.0262797415
 20
4.9680433852
 30
0.0
 10
6.0197351788
 20
4.9666279528
 30
0.0
 10
6.0051556758
 20
4.9636420299
 30
0.0
 10
5.9816943022
 20
4.9593806254
 30
0.0
 10
5.9504923334
 20
4.9547646276
 30
0.0
 10
5.9133727615
 20
4.9508766469
 30
0.0
 10
5.8725783322
 20
4.9486748039
 30
0.0
 10
5.8305099128
 20
4.948679997
 30
0.0
 10
5.7896947004
 20
4.9508948796
 30
0.0
 10
5.7525734589
 20
4.954795123
 30
0.0
 10
5.7213958123
 20
4.959416162
 30
0.0
 10
5.6979942649
 20
4.9636721625
 30
0.0
 10
5.6834807338
 20
4.9666468306
 30
0.0
 10
5.6769995591
 20
4.968048835
 30
0.0
 10
5.6754448313
 20
4.9683893701
 30
0.0
 11
6.0278593502
 21
4.9683893701
 31
0.0
 11
6.0231177936
 21
4.9673639212
 31
0.0
 11
6.0081910415
 21
4.9643080144
 31
0.0
 11
5.9840288381
 21
4.9599237181
 31
0.0
 11
5.9526361206
 21
4.9552877344
 31
0.0
 11
5.9145309909
 21
4.9513074123
 31
0.0
 11
5.8727113644
 21
4.9490578425
 31
0.0
 11
5.8304011393
 21
4.9490630498
 31
0.0
 11
5.788509801
 21
4.9513286428
 31
0.0
 11
5.7504142548
 21
4.955320341
 31
0.0
 11
5.7190774603
 21
4.9599567667
 31
0.0
 11
5.6949223876
 21
4.964345406
 31
0.0
 11
5.6801116597
 21
4.967379879
 31
0.0
 11
5.6754448313
 21
4.9683893701
 31
0.0
  0
SPLINE
  5
4A2
100
AcDbEntity
  8
0
100
AcDbSpline
 62
7
  6
CONTINUOUS
 70
0
 71
3
 72
20
 73
16
 74
14
 42
0.0000001
 43
0.0000001
 44
0.0000000001
 12
0.3470309626
 22
0.0760108882
 32
0.0
 13
0.3470309896
 23
-0.0760108862
 33
0.0
 40
0.0
 40
0.0
 40
0.0
 40
0.0
 40
0.0136553405
 40
0.0565434205
 40
0.125667042
 40
0.214991257
 40
0.3228351289
 40
0.4407213697
 40
0.5598183853
 40
0.6779086205
 40
0.7857289944
 40
0.8748976686
 40
0.9440037253
 40
0.9865597503
 40
1.0
 40
1.0
 40
1.0
 40
1.0
 10
5.6754448313
 20
3.5628893701
 30
0.0
 10
5.67702444
 20
3.5632353549
 30
0.0
 10
5.6835690028
 20
3.5646507874
 30
0.0
 10
5.6981485058
 20
3.5676367103
 30
0.0
 10
5.7216098793
 20
3.5718981148
 30
0.0
 10
5.7528118482
 20
3.5765141126
 30
0.0
 10
5.78993142
 20
3.5804020933
 30
0.0
 10
5.8307258493
 20
3.5826039363
 30
0.0
 10
5.8727942688
 20
3.5825987432
 30
0.0
 10
5.9136094811
 20
3.5803838606
 30
0.0
 10
5.9507307226
 20
3.5764836172
 30
0.0
 10
5.9819083693
 20
3.5718625781
 30
0.0
 10
6.0053099167
 20
3.5676065777
 30
0.0
 10
6.0198234477
 20
3.5646319095
 30
0.0
 10
6.0263046225
 20
3.5632299052
 30
0.0
 10
6.0278593502
 20
3.5628893701
 30
0.0
 11
5.6754448313
 21
3.5628893701
 31
0.0
 11
5.680186388
 21
3.563914819
 31
0.0
 11
5.69511314
 21
3.5669707258
 31
0.0
 11
5.7192753434
 21
3.571355022
 31
0.0
 11
5.7506680609
 21
3.5759910058
 31
0.0
 11
5.7887731906
 21
3.5799713279
 31
0.0
 11
5.8305928171
 21
3.5822208977
 31
0.0
 11
5.8729030422
 21
3.5822156904
 31
0.0
 11
5.9147943805
 21
3.5799500974
 31
0.0
 11
5.9528899267
 21
3.5759583992
 31
0.0
 11
5.9842267212
 21
3.5713219735
 31
0.0
 11
6.0083817939
 21
3.5669333342
 31
0.0
 11
6.0231925218
 21
3.5638988612
 31
0.0
 11
6.0278593502
 21
3.5628893701
 31
0.0
  0
SPLINE
  5
4A3
100
AcDbEntity
  8
0
100
AcDbSpline
 62
7
  6
CONTINUOUS
 70
0
 71
3
 72
22
 73
18
 74
16
 42
0.0000001
 43
0.0000001
 44
0.0000000001
 12
0.3472214278
 22
0.0746832575
 32
0.0
 13
0.3472214208
 23
-0.0746832584
 33
0.0
 40
0.0
 40
0.0
 40
0.0
 40
0.0
 40
0.0120574259
 40
0.0465774994
 40
0.1006857811
 40
0.1714635581
 40
0.2560667941
 40
0.3498974151
 40
0.4493425574
 40
0.5501301829
 40
0.6495705519
 40
0.7433183977
 40
0.8278857727
 40
0.898718881
 40
0.9530704332
 40
0.9878314592
 40
1.0
 40
1.0
 40
1.0
 40
1.0
 10
4.0184448313
 20
3.5481393701
 30
0.0
 10
4.0198403636
 20
3.5484395327
 30
0.0
 10
4.0252339347
 20
3.5495866992
 30
0.0
 10
4.0369150763
 20
3.5519625088
 30
0.0
 10
4.0554719284
 20
3.5554033101
 30
0.0
 10
4.0799665201
 20
3.559311355
 30
0.0
 10
4.1092429008
 20
3.5630163794
 30
0.0
 10
4.1420235551
 20
3.5658929025
 30
0.0
 10
4.176813331
 20
3.5674560775
 30
0.0
 10
4.212303003
 20
3.5674602726
 30
0.0
 10
4.2470827909
 20
3.5659057634
 30
0.0
 10
4.2798495906
 20
3.5630387243
 30
0.0
 10
4.3091195251
 20
3.5593424906
 30
0.0
 10
4.3336458414
 20
3.5554357972
 30
0.0
 10
4.3522661648
 20
3.551986833
 30
0.0
 10
4.364016593
 20
3.5495980218
 30
0.0
 10
4.3694509575
 20
3.5484422989
 30
0.0
 10
4.3708593502
 20
3.5481393701
 30
0.0
 11
4.0184448313
 21
3.5481393701
 31
0.0
 11
4.0226334904
 21
3.5490302382
 31
0.0
 11
4.0346478672
 21
3.5514732595
 31
0.0
 11
4.0535434152
 21
3.5549748085
 31
0.0
 11
4.0783677296
 21
3.5589313102
 31
0.0
 11
4.1081786163
 21
3.5626980702
 31
0.0
 11
4.1413766987
 21
3.5656053834
 31
0.0
 11
4.1766604757
 21
3.5671870907
 31
0.0
 11
4.2124564872
 21
3.5671913117
 31
0.0
 11
4.2477389417
 21
3.5656179809
 31
0.0
 11
4.2809084617
 21
3.5627215136
 31
0.0
 11
4.3107077192
 21
3.558964326
 31
0.0
 11
4.3355524494
 21
3.5550110679
 31
0.0
 11
4.3545336129
 21
3.5514973462
 31
0.0
 11
4.3666320716
 21
3.5490383582
 31
0.0
 11
4.3708593502
 21
3.5481393701
 31
0.0
  0
SPLINE
  5
4A4
100
AcDbEntity
  8
0
100
AcDbSpline
 62
7
  6
CONTINUOUS
 70
0
 71
3
 72
20
 73
16
 74
14
 42
0.0000001
 43
0.0000001
 44
0.0000000001
 12
0.0
 22
-0.4567349245
 32
0.0
 13
0.0
 23
0.4567349245
 33
0.0
 40
0.0
 40
0.0
 40
0.0
 40
0.0
 40
0.0714807899
 40
0.1442682139
 40
0.219313775
 40
0.2969958771
 40
0.3770819549
 40
0.4588301198
 40
0.5411698802
 40
0.6229180451
 40
0.7030041229
 40
0.780686225
 40
0.8557317861
 40
0.9285192101
 40
1.0
 40
1.0
 40
1.0
 40
1.0
 10
4.0386520908
 20
3.9243893701
 30
0.0
 10
4.0386520908
 20
3.913506779
 30
0.0
 10
4.0417724444
 20
3.8914247758
 30
0.0
 10
4.0554390714
 20
3.8605378153
 30
0.0
 10
4.0771855169
 20
3.8334935148
 30
0.0
 10
4.1056535008
 20
3.8118359398
 30
0.0
 10
4.1391644212
 20
3.7967230186
 30
0.0
 10
4.1758028292
 20
3.7889609699
 30
0.0
 10
4.2135013523
 20
3.7889609699
 30
0.0
 10
4.2501397604
 20
3.7967230186
 30
0.0
 10
4.2836506808
 20
3.8118359398
 30
0.0
 10
4.3121186646
 20
3.8334935148
 30
0.0
 10
4.3338651101
 20
3.8605378153
 30
0.0
 10
4.3475317371
 20
3.8914247758
 30
0.0
 10
4.3506520908
 20
3.913506779
 30
0.0
 10
4.3506520908
 20
3.9243893701
 30
0.0
 11
4.0386520908
 21
3.9243893701
 31
0.0
 11
4.0431851672
 21
3.8920578327
 31
0.0
 11
4.0565209508
 21
3.8616052868
 31
0.0
 11
4.0778844141
 21
3.8348015235
 31
0.0
 11
4.1060339903
 21
3.8132042803
 31
0.0
 11
4.1393337284
 21
3.7980687103
 31
0.0
 11
4.1758483686
 21
3.7902744379
 31
0.0
 11
4.2134558129
 21
3.7902744379
 31
0.0
 11
4.2499704531
 21
3.7980687103
 31
0.0
 11
4.2832701913
 21
3.8132042803
 31
0.0
 11
4.3114197675
 21
3.8348015235
 31
0.0
 11
4.3327832308
 21
3.8616052868
 31
0.0
 11
4.3461190143
 21
3.8920578327
 31
0.0
 11
4.3506520908
 21
3.9243893701
 31
0.0
  0
SPLINE
  5
4A5
100
AcDbEntity
  8
0
100
AcDbSpline
 62
7
  6
CONTINUOUS
 70
0
 71
3
 72
20
 73
16
 74
14
 42
0.0000001
 43
0.0000001
 44
0.0000000001
 12
0.0
 22
0.4567349245
 32
0.0
 13
0.0
 23
-0.4567349245
 33
0.0
 40
0.0
 40
0.0
 40
0.0
 40
0.0
 40
0.0714807899
 40
0.1442682139
 40
0.219313775
 40
0.2969958771
 40
0.3770819549
 40
0.4588301198
 40
0.5411698802
 40
0.6229180451
 40
0.7030041229
 40
0.780686225
 40
0.8557317861
 40
0.9285192101
 40
1.0
 40
1.0
 40
1.0
 40
1.0
 10
4.3506520908
 20
4.6068893701
 30
0.0
 10
4.3506520908
 20
4.6177719611
 30
0.0
 10
4.3475317371
 20
4.6398539644
 30
0.0
 10
4.3338651101
 20
4.6707409249
 30
0.0
 10
4.3121186646
 20
4.6977852254
 30
0.0
 10
4.2836506808
 20
4.7194428003
 30
0.0
 10
4.2501397604
 20
4.7345557216
 30
0.0
 10
4.2135013523
 20
4.7423177703
 30
0.0
 10
4.1758028292
 20
4.7423177703
 30
0.0
 10
4.1391644212
 20
4.7345557216
 30
0.0
 10
4.1056535008
 20
4.7194428003
 30
0.0
 10
4.0771855169
 20
4.6977852254
 30
0.0
 10
4.0554390714
 20
4.6707409249
 30
0.0
 10
4.0417724444
 20
4.6398539644
 30
0.0
 10
4.0386520908
 20
4.6177719611
 30
0.0
 10
4.0386520908
 20
4.6068893701
 30
0.0
 11
4.3506520908
 21
4.6068893701
 31
0.0
 11
4.3461190143
 21
4.6392209075
 31
0.0
 11
4.3327832308
 21
4.6696734534
 31
0.0
 11
4.3114197675
 21
4.6964772167
 31
0.0
 11
4.2832701913
 21
4.7180744599
 31
0.0
 11
4.2499704531
 21
4.7332100299
 31
0.0
 11
4.2134558129
 21
4.7410043022
 31
0.0
 11
4.1758483686
 21
4.7410043022
 31
0.0
 11
4.1393337284
 21
4.7332100299
 31
0.0
 11
4.1060339903
 21
4.7180744599
 31
0.0
 11
4.0778844141
 21
4.6964772167
 31
0.0
 11
4.0565209508
 21
4.6696734534
 31
0.0
 11
4.0431851672
 21
4.6392209075
 31
0.0
 11
4.0386520908
 21
4.6068893701
 31
0.0
  0
SPLINE
  5
4A6
100
AcDbEntity
  8
0
100
AcDbSpline
 62
7
  6
CONTINUOUS
 70
0
 71
3
 72
20
 73
16
 74
14
 42
0.0000001
 43
0.0000001
 44
0.0000000001
 12
0.0
 22
0.4890506832
 32
0.0
 13
0.0
 23
-0.4890506832
 33
0.0
 40
0.0
 40
0.0
 40
0.0
 40
0.0
 40
0.0663030841
 40
0.1343652585
 40
0.2056579468
 40
0.2826836346
 40
0.3672143218
 40
0.4558576616
 40
0.5443692251
 40
0.633149235
 40
0.7176692682
 40
0.7945842764
 40
0.8660166756
 40
0.9339351655
 40
1.0
 40
1.0
 40
1.0
 40
1.0
 10
7.3314448313
 20
4.6092643701
 30
0.0
 10
7.3314448313
 20
4.620072893
 30
0.0
 10
7.3346002264
 20
4.6421261832
 30
0.0
 10
7.3492619998
 20
4.6728208512
 30
0.0
 10
7.3732305543
 20
4.6993034619
 30
0.0
 10
7.4052674468
 20
4.7203055099
 30
0.0
 10
7.4436832612
 20
4.7348335119
 30
0.0
 10
7.4859411097
 20
4.7421659848
 30
0.0
 10
7.5294974249
 20
4.7421564938
 30
0.0
 10
7.5717722369
 20
4.7347953452
 30
0.0
 10
7.6101783595
 20
4.7202328473
 30
0.0
 10
7.6421976775
 20
4.699200021
 30
0.0
 10
7.6661242965
 20
4.6727009155
 30
0.0
 10
7.6807248644
 20
4.6420234553
 30
0.0
 10
7.6838593502
 20
4.6200340542
 30
0.0
 10
7.6838593502
 20
4.6092643701
 30
0.0
 11
7.3314448313
 21
4.6092643701
 31
0.0
 11
7.3361230865
 21
4.6413506822
 31
0.0
 11
7.350344036
 21
4.6714457416
 31
0.0
 11
7.3735144568
 21
4.6974985971
 31
0.0
 11
7.4048207537
 21
4.718448642
 31
0.0
 11
7.4433795298
 21
4.7333549845
 31
0.0
 11
7.4860645088
 21
4.74092527
 31
0.0
 11
7.5293511483
 21
4.7409156599
 31
0.0
 11
7.5720972527
 21
4.7333073276
 31
0.0
 11
7.6106380024
 21
4.7183688498
 31
0.0
 11
7.6418801929
 21
4.6974203622
 31
0.0
 11
7.6650646048
 21
4.6712885454
 31
0.0
 11
7.6792149187
 21
4.6412378611
 31
0.0
 11
7.6838593502
 21
4.6092643701
 31
0.0
  0
SPLINE
  5
4A7
100
AcDbEntity
  8
0
100
AcDbSpline
 62
7
  6
CONTINUOUS
 70
0
 71
3
 72
13
 73
9
 74
7
 42
0.0000001
 43
0.0000001
 44
0.0000000001
 12
0.0
 22
-0.1994896934
 32
0.0
 13
-0.1909159121
 23
-0.0593215267
 33
0.0
 40
0.0
 40
0.0
 40
0.0
 40
0.0
 40
0.1687113223
 40
0.3555018434
 40
0.5520968581
 40
0.7536597173
 40
0.965802684
 40
1.0
 40
1.0
 40
1.0
 40
1.0
 10
7.6838593502
 20
4.6092643701
 30
0.0
 10
7.6838593502
 20
4.5980456468
 30
0.0
 10
7.6803456634
 20
4.5743059546
 30
0.0
 10
7.6652301779
 20
4.5404017297
 30
0.0
 10
7.6408820031
 20
4.5095866528
 30
0.0
 10
7.6088722113
 20
4.4840991022
 30
0.0
 10
7.5818145631
 20
4.4710540027
 30
0.0
 10
7.5662256105
 20
4.4659001595
 30
0.0
 10
7.5640493399
 20
4.4652239472
 30
0.0
 11
7.6838593502
 21
4.6092643701
 31
0.0
 11
7.679123637
 21
4.5759430437
 31
0.0
 11
7.6642021106
 21
4.541798306
 31
0.0
 11
7.6400380204
 21
4.5109081532
 31
0.0
 11
7.6086453865
 21
4.4857820004
 31
0.0
 11
7.5705401355
 21
4.4673700307
 31
0.0
 11
7.5640493399
 21
4.4652239472
 31
0.0
  0
SPLINE
  5
4A8
100
AcDbEntity
  8
0
100
AcDbSpline
 62
7
  6
CONTINUOUS
 70
0
 71
3
 72
8
 73
4
 74
2
 42
0.0000001
 43
0.0000001
 44
0.0000000001
 12
-0.0144657031
 22
-0.0044947934
 32
0.0
 13
-0.0147775115
 23
-0.0033285598
 33
0.0
 40
0.0
 40
0.0
 40
0.0
 40
0.0
 40
1.0
 40
1.0
 40
1.0
 40
1.0
 10
7.5640493399
 20
4.4652239472
 30
0.0
 10
7.5592274389
 20
4.4637256827
 30
0.0
 10
7.5543456969
 20
4.4624201125
 30
0.0
 10
7.5494198598
 20
4.4613105926
 30
0.0
 11
7.5640493399
 21
4.4652239472
 31
0.0
 11
7.5494198598
 21
4.4613105926
 31
0.0
  0
SPLINE
  5
4A9
100
AcDbEntity
  8
0
100
AcDbSpline
 62
7
  6
CONTINUOUS
 70
0
 71
3
 72
9
 73
5
 74
3
 42
0.0000001
 43
0.0000001
 44
0.0000000001
 12
-0.0218396814
 22
-0.0049192779
 32
0.0
 13
-0.0222650659
 23
-0.002317639
 33
0.0
 40
0.0
 40
0.0
 40
0.0
 40
0.0
 40
0.938380538
 40
1.0
 40
1.0
 40
1.0
 40
1.0
 10
7.5494198598
 20
4.4613105926
 30
0.0
 10
7.5425885491
 20
4.4597718744
 30
0.0
 10
7.5352182777
 20
4.4585339396
 30
0.0
 10
7.5277993891
 20
4.4577343808
 30
0.0
 10
7.5273420686
 20
4.4576867769
 30
0.0
 11
7.5494198598
 21
4.4613105926
 31
0.0
 11
7.5287135003
 21
4.4578345821
 31
0.0
 11
7.5273420686
 21
4.4576867769
 31
0.0
  0
SPLINE
  5
4AA
100
AcDbEntity
  8
0
100
AcDbSpline
 62
7
  6
CONTINUOUS
 70
0
 71
3
 72
8
 73
4
 74
2
 42
0.0000001
 43
0.0000001
 44
0.0000000001
 12
-0.039337493
 22
-0.0040947603
 32
0.0
 13
-0.0393355617
 23
0.0041152694
 33
0.0
 40
0.0
 40
0.0
 40
0.0
 40
0.0
 40
1.0
 40
1.0
 40
1.0
 40
1.0
 10
7.5273420686
 20
4.4576867769
 30
0.0
 10
7.5142295709
 20
4.4563218568
 30
0.0
 10
7.5009752304
 20
4.4563253303
 30
0.0
 10
7.4878633765
 20
4.4576970867
 30
0.0
 11
7.5273420686
 21
4.4576867769
 31
0.0
 11
7.4878633765
 21
4.4576970867
 31
0.0
  0
SPLINE
  5
4AB
100
AcDbEntity
  8
0
100
AcDbSpline
 62
7
  6
CONTINUOUS
 70
0
 71
3
 72
9
 73
5
 74
3
 42
0.0000001
 43
0.0000001
 44
0.0000000001
 12
-0.0218905377
 22
0.0022901785
 32
0.0
 13
-0.0214805312
 23
0.0048057072
 33
0.0
 40
0.0
 40
0.0
 40
0.0
 40
0.0
 40
0.0672800452
 40
1.0
 40
1.0
 40
1.0
 40
1.0
 10
7.4878633765
 20
4.4576970867
 30
0.0
 10
7.4873724444
 20
4.4577484478
 30
0.0
 10
7.4800785674
 20
4.4585403511
 30
0.0
 10
7.4728321157
 20
4.4597560113
 30
0.0
 10
7.4661536757
 20
4.4612501377
 30
0.0
 11
7.4878633765
 21
4.4576970867
 31
0.0
 11
7.4863911943
 21
4.4578569246
 31
0.0
 11
7.4661536757
 21
4.4612501377
 31
0.0
  0
SPLINE
  5
4AC
100
AcDbEntity
  8
0
100
AcDbSpline
 62
7
  6
CONTINUOUS
 70
0
 71
3
 72
8
 73
4
 74
2
 42
0.0000001
 43
0.0000001
 44
0.0000000001
 12
-0.0151661897
 22
0.0033930384
 32
0.0
 13
-0.0148385054
 23
0.0046206857
 33
0.0
 40
0.0
 40
0.0
 40
0.0
 40
0.0
 40
1.0
 40
1.0
 40
1.0
 40
1.0
 10
7.4661536757
 20
4.4612501377
 30
0.0
 10
7.4610982791
 20
4.4623811505
 30
0.0
 10
7.4560889926
 20
4.4637185926
 30
0.0
 10
7.4511428241
 20
4.4652588212
 30
0.0
 11
7.4661536757
 21
4.4612501377
 31
0.0
 11
7.4511428241
 21
4.4652588212
 31
0.0
  0
SPLINE
  5
4AD
100
AcDbEntity
  8
0
100
AcDbSpline
 62
7
  6
CONTINUOUS
 70
0
 71
3
 72
13
 73
9
 74
7
 42
0.0000001
 43
0.0000001
 44
0.0000000001
 12
-0.1907702808
 22
0.0594055459
 32
0.0
 13
0.0
 23
0.1993740666
 33
0.0
 40
0.0
 40
0.0
 40
0.0
 40
0.0
 40
0.0350691953
 40
0.2474451598
 40
0.4490304594
 40
0.6461873173
 40
0.8325856511
 40
1.0
 40
1.0
 40
1.0
 40
1.0
 10
7.4511428241
 20
4.4652588212
 30
0.0
 10
7.4489127707
 20
4.4659532561
 30
0.0
 10
7.4332682413
 20
4.4711439882
 30
0.0
 10
7.4061786454
 20
4.4842574885
 30
0.0
 10
7.3741872558
 20
4.5098173458
 30
0.0
 10
7.34990558
 20
4.540676041
 30
0.0
 10
7.33491
 20
4.5745266032
 30
0.0
 10
7.3314448313
 20
4.5981383436
 30
0.0
 10
7.3314448313
 20
4.6092643701
 30
0.0
 11
7.4511428241
 21
4.4652588212
 31
0.0
 11
7.4444927145
 21
4.4674654587
 31
0.0
 11
7.4063971381
 21
4.4859477209
 31
0.0
 11
7.3750613581
 21
4.5111146796
 31
0.0
 11
7.3509063634
 21
4.5421251988
 31
0.0
 11
7.3361042457
 21
4.5762131061
 31
0.0
 11
7.3314448313
 21
4.6092643701
 31
0.0
  0
SPLINE
  5
4AE
100
AcDbEntity
  8
0
100
AcDbSpline
 62
7
  6
CONTINUOUS
 70
0
 71
3
 72
20
 73
16
 74
14
 42
0.0000001
 43
0.0000001
 44
0.0000000001
 12
0.0
 22
0.4203762299
 32
0.0
 13
-0.0
 23
-0.4203762299
 33
0.0
 40
0.0
 40
0.0
 40
0.0
 40
0.0
 40
0.0637166485
 40
0.1308348967
 40
0.2035879035
 40
0.282604864
 40
0.3670981182
 40
0.4552693022
 40
0.5447306978
 40
0.6329018818
 40
0.717395136
 40
0.7964120965
 40
0.8691651033
 40
0.9362833515
 40
1.0
 40
1.0
 40
1.0
 40
1.0
 10
6.0076520908
 20
4.7378099232
 30
0.0
 10
6.0076520908
 20
4.7467382447
 30
0.0
 10
6.0043928842
 20
4.765204251
 30
0.0
 10
5.990407528
 20
4.7905555072
 30
0.0
 10
5.9684975717
 20
4.8125045222
 30
0.0
 10
5.9400737086
 20
4.8299746802
 30
0.0
 10
5.9067475843
 20
4.8421416617
 30
0.0
 10
5.870363901
 20
4.8483879528
 30
0.0
 10
5.8329402806
 20
4.8483879528
 30
0.0
 10
5.7965565972
 20
4.8421416617
 30
0.0
 10
5.763230473
 20
4.8299746802
 30
0.0
 10
5.7348066098
 20
4.8125045222
 30
0.0
 10
5.7128966535
 20
4.7905555072
 30
0.0
 10
5.6989112973
 20
4.765204251
 30
0.0
 10
5.6956520908
 20
4.7467382447
 30
0.0
 10
5.6956520908
 20
4.7378099232
 30
0.0
 11
6.0076520908
 21
4.7378099232
 31
0.0
 11
6.0031190143
 21
4.764208513
 31
0.0
 11
5.9897832308
 21
4.7890729126
 31
0.0
 11
5.9684197675
 21
4.8109580937
 31
0.0
 11
5.9402701913
 21
4.8285921689
 31
0.0
 11
5.9069704531
 21
4.84095031
 31
0.0
 11
5.8704558129
 21
4.8473143068
 31
0.0
 11
5.8328483686
 21
4.8473143068
 31
0.0
 11
5.7963337284
 21
4.84095031
 31
0.0
 11
5.7630339903
 21
4.8285921689
 31
0.0
 11
5.7348844141
 21
4.8109580937
 31
0.0
 11
5.7135209508
 21
4.7890729126
 31
0.0
 11
5.7001851672
 21
4.764208513
 31
0.0
 11
5.6956520908
 21
4.7378099232
 31
0.0
  0
SPLINE
  5
4AF
100
AcDbEntity
  8
0
100
AcDbSpline
 62
7
  6
CONTINUOUS
 70
0
 71
3
 72
20
 73
16
 74
14
 42
0.0000001
 43
0.0000001
 44
0.0000000001
 12
0.0
 22
-0.4203762299
 32
0.0
 13
0.0
 23
0.4203762299
 33
0.0
 40
0.0
 40
0.0
 40
0.0
 40
0.0
 40
0.0637166485
 40
0.1308348967
 40
0.2035879035
 40
0.282604864
 40
0.3670981182
 40
0.4552693022
 40
0.5447306978
 40
0.6329018818
 40
0.717395136
 40
0.7964120965
 40
0.8691651033
 40
0.9362833515
 40
1.0
 40
1.0
 40
1.0
 40
1.0
 10
5.6956520908
 20
3.793468817
 30
0.0
 10
5.6956520908
 20
3.7845404955
 30
0.0
 10
5.6989112973
 20
3.7660744892
 30
0.0
 10
5.7128966535
 20
3.7407232329
 30
0.0
 10
5.7348066098
 20
3.718774218
 30
0.0
 10
5.763230473
 20
3.70130406
 30
0.0
 10
5.7965565972
 20
3.6891370785
 30
0.0
 10
5.8329402806
 20
3.6828907874
 30
0.0
 10
5.870363901
 20
3.6828907874
 30
0.0
 10
5.9067475843
 20
3.6891370785
 30
0.0
 10
5.9400737086
 20
3.70130406
 30
0.0
 10
5.9684975717
 20
3.718774218
 30
0.0
 10
5.990407528
 20
3.7407232329
 30
0.0
 10
6.0043928842
 20
3.7660744892
 30
0.0
 10
6.0076520908
 20
3.7845404955
 30
0.0
 10
6.0076520908
 20
3.793468817
 30
0.0
 11
5.6956520908
 21
3.793468817
 31
0.0
 11
5.7001851672
 21
3.7670702272
 31
0.0
 11
5.7135209508
 21
3.7422058276
 31
0.0
 11
5.7348844141
 21
3.7203206465
 31
0.0
 11
5.7630339903
 21
3.7026865713
 31
0.0
 11
5.7963337284
 21
3.6903284301
 31
0.0
 11
5.8328483686
 21
3.6839644334
 31
0.0
 11
5.8704558129
 21
3.6839644334
 31
0.0
 11
5.9069704531
 21
3.6903284301
 31
0.0
 11
5.9402701913
 21
3.7026865713
 31
0.0
 11
5.9684197675
 21
3.7203206465
 31
0.0
 11
5.9897832308
 21
3.7422058276
 31
0.0
 11
6.0031190143
 21
3.7670702272
 31
0.0
 11
6.0076520908
 21
3.793468817
 31
0.0
  0
SPLINE
  5
4B0
100
AcDbEntity
  8
0
100
AcDbSpline
 62
7
  6
CONTINUOUS
 70
0
 71
3
 72
20
 73
16
 74
14
 42
0.0000001
 43
0.0000001
 44
0.0000000001
 12
0.0
 22
0.4900401936
 32
0.0
 13
-0.0
 23
-0.4900401936
 33
0.0
 40
0.0
 40
0.0
 40
0.0
 40
0.0
 40
0.0665615163
 40
0.1348930872
 40
0.2062305856
 40
0.283258522
 40
0.3676587875
 40
0.4560361709
 40
0.5442298629
 40
0.6327428361
 40
0.717127634
 40
0.7940393649
 40
0.8654915095
 40
0.9336881433
 40
1.0
 40
1.0
 40
1.0
 40
1.0
 10
4.0184448313
 20
4.6243893701
 30
0.0
 10
4.0184448313
 20
4.6352619762
 30
0.0
 10
4.021620183
 20
4.6574455954
 30
0.0
 10
4.0363288501
 20
4.6882957593
 30
0.0
 10
4.0603230461
 20
4.714916895
 30
0.0
 10
4.0923542296
 20
4.736043472
 30
0.0
 10
4.130753746
 20
4.7506721354
 30
0.0
 10
4.1729748542
 20
4.7580571812
 30
0.0
 10
4.2164831066
 20
4.7580459414
 30
0.0
 10
4.2587196299
 20
4.7506287417
 30
0.0
 10
4.2971062646
 20
4.7359627391
 30
0.0
 10
4.3291129335
 20
4.7148055484
 30
0.0
 10
4.3530608805
 20
4.6881695698
 30
0.0
 10
4.3677056088
 20
4.6573403033
 30
0.0
 10
4.3708593502
 20
4.6352211951
 30
0.0
 10
4.3708593502
 20
4.6243893701
 30
0.0
 11
4.0184448313
 21
4.6243893701
 31
0.0
 11
4.0231478608
 21
4.6566663524
 31
0.0
 11
4.0374318068
 21
4.6869521345
 31
0.0
 11
4.0606151128
 21
4.7131172443
 31
0.0
 11
4.0919317034
 21
4.7341907092
 31
0.0
 11
4.1304749793
 21
4.7491915749
 31
0.0
 11
4.1731083279
 21
4.756808738
 31
0.0
 11
4.2163267803
 21
4.7567973624
 31
0.0
 11
4.2590201577
 21
4.7491384635
 31
0.0
 11
4.2975417306
 21
4.7341027864
 31
0.0
 11
4.328789875
 21
4.7130296405
 31
0.0
 11
4.3519775877
 21
4.6867934101
 31
0.0
 11
4.3661917934
 21
4.6565478809
 31
0.0
 11
4.3708593502
 21
4.6243893701
 31
0.0
  0
SPLINE
  5
4B1
100
AcDbEntity
  8
0
100
AcDbSpline
 62
7
  6
CONTINUOUS
 70
0
 71
3
 72
14
 73
10
 74
8
 42
0.0000001
 43
0.0000001
 44
0.0000000001
 12
0.0
 22
-0.2370486616
 32
0.0
 13
-0.2361170943
 23
-0.0246340168
 33
0.0
 40
0.0
 40
0.0
 40
0.0
 40
0.0
 40
0.1336367261
 40
0.270347631
 40
0.41105497
 40
0.5560673363
 40
0.7053234066
 40
0.8560093806
 40
1.0
 40
1.0
 40
1.0
 40
1.0
 10
4.3708593502
 20
4.6243893701
 30
0.0
 10
4.3708593502
 20
4.6138299011
 30
0.0
 10
4.3678910954
 20
4.5923826326
 30
0.0
 10
4.3555738609
 20
4.5620290009
 30
0.0
 10
4.3364116412
 20
4.5343918329
 30
0.0
 10
4.311368772
 20
4.5105277981
 30
0.0
 10
4.281538236
 20
4.4915128512
 30
0.0
 10
4.248736641
 20
4.4785041882
 30
0.0
 10
4.2257608554
 20
4.474000353
 30
0.0
 10
4.2144279732
 20
4.4728179972
 30
0.0
 11
4.3708593502
 21
4.6243893701
 31
0.0
 11
4.3666706911
 21
4.5929891056
 31
0.0
 11
4.3546563144
 21
4.5628913103
 31
0.0
 11
4.3357607664
 21
4.5354053134
 31
0.0
 11
4.3109364519
 21
4.5116273158
 31
0.0
 11
4.2811255652
 21
4.4925715352
 31
0.0
 11
4.2479274828
 21
4.4793882433
 31
0.0
 11
4.2144279732
 21
4.4728179972
 31
0.0
  0
SPLINE
  5
4B2
100
AcDbEntity
  8
0
100
AcDbSpline
 62
7
  6
CONTINUOUS
 70
0
 71
3
 72
8
 73
4
 74
2
 42
0.0000001
 43
0.0000001
 44
0.0000000001
 12
-0.001076328
 22
-0.0001122929
 32
0.0
 13
-0.0010769483
 23
-0.0001061659
 33
0.0
 40
0.0
 40
0.0
 40
0.0
 40
0.0
 40
1.0
 40
1.0
 40
1.0
 40
1.0
 10
4.2144279732
 20
4.4728179972
 30
0.0
 10
4.2140691972
 20
4.4727805662
 30
0.0
 10
4.2137103149
 20
4.4727441559
 30
0.0
 10
4.2133513321
 20
4.4727087673
 30
0.0
 11
4.2144279732
 21
4.4728179972
 31
0.0
 11
4.2133513321
 21
4.4727087673
 31
0.0
  0
SPLINE
  5
4B3
100
AcDbEntity
  8
0
100
AcDbSpline
 62
7
  6
CONTINUOUS
 70
0
 71
3
 72
10
 73
6
 74
4
 42
0.0000001
 43
0.0000001
 44
0.0000000001
 12
-0.0371883327
 22
-0.003666038
 32
0.0
 13
-0.037190064
 23
0.0036485041
 33
0.0
 40
0.0
 40
0.0
 40
0.0
 40
0.0
 40
0.0190247259
 40
0.9783548642
 40
1.0
 40
1.0
 40
1.0
 40
1.0
 10
4.2133513321
 20
4.4727087673
 30
0.0
 10
4.2131154995
 20
4.4726855188
 30
0.0
 10
4.2009854737
 20
4.4715126321
 30
0.0
 10
4.1884742496
 20
4.4715064609
 30
0.0
 10
4.1763108731
 20
4.4726736239
 30
0.0
 10
4.1760425451
 20
4.472699948
 30
0.0
 11
4.2133513321
 21
4.4727087673
 31
0.0
 11
4.2126437058
 21
4.472640345
 31
0.0
 11
4.1768476943
 21
4.4726226884
 31
0.0
 11
4.1760425451
 21
4.472699948
 31
0.0
  0
SPLINE
  5
4B4
100
AcDbEntity
  8
0
100
AcDbSpline
 62
7
  6
CONTINUOUS
 70
0
 71
3
 72
8
 73
4
 74
2
 42
0.0000001
 43
0.0000001
 44
0.0000000001
 12
-0.0018682231
 22
0.0001832807
 32
0.0
 13
-0.0018663276
 23
0.0002017106
 33
0.0
 40
0.0
 40
0.0
 40
0.0
 40
0.0
 40
1.0
 40
1.0
 40
1.0
 40
1.0
 10
4.1760425451
 20
4.472699948
 30
0.0
 10
4.1754198041
 20
4.4727610416
 30
0.0
 10
4.174797364
 20
4.4728252094
 30
0.0
 10
4.1741752548
 20
4.4728924463
 30
0.0
 11
4.1760425451
 21
4.472699948
 31
0.0
 11
4.1741752548
 21
4.4728924463
 31
0.0
  0
SPLINE
  5
4B5
100
AcDbEntity
  8
0
100
AcDbSpline
 62
7
  6
CONTINUOUS
 70
0
 71
3
 72
14
 73
10
 74
8
 42
0.0000001
 43
0.0000001
 44
0.0000000001
 12
-0.2353225631
 22
0.0254333946
 32
0.0
 13
0.0
 23
0.2363437501
 33
0.0
 40
0.0
 40
0.0
 40
0.0
 40
0.0
 40
0.1406125279
 40
0.291548117
 40
0.4410520755
 40
0.5863713077
 40
0.7277609716
 40
0.8653360891
 40
1.0
 40
1.0
 40
1.0
 40
1.0
 10
4.1741752548
 20
4.4728924463
 30
0.0
 10
4.1631454879
 20
4.4740845309
 30
0.0
 10
4.1404918899
 20
4.4785564651
 30
0.0
 10
4.1079856861
 20
4.4914043236
 30
0.0
 10
4.0781632845
 20
4.5103536279
 30
0.0
 10
4.053082833
 20
4.5341700598
 30
0.0
 10
4.0338428262
 20
4.561811116
 30
0.0
 10
4.021439342
 20
4.5922466004
 30
0.0
 10
4.0184448313
 20
4.6137803789
 30
0.0
 10
4.0184448313
 20
4.6243893701
 30
0.0
 11
4.1741752548
 21
4.4728924463
 31
0.0
 11
4.1415652398
 21
4.4793334168
 31
0.0
 11
4.1083957198
 21
4.4924606125
 31
0.0
 11
4.0785964623
 21
4.5114479468
 31
0.0
 11
4.0537517321
 21
4.535161624
 31
0.0
 11
4.0347705686
 21
4.5626640264
 31
0.0
 11
4.02267211
 21
4.5928443805
 31
0.0
 11
4.0184448313
 21
4.6243893701
 31
0.0
  0
SPLINE
  5
4B6
100
AcDbEntity
  8
0
100
AcDbSpline
 62
7
  6
CONTINUOUS
 70
0
 71
3
 72
9
 73
5
 74
3
 42
0.0000001
 43
0.0000001
 44
0.0000000001
 12
-0.0373115263
 22
0.0373134053
 32
0.0
 13
-0.019212053
 23
0.0492155801
 33
0.0
 40
0.0
 40
0.0
 40
0.0
 40
0.0
 40
0.479225343
 40
1.0
 40
1.0
 40
1.0
 40
1.0
 10
5.711088146
 20
4.6873118026
 30
0.0
 10
5.7051279363
 20
4.6932723124
 30
0.0
 10
5.6936924691
 20
4.7067070868
 30
0.0
 10
5.6850725526
 20
4.7221973304
 30
0.0
 10
5.6817375025
 20
4.7307407394
 30
0.0
 11
5.711088146
 21
4.6873118026
 31
0.0
 11
5.6948142157
 21
4.7066209339
 31
0.0
 11
5.6817375025
 21
4.7307407394
 31
0.0
  0
SPLINE
  5
4B7
100
AcDbEntity
  8
0
100
AcDbSpline
 62
7
  6
CONTINUOUS
 70
0
 71
3
 72
9
 73
5
 74
3
 42
0.0000001
 43
0.0000001
 44
0.0000000001
 12
-0.0118554289
 22
0.0303700916
 32
0.0
 13
0.0
 23
0.032480247
 33
0.0
 40
0.0
 40
0.0
 40
0.0
 40
0.0
 40
0.1508867569
 40
1.0
 40
1.0
 40
1.0
 40
1.0
 10
5.6817375025
 20
4.7307407394
 30
0.0
 10
5.6811412268
 20
4.7322682209
 30
0.0
 10
5.6774338943
 20
4.7424925299
 30
0.0
 10
5.6754448313
 20
4.7533655246
 30
0.0
 10
5.6754448313
 20
4.7625586606
 30
0.0
 11
5.6817375025
 21
4.7307407394
 31
0.0
 11
5.6800615716
 21
4.7353684151
 31
0.0
 11
5.6754448313
 21
4.7625586606
 31
0.0
  0
SPLINE
  5
4B8
100
AcDbEntity
  8
0
100
AcDbSpline
 62
7
  6
CONTINUOUS
 70
0
 71
3
 72
9
 73
5
 74
3
 42
0.0000001
 43
0.0000001
 44
0.0000000001
 12
0.0373094645
 22
-0.0373122346
 32
0.0
 13
0.0192115653
 23
-0.0492137379
 33
0.0
 40
0.0
 40
0.0
 40
0.0
 40
0.0
 40
0.479389901
 40
1.0
 40
1.0
 40
1.0
 40
1.0
 10
5.9922172454
 20
3.8439656929
 30
0.0
 10
5.9981791723
 20
3.8380033234
 30
0.0
 10
6.0096137394
 20
3.8245686943
 30
0.0
 10
6.0182325407
 20
3.8090789499
 30
0.0
 10
6.0215664523
 20
3.8005385602
 30
0.0
 11
5.9922172454
 21
3.8439656929
 31
0.0
 11
6.0084953
 21
3.8246501767
 31
0.0
 11
6.0215664523
 21
3.8005385602
 31
0.0
  0
SPLINE
  5
4B9
100
AcDbEntity
  8
0
100
AcDbSpline
 62
7
  6
CONTINUOUS
 70
0
 71
3
 72
9
 73
5
 74
3
 42
0.0000001
 43
0.0000001
 44
0.0000000001
 12
0.011855756
 22
-0.0303705638
 32
0.0
 13
0.0
 23
-0.0324807239
 33
0.0
 40
0.0
 40
0.0
 40
0.0
 40
0.0
 40
0.1504681164
 40
1.0
 40
1.0
 40
1.0
 40
1.0
 10
6.0215664523
 20
3.8005385602
 30
0.0
 10
6.0221610901
 20
3.7990152931
 30
0.0
 10
6.0258692119
 20
3.7887910769
 30
0.0
 10
6.0278593502
 20
3.7779178831
 30
0.0
 10
6.0278593502
 20
3.7687200796
 30
0.0
 11
6.0215664523
 21
3.8005385602
 31
0.0
 11
6.023238102
 21
3.7959237627
 31
0.0
 11
6.0278593502
 21
3.7687200796
 31
0.0
  0
SPLINE
  5
4BA
100
AcDbEntity
  8
0
100
AcDbSpline
 62
7
  6
CONTINUOUS
 70
0
 71
3
 72
20
 73
16
 74
14
 42
0.0000001
 43
0.0000001
 44
0.0000000001
 12
0.0
 22
-0.4567349245
 32
0.0
 13
0.0
 23
0.4567349245
 33
0.0
 40
0.0
 40
0.0
 40
0.0
 40
0.0
 40
0.0714807899
 40
0.1442682139
 40
0.219313775
 40
0.2969958771
 40
0.3770819549
 40
0.4588301198
 40
0.5411698802
 40
0.6229180451
 40
0.7030041229
 40
0.780686225
 40
0.8557317861
 40
0.9285192101
 40
1.0
 40
1.0
 40
1.0
 40
1.0
 10
7.3516520908
 20
3.9395143701
 30
0.0
 10
7.3516520908
 20
3.928631779
 30
0.0
 10
7.3547724444
 20
3.9065497758
 30
0.0
 10
7.3684390714
 20
3.8756628153
 30
0.0
 10
7.3901855169
 20
3.8486185148
 30
0.0
 10
7.4186535008
 20
3.8269609398
 30
0.0
 10
7.4521644212
 20
3.8118480186
 30
0.0
 10
7.4888028292
 20
3.8040859699
 30
0.0
 10
7.5265013523
 20
3.8040859699
 30
0.0
 10
7.5631397604
 20
3.8118480186
 30
0.0
 10
7.5966506808
 20
3.8269609398
 30
0.0
 10
7.6251186646
 20
3.8486185148
 30
0.0
 10
7.6468651101
 20
3.8756628153
 30
0.0
 10
7.6605317371
 20
3.9065497758
 30
0.0
 10
7.6636520908
 20
3.928631779
 30
0.0
 10
7.6636520908
 20
3.9395143701
 30
0.0
 11
7.3516520908
 21
3.9395143701
 31
0.0
 11
7.3561851672
 21
3.9071828327
 31
0.0
 11
7.3695209508
 21
3.8767302868
 31
0.0
 11
7.3908844141
 21
3.8499265235
 31
0.0
 11
7.4190339903
 21
3.8283292803
 31
0.0
 11
7.4523337284
 21
3.8131937103
 31
0.0
 11
7.4888483686
 21
3.8053994379
 31
0.0
 11
7.5264558129
 21
3.8053994379
 31
0.0
 11
7.5629704531
 21
3.8131937103
 31
0.0
 11
7.5962701913
 21
3.8283292803
 31
0.0
 11
7.6244197675
 21
3.8499265235
 31
0.0
 11
7.6457832308
 21
3.8767302868
 31
0.0
 11
7.6591190143
 21
3.9071828327
 31
0.0
 11
7.6636520908
 21
3.9395143701
 31
0.0
  0
SPLINE
  5
4BB
100
AcDbEntity
  8
0
100
AcDbSpline
 62
7
  6
CONTINUOUS
 70
0
 71
3
 72
20
 73
16
 74
14
 42
0.0000001
 43
0.0000001
 44
0.0000000001
 12
0.0
 22
0.4567349245
 32
0.0
 13
0.0
 23
-0.4567349245
 33
0.0
 40
0.0
 40
0.0
 40
0.0
 40
0.0
 40
0.0714807899
 40
0.1442682139
 40
0.219313775
 40
0.2969958771
 40
0.3770819549
 40
0.4588301198
 40
0.5411698802
 40
0.6229180451
 40
0.7030041229
 40
0.780686225
 40
0.8557317861
 40
0.9285192101
 40
1.0
 40
1.0
 40
1.0
 40
1.0
 10
7.6636520908
 20
4.5917643701
 30
0.0
 10
7.6636520908
 20
4.6026469611
 30
0.0
 10
7.6605317371
 20
4.6247289644
 30
0.0
 10
7.6468651101
 20
4.6556159249
 30
0.0
 10
7.6251186646
 20
4.6826602254
 30
0.0
 10
7.5966506808
 20
4.7043178003
 30
0.0
 10
7.5631397604
 20
4.7194307216
 30
0.0
 10
7.5265013523
 20
4.7271927703
 30
0.0
 10
7.4888028292
 20
4.7271927703
 30
0.0
 10
7.4521644212
 20
4.7194307216
 30
0.0
 10
7.4186535008
 20
4.7043178003
 30
0.0
 10
7.3901855169
 20
4.6826602254
 30
0.0
 10
7.3684390714
 20
4.6556159249
 30
0.0
 10
7.3547724444
 20
4.6247289644
 30
0.0
 10
7.3516520908
 20
4.6026469611
 30
0.0
 10
7.3516520908
 20
4.5917643701
 30
0.0
 11
7.6636520908
 21
4.5917643701
 31
0.0
 11
7.6591190143
 21
4.6240959075
 31
0.0
 11
7.6457832308
 21
4.6545484534
 31
0.0
 11
7.6244197675
 21
4.6813522167
 31
0.0
 11
7.5962701913
 21
4.7029494599
 31
0.0
 11
7.5629704531
 21
4.7180850299
 31
0.0
 11
7.5264558129
 21
4.7258793022
 31
0.0
 11
7.4888483686
 21
4.7258793022
 31
0.0
 11
7.4523337284
 21
4.7180850299
 31
0.0
 11
7.4190339903
 21
4.7029494599
 31
0.0
 11
7.3908844141
 21
4.6813522167
 31
0.0
 11
7.3695209508
 21
4.6545484534
 31
0.0
 11
7.3561851672
 21
4.6240959075
 31
0.0
 11
7.3516520908
 21
4.5917643701
 31
0.0
  0
SPLINE
  5
4BC
100
AcDbEntity
  8
0
100
AcDbSpline
 62
7
  6
CONTINUOUS
 70
0
 71
3
 72
20
 73
16
 74
14
 42
0.0000001
 43
0.0000001
 44
0.0000000001
 12
0.0
 22
-0.4489450598
 32
0.0
 13
0.0
 23
0.4489450598
 33
0.0
 40
0.0
 40
0.0
 40
0.0
 40
0.0
 40
0.0591091892
 40
0.1229777224
 40
0.193301286
 40
0.2711178541
 40
0.359203561
 40
0.4530895374
 40
0.5473332001
 40
0.6413888564
 40
0.7294796028
 40
0.8072148434
 40
0.8776589423
 40
0.9413548267
 40
1.0
 40
1.0
 40
1.0
 40
1.0
 10
6.0278593502
 20
3.7687200796
 30
0.0
 10
6.0278593502
 20
3.7598744868
 30
0.0
 10
6.0245401213
 20
3.7412676053
 30
0.0
 10
6.0087716042
 20
3.7162568621
 30
0.0
 10
5.9837554674
 20
3.6960543258
 30
0.0
 10
5.951559874
 20
3.6808976758
 30
0.0
 10
5.9138514734
 20
3.6707917385
 30
0.0
 10
5.8727066793
 20
3.6657795961
 30
0.0
 10
5.8303799314
 20
3.6657909856
 30
0.0
 10
5.7892119578
 20
3.6708347829
 30
0.0
 10
5.7514998164
 20
3.6809846866
 30
0.0
 10
5.7193202034
 20
3.6961913916
 30
0.0
 10
5.6943613511
 20
3.7164411842
 30
0.0
 10
5.6787176382
 20
3.7414366479
 30
0.0
 10
5.6754448313
 20
3.759943926
 30
0.0
 10
5.6754448313
 20
3.7687200796
 30
0.0
 11
6.0278593502
 21
3.7687200796
 31
0.0
 11
6.0231177936
 21
3.7426103448
 31
0.0
 11
6.0081910415
 21
3.7181285245
 31
0.0
 11
5.9840288381
 21
3.6978075436
 31
0.0
 11
5.9526361206
 21
3.6824785863
 31
0.0
 11
5.9145309909
 21
3.6719023409
 31
0.0
 11
5.8727113644
 21
3.6666381752
 31
0.0
 11
5.8304011393
 21
3.6666498666
 31
0.0
 11
5.788509801
 21
3.6719541893
 31
0.0
 11
5.7504142548
 21
3.6825733317
 31
0.0
 11
5.7190774603
 21
3.6979335138
 31
0.0
 11
5.6949223876
 21
3.7183469071
 31
0.0
 11
5.6801116597
 21
3.7428085269
 31
0.0
 11
5.6754448313
 21
3.7687200796
 31
0.0
  0
SPLINE
  5
4BD
100
AcDbEntity
  8
0
100
AcDbSpline
 62
7
  6
CONTINUOUS
 70
0
 71
3
 72
9
 73
5
 74
3
 42
0.0000001
 43
0.0000001
 44
0.0000000001
 12
0.0
 22
0.0325315939
 32
0.0
 13
0.0118898755
 23
0.0304156381
 33
0.0
 40
0.0
 40
0.0
 40
0.0
 40
0.0
 40
0.8569602748
 40
1.0
 40
1.0
 40
1.0
 40
1.0
 10
5.6754448313
 20
3.7687200796
 30
0.0
 10
5.6754448313
 20
3.7780128408
 30
0.0
 10
5.67745943
 20
3.7889034693
 30
0.0
 10
5.6811904831
 20
3.7991384625
 30
0.0
 10
5.6817573912
 20
3.8005886774
 30
0.0
 11
5.6754448313
 21
3.7687200796
 31
0.0
 11
5.6801582247
 21
3.7961970267
 31
0.0
 11
5.6817573912
 21
3.8005886774
 31
0.0
  0
SPLINE
  5
4BE
100
AcDbEntity
  8
0
100
AcDbSpline
 62
7
  6
CONTINUOUS
 70
0
 71
3
 72
9
 73
5
 74
3
 42
0.0000001
 43
0.0000001
 44
0.0000000001
 12
0.0192157859
 22
0.0491561405
 32
0.0
 13
0.0372669813
 23
0.037272119
 33
0.0
 40
0.0
 40
0.0
 40
0.0
 40
0.0
 40
0.5295007847
 40
1.0
 40
1.0
 40
1.0
 40
1.0
 10
5.6817573912
 20
3.8005886774
 30
0.0
 10
5.6851489825
 20
3.809264749
 30
0.0
 10
5.6937997097
 20
3.8247176021
 30
0.0
 10
5.705240142
 20
3.8381181356
 30
0.0
 10
5.7110848371
 20
3.8439636365
 30
0.0
 11
5.6817573912
 21
3.8005886774
 31
0.0
 11
5.6950922688
 21
3.8250539336
 31
0.0
 11
5.7110848371
 21
3.8439636365
 31
0.0
  0
SPLINE
  5
4BF
100
AcDbEntity
  8
0
100
AcDbSpline
 62
7
  6
CONTINUOUS
 70
0
 71
3
 72
20
 73
16
 74
14
 42
0.0000001
 43
0.0000001
 44
0.0000000001
 12
0.0
 22
-0.5345475019
 32
0.0
 13
0.0
 23
0.5345475019
 33
0.0
 40
0.0
 40
0.0
 40
0.0
 40
0.0
 40
0.0710238683
 40
0.1465120574
 40
0.2231182963
 40
0.2997615124
 40
0.3795097362
 40
0.4599461489
 40
0.5392255524
 40
0.6198238842
 40
0.6995629446
 40
0.7762783622
 40
0.8532450027
 40
0.9289530951
 40
1.0
 40
1.0
 40
1.0
 40
1.0
 10
6.0278593502
 20
4.2656393701
 30
0.0
 10
6.0278593502
 20
4.2529841596
 30
0.0
 10
6.024601723
 20
4.2267688064
 30
0.0
 10
6.0098278793
 20
4.1894045875
 30
0.0
 10
5.9855872936
 20
4.1561091327
 30
0.0
 10
5.953501176
 20
4.1291584974
 30
0.0
 10
5.9153784245
 20
4.1101601141
 30
0.0
 10
5.873452079
 20
4.1003843813
 30
0.0
 10
5.8302699713
 20
4.1003331925
 30
0.0
 10
5.7882942387
 20
4.1100249182
 30
0.0
 10
5.7500979172
 20
4.1289650502
 30
0.0
 10
5.717899571
 20
4.1559006532
 30
0.0
 10
5.6935407394
 20
4.1892604079
 30
0.0
 10
5.6787088819
 20
4.2267212872
 30
0.0
 10
5.6754448313
 20
4.2529800549
 30
0.0
 10
5.6754448313
 20
4.2656393701
 30
0.0
 11
6.0278593502
 21
4.2656393701
 31
0.0
 11
6.0231867336
 21
4.2279623769
 31
0.0
 11
6.0084122302
 21
4.1904124128
 31
0.0
 11
5.9843759739
 21
4.1572592206
 31
0.0
 11
5.9530550137
 21
4.1308491385
 31
0.0
 11
5.9149289305
 21
4.1117794857
 31
0.0
 11
5.8730629122
 21
4.1019822566
 31
0.0
 11
5.830684335
 21
4.1019319187
 31
0.0
 11
5.7887128929
 21
4.1116580596
 31
0.0
 11
5.7505531195
 21
4.1306492146
 31
0.0
 11
5.7191501484
 21
4.1570217824
 31
0.0
 11
5.6949549843
 21
4.1902976741
 31
0.0
 11
5.6801204734
 21
4.2279503436
 31
0.0
 11
5.6754448313
 21
4.2656393701
 31
0.0
  0
SPLINE
  5
4C0
100
AcDbEntity
  8
0
100
AcDbSpline
 62
7
  6
CONTINUOUS
 70
0
 71
3
 72
20
 73
16
 74
14
 42
0.0000001
 43
0.0000001
 44
0.0000000001
 12
0.0
 22
0.4489450598
 32
0.0
 13
0.0
 23
-0.4489450598
 33
0.0
 40
0.0
 40
0.0
 40
0.0
 40
0.0
 40
0.0591091892
 40
0.1229777224
 40
0.193301286
 40
0.2711178541
 40
0.359203561
 40
0.4530895374
 40
0.5473332001
 40
0.6413888564
 40
0.7294796028
 40
0.8072148434
 40
0.8776589423
 40
0.9413548267
 40
1.0
 40
1.0
 40
1.0
 40
1.0
 10
5.6754448313
 20
4.7625586606
 30
0.0
 10
5.6754448313
 20
4.7714042534
 30
0.0
 10
5.6787640602
 20
4.7900111349
 30
0.0
 10
5.6945325773
 20
4.8150218781
 30
0.0
 10
5.7195487142
 20
4.8352244144
 30
0.0
 10
5.7517443075
 20
4.8503810644
 30
0.0
 10
5.7894527081
 20
4.8604870017
 30
0.0
 10
5.8305975022
 20
4.8654991441
 30
0.0
 10
5.8729242501
 20
4.8654877546
 30
0.0
 10
5.9140922237
 20
4.8604439573
 30
0.0
 10
5.9518043651
 20
4.8502940536
 30
0.0
 10
5.9839839781
 20
4.8350873486
 30
0.0
 10
6.0089428304
 20
4.814837556
 30
0.0
 10
6.0245865433
 20
4.7898420923
 30
0.0
 10
6.0278593502
 20
4.7713348142
 30
0.0
 10
6.0278593502
 20
4.7625586606
 30
0.0
 11
5.6754448313
 21
4.7625586606
 31
0.0
 11
5.680186388
 21
4.7886683954
 31
0.0
 11
5.69511314
 21
4.8131502157
 31
0.0
 11
5.7192753434
 21
4.8334711966
 31
0.0
 11
5.7506680609
 21
4.8488001539
 31
0.0
 11
5.7887731906
 21
4.8593763993
 31
0.0
 11
5.8305928171
 21
4.864640565
 31
0.0
 11
5.8729030422
 21
4.8646288736
 31
0.0
 11
5.9147943805
 21
4.8593245509
 31
0.0
 11
5.9528899267
 21
4.8487054085
 31
0.0
 11
5.9842267212
 21
4.8333452264
 31
0.0
 11
6.0083817939
 21
4.8129318331
 31
0.0
 11
6.0231925218
 21
4.7884702133
 31
0.0
 11
6.0278593502
 21
4.7625586606
 31
0.0
  0
SPLINE
  5
4C1
100
AcDbEntity
  8
0
100
AcDbSpline
 62
7
  6
CONTINUOUS
 70
0
 71
3
 72
9
 73
5
 74
3
 42
0.0000001
 43
0.0000001
 44
0.0000000001
 12
0.0
 22
-0.0325423028
 32
0.0
 13
-0.0118970925
 23
-0.0304252958
 33
0.0
 40
0.0
 40
0.0
 40
0.0
 40
0.0
 40
0.8595184399
 40
1.0
 40
1.0
 40
1.0
 40
1.0
 10
6.0278593502
 20
4.7625586606
 30
0.0
 10
6.0278593502
 20
4.7532350908
 30
0.0
 10
6.0258371593
 20
4.7423406863
 30
0.0
 10
6.0220996264
 20
4.7321039853
 30
0.0
 10
6.0215425191
 20
4.7306792543
 30
0.0
 11
6.0278593502
 21
4.7625586606
 31
0.0
 11
6.0231158829
 21
4.7349931006
 31
0.0
 11
6.0215425191
 21
4.7306792543
 31
0.0
  0
SPLINE
  5
4C2
100
AcDbEntity
  8
0
100
AcDbSpline
 62
7
  6
CONTINUOUS
 70
0
 71
3
 72
9
 73
5
 74
3
 42
0.0000001
 43
0.0000001
 44
0.0000000001
 12
-0.0192166771
 22
-0.0491441992
 32
0.0
 13
-0.0372575166
 23
-0.0372635658
 33
0.0
 40
0.0
 40
0.0
 40
0.0
 40
0.0
 40
0.5306152887
 40
1.0
 40
1.0
 40
1.0
 40
1.0
 10
6.0215425191
 20
4.7306792543
 30
0.0
 10
6.0181436315
 20
4.7219870331
 30
0.0
 10
6.0094896203
 20
4.7065411792
 30
0.0
 10
5.9980495377
 20
4.6931463165
 30
0.0
 10
5.9922201681
 20
4.6873160005
 30
0.0
 11
6.0215425191
 21
4.7306792543
 31
0.0
 11
6.0081753046
 21
4.7061728825
 31
0.0
 11
5.9922201681
 21
4.6873160005
 31
0.0
  0
SPLINE
  5
4C3
100
AcDbEntity
  8
0
100
AcDbSpline
 62
7
  6
CONTINUOUS
 70
0
 71
3
 72
20
 73
16
 74
14
 42
0.0000001
 43
0.0000001
 44
0.0000000001
 12
0.0
 22
0.5345474754
 32
0.0
 13
-0.0
 23
-0.5345474754
 33
0.0
 40
0.0
 40
0.0
 40
0.0
 40
0.0
 40
0.0710868374
 40
0.1466186056
 40
0.2232365856
 40
0.2998641661
 40
0.3795830607
 40
0.4599913327
 40
0.5392401748
 40
0.6198100866
 40
0.6995225176
 40
0.7762204505
 40
0.8531877239
 40
0.9289193702
 40
1.0
 40
1.0
 40
1.0
 40
1.0
 10
5.6754448313
 20
4.2656393701
 30
0.0
 10
5.6754448313
 20
4.2783057999
 30
0.0
 10
5.6787077941
 20
4.3045404227
 30
0.0
 10
5.6935005362
 20
4.341920557
 30
0.0
 10
5.7177576121
 20
4.3752129176
 30
0.0
 10
5.7498482155
 20
4.4021485647
 30
0.0
 10
5.787963848
 20
4.4211309961
 30
0.0
 10
5.829876178
 20
4.4308959229
 30
0.0
 10
5.8730423473
 20
4.4309434029
 30
0.0
 10
5.9150028022
 20
4.4212551324
 30
0.0
 10
5.9531886948
 20
4.4023239688
 30
0.0
 10
5.9853849767
 20
4.3753984172
 30
0.0
 10
6.0097507805
 20
4.3420423023
 30
0.0
 10
6.0245924357
 20
4.3045738187
 30
0.0
 10
6.0278593502
 20
4.2783046938
 30
0.0
 10
6.0278593502
 20
4.2656393701
 30
0.0
 11
5.6754448313
 21
4.2656393701
 31
0.0
 11
5.6801257197
 21
4.3033492532
 31
0.0
 11
5.6949195726
 21
4.3409166335
 31
0.0
 11
5.7189716689
 21
4.3740660878
 31
0.0
 11
5.7502953148
 21
4.4004600125
 31
0.0
 11
5.7884123784
 21
4.4195126431
 31
0.0
 11
5.8302654292
 21
4.429299256
 31
0.0
 11
5.8726276719
 21
4.4293459416
 31
0.0
 11
5.9145843018
 21
4.4196231854
 31
0.0
 11
5.9527328678
 21
4.4006414645
 31
0.0
 11
5.984132716
 21
4.3742797154
 31
0.0
 11
6.0083343293
 21
4.341008098
 31
0.0
 11
6.0231792776
 21
4.3033460107
 31
0.0
 11
6.0278593502
 21
4.2656393701
 31
0.0
  0
SPLINE
  5
4C4
100
AcDbEntity
  8
0
100
AcDbSpline
 62
7
  6
CONTINUOUS
 70
0
 71
3
 72
14
 73
10
 74
8
 42
0.0000001
 43
0.0000001
 44
0.0000000001
 12
0.0
 22
0.2370486616
 32
0.0
 13
0.2361170943
 23
0.0246340168
 33
0.0
 40
0.0
 40
0.0
 40
0.0
 40
0.0
 40
0.1336367261
 40
0.270347631
 40
0.41105497
 40
0.5560673363
 40
0.7053234066
 40
0.8560093806
 40
1.0
 40
1.0
 40
1.0
 40
1.0
 10
4.0184448313
 20
3.9068893701
 30
0.0
 10
4.0184448313
 20
3.9174488391
 30
0.0
 10
4.0214130861
 20
3.9388961076
 30
0.0
 10
4.0337303206
 20
3.9692497393
 30
0.0
 10
4.0528925404
 20
3.9968869073
 30
0.0
 10
4.0779354096
 20
4.0207509421
 30
0.0
 10
4.1077659455
 20
4.0397658889
 30
0.0
 10
4.1405675405
 20
4.052774552
 30
0.0
 10
4.1635433261
 20
4.0572783872
 30
0.0
 10
4.1748762084
 20
4.058460743
 30
0.0
 11
4.0184448313
 21
3.9068893701
 31
0.0
 11
4.0226334904
 21
3.9382896346
 31
0.0
 11
4.0346478672
 21
3.9683874299
 31
0.0
 11
4.0535434152
 21
3.9958734268
 31
0.0
 11
4.0783677296
 21
4.0196514244
 31
0.0
 11
4.1081786163
 21
4.038707205
 31
0.0
 11
4.1413766987
 21
4.0518904969
 31
0.0
 11
4.1748762084
 21
4.058460743
 31
0.0
  0
SPLINE
  5
4C5
100
AcDbEntity
  8
0
100
AcDbSpline
 62
7
  6
CONTINUOUS
 70
0
 71
3
 72
8
 73
4
 74
2
 42
0.0000001
 43
0.0000001
 44
0.0000000001
 12
0.001076328
 22
0.0001122929
 32
0.0
 13
0.0010769483
 23
0.0001061659
 33
0.0
 40
0.0
 40
0.0
 40
0.0
 40
0.0
 40
1.0
 40
1.0
 40
1.0
 40
1.0
 10
4.1748762084
 20
4.058460743
 30
0.0
 10
4.1752349844
 20
4.058498174
 30
0.0
 10
4.1755938666
 20
4.0585345843
 30
0.0
 10
4.1759528494
 20
4.0585699729
 30
0.0
 11
4.1748762084
 21
4.058460743
 31
0.0
 11
4.1759528494
 21
4.0585699729
 31
0.0
  0
SPLINE
  5
4C6
100
AcDbEntity
  8
0
100
AcDbSpline
 62
7
  6
CONTINUOUS
 70
0
 71
3
 72
10
 73
6
 74
4
 42
0.0000001
 43
0.0000001
 44
0.0000000001
 12
0.0371883327
 22
0.003666038
 32
0.0
 13
0.037190064
 23
-0.0036485041
 33
0.0
 40
0.0
 40
0.0
 40
0.0
 40
0.0
 40
0.0190247259
 40
0.9783548642
 40
1.0
 40
1.0
 40
1.0
 40
1.0
 10
4.1759528494
 20
4.0585699729
 30
0.0
 10
4.176188682
 20
4.0585932214
 30
0.0
 10
4.1883187078
 20
4.0597661081
 30
0.0
 10
4.200829932
 20
4.0597722793
 30
0.0
 10
4.2129933084
 20
4.0586051163
 30
0.0
 10
4.2132616364
 20
4.0585787922
 30
0.0
 11
4.1759528494
 21
4.0585699729
 31
0.0
 11
4.1766604757
 21
4.0586383952
 31
0.0
 11
4.2124564872
 21
4.0586560518
 31
0.0
 11
4.2132616364
 21
4.0585787922
 31
0.0
  0
SPLINE
  5
4C7
100
AcDbEntity
  8
0
100
AcDbSpline
 62
7
  6
CONTINUOUS
 70
0
 71
3
 72
8
 73
4
 74
2
 42
0.0000001
 43
0.0000001
 44
0.0000000001
 12
0.0018682231
 22
-0.0001832807
 32
0.0
 13
0.0018663276
 23
-0.0002017106
 33
0.0
 40
0.0
 40
0.0
 40
0.0
 40
0.0
 40
1.0
 40
1.0
 40
1.0
 40
1.0
 10
4.2132616364
 20
4.0585787922
 30
0.0
 10
4.2138843775
 20
4.0585176986
 30
0.0
 10
4.2145068176
 20
4.0584535308
 30
0.0
 10
4.2151289268
 20
4.0583862939
 30
0.0
 11
4.2132616364
 21
4.0585787922
 31
0.0
 11
4.2151289268
 21
4.0583862939
 31
0.0
  0
SPLINE
  5
4C8
100
AcDbEntity
  8
0
100
AcDbSpline
 62
7
  6
CONTINUOUS
 70
0
 71
3
 72
14
 73
10
 74
8
 42
0.0000001
 43
0.0000001
 44
0.0000000001
 12
0.2353225631
 22
-0.0254333946
 32
0.0
 13
0.0
 23
-0.2363437501
 33
0.0
 40
0.0
 40
0.0
 40
0.0
 40
0.0
 40
0.1406125279
 40
0.291548117
 40
0.4410520755
 40
0.5863713077
 40
0.7277609716
 40
0.8653360891
 40
1.0
 40
1.0
 40
1.0
 40
1.0
 10
4.2151289268
 20
4.0583862939
 30
0.0
 10
4.2261586936
 20
4.0571942093
 30
0.0
 10
4.2488122916
 20
4.0527222751
 30
0.0
 10
4.2813184954
 20
4.0398744166
 30
0.0
 10
4.3111408971
 20
4.0209251122
 30
0.0
 10
4.3362213485
 20
3.9971086804
 30
0.0
 10
4.3554613553
 20
3.9694676242
 30
0.0
 10
4.3678648396
 20
3.9390321398
 30
0.0
 10
4.3708593502
 20
3.9174983613
 30
0.0
 10
4.3708593502
 20
3.9068893701
 30
0.0
 11
4.2151289268
 21
4.0583862939
 31
0.0
 11
4.2477389417
 21
4.0519453234
 31
0.0
 11
4.2809084617
 21
4.0388181277
 31
0.0
 11
4.3107077192
 21
4.0198307934
 31
0.0
 11
4.3355524494
 21
3.9961171162
 31
0.0
 11
4.3545336129
 21
3.9686147138
 31
0.0
 11
4.3666320716
 21
3.9384343597
 31
0.0
 11
4.3708593502
 21
3.9068893701
 31
0.0
  0
SPLINE
  5
4C9
100
AcDbEntity
  8
0
100
AcDbSpline
 62
7
  6
CONTINUOUS
 70
0
 71
3
 72
20
 73
16
 74
14
 42
0.0000001
 43
0.0000001
 44
0.0000000001
 12
0.0
 22
-0.490040084
 32
0.0
 13
-0.0
 23
0.490040084
 33
0.0
 40
0.0
 40
0.0
 40
0.0
 40
0.0
 40
0.0665795609
 40
0.1349422496
 40
0.2062701126
 40
0.2832958072
 40
0.3676880268
 40
0.456050615
 40
0.5442278751
 40
0.6327261512
 40
0.7171023698
 40
0.7940111197
 40
0.8654451456
 40
0.9336755967
 40
1.0
 40
1.0
 40
1.0
 40
1.0
 10
4.3708593502
 20
3.9068893701
 30
0.0
 10
4.3708593502
 20
3.8960138189
 30
0.0
 10
4.3676819548
 20
3.8738220447
 30
0.0
 10
4.3529655739
 20
3.8429677942
 30
0.0
 10
4.3289649479
 20
3.8163485761
 30
0.0
 10
4.2969341259
 20
3.7952275733
 30
0.0
 10
4.2585374103
 20
3.7806034846
 30
0.0
 10
4.2163224316
 20
3.7732214167
 30
0.0
 10
4.1728218025
 20
3.7732331788
 30
0.0
 10
4.1305916586
 20
3.7806484704
 30
0.0
 10
4.0922084276
 20
3.7953109706
 30
0.0
 10
4.0602041866
 20
3.8164628695
 30
0.0
 10
4.0362513526
 20
3.8430967267
 30
0.0
 10
4.0216002587
 20
3.8739287292
 30
0.0
 10
4.0184448313
 20
3.896055498
 30
0.0
 10
4.0184448313
 20
3.9068893701
 30
0.0
 11
4.3708593502
 21
3.9068893701
 31
0.0
 11
4.3661537537
 21
3.8746038333
 31
0.0
 11
4.3518589138
 21
3.844306338
 31
0.0
 11
4.3286743179
 21
3.8181486907
 31
0.0
 11
4.2973561461
 21
3.797079559
 31
0.0
 11
4.2588153144
 21
3.7820833098
 31
0.0
 11
4.2161887616
 21
3.774469388
 31
0.0
 11
4.1729783713
 21
3.7744812932
 31
0.0
 11
4.1302919404
 21
3.7821380711
 31
0.0
 11
4.091773507
 21
3.7971702034
 31
0.0
 11
4.0605248365
 21
3.8182399411
 31
0.0
 11
4.0373392575
 21
3.8444661966
 31
0.0
 11
4.0231141655
 21
3.8747249119
 31
0.0
 11
4.0184448313
 21
3.9068893701
 31
0.0
  0
SPLINE
  5
4CA
100
AcDbEntity
  8
0
100
AcDbSpline
 62
7
  6
CONTINUOUS
 70
0
 71
3
 72
13
 73
9
 74
7
 42
0.0000001
 43
0.0000001
 44
0.0000000001
 12
0.0
 22
0.1994896934
 32
0.0
 13
0.1909159121
 23
0.0593215267
 33
0.0
 40
0.0
 40
0.0
 40
0.0
 40
0.0
 40
0.1687113223
 40
0.3555018434
 40
0.5520968581
 40
0.7536597173
 40
0.965802684
 40
1.0
 40
1.0
 40
1.0
 40
1.0
 10
7.3314448313
 20
3.9220143701
 30
0.0
 10
7.3314448313
 20
3.9332330934
 30
0.0
 10
7.3349585182
 20
3.9569727856
 30
0.0
 10
7.3500740037
 20
3.9908770105
 30
0.0
 10
7.3744221784
 20
4.0216920873
 30
0.0
 10
7.4064319702
 20
4.0471796379
 30
0.0
 10
7.4334896184
 20
4.0602247375
 30
0.0
 10
7.4490785711
 20
4.0653785807
 30
0.0
 10
7.4512548417
 20
4.066054793
 30
0.0
 11
7.3314448313
 21
3.9220143701
 31
0.0
 11
7.3361805446
 21
3.9553356965
 31
0.0
 11
7.351102071
 21
3.9894804341
 31
0.0
 11
7.3752661611
 21
4.020370587
 31
0.0
 11
7.406658795
 21
4.0454967398
 31
0.0
 11
7.4447640461
 21
4.0639087095
 31
0.0
 11
7.4512548417
 21
4.066054793
 31
0.0
  0
SPLINE
  5
4CB
100
AcDbEntity
  8
0
100
AcDbSpline
 62
7
  6
CONTINUOUS
 70
0
 71
3
 72
8
 73
4
 74
2
 42
0.0000001
 43
0.0000001
 44
0.0000000001
 12
0.0144657031
 22
0.0044947934
 32
0.0
 13
0.0147775115
 23
0.0033285598
 33
0.0
 40
0.0
 40
0.0
 40
0.0
 40
0.0
 40
1.0
 40
1.0
 40
1.0
 40
1.0
 10
7.4512548417
 20
4.066054793
 30
0.0
 10
7.4560767427
 20
4.0675530575
 30
0.0
 10
7.4609584846
 20
4.0688586277
 30
0.0
 10
7.4658843218
 20
4.0699681476
 30
0.0
 11
7.4512548417
 21
4.066054793
 31
0.0
 11
7.4658843218
 21
4.0699681476
 31
0.0
  0
SPLINE
  5
4CC
100
AcDbEntity
  8
0
100
AcDbSpline
 62
7
  6
CONTINUOUS
 70
0
 71
3
 72
9
 73
5
 74
3
 42
0.0000001
 43
0.0000001
 44
0.0000000001
 12
0.0218396814
 22
0.0049192779
 32
0.0
 13
0.0222650659
 23
0.002317639
 33
0.0
 40
0.0
 40
0.0
 40
0.0
 40
0.0
 40
0.938380538
 40
1.0
 40
1.0
 40
1.0
 40
1.0
 10
7.4658843218
 20
4.0699681476
 30
0.0
 10
7.4727156324
 20
4.0715068658
 30
0.0
 10
7.4800859038
 20
4.0727448006
 30
0.0
 10
7.4875047925
 20
4.0735443594
 30
0.0
 10
7.4879621129
 20
4.0735919633
 30
0.0
 11
7.4658843218
 21
4.0699681476
 31
0.0
 11
7.4865906812
 21
4.0734441581
 31
0.0
 11
7.4879621129
 21
4.0735919633
 31
0.0
  0
SPLINE
  5
4CD
100
AcDbEntity
  8
0
100
AcDbSpline
 62
7
  6
CONTINUOUS
 70
0
 71
3
 72
8
 73
4
 74
2
 42
0.0000001
 43
0.0000001
 44
0.0000000001
 12
0.039337493
 22
0.0040947603
 32
0.0
 13
0.0393355617
 23
-0.0041152694
 33
0.0
 40
0.0
 40
0.0
 40
0.0
 40
0.0
 40
1.0
 40
1.0
 40
1.0
 40
1.0
 10
7.4879621129
 20
4.0735919633
 30
0.0
 10
7.5010746106
 20
4.0749568834
 30
0.0
 10
7.5143289511
 20
4.0749534099
 30
0.0
 10
7.527440805
 20
4.0735816535
 30
0.0
 11
7.4879621129
 21
4.0735919633
 31
0.0
 11
7.527440805
 21
4.0735816535
 31
0.0
  0
SPLINE
  5
4CE
100
AcDbEntity
  8
0
100
AcDbSpline
 62
7
  6
CONTINUOUS
 70
0
 71
3
 72
9
 73
5
 74
3
 42
0.0000001
 43
0.0000001
 44
0.0000000001
 12
0.0218905377
 22
-0.0022901785
 32
0.0
 13
0.0214805312
 23
-0.0048057072
 33
0.0
 40
0.0
 40
0.0
 40
0.0
 40
0.0
 40
0.0672800452
 40
1.0
 40
1.0
 40
1.0
 40
1.0
 10
7.527440805
 20
4.0735816535
 30
0.0
 10
7.5279317372
 20
4.0735302924
 30
0.0
 10
7.5352256141
 20
4.072738389
 30
0.0
 10
7.5424720658
 20
4.0715227288
 30
0.0
 10
7.5491505058
 20
4.0700286025
 30
0.0
 11
7.527440805
 21
4.0735816535
 31
0.0
 11
7.5289129872
 21
4.0734218156
 31
0.0
 11
7.5491505058
 21
4.0700286025
 31
0.0
  0
SPLINE
  5
4CF
100
AcDbEntity
  8
0
100
AcDbSpline
 62
7
  6
CONTINUOUS
 70
0
 71
3
 72
8
 73
4
 74
2
 42
0.0000001
 43
0.0000001
 44
0.0000000001
 12
0.0151661897
 22
-0.0033930384
 32
0.0
 13
0.0148385054
 23
-0.0046206857
 33
0.0
 40
0.0
 40
0.0
 40
0.0
 40
0.0
 40
1.0
 40
1.0
 40
1.0
 40
1.0
 10
7.5491505058
 20
4.0700286025
 30
0.0
 10
7.5542059024
 20
4.0688975897
 30
0.0
 10
7.559215189
 20
4.0675601476
 30
0.0
 10
7.5641613574
 20
4.066019919
 30
0.0
 11
7.5491505058
 21
4.0700286025
 31
0.0
 11
7.5641613574
 21
4.066019919
 31
0.0
  0
SPLINE
  5
4D0
100
AcDbEntity
  8
0
100
AcDbSpline
 62
7
  6
CONTINUOUS
 70
0
 71
3
 72
13
 73
9
 74
7
 42
0.0000001
 43
0.0000001
 44
0.0000000001
 12
0.1907702808
 22
-0.0594055459
 32
0.0
 13
0.0
 23
-0.1993740666
 33
0.0
 40
0.0
 40
0.0
 40
0.0
 40
0.0
 40
0.0350691953
 40
0.2474451598
 40
0.4490304594
 40
0.6461873173
 40
0.8325856511
 40
1.0
 40
1.0
 40
1.0
 40
1.0
 10
7.5641613574
 20
4.066019919
 30
0.0
 10
7.5663914109
 20
4.0653254841
 30
0.0
 10
7.5820359402
 20
4.060134752
 30
0.0
 10
7.6091255361
 20
4.0470212517
 30
0.0
 10
7.6411169257
 20
4.0214613943
 30
0.0
 10
7.6653986015
 20
3.9906026992
 30
0.0
 10
7.6803941815
 20
3.956752137
 30
0.0
 10
7.6838593502
 20
3.9331403966
 30
0.0
 10
7.6838593502
 20
3.9220143701
 30
0.0
 11
7.5641613574
 21
4.066019919
 31
0.0
 11
7.5708114671
 21
4.0638132815
 31
0.0
 11
7.6089070435
 21
4.0453310193
 31
0.0
 11
7.6402428234
 21
4.0201640606
 31
0.0
 11
7.6643978181
 21
3.9891535414
 31
0.0
 11
7.6791999359
 21
3.9550656341
 31
0.0
 11
7.6838593502
 21
3.9220143701
 31
0.0
  0
SPLINE
  5
4D1
100
AcDbEntity
  8
0
100
AcDbSpline
 62
7
  6
CONTINUOUS
 70
0
 71
3
 72
20
 73
16
 74
14
 42
0.0000001
 43
0.0000001
 44
0.0000000001
 12
0.0
 22
-0.4890505827
 32
0.0
 13
0.0
 23
0.4890505827
 33
0.0
 40
0.0
 40
0.0
 40
0.0
 40
0.0
 40
0.0663223944
 40
0.1344151569
 40
0.2056935752
 40
0.2827182463
 40
0.3672420238
 40
0.4558718078
 40
0.5443681612
 40
0.6331346854
 40
0.7176472022
 40
0.7945600614
 40
0.8659739913
 40
0.9339225246
 40
1.0
 40
1.0
 40
1.0
 40
1.0
 10
7.6838593502
 20
3.9220143701
 30
0.0
 10
7.6838593502
 20
3.9112027015
 30
0.0
 10
7.6807018343
 20
3.889141143
 30
0.0
 10
7.6660324785
 20
3.858443065
 30
0.0
 10
7.6420581562
 20
3.8319627638
 30
0.0
 10
7.6100221371
 20
3.8109661507
 30
0.0
 10
7.5716086444
 20
3.7964422955
 30
0.0
 10
7.529356342
 20
3.7891125925
 30
0.0
 10
7.4858070253
 20
3.7891226271
 30
0.0
 10
7.443538032
 20
3.7964821156
 30
0.0
 10
7.4051349227
 20
3.8110415625
 30
0.0
 10
7.3731180452
 20
3.8320696096
 30
0.0
 10
7.3491872979
 20
3.8585665355
 30
0.0
 10
7.334580922
 20
3.8892461801
 30
0.0
 10
7.3314448313
 20
3.9112426275
 30
0.0
 10
7.3314448313
 20
3.9220143701
 30
0.0
 11
7.6838593502
 21
3.9220143701
 31
0.0
 11
7.6791783501
 21
3.8899189214
 31
0.0
 11
7.6649464857
 21
3.8598124825
 31
0.0
 11
7.641776427
 21
3.8337686546
 31
0.0
 11
7.6104682768
 21
3.8128222874
 31
0.0
 11
7.5719115133
 21
3.7979201342
 31
0.0
 11
7.5292327398
 21
3.7903528742
 31
0.0
 11
7.4859535479
 21
3.7903630358
 31
0.0
 11
7.44321382
 21
3.7979695069
 31
0.0
 11
7.4046758279
 21
3.8129049041
 31
0.0
 11
7.3734330166
 21
3.8338505648
 31
0.0
 11
7.3502512323
 21
3.8599726279
 31
0.0
 11
7.3360910524
 21
3.8900348989
 31
0.0
 11
7.3314448313
 21
3.9220143701
 31
0.0
  0
ENDSEC
  0
SECTION
  2
OBJECTS
  0
DICTIONARY
  5
C
100
AcDbDictionary
280
0
281
1
  3
ACAD_GROUP
350
D
  3
ACAD_MLINESTYLE
350
17
  3
ACAD_LAYOUT
350
1A
  3
ACAD_PLOTSETTINGS
350
19
  3
ACAD_PLOTSTYLENAME
350
E
  0
DICTIONARY
  5
D
102
{ACAD_REACTORS
330
C
102
}
100
AcDbDictionary
280
0
281
1
  0
ACDBDICTIONARYWDFLT
  5
E
102
{ACAD_REACTORS
330
C
102
}
100
AcDbDictionary
281
1
  3
Normal
350
F
100
AcDbDictionaryWithDefault
340
F
  0
DICTIONARY
  5
17
102
{ACAD_REACTORS
330
C
102
}
100
AcDbDictionary
280
0
281
1
  3
Standard
350
18
  0
DICTIONARY
  5
19
102
{ACAD_REACTORS
330
C
102
}
100
AcDbDictionary
281
1
  0
DICTIONARY
  5
1A
102
{ACAD_REACTORS
330
C
102
}
100
AcDbDictionary
281
1
  3
Layout1
350
1E
  3
Model
350
22
  0
ACDBPLACEHOLDER
  5
F
102
{ACAD_REACTORS
330
E
102
}
  0
MLINESTYLE
  5
18
102
{ACAD_REACTORS
330
17
102
}
100
AcDbMlineStyle
  2
STANDARD
 70
0
  3

 62
256
 51
90.0
 52
90.0
 71
2
 49
0.5
 62
256
  6
BYLAYER
 49
-0.5
 62
256
  6
BYLAYER
  0
LAYOUT
  5
1E
102
{ACAD_REACTORS
330
1A
102
}
100
AcDbPlotSettings
  1

  2

  4

  6

 40
0.0
 41
0.0
 42
0.0
 43
0.0
 44
0.0
 45
0.0
 46
0.0
 47
0.0
 48
0.0
 49
0.0
140
0.0
141
0.0
142
1.0
143
1.0
 70
0
 72
0
 73
0
 74
0
  7

 75
0
147
1.0
148
0.0
149
0.0
100
AcDbLayout
  1
Layout1
 70
0
 71
0
 10
0.0
 20
0.0
 11
0.0
 21
0.0
 12
0.0
 22
0.0
 32
0.0
 14
0.0
 24
0.0
 34
0.0
 15
0.0
 25
0.0
 35
0.0
146
0.0
 13
0.0
 23
0.0
 33
0.0
 16
0.0
 26
0.0
 36
0.0
 17
0.0
 27
0.0
 37
0.0
 76
0
330
1B
331
0
345
0
346
0
  0
LAYOUT
  5
22
102
{ACAD_REACTORS
330
1A
102
}
100
AcDbPlotSettings
  1

  2

  4

  6

 40
0.0
 41
0.0
 42
0.0
 43
0.0
 44
0.0
 45
0.0
 46
0.0
 47
0.0
 48
0.0
 49
0.0
140
0.0
141
0.0
142
1.0
143
1.0
 70
0
 72
0
 73
0
 74
0
  7

 75
0
147
1.0
148
0.0
149
0.0
100
AcDbLayout
  1
Model
 70
0
 71
0
 10
0.0
 20
0.0
 11
0.0
 21
0.0
 12
0.0
 22
0.0
 32
0.0
 14
0.0
 24
0.0
 34
0.0
 15
0.0
 25
0.0
 35
0.0
146
0.0
 13
0.0
 23
0.0
 33
0.0
 16
0.0
 26
0.0
 36
0.0
 17
0.0
 27
0.0
 37
0.0
 76
0
330
1F
331
0
345
0
346
0
  0
ENDSEC
  0
EOF
