999
DXF file: FSEA-XAN.dxf
999
Pro/ENGINEER 2006240 by Parametric Technology Corporation
  0
SECTION
  2
HEADER
  9
$ACADVER
  1
AC1015
  9
$DWGCODEPAGE
  3
ANSI_1252
  9
$EXTMAX
 10
11.6929133858
 20
8.2677165354
 30
0.0
  9
$EXTMIN
 10
0.0
 20
0.0
 30
0.0
  9
$LIMMIN
 10
0.0
 20
0.0
  9
$LIMMAX
 10
11.6929133858
 20
8.2677165354
  9
$VIEWCTR
 10
5.8464566929
 20
4.1338582677
  9
$VIEWSIZE
 40
8.2677165354
  9
$CLAYER
  8
0
  9
$LTSCALE
 40
0.6431102362
  9
$CELTYPE
  6
BYLAYER
  9
$DIMSCALE
 40
1.0
  9
$DIMASZ
 40
0.1875
  9
$DIMEXO
 40
0.0730807087
  9
$DIMDLI
 40
0.4443307087
  9
$DIMEXE
 40
0.2104724409
  9
$DIMCEN
 40
0.1052362205
  9
$DIMLFAC
 40
1.0
  9
$DIMBLK
  1
_CLOSED
  9
$DIMTXT
 40
0.15625
  9
$DIMTOL
 70
0
  9
$DIMLIM
 70
0
  9
$DIMTFAC
 40
1.0
  9
$PDMODE
 70
3
  9
$PDSIZE
 40
0.3125
  9
$HANDSEED
  5
4FA
  9
$MEASUREMENT
 70
0
  9
$INSUNITS
 70
1
  0
ENDSEC
  0
SECTION
  2
CLASSES
  0
CLASS
  1
ACDBDICTIONARYWDFLT
  2
AcDbDictionaryWithDefault
  3
AutoCAD 2000
 90
0
280
0
281
0
  0
CLASS
  1
ACDBPLACEHOLDER
  2
AcDbPlaceHolder
  3
AutoCAD 2000
 90
0
280
0
281
0
  0
CLASS
  1
LAYOUT
  2
AcDbLayout
  3
AutoCAD 2000
 90
0
280
0
281
0
  0
ENDSEC
  0
SECTION
  2
TABLES
  0
TABLE
  2
VPORT
  5
8
100
AcDbSymbolTable
 70
2
  0
VPORT
  5
1F4
100
AcDbSymbolTableRecord
100
AcDbViewportTableRecord
  2
*ACTIVE
 70
0
 10
0.0
 20
0.0
 11
1.0
 21
1.0
 12
5.8464566929
 22
4.1338582677
 13
0.0
 23
0.0
 14
1.0
 24
1.0
 15
0.0
 25
0.0
 16
0.0
 26
0.0
 36
1.0
 17
0.0
 27
0.0
 37
0.0
 40
8.2677165354
 41
1.4142857143
 42
50.0
 43
0.0
 44
0.0
 50
0.0
 51
0.0
 71
0
 72
100
 73
1
 74
1
 75
0
 76
0
 77
0
 78
0
  0
ENDTAB
  0
TABLE
  2
LTYPE
  5
5
100
AcDbSymbolTable
 70
6
  0
LTYPE
  5
14
100
AcDbSymbolTableRecord
100
AcDbLinetypeTableRecord
  2
BYBLOCK
 70
0
  3

 72
65
 73
0
 40
0.0
  0
LTYPE
  5
15
100
AcDbSymbolTableRecord
100
AcDbLinetypeTableRecord
  2
BYLAYER
 70
0
  3

 72
65
 73
0
 40
0.0
  0
LTYPE
  5
16
100
AcDbSymbolTableRecord
100
AcDbLinetypeTableRecord
  2
CONTINUOUS
 70
64
  3
Solid line
 72
65
 73
0
 40
0.0
  0
LTYPE
  5
1F5
100
AcDbSymbolTableRecord
100
AcDbLinetypeTableRecord
  2
CENTER
 70
64
  3
____ _ ____ _ ____ _ ____ _ ____ _ ____ _ ____
 72
65
 73
4
 40
0.6
 49
0.375
 74
0
 49
-0.075
 74
0
 49
0.075
 74
0
 49
-0.075
 74
0
  0
LTYPE
  5
1F6
100
AcDbSymbolTableRecord
100
AcDbLinetypeTableRecord
  2
HIDDEN
 70
64
  3
- - - - - - - - - - - - - - - - - - - -
 72
65
 73
2
 40
0.2
 49
0.1
 74
0
 49
-0.1
 74
0
  0
LTYPE
  5
1F7
100
AcDbSymbolTableRecord
100
AcDbLinetypeTableRecord
  2
PHANTOM
 70
64
  3
_____ _ _ _____ _ _ _____ _ _ _____
 72
65
 73
6
 40
0.8
 49
0.45
 74
0
 49
-0.05
 74
0
 49
0.1
 74
0
 49
-0.05
 74
0
 49
0.1
 74
0
 49
-0.05
 74
0
  0
LTYPE
  5
1F8
100
AcDbSymbolTableRecord
100
AcDbLinetypeTableRecord
  2
DOT
 70
64
  3
. . . . . . . . . . . . . . . . . . . .
 72
65
 73
2
 40
0.2
 49
0.1
 74
0
 49
-0.1
 74
0
  0
LTYPE
  5
1F9
100
AcDbSymbolTableRecord
100
AcDbLinetypeTableRecord
  2
DASHED
 70
64
  3
- - - - - - - - - - - - - - - - - - - -
 72
65
 73
2
 40
0.2
 49
0.1
 74
0
 49
-0.1
 74
0
  0
ENDTAB
  0
TABLE
  2
LAYER
  5
2
100
AcDbSymbolTable
 70
36
  0
LAYER
  5
10
100
AcDbSymbolTableRecord
100
AcDbLayerTableRecord
  2
0
 70
0
 62
7
  6
CONTINUOUS
370
-3
390
F
  0
LAYER
  5
1FA
100
AcDbSymbolTableRecord
100
AcDbLayerTableRecord
  2
DEFAULT_1
 70
0
 62
7
  6
CENTER
370
-3
390
F
  0
LAYER
  5
1FB
100
AcDbSymbolTableRecord
100
AcDbLayerTableRecord
  2
DEFAULT_2
 70
0
 62
8
  6
HIDDEN
370
-3
390
F
  0
LAYER
  5
1FC
100
AcDbSymbolTableRecord
100
AcDbLayerTableRecord
  2
DEFAULT_3
 70
0
 62
7
  6
PHANTOM
370
-3
390
F
  0
LAYER
  5
1FD
100
AcDbSymbolTableRecord
100
AcDbLayerTableRecord
  2
_BLACK_HOLE
 70
0
 62
7
  6
CONTINUOUS
370
-3
390
F
  0
LAYER
  5
1FE
100
AcDbSymbolTableRecord
100
AcDbLayerTableRecord
  2
01_ALL_DTM_PLN
 70
0
 62
7
  6
CONTINUOUS
370
-3
390
F
  0
LAYER
  5
1FF
100
AcDbSymbolTableRecord
100
AcDbLayerTableRecord
  2
01__ASM_ALL_DTM_PLN
 70
0
 62
7
  6
CONTINUOUS
370
-3
390
F
  0
LAYER
  5
200
100
AcDbSymbolTableRecord
100
AcDbLayerTableRecord
  2
01__ASM_DEF_DTM_PLN
 70
0
 62
7
  6
CONTINUOUS
370
-3
390
F
  0
LAYER
  5
201
100
AcDbSymbolTableRecord
100
AcDbLayerTableRecord
  2
01___PRT_ALL_DTM_PLN
 70
0
 62
7
  6
CONTINUOUS
370
-3
390
F
  0
LAYER
  5
202
100
AcDbSymbolTableRecord
100
AcDbLayerTableRecord
  2
01___PRT_DEF_DTM_PLN
 70
0
 62
7
  6
CONTINUOUS
370
-3
390
F
  0
LAYER
  5
203
100
AcDbSymbolTableRecord
100
AcDbLayerTableRecord
  2
02_ALL_AXES
 70
0
 62
7
  6
CONTINUOUS
370
-3
390
F
  0
LAYER
  5
204
100
AcDbSymbolTableRecord
100
AcDbLayerTableRecord
  2
02__ASM_ALL_AXES
 70
0
 62
7
  6
CONTINUOUS
370
-3
390
F
  0
LAYER
  5
205
100
AcDbSymbolTableRecord
100
AcDbLayerTableRecord
  2
02___PRT_ALL_AXES
 70
0
 62
7
  6
CONTINUOUS
370
-3
390
F
  0
LAYER
  5
206
100
AcDbSymbolTableRecord
100
AcDbLayerTableRecord
  2
03_ALL_CURVES
 70
0
 62
7
  6
CONTINUOUS
370
-3
390
F
  0
LAYER
  5
207
100
AcDbSymbolTableRecord
100
AcDbLayerTableRecord
  2
03__ASM_ALL_CURVES
 70
0
 62
7
  6
CONTINUOUS
370
-3
390
F
  0
LAYER
  5
208
100
AcDbSymbolTableRecord
100
AcDbLayerTableRecord
  2
03___PRT_ALL_CURVES
 70
0
 62
7
  6
CONTINUOUS
370
-3
390
F
  0
LAYER
  5
209
100
AcDbSymbolTableRecord
100
AcDbLayerTableRecord
  2
04_ALL_DTM_PNT
 70
0
 62
7
  6
CONTINUOUS
370
-3
390
F
  0
LAYER
  5
20A
100
AcDbSymbolTableRecord
100
AcDbLayerTableRecord
  2
04__ASM_ALL_DTM_PNT
 70
0
 62
7
  6
CONTINUOUS
370
-3
390
F
  0
LAYER
  5
20B
100
AcDbSymbolTableRecord
100
AcDbLayerTableRecord
  2
04___PRT_ALL_DTM_PNT
 70
0
 62
7
  6
CONTINUOUS
370
-3
390
F
  0
LAYER
  5
20C
100
AcDbSymbolTableRecord
100
AcDbLayerTableRecord
  2
05_ALL_DTM_CSYS
 70
0
 62
7
  6
CONTINUOUS
370
-3
390
F
  0
LAYER
  5
20D
100
AcDbSymbolTableRecord
100
AcDbLayerTableRecord
  2
05__ASM_ALL_DTM_CSYS
 70
0
 62
7
  6
CONTINUOUS
370
-3
390
F
  0
LAYER
  5
20E
100
AcDbSymbolTableRecord
100
AcDbLayerTableRecord
  2
05__ASM_DEF_DTM_CSYS
 70
0
 62
7
  6
CONTINUOUS
370
-3
390
F
  0
LAYER
  5
20F
100
AcDbSymbolTableRecord
100
AcDbLayerTableRecord
  2
05___PRT_ALL_DTM_CSYS
 70
0
 62
7
  6
CONTINUOUS
370
-3
390
F
  0
LAYER
  5
210
100
AcDbSymbolTableRecord
100
AcDbLayerTableRecord
  2
05___PRT_DEF_DTM_CSYS
 70
0
 62
7
  6
CONTINUOUS
370
-3
390
F
  0
LAYER
  5
211
100
AcDbSymbolTableRecord
100
AcDbLayerTableRecord
  2
06_ALL_SURFS
 70
0
 62
7
  6
CONTINUOUS
370
-3
390
F
  0
LAYER
  5
212
100
AcDbSymbolTableRecord
100
AcDbLayerTableRecord
  2
06__ASM_ALL_SURFS
 70
0
 62
7
  6
CONTINUOUS
370
-3
390
F
  0
LAYER
  5
213
100
AcDbSymbolTableRecord
100
AcDbLayerTableRecord
  2
06___PRT_ALL_SURFS
 70
0
 62
7
  6
CONTINUOUS
370
-3
390
F
  0
LAYER
  5
214
100
AcDbSymbolTableRecord
100
AcDbLayerTableRecord
  2
07__ASM_ALL_SKELETONS
 70
0
 62
7
  6
CONTINUOUS
370
-3
390
F
  0
LAYER
  5
215
100
AcDbSymbolTableRecord
100
AcDbLayerTableRecord
  2
128-002_FEATURES
 70
0
 62
7
  6
CONTINUOUS
370
-3
390
F
  0
LAYER
  5
216
100
AcDbSymbolTableRecord
100
AcDbLayerTableRecord
  2
128-002_REF_GEOMETRY
 70
0
 62
7
  6
CONTINUOUS
370
-3
390
F
  0
LAYER
  5
217
100
AcDbSymbolTableRecord
100
AcDbLayerTableRecord
  2
128-003_FEATURES
 70
0
 62
7
  6
CONTINUOUS
370
-3
390
F
  0
LAYER
  5
218
100
AcDbSymbolTableRecord
100
AcDbLayerTableRecord
  2
128-003_REF_GEOMETRY
 70
0
 62
7
  6
CONTINUOUS
370
-3
390
F
  0
LAYER
  5
219
100
AcDbSymbolTableRecord
100
AcDbLayerTableRecord
  2
128-016_FEATURES
 70
0
 62
7
  6
CONTINUOUS
370
-3
390
F
  0
LAYER
  5
21A
100
AcDbSymbolTableRecord
100
AcDbLayerTableRecord
  2
128-016_REF_GEOMETRY
 70
0
 62
7
  6
CONTINUOUS
370
-3
390
F
  0
LAYER
  5
21B
100
AcDbSymbolTableRecord
100
AcDbLayerTableRecord
  2
128-100_FEATURES
 70
0
 62
7
  6
CONTINUOUS
370
-3
390
F
  0
LAYER
  5
21C
100
AcDbSymbolTableRecord
100
AcDbLayerTableRecord
  2
128-100_REF_GEOMETRY
 70
0
 62
7
  6
CONTINUOUS
370
-3
390
F
  0
LAYER
  5
21D
100
AcDbSymbolTableRecord
100
AcDbLayerTableRecord
  2
128-101_FEATURES
 70
0
 62
7
  6
CONTINUOUS
370
-3
390
F
  0
LAYER
  5
21E
100
AcDbSymbolTableRecord
100
AcDbLayerTableRecord
  2
128-101_REF_GEOMETRY
 70
0
 62
7
  6
CONTINUOUS
370
-3
390
F
  0
LAYER
  5
21F
100
AcDbSymbolTableRecord
100
AcDbLayerTableRecord
  2
128-102_FEATURES
 70
0
 62
7
  6
CONTINUOUS
370
-3
390
F
  0
LAYER
  5
220
100
AcDbSymbolTableRecord
100
AcDbLayerTableRecord
  2
128-102_REF_GEOMETRY
 70
0
 62
7
  6
CONTINUOUS
370
-3
390
F
  0
LAYER
  5
221
100
AcDbSymbolTableRecord
100
AcDbLayerTableRecord
  2
128-103_FEATURES
 70
0
 62
7
  6
CONTINUOUS
370
-3
390
F
  0
LAYER
  5
222
100
AcDbSymbolTableRecord
100
AcDbLayerTableRecord
  2
128-103_REF_GEOMETRY
 70
0
 62
7
  6
CONTINUOUS
370
-3
390
F
  0
LAYER
  5
223
100
AcDbSymbolTableRecord
100
AcDbLayerTableRecord
  2
128-104_FEATURES
 70
0
 62
7
  6
CONTINUOUS
370
-3
390
F
  0
LAYER
  5
224
100
AcDbSymbolTableRecord
100
AcDbLayerTableRecord
  2
128-104_REF_GEOMETRY
 70
0
 62
7
  6
CONTINUOUS
370
-3
390
F
  0
LAYER
  5
225
100
AcDbSymbolTableRecord
100
AcDbLayerTableRecord
  2
COPY_GEO_FET
 70
0
 62
7
  6
CONTINUOUS
370
-3
390
F
  0
LAYER
  5
226
100
AcDbSymbolTableRecord
100
AcDbLayerTableRecord
  2
COSMETIC
 70
0
 62
7
  6
CONTINUOUS
370
-3
390
F
  0
LAYER
  5
227
100
AcDbSymbolTableRecord
100
AcDbLayerTableRecord
  2
CURVES
 70
0
 62
7
  6
CONTINUOUS
370
-3
390
F
  0
LAYER
  5
228
100
AcDbSymbolTableRecord
100
AcDbLayerTableRecord
  2
CUT_REF_SURF
 70
0
 62
7
  6
CONTINUOUS
370
-3
390
F
  0
LAYER
  5
229
100
AcDbSymbolTableRecord
100
AcDbLayerTableRecord
  2
DATUM
 70
0
 62
7
  6
CONTINUOUS
370
-3
390
F
  0
LAYER
  5
22A
100
AcDbSymbolTableRecord
100
AcDbLayerTableRecord
  2
DATUMCURVES
 70
0
 62
7
  6
CONTINUOUS
370
-3
390
F
  0
LAYER
  5
22B
100
AcDbSymbolTableRecord
100
AcDbLayerTableRecord
  2
DIMENSIONS
 70
0
 62
7
  6
CONTINUOUS
370
-3
390
F
  0
LAYER
  5
22C
100
AcDbSymbolTableRecord
100
AcDbLayerTableRecord
  2
DRAWINGNOTES
 70
0
 62
7
  6
CONTINUOUS
370
-3
390
F
  0
LAYER
  5
22D
100
AcDbSymbolTableRecord
100
AcDbLayerTableRecord
  2
DTM
 70
0
 62
7
  6
CONTINUOUS
370
-3
390
F
  0
LAYER
  5
22E
100
AcDbSymbolTableRecord
100
AcDbLayerTableRecord
  2
DTM230
 70
0
 62
7
  6
CONTINUOUS
370
-3
390
F
  0
LAYER
  5
22F
100
AcDbSymbolTableRecord
100
AcDbLayerTableRecord
  2
DTM_500001
 70
0
 62
7
  6
CONTINUOUS
370
-3
390
F
  0
LAYER
  5
230
100
AcDbSymbolTableRecord
100
AcDbLayerTableRecord
  2
DTM_500002
 70
0
 62
7
  6
CONTINUOUS
370
-3
390
F
  0
LAYER
  5
231
100
AcDbSymbolTableRecord
100
AcDbLayerTableRecord
  2
DTM_515002
 70
0
 62
7
  6
CONTINUOUS
370
-3
390
F
  0
LAYER
  5
232
100
AcDbSymbolTableRecord
100
AcDbLayerTableRecord
  2
DTM_SPRING_RH
 70
0
 62
7
  6
CONTINUOUS
370
-3
390
F
  0
LAYER
  5
233
100
AcDbSymbolTableRecord
100
AcDbLayerTableRecord
  2
DTM_SP_RH_CONSTR
 70
0
 62
7
  6
CONTINUOUS
370
-3
390
F
  0
LAYER
  5
234
100
AcDbSymbolTableRecord
100
AcDbLayerTableRecord
  2
DTM_WIRE
 70
0
 62
7
  6
CONTINUOUS
370
-3
390
F
  0
LAYER
  5
235
100
AcDbSymbolTableRecord
100
AcDbLayerTableRecord
  2
GEOMETRICTOLERANCES
 70
0
 62
7
  6
CONTINUOUS
370
-3
390
F
  0
LAYER
  5
236
100
AcDbSymbolTableRecord
100
AcDbLayerTableRecord
  2
PARAMETERDIMENSIONS
 70
0
 62
7
  6
CONTINUOUS
370
-3
390
F
  0
LAYER
  5
237
100
AcDbSymbolTableRecord
100
AcDbLayerTableRecord
  2
PLANE
 70
0
 62
7
  6
CONTINUOUS
370
-3
390
F
  0
LAYER
  5
238
100
AcDbSymbolTableRecord
100
AcDbLayerTableRecord
  2
T-8A_CAVITY-INCH
 70
0
 62
7
  6
CONTINUOUS
370
-3
390
F
  0
LAYER
  5
239
100
AcDbSymbolTableRecord
100
AcDbLayerTableRecord
  2
T-8A_CAVITY_REF_GEOMETRY
 70
0
 62
7
  6
CONTINUOUS
370
-3
390
F
  0
LAYER
  5
23A
100
AcDbSymbolTableRecord
100
AcDbLayerTableRecord
  2
TEXT
 70
0
 62
7
  6
CONTINUOUS
370
-3
390
F
  0
LAYER
  5
23B
100
AcDbSymbolTableRecord
100
AcDbLayerTableRecord
  2
THREAD
 70
0
 62
7
  6
CONTINUOUS
370
-3
390
F
  0
LAYER
  5
23C
100
AcDbSymbolTableRecord
100
AcDbLayerTableRecord
  2
XSEC_DATUMS
 70
0
 62
7
  6
CONTINUOUS
370
-3
390
F
  0
ENDTAB
  0
TABLE
  2
STYLE
  5
3
100
AcDbSymbolTable
 70
1
  0
STYLE
  5
11
100
AcDbSymbolTableRecord
100
AcDbTextStyleTableRecord
  2
STANDARD
 70
0
 40
0.0
 41
0.8
 50
0.0
 71
0
 42
0.2
  3
txt
  4

  0
ENDTAB
  0
TABLE
  2
VIEW
  5
6
100
AcDbSymbolTable
 70
0
  0
ENDTAB
  0
TABLE
  2
UCS
  5
7
100
AcDbSymbolTable
 70
0
  0
ENDTAB
  0
TABLE
  2
APPID
  5
9
100
AcDbSymbolTable
 70
1
  0
APPID
  5
23D
100
AcDbSymbolTableRecord
100
AcDbRegAppTableRecord
  2
ACAD
 70
0
  0
ENDTAB
  0
TABLE
  2
BLOCK_RECORD
  5
1
100
AcDbSymbolTable
 70
0
  0
BLOCK_RECORD
  5
1F
100
AcDbSymbolTableRecord
100
AcDbBlockTableRecord
  2
*MODEL_SPACE
  0
BLOCK_RECORD
  5
1B
100
AcDbSymbolTableRecord
100
AcDbBlockTableRecord
  2
*PAPER_SPACE
  0
ENDTAB
  0
TABLE
  2
DIMSTYLE
  5
A
100
AcDbSymbolTable
 70
1
100
AcDbDimStyleTable
 71
0
  0
DIMSTYLE
105
23E
100
AcDbSymbolTableRecord
100
AcDbDimStyleTableRecord
  2
STANDARD
 70
0
  3

  4

 40
1.0
 41
0.1875
 42
0.0625
 43
0.38
 44
0.18
 45
0.0
 46
0.0
 47
0.01
 48
0.01
140
0.15625
141
0.09
142
0.0
143
25.4
144
1.0
145
0.0
146
1.0
147
0.09
 71
0.0
 72
0.0
 73
1
 74
1
 75
0
 76
0
 77
0
 78
4
170
0
171
2
172
0
173
0
174
0
175
0
176
0
177
0
178
0
270
2
271
2
272
2
273
2
274
2
275
0
280
0
281
0
282
0
283
1
284
4
285
0
286
0
287
3
288
0
340
11
  0
ENDTAB
  0
ENDSEC
  0
SECTION
  2
BLOCKS
  0
BLOCK
  5
20
100
AcDbEntity
  8
0
100
AcDbBlockBegin
  2
*MODEL_SPACE
 70
0
 10
0.0
 20
0.0
 30
0.0
  3
*MODEL_SPACE
  1

  0
ENDBLK
  5
21
100
AcDbEntity
  8
0
100
AcDbBlockEnd
  0
BLOCK
  5
1C
100
AcDbEntity
  8
0
100
AcDbBlockBegin
  2
*PAPER_SPACE
 70
0
 10
0.0
 20
0.0
 30
0.0
  3
*PAPER_SPACE
  1

  0
ENDBLK
  5
1D
100
AcDbEntity
  8
0
100
AcDbBlockEnd
  0
ENDSEC
  0
SECTION
  2
ENTITIES
  0
LINE
  5
23F
100
AcDbEntity
  8
03__ASM_ALL_CURVES
100
AcDbLine
 62
40
  6
CONTINUOUS
 10
2.1075181058
 20
5.416744727
 11
2.1160602933
 21
5.4395238882
  0
LINE
  5
240
100
AcDbEntity
  8
03__ASM_ALL_CURVES
100
AcDbLine
 62
40
  6
CONTINUOUS
 10
2.1075181058
 20
5.3711863923
 11
2.1075181058
 21
5.416744727
  0
LINE
  5
241
100
AcDbEntity
  8
03__ASM_ALL_CURVES
100
AcDbLine
 62
40
  6
CONTINUOUS
 10
2.1758556058
 20
5.416744727
 11
2.1758556058
 21
5.3711863923
  0
LINE
  5
242
100
AcDbEntity
  8
03__ASM_ALL_CURVES
100
AcDbLine
 62
40
  6
CONTINUOUS
 10
2.1758556058
 20
5.3711863923
 11
2.1673134183
 21
5.3484072249
  0
LINE
  5
243
100
AcDbEntity
  8
03__ASM_ALL_CURVES
100
AcDbLine
 62
40
  6
CONTINUOUS
 10
2.3808681058
 20
5.416744727
 11
2.3894102933
 21
5.4395238882
  0
LINE
  5
244
100
AcDbEntity
  8
03__ASM_ALL_CURVES
100
AcDbLine
 62
40
  6
CONTINUOUS
 10
2.1160602933
 20
5.4395238882
 11
2.1246024808
 21
5.450913477
  0
LINE
  5
245
100
AcDbEntity
  8
03__ASM_ALL_CURVES
100
AcDbLine
 62
40
  6
CONTINUOUS
 10
2.2698196683
 20
5.3256280576
 11
2.2698196683
 21
5.3370176413
  0
LINE
  5
246
100
AcDbEntity
  8
0
100
AcDbLine
 62
7
  6
CONTINUOUS
 10
2.3405618558
 20
3.6255380576
 11
2.3405618558
 21
4.8655380576
  0
LINE
  5
247
100
AcDbEntity
  8
03__ASM_ALL_CURVES
100
AcDbLine
 62
40
  6
CONTINUOUS
 10
2.3405618558
 20
4.8655380576
 11
2.3405618558
 21
5.3256280576
  0
LINE
  5
248
100
AcDbEntity
  8
0
100
AcDbLine
 62
7
  6
CONTINUOUS
 10
2.3919460298
 20
3.5365380576
 11
2.3919460298
 21
3.5368990587
  0
LINE
  5
249
100
AcDbEntity
  8
0
100
AcDbLine
 62
7
  6
CONTINUOUS
 10
2.3919460298
 20
3.8716270565
 11
2.3919460298
 21
3.9108100598
  0
LINE
  5
24A
100
AcDbEntity
  8
0
100
AcDbLine
 62
7
  6
CONTINUOUS
 10
2.3919460298
 20
4.5802660554
 11
2.3919460298
 21
4.6194490587
  0
LINE
  5
24B
100
AcDbEntity
  8
0
100
AcDbLine
 62
7
  6
CONTINUOUS
 10
2.3919460298
 20
4.9541770565
 11
2.3919460298
 21
4.9545380576
  0
LINE
  5
24C
100
AcDbEntity
  8
03__ASM_ALL_CURVES
100
AcDbLine
 62
40
  6
CONTINUOUS
 10
2.4492056058
 20
5.416744727
 11
2.4492056058
 21
5.3711863923
  0
LINE
  5
24D
100
AcDbEntity
  8
03__ASM_ALL_CURVES
100
AcDbLine
 62
40
  6
CONTINUOUS
 10
2.4492056058
 20
5.416744727
 11
2.4406634183
 21
5.3939655576
  0
LINE
  5
24E
100
AcDbEntity
  8
03__ASM_ALL_CURVES
100
AcDbLine
 62
40
  6
CONTINUOUS
 10
2.4492056058
 20
5.3711863923
 11
2.4406634183
 21
5.3484072249
  0
LINE
  5
24F
100
AcDbEntity
  8
03__ASM_ALL_CURVES
100
AcDbLine
 62
40
  6
CONTINUOUS
 10
2.5175431058
 20
5.416744727
 11
2.5260852933
 21
5.4395238882
  0
LINE
  5
250
100
AcDbEntity
  8
03__ASM_ALL_CURVES
100
AcDbLine
 62
40
  6
CONTINUOUS
 10
2.5175431058
 20
5.3711863923
 11
2.5260852933
 21
5.3939655576
  0
LINE
  5
251
100
AcDbEntity
  8
03__ASM_ALL_CURVES
100
AcDbLine
 62
40
  6
CONTINUOUS
 10
2.5858806058
 20
5.3711863923
 11
2.5773384183
 21
5.3484072249
  0
LINE
  5
252
100
AcDbEntity
  8
03__ASM_ALL_CURVES
100
AcDbLine
 62
40
  6
CONTINUOUS
 10
2.1673134183
 20
5.3484072249
 11
2.1587712308
 21
5.3370176413
  0
LINE
  5
253
100
AcDbEntity
  8
03__ASM_ALL_CURVES
100
AcDbLine
 62
40
  6
CONTINUOUS
 10
2.3894102933
 20
5.4395238882
 11
2.3979524808
 21
5.450913477
  0
LINE
  5
254
100
AcDbEntity
  8
03__ASM_ALL_CURVES
100
AcDbLine
 62
40
  6
CONTINUOUS
 10
2.4406634183
 20
5.3484072249
 11
2.4321212308
 21
5.3370176413
  0
LINE
  5
255
100
AcDbEntity
  8
0
100
AcDbLine
 62
7
  6
CONTINUOUS
 10
2.3919460298
 20
3.5365380576
 11
2.3405618558
 21
3.6255380576
  0
LINE
  5
256
100
AcDbEntity
  8
03__ASM_ALL_CURVES
100
AcDbLine
 62
40
  6
CONTINUOUS
 10
2.5045718558
 20
5.2982930576
 11
2.5045718558
 21
5.2436230576
  0
LINE
  5
257
100
AcDbEntity
  8
03__ASM_ALL_CURVES
100
AcDbLine
 62
40
  6
CONTINUOUS
 10
2.5175431058
 20
5.3711863923
 11
2.5175431058
 21
5.416744727
  0
LINE
  5
258
100
AcDbEntity
  8
03__ASM_ALL_CURVES
100
AcDbLine
 62
40
  6
CONTINUOUS
 10
2.6713024808
 20
5.4053551382
 11
2.6713024808
 21
5.3825759729
  0
LINE
  5
259
100
AcDbEntity
  8
03__ASM_ALL_CURVES
100
AcDbLine
 62
40
  6
CONTINUOUS
 10
2.6798446683
 20
5.4395238882
 11
2.6713024808
 21
5.4053551382
  0
LINE
  5
25A
100
AcDbEntity
  8
03__ASM_ALL_CURVES
100
AcDbLine
 62
40
  6
CONTINUOUS
 10
2.7994352933
 20
5.3597968076
 11
2.7908931058
 21
5.3256280576
  0
LINE
  5
25B
100
AcDbEntity
  8
0
100
AcDbLine
 62
7
  6
CONTINUOUS
 10
2.3919460298
 20
4.9545380576
 11
2.3405618558
 21
4.8655380576
  0
LINE
  5
25C
100
AcDbEntity
  8
03__ASM_ALL_CURVES
100
AcDbLine
 62
40
  6
CONTINUOUS
 10
2.5260852933
 20
5.4395238882
 11
2.5346274808
 21
5.450913477
  0
LINE
  5
25D
100
AcDbEntity
  8
03__ASM_ALL_CURVES
100
AcDbLine
 62
40
  6
CONTINUOUS
 10
2.5773384183
 20
5.3484072249
 11
2.5687962308
 21
5.3370176413
  0
LINE
  5
25E
100
AcDbEntity
  8
03__ASM_ALL_CURVES
100
AcDbLine
 62
40
  6
CONTINUOUS
 10
2.6969290433
 20
5.4623030576
 11
2.6798446683
 21
5.4395238882
  0
LINE
  5
25F
100
AcDbEntity
  8
03__ASM_ALL_CURVES
100
AcDbLine
 62
40
  6
CONTINUOUS
 10
2.7908931058
 20
5.4395238882
 11
2.7994352933
 21
5.450913477
  0
LINE
  5
260
100
AcDbEntity
  8
03__ASM_ALL_CURVES
100
AcDbLine
 62
40
  6
CONTINUOUS
 10
2.1160602933
 20
5.3484072249
 11
2.1075181058
 21
5.3711863923
  0
LINE
  5
261
100
AcDbEntity
  8
03__ASM_ALL_CURVES
100
AcDbLine
 62
40
  6
CONTINUOUS
 10
2.8592306058
 20
5.4395238882
 11
2.8592306058
 21
5.416744727
  0
LINE
  5
262
100
AcDbEntity
  8
03__ASM_ALL_CURVES
100
AcDbLine
 62
40
  6
CONTINUOUS
 10
2.9873634183
 20
5.3256280576
 11
2.9873634183
 21
5.4623030576
  0
LINE
  5
263
100
AcDbEntity
  8
03__ASM_ALL_CURVES
100
AcDbLine
 62
40
  6
CONTINUOUS
 10
2.9873634183
 20
5.4623030576
 11
2.9275681058
 21
5.3597968076
  0
LINE
  5
264
100
AcDbEntity
  8
03__ASM_ALL_CURVES
100
AcDbLine
 62
40
  6
CONTINUOUS
 10
2.8165196683
 20
5.3825759729
 11
2.7994352933
 21
5.3597968076
  0
LINE
  5
265
100
AcDbEntity
  8
03__ASM_ALL_CURVES
100
AcDbLine
 62
40
  6
CONTINUOUS
 10
2.8592306058
 20
5.416744727
 11
2.8506884183
 21
5.4053551382
  0
LINE
  5
266
100
AcDbEntity
  8
03__ASM_ALL_CURVES
100
AcDbLine
 62
40
  6
CONTINUOUS
 10
2.1246024808
 20
5.450913477
 11
2.1416868558
 21
5.4623030576
  0
LINE
  5
267
100
AcDbEntity
  8
03__ASM_ALL_CURVES
100
AcDbLine
 62
40
  6
CONTINUOUS
 10
2.1587712308
 20
5.3370176413
 11
2.1416868558
 21
5.3256280576
  0
LINE
  5
268
100
AcDbEntity
  8
03__ASM_ALL_CURVES
100
AcDbLine
 62
40
  6
CONTINUOUS
 10
2.3979524808
 20
5.450913477
 11
2.4150368558
 21
5.4623030576
  0
LINE
  5
269
100
AcDbEntity
  8
03__ASM_ALL_CURVES
100
AcDbLine
 62
40
  6
CONTINUOUS
 10
2.1673134183
 20
5.4395238882
 11
2.1758556058
 21
5.416744727
  0
LINE
  5
26A
100
AcDbEntity
  8
0
100
AcDbLine
 62
7
  6
CONTINUOUS
 10
3.0858586619
 20
3.5365380576
 11
3.0858586619
 21
4.9545380576
  0
LINE
  5
26B
100
AcDbEntity
  8
03__ASM_ALL_CURVES
100
AcDbLine
 62
40
  6
CONTINUOUS
 10
3.0898696683
 20
5.3256280576
 11
3.0898696683
 21
5.3370176413
  0
LINE
  5
26C
100
AcDbEntity
  8
0
100
AcDbLine
 62
7
  6
CONTINUOUS
 10
3.1265618558
 20
3.4660380576
 11
3.1265618558
 21
5.0250380576
  0
LINE
  5
26D
100
AcDbEntity
  8
03__ASM_ALL_CURVES
100
AcDbLine
 62
40
  6
CONTINUOUS
 10
3.1455518558
 20
5.2982930576
 11
3.1455518558
 21
5.2436230576
  0
LINE
  5
26E
100
AcDbEntity
  8
0
100
AcDbLine
 62
7
  6
CONTINUOUS
 10
3.1265618558
 20
5.0250380576
 11
3.0858586619
 21
4.9545380576
  0
LINE
  5
26F
100
AcDbEntity
  8
03__ASM_ALL_CURVES
100
AcDbLine
 62
40
  6
CONTINUOUS
 10
3.2692556058
 20
5.4281343076
 11
3.2607134183
 21
5.416744727
  0
LINE
  5
270
100
AcDbEntity
  8
03__ASM_ALL_CURVES
100
AcDbLine
 62
40
  6
CONTINUOUS
 10
3.3375931058
 20
5.4395238882
 11
3.3461352933
 21
5.450913477
  0
LINE
  5
271
100
AcDbEntity
  8
03__ASM_ALL_CURVES
100
AcDbLine
 62
40
  6
CONTINUOUS
 10
3.2777977933
 20
5.3597968076
 11
3.2607134183
 21
5.3370176413
  0
LINE
  5
272
100
AcDbEntity
  8
03__ASM_ALL_CURVES
100
AcDbLine
 62
40
  6
CONTINUOUS
 10
3.3290509183
 20
5.3711863923
 11
3.3461352933
 21
5.3939655576
  0
LINE
  5
273
100
AcDbEntity
  8
03__ASM_ALL_CURVES
100
AcDbLine
 62
40
  6
CONTINUOUS
 10
3.4059306058
 20
5.4281343076
 11
3.3973884183
 21
5.416744727
  0
LINE
  5
274
100
AcDbEntity
  8
03__ASM_ALL_CURVES
100
AcDbLine
 62
40
  6
CONTINUOUS
 10
3.4144727933
 20
5.3597968076
 11
3.3973884183
 21
5.3370176413
  0
LINE
  5
275
100
AcDbEntity
  8
03__ASM_ALL_CURVES
100
AcDbLine
 62
40
  6
CONTINUOUS
 10
2.5346274808
 20
5.450913477
 11
2.5517118558
 21
5.4623030576
  0
LINE
  5
276
100
AcDbEntity
  8
03__ASM_ALL_CURVES
100
AcDbLine
 62
40
  6
CONTINUOUS
 10
2.4321212308
 20
5.3370176413
 11
2.4150368558
 21
5.3256280576
  0
LINE
  5
277
100
AcDbEntity
  8
03__ASM_ALL_CURVES
100
AcDbLine
 62
40
  6
CONTINUOUS
 10
2.5687962308
 20
5.3370176413
 11
2.5517118558
 21
5.3256280576
  0
LINE
  5
278
100
AcDbEntity
  8
03__ASM_ALL_CURVES
100
AcDbLine
 62
40
  6
CONTINUOUS
 10
2.7994352933
 20
5.450913477
 11
2.8165196683
 21
5.4623030576
  0
LINE
  5
279
100
AcDbEntity
  8
03__ASM_ALL_CURVES
100
AcDbLine
 62
40
  6
CONTINUOUS
 10
2.8506884183
 20
5.4053551382
 11
2.8165196683
 21
5.3825759729
  0
LINE
  5
27A
100
AcDbEntity
  8
0
100
AcDbLine
 62
7
  6
CONTINUOUS
 10
3.1265618558
 20
3.4660380576
 11
3.0858586619
 21
3.5365380576
  0
LINE
  5
27B
100
AcDbEntity
  8
03__ASM_ALL_CURVES
100
AcDbLine
 62
40
  6
CONTINUOUS
 10
2.3894102933
 20
5.3939655576
 11
2.3808681058
 21
5.416744727
  0
LINE
  5
27C
100
AcDbEntity
  8
03__ASM_ALL_CURVES
100
AcDbLine
 62
40
  6
CONTINUOUS
 10
2.4406634183
 20
5.4395238882
 11
2.4492056058
 21
5.416744727
  0
LINE
  5
27D
100
AcDbEntity
  8
03__ASM_ALL_CURVES
100
AcDbLine
 62
40
  6
CONTINUOUS
 10
2.5260852933
 20
5.3484072249
 11
2.5175431058
 21
5.3711863923
  0
LINE
  5
27E
100
AcDbEntity
  8
03__ASM_ALL_CURVES
100
AcDbLine
 62
40
  6
CONTINUOUS
 10
2.5773384183
 20
5.3939655576
 11
2.5858806058
 21
5.3711863923
  0
LINE
  5
27F
100
AcDbEntity
  8
03__ASM_ALL_CURVES
100
AcDbLine
 62
40
  6
CONTINUOUS
 10
2.6713024808
 20
5.3825759729
 11
2.6798446683
 21
5.3484072249
  0
LINE
  5
280
100
AcDbEntity
  8
03__ASM_ALL_CURVES
100
AcDbLine
 62
40
  6
CONTINUOUS
 10
3.2692556058
 20
5.4395238882
 11
3.2692556058
 21
5.4281343076
  0
LINE
  5
281
100
AcDbEntity
  8
03__ASM_ALL_CURVES
100
AcDbLine
 62
40
  6
CONTINUOUS
 10
3.2777977933
 20
5.3711863923
 11
3.2777977933
 21
5.3597968076
  0
LINE
  5
282
100
AcDbEntity
  8
0
100
AcDbLine
 62
7
  6
CONTINUOUS
 10
3.3095618558
 20
3.4660380576
 11
3.3095618558
 21
5.0250380576
  0
LINE
  5
283
100
AcDbEntity
  8
03__ASM_ALL_CURVES
100
AcDbLine
 62
40
  6
CONTINUOUS
 10
3.3095618558
 20
5.0523730576
 11
3.3095618558
 21
5.3256280576
  0
LINE
  5
284
100
AcDbEntity
  8
03__ASM_ALL_CURVES
100
AcDbLine
 62
40
  6
CONTINUOUS
 10
3.3290509183
 20
5.3597968076
 11
3.3290509183
 21
5.3711863923
  0
LINE
  5
285
100
AcDbEntity
  8
03__ASM_ALL_CURVES
100
AcDbLine
 62
40
  6
CONTINUOUS
 10
3.3375931058
 20
5.4281343076
 11
3.3375931058
 21
5.4395238882
  0
LINE
  5
286
100
AcDbEntity
  8
THREAD
100
AcDbLine
 62
7
  6
CONTINUOUS
 10
3.3565618558
 20
3.5280380576
 11
3.3565618558
 21
4.9630380576
  0
LINE
  5
287
100
AcDbEntity
  8
03__ASM_ALL_CURVES
100
AcDbLine
 62
40
  6
CONTINUOUS
 10
3.4059306058
 20
5.4395238882
 11
3.4059306058
 21
5.4281343076
  0
LINE
  5
288
100
AcDbEntity
  8
03__ASM_ALL_CURVES
100
AcDbLine
 62
40
  6
CONTINUOUS
 10
3.4144727933
 20
5.3711863923
 11
3.4144727933
 21
5.3597968076
  0
LINE
  5
289
100
AcDbEntity
  8
0
100
AcDbLine
 62
7
  6
CONTINUOUS
 10
3.4595618558
 20
3.5275380576
 11
3.4595618558
 21
4.9635380576
  0
LINE
  5
28A
100
AcDbEntity
  8
03__ASM_ALL_CURVES
100
AcDbLine
 62
40
  6
CONTINUOUS
 10
3.4735718558
 20
5.2982930576
 11
3.4735718558
 21
5.2436230576
  0
LINE
  5
28B
100
AcDbEntity
  8
0
100
AcDbLine
 62
7
  6
CONTINUOUS
 10
3.5095618558
 20
3.5275380576
 11
3.5095618558
 21
4.9635380576
  0
LINE
  5
28C
100
AcDbEntity
  8
03__ASM_ALL_CURVES
100
AcDbLine
 62
40
  6
CONTINUOUS
 10
3.5255212308
 20
5.3825759729
 11
3.5169790433
 21
5.3484072249
  0
LINE
  5
28D
100
AcDbEntity
  8
03__ASM_ALL_CURVES
100
AcDbLine
 62
40
  6
CONTINUOUS
 10
3.6478324808
 20
5.3939655576
 11
3.6563746683
 21
5.4281343076
  0
LINE
  5
28E
100
AcDbEntity
  8
03__ASM_ALL_CURVES
100
AcDbLine
 62
40
  6
CONTINUOUS
 10
3.5169790433
 20
5.3484072249
 11
3.4998946683
 21
5.3256280576
  0
LINE
  5
28F
100
AcDbEntity
  8
03__ASM_ALL_CURVES
100
AcDbLine
 62
40
  6
CONTINUOUS
 10
3.6563746683
 20
5.4281343076
 11
3.6734590433
 21
5.450913477
  0
LINE
  5
290
100
AcDbEntity
  8
03__ASM_ALL_CURVES
100
AcDbLine
 62
40
  6
CONTINUOUS
 10
3.7417965433
 20
5.3597968076
 11
3.7247121683
 21
5.3370176413
  0
LINE
  5
291
100
AcDbEntity
  8
03__ASM_ALL_CURVES
100
AcDbLine
 62
40
  6
CONTINUOUS
 10
3.7930496683
 20
5.4281343076
 11
3.8101340433
 21
5.450913477
  0
LINE
  5
292
100
AcDbEntity
  8
03__ASM_ALL_CURVES
100
AcDbLine
 62
40
  6
CONTINUOUS
 10
3.2094602933
 20
5.450913477
 11
3.2265446683
 21
5.4623030576
  0
LINE
  5
293
100
AcDbEntity
  8
03__ASM_ALL_CURVES
100
AcDbLine
 62
40
  6
CONTINUOUS
 10
3.2607134183
 20
5.416744727
 11
3.2436290433
 21
5.4053551382
  0
LINE
  5
294
100
AcDbEntity
  8
03__ASM_ALL_CURVES
100
AcDbLine
 62
40
  6
CONTINUOUS
 10
3.3461352933
 20
5.450913477
 11
3.3632196683
 21
5.4623030576
  0
LINE
  5
295
100
AcDbEntity
  8
03__ASM_ALL_CURVES
100
AcDbLine
 62
40
  6
CONTINUOUS
 10
2.4406634183
 20
5.3939655576
 11
2.4150368558
 21
5.3825759729
  0
LINE
  5
296
100
AcDbEntity
  8
03__ASM_ALL_CURVES
100
AcDbLine
 62
40
  6
CONTINUOUS
 10
2.5260852933
 20
5.3939655576
 11
2.5517118558
 21
5.4053551382
  0
LINE
  5
297
100
AcDbEntity
  8
03__ASM_ALL_CURVES
100
AcDbLine
 62
40
  6
CONTINUOUS
 10
2.1246024808
 20
5.3370176413
 11
2.1160602933
 21
5.3484072249
  0
LINE
  5
298
100
AcDbEntity
  8
THREAD
100
AcDbLine
 62
7
  6
CONTINUOUS
 10
3.5572746688
 20
3.5440380576
 11
3.5295618558
 21
3.5920380576
  0
LINE
  5
299
100
AcDbEntity
  8
03__ASM_ALL_CURVES
100
AcDbLine
 62
40
  6
CONTINUOUS
 10
3.5255212308
 20
5.4053551382
 11
3.5255212308
 21
5.3825759729
  0
LINE
  5
29A
100
AcDbEntity
  8
03__ASM_ALL_CURVES
100
AcDbLine
 62
40
  6
CONTINUOUS
 10
3.5282418558
 20
5.4623030576
 11
3.5282418558
 21
5.3256280576
  0
LINE
  5
29B
100
AcDbEntity
  8
0
100
AcDbLine
 62
7
  6
CONTINUOUS
 10
3.5295618558
 20
3.5920380576
 11
3.5295618558
 21
4.8990380576
  0
LINE
  5
29C
100
AcDbEntity
  8
THREAD
100
AcDbLine
 62
7
  6
CONTINUOUS
 10
3.5572746688
 20
3.5440380576
 11
3.5572746688
 21
4.9470380576
  0
LINE
  5
29D
100
AcDbEntity
  8
03__ASM_ALL_CURVES
100
AcDbLine
 62
40
  6
CONTINUOUS
 10
3.7503387308
 20
5.3939655576
 11
3.7417965433
 21
5.3597968076
  0
LINE
  5
29E
100
AcDbEntity
  8
03__ASM_ALL_CURVES
100
AcDbLine
 62
40
  6
CONTINUOUS
 10
3.7845074808
 20
5.3939655576
 11
3.7930496683
 21
5.4281343076
  0
LINE
  5
29F
100
AcDbEntity
  8
03__ASM_ALL_CURVES
100
AcDbLine
 62
40
  6
CONTINUOUS
 10
3.9297246683
 20
5.3256280576
 11
3.9724356058
 21
5.4623030576
  0
LINE
  5
2A0
100
AcDbEntity
  8
THREAD
100
AcDbLine
 62
7
  6
CONTINUOUS
 10
3.5572746688
 20
4.9470380576
 11
3.5295618558
 21
4.8990380576
  0
LINE
  5
2A1
100
AcDbEntity
  8
03__ASM_ALL_CURVES
100
AcDbLine
 62
40
  6
CONTINUOUS
 10
3.8699293558
 20
5.3484072249
 11
3.8613871683
 21
5.3370176413
  0
LINE
  5
2A2
100
AcDbEntity
  8
03__ASM_ALL_CURVES
100
AcDbLine
 62
40
  6
CONTINUOUS
 10
3.2607134183
 20
5.3370176413
 11
3.2436290433
 21
5.3256280576
  0
LINE
  5
2A3
100
AcDbEntity
  8
03__ASM_ALL_CURVES
100
AcDbLine
 62
40
  6
CONTINUOUS
 10
3.3461352933
 20
5.3939655576
 11
3.3632196683
 21
5.4053551382
  0
LINE
  5
2A4
100
AcDbEntity
  8
03__ASM_ALL_CURVES
100
AcDbLine
 62
40
  6
CONTINUOUS
 10
3.3973884183
 20
5.416744727
 11
3.3803040433
 21
5.4053551382
  0
LINE
  5
2A5
100
AcDbEntity
  8
03__ASM_ALL_CURVES
100
AcDbLine
 62
40
  6
CONTINUOUS
 10
3.3973884183
 20
5.3370176413
 11
3.3803040433
 21
5.3256280576
  0
LINE
  5
2A6
100
AcDbEntity
  8
03__ASM_ALL_CURVES
100
AcDbLine
 62
40
  6
CONTINUOUS
 10
3.6734590433
 20
5.450913477
 11
3.6905434183
 21
5.4623030576
  0
LINE
  5
2A7
100
AcDbEntity
  8
03__ASM_ALL_CURVES
100
AcDbLine
 62
40
  6
CONTINUOUS
 10
3.8101340433
 20
5.450913477
 11
3.8272184183
 21
5.4623030576
  0
LINE
  5
2A8
100
AcDbEntity
  8
03__ASM_ALL_CURVES
100
AcDbLine
 62
40
  6
CONTINUOUS
 10
2.1587712308
 20
5.450913477
 11
2.1673134183
 21
5.4395238882
  0
LINE
  5
2A9
100
AcDbEntity
  8
03__ASM_ALL_CURVES
100
AcDbLine
 62
40
  6
CONTINUOUS
 10
2.2698196683
 20
5.3370176413
 11
2.2783618558
 21
5.3256280576
  0
LINE
  5
2AA
100
AcDbEntity
  8
03__ASM_ALL_CURVES
100
AcDbLine
 62
40
  6
CONTINUOUS
 10
2.3979524808
 20
5.3370176413
 11
2.3894102933
 21
5.3484072249
  0
LINE
  5
2AB
100
AcDbEntity
  8
THREAD
100
AcDbLine
 62
7
  6
CONTINUOUS
 10
3.9475618558
 20
3.5440380576
 11
3.9475618558
 21
4.9470380576
  0
LINE
  5
2AC
100
AcDbEntity
  8
THREAD
100
AcDbLine
 62
7
  6
CONTINUOUS
 10
3.9975618558
 20
3.5940380576
 11
3.9975618558
 21
4.8970380576
  0
LINE
  5
2AD
100
AcDbEntity
  8
03__ASM_ALL_CURVES
100
AcDbLine
 62
40
  6
CONTINUOUS
 10
3.7247121683
 20
5.3370176413
 11
3.7076277933
 21
5.3256280576
  0
LINE
  5
2AE
100
AcDbEntity
  8
03__ASM_ALL_CURVES
100
AcDbLine
 62
40
  6
CONTINUOUS
 10
3.8613871683
 20
5.3370176413
 11
3.8443027933
 21
5.3256280576
  0
LINE
  5
2AF
100
AcDbEntity
  8
03__ASM_ALL_CURVES
100
AcDbLine
 62
40
  6
CONTINUOUS
 10
2.4321212308
 20
5.450913477
 11
2.4406634183
 21
5.4395238882
  0
LINE
  5
2B0
100
AcDbEntity
  8
03__ASM_ALL_CURVES
100
AcDbLine
 62
40
  6
CONTINUOUS
 10
2.5346274808
 20
5.3370176413
 11
2.5260852933
 21
5.3484072249
  0
LINE
  5
2B1
100
AcDbEntity
  8
03__ASM_ALL_CURVES
100
AcDbLine
 62
40
  6
CONTINUOUS
 10
2.5687962308
 20
5.450913477
 11
2.5773384183
 21
5.4395238882
  0
LINE
  5
2B2
100
AcDbEntity
  8
03__ASM_ALL_CURVES
100
AcDbLine
 62
40
  6
CONTINUOUS
 10
2.6798446683
 20
5.3484072249
 11
2.6969290433
 21
5.3256280576
  0
LINE
  5
2B3
100
AcDbEntity
  8
03__ASM_ALL_CURVES
100
AcDbLine
 62
40
  6
CONTINUOUS
 10
3.5169790433
 20
5.4395238882
 11
3.5255212308
 21
5.4053551382
  0
LINE
  5
2B4
100
AcDbEntity
  8
03__ASM_ALL_CURVES
100
AcDbLine
 62
40
  6
CONTINUOUS
 10
3.6563746683
 20
5.3597968076
 11
3.6478324808
 21
5.3939655576
  0
LINE
  5
2B5
100
AcDbEntity
  8
03__ASM_ALL_CURVES
100
AcDbLine
 62
40
  6
CONTINUOUS
 10
4.1091106058
 20
5.4623030576
 11
4.1091106058
 21
5.3256280576
  0
LINE
  5
2B6
100
AcDbEntity
  8
03__ASM_ALL_CURVES
100
AcDbLine
 62
40
  6
CONTINUOUS
 10
4.2457856058
 20
5.4623030576
 11
4.2457856058
 21
5.3256280576
  0
LINE
  5
2B7
100
AcDbEntity
  8
03__ASM_ALL_CURVES
100
AcDbLine
 62
40
  6
CONTINUOUS
 10
4.4678824808
 20
5.3939655576
 11
4.4764246683
 21
5.4281343076
  0
LINE
  5
2B8
100
AcDbEntity
  8
03__ASM_ALL_CURVES
100
AcDbLine
 62
40
  6
CONTINUOUS
 10
4.4764246683
 20
5.4281343076
 11
4.4935090433
 21
5.450913477
  0
LINE
  5
2B9
100
AcDbEntity
  8
03__ASM_ALL_CURVES
100
AcDbLine
 62
40
  6
CONTINUOUS
 10
4.5533043558
 20
5.3484072249
 11
4.5447621683
 21
5.3370176413
  0
LINE
  5
2BA
100
AcDbEntity
  8
03__ASM_ALL_CURVES
100
AcDbLine
 62
40
  6
CONTINUOUS
 10
4.7668590433
 20
5.450913477
 11
4.7583168558
 21
5.4395238882
  0
LINE
  5
2BB
100
AcDbEntity
  8
03__ASM_ALL_CURVES
100
AcDbLine
 62
40
  6
CONTINUOUS
 10
4.4935090433
 20
5.450913477
 11
4.5105934183
 21
5.4623030576
  0
LINE
  5
2BC
100
AcDbEntity
  8
03__ASM_ALL_CURVES
100
AcDbLine
 62
40
  6
CONTINUOUS
 10
4.5447621683
 20
5.3370176413
 11
4.5276777933
 21
5.3256280576
  0
LINE
  5
2BD
100
AcDbEntity
  8
03__ASM_ALL_CURVES
100
AcDbLine
 62
40
  6
CONTINUOUS
 10
4.7839434183
 20
5.4623030576
 11
4.7668590433
 21
5.450913477
  0
LINE
  5
2BE
100
AcDbEntity
  8
03__ASM_ALL_CURVES
100
AcDbLine
 62
40
  6
CONTINUOUS
 10
4.6354455952
 20
3.1120318076
 11
4.6226323139
 21
3.1205739954
  0
LINE
  5
2BF
100
AcDbEntity
  8
03__ASM_ALL_CURVES
100
AcDbLine
 62
40
  6
CONTINUOUS
 10
4.5457526264
 20
3.2145380576
 11
4.5585659077
 21
3.2059958721
  0
LINE
  5
2C0
100
AcDbEntity
  8
03__ASM_ALL_CURVES
100
AcDbLine
 62
40
  6
CONTINUOUS
 10
4.6482588764
 20
3.2145380576
 11
4.6610721577
 21
3.2059958721
  0
LINE
  5
2C1
100
AcDbEntity
  8
03__ASM_ALL_CURVES
100
AcDbLine
 62
40
  6
CONTINUOUS
 10
2.8506884183
 20
5.450913477
 11
2.8592306058
 21
5.4395238882
  0
LINE
  5
2C2
100
AcDbEntity
  8
03__ASM_ALL_CURVES
100
AcDbLine
 62
40
  6
CONTINUOUS
 10
4.5585659077
 20
3.2059958721
 11
4.5649725483
 21
3.1974536806
  0
LINE
  5
2C3
100
AcDbEntity
  8
03__ASM_ALL_CURVES
100
AcDbLine
 62
40
  6
CONTINUOUS
 10
4.6226323139
 20
3.1205739954
 11
4.6098190327
 21
3.1376583701
  0
LINE
  5
2C4
100
AcDbEntity
  8
03__ASM_ALL_CURVES
100
AcDbLine
 62
40
  6
CONTINUOUS
 10
4.6610721577
 20
3.2059958721
 11
4.6738854389
 21
3.1889114951
  0
LINE
  5
2C5
100
AcDbEntity
  8
03__ASM_ALL_CURVES
100
AcDbLine
 62
40
  6
CONTINUOUS
 10
3.0898696683
 20
5.3370176413
 11
3.0984118558
 21
5.3256280576
  0
LINE
  5
2C6
100
AcDbEntity
  8
03__ASM_ALL_CURVES
100
AcDbLine
 62
40
  6
CONTINUOUS
 10
3.7417965433
 20
5.4281343076
 11
3.7503387308
 21
5.3939655576
  0
LINE
  5
2C7
100
AcDbEntity
  8
03__ASM_ALL_CURVES
100
AcDbLine
 62
40
  6
CONTINUOUS
 10
3.7930496683
 20
5.3597968076
 11
3.7845074808
 21
5.3939655576
  0
LINE
  5
2C8
100
AcDbEntity
  8
0
100
AcDbLine
 62
7
  6
CONTINUOUS
 10
4.3275618558
 20
3.5940380576
 11
4.3275618558
 21
4.8970380576
  0
LINE
  5
2C9
100
AcDbEntity
  8
0
100
AcDbLine
 62
7
  6
CONTINUOUS
 10
4.3405618558
 20
3.6070380576
 11
4.3405618558
 21
4.8840380576
  0
LINE
  5
2CA
100
AcDbEntity
  8
03__ASM_ALL_CURVES
100
AcDbLine
 62
40
  6
CONTINUOUS
 10
4.3482918558
 20
5.3256280576
 11
4.3482918558
 21
5.4623030576
  0
LINE
  5
2CB
100
AcDbEntity
  8
0
100
AcDbLine
 62
7
  6
CONTINUOUS
 10
4.3535618558
 20
4.5036792292
 11
4.3535618558
 21
4.49292423
  0
LINE
  5
2CC
100
AcDbEntity
  8
0
100
AcDbLine
 62
7
  6
CONTINUOUS
 10
4.3535618558
 20
3.9873407339
 11
4.3535618558
 21
3.9981610763
  0
LINE
  5
2CD
100
AcDbEntity
  8
0
100
AcDbLine
 62
7
  6
CONTINUOUS
 10
4.3635618558
 20
4.5211370822
 11
4.3635618558
 21
4.4727763102
  0
LINE
  5
2CE
100
AcDbEntity
  8
0
100
AcDbLine
 62
7
  6
CONTINUOUS
 10
4.3635618558
 20
3.9698960636
 11
4.3635618558
 21
4.0183069469
  0
LINE
  5
2CF
100
AcDbEntity
  8
0
100
AcDbLine
 62
7
  6
CONTINUOUS
 10
4.3705618558
 20
3.961356443
 11
4.3705618558
 21
4.0276540365
  0
LINE
  5
2D0
100
AcDbEntity
  8
0
100
AcDbLine
 62
7
  6
CONTINUOUS
 10
4.3705618558
 20
4.4634275351
 11
4.3705618558
 21
4.5297676134
  0
LINE
  5
2D1
100
AcDbEntity
  8
03__ASM_ALL_CURVES
100
AcDbLine
 62
40
  6
CONTINUOUS
 10
4.4166293558
 20
5.3256280576
 11
4.4166293558
 21
5.4623030576
  0
LINE
  5
2D2
100
AcDbEntity
  8
03__ASM_ALL_CURVES
100
AcDbLine
 62
40
  6
CONTINUOUS
 10
4.5137194233
 20
3.1120318076
 11
4.5137194233
 21
3.2145380576
  0
LINE
  5
2D3
100
AcDbEntity
  8
03__ASM_ALL_CURVES
100
AcDbLine
 62
40
  6
CONTINUOUS
 10
4.8266543558
 20
5.3484072249
 11
4.8181121683
 21
5.3370176413
  0
LINE
  5
2D4
100
AcDbEntity
  8
03__ASM_ALL_CURVES
100
AcDbLine
 62
40
  6
CONTINUOUS
 10
5.0231246683
 20
5.4281343076
 11
5.0402090433
 21
5.450913477
  0
LINE
  5
2D5
100
AcDbEntity
  8
03__ASM_ALL_CURVES
100
AcDbLine
 62
40
  6
CONTINUOUS
 10
4.8181121683
 20
5.3370176413
 11
4.8010277933
 21
5.3256280576
  0
LINE
  5
2D6
100
AcDbEntity
  8
03__ASM_ALL_CURVES
100
AcDbLine
 62
40
  6
CONTINUOUS
 10
5.0402090433
 20
5.450913477
 11
5.0572934183
 21
5.4623030576
  0
LINE
  5
2D7
100
AcDbEntity
  8
03__ASM_ALL_CURVES
100
AcDbLine
 62
40
  6
CONTINUOUS
 10
5.0914621683
 20
5.3370176413
 11
5.0743777933
 21
5.3256280576
  0
LINE
  5
2D8
100
AcDbEntity
  8
03__ASM_ALL_CURVES
100
AcDbLine
 62
40
  6
CONTINUOUS
 10
4.7507651264
 20
3.2145380576
 11
4.7635784077
 21
3.2059958721
  0
LINE
  5
2D9
100
AcDbEntity
  8
03__ASM_ALL_CURVES
100
AcDbLine
 62
40
  6
CONTINUOUS
 10
4.7635784077
 20
3.2059958721
 11
4.7699850483
 21
3.1974536806
  0
LINE
  5
2DA
100
AcDbEntity
  8
03__ASM_ALL_CURVES
100
AcDbLine
 62
40
  6
CONTINUOUS
 10
3.2094602933
 20
5.3370176413
 11
3.2009181058
 21
5.3484072249
  0
LINE
  5
2DB
100
AcDbEntity
  8
03__ASM_ALL_CURVES
100
AcDbLine
 62
40
  6
CONTINUOUS
 10
3.2607134183
 20
5.3939655576
 11
3.2777977933
 21
5.3711863923
  0
LINE
  5
2DC
100
AcDbEntity
  8
03__ASM_ALL_CURVES
100
AcDbLine
 62
40
  6
CONTINUOUS
 10
3.2607134183
 20
5.450913477
 11
3.2692556058
 21
5.4395238882
  0
LINE
  5
2DD
100
AcDbEntity
  8
03__ASM_ALL_CURVES
100
AcDbLine
 62
40
  6
CONTINUOUS
 10
3.3461352933
 20
5.3370176413
 11
3.3290509183
 21
5.3597968076
  0
LINE
  5
2DE
100
AcDbEntity
  8
03__ASM_ALL_CURVES
100
AcDbLine
 62
40
  6
CONTINUOUS
 10
3.3461352933
 20
5.416744727
 11
3.3375931058
 21
5.4281343076
  0
LINE
  5
2DF
100
AcDbEntity
  8
03__ASM_ALL_CURVES
100
AcDbLine
 62
40
  6
CONTINUOUS
 10
3.3973884183
 20
5.3939655576
 11
3.4144727933
 21
5.3711863923
  0
LINE
  5
2E0
100
AcDbEntity
  8
03__ASM_ALL_CURVES
100
AcDbLine
 62
40
  6
CONTINUOUS
 10
4.7507651264
 20
3.1632849326
 11
4.7699850483
 21
3.1120318076
  0
LINE
  5
2E1
100
AcDbEntity
  8
03__ASM_ALL_CURVES
100
AcDbLine
 62
40
  6
CONTINUOUS
 10
3.9724356058
 20
5.4623030576
 11
4.0151465433
 21
5.3256280576
  0
LINE
  5
2E2
100
AcDbEntity
  8
03__ASM_ALL_CURVES
100
AcDbLine
 62
40
  6
CONTINUOUS
 10
4.6098190327
 20
3.1376583701
 11
4.603412392
 21
3.1632849326
  0
LINE
  5
2E3
100
AcDbEntity
  8
03__ASM_ALL_CURVES
100
AcDbLine
 62
40
  6
CONTINUOUS
 10
4.6738854389
 20
3.1889114951
 11
4.6802920795
 21
3.1632849326
  0
LINE
  5
2E4
100
AcDbEntity
  8
03__ASM_ALL_CURVES
100
AcDbLine
 62
40
  6
CONTINUOUS
 10
4.5533043558
 20
5.3939655576
 11
4.5533043558
 21
5.3484072249
  0
LINE
  5
2E5
100
AcDbEntity
  8
03__ASM_ALL_CURVES
100
AcDbLine
 62
40
  6
CONTINUOUS
 10
4.5649725483
 20
3.1974536806
 11
4.5649725483
 21
3.1803693096
  0
LINE
  5
2E6
100
AcDbEntity
  8
03__ASM_ALL_CURVES
100
AcDbLine
 62
40
  6
CONTINUOUS
 10
4.7187319233
 20
3.1120318076
 11
4.7187319233
 21
3.2145380576
  0
LINE
  5
2E7
100
AcDbEntity
  8
03__ASM_ALL_CURVES
100
AcDbLine
 62
40
  6
CONTINUOUS
 10
4.7583168558
 20
5.4395238882
 11
4.7583168558
 21
5.4281343076
  0
LINE
  5
2E8
100
AcDbEntity
  8
03__ASM_ALL_CURVES
100
AcDbLine
 62
40
  6
CONTINUOUS
 10
4.7699850483
 20
3.1974536806
 11
4.7699850483
 21
3.1803693096
  0
LINE
  5
2E9
100
AcDbEntity
  8
03__ASM_ALL_CURVES
100
AcDbLine
 62
40
  6
CONTINUOUS
 10
5.0145824808
 20
5.3939655576
 11
5.0231246683
 21
5.4281343076
  0
LINE
  5
2EA
100
AcDbEntity
  8
03__ASM_ALL_CURVES
100
AcDbLine
 62
40
  6
CONTINUOUS
 10
5.1085465433
 20
5.3597968076
 11
5.0914621683
 21
5.3370176413
  0
LINE
  5
2EB
100
AcDbEntity
  8
03__ASM_ALL_CURVES
100
AcDbLine
 62
40
  6
CONTINUOUS
 10
5.2366793558
 20
5.3484072249
 11
5.2281371683
 21
5.3370176413
  0
LINE
  5
2EC
100
AcDbEntity
  8
03__ASM_ALL_CURVES
100
AcDbLine
 62
40
  6
CONTINUOUS
 10
5.2281371683
 20
5.3370176413
 11
5.2110527933
 21
5.3256280576
  0
LINE
  5
2ED
100
AcDbEntity
  8
03__ASM_ALL_CURVES
100
AcDbLine
 62
40
  6
CONTINUOUS
 10
5.4929449808
 20
5.3370176413
 11
5.4758606058
 21
5.3256280576
  0
LINE
  5
2EE
100
AcDbEntity
  8
03__ASM_ALL_CURVES
100
AcDbLine
 62
40
  6
CONTINUOUS
 10
7.1354623281
 20
3.1120318076
 11
7.1226490468
 21
3.1120318076
  0
LINE
  5
2EF
100
AcDbEntity
  8
03__ASM_ALL_CURVES
100
AcDbLine
 62
40
  6
CONTINUOUS
 10
6.267777686
 20
3.1120318076
 11
6.2549644048
 21
3.1120318076
  0
LINE
  5
2F0
100
AcDbEntity
  8
03__ASM_ALL_CURVES
100
AcDbLine
 62
40
  6
CONTINUOUS
 10
5.960258936
 20
3.1120318076
 11
5.9474456548
 21
3.1120318076
  0
LINE
  5
2F1
100
AcDbEntity
  8
03__ASM_ALL_CURVES
100
AcDbLine
 62
40
  6
CONTINUOUS
 10
4.6482588764
 20
3.1120318076
 11
4.6354455952
 21
3.1120318076
  0
LINE
  5
2F2
100
AcDbEntity
  8
03__ASM_ALL_CURVES
100
AcDbLine
 62
40
  6
CONTINUOUS
 10
7.4109478749
 20
3.1120318076
 11
7.4622009999
 21
3.1120318076
  0
LINE
  5
2F3
100
AcDbEntity
  8
03__ASM_ALL_CURVES
100
AcDbLine
 62
40
  6
CONTINUOUS
 10
4.9237444233
 20
3.1376583701
 11
4.9814041889
 21
3.1376583701
  0
LINE
  5
2F4
100
AcDbEntity
  8
03__ASM_ALL_CURVES
100
AcDbLine
 62
40
  6
CONTINUOUS
 10
7.2379685781
 20
3.1632849326
 11
7.2059353749
 21
3.1632849326
  0
LINE
  5
2F5
100
AcDbEntity
  8
03__ASM_ALL_CURVES
100
AcDbLine
 62
40
  6
CONTINUOUS
 10
7.0329560781
 20
3.1632849326
 11
7.0009228749
 21
3.1632849326
  0
LINE
  5
2F6
100
AcDbEntity
  8
03__ASM_ALL_CURVES
100
AcDbLine
 62
40
  6
CONTINUOUS
 10
6.062765186
 20
3.1632849326
 11
6.0307319829
 21
3.1632849326
  0
LINE
  5
2F7
100
AcDbEntity
  8
03__ASM_ALL_CURVES
100
AcDbLine
 62
40
  6
CONTINUOUS
 10
5.857752686
 20
3.1632849326
 11
5.8257194829
 21
3.1632849326
  0
LINE
  5
2F8
100
AcDbEntity
  8
03__ASM_ALL_CURVES
100
AcDbLine
 62
40
  6
CONTINUOUS
 10
4.7507651264
 20
3.1632849326
 11
4.7187319233
 21
3.1632849326
  0
LINE
  5
2F9
100
AcDbEntity
  8
03__ASM_ALL_CURVES
100
AcDbLine
 62
40
  6
CONTINUOUS
 10
4.5457526264
 20
3.1632849326
 11
4.5137194233
 21
3.1632849326
  0
LINE
  5
2FA
100
AcDbEntity
  8
03__ASM_ALL_CURVES
100
AcDbLine
 62
40
  6
CONTINUOUS
 10
6.2549644048
 20
3.1718271181
 11
6.267777686
 21
3.1718271181
  0
LINE
  5
2FB
100
AcDbEntity
  8
03__ASM_ALL_CURVES
100
AcDbLine
 62
40
  6
CONTINUOUS
 10
4.5137194233
 20
3.2145380576
 11
4.5457526264
 21
3.2145380576
  0
LINE
  5
2FC
100
AcDbEntity
  8
03__ASM_ALL_CURVES
100
AcDbLine
 62
40
  6
CONTINUOUS
 10
4.6354455952
 20
3.2145380576
 11
4.6482588764
 21
3.2145380576
  0
LINE
  5
2FD
100
AcDbEntity
  8
03__ASM_ALL_CURVES
100
AcDbLine
 62
40
  6
CONTINUOUS
 10
4.7187319233
 20
3.2145380576
 11
4.7507651264
 21
3.2145380576
  0
LINE
  5
2FE
100
AcDbEntity
  8
03__ASM_ALL_CURVES
100
AcDbLine
 62
40
  6
CONTINUOUS
 10
4.8148315327
 20
3.2145380576
 11
4.8788979389
 21
3.2145380576
  0
LINE
  5
2FF
100
AcDbEntity
  8
03__ASM_ALL_CURVES
100
AcDbLine
 62
40
  6
CONTINUOUS
 10
5.8257194829
 20
3.2145380576
 11
5.857752686
 21
3.2145380576
  0
LINE
  5
300
100
AcDbEntity
  8
03__ASM_ALL_CURVES
100
AcDbLine
 62
40
  6
CONTINUOUS
 10
5.9474456548
 20
3.2145380576
 11
5.960258936
 21
3.2145380576
  0
LINE
  5
301
100
AcDbEntity
  8
03__ASM_ALL_CURVES
100
AcDbLine
 62
40
  6
CONTINUOUS
 10
6.0307319829
 20
3.2145380576
 11
6.062765186
 21
3.2145380576
  0
LINE
  5
302
100
AcDbEntity
  8
03__ASM_ALL_CURVES
100
AcDbLine
 62
40
  6
CONTINUOUS
 10
6.1268315923
 20
3.2145380576
 11
6.1908979985
 21
3.2145380576
  0
LINE
  5
303
100
AcDbEntity
  8
03__ASM_ALL_CURVES
100
AcDbLine
 62
40
  6
CONTINUOUS
 10
6.2549644048
 20
3.2145380576
 11
6.267777686
 21
3.2145380576
  0
LINE
  5
304
100
AcDbEntity
  8
03__ASM_ALL_CURVES
100
AcDbLine
 62
40
  6
CONTINUOUS
 10
7.0009228749
 20
3.2145380576
 11
7.0329560781
 21
3.2145380576
  0
LINE
  5
305
100
AcDbEntity
  8
03__ASM_ALL_CURVES
100
AcDbLine
 62
40
  6
CONTINUOUS
 10
7.1226490468
 20
3.2145380576
 11
7.1354623281
 21
3.2145380576
  0
LINE
  5
306
100
AcDbEntity
  8
03__ASM_ALL_CURVES
100
AcDbLine
 62
40
  6
CONTINUOUS
 10
7.2059353749
 20
3.2145380576
 11
7.2379685781
 21
3.2145380576
  0
LINE
  5
307
100
AcDbEntity
  8
03__ASM_ALL_CURVES
100
AcDbLine
 62
40
  6
CONTINUOUS
 10
7.3020349843
 20
3.2145380576
 11
7.3661013906
 21
3.2145380576
  0
LINE
  5
308
100
AcDbEntity
  8
03__ASM_ALL_CURVES
100
AcDbLine
 62
40
  6
CONTINUOUS
 10
7.4301677968
 20
3.2145380576
 11
7.4429810781
 21
3.2145380576
  0
LINE
  5
309
100
AcDbEntity
  8
03__ASM_ALL_CURVES
100
AcDbLine
 62
40
  6
CONTINUOUS
 10
2.1416868558
 20
5.3256280576
 11
2.1246024808
 21
5.3370176413
  0
LINE
  5
30A
100
AcDbEntity
  8
03__ASM_ALL_CURVES
100
AcDbLine
 62
40
  6
CONTINUOUS
 10
2.1416868558
 20
5.4623030576
 11
2.1587712308
 21
5.450913477
  0
LINE
  5
30B
100
AcDbEntity
  8
03__ASM_ALL_CURVES
100
AcDbLine
 62
40
  6
CONTINUOUS
 10
2.4150368558
 20
5.3256280576
 11
2.3979524808
 21
5.3370176413
  0
LINE
  5
30C
100
AcDbEntity
  8
03__ASM_ALL_CURVES
100
AcDbLine
 62
40
  6
CONTINUOUS
 10
3.3973884183
 20
5.450913477
 11
3.4059306058
 21
5.4395238882
  0
LINE
  5
30D
100
AcDbEntity
  8
03__ASM_ALL_CURVES
100
AcDbLine
 62
40
  6
CONTINUOUS
 10
3.4998946683
 20
5.4623030576
 11
3.5169790433
 21
5.4395238882
  0
LINE
  5
30E
100
AcDbEntity
  8
03__ASM_ALL_CURVES
100
AcDbLine
 62
40
  6
CONTINUOUS
 10
3.6734590433
 20
5.3370176413
 11
3.6563746683
 21
5.3597968076
  0
LINE
  5
30F
100
AcDbEntity
  8
03__ASM_ALL_CURVES
100
AcDbLine
 62
40
  6
CONTINUOUS
 10
4.4764246683
 20
5.3597968076
 11
4.4678824808
 21
5.3939655576
  0
LINE
  5
310
100
AcDbEntity
  8
03__ASM_ALL_CURVES
100
AcDbLine
 62
40
  6
CONTINUOUS
 10
4.8266543558
 20
5.3711863923
 11
4.8266543558
 21
5.3484072249
  0
LINE
  5
311
100
AcDbEntity
  8
03__ASM_ALL_CURVES
100
AcDbLine
 62
40
  6
CONTINUOUS
 10
4.8468647358
 20
3.2145380576
 11
4.8468647358
 21
3.1120318076
  0
LINE
  5
312
100
AcDbEntity
  8
03__ASM_ALL_CURVES
100
AcDbLine
 62
40
  6
CONTINUOUS
 10
4.8949918558
 20
5.4623030576
 11
4.8949918558
 21
5.3256280576
  0
LINE
  5
313
100
AcDbEntity
  8
03__ASM_ALL_CURVES
100
AcDbLine
 62
40
  6
CONTINUOUS
 10
4.9633293558
 20
5.4623030576
 11
4.9633293558
 21
5.3256280576
  0
LINE
  5
314
100
AcDbEntity
  8
03__ASM_ALL_CURVES
100
AcDbLine
 62
40
  6
CONTINUOUS
 10
4.9685909077
 20
3.1120318076
 11
4.9685909077
 21
3.2145380576
  0
LINE
  5
315
100
AcDbEntity
  8
0
100
AcDbLine
 62
7
  6
CONTINUOUS
 10
5.0065618558
 20
3.6845380576
 11
5.0065618558
 21
4.8065380576
  0
LINE
  5
316
100
AcDbEntity
  8
0
100
AcDbLine
 62
7
  6
CONTINUOUS
 10
5.0535618558
 20
4.8920267577
 11
5.0535618558
 21
3.5990493575
  0
LINE
  5
317
100
AcDbEntity
  8
03__ASM_ALL_CURVES
100
AcDbLine
 62
40
  6
CONTINUOUS
 10
5.1170887308
 20
5.3939655576
 11
5.1085465433
 21
5.3597968076
  0
LINE
  5
318
100
AcDbEntity
  8
03__ASM_ALL_CURVES
100
AcDbLine
 62
40
  6
CONTINUOUS
 10
4.603412392
 20
3.1632849326
 11
4.6098190327
 21
3.1889114951
  0
LINE
  5
319
100
AcDbEntity
  8
03__ASM_ALL_CURVES
100
AcDbLine
 62
40
  6
CONTINUOUS
 10
4.6802920795
 20
3.1632849326
 11
4.6738854389
 21
3.1376583701
  0
LINE
  5
31A
100
AcDbEntity
  8
03__ASM_ALL_CURVES
100
AcDbLine
 62
40
  6
CONTINUOUS
 10
5.5100293558
 20
5.3597968076
 11
5.4929449808
 21
5.3370176413
  0
LINE
  5
31B
100
AcDbEntity
  8
THREAD
100
AcDbLine
 62
7
  6
CONTINUOUS
 10
3.9975618558
 20
3.5940380576
 11
3.9475618558
 21
3.5440380576
  0
LINE
  5
31C
100
AcDbEntity
  8
03__ASM_ALL_CURVES
100
AcDbLine
 62
40
  6
CONTINUOUS
 10
5.7748371683
 20
5.4053551382
 11
5.7577527933
 21
5.3939655576
  0
LINE
  5
31D
100
AcDbEntity
  8
0
100
AcDbLine
 62
7
  6
CONTINUOUS
 10
3.3095618558
 20
3.4660380576
 11
3.1265618558
 21
3.4660380576
  0
LINE
  5
31E
100
AcDbEntity
  8
0
100
AcDbLine
 62
7
  6
CONTINUOUS
 10
3.4595618558
 20
3.5275380576
 11
3.5095618558
 21
3.5275380576
  0
LINE
  5
31F
100
AcDbEntity
  8
THREAD
100
AcDbLine
 62
7
  6
CONTINUOUS
 10
3.3565618558
 20
3.5280380576
 11
3.3095618558
 21
3.5280380576
  0
LINE
  5
320
100
AcDbEntity
  8
0
100
AcDbLine
 62
7
  6
CONTINUOUS
 10
3.0858586619
 20
3.5365380576
 11
2.3919460298
 21
3.5365380576
  0
LINE
  5
321
100
AcDbEntity
  8
0
100
AcDbLine
 62
7
  6
CONTINUOUS
 10
3.0858586619
 20
3.5368990587
 11
2.3919460298
 21
3.5368990587
  0
LINE
  5
322
100
AcDbEntity
  8
THREAD
100
AcDbLine
 62
7
  6
CONTINUOUS
 10
3.9475618558
 20
3.5440380576
 11
3.5572746688
 21
3.5440380576
  0
LINE
  5
323
100
AcDbEntity
  8
03__ASM_ALL_CURVES
100
AcDbLine
 62
40
  6
CONTINUOUS
 10
2.5517118558
 20
5.3256280576
 11
2.5346274808
 21
5.3370176413
  0
LINE
  5
324
100
AcDbEntity
  8
03__ASM_ALL_CURVES
100
AcDbLine
 62
40
  6
CONTINUOUS
 10
2.4150368558
 20
5.4623030576
 11
2.4321212308
 21
5.450913477
  0
LINE
  5
325
100
AcDbEntity
  8
03__ASM_ALL_CURVES
100
AcDbLine
 62
40
  6
CONTINUOUS
 10
5.9474456548
 20
3.1120318076
 11
5.9346323735
 21
3.1205739954
  0
LINE
  5
326
100
AcDbEntity
  8
03__ASM_ALL_CURVES
100
AcDbLine
 62
40
  6
CONTINUOUS
 10
5.857752686
 20
3.2145380576
 11
5.8705659673
 21
3.2059958721
  0
LINE
  5
327
100
AcDbEntity
  8
03__ASM_ALL_CURVES
100
AcDbLine
 62
40
  6
CONTINUOUS
 10
2.5517118558
 20
5.4623030576
 11
2.5687962308
 21
5.450913477
  0
LINE
  5
328
100
AcDbEntity
  8
03__ASM_ALL_CURVES
100
AcDbLine
 62
40
  6
CONTINUOUS
 10
5.960258936
 20
3.2145380576
 11
5.9730722173
 21
3.2059958721
  0
LINE
  5
329
100
AcDbEntity
  8
03__ASM_ALL_CURVES
100
AcDbLine
 62
40
  6
CONTINUOUS
 10
6.062765186
 20
3.2145380576
 11
6.0755784673
 21
3.2059958721
  0
LINE
  5
32A
100
AcDbEntity
  8
THREAD
100
AcDbLine
 62
7
  6
CONTINUOUS
 10
3.9975618558
 20
4.8970380576
 11
3.9475618558
 21
4.9470380576
  0
LINE
  5
32B
100
AcDbEntity
  8
03__ASM_ALL_CURVES
100
AcDbLine
 62
40
  6
CONTINUOUS
 10
3.8101340433
 20
5.3370176413
 11
3.7930496683
 21
5.3597968076
  0
LINE
  5
32C
100
AcDbEntity
  8
03__ASM_ALL_CURVES
100
AcDbLine
 62
40
  6
CONTINUOUS
 10
3.7247121683
 20
5.450913477
 11
3.7417965433
 21
5.4281343076
  0
LINE
  5
32D
100
AcDbEntity
  8
03__ASM_ALL_CURVES
100
AcDbLine
 62
40
  6
CONTINUOUS
 10
3.8613871683
 20
5.450913477
 11
3.8699293558
 21
5.4395238882
  0
LINE
  5
32E
100
AcDbEntity
  8
03__ASM_ALL_CURVES
100
AcDbLine
 62
40
  6
CONTINUOUS
 10
4.3482918558
 20
5.4623030576
 11
4.4166293558
 21
5.3256280576
  0
LINE
  5
32F
100
AcDbEntity
  8
0
100
AcDbLine
 62
7
  6
CONTINUOUS
 10
5.1435618558
 20
3.5985380576
 11
5.1435618558
 21
4.8925380576
  0
LINE
  5
330
100
AcDbEntity
  8
03__ASM_ALL_CURVES
100
AcDbLine
 62
40
  6
CONTINUOUS
 10
5.1683418558
 20
5.3484072249
 11
5.1683418558
 21
5.4623030576
  0
LINE
  5
331
100
AcDbEntity
  8
0
100
AcDbLine
 62
7
  6
CONTINUOUS
 10
5.1935618558
 20
3.5985380576
 11
5.1935618558
 21
4.8925380576
  0
LINE
  5
332
100
AcDbEntity
  8
03__ASM_ALL_CURVES
100
AcDbLine
 62
40
  6
CONTINUOUS
 10
5.2366793558
 20
5.4623030576
 11
5.2366793558
 21
5.3484072249
  0
LINE
  5
333
100
AcDbEntity
  8
0
100
AcDbLine
 62
7
  6
CONTINUOUS
 10
5.2965618558
 20
3.5985380576
 11
5.2965618558
 21
4.8925380576
  0
LINE
  5
334
100
AcDbEntity
  8
03__ASM_ALL_CURVES
100
AcDbLine
 62
40
  6
CONTINUOUS
 10
5.3050168558
 20
5.4623030576
 11
5.3050168558
 21
5.3256280576
  0
LINE
  5
335
100
AcDbEntity
  8
03__ASM_ALL_CURVES
100
AcDbLine
 62
40
  6
CONTINUOUS
 10
5.5185715433
 20
5.3939655576
 11
5.5100293558
 21
5.3597968076
  0
LINE
  5
336
100
AcDbEntity
  8
03__ASM_ALL_CURVES
100
AcDbLine
 62
40
  6
CONTINUOUS
 10
5.7833793558
 20
5.416744727
 11
5.7748371683
 21
5.4053551382
  0
LINE
  5
337
100
AcDbEntity
  8
0
100
AcDbLine
 62
7
  6
CONTINUOUS
 10
4.3405618558
 20
3.6070380576
 11
4.3275618558
 21
3.5940380576
  0
LINE
  5
338
100
AcDbEntity
  8
THREAD
100
AcDbLine
 62
7
  6
CONTINUOUS
 10
4.3275618558
 20
3.5940380576
 11
3.9975618558
 21
3.5940380576
  0
LINE
  5
339
100
AcDbEntity
  8
0
100
AcDbLine
 62
7
  6
CONTINUOUS
 10
5.1435618558
 20
3.5985380576
 11
5.1935618558
 21
3.5985380576
  0
LINE
  5
33A
100
AcDbEntity
  8
0
100
AcDbLine
 62
7
  6
CONTINUOUS
 10
5.2965618558
 20
3.5985380576
 11
5.3465618558
 21
3.5985380576
  0
LINE
  5
33B
100
AcDbEntity
  8
0
100
AcDbLine
 62
7
  6
CONTINUOUS
 10
5.0535618558
 20
3.5990380576
 11
5.1435618558
 21
3.5990380576
  0
LINE
  5
33C
100
AcDbEntity
  8
0
100
AcDbLine
 62
7
  6
CONTINUOUS
 10
5.3815618558
 20
3.5990380576
 11
5.4715618558
 21
3.5990380576
  0
LINE
  5
33D
100
AcDbEntity
  8
0
100
AcDbLine
 62
7
  6
CONTINUOUS
 10
6.6210618558
 20
3.6220380576
 11
6.5315618558
 21
3.6220380576
  0
LINE
  5
33E
100
AcDbEntity
  8
0
100
AcDbLine
 62
7
  6
CONTINUOUS
 10
6.2935618558
 20
3.6220380576
 11
6.2035618558
 21
3.6220380576
  0
LINE
  5
33F
100
AcDbEntity
  8
0
100
AcDbLine
 62
7
  6
CONTINUOUS
 10
6.2935618558
 20
3.6450380576
 11
6.3435618558
 21
3.6450380576
  0
LINE
  5
340
100
AcDbEntity
  8
0
100
AcDbLine
 62
7
  6
CONTINUOUS
 10
6.4465618558
 20
3.6450380576
 11
6.4965618558
 21
3.6450380576
  0
LINE
  5
341
100
AcDbEntity
  8
0
100
AcDbLine
 62
7
  6
CONTINUOUS
 10
7.4595618558
 20
3.6450380576
 11
7.5095618558
 21
3.6450380576
  0
LINE
  5
342
100
AcDbEntity
  8
0
100
AcDbLine
 62
7
  6
CONTINUOUS
 10
7.6125618558
 20
3.6450380576
 11
7.6625618558
 21
3.6450380576
  0
LINE
  5
343
100
AcDbEntity
  8
0
100
AcDbLine
 62
7
  6
CONTINUOUS
 10
7.7905618558
 20
3.6455380576
 11
7.6975618558
 21
3.6455380576
  0
LINE
  5
344
100
AcDbEntity
  8
0
100
AcDbLine
 62
7
  6
CONTINUOUS
 10
7.4595618558
 20
3.6455380576
 11
7.3695618558
 21
3.6455380576
  0
LINE
  5
345
100
AcDbEntity
  8
0
100
AcDbLine
 62
7
  6
CONTINUOUS
 10
5.0065618558
 20
3.6845380576
 11
4.5805618558
 21
3.6845380576
  0
LINE
  5
346
100
AcDbEntity
  8
0
100
AcDbLine
 62
7
  6
CONTINUOUS
 10
4.3465618558
 20
3.6845380576
 11
4.3405618558
 21
3.6845380576
  0
LINE
  5
347
100
AcDbEntity
  8
0
100
AcDbLine
 62
7
  6
CONTINUOUS
 10
5.3665618558
 20
3.6865380576
 11
5.3465618558
 21
3.6865380576
  0
LINE
  5
348
100
AcDbEntity
  8
0
100
AcDbLine
 62
7
  6
CONTINUOUS
 10
7.3225618558
 20
3.7015380576
 11
7.2255618558
 21
3.7015380576
  0
LINE
  5
349
100
AcDbEntity
  8
0
100
AcDbLine
 62
7
  6
CONTINUOUS
 10
6.9915618558
 20
3.7015380576
 11
6.6680618558
 21
3.7015380576
  0
LINE
  5
34A
100
AcDbEntity
  8
0
100
AcDbLine
 62
7
  6
CONTINUOUS
 10
6.1565618558
 20
3.7015380576
 11
5.9065618558
 21
3.7015380576
  0
LINE
  5
34B
100
AcDbEntity
  8
0
100
AcDbLine
 62
7
  6
CONTINUOUS
 10
5.6725618558
 20
3.7015380576
 11
5.5185618558
 21
3.7015380576
  0
LINE
  5
34C
100
AcDbEntity
  8
0
100
AcDbLine
 62
7
  6
CONTINUOUS
 10
6.5165618558
 20
3.7095380576
 11
6.4965618558
 21
3.7095380576
  0
LINE
  5
34D
100
AcDbEntity
  8
0
100
AcDbLine
 62
7
  6
CONTINUOUS
 10
7.6825618558
 20
3.7330380576
 11
7.6625618558
 21
3.7330380576
  0
LINE
  5
34E
100
AcDbEntity
  8
03__ASM_ALL_CURVES
100
AcDbLine
 62
40
  6
CONTINUOUS
 10
6.2549644048
 20
3.1120318076
 11
6.2421511235
 21
3.1205739954
  0
LINE
  5
34F
100
AcDbEntity
  8
03__ASM_ALL_CURVES
100
AcDbLine
 62
40
  6
CONTINUOUS
 10
6.267777686
 20
3.1718271181
 11
6.2805909673
 21
3.1632849326
  0
LINE
  5
350
100
AcDbEntity
  8
03__ASM_ALL_CURVES
100
AcDbLine
 62
40
  6
CONTINUOUS
 10
2.8336040433
 20
5.4623030576
 11
2.8506884183
 21
5.450913477
  0
LINE
  5
351
100
AcDbEntity
  8
03__ASM_ALL_CURVES
100
AcDbLine
 62
40
  6
CONTINUOUS
 10
6.267777686
 20
3.2145380576
 11
6.2805909673
 21
3.2059958721
  0
LINE
  5
352
100
AcDbEntity
  8
03__ASM_ALL_CURVES
100
AcDbLine
 62
40
  6
CONTINUOUS
 10
3.2265446683
 20
5.3256280576
 11
3.2094602933
 21
5.3370176413
  0
LINE
  5
353
100
AcDbEntity
  8
03__ASM_ALL_CURVES
100
AcDbLine
 62
40
  6
CONTINUOUS
 10
3.3632196683
 20
5.3256280576
 11
3.3461352933
 21
5.3370176413
  0
LINE
  5
354
100
AcDbEntity
  8
03__ASM_ALL_CURVES
100
AcDbLine
 62
40
  6
CONTINUOUS
 10
3.2436290433
 20
5.4053551382
 11
3.2607134183
 21
5.3939655576
  0
LINE
  5
355
100
AcDbEntity
  8
0
100
AcDbLine
 62
7
  6
CONTINUOUS
 10
4.3405618558
 20
4.8840380576
 11
4.3275618558
 21
4.8970380576
  0
LINE
  5
356
100
AcDbEntity
  8
03__ASM_ALL_CURVES
100
AcDbLine
 62
40
  6
CONTINUOUS
 10
5.9346323735
 20
3.1205739954
 11
5.9218190923
 21
3.1376583701
  0
LINE
  5
357
100
AcDbEntity
  8
03__ASM_ALL_CURVES
100
AcDbLine
 62
40
  6
CONTINUOUS
 10
5.8705659673
 20
3.2059958721
 11
5.8769726079
 21
3.1974536806
  0
LINE
  5
358
100
AcDbEntity
  8
03__ASM_ALL_CURVES
100
AcDbLine
 62
40
  6
CONTINUOUS
 10
5.9730722173
 20
3.2059958721
 11
5.9858854985
 21
3.1889114951
  0
LINE
  5
359
100
AcDbEntity
  8
03__ASM_ALL_CURVES
100
AcDbLine
 62
40
  6
CONTINUOUS
 10
5.0231246683
 20
5.3597968076
 11
5.0145824808
 21
5.3939655576
  0
LINE
  5
35A
100
AcDbEntity
  8
0
100
AcDbLine
 62
7
  6
CONTINUOUS
 10
5.3465618558
 20
3.5985380576
 11
5.3465618558
 21
4.8925380576
  0
LINE
  5
35B
100
AcDbEntity
  8
0
100
AcDbLine
 62
7
  6
CONTINUOUS
 10
5.3665618558
 20
3.6865380576
 11
5.3665618558
 21
4.8045380576
  0
LINE
  5
35C
100
AcDbEntity
  8
0
100
AcDbLine
 62
7
  6
CONTINUOUS
 10
5.3815618558
 20
4.8920267577
 11
5.3815618558
 21
3.5990493575
  0
LINE
  5
35D
100
AcDbEntity
  8
03__ASM_ALL_CURVES
100
AcDbLine
 62
40
  6
CONTINUOUS
 10
5.4416918558
 20
5.3256280576
 11
5.4416918558
 21
5.4623030576
  0
LINE
  5
35E
100
AcDbEntity
  8
0
100
AcDbLine
 62
7
  6
CONTINUOUS
 10
5.4715618558
 20
4.8920267577
 11
5.4715618558
 21
3.5990493575
  0
LINE
  5
35F
100
AcDbEntity
  8
0
100
AcDbLine
 62
7
  6
CONTINUOUS
 10
5.5185618558
 20
3.7015380576
 11
5.5185618558
 21
4.7895380576
  0
LINE
  5
360
100
AcDbEntity
  8
03__ASM_ALL_CURVES
100
AcDbLine
 62
40
  6
CONTINUOUS
 10
4.5649725483
 20
3.1803693096
 11
4.5585659077
 21
3.1718271181
  0
LINE
  5
361
100
AcDbEntity
  8
03__ASM_ALL_CURVES
100
AcDbLine
 62
40
  6
CONTINUOUS
 10
4.6098190327
 20
3.1889114951
 11
4.6226323139
 21
3.2059958721
  0
LINE
  5
362
100
AcDbEntity
  8
0
100
AcDbLine
 62
7
  6
CONTINUOUS
 10
8.0135618558
 20
3.8395880576
 11
7.9305618558
 21
3.8395880576
  0
LINE
  5
363
100
AcDbEntity
  8
0
100
AcDbLine
 62
7
  6
CONTINUOUS
 10
7.9065618558
 20
3.8395880576
 11
7.8605618558
 21
3.8395880576
  0
LINE
  5
364
100
AcDbEntity
  8
0
100
AcDbLine
 62
7
  6
CONTINUOUS
 10
7.8365618558
 20
3.8395880576
 11
7.8075618558
 21
3.8395880576
  0
LINE
  5
365
100
AcDbEntity
  8
0
100
AcDbLine
 62
7
  6
CONTINUOUS
 10
8.5605618558
 20
3.8455380576
 11
8.0135618558
 21
3.8455380576
  0
LINE
  5
366
100
AcDbEntity
  8
0
100
AcDbLine
 62
7
  6
CONTINUOUS
 10
7.8435618558
 20
3.8535880576
 11
7.8535618558
 21
3.8535880576
  0
LINE
  5
367
100
AcDbEntity
  8
0
100
AcDbLine
 62
7
  6
CONTINUOUS
 10
7.9135618558
 20
3.8535880576
 11
7.9235618558
 21
3.8535880576
  0
LINE
  5
368
100
AcDbEntity
  8
0
100
AcDbLine
 62
7
  6
CONTINUOUS
 10
3.0858586619
 20
3.8716270565
 11
2.3919460298
 21
3.8716270565
  0
LINE
  5
369
100
AcDbEntity
  8
0
100
AcDbLine
 62
7
  6
CONTINUOUS
 10
3.0858586619
 20
3.9108100598
 11
2.3919460298
 21
3.9108100598
  0
LINE
  5
36A
100
AcDbEntity
  8
0
100
AcDbLine
 62
7
  6
CONTINUOUS
 10
5.8803830122
 20
3.9113655722
 11
5.7751004413
 21
3.9113655722
  0
LINE
  5
36B
100
AcDbEntity
  8
03__ASM_ALL_CURVES
100
AcDbLine
 62
40
  6
CONTINUOUS
 10
2.4150368558
 20
5.3825759729
 11
2.3894102933
 21
5.3939655576
  0
LINE
  5
36C
100
AcDbEntity
  8
03__ASM_ALL_CURVES
100
AcDbLine
 62
40
  6
CONTINUOUS
 10
2.5517118558
 20
5.4053551382
 11
2.5773384183
 21
5.3939655576
  0
LINE
  5
36D
100
AcDbEntity
  8
03__ASM_ALL_CURVES
100
AcDbLine
 62
40
  6
CONTINUOUS
 10
3.2436290433
 20
5.4623030576
 11
3.2607134183
 21
5.450913477
  0
LINE
  5
36E
100
AcDbEntity
  8
03__ASM_ALL_CURVES
100
AcDbLine
 62
40
  6
CONTINUOUS
 10
3.3632196683
 20
5.4053551382
 11
3.3461352933
 21
5.416744727
  0
LINE
  5
36F
100
AcDbEntity
  8
03__ASM_ALL_CURVES
100
AcDbLine
 62
40
  6
CONTINUOUS
 10
3.3803040433
 20
5.4053551382
 11
3.3973884183
 21
5.3939655576
  0
LINE
  5
370
100
AcDbEntity
  8
03__ASM_ALL_CURVES
100
AcDbLine
 62
40
  6
CONTINUOUS
 10
3.3803040433
 20
5.4623030576
 11
3.3973884183
 21
5.450913477
  0
LINE
  5
371
100
AcDbEntity
  8
03__ASM_ALL_CURVES
100
AcDbLine
 62
40
  6
CONTINUOUS
 10
3.6905434183
 20
5.3256280576
 11
3.6734590433
 21
5.3370176413
  0
LINE
  5
372
100
AcDbEntity
  8
03__ASM_ALL_CURVES
100
AcDbLine
 62
40
  6
CONTINUOUS
 10
7.1226490468
 20
3.1120318076
 11
7.1098357656
 21
3.1205739954
  0
LINE
  5
373
100
AcDbEntity
  8
03__ASM_ALL_CURVES
100
AcDbLine
 62
40
  6
CONTINUOUS
 10
3.8272184183
 20
5.3256280576
 11
3.8101340433
 21
5.3370176413
  0
LINE
  5
374
100
AcDbEntity
  8
03__ASM_ALL_CURVES
100
AcDbLine
 62
40
  6
CONTINUOUS
 10
6.0755784673
 20
3.2059958721
 11
6.0819851079
 21
3.1974536806
  0
LINE
  5
375
100
AcDbEntity
  8
03__ASM_ALL_CURVES
100
AcDbLine
 62
40
  6
CONTINUOUS
 10
4.4935090433
 20
5.3370176413
 11
4.4764246683
 21
5.3597968076
  0
LINE
  5
376
100
AcDbEntity
  8
03__ASM_ALL_CURVES
100
AcDbLine
 62
40
  6
CONTINUOUS
 10
6.2421511235
 20
3.1205739954
 11
6.2357444829
 21
3.1291161831
  0
LINE
  5
377
100
AcDbEntity
  8
03__ASM_ALL_CURVES
100
AcDbLine
 62
40
  6
CONTINUOUS
 10
4.5447621683
 20
5.450913477
 11
4.5533043558
 21
5.4395238882
  0
LINE
  5
378
100
AcDbEntity
  8
03__ASM_ALL_CURVES
100
AcDbLine
 62
40
  6
CONTINUOUS
 10
6.2805909673
 20
3.1632849326
 11
6.2934042485
 21
3.1462005586
  0
LINE
  5
379
100
AcDbEntity
  8
03__ASM_ALL_CURVES
100
AcDbLine
 62
40
  6
CONTINUOUS
 10
6.2805909673
 20
3.2059958721
 11
6.2869976079
 21
3.1974536806
  0
LINE
  5
37A
100
AcDbEntity
  8
03__ASM_ALL_CURVES
100
AcDbLine
 62
40
  6
CONTINUOUS
 10
5.1085465433
 20
5.4281343076
 11
5.1170887308
 21
5.3939655576
  0
LINE
  5
37B
100
AcDbEntity
  8
03__ASM_ALL_CURVES
100
AcDbLine
 62
40
  6
CONTINUOUS
 10
5.5783668558
 20
5.3256280576
 11
5.5783668558
 21
5.4623030576
  0
LINE
  5
37C
100
AcDbEntity
  8
0
100
AcDbLine
 62
7
  6
CONTINUOUS
 10
5.7135618563
 20
3.9029126496
 11
5.7135618563
 21
3.9281125663
  0
LINE
  5
37D
100
AcDbEntity
  8
0
100
AcDbLine
 62
7
  6
CONTINUOUS
 10
5.7135618563
 20
4.562470719
 11
5.7135618563
 21
4.5881645619
  0
LINE
  5
37E
100
AcDbEntity
  8
03__ASM_ALL_CURVES
100
AcDbLine
 62
40
  6
CONTINUOUS
 10
5.7150418558
 20
5.3256280576
 11
5.7150418558
 21
5.4623030576
  0
LINE
  5
37F
100
AcDbEntity
  8
0
100
AcDbLine
 62
7
  6
CONTINUOUS
 10
5.7205618558
 20
4.1517636382
 11
5.7205618558
 21
4.3387836474
  0
LINE
  5
380
100
AcDbEntity
  8
0
100
AcDbLine
 62
7
  6
CONTINUOUS
 10
5.7751004417
 20
4.579710543
 11
5.7751004417
 21
4.5399606483
  0
LINE
  5
381
100
AcDbEntity
  8
0
100
AcDbLine
 62
7
  6
CONTINUOUS
 10
5.7751004417
 20
4.3606483114
 11
5.7751004417
 21
4.3545380576
  0
LINE
  5
382
100
AcDbEntity
  8
0
100
AcDbLine
 62
7
  6
CONTINUOUS
 10
5.7751004417
 20
4.1365380576
 11
5.7751004417
 21
4.130264602
  0
LINE
  5
383
100
AcDbEntity
  8
0
100
AcDbLine
 62
7
  6
CONTINUOUS
 10
5.7751004417
 20
3.9518141126
 11
5.7751004413
 21
3.9113655722
  0
LINE
  5
384
100
AcDbEntity
  8
03__ASM_ALL_CURVES
100
AcDbLine
 62
40
  6
CONTINUOUS
 10
5.7833793558
 20
5.4395238882
 11
5.7833793558
 21
5.416744727
  0
LINE
  5
385
100
AcDbEntity
  8
03__ASM_ALL_CURVES
100
AcDbLine
 62
40
  6
CONTINUOUS
 10
5.8257194829
 20
3.1120318076
 11
5.8257194829
 21
3.2145380576
  0
LINE
  5
386
100
AcDbEntity
  8
03__ASM_ALL_CURVES
100
AcDbLine
 62
40
  6
CONTINUOUS
 10
4.9685909077
 20
3.2145380576
 11
4.9237444233
 21
3.1376583701
  0
LINE
  5
387
100
AcDbEntity
  8
03__ASM_ALL_CURVES
100
AcDbLine
 62
40
  6
CONTINUOUS
 10
4.6738854389
 20
3.1376583701
 11
4.6610721577
 21
3.1205739954
  0
LINE
  5
388
100
AcDbEntity
  8
03__ASM_ALL_CURVES
100
AcDbLine
 62
40
  6
CONTINUOUS
 10
4.7699850483
 20
3.1803693096
 11
4.7635784077
 21
3.1718271181
  0
LINE
  5
389
100
AcDbEntity
  8
0
100
AcDbLine
 62
7
  6
CONTINUOUS
 10
5.82968512
 20
4.1365380576
 11
5.7494451244
 21
4.1365380576
  0
LINE
  5
38A
100
AcDbEntity
  8
03__ASM_ALL_CURVES
100
AcDbLine
 62
40
  6
CONTINUOUS
 10
9.1941013089
 20
4.2728730576
 11
9.1812880277
 21
4.2728730576
  0
LINE
  5
38B
100
AcDbEntity
  8
03__ASM_ALL_CURVES
100
AcDbLine
 62
40
  6
CONTINUOUS
 10
7.0329560781
 20
3.2145380576
 11
7.0457693593
 21
3.2059958721
  0
LINE
  5
38C
100
AcDbEntity
  8
03__ASM_ALL_CURVES
100
AcDbLine
 62
40
  6
CONTINUOUS
 10
3.7076277933
 20
5.4623030576
 11
3.7247121683
 21
5.450913477
  0
LINE
  5
38D
100
AcDbEntity
  8
03__ASM_ALL_CURVES
100
AcDbLine
 62
40
  6
CONTINUOUS
 10
7.1354623281
 20
3.2145380576
 11
7.1482756093
 21
3.2059958721
  0
LINE
  5
38E
100
AcDbEntity
  8
03__ASM_ALL_CURVES
100
AcDbLine
 62
40
  6
CONTINUOUS
 10
3.8443027933
 20
5.4623030576
 11
3.8613871683
 21
5.450913477
  0
LINE
  5
38F
100
AcDbEntity
  8
03__ASM_ALL_CURVES
100
AcDbLine
 62
40
  6
CONTINUOUS
 10
7.2379685781
 20
3.2145380576
 11
7.2507818593
 21
3.2059958721
  0
LINE
  5
390
100
AcDbEntity
  8
03__ASM_ALL_CURVES
100
AcDbLine
 62
40
  6
CONTINUOUS
 10
7.4429810781
 20
3.2145380576
 11
7.4557943593
 21
3.2059958721
  0
LINE
  5
391
100
AcDbEntity
  8
03__ASM_ALL_CURVES
100
AcDbLine
 62
40
  6
CONTINUOUS
 10
4.7668590433
 20
5.3370176413
 11
4.7497746683
 21
5.3597968076
  0
LINE
  5
392
100
AcDbEntity
  8
03__ASM_ALL_CURVES
100
AcDbLine
 62
40
  6
CONTINUOUS
 10
4.7583168558
 20
5.4281343076
 11
4.7668590433
 21
5.416744727
  0
LINE
  5
393
100
AcDbEntity
  8
03__ASM_ALL_CURVES
100
AcDbLine
 62
40
  6
CONTINUOUS
 10
4.8181121683
 20
5.3825759729
 11
4.8266543558
 21
5.3711863923
  0
LINE
  5
394
100
AcDbEntity
  8
03__ASM_ALL_CURVES
100
AcDbLine
 62
40
  6
CONTINUOUS
 10
4.8266543558
 20
5.4395238882
 11
4.8181121683
 21
5.450913477
  0
LINE
  5
395
100
AcDbEntity
  8
03__ASM_ALL_CURVES
100
AcDbLine
 62
40
  6
CONTINUOUS
 10
5.0402090433
 20
5.3370176413
 11
5.0231246683
 21
5.3597968076
  0
LINE
  5
396
100
AcDbEntity
  8
03__ASM_ALL_CURVES
100
AcDbLine
 62
40
  6
CONTINUOUS
 10
6.062765186
 20
3.1632849326
 11
6.0819851079
 21
3.1120318076
  0
LINE
  5
397
100
AcDbEntity
  8
03__ASM_ALL_CURVES
100
AcDbLine
 62
40
  6
CONTINUOUS
 10
5.9218190923
 20
3.1376583701
 11
5.9154124517
 21
3.1632849326
  0
LINE
  5
398
100
AcDbEntity
  8
03__ASM_ALL_CURVES
100
AcDbLine
 62
40
  6
CONTINUOUS
 10
5.9858854985
 20
3.1889114951
 11
5.9922921392
 21
3.1632849326
  0
LINE
  5
399
100
AcDbEntity
  8
03__ASM_ALL_CURVES
100
AcDbLine
 62
40
  6
CONTINUOUS
 10
5.5100293558
 20
5.4281343076
 11
5.5185715433
 21
5.3939655576
  0
LINE
  5
39A
100
AcDbEntity
  8
03__ASM_ALL_CURVES
100
AcDbLine
 62
40
  6
CONTINUOUS
 10
5.8769726079
 20
3.1974536806
 11
5.8769726079
 21
3.1803693096
  0
LINE
  5
39B
100
AcDbEntity
  8
03__ASM_ALL_CURVES
100
AcDbLine
 62
40
  6
CONTINUOUS
 10
6.0307319829
 20
3.1120318076
 11
6.0307319829
 21
3.2145380576
  0
LINE
  5
39C
100
AcDbEntity
  8
03__ASM_ALL_CURVES
100
AcDbLine
 62
40
  6
CONTINUOUS
 10
6.0819851079
 20
3.1974536806
 11
6.0819851079
 21
3.1803693096
  0
LINE
  5
39D
100
AcDbEntity
  8
03__ASM_ALL_CURVES
100
AcDbLine
 62
40
  6
CONTINUOUS
 10
4.5585659077
 20
3.1718271181
 11
4.5457526264
 21
3.1632849326
  0
LINE
  5
39E
100
AcDbEntity
  8
03__ASM_ALL_CURVES
100
AcDbLine
 62
40
  6
CONTINUOUS
 10
4.6226323139
 20
3.2059958721
 11
4.6354455952
 21
3.2145380576
  0
LINE
  5
39F
100
AcDbEntity
  8
03__ASM_ALL_CURVES
100
AcDbLine
 62
40
  6
CONTINUOUS
 10
9.2966075589
 20
4.3241261826
 11
9.2645743558
 21
4.3241261826
  0
LINE
  5
3A0
100
AcDbEntity
  8
03__ASM_ALL_CURVES
100
AcDbLine
 62
40
  6
CONTINUOUS
 10
9.0915950589
 20
4.3241261826
 11
9.0595618558
 21
4.3241261826
  0
LINE
  5
3A1
100
AcDbEntity
  8
0
100
AcDbLine
 62
7
  6
CONTINUOUS
 10
5.7496190893
 20
4.3545380576
 11
5.8295121452
 21
4.3545380576
  0
LINE
  5
3A2
100
AcDbEntity
  8
03__ASM_ALL_CURVES
100
AcDbLine
 62
40
  6
CONTINUOUS
 10
9.0595618558
 20
4.3753793076
 11
9.0915950589
 21
4.3753793076
  0
LINE
  5
3A3
100
AcDbEntity
  8
03__ASM_ALL_CURVES
100
AcDbLine
 62
40
  6
CONTINUOUS
 10
9.1812880277
 20
4.3753793076
 11
9.1941013089
 21
4.3753793076
  0
LINE
  5
3A4
100
AcDbEntity
  8
03__ASM_ALL_CURVES
100
AcDbLine
 62
40
  6
CONTINUOUS
 10
9.2645743558
 20
4.3753793076
 11
9.2966075589
 21
4.3753793076
  0
LINE
  5
3A5
100
AcDbEntity
  8
03__ASM_ALL_CURVES
100
AcDbLine
 62
40
  6
CONTINUOUS
 10
9.3606739652
 20
4.3753793076
 11
9.4247403714
 21
4.3753793076
  0
LINE
  5
3A6
100
AcDbEntity
  8
0
100
AcDbLine
 62
7
  6
CONTINUOUS
 10
5.8803543517
 20
4.579710543
 11
5.7751004417
 21
4.579710543
  0
LINE
  5
3A7
100
AcDbEntity
  8
03__ASM_ALL_CURVES
100
AcDbLine
 62
40
  6
CONTINUOUS
 10
4.5105934183
 20
5.3256280576
 11
4.4935090433
 21
5.3370176413
  0
LINE
  5
3A8
100
AcDbEntity
  8
03__ASM_ALL_CURVES
100
AcDbLine
 62
40
  6
CONTINUOUS
 10
4.5276777933
 20
5.4623030576
 11
4.5447621683
 21
5.450913477
  0
LINE
  5
3A9
100
AcDbEntity
  8
03__ASM_ALL_CURVES
100
AcDbLine
 62
40
  6
CONTINUOUS
 10
5.1768840433
 20
5.3370176413
 11
5.1683418558
 21
5.3484072249
  0
LINE
  5
3AA
100
AcDbEntity
  8
03__ASM_ALL_CURVES
100
AcDbLine
 62
40
  6
CONTINUOUS
 10
5.0914621683
 20
5.450913477
 11
5.1085465433
 21
5.4281343076
  0
LINE
  5
3AB
100
AcDbEntity
  8
0
100
AcDbLine
 62
7
  6
CONTINUOUS
 10
6.1565618558
 20
3.7015380576
 11
6.1565618558
 21
4.7895380576
  0
LINE
  5
3AC
100
AcDbEntity
  8
03__ASM_ALL_CURVES
100
AcDbLine
 62
40
  6
CONTINUOUS
 10
6.1588647954
 20
3.2145380576
 11
6.1588647954
 21
3.1120318076
  0
LINE
  5
3AD
100
AcDbEntity
  8
0
100
AcDbLine
 62
7
  6
CONTINUOUS
 10
6.2035618558
 20
3.6220489555
 11
6.2035618558
 21
4.8690271597
  0
LINE
  5
3AE
100
AcDbEntity
  8
03__ASM_ALL_CURVES
100
AcDbLine
 62
40
  6
CONTINUOUS
 10
6.2869976079
 20
3.1974536806
 11
6.2869976079
 21
3.1889114951
  0
LINE
  5
3AF
100
AcDbEntity
  8
03__ASM_ALL_CURVES
100
AcDbLine
 62
40
  6
CONTINUOUS
 10
6.2934042485
 20
3.1462005586
 11
6.2934042485
 21
3.1376583701
  0
LINE
  5
3B0
100
AcDbEntity
  8
0
100
AcDbLine
 62
7
  6
CONTINUOUS
 10
6.2935618558
 20
3.6220489555
 11
6.2935618558
 21
4.8690271597
  0
LINE
  5
3B1
100
AcDbEntity
  8
0
100
AcDbLine
 62
7
  6
CONTINUOUS
 10
6.3435618558
 20
4.8560380576
 11
6.3435618558
 21
3.6350380576
  0
LINE
  5
3B2
100
AcDbEntity
  8
03__ASM_ALL_CURVES
100
AcDbLine
 62
40
  6
CONTINUOUS
 10
5.9154124517
 20
3.1632849326
 11
5.9218190923
 21
3.1889114951
  0
LINE
  5
3B3
100
AcDbEntity
  8
03__ASM_ALL_CURVES
100
AcDbLine
 62
40
  6
CONTINUOUS
 10
5.9922921392
 20
3.1632849326
 11
5.9858854985
 21
3.1376583701
  0
LINE
  5
3B4
100
AcDbEntity
  8
03__ASM_ALL_CURVES
100
AcDbLine
 62
40
  6
CONTINUOUS
 10
4.6610721577
 20
3.1205739954
 11
4.6482588764
 21
3.1120318076
  0
LINE
  5
3B5
100
AcDbEntity
  8
03__ASM_ALL_CURVES
100
AcDbLine
 62
40
  6
CONTINUOUS
 10
4.7635784077
 20
3.1718271181
 11
4.7507651264
 21
3.1632849326
  0
LINE
  5
3B6
100
AcDbEntity
  8
0
100
AcDbLine
 62
7
  6
CONTINUOUS
 10
3.0858586619
 20
4.5802660554
 11
2.3919460298
 21
4.5802660554
  0
LINE
  5
3B7
100
AcDbEntity
  8
0
100
AcDbLine
 62
7
  6
CONTINUOUS
 10
3.0858586619
 20
4.6194490587
 11
2.3919460298
 21
4.6194490587
  0
LINE
  5
3B8
100
AcDbEntity
  8
0
100
AcDbLine
 62
7
  6
CONTINUOUS
 10
7.8435618558
 20
4.6374880576
 11
7.8535618558
 21
4.6374880576
  0
LINE
  5
3B9
100
AcDbEntity
  8
0
100
AcDbLine
 62
7
  6
CONTINUOUS
 10
7.9135618558
 20
4.6374880576
 11
7.9235618558
 21
4.6374880576
  0
LINE
  5
3BA
100
AcDbEntity
  8
0
100
AcDbLine
 62
7
  6
CONTINUOUS
 10
8.5605618558
 20
4.6455380576
 11
8.5095618558
 21
4.6455380576
  0
LINE
  5
3BB
100
AcDbEntity
  8
0
100
AcDbLine
 62
7
  6
CONTINUOUS
 10
8.4475618558
 20
4.6455380576
 11
8.0135618558
 21
4.6455380576
  0
LINE
  5
3BC
100
AcDbEntity
  8
0
100
AcDbLine
 62
7
  6
CONTINUOUS
 10
8.0135618558
 20
4.6514880576
 11
7.9305618558
 21
4.6514880576
  0
LINE
  5
3BD
100
AcDbEntity
  8
0
100
AcDbLine
 62
7
  6
CONTINUOUS
 10
7.9065618558
 20
4.6514880576
 11
7.8605618558
 21
4.6514880576
  0
LINE
  5
3BE
100
AcDbEntity
  8
0
100
AcDbLine
 62
7
  6
CONTINUOUS
 10
7.8365618558
 20
4.6514880576
 11
7.8075618558
 21
4.6514880576
  0
LINE
  5
3BF
100
AcDbEntity
  8
0
100
AcDbLine
 62
7
  6
CONTINUOUS
 10
7.6825618558
 20
4.7580380576
 11
7.6625618558
 21
4.7580380576
  0
LINE
  5
3C0
100
AcDbEntity
  8
0
100
AcDbLine
 62
7
  6
CONTINUOUS
 10
6.5165618558
 20
4.7815380576
 11
6.4965618558
 21
4.7815380576
  0
LINE
  5
3C1
100
AcDbEntity
  8
0
100
AcDbLine
 62
7
  6
CONTINUOUS
 10
7.3225618558
 20
4.7895380576
 11
7.2255618558
 21
4.7895380576
  0
LINE
  5
3C2
100
AcDbEntity
  8
0
100
AcDbLine
 62
7
  6
CONTINUOUS
 10
6.9915618558
 20
4.7895380576
 11
6.6680618558
 21
4.7895380576
  0
LINE
  5
3C3
100
AcDbEntity
  8
0
100
AcDbLine
 62
7
  6
CONTINUOUS
 10
6.1565618558
 20
4.7895380576
 11
5.9065618558
 21
4.7895380576
  0
LINE
  5
3C4
100
AcDbEntity
  8
0
100
AcDbLine
 62
7
  6
CONTINUOUS
 10
5.6725618558
 20
4.7895380576
 11
5.5185618558
 21
4.7895380576
  0
LINE
  5
3C5
100
AcDbEntity
  8
0
100
AcDbLine
 62
7
  6
CONTINUOUS
 10
5.3665618558
 20
4.8045380576
 11
5.3465618558
 21
4.8045380576
  0
LINE
  5
3C6
100
AcDbEntity
  8
0
100
AcDbLine
 62
7
  6
CONTINUOUS
 10
5.0065618558
 20
4.8065380576
 11
4.5805618558
 21
4.8065380576
  0
LINE
  5
3C7
100
AcDbEntity
  8
0
100
AcDbLine
 62
7
  6
CONTINUOUS
 10
4.3465618558
 20
4.8065380576
 11
4.3405618558
 21
4.8065380576
  0
LINE
  5
3C8
100
AcDbEntity
  8
03__ASM_ALL_CURVES
100
AcDbLine
 62
40
  6
CONTINUOUS
 10
2.5045718558
 20
5.2481788909
 11
2.3405618558
 21
5.2709580576
  0
LINE
  5
3C9
100
AcDbEntity
  8
03__ASM_ALL_CURVES
100
AcDbLine
 62
40
  6
CONTINUOUS
 10
2.5045718558
 20
5.2436230576
 11
2.3405618558
 21
5.2709580576
  0
LINE
  5
3CA
100
AcDbEntity
  8
03__ASM_ALL_CURVES
100
AcDbLine
 62
40
  6
CONTINUOUS
 10
4.7839434183
 20
5.3256280576
 11
4.7668590433
 21
5.3370176413
  0
LINE
  5
3CB
100
AcDbEntity
  8
03__ASM_ALL_CURVES
100
AcDbLine
 62
40
  6
CONTINUOUS
 10
4.7668590433
 20
5.416744727
 11
4.8181121683
 21
5.3825759729
  0
LINE
  5
3CC
100
AcDbEntity
  8
03__ASM_ALL_CURVES
100
AcDbLine
 62
40
  6
CONTINUOUS
 10
4.8181121683
 20
5.450913477
 11
4.8010277933
 21
5.4623030576
  0
LINE
  5
3CD
100
AcDbEntity
  8
03__ASM_ALL_CURVES
100
AcDbLine
 62
40
  6
CONTINUOUS
 10
5.0572934183
 20
5.3256280576
 11
5.0402090433
 21
5.3370176413
  0
LINE
  5
3CE
100
AcDbEntity
  8
03__ASM_ALL_CURVES
100
AcDbLine
 62
40
  6
CONTINUOUS
 10
5.1939684183
 20
5.3256280576
 11
5.1768840433
 21
5.3370176413
  0
LINE
  5
3CF
100
AcDbEntity
  8
03__ASM_ALL_CURVES
100
AcDbLine
 62
40
  6
CONTINUOUS
 10
7.1098357656
 20
3.1205739954
 11
7.0970224843
 21
3.1376583701
  0
LINE
  5
3D0
100
AcDbEntity
  8
03__ASM_ALL_CURVES
100
AcDbLine
 62
40
  6
CONTINUOUS
 10
7.0457693593
 20
3.2059958721
 11
7.0521759999
 21
3.1974536806
  0
LINE
  5
3D1
100
AcDbEntity
  8
03__ASM_ALL_CURVES
100
AcDbLine
 62
40
  6
CONTINUOUS
 10
7.1482756093
 20
3.2059958721
 11
7.1610888906
 21
3.1889114951
  0
LINE
  5
3D2
100
AcDbEntity
  8
03__ASM_ALL_CURVES
100
AcDbLine
 62
40
  6
CONTINUOUS
 10
5.4929449808
 20
5.450913477
 11
5.5100293558
 21
5.4281343076
  0
LINE
  5
3D3
100
AcDbEntity
  8
03__ASM_ALL_CURVES
100
AcDbLine
 62
40
  6
CONTINUOUS
 10
7.2507818593
 20
3.2059958721
 11
7.2571884999
 21
3.1974536806
  0
LINE
  5
3D4
100
AcDbEntity
  8
03__ASM_ALL_CURVES
100
AcDbLine
 62
40
  6
CONTINUOUS
 10
5.7577527933
 20
5.3939655576
 11
5.7833793558
 21
5.3256280576
  0
LINE
  5
3D5
100
AcDbEntity
  8
0
100
AcDbLine
 62
7
  6
CONTINUOUS
 10
6.4465618558
 20
4.8560380576
 11
6.4465618558
 21
3.6350380576
  0
LINE
  5
3D6
100
AcDbEntity
  8
0
100
AcDbLine
 62
7
  6
CONTINUOUS
 10
6.4965618558
 20
3.6450380576
 11
6.4965618558
 21
4.8460380576
  0
LINE
  5
3D7
100
AcDbEntity
  8
0
100
AcDbLine
 62
7
  6
CONTINUOUS
 10
6.5165618558
 20
3.7095380576
 11
6.5165618558
 21
4.7815380576
  0
LINE
  5
3D8
100
AcDbEntity
  8
0
100
AcDbLine
 62
7
  6
CONTINUOUS
 10
6.5315618558
 20
3.6220489555
 11
6.5315618558
 21
4.8690271597
  0
LINE
  5
3D9
100
AcDbEntity
  8
03__ASM_ALL_CURVES
100
AcDbLine
 62
40
  6
CONTINUOUS
 10
5.8769726079
 20
3.1803693096
 11
5.8705659673
 21
3.1718271181
  0
LINE
  5
3DA
100
AcDbEntity
  8
03__ASM_ALL_CURVES
100
AcDbLine
 62
40
  6
CONTINUOUS
 10
5.9218190923
 20
3.1889114951
 11
5.9346323735
 21
3.2059958721
  0
LINE
  5
3DB
100
AcDbEntity
  8
0
100
AcDbLine
 62
7
  6
CONTINUOUS
 10
7.7905618558
 20
4.8455380576
 11
7.6975618558
 21
4.8455380576
  0
LINE
  5
3DC
100
AcDbEntity
  8
0
100
AcDbLine
 62
7
  6
CONTINUOUS
 10
7.4595618558
 20
4.8455380576
 11
7.3695618558
 21
4.8455380576
  0
LINE
  5
3DD
100
AcDbEntity
  8
0
100
AcDbLine
 62
7
  6
CONTINUOUS
 10
6.2935618558
 20
4.8460380576
 11
6.3435618558
 21
4.8460380576
  0
LINE
  5
3DE
100
AcDbEntity
  8
0
100
AcDbLine
 62
7
  6
CONTINUOUS
 10
6.4465618558
 20
4.8460380576
 11
6.4965618558
 21
4.8460380576
  0
LINE
  5
3DF
100
AcDbEntity
  8
0
100
AcDbLine
 62
7
  6
CONTINUOUS
 10
7.4595618558
 20
4.8460380576
 11
7.5095618558
 21
4.8460380576
  0
LINE
  5
3E0
100
AcDbEntity
  8
0
100
AcDbLine
 62
7
  6
CONTINUOUS
 10
7.6125618558
 20
4.8460380576
 11
7.6625618558
 21
4.8460380576
  0
LINE
  5
3E1
100
AcDbEntity
  8
0
100
AcDbLine
 62
7
  6
CONTINUOUS
 10
6.6210618558
 20
4.8690380576
 11
6.5315618558
 21
4.8690380576
  0
LINE
  5
3E2
100
AcDbEntity
  8
0
100
AcDbLine
 62
7
  6
CONTINUOUS
 10
6.2935618558
 20
4.8690380576
 11
6.2035618558
 21
4.8690380576
  0
LINE
  5
3E3
100
AcDbEntity
  8
0
100
AcDbLine
 62
7
  6
CONTINUOUS
 10
5.0535618558
 20
4.8920380576
 11
5.1435618558
 21
4.8920380576
  0
LINE
  5
3E4
100
AcDbEntity
  8
0
100
AcDbLine
 62
7
  6
CONTINUOUS
 10
5.3815618558
 20
4.8920380576
 11
5.4715618558
 21
4.8920380576
  0
LINE
  5
3E5
100
AcDbEntity
  8
0
100
AcDbLine
 62
7
  6
CONTINUOUS
 10
5.1435618558
 20
4.8925380576
 11
5.1935618558
 21
4.8925380576
  0
LINE
  5
3E6
100
AcDbEntity
  8
0
100
AcDbLine
 62
7
  6
CONTINUOUS
 10
5.2965618558
 20
4.8925380576
 11
5.3465618558
 21
4.8925380576
  0
LINE
  5
3E7
100
AcDbEntity
  8
THREAD
100
AcDbLine
 62
7
  6
CONTINUOUS
 10
4.3275618558
 20
4.8970380576
 11
3.9975618558
 21
4.8970380576
  0
LINE
  5
3E8
100
AcDbEntity
  8
THREAD
100
AcDbLine
 62
7
  6
CONTINUOUS
 10
3.9475618558
 20
4.9470380576
 11
3.5572746688
 21
4.9470380576
  0
LINE
  5
3E9
100
AcDbEntity
  8
0
100
AcDbLine
 62
7
  6
CONTINUOUS
 10
3.0858586619
 20
4.9541770565
 11
2.3919460298
 21
4.9541770565
  0
LINE
  5
3EA
100
AcDbEntity
  8
0
100
AcDbLine
 62
7
  6
CONTINUOUS
 10
3.0858586619
 20
4.9545380576
 11
2.3919460298
 21
4.9545380576
  0
LINE
  5
3EB
100
AcDbEntity
  8
THREAD
100
AcDbLine
 62
7
  6
CONTINUOUS
 10
3.3565618558
 20
4.9630380576
 11
3.3095618558
 21
4.9630380576
  0
LINE
  5
3EC
100
AcDbEntity
  8
0
100
AcDbLine
 62
7
  6
CONTINUOUS
 10
3.4595618558
 20
4.9635380576
 11
3.5095618558
 21
4.9635380576
  0
LINE
  5
3ED
100
AcDbEntity
  8
0
100
AcDbLine
 62
7
  6
CONTINUOUS
 10
3.3095618558
 20
5.0250380576
 11
3.1265618558
 21
5.0250380576
  0
LINE
  5
3EE
100
AcDbEntity
  8
03__ASM_ALL_CURVES
100
AcDbLine
 62
40
  6
CONTINUOUS
 10
2.5045718558
 20
5.2618463909
 11
2.3405618558
 21
5.2709580576
  0
LINE
  5
3EF
100
AcDbEntity
  8
03__ASM_ALL_CURVES
100
AcDbLine
 62
40
  6
CONTINUOUS
 10
2.5045718558
 20
5.2572905576
 11
2.3405618558
 21
5.2709580576
  0
LINE
  5
3F0
100
AcDbEntity
  8
03__ASM_ALL_CURVES
100
AcDbLine
 62
40
  6
CONTINUOUS
 10
3.1455518558
 20
5.2846255576
 11
3.4735718558
 21
5.2572905576
  0
LINE
  5
3F1
100
AcDbEntity
  8
03__ASM_ALL_CURVES
100
AcDbLine
 62
40
  6
CONTINUOUS
 10
2.5045718558
 20
5.2527347243
 11
2.3405618558
 21
5.2709580576
  0
LINE
  5
3F2
100
AcDbEntity
  8
03__ASM_ALL_CURVES
100
AcDbLine
 62
40
  6
CONTINUOUS
 10
3.1455518558
 20
5.2891813909
 11
3.4735718558
 21
5.2527347243
  0
LINE
  5
3F3
100
AcDbEntity
  8
03__ASM_ALL_CURVES
100
AcDbLine
 62
40
  6
CONTINUOUS
 10
3.1455518558
 20
5.2937372243
 11
3.4735718558
 21
5.2481788909
  0
LINE
  5
3F4
100
AcDbEntity
  8
03__ASM_ALL_CURVES
100
AcDbLine
 62
40
  6
CONTINUOUS
 10
3.4735718558
 20
5.2436230576
 11
3.1455518558
 21
5.2982930576
  0
LINE
  5
3F5
100
AcDbEntity
  8
03__ASM_ALL_CURVES
100
AcDbLine
 62
40
  6
CONTINUOUS
 10
5.0743777933
 20
5.4623030576
 11
5.0914621683
 21
5.450913477
  0
LINE
  5
3F6
100
AcDbEntity
  8
03__ASM_ALL_CURVES
100
AcDbLine
 62
40
  6
CONTINUOUS
 10
5.4758606058
 20
5.4623030576
 11
5.4929449808
 21
5.450913477
  0
LINE
  5
3F7
100
AcDbEntity
  8
03__ASM_ALL_CURVES
100
AcDbLine
 62
40
  6
CONTINUOUS
 10
7.4557943593
 20
3.2059958721
 11
7.4622009999
 21
3.1974536806
  0
LINE
  5
3F8
100
AcDbEntity
  8
03__ASM_ALL_CURVES
100
AcDbLine
 62
40
  6
CONTINUOUS
 10
5.7748371683
 20
5.450913477
 11
5.7833793558
 21
5.4395238882
  0
LINE
  5
3F9
100
AcDbEntity
  8
0
100
AcDbLine
 62
7
  6
CONTINUOUS
 10
6.6210618558
 20
3.6220489555
 11
6.6210618558
 21
4.8690271597
  0
LINE
  5
3FA
100
AcDbEntity
  8
0
100
AcDbLine
 62
7
  6
CONTINUOUS
 10
6.6680618558
 20
3.7015380576
 11
6.6680618558
 21
4.7895380576
  0
LINE
  5
3FB
100
AcDbEntity
  8
03__ASM_ALL_CURVES
100
AcDbLine
 62
40
  6
CONTINUOUS
 10
5.9858854985
 20
3.1376583701
 11
5.9730722173
 21
3.1205739954
  0
LINE
  5
3FC
100
AcDbEntity
  8
03__ASM_ALL_CURVES
100
AcDbLine
 62
40
  6
CONTINUOUS
 10
6.0819851079
 20
3.1803693096
 11
6.0755784673
 21
3.1718271181
  0
LINE
  5
3FD
100
AcDbEntity
  8
03__ASM_ALL_CURVES
100
AcDbLine
 62
40
  6
CONTINUOUS
 10
6.2869976079
 20
3.1889114951
 11
6.2805909673
 21
3.1803693096
  0
LINE
  5
3FE
100
AcDbEntity
  8
03__ASM_ALL_CURVES
100
AcDbLine
 62
40
  6
CONTINUOUS
 10
5.8705659673
 20
3.1718271181
 11
5.857752686
 21
3.1632849326
  0
LINE
  5
3FF
100
AcDbEntity
  8
03__ASM_ALL_CURVES
100
AcDbLine
 62
40
  6
CONTINUOUS
 10
5.9346323735
 20
3.2059958721
 11
5.9474456548
 21
3.2145380576
  0
LINE
  5
400
100
AcDbEntity
  8
03__ASM_ALL_CURVES
100
AcDbLine
 62
40
  6
CONTINUOUS
 10
5.9730722173
 20
3.1205739954
 11
5.960258936
 21
3.1120318076
  0
LINE
  5
401
100
AcDbEntity
  8
03__ASM_ALL_CURVES
100
AcDbLine
 62
40
  6
CONTINUOUS
 10
3.1455518558
 20
5.2664022243
 11
3.4735718558
 21
5.2755138909
  0
LINE
  5
402
100
AcDbEntity
  8
03__ASM_ALL_CURVES
100
AcDbLine
 62
40
  6
CONTINUOUS
 10
2.3405618558
 20
5.2709580576
 11
5.9337218558
 21
5.2709580576
  0
LINE
  5
403
100
AcDbEntity
  8
03__ASM_ALL_CURVES
100
AcDbLine
 62
40
  6
CONTINUOUS
 10
5.6467043558
 20
5.3256280576
 11
5.5783668558
 21
5.3256280576
  0
LINE
  5
404
100
AcDbEntity
  8
03__ASM_ALL_CURVES
100
AcDbLine
 62
40
  6
CONTINUOUS
 10
5.4758606058
 20
5.3256280576
 11
5.4416918558
 21
5.3256280576
  0
LINE
  5
405
100
AcDbEntity
  8
03__ASM_ALL_CURVES
100
AcDbLine
 62
40
  6
CONTINUOUS
 10
5.2110527933
 20
5.3256280576
 11
5.1939684183
 21
5.3256280576
  0
LINE
  5
406
100
AcDbEntity
  8
03__ASM_ALL_CURVES
100
AcDbLine
 62
40
  6
CONTINUOUS
 10
5.0743777933
 20
5.3256280576
 11
5.0572934183
 21
5.3256280576
  0
LINE
  5
407
100
AcDbEntity
  8
03__ASM_ALL_CURVES
100
AcDbLine
 62
40
  6
CONTINUOUS
 10
4.8010277933
 20
5.3256280576
 11
4.7839434183
 21
5.3256280576
  0
LINE
  5
408
100
AcDbEntity
  8
03__ASM_ALL_CURVES
100
AcDbLine
 62
40
  6
CONTINUOUS
 10
4.5276777933
 20
5.3256280576
 11
4.5105934183
 21
5.3256280576
  0
LINE
  5
409
100
AcDbEntity
  8
03__ASM_ALL_CURVES
100
AcDbLine
 62
40
  6
CONTINUOUS
 10
3.8443027933
 20
5.3256280576
 11
3.8272184183
 21
5.3256280576
  0
LINE
  5
40A
100
AcDbEntity
  8
03__ASM_ALL_CURVES
100
AcDbLine
 62
40
  6
CONTINUOUS
 10
3.7076277933
 20
5.3256280576
 11
3.6905434183
 21
5.3256280576
  0
LINE
  5
40B
100
AcDbEntity
  8
03__ASM_ALL_CURVES
100
AcDbLine
 62
40
  6
CONTINUOUS
 10
3.3803040433
 20
5.3256280576
 11
3.3632196683
 21
5.3256280576
  0
LINE
  5
40C
100
AcDbEntity
  8
03__ASM_ALL_CURVES
100
AcDbLine
 62
40
  6
CONTINUOUS
 10
3.2436290433
 20
5.3256280576
 11
3.2265446683
 21
5.3256280576
  0
LINE
  5
40D
100
AcDbEntity
  8
03__ASM_ALL_CURVES
100
AcDbLine
 62
40
  6
CONTINUOUS
 10
3.0984118558
 20
5.3256280576
 11
3.0898696683
 21
5.3256280576
  0
LINE
  5
40E
100
AcDbEntity
  8
03__ASM_ALL_CURVES
100
AcDbLine
 62
40
  6
CONTINUOUS
 10
2.2783618558
 20
5.3256280576
 11
2.2698196683
 21
5.3256280576
  0
LINE
  5
40F
100
AcDbEntity
  8
03__ASM_ALL_CURVES
100
AcDbLine
 62
40
  6
CONTINUOUS
 10
2.7908931058
 20
5.3256280576
 11
2.8592306058
 21
5.3256280576
  0
LINE
  5
410
100
AcDbEntity
  8
03__ASM_ALL_CURVES
100
AcDbLine
 62
40
  6
CONTINUOUS
 10
3.5282418558
 20
5.3256280576
 11
3.5965793558
 21
5.3256280576
  0
LINE
  5
411
100
AcDbEntity
  8
03__ASM_ALL_CURVES
100
AcDbLine
 62
40
  6
CONTINUOUS
 10
5.3050168558
 20
5.3256280576
 11
5.3733543558
 21
5.3256280576
  0
LINE
  5
412
100
AcDbEntity
  8
03__ASM_ALL_CURVES
100
AcDbLine
 62
40
  6
CONTINUOUS
 10
2.5045718558
 20
5.2664022243
 11
2.3405618558
 21
5.2709580576
  0
LINE
  5
413
100
AcDbEntity
  8
03__ASM_ALL_CURVES
100
AcDbLine
 62
40
  6
CONTINUOUS
 10
3.1455518558
 20
5.2755138909
 11
3.4735718558
 21
5.2664022243
  0
LINE
  5
414
100
AcDbEntity
  8
03__ASM_ALL_CURVES
100
AcDbLine
 62
40
  6
CONTINUOUS
 10
3.1455518558
 20
5.2800697243
 11
3.4735718558
 21
5.2618463909
  0
LINE
  5
415
100
AcDbEntity
  8
03__ASM_ALL_CURVES
100
AcDbLine
 62
40
  6
CONTINUOUS
 10
5.7577527933
 20
5.4623030576
 11
5.7748371683
 21
5.450913477
  0
LINE
  5
416
100
AcDbEntity
  8
03__ASM_ALL_CURVES
100
AcDbLine
 62
40
  6
CONTINUOUS
 10
7.2379685781
 20
3.1632849326
 11
7.2571884999
 21
3.1120318076
  0
LINE
  5
417
100
AcDbEntity
  8
03__ASM_ALL_CURVES
100
AcDbLine
 62
40
  6
CONTINUOUS
 10
7.0970224843
 20
3.1376583701
 11
7.0906158437
 21
3.1632849326
  0
LINE
  5
418
100
AcDbEntity
  8
03__ASM_ALL_CURVES
100
AcDbLine
 62
40
  6
CONTINUOUS
 10
7.1610888906
 20
3.1889114951
 11
7.1674955312
 21
3.1632849326
  0
LINE
  5
419
100
AcDbEntity
  8
03__ASM_ALL_CURVES
100
AcDbLine
 62
40
  6
CONTINUOUS
 10
7.0009228749
 20
3.1120318076
 11
7.0009228749
 21
3.2145380576
  0
LINE
  5
41A
100
AcDbEntity
  8
0
100
AcDbLine
 62
7
  6
CONTINUOUS
 10
7.0065618558
 20
3.972777231
 11
7.0065618558
 21
4.0241834756
  0
LINE
  5
41B
100
AcDbEntity
  8
0
100
AcDbLine
 62
7
  6
CONTINUOUS
 10
7.0065618558
 20
4.4669003598
 11
7.0065618558
 21
4.5182868625
  0
LINE
  5
41C
100
AcDbEntity
  8
0
100
AcDbLine
 62
7
  6
CONTINUOUS
 10
7.0135618558
 20
4.5279710648
 11
7.0135618558
 21
4.4575335533
  0
LINE
  5
41D
100
AcDbEntity
  8
0
100
AcDbLine
 62
7
  6
CONTINUOUS
 10
7.0135618558
 20
3.9631754302
 11
7.0135618558
 21
4.0335485142
  0
LINE
  5
41E
100
AcDbEntity
  8
0
100
AcDbLine
 62
7
  6
CONTINUOUS
 10
7.0235618558
 20
4.5369538074
 11
7.0235618558
 21
4.4453782336
  0
LINE
  5
41F
100
AcDbEntity
  8
0
100
AcDbLine
 62
7
  6
CONTINUOUS
 10
7.0235618558
 20
3.9540804939
 11
7.0235618558
 21
4.0456947388
  0
LINE
  5
420
100
AcDbEntity
  8
0
100
AcDbLine
 62
7
  6
CONTINUOUS
 10
7.0305618558
 20
3.9485812918
 11
7.0305618558
 21
4.0515737596
  0
LINE
  5
421
100
AcDbEntity
  8
0
100
AcDbLine
 62
7
  6
CONTINUOUS
 10
7.0305618558
 20
4.4394991051
 11
7.0305618558
 21
4.5425491886
  0
LINE
  5
422
100
AcDbEntity
  8
03__ASM_ALL_CURVES
100
AcDbLine
 62
40
  6
CONTINUOUS
 10
7.0521759999
 20
3.1974536806
 11
7.0521759999
 21
3.1803693096
  0
LINE
  5
423
100
AcDbEntity
  8
03__ASM_ALL_CURVES
100
AcDbLine
 62
40
  6
CONTINUOUS
 10
6.2934042485
 20
3.1376583701
 11
6.2805909673
 21
3.1205739954
  0
LINE
  5
424
100
AcDbEntity
  8
03__ASM_ALL_CURVES
100
AcDbLine
 62
40
  6
CONTINUOUS
 10
6.0755784673
 20
3.1718271181
 11
6.062765186
 21
3.1632849326
  0
LINE
  5
425
100
AcDbEntity
  8
03__ASM_ALL_CURVES
100
AcDbLine
 62
40
  6
CONTINUOUS
 10
6.2421511235
 20
3.2059958721
 11
6.2549644048
 21
3.2145380576
  0
LINE
  5
426
100
AcDbEntity
  8
03__ASM_ALL_CURVES
100
AcDbLine
 62
40
  6
CONTINUOUS
 10
6.2805909673
 20
3.1803693096
 11
6.267777686
 21
3.1718271181
  0
LINE
  5
427
100
AcDbEntity
  8
03__ASM_ALL_CURVES
100
AcDbLine
 62
40
  6
CONTINUOUS
 10
6.2805909673
 20
3.1205739954
 11
6.267777686
 21
3.1120318076
  0
LINE
  5
428
100
AcDbEntity
  8
03__ASM_ALL_CURVES
100
AcDbLine
 62
40
  6
CONTINUOUS
 10
3.1455518558
 20
5.2481788909
 11
3.4735718558
 21
5.2937372243
  0
LINE
  5
429
100
AcDbEntity
  8
03__ASM_ALL_CURVES
100
AcDbLine
 62
40
  6
CONTINUOUS
 10
3.1455518558
 20
5.2527347243
 11
3.4735718558
 21
5.2891813909
  0
LINE
  5
42A
100
AcDbEntity
  8
03__ASM_ALL_CURVES
100
AcDbLine
 62
40
  6
CONTINUOUS
 10
3.1455518558
 20
5.2572905576
 11
3.4735718558
 21
5.2846255576
  0
LINE
  5
42B
100
AcDbEntity
  8
03__ASM_ALL_CURVES
100
AcDbLine
 62
40
  6
CONTINUOUS
 10
2.5045718558
 20
5.2846255576
 11
2.3405618558
 21
5.2709580576
  0
LINE
  5
42C
100
AcDbEntity
  8
03__ASM_ALL_CURVES
100
AcDbLine
 62
40
  6
CONTINUOUS
 10
3.1455518558
 20
5.2618463909
 11
3.4735718558
 21
5.2800697243
  0
LINE
  5
42D
100
AcDbEntity
  8
03__ASM_ALL_CURVES
100
AcDbLine
 62
40
  6
CONTINUOUS
 10
2.5045718558
 20
5.2800697243
 11
2.3405618558
 21
5.2709580576
  0
LINE
  5
42E
100
AcDbEntity
  8
03__ASM_ALL_CURVES
100
AcDbLine
 62
40
  6
CONTINUOUS
 10
2.5045718558
 20
5.2755138909
 11
2.3405618558
 21
5.2709580576
  0
LINE
  5
42F
100
AcDbEntity
  8
03__ASM_ALL_CURVES
100
AcDbLine
 62
40
  6
CONTINUOUS
 10
2.9275681058
 20
5.3597968076
 11
3.0044477933
 21
5.3597968076
  0
LINE
  5
430
100
AcDbEntity
  8
03__ASM_ALL_CURVES
100
AcDbLine
 62
40
  6
CONTINUOUS
 10
3.9468090433
 20
5.3711863923
 11
3.9980621683
 21
5.3711863923
  0
LINE
  5
431
100
AcDbEntity
  8
03__ASM_ALL_CURVES
100
AcDbLine
 62
40
  6
CONTINUOUS
 10
5.7577527933
 20
5.3939655576
 11
5.7150418558
 21
5.3939655576
  0
LINE
  5
432
100
AcDbEntity
  8
03__ASM_ALL_CURVES
100
AcDbLine
 62
40
  6
CONTINUOUS
 10
4.5191356058
 20
5.3939655576
 11
4.5533043558
 21
5.3939655576
  0
LINE
  5
433
100
AcDbEntity
  8
03__ASM_ALL_CURVES
100
AcDbLine
 62
40
  6
CONTINUOUS
 10
4.8949918558
 20
5.3939655576
 11
4.9633293558
 21
5.3939655576
  0
LINE
  5
434
100
AcDbEntity
  8
03__ASM_ALL_CURVES
100
AcDbLine
 62
40
  6
CONTINUOUS
 10
5.5783668558
 20
5.3939655576
 11
5.6210777933
 21
5.3939655576
  0
LINE
  5
435
100
AcDbEntity
  8
03__ASM_ALL_CURVES
100
AcDbLine
 62
40
  6
CONTINUOUS
 10
3.2265446683
 20
5.4053551382
 11
3.2436290433
 21
5.4053551382
  0
LINE
  5
436
100
AcDbEntity
  8
03__ASM_ALL_CURVES
100
AcDbLine
 62
40
  6
CONTINUOUS
 10
3.3632196683
 20
5.4053551382
 11
3.3803040433
 21
5.4053551382
  0
LINE
  5
437
100
AcDbEntity
  8
03__ASM_ALL_CURVES
100
AcDbLine
 62
40
  6
CONTINUOUS
 10
4.8010277933
 20
5.4623030576
 11
4.7839434183
 21
5.4623030576
  0
LINE
  5
438
100
AcDbEntity
  8
03__ASM_ALL_CURVES
100
AcDbLine
 62
40
  6
CONTINUOUS
 10
2.8165196683
 20
5.4623030576
 11
2.8336040433
 21
5.4623030576
  0
LINE
  5
439
100
AcDbEntity
  8
03__ASM_ALL_CURVES
100
AcDbLine
 62
40
  6
CONTINUOUS
 10
3.2265446683
 20
5.4623030576
 11
3.2436290433
 21
5.4623030576
  0
LINE
  5
43A
100
AcDbEntity
  8
03__ASM_ALL_CURVES
100
AcDbLine
 62
40
  6
CONTINUOUS
 10
3.3632196683
 20
5.4623030576
 11
3.3803040433
 21
5.4623030576
  0
LINE
  5
43B
100
AcDbEntity
  8
03__ASM_ALL_CURVES
100
AcDbLine
 62
40
  6
CONTINUOUS
 10
3.6905434183
 20
5.4623030576
 11
3.7076277933
 21
5.4623030576
  0
LINE
  5
43C
100
AcDbEntity
  8
03__ASM_ALL_CURVES
100
AcDbLine
 62
40
  6
CONTINUOUS
 10
3.8272184183
 20
5.4623030576
 11
3.8443027933
 21
5.4623030576
  0
LINE
  5
43D
100
AcDbEntity
  8
03__ASM_ALL_CURVES
100
AcDbLine
 62
40
  6
CONTINUOUS
 10
4.0663996683
 20
5.4623030576
 11
4.1518215433
 21
5.4623030576
  0
LINE
  5
43E
100
AcDbEntity
  8
03__ASM_ALL_CURVES
100
AcDbLine
 62
40
  6
CONTINUOUS
 10
4.5105934183
 20
5.4623030576
 11
4.5276777933
 21
5.4623030576
  0
LINE
  5
43F
100
AcDbEntity
  8
03__ASM_ALL_CURVES
100
AcDbLine
 62
40
  6
CONTINUOUS
 10
5.0572934183
 20
5.4623030576
 11
5.0743777933
 21
5.4623030576
  0
LINE
  5
440
100
AcDbEntity
  8
03__ASM_ALL_CURVES
100
AcDbLine
 62
40
  6
CONTINUOUS
 10
5.4416918558
 20
5.4623030576
 11
5.4758606058
 21
5.4623030576
  0
LINE
  5
441
100
AcDbEntity
  8
03__ASM_ALL_CURVES
100
AcDbLine
 62
40
  6
CONTINUOUS
 10
5.5783668558
 20
5.4623030576
 11
5.6467043558
 21
5.4623030576
  0
LINE
  5
442
100
AcDbEntity
  8
03__ASM_ALL_CURVES
100
AcDbLine
 62
40
  6
CONTINUOUS
 10
5.7150418558
 20
5.4623030576
 11
5.7577527933
 21
5.4623030576
  0
LINE
  5
443
100
AcDbEntity
  8
03__ASM_ALL_CURVES
100
AcDbLine
 62
40
  6
CONTINUOUS
 10
7.2059353749
 20
3.1120318076
 11
7.2059353749
 21
3.2145380576
  0
LINE
  5
444
100
AcDbEntity
  8
03__ASM_ALL_CURVES
100
AcDbLine
 62
40
  6
CONTINUOUS
 10
7.2571884999
 20
3.1974536806
 11
7.2571884999
 21
3.1803693096
  0
LINE
  5
445
100
AcDbEntity
  8
0
100
AcDbLine
 62
7
  6
CONTINUOUS
 10
7.3225618558
 20
3.7015380576
 11
7.3225618558
 21
4.7895380576
  0
LINE
  5
446
100
AcDbEntity
  8
03__ASM_ALL_CURVES
100
AcDbLine
 62
40
  6
CONTINUOUS
 10
7.3340681874
 20
3.2145380576
 11
7.3340681874
 21
3.1120318076
  0
LINE
  5
447
100
AcDbEntity
  8
0
100
AcDbLine
 62
7
  6
CONTINUOUS
 10
7.3695618558
 20
3.6455380576
 11
7.3695618558
 21
4.8455380576
  0
LINE
  5
448
100
AcDbEntity
  8
03__ASM_ALL_CURVES
100
AcDbLine
 62
40
  6
CONTINUOUS
 10
7.0906158437
 20
3.1632849326
 11
7.0970224843
 21
3.1889114951
  0
LINE
  5
449
100
AcDbEntity
  8
03__ASM_ALL_CURVES
100
AcDbLine
 62
40
  6
CONTINUOUS
 10
3.1455518558
 20
5.2436230576
 11
3.4735718558
 21
5.2982930576
  0
LINE
  5
44A
100
AcDbEntity
  8
03__ASM_ALL_CURVES
100
AcDbLine
 62
40
  6
CONTINUOUS
 10
2.3405618558
 20
5.2709580576
 11
2.5045718558
 21
5.2982930576
  0
LINE
  5
44B
100
AcDbEntity
  8
03__ASM_ALL_CURVES
100
AcDbLine
 62
40
  6
CONTINUOUS
 10
2.5045718558
 20
5.2937372243
 11
2.3405618558
 21
5.2709580576
  0
LINE
  5
44C
100
AcDbEntity
  8
03__ASM_ALL_CURVES
100
AcDbLine
 62
40
  6
CONTINUOUS
 10
2.5045718558
 20
5.2891813909
 11
2.3405618558
 21
5.2709580576
  0
LINE
  5
44D
100
AcDbEntity
  8
0
100
AcDbLine
 62
7
  6
CONTINUOUS
 10
7.4595618558
 20
3.6450380576
 11
7.4595618558
 21
4.8460380576
  0
LINE
  5
44E
100
AcDbEntity
  8
03__ASM_ALL_CURVES
100
AcDbLine
 62
40
  6
CONTINUOUS
 10
7.4622009999
 20
3.1974536806
 11
7.4622009999
 21
3.1803693096
  0
LINE
  5
44F
100
AcDbEntity
  8
0
100
AcDbLine
 62
7
  6
CONTINUOUS
 10
7.5095618558
 20
3.6450380576
 11
7.5095618558
 21
4.8460380576
  0
LINE
  5
450
100
AcDbEntity
  8
0
100
AcDbLine
 62
7
  6
CONTINUOUS
 10
7.6125618558
 20
3.6450380576
 11
7.6125618558
 21
4.8460380576
  0
LINE
  5
451
100
AcDbEntity
  8
03__ASM_ALL_CURVES
100
AcDbLine
 62
40
  6
CONTINUOUS
 10
7.1674955312
 20
3.1632849326
 11
7.1610888906
 21
3.1376583701
  0
LINE
  5
452
100
AcDbEntity
  8
03__ASM_ALL_CURVES
100
AcDbLine
 62
40
  6
CONTINUOUS
 10
7.0521759999
 20
3.1803693096
 11
7.0457693593
 21
3.1718271181
  0
LINE
  5
453
100
AcDbEntity
  8
03__ASM_ALL_CURVES
100
AcDbLine
 62
40
  6
CONTINUOUS
 10
7.0970224843
 20
3.1889114951
 11
7.1098357656
 21
3.2059958721
  0
LINE
  5
454
100
AcDbEntity
  8
03__ASM_ALL_CURVES
100
AcDbLine
 62
40
  6
CONTINUOUS
 10
7.1610888906
 20
3.1376583701
 11
7.1482756093
 21
3.1205739954
  0
LINE
  5
455
100
AcDbEntity
  8
03__ASM_ALL_CURVES
100
AcDbLine
 62
40
  6
CONTINUOUS
 10
7.2571884999
 20
3.1803693096
 11
7.2507818593
 21
3.1718271181
  0
LINE
  5
456
100
AcDbEntity
  8
03__ASM_ALL_CURVES
100
AcDbLine
 62
40
  6
CONTINUOUS
 10
7.0457693593
 20
3.1718271181
 11
7.0329560781
 21
3.1632849326
  0
LINE
  5
457
100
AcDbEntity
  8
03__ASM_ALL_CURVES
100
AcDbLine
 62
40
  6
CONTINUOUS
 10
7.1098357656
 20
3.2059958721
 11
7.1226490468
 21
3.2145380576
  0
LINE
  5
458
100
AcDbEntity
  8
03__ASM_ALL_CURVES
100
AcDbLine
 62
40
  6
CONTINUOUS
 10
7.1482756093
 20
3.1205739954
 11
7.1354623281
 21
3.1120318076
  0
LINE
  5
459
100
AcDbEntity
  8
03__ASM_ALL_CURVES
100
AcDbLine
 62
40
  6
CONTINUOUS
 10
7.2507818593
 20
3.1718271181
 11
7.2379685781
 21
3.1632849326
  0
LINE
  5
45A
100
AcDbEntity
  8
03__ASM_ALL_CURVES
100
AcDbLine
 62
40
  6
CONTINUOUS
 10
9.1044083402
 20
4.3326683681
 11
9.0915950589
 21
4.3241261826
  0
LINE
  5
45B
100
AcDbEntity
  8
03__ASM_ALL_CURVES
100
AcDbLine
 62
40
  6
CONTINUOUS
 10
7.4173545156
 20
3.2059958721
 11
7.4301677968
 21
3.2145380576
  0
LINE
  5
45C
100
AcDbEntity
  8
03__ASM_ALL_CURVES
100
AcDbLine
 62
40
  6
CONTINUOUS
 10
9.1684747464
 20
4.3668371221
 11
9.1812880277
 21
4.3753793076
  0
LINE
  5
45D
100
AcDbEntity
  8
0
100
AcDbLine
 62
7
  6
CONTINUOUS
 10
7.8075618558
 20
4.8285380576
 11
7.7905618558
 21
4.8455380576
  0
LINE
  5
45E
100
AcDbEntity
  8
0
100
AcDbLine
 62
7
  6
CONTINUOUS
 10
7.6625618558
 20
3.6450380576
 11
7.6625618558
 21
4.8460380576
  0
LINE
  5
45F
100
AcDbEntity
  8
0
100
AcDbLine
 62
7
  6
CONTINUOUS
 10
7.6825618558
 20
3.7330380576
 11
7.6825618558
 21
4.7580380576
  0
LINE
  5
460
100
AcDbEntity
  8
0
100
AcDbLine
 62
7
  6
CONTINUOUS
 10
7.6975618558
 20
3.6455380576
 11
7.6975618558
 21
4.8455380576
  0
LINE
  5
461
100
AcDbEntity
  8
0
100
AcDbLine
 62
7
  6
CONTINUOUS
 10
7.7905618558
 20
3.6455380576
 11
7.7905618558
 21
4.8455380576
  0
LINE
  5
462
100
AcDbEntity
  8
0
100
AcDbLine
 62
7
  6
CONTINUOUS
 10
7.8075618558
 20
3.6625539485
 11
7.8075618558
 21
4.8285221667
  0
LINE
  5
463
100
AcDbEntity
  8
0
100
AcDbLine
 62
7
  6
CONTINUOUS
 10
7.8365618558
 20
3.8395880576
 11
7.8365618558
 21
4.6514880576
  0
LINE
  5
464
100
AcDbEntity
  8
0
100
AcDbLine
 62
7
  6
CONTINUOUS
 10
7.8435618558
 20
3.8535880576
 11
7.8435618558
 21
4.6374880576
  0
LINE
  5
465
100
AcDbEntity
  8
0
100
AcDbLine
 62
7
  6
CONTINUOUS
 10
7.8535618558
 20
3.8535880576
 11
7.8535618558
 21
4.6374880576
  0
LINE
  5
466
100
AcDbEntity
  8
0
100
AcDbLine
 62
7
  6
CONTINUOUS
 10
7.8605618558
 20
3.8395880576
 11
7.8605618558
 21
4.6514880576
  0
LINE
  5
467
100
AcDbEntity
  8
03__ASM_ALL_CURVES
100
AcDbLine
 62
40
  6
CONTINUOUS
 10
7.4173545156
 20
3.1376583701
 11
7.4109478749
 21
3.1120318076
  0
LINE
  5
468
100
AcDbEntity
  8
03__ASM_ALL_CURVES
100
AcDbLine
 62
40
  6
CONTINUOUS
 10
7.4109478749
 20
3.1974536806
 11
7.4173545156
 21
3.2059958721
  0
LINE
  5
469
100
AcDbEntity
  8
03__ASM_ALL_CURVES
100
AcDbLine
 62
40
  6
CONTINUOUS
 10
7.4301677968
 20
3.1547427441
 11
7.4173545156
 21
3.1376583701
  0
LINE
  5
46A
100
AcDbEntity
  8
03__ASM_ALL_CURVES
100
AcDbLine
 62
40
  6
CONTINUOUS
 10
7.4622009999
 20
3.1803693096
 11
7.4557943593
 21
3.1718271181
  0
LINE
  5
46B
100
AcDbEntity
  8
0
100
AcDbLine
 62
7
  6
CONTINUOUS
 10
7.8075618558
 20
3.6625380576
 11
7.7905618558
 21
3.6455380576
  0
LINE
  5
46C
100
AcDbEntity
  8
03__ASM_ALL_CURVES
100
AcDbLine
 62
40
  6
CONTINUOUS
 10
7.4557943593
 20
3.1718271181
 11
7.4301677968
 21
3.1547427441
  0
LINE
  5
46D
100
AcDbEntity
  8
03__ASM_ALL_CURVES
100
AcDbLine
 62
40
  6
CONTINUOUS
 10
9.2069145902
 20
4.2814152454
 11
9.1941013089
 21
4.2728730576
  0
LINE
  5
46E
100
AcDbEntity
  8
03__ASM_ALL_CURVES
100
AcDbLine
 62
40
  6
CONTINUOUS
 10
9.3094208402
 20
4.3326683681
 11
9.2966075589
 21
4.3241261826
  0
LINE
  5
46F
100
AcDbEntity
  8
03__ASM_ALL_CURVES
100
AcDbLine
 62
40
  6
CONTINUOUS
 10
9.1812880277
 20
4.2728730576
 11
9.1684747464
 21
4.2814152454
  0
LINE
  5
470
100
AcDbEntity
  8
03__ASM_ALL_CURVES
100
AcDbLine
 62
40
  6
CONTINUOUS
 10
9.0915950589
 20
4.3753793076
 11
9.1044083402
 21
4.3668371221
  0
LINE
  5
471
100
AcDbEntity
  8
03__ASM_ALL_CURVES
100
AcDbLine
 62
40
  6
CONTINUOUS
 10
9.1941013089
 20
4.3753793076
 11
9.2069145902
 21
4.3668371221
  0
LINE
  5
472
100
AcDbEntity
  8
03__ASM_ALL_CURVES
100
AcDbLine
 62
40
  6
CONTINUOUS
 10
9.2966075589
 20
4.3753793076
 11
9.3094208402
 21
4.3668371221
  0
LINE
  5
473
100
AcDbEntity
  8
0
100
AcDbLine
 62
7
  6
CONTINUOUS
 10
7.9065618558
 20
3.8395880576
 11
7.9065618558
 21
4.6514880576
  0
LINE
  5
474
100
AcDbEntity
  8
0
100
AcDbLine
 62
7
  6
CONTINUOUS
 10
7.9135618558
 20
3.8535880576
 11
7.9135618558
 21
4.6374880576
  0
LINE
  5
475
100
AcDbEntity
  8
0
100
AcDbLine
 62
7
  6
CONTINUOUS
 10
7.9235618558
 20
3.8535880576
 11
7.9235618558
 21
4.6374880576
  0
LINE
  5
476
100
AcDbEntity
  8
0
100
AcDbLine
 62
7
  6
CONTINUOUS
 10
7.9305618558
 20
3.8395880576
 11
7.9305618558
 21
4.6514880576
  0
LINE
  5
477
100
AcDbEntity
  8
0
100
AcDbLine
 62
7
  6
CONTINUOUS
 10
8.0135618558
 20
3.8395880576
 11
8.0135618558
 21
4.6514880576
  0
LINE
  5
478
100
AcDbEntity
  8
0
100
AcDbLine
 62
7
  6
CONTINUOUS
 10
8.5735618558
 20
3.8585380576
 11
8.5605618558
 21
3.8455380576
  0
LINE
  5
479
100
AcDbEntity
  8
0
100
AcDbLine
 62
7
  6
CONTINUOUS
 10
8.5735618558
 20
4.6325380576
 11
8.5605618558
 21
4.6455380576
  0
LINE
  5
47A
100
AcDbEntity
  8
03__ASM_ALL_CURVES
100
AcDbLine
 62
40
  6
CONTINUOUS
 10
9.1108149808
 20
4.3412105596
 11
9.1044083402
 21
4.3326683681
  0
LINE
  5
47B
100
AcDbEntity
  8
0
100
AcDbLine
 62
7
  6
CONTINUOUS
 10
8.5605618558
 20
3.8455380576
 11
8.5605618558
 21
4.6455380576
  0
LINE
  5
47C
100
AcDbEntity
  8
0
100
AcDbLine
 62
7
  6
CONTINUOUS
 10
8.5735618558
 20
3.8585380576
 11
8.5735618558
 21
4.6325380576
  0
LINE
  5
47D
100
AcDbEntity
  8
03__ASM_ALL_CURVES
100
AcDbLine
 62
40
  6
CONTINUOUS
 10
9.1556614652
 20
4.3497527451
 11
9.1684747464
 21
4.3668371221
  0
LINE
  5
47E
100
AcDbEntity
  8
03__ASM_ALL_CURVES
100
AcDbLine
 62
40
  6
CONTINUOUS
 10
9.2197278714
 20
4.2984996201
 11
9.2069145902
 21
4.2814152454
  0
LINE
  5
47F
100
AcDbEntity
  8
03__ASM_ALL_CURVES
100
AcDbLine
 62
40
  6
CONTINUOUS
 10
9.3158274808
 20
4.3412105596
 11
9.3094208402
 21
4.3326683681
  0
LINE
  5
480
100
AcDbEntity
  8
03__ASM_ALL_CURVES
100
AcDbLine
 62
40
  6
CONTINUOUS
 10
9.1684747464
 20
4.2814152454
 11
9.1556614652
 21
4.2984996201
  0
LINE
  5
481
100
AcDbEntity
  8
03__ASM_ALL_CURVES
100
AcDbLine
 62
40
  6
CONTINUOUS
 10
9.1044083402
 20
4.3668371221
 11
9.1108149808
 21
4.3582949306
  0
LINE
  5
482
100
AcDbEntity
  8
03__ASM_ALL_CURVES
100
AcDbLine
 62
40
  6
CONTINUOUS
 10
9.2069145902
 20
4.3668371221
 11
9.2197278714
 21
4.3497527451
  0
LINE
  5
483
100
AcDbEntity
  8
03__ASM_ALL_CURVES
100
AcDbLine
 62
40
  6
CONTINUOUS
 10
9.3094208402
 20
4.3668371221
 11
9.3158274808
 21
4.3582949306
  0
LINE
  5
484
100
AcDbEntity
  8
03__ASM_ALL_CURVES
100
AcDbLine
 62
40
  6
CONTINUOUS
 10
9.0595618558
 20
4.2728730576
 11
9.0595618558
 21
4.3753793076
  0
LINE
  5
485
100
AcDbEntity
  8
03__ASM_ALL_CURVES
100
AcDbLine
 62
40
  6
CONTINUOUS
 10
9.1108149808
 20
4.3582949306
 11
9.1108149808
 21
4.3412105596
  0
LINE
  5
486
100
AcDbEntity
  8
03__ASM_ALL_CURVES
100
AcDbLine
 62
40
  6
CONTINUOUS
 10
9.1492548245
 20
4.3241261826
 11
9.1556614652
 21
4.3497527451
  0
LINE
  5
487
100
AcDbEntity
  8
03__ASM_ALL_CURVES
100
AcDbLine
 62
40
  6
CONTINUOUS
 10
9.226134512
 20
4.3241261826
 11
9.2197278714
 21
4.2984996201
  0
LINE
  5
488
100
AcDbEntity
  8
03__ASM_ALL_CURVES
100
AcDbLine
 62
40
  6
CONTINUOUS
 10
9.2966075589
 20
4.3241261826
 11
9.3158274808
 21
4.2728730576
  0
LINE
  5
489
100
AcDbEntity
  8
03__ASM_ALL_CURVES
100
AcDbLine
 62
40
  6
CONTINUOUS
 10
9.1556614652
 20
4.2984996201
 11
9.1492548245
 21
4.3241261826
  0
LINE
  5
48A
100
AcDbEntity
  8
03__ASM_ALL_CURVES
100
AcDbLine
 62
40
  6
CONTINUOUS
 10
9.2197278714
 20
4.3497527451
 11
9.226134512
 21
4.3241261826
  0
LINE
  5
48B
100
AcDbEntity
  8
03__ASM_ALL_CURVES
100
AcDbLine
 62
40
  6
CONTINUOUS
 10
9.2645743558
 20
4.2728730576
 11
9.2645743558
 21
4.3753793076
  0
LINE
  5
48C
100
AcDbEntity
  8
03__ASM_ALL_CURVES
100
AcDbLine
 62
40
  6
CONTINUOUS
 10
9.3158274808
 20
4.3582949306
 11
9.3158274808
 21
4.3412105596
  0
LINE
  5
48D
100
AcDbEntity
  8
03__ASM_ALL_CURVES
100
AcDbLine
 62
40
  6
CONTINUOUS
 10
9.3927071683
 20
4.3753793076
 11
9.3927071683
 21
4.2728730576
  0
LINE
  5
48E
100
AcDbEntity
  8
03__ASM_ALL_CURVES
100
AcDbLine
 62
40
  6
CONTINUOUS
 10
9.4952134183
 20
4.3753793076
 11
9.4952134183
 21
4.2728730576
  0
CIRCLE
  5
48F
100
AcDbEntity
  8
0
100
AcDbCircle
 62
7
  6
CONTINUOUS
 10
5.7895618558
 20
4.2455380576
 40
0.117
  0
ARC
  5
490
100
AcDbEntity
  8
0
100
AcDbCircle
 62
7
  6
CONTINUOUS
 10
5.0065618558
 20
3.6375380576
 40
0.047
100
AcDbArc
 50
0.0000291086
 51
90.0
  0
ARC
  5
491
100
AcDbEntity
  8
0
100
AcDbCircle
 62
7
  6
CONTINUOUS
 10
5.0065618558
 20
4.8535380576
 40
0.047
100
AcDbArc
 50
270.0
 51
359.9999708914
  0
ARC
  5
492
100
AcDbEntity
  8
0
100
AcDbCircle
 62
7
  6
CONTINUOUS
 10
7.3225618558
 20
4.8365380576
 40
0.047
100
AcDbArc
 50
270.0
 51
359.9999713809
  0
ARC
  5
493
100
AcDbEntity
  8
0
100
AcDbCircle
 62
7
  6
CONTINUOUS
 10
7.3225618558
 20
3.6545380576
 40
0.047
100
AcDbArc
 50
0.0000286191
 51
90.0
  0
ARC
  5
494
100
AcDbEntity
  8
0
100
AcDbCircle
 62
7
  6
CONTINUOUS
 10
6.6680618558
 20
4.8365380576
 40
0.047
100
AcDbArc
 50
180.0000013301
 51
270.0
  0
ARC
  5
495
100
AcDbEntity
  8
0
100
AcDbCircle
 62
7
  6
CONTINUOUS
 10
6.6680618558
 20
3.6545380576
 40
0.047
100
AcDbArc
 50
90.0
 51
179.9999986699
  0
ARC
  5
496
100
AcDbEntity
  8
0
100
AcDbCircle
 62
7
  6
CONTINUOUS
 10
6.1565618558
 20
4.8365380576
 40
0.047
100
AcDbArc
 50
270.0
 51
359.9999713809
  0
ARC
  5
497
100
AcDbEntity
  8
0
100
AcDbCircle
 62
7
  6
CONTINUOUS
 10
6.1565618558
 20
3.6545380576
 40
0.047
100
AcDbArc
 50
0.0000286191
 51
90.0
  0
ARC
  5
498
100
AcDbEntity
  8
0
100
AcDbCircle
 62
7
  6
CONTINUOUS
 10
5.5185618558
 20
4.8365380576
 40
0.047
100
AcDbArc
 50
180.0000013301
 51
270.0
  0
ARC
  5
499
100
AcDbEntity
  8
0
100
AcDbCircle
 62
7
  6
CONTINUOUS
 10
5.5185618558
 20
3.6545380576
 40
0.047
100
AcDbArc
 50
90.0
 51
179.9999986699
  0
ARC
  5
49A
100
AcDbEntity
  8
0
100
AcDbCircle
 62
7
  6
CONTINUOUS
 10
3.5019258275
 20
3.5875380576
 40
0.028
100
AcDbArc
 50
9.2483579724
 51
74.1657121693
  0
ARC
  5
49B
100
AcDbEntity
  8
0
100
AcDbCircle
 62
7
  6
CONTINUOUS
 10
3.5019258275
 20
4.9035380576
 40
0.028
100
AcDbArc
 50
285.8342878307
 51
350.7516420276
  0
ARC
  5
49C
100
AcDbEntity
  8
0
100
AcDbCircle
 62
7
  6
CONTINUOUS
 10
7.6825618558
 20
4.7730380576
 40
0.015
100
AcDbArc
 50
270.0
 51
359.9999805723
  0
ARC
  5
49D
100
AcDbEntity
  8
0
100
AcDbCircle
 62
7
  6
CONTINUOUS
 10
7.6825618558
 20
3.7180380576
 40
0.015
100
AcDbArc
 50
0.0000194277
 51
90.0
  0
ARC
  5
49E
100
AcDbEntity
  8
0
100
AcDbCircle
 62
7
  6
CONTINUOUS
 10
6.5165618558
 20
4.7965380576
 40
0.015
100
AcDbArc
 50
270.0
 51
359.9999814423
  0
ARC
  5
49F
100
AcDbEntity
  8
0
100
AcDbCircle
 62
7
  6
CONTINUOUS
 10
6.5165618558
 20
3.6945380576
 40
0.015
100
AcDbArc
 50
0.0000185577
 51
90.0
  0
ARC
  5
4A0
100
AcDbEntity
  8
0
100
AcDbCircle
 62
7
  6
CONTINUOUS
 10
5.3665618558
 20
4.8195380576
 40
0.015
100
AcDbArc
 50
270.0
 51
359.9999826812
  0
ARC
  5
4A1
100
AcDbEntity
  8
0
100
AcDbCircle
 62
7
  6
CONTINUOUS
 10
5.3665618558
 20
3.6715380576
 40
0.015
100
AcDbArc
 50
0.0000173188
 51
90.0
  0
ARC
  5
4A2
100
AcDbEntity
  8
0
100
AcDbCircle
 62
7
  6
CONTINUOUS
 10
7.9135618558
 20
3.8465880576
 40
0.007
100
AcDbArc
 50
90.0
 51
180.0
  0
ARC
  5
4A3
100
AcDbEntity
  8
0
100
AcDbCircle
 62
7
  6
CONTINUOUS
 10
7.9235618558
 20
3.8465880576
 40
0.007
100
AcDbArc
 50
0.0
 51
90.0
  0
ARC
  5
4A4
100
AcDbEntity
  8
0
100
AcDbCircle
 62
7
  6
CONTINUOUS
 10
7.9135618558
 20
4.6444880576
 40
0.007
100
AcDbArc
 50
180.0
 51
270.0
  0
ARC
  5
4A5
100
AcDbEntity
  8
0
100
AcDbCircle
 62
7
  6
CONTINUOUS
 10
7.9235618558
 20
4.6444880576
 40
0.007
100
AcDbArc
 50
270.0
 51
360.0
  0
ARC
  5
4A6
100
AcDbEntity
  8
0
100
AcDbCircle
 62
7
  6
CONTINUOUS
 10
7.8435618558
 20
3.8465880576
 40
0.007
100
AcDbArc
 50
90.0
 51
180.0
  0
ARC
  5
4A7
100
AcDbEntity
  8
0
100
AcDbCircle
 62
7
  6
CONTINUOUS
 10
7.8535618558
 20
3.8465880576
 40
0.007
100
AcDbArc
 50
0.0
 51
90.0
  0
ARC
  5
4A8
100
AcDbEntity
  8
0
100
AcDbCircle
 62
7
  6
CONTINUOUS
 10
7.8435618558
 20
4.6444880576
 40
0.007
100
AcDbArc
 50
180.0
 51
270.0
  0
ARC
  5
4A9
100
AcDbEntity
  8
0
100
AcDbCircle
 62
7
  6
CONTINUOUS
 10
7.8535618558
 20
4.6444880576
 40
0.007
100
AcDbArc
 50
270.0
 51
360.0
  0
SPLINE
  5
4AA
100
AcDbEntity
  8
0
100
AcDbSpline
 62
7
  6
CONTINUOUS
 70
0
 71
3
 72
15
 73
11
 74
9
 42
0.0000001
 43
0.0000001
 44
0.0000000001
 12
0.0
 22
0.1617702498
 32
0.0
 13
0.0
 23
-0.1617702498
 33
0.0
 40
0.0
 40
0.0
 40
0.0
 40
0.0
 40
0.125
 40
0.25
 40
0.375
 40
0.5
 40
0.625
 40
0.75
 40
0.875
 40
1.0
 40
1.0
 40
1.0
 40
1.0
 10
7.6125618558
 20
4.8095380576
 30
0.0
 10
7.6125618558
 20
4.8162784847
 30
0.0
 10
7.6098803472
 20
4.8297593388
 30
0.0
 10
7.5984259115
 20
4.8469021133
 30
0.0
 10
7.5812831371
 20
4.858356549
 30
0.0
 10
7.5610618558
 20
4.8623788119
 30
0.0
 10
7.5408405746
 20
4.858356549
 30
0.0
 10
7.5236978001
 20
4.8469021133
 30
0.0
 10
7.5122433644
 20
4.8297593388
 30
0.0
 10
7.5095618558
 20
4.8162784847
 30
0.0
 10
7.5095618558
 20
4.8095380576
 30
0.0
 11
7.6125618558
 21
4.8095380576
 31
0.0
 11
7.6086416518
 21
4.8292462544
 31
0.0
 11
7.5974778551
 21
4.8459540568
 31
0.0
 11
7.5807700526
 21
4.8571178535
 31
0.0
 11
7.5610618558
 21
4.8610380576
 31
0.0
 11
7.5413536591
 21
4.8571178535
 31
0.0
 11
7.5246458566
 21
4.8459540568
 31
0.0
 11
7.5134820599
 21
4.8292462544
 31
0.0
 11
7.5095618558
 21
4.8095380576
 31
0.0
  0
SPLINE
  5
4AB
100
AcDbEntity
  8
0
100
AcDbSpline
 62
7
  6
CONTINUOUS
 70
0
 71
3
 72
15
 73
11
 74
9
 42
0.0000001
 43
0.0000001
 44
0.0000000001
 12
0.0
 22
-0.1617702498
 32
0.0
 13
0.0
 23
0.1617702498
 33
0.0
 40
0.0
 40
0.0
 40
0.0
 40
0.0
 40
0.125
 40
0.25
 40
0.375
 40
0.5
 40
0.625
 40
0.75
 40
0.875
 40
1.0
 40
1.0
 40
1.0
 40
1.0
 10
7.6125618558
 20
3.6815380576
 30
0.0
 10
7.6125618558
 20
3.6747976305
 30
0.0
 10
7.6098803472
 20
3.6613167764
 30
0.0
 10
7.5984259115
 20
3.6441740019
 30
0.0
 10
7.5812831371
 20
3.6327195662
 30
0.0
 10
7.5610618558
 20
3.6286973033
 30
0.0
 10
7.5408405746
 20
3.6327195662
 30
0.0
 10
7.5236978001
 20
3.6441740019
 30
0.0
 10
7.5122433644
 20
3.6613167764
 30
0.0
 10
7.5095618558
 20
3.6747976305
 30
0.0
 10
7.5095618558
 20
3.6815380576
 30
0.0
 11
7.6125618558
 21
3.6815380576
 31
0.0
 11
7.6086416518
 21
3.6618298608
 31
0.0
 11
7.5974778551
 21
3.6451220584
 31
0.0
 11
7.5807700526
 21
3.6339582617
 31
0.0
 11
7.5610618558
 21
3.6300380576
 31
0.0
 11
7.5413536591
 21
3.6339582617
 31
0.0
 11
7.5246458566
 21
3.6451220584
 31
0.0
 11
7.5134820599
 21
3.6618298608
 31
0.0
 11
7.5095618558
 21
3.6815380576
 31
0.0
  0
SPLINE
  5
4AC
100
AcDbEntity
  8
0
100
AcDbSpline
 62
7
  6
CONTINUOUS
 70
0
 71
3
 72
15
 73
11
 74
9
 42
0.0000001
 43
0.0000001
 44
0.0000000001
 12
0.0
 22
0.1617702498
 32
0.0
 13
0.0
 23
-0.1617702498
 33
0.0
 40
0.0
 40
0.0
 40
0.0
 40
0.0
 40
0.125
 40
0.25
 40
0.375
 40
0.5
 40
0.625
 40
0.75
 40
0.875
 40
1.0
 40
1.0
 40
1.0
 40
1.0
 10
6.4465618558
 20
4.8560380576
 30
0.0
 10
6.4465618558
 20
4.8627784847
 30
0.0
 10
6.4438803472
 20
4.8762593388
 30
0.0
 10
6.4324259115
 20
4.8934021133
 30
0.0
 10
6.4152831371
 20
4.904856549
 30
0.0
 10
6.3950618558
 20
4.9088788119
 30
0.0
 10
6.3748405746
 20
4.904856549
 30
0.0
 10
6.3576978001
 20
4.8934021133
 30
0.0
 10
6.3462433644
 20
4.8762593388
 30
0.0
 10
6.3435618558
 20
4.8627784847
 30
0.0
 10
6.3435618558
 20
4.8560380576
 30
0.0
 11
6.4465618558
 21
4.8560380576
 31
0.0
 11
6.4426416518
 21
4.8757462544
 31
0.0
 11
6.4314778551
 21
4.8924540568
 31
0.0
 11
6.4147700526
 21
4.9036178535
 31
0.0
 11
6.3950618558
 21
4.9075380576
 31
0.0
 11
6.3753536591
 21
4.9036178535
 31
0.0
 11
6.3586458566
 21
4.8924540568
 31
0.0
 11
6.3474820599
 21
4.8757462544
 31
0.0
 11
6.3435618558
 21
4.8560380576
 31
0.0
  0
SPLINE
  5
4AD
100
AcDbEntity
  8
0
100
AcDbSpline
 62
7
  6
CONTINUOUS
 70
0
 71
3
 72
15
 73
11
 74
9
 42
0.0000001
 43
0.0000001
 44
0.0000000001
 12
0.0
 22
-0.1617702498
 32
0.0
 13
0.0
 23
0.1617702498
 33
0.0
 40
0.0
 40
0.0
 40
0.0
 40
0.0
 40
0.125
 40
0.25
 40
0.375
 40
0.5
 40
0.625
 40
0.75
 40
0.875
 40
1.0
 40
1.0
 40
1.0
 40
1.0
 10
6.4465618558
 20
3.6350380576
 30
0.0
 10
6.4465618558
 20
3.6282976305
 30
0.0
 10
6.4438803472
 20
3.6148167764
 30
0.0
 10
6.4324259115
 20
3.5976740019
 30
0.0
 10
6.4152831371
 20
3.5862195662
 30
0.0
 10
6.3950618558
 20
3.5821973033
 30
0.0
 10
6.3748405746
 20
3.5862195662
 30
0.0
 10
6.3576978001
 20
3.5976740019
 30
0.0
 10
6.3462433644
 20
3.6148167764
 30
0.0
 10
6.3435618558
 20
3.6282976305
 30
0.0
 10
6.3435618558
 20
3.6350380576
 30
0.0
 11
6.4465618558
 21
3.6350380576
 31
0.0
 11
6.4426416518
 21
3.6153298608
 31
0.0
 11
6.4314778551
 21
3.5986220584
 31
0.0
 11
6.4147700526
 21
3.5874582617
 31
0.0
 11
6.3950618558
 21
3.5835380576
 31
0.0
 11
6.3753536591
 21
3.5874582617
 31
0.0
 11
6.3586458566
 21
3.5986220584
 31
0.0
 11
6.3474820599
 21
3.6153298608
 31
0.0
 11
6.3435618558
 21
3.6350380576
 31
0.0
  0
SPLINE
  5
4AE
100
AcDbEntity
  8
0
100
AcDbSpline
 62
7
  6
CONTINUOUS
 70
0
 71
3
 72
15
 73
11
 74
9
 42
0.0000001
 43
0.0000001
 44
0.0000000001
 12
0.0
 22
0.1617702498
 32
0.0
 13
0.0
 23
-0.1617702498
 33
0.0
 40
0.0
 40
0.0
 40
0.0
 40
0.0
 40
0.125
 40
0.25
 40
0.375
 40
0.5
 40
0.625
 40
0.75
 40
0.875
 40
1.0
 40
1.0
 40
1.0
 40
1.0
 10
5.2965618558
 20
4.8560380576
 30
0.0
 10
5.2965618558
 20
4.8627784847
 30
0.0
 10
5.2938803472
 20
4.8762593388
 30
0.0
 10
5.2824259115
 20
4.8934021133
 30
0.0
 10
5.2652831371
 20
4.904856549
 30
0.0
 10
5.2450618558
 20
4.9088788119
 30
0.0
 10
5.2248405746
 20
4.904856549
 30
0.0
 10
5.2076978001
 20
4.8934021133
 30
0.0
 10
5.1962433644
 20
4.8762593388
 30
0.0
 10
5.1935618558
 20
4.8627784847
 30
0.0
 10
5.1935618558
 20
4.8560380576
 30
0.0
 11
5.2965618558
 21
4.8560380576
 31
0.0
 11
5.2926416518
 21
4.8757462544
 31
0.0
 11
5.2814778551
 21
4.8924540568
 31
0.0
 11
5.2647700526
 21
4.9036178535
 31
0.0
 11
5.2450618558
 21
4.9075380576
 31
0.0
 11
5.2253536591
 21
4.9036178535
 31
0.0
 11
5.2086458566
 21
4.8924540568
 31
0.0
 11
5.1974820599
 21
4.8757462544
 31
0.0
 11
5.1935618558
 21
4.8560380576
 31
0.0
  0
SPLINE
  5
4AF
100
AcDbEntity
  8
0
100
AcDbSpline
 62
7
  6
CONTINUOUS
 70
0
 71
3
 72
15
 73
11
 74
9
 42
0.0000001
 43
0.0000001
 44
0.0000000001
 12
0.0
 22
-0.1617702498
 32
0.0
 13
0.0
 23
0.1617702498
 33
0.0
 40
0.0
 40
0.0
 40
0.0
 40
0.0
 40
0.125
 40
0.25
 40
0.375
 40
0.5
 40
0.625
 40
0.75
 40
0.875
 40
1.0
 40
1.0
 40
1.0
 40
1.0
 10
5.2965618558
 20
3.6350380576
 30
0.0
 10
5.2965618558
 20
3.6282976305
 30
0.0
 10
5.2938803472
 20
3.6148167764
 30
0.0
 10
5.2824259115
 20
3.5976740019
 30
0.0
 10
5.2652831371
 20
3.5862195662
 30
0.0
 10
5.2450618558
 20
3.5821973033
 30
0.0
 10
5.2248405746
 20
3.5862195662
 30
0.0
 10
5.2076978001
 20
3.5976740019
 30
0.0
 10
5.1962433644
 20
3.6148167764
 30
0.0
 10
5.1935618558
 20
3.6282976305
 30
0.0
 10
5.1935618558
 20
3.6350380576
 30
0.0
 11
5.2965618558
 21
3.6350380576
 31
0.0
 11
5.2926416518
 21
3.6153298608
 31
0.0
 11
5.2814778551
 21
3.5986220584
 31
0.0
 11
5.2647700526
 21
3.5874582617
 31
0.0
 11
5.2450618558
 21
3.5835380576
 31
0.0
 11
5.2253536591
 21
3.5874582617
 31
0.0
 11
5.2086458566
 21
3.5986220584
 31
0.0
 11
5.1974820599
 21
3.6153298608
 31
0.0
 11
5.1935618558
 21
3.6350380576
 31
0.0
  0
SPLINE
  5
4B0
100
AcDbEntity
  8
0
100
AcDbSpline
 62
7
  6
CONTINUOUS
 70
0
 71
3
 72
15
 73
11
 74
9
 42
0.0000001
 43
0.0000001
 44
0.0000000001
 12
0.0
 22
0.1617702498
 32
0.0
 13
0.0
 23
-0.1617702498
 33
0.0
 40
0.0
 40
0.0
 40
0.0
 40
0.0
 40
0.125
 40
0.25
 40
0.375
 40
0.5
 40
0.625
 40
0.75
 40
0.875
 40
1.0
 40
1.0
 40
1.0
 40
1.0
 10
3.4595618558
 20
4.9270380576
 30
0.0
 10
3.4595618558
 20
4.9337784847
 30
0.0
 10
3.4568803472
 20
4.9472593388
 30
0.0
 10
3.4454259115
 20
4.9644021133
 30
0.0
 10
3.4282831371
 20
4.975856549
 30
0.0
 10
3.4080618558
 20
4.9798788119
 30
0.0
 10
3.3878405746
 20
4.975856549
 30
0.0
 10
3.3706978001
 20
4.9644021133
 30
0.0
 10
3.3592433644
 20
4.9472593388
 30
0.0
 10
3.3565618558
 20
4.9337784847
 30
0.0
 10
3.3565618558
 20
4.9270380576
 30
0.0
 11
3.4595618558
 21
4.9270380576
 31
0.0
 11
3.4556416518
 21
4.9467462544
 31
0.0
 11
3.4444778551
 21
4.9634540568
 31
0.0
 11
3.4277700526
 21
4.9746178535
 31
0.0
 11
3.4080618558
 21
4.9785380576
 31
0.0
 11
3.3883536591
 21
4.9746178535
 31
0.0
 11
3.3716458566
 21
4.9634540568
 31
0.0
 11
3.3604820599
 21
4.9467462544
 31
0.0
 11
3.3565618558
 21
4.9270380576
 31
0.0
  0
SPLINE
  5
4B1
100
AcDbEntity
  8
0
100
AcDbSpline
 62
7
  6
CONTINUOUS
 70
0
 71
3
 72
15
 73
11
 74
9
 42
0.0000001
 43
0.0000001
 44
0.0000000001
 12
0.0
 22
-0.1617702498
 32
0.0
 13
0.0
 23
0.1617702498
 33
0.0
 40
0.0
 40
0.0
 40
0.0
 40
0.0
 40
0.125
 40
0.25
 40
0.375
 40
0.5
 40
0.625
 40
0.75
 40
0.875
 40
1.0
 40
1.0
 40
1.0
 40
1.0
 10
3.4595618558
 20
3.5640380576
 30
0.0
 10
3.4595618558
 20
3.5572976305
 30
0.0
 10
3.4568803472
 20
3.5438167764
 30
0.0
 10
3.4454259115
 20
3.5266740019
 30
0.0
 10
3.4282831371
 20
3.5152195662
 30
0.0
 10
3.4080618558
 20
3.5111973033
 30
0.0
 10
3.3878405746
 20
3.5152195662
 30
0.0
 10
3.3706978001
 20
3.5266740019
 30
0.0
 10
3.3592433644
 20
3.5438167764
 30
0.0
 10
3.3565618558
 20
3.5572976305
 30
0.0
 10
3.3565618558
 20
3.5640380576
 30
0.0
 11
3.4595618558
 21
3.5640380576
 31
0.0
 11
3.4556416518
 21
3.5443298608
 31
0.0
 11
3.4444778551
 21
3.5276220584
 31
0.0
 11
3.4277700526
 21
3.5164582617
 31
0.0
 11
3.4080618558
 21
3.5125380576
 31
0.0
 11
3.3883536591
 21
3.5164582617
 31
0.0
 11
3.3716458566
 21
3.5276220584
 31
0.0
 11
3.3604820599
 21
3.5443298608
 31
0.0
 11
3.3565618558
 21
3.5640380576
 31
0.0
  0
SPLINE
  5
4B2
100
AcDbEntity
  8
0
100
AcDbSpline
 62
7
  6
CONTINUOUS
 70
0
 71
3
 72
15
 73
11
 74
9
 42
0.0000001
 43
0.0000001
 44
0.0000000001
 12
-0.1684866262
 22
0.3090653096
 32
0.0
 13
0.1684866262
 23
0.3090653096
 33
0.0
 40
0.0
 40
0.0
 40
0.0
 40
0.0
 40
0.1361861867
 40
0.2623602305
 40
0.3825822181
 40
0.50004626
 40
0.6175064396
 40
0.737718306
 40
0.8638418781
 40
1.0
 40
1.0
 40
1.0
 40
1.0
 10
2.3919460298
 20
3.5368990587
 30
0.0
 10
2.3842975127
 20
3.5509292007
 30
0.0
 10
2.3706519205
 20
3.5785837597
 30
0.0
 10
2.355131123
 20
3.6208109597
 30
0.0
 10
2.345613168
 20
3.6625703358
 30
0.0
 10
2.3423867663
 20
3.7042789914
 30
0.0
 10
2.3456179947
 20
3.7459860485
 30
0.0
 10
2.3551382464
 20
3.7877370629
 30
0.0
 10
2.3706573625
 20
3.8299536527
 30
0.0
 10
2.3842990889
 20
3.8575998058
 30
0.0
 10
2.3919460298
 20
3.8716270565
 30
0.0
 11
2.3919460298
 21
3.5368990587
 31
0.0
 11
2.3709400602
 21
3.5799902587
 31
0.0
 11
2.3558207169
 21
3.6217517811
 31
0.0
 11
2.3465792427
 21
3.6630494074
 31
0.0
 11
2.3434546894
 21
3.7042793772
 31
0.0
 11
2.3465839128
 21
3.7455076293
 31
0.0
 11
2.3558285482
 21
3.7868008972
 31
0.0
 11
2.3709439423
 21
3.8285449544
 31
0.0
 11
2.3919460298
 21
3.8716270565
 31
0.0
  0
SPLINE
  5
4B3
100
AcDbEntity
  8
0
100
AcDbSpline
 62
7
  6
CONTINUOUS
 70
0
 71
3
 72
15
 73
11
 74
9
 42
0.0000001
 43
0.0000001
 44
0.0000000001
 12
-0.1783968506
 22
0.654488479
 32
0.0
 13
0.1783968506
 23
0.654488479
 33
0.0
 40
0.0
 40
0.0
 40
0.0
 40
0.0
 40
0.1307633826
 40
0.2558882418
 40
0.378404165
 40
0.500048086
 40
0.6216872073
 40
0.7441908788
 40
0.8692640326
 40
1.0
 40
1.0
 40
1.0
 40
1.0
 10
2.3919460298
 20
3.9108100598
 30
0.0
 10
2.3841701046
 20
3.939337769
 30
0.0
 10
2.3703547108
 20
3.9955622404
 30
0.0
 10
2.3549633265
 20
4.0797895913
 30
0.0
 10
2.3455708357
 20
4.1628352206
 30
0.0
 10
2.3423991944
 20
4.2455696442
 30
0.0
 10
2.3455755912
 20
4.3283010983
 30
0.0
 10
2.354970453
 20
4.4113307765
 30
0.0
 10
2.3703603211
 20
4.4955373248
 30
0.0
 10
2.3841717348
 20
4.5517443272
 30
0.0
 10
2.3919460298
 20
4.5802660554
 30
0.0
 11
2.3919460298
 21
3.9108100598
 31
0.0
 11
2.3709400602
 21
3.9969924597
 31
0.0
 11
2.3558207169
 21
4.0805155046
 31
0.0
 11
2.3465792427
 21
4.1631107571
 31
0.0
 11
2.3434546894
 21
4.2455706968
 31
0.0
 11
2.3465839128
 21
4.3280272011
 31
0.0
 11
2.3558285482
 21
4.4106137367
 31
0.0
 11
2.3709439423
 21
4.4941018512
 31
0.0
 11
2.3919460298
 21
4.5802660554
 31
0.0
  0
SPLINE
  5
4B4
100
AcDbEntity
  8
0
100
AcDbSpline
 62
7
  6
CONTINUOUS
 70
0
 71
3
 72
15
 73
11
 74
9
 42
0.0000001
 43
0.0000001
 44
0.0000000001
 12
-0.1684866262
 22
0.3090653096
 32
0.0
 13
0.1684866262
 23
0.3090653096
 33
0.0
 40
0.0
 40
0.0
 40
0.0
 40
0.0
 40
0.1361861867
 40
0.2623602305
 40
0.3825822181
 40
0.50004626
 40
0.6175064396
 40
0.737718306
 40
0.8638418781
 40
1.0
 40
1.0
 40
1.0
 40
1.0
 10
2.3919460298
 20
4.6194490587
 30
0.0
 10
2.3842975127
 20
4.6334792007
 30
0.0
 10
2.3706519205
 20
4.6611337597
 30
0.0
 10
2.355131123
 20
4.7033609597
 30
0.0
 10
2.345613168
 20
4.7451203358
 30
0.0
 10
2.3423867663
 20
4.7868289914
 30
0.0
 10
2.3456179947
 20
4.8285360485
 30
0.0
 10
2.3551382464
 20
4.8702870629
 30
0.0
 10
2.3706573625
 20
4.9125036527
 30
0.0
 10
2.3842990889
 20
4.9401498058
 30
0.0
 10
2.3919460298
 20
4.9541770565
 30
0.0
 11
2.3919460298
 21
4.6194490587
 31
0.0
 11
2.3709400602
 21
4.6625402587
 31
0.0
 11
2.3558207169
 21
4.7043017811
 31
0.0
 11
2.3465792427
 21
4.7455994074
 31
0.0
 11
2.3434546894
 21
4.7868293772
 31
0.0
 11
2.3465839128
 21
4.8280576293
 31
0.0
 11
2.3558285482
 21
4.8693508972
 31
0.0
 11
2.3709439423
 21
4.9110949544
 31
0.0
 11
2.3919460298
 21
4.9541770565
 31
0.0
  0
SPLINE
  5
4B5
100
AcDbEntity
  8
0
100
AcDbSpline
 62
7
  6
CONTINUOUS
 70
0
 71
3
 72
10
 73
6
 74
4
 42
0.0000001
 43
0.0000001
 44
0.0000000001
 12
-0.0169055357
 22
-0.0193434181
 32
0.0
 13
-0.000005424
 23
-0.0257436546
 33
0.0
 40
0.0
 40
0.0
 40
0.0
 40
0.0
 40
0.2215593397
 40
0.7461932917
 40
1.0
 40
1.0
 40
1.0
 40
1.0
 10
4.5027425109
 20
4.0659958192
 30
0.0
 10
4.5014939845
 20
4.0645672476
 30
0.0
 10
4.4976274846
 20
4.0594612812
 30
0.0
 10
4.4942360169
 20
4.0514235522
 30
0.0
 10
4.493567476
 20
4.0447410312
 30
0.0
 10
4.4935670171
 20
4.0425630604
 30
0.0
 11
4.5027425109
 21
4.0659958192
 31
0.0
 11
4.4993156726
 21
4.0614565094
 31
0.0
 11
4.4942130075
 21
4.0490533904
 31
0.0
 11
4.4935670171
 21
4.0425630604
 31
0.0
  0
SPLINE
  5
4B6
100
AcDbEntity
  8
0
100
AcDbSpline
 62
7
  6
CONTINUOUS
 70
0
 71
3
 72
9
 73
5
 74
3
 42
0.0000001
 43
0.0000001
 44
0.0000000001
 12
-0.0225358038
 22
0.0
 32
0.0
 13
-0.0219642653
 23
-0.0052570426
 33
0.0
 40
0.0
 40
0.0
 40
0.0
 40
0.0
 40
0.8585073048
 40
1.0
 40
1.0
 40
1.0
 40
1.0
 10
4.4725618558
 20
3.9294166938
 30
0.0
 10
4.4661128051
 20
3.9294166938
 30
0.0
 10
4.4585787459
 20
3.9286793133
 30
0.0
 10
4.451225719
 20
3.9270556282
 30
0.0
 10
4.4501897913
 20
3.9268076838
 30
0.0
 11
4.4725618558
 21
3.9294166938
 31
0.0
 11
4.4533101425
 21
3.9274973634
 31
0.0
 11
4.4501897913
 21
3.9268076838
 31
0.0
  0
SPLINE
  5
4B7
100
AcDbEntity
  8
0
100
AcDbSpline
 62
7
  6
CONTINUOUS
 70
0
 71
3
 72
10
 73
6
 74
4
 42
0.0000001
 43
0.0000001
 44
0.0000000001
 12
-0.0177821695
 22
-0.0195895222
 32
0.0
 13
-0.0000055857
 23
-0.026511064
 33
0.0
 40
0.0
 40
0.0
 40
0.0
 40
0.0
 40
0.2440926746
 40
0.7535401736
 40
1.0
 40
1.0
 40
1.0
 40
1.0
 10
7.1647518741
 20
4.0665676669
 30
0.0
 10
7.1633050417
 20
4.0649737807
 30
0.0
 10
7.1592285831
 20
4.0597008831
 30
0.0
 10
7.1557360169
 20
4.0514235522
 30
0.0
 10
7.155067476
 20
4.0447410312
 30
0.0
 10
7.1550670171
 20
4.0425630604
 30
0.0
 11
7.1647518741
 21
4.0665676669
 31
0.0
 11
7.1608156726
 21
4.0614565094
 31
0.0
 11
7.1557130075
 21
4.0490533904
 31
0.0
 11
7.1550670171
 21
4.0425630604
 31
0.0
  0
SPLINE
  5
4B8
100
AcDbEntity
  8
0
100
AcDbSpline
 62
7
  6
CONTINUOUS
 70
0
 71
3
 72
9
 73
5
 74
3
 42
0.0000001
 43
0.0000001
 44
0.0000000001
 12
-0.022529792
 22
0.0
 32
0.0
 13
-0.0219587634
 23
-0.0052541852
 33
0.0
 40
0.0
 40
0.0
 40
0.0
 40
0.0
 40
0.8587363851
 40
1.0
 40
1.0
 40
1.0
 40
1.0
 10
7.1340618558
 20
3.9294166938
 30
0.0
 10
7.1276128051
 20
3.9294166938
 30
0.0
 10
7.1200807557
 20
3.92867951
 30
0.0
 10
7.112729642
 20
3.9270564944
 30
0.0
 10
7.1116956506
 20
3.926809086
 30
0.0
 11
7.1340618558
 21
3.9294166938
 31
0.0
 11
7.1148101425
 21
3.9274973634
 31
0.0
 11
7.1116956506
 21
3.926809086
 31
0.0
  0
SPLINE
  5
4B9
100
AcDbEntity
  8
0
100
AcDbSpline
 62
7
  6
CONTINUOUS
 70
0
 71
3
 72
8
 73
4
 74
2
 42
0.0000001
 43
0.0000001
 44
0.0000000001
 12
0.0137704545
 22
0.0
 32
0.0
 13
0.0136633116
 23
0.001946037
 33
0.0
 40
0.0
 40
0.0
 40
0.0
 40
0.0
 40
1.0
 40
1.0
 40
1.0
 40
1.0
 10
4.4725618558
 20
4.5616594214
 30
0.0
 10
4.4771520073
 20
4.5616594214
 30
0.0
 10
4.4817517812
 20
4.5619801207
 30
0.0
 10
4.4863062184
 20
4.5626287997
 30
0.0
 11
4.4725618558
 21
4.5616594214
 31
0.0
 11
4.4863062184
 21
4.5626287997
 31
0.0
  0
SPLINE
  5
4BA
100
AcDbEntity
  8
0
100
AcDbSpline
 62
7
  6
CONTINUOUS
 70
0
 71
3
 72
9
 73
5
 74
3
 42
0.0000001
 43
0.0000001
 44
0.0000000001
 12
0.0219855951
 22
-0.0052681311
 32
0.0
 13
0.0225591207
 23
0.0
 33
0.0
 40
0.0
 40
0.0
 40
0.0
 40
0.0
 40
0.1424068613
 40
1.0
 40
1.0
 40
1.0
 40
1.0
 10
7.1116670689
 20
4.5642738726
 30
0.0
 10
7.1127107021
 20
4.5640237999
 30
0.0
 10
7.1200711533
 20
4.5623975423
 30
0.0
 10
7.1276130068
 20
4.5616594214
 30
0.0
 10
7.1340618558
 20
4.5616594214
 30
0.0
 11
7.1116670689
 21
4.5642738726
 31
0.0
 11
7.1148107384
 21
4.5635786306
 31
0.0
 11
7.1340618558
 21
4.5616594214
 31
0.0
  0
SPLINE
  5
4BB
100
AcDbEntity
  8
0
100
AcDbSpline
 62
7
  6
CONTINUOUS
 70
0
 71
3
 72
8
 73
4
 74
2
 42
0.0000001
 43
0.0000001
 44
0.0000000001
 12
0.0031922149
 22
0.0
 32
0.0
 13
0.0031932635
 23
0.000103676
 33
0.0
 40
0.0
 40
0.0
 40
0.0
 40
0.0
 40
1.0
 40
1.0
 40
1.0
 40
1.0
 10
7.1340618558
 20
4.5616594214
 30
0.0
 10
7.1351259275
 20
4.5616594214
 30
0.0
 10
7.1361905162
 20
4.5616766554
 30
0.0
 10
7.1372549374
 20
4.561711214
 30
0.0
 11
7.1340618558
 21
4.5616594214
 31
0.0
 11
7.1372549374
 21
4.561711214
 31
0.0
  0
SPLINE
  5
4BC
100
AcDbEntity
  8
0
100
AcDbSpline
 62
7
  6
CONTINUOUS
 70
0
 71
3
 72
8
 73
4
 74
2
 42
0.0000001
 43
0.0000001
 44
0.0000000001
 12
-0.0030956571
 22
0.0000974254
 32
0.0
 13
-0.0030946127
 23
0.0
 33
0.0
 40
0.0
 40
0.0
 40
0.0
 40
0.0
 40
1.0
 40
1.0
 40
1.0
 40
1.0
 10
7.1371573026
 20
3.9293680224
 30
0.0
 10
7.1361254169
 20
3.9294004976
 30
0.0
 10
7.1350933934
 20
3.9294166938
 30
0.0
 10
7.1340618558
 20
3.9294166938
 30
0.0
 11
7.1371573026
 21
3.9293680224
 31
0.0
 11
7.1340618558
 21
3.9294166938
 31
0.0
  0
SPLINE
  5
4BD
100
AcDbEntity
  8
0
100
AcDbSpline
 62
7
  6
CONTINUOUS
 70
0
 71
3
 72
10
 73
6
 74
4
 42
0.0000001
 43
0.0000001
 44
0.0000000001
 12
0.0000055876
 22
-0.0265116074
 32
0.0
 13
0.0177827998
 23
-0.0195896925
 33
0.0
 40
0.0
 40
0.0
 40
0.0
 40
0.0
 40
0.2464653139
 40
0.7559026923
 40
1.0
 40
1.0
 40
1.0
 40
1.0
 10
7.155067017
 20
4.448513057
 30
0.0
 10
7.155067476
 20
4.4463349931
 30
0.0
 10
7.1557360558
 20
4.4396523757
 30
0.0
 10
7.1592287576
 20
4.4313749035
 30
0.0
 10
7.1633053276
 20
4.426101977
 30
0.0
 10
7.1647522388
 20
4.4245080467
 30
0.0
 11
7.155067017
 21
4.448513057
 31
0.0
 11
7.1557130623
 21
4.4420224528
 31
0.0
 11
7.160815828
 21
4.4296193655
 31
0.0
 11
7.1647522388
 21
4.4245080467
 31
0.0
  0
SPLINE
  5
4BE
100
AcDbEntity
  8
0
100
AcDbSpline
 62
7
  6
CONTINUOUS
 70
0
 71
3
 72
9
 73
5
 74
3
 42
0.0000001
 43
0.0000001
 44
0.0000000001
 12
0.0219793623
 22
-0.0052648898
 32
0.0
 13
0.0225523089
 23
0.0
 33
0.0
 40
0.0
 40
0.0
 40
0.0
 40
0.0
 40
0.1421478296
 40
1.0
 40
1.0
 40
1.0
 40
1.0
 10
4.4501737076
 20
4.5642722821
 30
0.0
 10
4.4512151471
 20
4.5640228179
 30
0.0
 10
4.4585734306
 20
4.5623973194
 30
0.0
 10
4.4661130068
 20
4.5616594214
 30
0.0
 10
4.4725618558
 20
4.5616594214
 30
0.0
 11
4.4501737076
 21
4.5642722821
 31
0.0
 11
4.4533107384
 21
4.5635786306
 31
0.0
 11
4.4725618558
 21
4.5616594214
 31
0.0
  0
SPLINE
  5
4BF
100
AcDbEntity
  8
0
100
AcDbSpline
 62
7
  6
CONTINUOUS
 70
0
 71
3
 72
8
 73
4
 74
2
 42
0.0000001
 43
0.0000001
 44
0.0000000001
 12
-0.0136234985
 22
0.0019344192
 32
0.0
 13
-0.0137295198
 23
0.0
 33
0.0
 40
0.0
 40
0.0
 40
0.0
 40
0.0
 40
1.0
 40
1.0
 40
1.0
 40
1.0
 10
4.4862656004
 20
3.9284530916
 30
0.0
 10
4.4817244342
 20
3.929097898
 30
0.0
 10
4.4771383624
 20
3.9294166938
 30
0.0
 10
4.4725618558
 20
3.9294166938
 30
0.0
 11
4.4862656004
 21
3.9284530916
 31
0.0
 11
4.4725618558
 21
3.9294166938
 31
0.0
  0
SPLINE
  5
4C0
100
AcDbEntity
  8
0
100
AcDbSpline
 62
7
  6
CONTINUOUS
 70
0
 71
3
 72
10
 73
6
 74
4
 42
0.0000001
 43
0.0000001
 44
0.0000000001
 12
0.0000054265
 22
-0.0257471748
 32
0.0
 13
0.0169095316
 23
-0.019344605
 33
0.0
 40
0.0
 40
0.0
 40
0.0
 40
0.0
 40
0.2537828587
 40
0.7783454113
 40
1.0
 40
1.0
 40
1.0
 40
1.0
 10
4.493567017
 20
4.448513057
 30
0.0
 10
4.493567476
 20
4.4463349931
 30
0.0
 10
4.4942360558
 20
4.4396523757
 30
0.0
 10
4.4976280495
 20
4.4316135751
 30
0.0
 10
4.5014954644
 20
4.4265069245
 30
0.0
 10
4.5027448228
 20
4.425077651
 30
0.0
 11
4.493567017
 21
4.448513057
 31
0.0
 11
4.4942130623
 21
4.4420224528
 31
0.0
 11
4.499315828
 21
4.4296193655
 31
0.0
 11
4.5027448228
 21
4.425077651
 31
0.0
  0
SPLINE
  5
4C1
100
AcDbEntity
  8
0
100
AcDbSpline
 62
7
  6
CONTINUOUS
 70
0
 71
3
 72
9
 73
5
 74
3
 42
0.0000001
 43
0.0000001
 44
0.0000000001
 12
0.0274903633
 22
0.0163272808
 32
0.0
 13
0.0319734292
 23
0.0
 33
0.0
 40
0.0
 40
0.0
 40
0.0
 40
0.0
 40
0.5037618302
 40
1.0
 40
1.0
 40
1.0
 40
1.0
 10
5.7445618558
 20
3.9029159295
 30
0.0
 10
5.7491780544
 20
3.9056576165
 30
0.0
 10
5.7591054558
 20
3.9099144284
 30
0.0
 10
5.7698116293
 20
3.9113655722
 30
0.0
 10
5.7751004413
 20
3.9113655722
 30
0.0
 11
5.7445618558
 21
3.9029159295
 31
0.0
 11
5.7593777798
 21
3.909234444
 31
0.0
 11
5.7751004413
 21
3.9113655722
 31
0.0
  0
SPLINE
  5
4C2
100
AcDbEntity
  8
0
100
AcDbSpline
 62
7
  6
CONTINUOUS
 70
0
 71
3
 72
9
 73
5
 74
3
 42
0.0000001
 43
0.0000001
 44
0.0000000001
 12
0.0093278759
 22
0.0087825812
 32
0.0
 13
0.0110108011
 23
0.0065396168
 33
0.0
 40
0.0
 40
0.0
 40
0.0
 40
0.0
 40
0.4862726232
 40
1.0
 40
1.0
 40
1.0
 40
1.0
 10
5.7343642112
 20
3.8952004753
 30
0.0
 10
5.7358761748
 20
3.8966240515
 30
0.0
 10
5.7391330035
 20
3.8993950356
 30
0.0
 10
5.7426763392
 20
3.9017960695
 30
0.0
 10
5.7445618558
 20
3.9029159295
 30
0.0
 11
5.7343642112
 21
3.8952004753
 31
0.0
 11
5.7391113358
 21
3.8992314801
 31
0.0
 11
5.7445618558
 21
3.9029159295
 31
0.0
  0
SPLINE
  5
4C3
100
AcDbEntity
  8
0
100
AcDbSpline
 62
7
  6
CONTINUOUS
 70
0
 71
3
 72
9
 73
5
 74
3
 42
0.0000001
 43
0.0000001
 44
0.0000000001
 12
-0.0109663995
 22
0.0065132456
 32
0.0
 13
-0.0093108895
 23
0.0087534692
 33
0.0
 40
0.0
 40
0.0
 40
0.0
 40
0.0
 40
0.9358090642
 40
1.0
 40
1.0
 40
1.0
 40
1.0
 10
5.7445618558
 20
4.5881601859
 30
0.0
 10
5.7411410372
 20
4.590191904
 30
0.0
 10
5.7377126466
 20
4.5927663241
 30
0.0
 10
5.7345893473
 20
4.5956637659
 30
0.0
 10
5.7343901224
 20
4.5958510637
 30
0.0
 11
5.7445618558
 21
4.5881601859
 31
0.0
 11
5.7349915794
 21
4.5952931179
 31
0.0
 11
5.7343901224
 21
4.5958510637
 31
0.0
  0
SPLINE
  5
4C4
100
AcDbEntity
  8
0
100
AcDbSpline
 62
7
  6
CONTINUOUS
 70
0
 71
3
 72
10
 73
6
 74
4
 42
0.0000001
 43
0.0000001
 44
0.0000000001
 12
-0.032026696
 22
0.0
 32
0.0
 13
-0.0275361613
 23
0.0163544818
 33
0.0
 40
0.0
 40
0.0
 40
0.0
 40
0.0
 40
0.3263590795
 40
0.6636805281
 40
1.0
 40
1.0
 40
1.0
 40
1.0
 10
5.7751004417
 20
4.579710543
 30
0.0
 10
5.7716163741
 20
4.579710543
 30
0.0
 10
5.764515016
 20
4.5803428
 30
0.0
 10
5.7541703296
 20
4.5831902555
 30
0.0
 10
5.7476488382
 20
4.5863267424
 30
0.0
 10
5.7445618558
 20
4.5881601859
 30
0.0
 11
5.7751004417
 21
4.579710543
 31
0.0
 11
5.7646893295
 21
4.5806364426
 31
0.0
 11
5.7542720754
 21
4.5834985964
 31
0.0
 11
5.7445618558
 21
4.5881601859
 31
0.0
  0
SPLINE
  5
4C5
100
AcDbEntity
  8
0
100
AcDbSpline
 62
7
  6
CONTINUOUS
 70
0
 71
3
 72
8
 73
4
 74
2
 42
0.0000001
 43
0.0000001
 44
0.0000000001
 12
-0.0018781992
 22
-0.0001455612
 32
0.0
 13
-0.0018788626
 23
-0.000136836
 33
0.0
 40
0.0
 40
0.0
 40
0.0
 40
0.0
 40
1.0
 40
1.0
 40
1.0
 40
1.0
 10
8.5095618558
 20
4.6455380576
 30
0.0
 10
8.5089357894
 20
4.6454895372
 30
0.0
 10
8.5083096091
 20
4.6454424694
 30
0.0
 10
8.5076833216
 20
4.6453968574
 30
0.0
 11
8.5095618558
 21
4.6455380576
 31
0.0
 11
8.5076833216
 21
4.6453968574
 31
0.0
  0
SPLINE
  5
4C6
100
AcDbEntity
  8
0
100
AcDbSpline
 62
7
  6
CONTINUOUS
 70
0
 71
3
 72
14
 73
10
 74
8
 42
0.0000001
 43
0.0000001
 44
0.0000000001
 12
-0.0581438376
 22
-0.0042345672
 32
0.0
 13
-0.0581437917
 23
0.0042351984
 33
0.0
 40
0.0
 40
0.0
 40
0.0
 40
0.0
 40
0.0958693598
 40
0.2391976828
 40
0.4106802955
 40
0.5935688458
 40
0.7653658736
 40
0.9057707783
 40
1.0
 40
1.0
 40
1.0
 40
1.0
 10
8.5076833216
 20
4.6453968574
 30
0.0
 10
8.5058252507
 20
4.6452615356
 30
0.0
 10
8.5011869391
 20
4.6449558743
 30
0.0
 10
8.493215173
 20
4.6445689487
 30
0.0
 10
8.4835457487
 20
4.6443215311
 30
0.0
 10
8.4733197228
 20
4.6443247652
 30
0.0
 10
8.4637011426
 20
4.644577179
 30
0.0
 10
8.4558120611
 20
4.6449637345
 30
0.0
 10
8.4512622848
 20
4.6452641504
 30
0.0
 10
8.4494360034
 20
4.6453971769
 30
0.0
 11
8.5076833216
 21
4.6453968574
 31
0.0
 11
8.5021064532
 21
4.6450294193
 31
0.0
 11
8.4937605626
 21
4.6446245153
 31
0.0
 11
8.4837667932
 21
4.6443689633
 31
0.0
 11
8.473104818
 21
4.644372333
 31
0.0
 11
8.4630928945
 21
4.6446348989
 31
0.0
 11
8.454917416
 21
4.6450353161
 31
0.0
 11
8.4494360034
 21
4.6453971769
 31
0.0
  0
SPLINE
  5
4C7
100
AcDbEntity
  8
0
100
AcDbSpline
 62
7
  6
CONTINUOUS
 70
0
 71
3
 72
8
 73
4
 74
2
 42
0.0000001
 43
0.0000001
 44
0.0000000001
 12
-0.0018744745
 22
0.0001365369
 32
0.0
 13
-0.001873814
 23
0.0001452213
 33
0.0
 40
0.0
 40
0.0
 40
0.0
 40
0.0
 40
1.0
 40
1.0
 40
1.0
 40
1.0
 10
8.4494360034
 20
4.6453971769
 30
0.0
 10
8.4488111786
 20
4.6454426892
 30
0.0
 10
8.4481864605
 20
4.6454896505
 30
0.0
 10
8.4475618558
 20
4.6455380576
 30
0.0
 11
8.4494360034
 21
4.6453971769
 31
0.0
 11
8.4475618558
 21
4.6455380576
 31
0.0
  0
SPLINE
  5
4C8
100
AcDbEntity
  8
0
100
AcDbSpline
 62
7
  6
CONTINUOUS
 70
0
 71
3
 72
12
 73
8
 74
6
 42
0.0000001
 43
0.0000001
 44
0.0000000001
 12
-0.0620767188
 22
0.0
 32
0.0
 13
0.0000131752
 23
-0.0625130177
 33
0.0
 40
0.0
 40
0.0
 40
0.0
 40
0.0
 40
0.2389446752
 40
0.4696949983
 40
0.6879016638
 40
0.8965168596
 40
1.0
 40
1.0
 40
1.0
 40
1.0
 10
4.5365618558
 20
4.4846102509
 30
0.0
 10
4.5316175554
 20
4.4846102509
 30
0.0
 10
4.5218384916
 20
4.4832471367
 30
0.0
 10
4.5087113198
 20
4.4771883748
 30
0.0
 10
4.4987129174
 20
4.4675127316
 30
0.0
 10
4.4942082436
 20
4.4571703477
 30
0.0
 10
4.4935665625
 20
4.4506694048
 30
0.0
 10
4.493567017
 20
4.448513057
 30
0.0
 11
4.5365618558
 21
4.4846102509
 31
0.0
 11
4.5218790423
 21
4.4825055061
 31
0.0
 11
4.5089318632
 21
4.4763773811
 31
0.0
 11
4.4993156726
 21
4.4668374175
 31
0.0
 11
4.4942130075
 21
4.454934934
 31
0.0
 11
4.493567017
 21
4.448513057
 31
0.0
  0
SPLINE
  5
4C9
100
AcDbEntity
  8
0
100
AcDbSpline
 62
7
  6
CONTINUOUS
 70
0
 71
3
 72
9
 73
5
 74
3
 42
0.0000001
 43
0.0000001
 44
0.0000000001
 12
-0.0181071815
 22
0.0073191311
 32
0.0
 13
-0.0194450053
 23
-0.0
 33
0.0
 40
0.0
 40
0.0
 40
0.0
 40
0.0
 40
0.2372161998
 40
1.0
 40
1.0
 40
1.0
 40
1.0
 10
7.2171182581
 20
4.4809797868
 30
0.0
 10
7.2156864858
 20
4.4815585256
 30
0.0
 10
7.2095276608
 20
4.4837012192
 30
0.0
 10
7.2030059675
 20
4.4846102509
 30
0.0
 10
7.1980618558
 20
4.4846102509
 30
0.0
 11
7.2171182581
 21
4.4809797868
 31
0.0
 11
7.2127441205
 21
4.4825056688
 31
0.0
 11
7.1980618558
 21
4.4846102509
 31
0.0
  0
SPLINE
  5
4CA
100
AcDbEntity
  8
0
100
AcDbSpline
 62
7
  6
CONTINUOUS
 70
0
 71
3
 72
10
 73
6
 74
4
 42
0.0000001
 43
0.0000001
 44
0.0000000001
 12
0.0308038422
 22
0.0
 32
0.0
 13
0.0247248038
 23
0.0186606678
 33
0.0
 40
0.0
 40
0.0
 40
0.0
 40
0.0
 40
0.4815276396
 40
0.9465418036
 40
1.0
 40
1.0
 40
1.0
 40
1.0
 10
4.5365618558
 20
4.0064658643
 30
0.0
 10
4.5415061563
 20
4.0064658643
 30
0.0
 10
4.5512852201
 20
4.0078289785
 30
0.0
 10
4.560754587
 20
4.012199504
 30
0.0
 10
4.5650924573
 20
4.0153363355
 30
0.0
 10
4.5655330385
 20
4.0156688574
 30
0.0
 11
4.5365618558
 21
4.0064658643
 31
0.0
 11
4.5512446694
 21
4.0085706091
 31
0.0
 11
4.5641918485
 21
4.0146987341
 31
0.0
 11
4.5655330385
 21
4.0156688574
 31
0.0
  0
SPLINE
  5
4CB
100
AcDbEntity
  8
0
100
AcDbSpline
 62
7
  6
CONTINUOUS
 70
0
 71
3
 72
12
 73
8
 74
6
 42
0.0000001
 43
0.0000001
 44
0.0000000001
 12
-0.0000131711
 22
-0.062513024
 32
0.0
 13
0.0620767221
 23
0.0
 33
0.0
 40
0.0
 40
0.0
 40
0.0
 40
0.0
 40
0.1034875174
 40
0.3121027464
 40
0.53031463
 40
0.7610644611
 40
1.0
 40
1.0
 40
1.0
 40
1.0
 10
7.1550670171
 20
4.0425630604
 30
0.0
 10
7.1550665628
 20
4.0404066212
 30
0.0
 10
7.1557082804
 20
4.0339055856
 30
0.0
 10
7.1602131238
 20
4.0235630532
 30
0.0
 10
7.1702117254
 20
4.0138874514
 30
0.0
 10
7.1833388867
 20
4.0078288986
 30
0.0
 10
7.1931177442
 20
4.0064658643
 30
0.0
 10
7.1980618558
 20
4.0064658643
 30
0.0
 11
7.1550670171
 21
4.0425630604
 31
0.0
 11
7.1557130623
 21
4.0361409149
 31
0.0
 11
7.160815828
 21
4.0242384716
 31
0.0
 11
7.1704323594
 21
4.0146983906
 31
0.0
 11
7.1833795911
 21
4.0085704464
 31
0.0
 11
7.1980618558
 21
4.0064658643
 31
0.0
  0
SPLINE
  5
4CC
100
AcDbEntity
  8
0
100
AcDbSpline
 62
7
  6
CONTINUOUS
 70
0
 71
3
 72
9
 73
5
 74
3
 42
0.0000001
 43
0.0000001
 44
0.0000000001
 12
0.0194435727
 22
0.0
 32
0.0
 13
0.0181060812
 23
0.0073180426
 33
0.0
 40
0.0
 40
0.0
 40
0.0
 40
0.0
 40
0.7628691329
 40
1.0
 40
1.0
 40
1.0
 40
1.0
 10
7.1980618558
 20
4.0064658643
 30
0.0
 10
7.2030061563
 20
4.0064658643
 30
0.0
 10
7.2095273734
 20
4.0073748637
 30
0.0
 10
7.215685758
 20
4.0095173467
 30
0.0
 10
7.2171169282
 20
4.0100957913
 30
0.0
 11
7.1980618558
 21
4.0064658643
 31
0.0
 11
7.2127446694
 21
4.0085706091
 31
0.0
 11
7.2171169282
 21
4.0100957913
 31
0.0
  0
SPLINE
  5
4CD
100
AcDbEntity
  8
0
100
AcDbSpline
 62
7
  6
CONTINUOUS
 70
0
 71
3
 72
12
 73
8
 74
6
 42
0.0000001
 43
0.0000001
 44
0.0000000001
 12
-0.0620767188
 22
0.0
 32
0.0
 13
0.0000131752
 23
-0.0625130177
 33
0.0
 40
0.0
 40
0.0
 40
0.0
 40
0.0
 40
0.2389446752
 40
0.4696949983
 40
0.6879016638
 40
0.8965168596
 40
1.0
 40
1.0
 40
1.0
 40
1.0
 10
7.1980618558
 20
4.4846102509
 30
0.0
 10
7.1931175554
 20
4.4846102509
 30
0.0
 10
7.1833384916
 20
4.4832471367
 30
0.0
 10
7.1702113198
 20
4.4771883748
 30
0.0
 10
7.1602129174
 20
4.4675127316
 30
0.0
 10
7.1557082436
 20
4.4571703477
 30
0.0
 10
7.1550665625
 20
4.4506694048
 30
0.0
 10
7.155067017
 20
4.448513057
 30
0.0
 11
7.1980618558
 21
4.4846102509
 31
0.0
 11
7.1833790423
 21
4.4825055061
 31
0.0
 11
7.1704318632
 21
4.4763773811
 31
0.0
 11
7.1608156726
 21
4.4668374175
 31
0.0
 11
7.1557130075
 21
4.454934934
 31
0.0
 11
7.155067017
 21
4.448513057
 31
0.0
  0
SPLINE
  5
4CE
100
AcDbEntity
  8
0
100
AcDbSpline
 62
7
  6
CONTINUOUS
 70
0
 71
3
 72
10
 73
6
 74
4
 42
0.0000001
 43
0.0000001
 44
0.0000000001
 12
-0.0247263956
 22
0.0186662538
 32
0.0
 13
-0.0308083954
 23
-0.0
 33
0.0
 40
0.0
 40
0.0
 40
0.0
 40
0.0
 40
0.0536174371
 40
0.5185619096
 40
1.0
 40
1.0
 40
1.0
 40
1.0
 10
4.5655366898
 20
4.4754045011
 30
0.0
 10
4.5650947678
 20
4.4757381133
 30
0.0
 10
4.5607556443
 20
4.4788761681
 30
0.0
 10
4.551284825
 20
4.4832472166
 30
0.0
 10
4.5415059675
 20
4.4846102509
 30
0.0
 10
4.5365618558
 20
4.4846102509
 30
0.0
 11
4.5655366898
 21
4.4754045011
 31
0.0
 11
4.5641913522
 21
4.4763777246
 31
0.0
 11
4.5512441205
 21
4.4825056688
 31
0.0
 11
4.5365618558
 21
4.4846102509
 31
0.0
  0
SPLINE
  5
4CF
100
AcDbEntity
  8
0
100
AcDbSpline
 62
7
  6
CONTINUOUS
 70
0
 71
3
 72
12
 73
8
 74
6
 42
0.0000001
 43
0.0000001
 44
0.0000000001
 12
-0.0000131711
 22
-0.062513024
 32
0.0
 13
0.0620767221
 23
0.0
 33
0.0
 40
0.0
 40
0.0
 40
0.0
 40
0.0
 40
0.1034875174
 40
0.3121027464
 40
0.53031463
 40
0.7610644611
 40
1.0
 40
1.0
 40
1.0
 40
1.0
 10
4.4935670171
 20
4.0425630604
 30
0.0
 10
4.4935665628
 20
4.0404066212
 30
0.0
 10
4.4942082804
 20
4.0339055856
 30
0.0
 10
4.4987131238
 20
4.0235630532
 30
0.0
 10
4.5087117254
 20
4.0138874514
 30
0.0
 10
4.5218388867
 20
4.0078288986
 30
0.0
 10
4.5316177442
 20
4.0064658643
 30
0.0
 10
4.5365618558
 20
4.0064658643
 30
0.0
 11
4.4935670171
 21
4.0425630604
 31
0.0
 11
4.4942130623
 21
4.0361409149
 31
0.0
 11
4.499315828
 21
4.0242384716
 31
0.0
 11
4.5089323594
 21
4.0146983906
 31
0.0
 11
4.5218795911
 21
4.0085704464
 31
0.0
 11
4.5365618558
 21
4.0064658643
 31
0.0
  0
SPLINE
  5
4D0
100
AcDbEntity
  8
0
100
AcDbSpline
 62
7
  6
CONTINUOUS
 70
0
 71
3
 72
20
 73
16
 74
14
 42
0.0000001
 43
0.0000001
 44
0.0000000001
 12
0.2307339396
 22
0.0481210944
 32
0.0
 13
0.2307339448
 23
-0.0481210935
 33
0.0
 40
0.0
 40
0.0
 40
0.0
 40
0.0
 40
0.0146484413
 40
0.0585472627
 40
0.1273456144
 40
0.2163748277
 40
0.3239568235
 40
0.4410020286
 40
0.558833343
 40
0.676141754
 40
0.7837076905
 40
0.872591532
 40
0.9415392336
 40
0.9854256265
 40
1.0
 40
1.0
 40
1.0
 40
1.0
 10
4.3465618558
 20
3.6845380576
 30
0.0
 10
4.3476884867
 20
3.6847730239
 30
0.0
 10
4.3521940423
 20
3.6856997095
 30
0.0
 10
4.3620162438
 20
3.6876063615
 30
0.0
 10
4.3776388778
 20
3.6902863472
 30
0.0
 10
4.3982961715
 20
3.6931638808
 30
0.0
 10
4.4228291916
 20
3.6955746022
 30
0.0
 10
4.4497119324
 20
3.6969322141
 30
0.0
 10
4.4773936413
 20
3.6969331968
 30
0.0
 10
4.5042958595
 20
3.6955749702
 30
0.0
 10
4.5288367433
 20
3.6931625377
 30
0.0
 10
4.5494930689
 20
3.6902850649
 30
0.0
 10
4.5651150457
 20
3.6876051106
 30
0.0
 10
4.5749420356
 20
3.6856972151
 30
0.0
 10
4.5794409216
 20
3.6847718359
 30
0.0
 10
4.5805618558
 20
3.6845380576
 30
0.0
 11
4.3465618558
 21
3.6845380576
 31
0.0
 11
4.349943693
 21
3.6852335985
 31
0.0
 11
4.3601011126
 21
3.6872047115
 31
0.0
 11
4.3760837141
 21
3.6899442984
 31
0.0
 11
4.396867675
 21
3.6928355031
 31
0.0
 11
4.4221035986
 21
3.6953101166
 31
0.0
 11
4.4496560947
 21
3.6966980352
 31
0.0
 11
4.4774288109
 21
3.696699017
 31
0.0
 11
4.5050432855
 21
3.6953083701
 31
0.0
 11
4.5302753486
 21
3.6928331724
 31
0.0
 11
4.5510253603
 21
3.6899466028
 31
0.0
 11
4.567042645
 21
3.6872009966
 31
0.0
 11
4.5771971282
 21
3.6852301288
 31
0.0
 11
4.5805618558
 21
3.6845380576
 31
0.0
  0
SPLINE
  5
4D1
100
AcDbEntity
  8
0
100
AcDbSpline
 62
7
  6
CONTINUOUS
 70
0
 71
3
 72
20
 73
16
 74
14
 42
0.0000001
 43
0.0000001
 44
0.0000000001
 12
0.0
 22
0.3504024234
 32
0.0
 13
-0.0
 23
-0.3504024234
 33
0.0
 40
0.0
 40
0.0
 40
0.0
 40
0.0
 40
0.0706764167
 40
0.1453519764
 40
0.2214439236
 40
0.2988189533
 40
0.3794923371
 40
0.4603148541
 40
0.5395743419
 40
0.6205775142
 40
0.7012465819
 40
0.7784956738
 40
0.8547615555
 40
0.9295058042
 40
1.0
 40
1.0
 40
1.0
 40
1.0
 10
4.3465618558
 20
3.9650380576
 30
0.0
 10
4.3465618558
 20
3.9732931202
 30
0.0
 10
4.3489919402
 20
3.9903424674
 30
0.0
 10
4.3592578182
 20
4.0143703555
 30
0.0
 10
4.3754408431
 20
4.035850714
 30
0.0
 10
4.3966038283
 20
4.0535357904
 30
0.0
 10
4.4217381636
 20
4.066222736
 30
0.0
 10
4.4493476987
 20
4.0727953547
 30
0.0
 10
4.4777580835
 20
4.0728000253
 30
0.0
 10
4.5053895156
 20
4.0662239049
 30
0.0
 10
4.530526595
 20
4.0535292715
 30
0.0
 10
4.5516926004
 20
4.0358413351
 30
0.0
 10
4.5678831994
 20
4.0143478334
 30
0.0
 10
4.5781401281
 20
3.9903074532
 30
0.0
 10
4.5805618558
 20
3.9732718366
 30
0.0
 10
4.5805618558
 20
3.9650380576
 30
0.0
 11
4.3465618558
 21
3.9650380576
 31
0.0
 11
4.349943693
 21
3.9895712535
 31
0.0
 11
4.3601011126
 21
4.0136858216
 31
0.0
 11
4.3760837141
 21
4.0350273655
 31
0.0
 11
4.396867675
 21
4.052437394
 31
0.0
 11
4.4221035986
 21
4.0651745999
 31
0.0
 11
4.4496560947
 21
4.0717248173
 31
0.0
 11
4.4774288109
 21
4.0717293253
 31
0.0
 11
4.5050432855
 21
4.0651661199
 31
0.0
 11
4.5302753486
 21
4.0524246228
 31
0.0
 11
4.5510253603
 21
4.0350427874
 31
0.0
 11
4.567042645
 21
4.0136510742
 31
0.0
 11
4.5771971282
 21
3.9895091561
 31
0.0
 11
4.5805618558
 21
3.9650380576
 31
0.0
  0
SPLINE
  5
4D2
100
AcDbEntity
  8
0
100
AcDbSpline
 62
7
  6
CONTINUOUS
 70
0
 71
3
 72
20
 73
16
 74
14
 42
0.0000001
 43
0.0000001
 44
0.0000000001
 12
-0.2307339396
 22
-0.0481210944
 32
0.0
 13
-0.2307339448
 23
0.0481210935
 33
0.0
 40
0.0
 40
0.0
 40
0.0
 40
0.0
 40
0.0146484413
 40
0.0585472627
 40
0.1273456144
 40
0.2163748277
 40
0.3239568235
 40
0.4410020286
 40
0.558833343
 40
0.676141754
 40
0.7837076905
 40
0.872591532
 40
0.9415392336
 40
0.9854256265
 40
1.0
 40
1.0
 40
1.0
 40
1.0
 10
4.5805618558
 20
4.8065380576
 30
0.0
 10
4.579435225
 20
4.8063030913
 30
0.0
 10
4.5749296694
 20
4.8053764057
 30
0.0
 10
4.5651074679
 20
4.8034697537
 30
0.0
 10
4.5494848338
 20
4.800789768
 30
0.0
 10
4.5288275402
 20
4.7979122344
 30
0.0
 10
4.5042945201
 20
4.795501513
 30
0.0
 10
4.4774117793
 20
4.7941439011
 30
0.0
 10
4.4497300703
 20
4.7941429184
 30
0.0
 10
4.4228278522
 20
4.795501145
 30
0.0
 10
4.3982869683
 20
4.7979135775
 30
0.0
 10
4.3776306428
 20
4.8007910503
 30
0.0
 10
4.362008666
 20
4.8034710046
 30
0.0
 10
4.3521816761
 20
4.8053789001
 30
0.0
 10
4.3476827901
 20
4.8063042793
 30
0.0
 10
4.3465618558
 20
4.8065380576
 30
0.0
 11
4.5805618558
 21
4.8065380576
 31
0.0
 11
4.5771800187
 21
4.8058425167
 31
0.0
 11
4.5670225991
 21
4.8038714037
 31
0.0
 11
4.5510399976
 21
4.8011318168
 31
0.0
 11
4.5302560367
 21
4.7982406121
 31
0.0
 11
4.505020113
 21
4.7957659986
 31
0.0
 11
4.477467617
 21
4.79437808
 31
0.0
 11
4.4496949008
 21
4.7943770982
 31
0.0
 11
4.4220804262
 21
4.7957677451
 31
0.0
 11
4.3968483631
 21
4.7982429428
 31
0.0
 11
4.3760983514
 21
4.8011295124
 31
0.0
 11
4.3600810666
 21
4.8038751186
 31
0.0
 11
4.3499265835
 21
4.8058459864
 31
0.0
 11
4.3465618558
 21
4.8065380576
 31
0.0
  0
SPLINE
  5
4D3
100
AcDbEntity
  8
0
100
AcDbSpline
 62
7
  6
CONTINUOUS
 70
0
 71
3
 72
11
 73
7
 74
5
 42
0.0000001
 43
0.0000001
 44
0.0000000001
 12
-0.101444793
 22
-0.0445080672
 32
0.0
 13
-0.101444793
 23
0.0445080672
 33
0.0
 40
0.0
 40
0.0
 40
0.0
 40
0.0
 40
0.2494005516
 40
0.4992149943
 40
0.7499496502
 40
1.0
 40
1.0
 40
1.0
 40
1.0
 10
5.8434970021
 20
4.5497164594
 30
0.0
 10
5.8350635396
 20
4.5460163472
 30
0.0
 10
5.817348176
 20
4.5403777372
 30
0.0
 10
5.7896159609
 20
4.5375217616
 30
0.0
 10
5.7618554487
 20
4.5403549559
 30
0.0
 10
5.7440821449
 20
4.5460067068
 30
0.0
 10
5.7356267096
 20
4.5497164594
 30
0.0
 11
5.8434970021
 21
4.5497164594
 31
0.0
 11
5.8171769241
 21
4.5413152354
 31
0.0
 11
5.7896492803
 21
4.538470671
 31
0.0
 11
5.7620176407
 21
4.5413004856
 31
0.0
 11
5.7356267096
 21
4.5497164594
 31
0.0
  0
SPLINE
  5
4D4
100
AcDbEntity
  8
0
100
AcDbSpline
 62
7
  6
CONTINUOUS
 70
0
 71
3
 72
11
 73
7
 74
5
 42
0.0000001
 43
0.0000001
 44
0.0000000001
 12
-0.1074958241
 22
-0.010857309
 32
0.0
 13
-0.1074958241
 23
0.010857309
 33
0.0
 40
0.0
 40
0.0
 40
0.0
 40
0.0
 40
0.2450134362
 40
0.4994065022
 40
0.7547247714
 40
1.0
 40
1.0
 40
1.0
 40
1.0
 10
5.8434970021
 20
4.7795380576
 30
0.0
 10
5.834717695
 20
4.7786513287
 30
0.0
 10
5.8167761464
 20
4.7772766328
 30
0.0
 10
5.7895927125
 20
4.7765690215
 30
0.0
 10
5.7623996344
 20
4.7772728806
 30
0.0
 10
5.7444153972
 20
4.7786503813
 30
0.0
 10
5.7356267096
 20
4.7795380576
 30
0.0
 11
5.8434970021
 21
4.7795380576
 31
0.0
 11
5.8171020652
 21
4.7775206354
 31
0.0
 11
5.789626
 21
4.7768072964
 31
0.0
 11
5.762049902
 21
4.7775191734
 31
0.0
 11
5.7356267096
 21
4.7795380576
 31
0.0
  0
SPLINE
  5
4D5
100
AcDbEntity
  8
0
100
AcDbSpline
 62
7
  6
CONTINUOUS
 70
0
 71
3
 72
20
 73
16
 74
14
 42
0.0000001
 43
0.0000001
 44
0.0000000001
 12
0.0
 22
0.3506569319
 32
0.0
 13
0.0
 23
-0.3506569319
 33
0.0
 40
0.0
 40
0.0
 40
0.0
 40
0.0
 40
0.0706706488
 40
0.1453801367
 40
0.2215088426
 40
0.2988987502
 40
0.3795583287
 40
0.460338703
 40
0.5395475549
 40
0.6205099576
 40
0.7011670602
 40
0.7784318495
 40
0.8547350308
 40
0.9295127183
 40
1.0
 40
1.0
 40
1.0
 40
1.0
 10
6.9915618558
 20
3.9735380576
 30
0.0
 10
6.9915618558
 20
3.9817984419
 30
0.0
 10
6.9939954197
 20
3.9988629768
 30
0.0
 10
7.0042625815
 20
4.0229179106
 30
0.0
 10
7.0204421452
 20
4.0444365488
 30
0.0
 10
7.0415992839
 20
4.0621660039
 30
0.0
 10
7.0667305689
 20
4.0748948091
 30
0.0
 10
7.0943438172
 20
4.08149352
 30
0.0
 10
7.1227610736
 20
4.0814983372
 30
0.0
 10
7.1503966627
 20
4.0748961918
 30
0.0
 10
7.1755311365
 20
4.0621595109
 30
0.0
 10
7.196691556
 20
4.0444269041
 30
0.0
 10
7.2128786585
 20
4.0228949586
 30
0.0
 10
7.2231367251
 20
3.9988276136
 30
0.0
 10
7.2255618558
 20
3.9817770089
 30
0.0
 10
7.2255618558
 20
3.9735380576
 30
0.0
 11
6.9915618558
 21
3.9735380576
 31
0.0
 11
6.9949450831
 21
3.998087178
 31
0.0
 11
7.0051048986
 21
4.0222342669
 31
0.0
 11
7.0210871658
 21
4.0436163454
 31
0.0
 11
7.0418677659
 21
4.0610691424
 31
0.0
 11
7.0671014408
 21
4.0738455768
 31
0.0
 11
7.0946543576
 21
4.0804190294
 31
0.0
 11
7.1224294902
 21
4.0804236772
 31
0.0
 11
7.1500449336
 21
4.0738372551
 31
0.0
 11
7.1752753364
 21
4.0610562813
 31
0.0
 11
7.1960221826
 21
4.0436315134
 31
0.0
 11
7.2120391388
 21
4.0221989806
 31
0.0
 11
7.2221958471
 21
3.9980246428
 31
0.0
 11
7.2255618558
 21
3.9735380576
 31
0.0
  0
SPLINE
  5
4D6
100
AcDbEntity
  8
0
100
AcDbSpline
 62
7
  6
CONTINUOUS
 70
0
 71
3
 72
20
 73
16
 74
14
 42
0.0000001
 43
0.0000001
 44
0.0000000001
 12
-0.0891962821
 22
-0.2653552815
 32
0.0
 13
-0.0891668476
 23
0.2653657868
 33
0.0
 40
0.0
 40
0.0
 40
0.0
 40
0.0
 40
0.0475307452
 40
0.1199977487
 40
0.193416236
 40
0.2699788766
 40
0.3543106695
 40
0.4495189667
 40
0.5503237773
 40
0.6455295971
 40
0.729951869
 40
0.8065543647
 40
0.8799469062
 40
0.952394479
 40
1.0
 40
1.0
 40
1.0
 40
1.0
 10
4.576251084
 20
3.9928399526
 30
0.0
 10
4.5748378954
 20
3.9886357745
 30
0.0
 10
4.5704088019
 20
3.9783144008
 30
0.0
 10
4.5599938948
 20
3.9634186191
 30
0.0
 10
4.5444870548
 20
3.9494642196
 30
0.0
 10
4.5255657461
 20
3.9383615871
 30
0.0
 10
4.503036265
 20
3.9302066757
 30
0.0
 10
4.4772005097
 20
3.9257080735
 30
0.0
 10
4.4499582854
 20
3.9257051524
 30
0.0
 10
4.4241134714
 20
3.9301992318
 30
0.0
 10
4.4015710495
 20
3.9383542832
 30
0.0
 10
4.3826406924
 20
3.9494610969
 30
0.0
 10
4.367133996
 20
3.9634146874
 30
0.0
 10
4.3567160025
 20
3.9783115379
 30
0.0
 10
4.3522846412
 20
3.9886377161
 30
0.0
 10
4.3508696965
 20
3.992848675
 30
0.0
 11
4.576251084
 21
3.9928399526
 31
0.0
 11
4.5710103192
 21
3.9806286658
 31
0.0
 11
4.5594741135
 21
3.964006048
 31
0.0
 11
4.5443093734
 21
3.9502130307
 31
0.0
 11
4.5259301445
 21
3.9392959374
 31
0.0
 11
4.5038272407
 21
3.9311786994
 31
0.0
 11
4.4776520577
 21
3.9265394928
 31
0.0
 11
4.4495063311
 21
3.9265364128
 31
0.0
 11
4.4233307485
 21
3.9311693971
 31
0.0
 11
4.4012027479
 21
3.9392915777
 31
0.0
 11
4.382813522
 21
3.9502136306
 31
0.0
 11
4.3676537515
 21
3.9640013454
 31
0.0
 11
4.3561188838
 21
3.9806182878
 31
0.0
 11
4.3508696965
 21
3.992848675
 31
0.0
  0
SPLINE
  5
4D7
100
AcDbEntity
  8
0
100
AcDbSpline
 62
7
  6
CONTINUOUS
 70
0
 71
3
 72
20
 73
16
 74
14
 42
0.0000001
 43
0.0000001
 44
0.0000000001
 12
0.0892004036
 22
0.2653765766
 32
0.0
 13
0.0891714641
 23
-0.2653869677
 33
0.0
 40
0.0
 40
0.0
 40
0.0
 40
0.0
 40
0.0487846513
 40
0.1219291746
 40
0.1957673182
 40
0.2725534498
 40
0.3564293495
 40
0.4498395269
 40
0.5499870472
 40
0.6434240819
 40
0.7273854302
 40
0.8042078518
 40
0.8780166195
 40
0.9511343965
 40
1.0
 40
1.0
 40
1.0
 40
1.0
 10
4.3508719067
 20
4.4982339245
 30
0.0
 10
4.3523224436
 20
4.5025493591
 30
0.0
 10
4.3568463668
 20
4.5130298306
 30
0.0
 10
4.3674694506
 20
4.5280529999
 30
0.0
 10
4.3831567629
 20
4.5419923818
 30
0.0
 10
4.4021603805
 20
4.5529879257
 30
0.0
 10
4.4245484734
 20
4.5609688241
 30
0.0
 10
4.4501199487
 20
4.5653651198
 30
0.0
 10
4.4769667477
 20
4.5653683857
 30
0.0
 10
4.5025496166
 20
4.5609762885
 30
0.0
 10
4.5249522659
 20
4.5529941337
 30
0.0
 10
4.5439638096
 20
4.5419947458
 30
0.0
 10
4.5596498576
 20
4.5280569544
 30
0.0
 10
4.5702759175
 20
4.5130332298
 30
0.0
 10
4.5748022193
 20
4.5025481006
 30
0.0
 10
4.5762546918
 20
4.4982253359
 30
0.0
 11
4.3508719067
 21
4.4982339245
 31
0.0
 11
4.356277511
 21
4.5107560905
 31
0.0
 11
4.3680084258
 21
4.5274739329
 31
0.0
 11
4.3833458601
 21
4.5412511553
 31
0.0
 11
4.4018455967
 21
4.5520874908
 31
0.0
 11
4.4238692327
 21
4.5600516499
 31
0.0
 11
4.4495608541
 21
4.5645445295
 31
0.0
 11
4.4775235345
 21
4.5645479991
 31
0.0
 11
4.5032236024
 21
4.5600598919
 31
0.0
 11
4.5252708559
 21
4.5520908858
 31
0.0
 11
4.5437796029
 21
4.5412498851
 31
0.0
 11
4.5591112292
 21
4.5274784709
 31
0.0
 11
4.5708397833
 21
4.5107680953
 31
0.0
 11
4.5762546918
 21
4.4982253359
 31
0.0
  0
SPLINE
  5
4D8
100
AcDbEntity
  8
0
100
AcDbSpline
 62
7
  6
CONTINUOUS
 70
0
 71
3
 72
8
 73
4
 74
2
 42
0.0000001
 43
0.0000001
 44
0.0000000001
 12
-0.0057601552
 22
-0.0012098432
 32
0.0
 13
0.0022243745
 23
0.0004771097
 33
0.0
 40
0.0
 40
0.0
 40
0.0
 40
0.0
 40
1.0
 40
1.0
 40
1.0
 40
1.0
 10
5.675476198
 20
3.7021504435
 30
0.0
 10
5.6735561462
 20
3.7017471625
 30
0.0
 10
5.67215223
 20
3.7014502928
 30
0.0
 10
5.6728936881
 20
3.7016093294
 30
0.0
 11
5.675476198
 21
3.7021504435
 31
0.0
 11
5.6728936881
 21
3.7016093294
 31
0.0
  0
SPLINE
  5
4D9
100
AcDbEntity
  8
0
100
AcDbSpline
 62
7
  6
CONTINUOUS
 70
0
 71
3
 72
8
 73
4
 74
2
 42
0.0000001
 43
0.0000001
 44
0.0000000001
 12
-0.0000001445
 22
0.0000008537
 32
0.0
 13
0.0004137354
 23
0.0000887428
 33
0.0
 40
0.0
 40
0.0
 40
0.0
 40
0.0
 40
1.0
 40
1.0
 40
1.0
 40
1.0
 10
5.6726921347
 20
3.7015656556
 30
0.0
 10
5.6726920865
 20
3.7015659402
 30
0.0
 10
5.6727557763
 20
3.7015797485
 30
0.0
 10
5.6728936881
 20
3.7016093294
 30
0.0
 11
5.6726921347
 21
3.7015656556
 31
0.0
 11
5.6728936881
 21
3.7016093294
 31
0.0
  0
SPLINE
  5
4DA
100
AcDbEntity
  8
0
100
AcDbSpline
 62
7
  6
CONTINUOUS
 70
0
 71
3
 72
12
 73
8
 74
6
 42
0.0000001
 43
0.0000001
 44
0.0000000001
 12
-0.0984575099
 22
0.0431974213
 32
0.0
 13
0.0000882517
 23
0.1081628642
 33
0.0
 40
0.0
 40
0.0
 40
0.0
 40
0.0
 40
0.2626717012
 40
0.5103972303
 40
0.7369220543
 40
0.9418743286
 40
1.0
 40
1.0
 40
1.0
 40
1.0
 10
5.7356267096
 20
4.5497164594
 30
0.0
 10
5.7270060424
 20
4.5534987061
 30
0.0
 10
5.7109848465
 20
4.562690216
 30
0.0
 10
5.6914524856
 20
4.5808153825
 30
0.0
 10
5.678069249
 20
4.6014937343
 30
0.0
 10
5.6730626032
 20
4.6186200235
 30
0.0
 10
5.6725678986
 20
4.6281047327
 30
0.0
 10
5.6725696085
 20
4.6302004124
 30
0.0
 11
5.7356267096
 21
4.5497164594
 31
0.0
 11
5.7111759641
 21
4.5638498484
 31
0.0
 11
5.6917706015
 21
4.5820937249
 31
0.0
 11
5.6787713969
 21
4.6026898285
 31
0.0
 11
5.6728936807
 21
4.6239273192
 31
0.0
 11
5.6725696085
 21
4.6302004124
 31
0.0
  0
SPLINE
  5
4DB
100
AcDbEntity
  8
0
100
AcDbSpline
 62
7
  6
CONTINUOUS
 70
0
 71
3
 72
20
 73
16
 74
14
 42
0.0000001
 43
0.0000001
 44
0.0000000001
 12
0.0
 22
-0.3506569319
 32
0.0
 13
0.0
 23
0.3506569319
 33
0.0
 40
0.0
 40
0.0
 40
0.0
 40
0.0
 40
0.0706706488
 40
0.1453801367
 40
0.2215088426
 40
0.2988987502
 40
0.3795583287
 40
0.460338703
 40
0.5395475549
 40
0.6205099576
 40
0.7011670602
 40
0.7784318495
 40
0.8547350308
 40
0.9295127183
 40
1.0
 40
1.0
 40
1.0
 40
1.0
 10
7.2255618558
 20
4.5175380576
 30
0.0
 10
7.2255618558
 20
4.5092776733
 30
0.0
 10
7.223128292
 20
4.4922131384
 30
0.0
 10
7.2128611302
 20
4.4681582046
 30
0.0
 10
7.1966815665
 20
4.4466395663
 30
0.0
 10
7.1755244277
 20
4.4289101113
 30
0.0
 10
7.1503931428
 20
4.4161813061
 30
0.0
 10
7.1227798945
 20
4.4095825952
 30
0.0
 10
7.094362638
 20
4.409577778
 30
0.0
 10
7.066727049
 20
4.4161799234
 30
0.0
 10
7.0415925751
 20
4.4289166043
 30
0.0
 10
7.0204321557
 20
4.4466492111
 30
0.0
 10
7.0042450532
 20
4.4681811566
 30
0.0
 10
6.9939869865
 20
4.4922485016
 30
0.0
 10
6.9915618558
 20
4.5092991063
 30
0.0
 10
6.9915618558
 20
4.5175380576
 30
0.0
 11
7.2255618558
 21
4.5175380576
 31
0.0
 11
7.2221786286
 21
4.4929889372
 31
0.0
 11
7.2120188131
 21
4.4688418483
 31
0.0
 11
7.1960365459
 21
4.4474597698
 31
0.0
 11
7.1752559458
 21
4.4300069728
 31
0.0
 11
7.1500222709
 21
4.4172305384
 31
0.0
 11
7.1224693541
 21
4.4106570858
 31
0.0
 11
7.0946942215
 21
4.410652438
 31
0.0
 11
7.067078778
 21
4.4172388601
 31
0.0
 11
7.0418483753
 21
4.4300198339
 31
0.0
 11
7.0211015291
 21
4.4474446018
 31
0.0
 11
7.0050845729
 21
4.4688771346
 31
0.0
 11
6.9949278645
 21
4.4930514724
 31
0.0
 11
6.9915618558
 21
4.5175380576
 31
0.0
  0
SPLINE
  5
4DC
100
AcDbEntity
  8
0
100
AcDbSpline
 62
7
  6
CONTINUOUS
 70
0
 71
3
 72
11
 73
7
 74
5
 42
0.0000001
 43
0.0000001
 44
0.0000000001
 12
-0.0632214151
 22
0.0063854986
 32
0.0
 13
0.0362071521
 23
-0.0077661312
 33
0.0
 40
0.0
 40
0.0
 40
0.0
 40
0.0
 40
0.3877154004
 40
0.6971616902
 40
0.9054951704
 40
1.0
 40
1.0
 40
1.0
 40
1.0
 10
5.7356267096
 20
4.7795380576
 30
0.0
 10
5.7274560708
 20
4.7803633096
 30
0.0
 10
5.7135232322
 20
4.782022153
 30
0.0
 10
5.6921384999
 20
4.7856485142
 30
0.0
 10
5.684366384
 20
4.7870382815
 30
0.0
 10
5.6717531046
 20
4.7897114314
 30
0.0
 10
5.6728936881
 20
4.7894667858
 30
0.0
 11
5.7356267096
 21
4.7795380576
 31
0.0
 11
5.7111759807
 21
4.782558863
 31
0.0
 11
5.6917706291
 21
4.7857325818
 31
0.0
 11
5.6787714231
 21
4.7882364268
 31
0.0
 11
5.6728936881
 21
4.7894667858
 31
0.0
  0
SPLINE
  5
4DD
100
AcDbEntity
  8
0
100
AcDbSpline
 62
7
  6
CONTINUOUS
 70
0
 71
3
 72
8
 73
4
 74
2
 42
0.0000001
 43
0.0000001
 44
0.0000000001
 12
-0.0000001445
 22
-0.0000008537
 32
0.0
 13
0.0004137354
 23
-0.0000887428
 33
0.0
 40
0.0
 40
0.0
 40
0.0
 40
0.0
 40
1.0
 40
1.0
 40
1.0
 40
1.0
 10
5.6726921347
 20
4.7895104596
 30
0.0
 10
5.6726920865
 20
4.789510175
 30
0.0
 10
5.6727557763
 20
4.7894963667
 30
0.0
 10
5.6728936881
 20
4.7894667858
 30
0.0
 11
5.6726921347
 21
4.7895104596
 31
0.0
 11
5.6728936881
 21
4.7894667858
 31
0.0
  0
SPLINE
  5
4DE
100
AcDbEntity
  8
0
100
AcDbSpline
 62
7
  6
CONTINUOUS
 70
0
 71
3
 72
8
 73
4
 74
2
 42
0.0000001
 43
0.0000001
 44
0.0000000001
 12
-0.0047357467
 22
-0.0171501456
 32
0.0
 13
-0.008314886
 23
-0.0157169282
 33
0.0
 40
0.0
 40
0.0
 40
0.0
 40
0.0
 40
1.0
 40
1.0
 40
1.0
 40
1.0
 10
7.2225622601
 20
3.9971261251
 30
0.0
 10
7.2209836778
 20
3.9914094099
 30
0.0
 10
7.2187819478
 20
3.9858676419
 30
0.0
 10
7.2160103192
 20
3.9806286658
 30
0.0
 11
7.2225622601
 21
3.9971261251
 31
0.0
 11
7.2160103192
 21
3.9806286658
 31
0.0
  0
SPLINE
  5
4DF
100
AcDbEntity
  8
0
100
AcDbSpline
 62
7
  6
CONTINUOUS
 70
0
 71
3
 72
8
 73
4
 74
2
 42
0.0000001
 43
0.0000001
 44
0.0000000001
 12
-0.0001762248
 22
-0.0003331028
 32
0.0
 13
-0.0001777574
 23
-0.0003322844
 33
0.0
 40
0.0
 40
0.0
 40
0.0
 40
0.0
 40
1.0
 40
1.0
 40
1.0
 40
1.0
 10
7.2160103192
 20
3.9806286658
 30
0.0
 10
7.2159515776
 20
3.9805176315
 30
0.0
 10
7.21589258
 20
3.9804067333
 30
0.0
 10
7.2158333275
 20
3.9802959718
 30
0.0
 11
7.2160103192
 21
3.9806286658
 31
0.0
 11
7.2158333275
 21
3.9802959718
 31
0.0
  0
SPLINE
  5
4E0
100
AcDbEntity
  8
0
100
AcDbSpline
 62
7
  6
CONTINUOUS
 70
0
 71
3
 72
18
 73
14
 74
12
 42
0.0000001
 43
0.0000001
 44
0.0000000001
 12
-0.1190870684
 22
-0.2226111468
 32
0.0
 13
-0.1190836498
 23
0.2226129713
 33
0.0
 40
0.0
 40
0.0
 40
0.0
 40
0.0
 40
0.0788284414
 40
0.1602041576
 40
0.2450647964
 40
0.3385366221
 40
0.4440637675
 40
0.5557939867
 40
0.6613183861
 40
0.7548904972
 40
0.8397953105
 40
0.9211422689
 40
1.0
 40
1.0
 40
1.0
 40
1.0
 10
7.2158333275
 20
3.9802959718
 30
0.0
 10
7.2127041782
 20
3.9744466085
 30
0.0
 10
7.2049000158
 20
3.9633341387
 30
0.0
 10
7.1894870548
 20
3.9494642196
 30
0.0
 10
7.1705657461
 20
3.9383615871
 30
0.0
 10
7.148036265
 20
3.9302066757
 30
0.0
 10
7.1222005097
 20
3.9257080735
 30
0.0
 10
7.0949582854
 20
3.9257051524
 30
0.0
 10
7.0691134714
 20
3.9301992318
 30
0.0
 10
7.0465710495
 20
3.9383542832
 30
0.0
 10
7.0276406924
 20
3.9494610969
 30
0.0
 10
7.0122246798
 20
3.9633330863
 30
0.0
 10
7.0044200912
 20
3.9744453484
 30
0.0
 10
7.001289869
 20
3.980296933
 30
0.0
 11
7.2158333275
 21
3.9802959718
 31
0.0
 11
7.2044741135
 21
3.964006048
 31
0.0
 11
7.1893093734
 21
3.9502130307
 31
0.0
 11
7.1709301445
 21
3.9392959374
 31
0.0
 11
7.1488272407
 21
3.9311786994
 31
0.0
 11
7.1226520577
 21
3.9265394928
 31
0.0
 11
7.0945063311
 21
3.9265364128
 31
0.0
 11
7.0683307485
 21
3.9311693971
 31
0.0
 11
7.0462027479
 21
3.9392915777
 31
0.0
 11
7.027813522
 21
3.9502136306
 31
0.0
 11
7.0126537515
 21
3.9640013454
 31
0.0
 11
7.001289869
 21
3.980296933
 31
0.0
  0
SPLINE
  5
4E1
100
AcDbEntity
  8
0
100
AcDbSpline
 62
7
  6
CONTINUOUS
 70
0
 71
3
 72
9
 73
5
 74
3
 42
0.0000001
 43
0.0000001
 44
0.0000000001
 12
-0.0085555315
 22
0.0159935666
 32
0.0
 13
-0.0048348739
 23
0.0174937806
 33
0.0
 40
0.0
 40
0.0
 40
0.0
 40
0.0
 40
0.0200688558
 40
1.0
 40
1.0
 40
1.0
 40
1.0
 10
7.001289869
 20
3.980296933
 30
0.0
 10
7.0012326358
 20
3.9804039239
 30
0.0
 10
6.9983926431
 20
3.9857414725
 30
0.0
 10
6.9961456213
 20
3.991394191
 30
0.0
 10
6.9945663401
 20
3.9971084245
 30
0.0
 11
7.001289869
 21
3.980296933
 31
0.0
 11
7.0011188838
 21
3.9806182878
 31
0.0
 11
6.9945663401
 21
3.9971084245
 31
0.0
  0
SPLINE
  5
4E2
100
AcDbEntity
  8
0
100
AcDbSpline
 62
7
  6
CONTINUOUS
 70
0
 71
3
 72
8
 73
4
 74
2
 42
0.0000001
 43
0.0000001
 44
0.0000000001
 12
-0.0000002744
 22
0.0000016226
 32
0.0
 13
-0.0011551594
 23
-0.0002429125
 33
0.0
 40
0.0
 40
0.0
 40
0.0
 40
0.0
 40
1.0
 40
1.0
 40
1.0
 40
1.0
 10
5.9064297905
 20
4.7895100796
 30
0.0
 10
5.9064296991
 20
4.7895106205
 30
0.0
 10
5.9062017081
 20
4.7894628079
 30
0.0
 10
5.905816655
 20
4.7893818371
 30
0.0
 11
5.9064297905
 21
4.7895100796
 31
0.0
 11
5.905816655
 21
4.7893818371
 31
0.0
  0
SPLINE
  5
4E3
100
AcDbEntity
  8
0
100
AcDbSpline
 62
7
  6
CONTINUOUS
 70
0
 71
3
 72
11
 73
7
 74
5
 42
0.0000001
 43
0.0000001
 44
0.0000000001
 12
-0.0516958343
 22
-0.010870852
 32
0.0
 13
-0.0611252539
 23
-0.0061737819
 33
0.0
 40
0.0
 40
0.0
 40
0.0
 40
0.0
 40
0.0636464685
 40
0.2791652903
 40
0.5991738452
 40
1.0
 40
1.0
 40
1.0
 40
1.0
 10
5.905816655
 20
4.7893818371
 30
0.0
 10
5.9047199025
 20
4.7891512067
 30
0.0
 10
5.8943203363
 20
4.786959691
 30
0.0
 10
5.8869757587
 20
4.7856469375
 30
0.0
 10
5.8655910361
 20
4.7820208373
 30
0.0
 10
5.8516638689
 20
4.7803629287
 30
0.0
 10
5.8434970021
 20
4.7795380576
 30
0.0
 11
5.905816655
 21
4.7893818371
 31
0.0
 11
5.9003406271
 21
4.7882340463
 31
0.0
 11
5.8873388931
 21
4.7857300133
 31
0.0
 11
5.8679364741
 21
4.78255722
 31
0.0
 11
5.8434970021
 21
4.7795380576
 31
0.0
  0
SPLINE
  5
4E4
100
AcDbEntity
  8
0
100
AcDbSpline
 62
7
  6
CONTINUOUS
 70
0
 71
3
 72
8
 73
4
 74
2
 42
0.0000001
 43
0.0000001
 44
0.0000000001
 12
0.0048276911
 22
0.0174648107
 32
0.0
 13
0.00853548
 23
0.0159702858
 33
0.0
 40
0.0
 40
0.0
 40
0.0
 40
0.0
 40
1.0
 40
1.0
 40
1.0
 40
1.0
 10
6.994567282
 20
4.4939711625
 30
0.0
 10
6.9961765124
 20
4.499792766
 30
0.0
 10
6.998432351
 20
4.5054326619
 30
0.0
 10
7.001277511
 20
4.5107560905
 30
0.0
 11
6.994567282
 21
4.4939711625
 31
0.0
 11
7.001277511
 21
4.5107560905
 31
0.0
  0
SPLINE
  5
4E5
100
AcDbEntity
  8
0
100
AcDbSpline
 62
7
  6
CONTINUOUS
 70
0
 71
3
 72
18
 73
14
 74
12
 42
0.0000001
 43
0.0000001
 44
0.0000000001
 12
0.1190264763
 22
0.2227041526
 32
0.0
 13
0.1190629533
 23
-0.2226845336
 33
0.0
 40
0.0
 40
0.0
 40
0.0
 40
0.0
 40
0.0810600586
 40
0.1628887997
 40
0.2479845533
 40
0.3409373137
 40
0.4444561299
 40
0.555441389
 40
0.658989969
 40
0.7520374251
 40
0.8371733959
 40
0.918969582
 40
1.0
 40
1.0
 40
1.0
 40
1.0
 10
7.001277511
 20
4.5107560905
 30
0.0
 10
7.0044936087
 20
4.5167735611
 30
0.0
 10
7.0124694506
 20
4.5280529999
 30
0.0
 10
7.0281567629
 20
4.5419923818
 30
0.0
 10
7.0471603805
 20
4.5529879257
 30
0.0
 10
7.0695484734
 20
4.5609688241
 30
0.0
 10
7.0951199487
 20
4.5653651198
 30
0.0
 10
7.1219667477
 20
4.5653683857
 30
0.0
 10
7.1475496166
 20
4.5609762885
 30
0.0
 10
7.1699522659
 20
4.5529941337
 30
0.0
 10
7.1889638096
 20
4.5419947458
 30
0.0
 10
7.2046498576
 20
4.5280569544
 30
0.0
 10
7.2126238764
 20
4.5167828356
 30
0.0
 10
7.2158397833
 20
4.5107680953
 30
0.0
 11
7.001277511
 21
4.5107560905
 31
0.0
 11
7.0130084258
 21
4.5274739329
 31
0.0
 11
7.0283458601
 21
4.5412511553
 31
0.0
 11
7.0468455967
 21
4.5520874908
 31
0.0
 11
7.0688692327
 21
4.5600516499
 31
0.0
 11
7.0945608541
 21
4.5645445295
 31
0.0
 11
7.1225235345
 21
4.5645479991
 31
0.0
 11
7.1482236024
 21
4.5600598919
 31
0.0
 11
7.1702708559
 21
4.5520908858
 31
0.0
 11
7.1887796029
 21
4.5412498851
 31
0.0
 11
7.2041112292
 21
4.5274784709
 31
0.0
 11
7.2158397833
 21
4.5107680953
 31
0.0
  0
SPLINE
  5
4E6
100
AcDbEntity
  8
0
100
AcDbSpline
 62
7
  6
CONTINUOUS
 70
0
 71
3
 72
8
 73
4
 74
2
 42
0.0000001
 43
0.0000001
 44
0.0000000001
 12
0.0085357332
 22
-0.0159644601
 32
0.0
 13
0.0048303436
 23
-0.0174589025
 33
0.0
 40
0.0
 40
0.0
 40
0.0
 40
0.0
 40
1.0
 40
1.0
 40
1.0
 40
1.0
 10
7.2158397833
 20
4.5107680953
 30
0.0
 10
7.2186850277
 20
4.5054466086
 30
0.0
 10
7.2209413565
 20
4.4998087342
 30
0.0
 10
7.222551471
 20
4.4939891
 30
0.0
 11
7.2158397833
 21
4.5107680953
 31
0.0
 11
7.222551471
 21
4.4939891
 31
0.0
  0
SPLINE
  5
4E7
100
AcDbEntity
  8
0
100
AcDbSpline
 62
7
  6
CONTINUOUS
 70
0
 71
3
 72
12
 73
8
 74
6
 42
0.0000001
 43
0.0000001
 44
0.0000000001
 12
0.0000851809
 22
-0.1081619711
 32
0.0
 13
-0.0984568814
 23
-0.0431971455
 33
0.0
 40
0.0
 40
0.0
 40
0.0
 40
0.0
 40
0.0584720679
 40
0.2633303559
 40
0.4898071582
 40
0.737462979
 40
1.0
 40
1.0
 40
1.0
 40
1.0
 10
5.9065540903
 20
4.6301994829
 30
0.0
 10
5.9065557505
 20
4.6280913315
 30
0.0
 10
5.9060573533
 20
4.6185975589
 30
0.0
 10
5.9010409086
 20
4.6014671041
 30
0.0
 10
5.8876565349
 20
4.5807990933
 30
0.0
 10
5.8681282035
 20
4.5626835347
 30
0.0
 10
5.8521131942
 20
4.5534967427
 30
0.0
 10
5.8434970021
 20
4.5497164594
 30
0.0
 11
5.9065540903
 21
4.6301994829
 31
0.0
 11
5.9062260136
 21
4.6238891858
 31
0.0
 11
5.9003408841
 21
4.6026643803
 31
0.0
 11
5.8873387417
 21
4.5820764214
 31
0.0
 11
5.867935893
 21
4.5638410614
 31
0.0
 11
5.8434970021
 21
4.5497164594
 31
0.0
  0
SPLINE
  5
4E8
100
AcDbEntity
  8
0
100
AcDbSpline
 62
7
  6
CONTINUOUS
 70
0
 71
3
 72
16
 73
12
 74
10
 42
0.0000001
 43
0.0000001
 44
0.0000000001
 12
-0.1561057687
 22
0.1211012155
 32
0.0
 13
-0.1561024679
 23
-0.1211036291
 33
0.0
 40
0.0
 40
0.0
 40
0.0
 40
0.0
 40
0.0378076871
 40
0.155684233
 40
0.2888367552
 40
0.4302079279
 40
0.5712899655
 40
0.7122692346
 40
0.8452405435
 40
0.9631029225
 40
1.0
 40
1.0
 40
1.0
 40
1.0
 10
5.8831194543
 20
4.5782591456
 30
0.0
 10
5.8811521217
 20
4.5797853312
 30
0.0
 10
5.872745565
 20
4.5856820406
 30
0.0
 10
5.8554840247
 20
4.5938110695
 30
0.0
 10
5.8304900428
 20
4.6004061054
 30
0.0
 10
5.8033448807
 20
4.6036180113
 30
0.0
 10
5.7755088951
 20
4.603601108
 30
0.0
 10
5.7484051141
 20
4.6003614799
 30
0.0
 10
5.7234565361
 20
4.593745756
 30
0.0
 10
5.7062730577
 20
4.5856195122
 30
0.0
 10
5.6979241672
 20
4.5797484143
 30
0.0
 10
5.6960042589
 20
4.5782589576
 30
0.0
 11
5.8831194543
 21
4.5782591456
 31
0.0
 11
5.8770161522
 21
4.5825599903
 31
0.0
 11
5.8561792617
 21
4.5927536137
 31
0.0
 11
5.8309089337
 21
4.5996816473
 31
0.0
 11
5.8032959801
 21
4.6030705859
 31
0.0
 11
5.7755327452
 21
4.6030530969
 31
0.0
 11
5.7480004436
 21
4.5996402759
 31
0.0
 11
5.7227732004
 21
4.5926900397
 31
0.0
 11
5.7019559651
 21
4.5824626575
 31
0.0
 11
5.6960042589
 21
4.5782589576
 31
0.0
  0
SPLINE
  5
4E9
100
AcDbEntity
  8
0
100
AcDbSpline
 62
7
  6
CONTINUOUS
 70
0
 71
3
 72
16
 73
12
 74
10
 42
0.0000001
 43
0.0000001
 44
0.0000000001
 12
0.1561089735
 22
-0.1216329823
 32
0.0
 13
0.1560993336
 23
0.1216434508
 33
0.0
 40
0.0
 40
0.0
 40
0.0
 40
0.0
 40
0.0384421274
 40
0.1561366343
 40
0.2890966686
 40
0.4302760421
 40
0.5711700107
 40
0.7119589056
 40
0.8447409372
 40
0.9624256503
 40
1.0
 40
1.0
 40
1.0
 40
1.0
 10
5.6958752073
 20
3.9129173324
 30
0.0
 10
5.6978755943
 20
3.9113587222
 30
0.0
 10
5.7063148575
 20
3.9054254936
 30
0.0
 10
5.723619319
 20
3.8972718487
 30
0.0
 10
5.7486183837
 20
3.8906724488
 30
0.0
 10
5.7757714576
 20
3.8874581672
 30
0.0
 10
5.8036165567
 20
3.8874747498
 30
0.0
 10
5.8307285648
 20
3.8907160993
 30
0.0
 10
5.8556829319
 20
3.8973355345
 30
0.0
 10
5.8729125248
 20
3.905487123
 30
0.0
 10
5.8812966018
 20
3.9113964628
 30
0.0
 10
5.8832517121
 20
3.9129200206
 30
0.0
 11
5.6958752073
 21
3.9129173324
 31
0.0
 11
5.702086184
 21
3.9085298228
 31
0.0
 11
5.7229234816
 21
3.8983302713
 31
0.0
 11
5.7481986943
 21
3.8913975635
 31
0.0
 11
5.77582018
 21
3.8880059722
 31
0.0
 11
5.8035928468
 21
3.888023131
 31
0.0
 11
5.8311339186
 21
3.8914379018
 31
0.0
 11
5.856366821
 21
3.8983921443
 31
0.0
 11
5.8771856436
 21
3.9086249775
 31
0.0
 11
5.8832517121
 21
3.9129200206
 31
0.0
  0
SPLINE
  5
4EA
100
AcDbEntity
  8
0
100
AcDbSpline
 62
7
  6
CONTINUOUS
 70
0
 71
3
 72
20
 73
16
 74
14
 42
0.0000001
 43
0.0000001
 44
0.0000000001
 12
0.0002730235
 22
0.3272680293
 32
0.0
 13
0.0002697595
 23
-0.3272700408
 33
0.0
 40
0.0
 40
0.0
 40
0.0
 40
0.0
 40
0.0454957129
 40
0.1158344186
 40
0.1935458838
 40
0.2775878165
 40
0.3655255145
 40
0.4551040173
 40
0.5450573711
 40
0.634634655
 40
0.7225672933
 40
0.8066005707
 40
0.8843009708
 40
0.9546302833
 40
1.0
 40
1.0
 40
1.0
 40
1.0
 10
5.6725632913
 20
3.8608760936
 30
0.0
 10
5.6725674318
 20
3.865839191
 30
0.0
 10
5.6741877066
 20
3.8784861635
 30
0.0
 10
5.6826260405
 20
3.8980680763
 30
0.0
 10
5.6985941179
 20
3.9179116824
 30
0.0
 10
5.7202794401
 20
3.9345822837
 30
0.0
 10
5.7462682969
 20
3.9465989428
 30
0.0
 10
5.7748622505
 20
3.9528721966
 30
0.0
 10
5.8043148528
 20
3.9528664032
 30
0.0
 10
5.8329056663
 20
3.9465820243
 30
0.0
 10
5.8588882649
 20
3.9345556926
 30
0.0
 10
5.8805645532
 20
3.9178776934
 30
0.0
 10
5.8965215312
 20
3.8980290942
 30
0.0
 10
5.9049427386
 20
3.8784570823
 30
0.0
 10
5.9065562838
 20
3.8658247018
 30
0.0
 10
5.9065603635
 20
3.8608753188
 30
0.0
 11
5.6725632913
 21
3.8608760936
 31
0.0
 11
5.674369325
 21
3.8756306918
 31
0.0
 11
5.683146797
 21
3.8967982917
 31
0.0
 11
5.6988324007
 21
3.9166710021
 31
0.0
 11
5.7204549993
 21
3.9334670302
 31
0.0
 11
5.7464338886
 21
3.9455439057
 31
0.0
 11
5.7749356759
 21
3.951814145
 31
0.0
 11
5.8042411439
 21
3.9518083693
 31
0.0
 11
5.8327400593
 21
3.9455269343
 31
0.0
 11
5.8587125931
 21
3.9334403031
 31
0.0
 11
5.8803258634
 21
3.9166368666
 31
0.0
 11
5.8959998549
 21
3.8967595868
 31
0.0
 11
5.9047642634
 21
3.8755898866
 31
0.0
 11
5.9065603635
 21
3.8608753188
 31
0.0
  0
SPLINE
  5
4EB
100
AcDbEntity
  8
0
100
AcDbSpline
 62
7
  6
CONTINUOUS
 70
0
 71
3
 72
8
 73
4
 74
2
 42
0.0000001
 43
0.0000001
 44
0.0000000001
 12
-0.0000002744
 22
-0.0000016226
 32
0.0
 13
-0.0011551594
 23
0.0002429125
 33
0.0
 40
0.0
 40
0.0
 40
0.0
 40
0.0
 40
1.0
 40
1.0
 40
1.0
 40
1.0
 10
5.9064297905
 20
3.7015660356
 30
0.0
 10
5.9064296991
 20
3.7015654947
 30
0.0
 10
5.9062017081
 20
3.7016133072
 30
0.0
 10
5.905816655
 20
3.7016942781
 30
0.0
 11
5.9064297905
 21
3.7015660356
 31
0.0
 11
5.905816655
 21
3.7016942781
 31
0.0
  0
SPLINE
  5
4EC
100
AcDbEntity
  8
0
100
AcDbSpline
 62
7
  6
CONTINUOUS
 70
0
 71
3
 72
20
 73
16
 74
14
 42
0.0000001
 43
0.0000001
 44
0.0000000001
 12
0.0
 22
-0.3504024234
 32
0.0
 13
0.0
 23
0.3504024234
 33
0.0
 40
0.0
 40
0.0
 40
0.0
 40
0.0
 40
0.0706764167
 40
0.1453519764
 40
0.2214439236
 40
0.2988189533
 40
0.3794923371
 40
0.4603148541
 40
0.5395743419
 40
0.6205775142
 40
0.7012465819
 40
0.7784956738
 40
0.8547615555
 40
0.9295058042
 40
1.0
 40
1.0
 40
1.0
 40
1.0
 10
4.5805618558
 20
4.5260380576
 30
0.0
 10
4.5805618558
 20
4.517782995
 30
0.0
 10
4.5781317714
 20
4.5007336478
 30
0.0
 10
4.5678658935
 20
4.4767057597
 30
0.0
 10
4.5516828686
 20
4.4552254012
 30
0.0
 10
4.5305198834
 20
4.4375403248
 30
0.0
 10
4.5053855481
 20
4.4248533792
 30
0.0
 10
4.477776013
 20
4.4182807605
 30
0.0
 10
4.4493656282
 20
4.4182760899
 30
0.0
 10
4.421734196
 20
4.4248522103
 30
0.0
 10
4.3965971167
 20
4.4375468437
 30
0.0
 10
4.3754311113
 20
4.4552347801
 30
0.0
 10
4.3592405122
 20
4.4767282818
 30
0.0
 10
4.3489835836
 20
4.500768662
 30
0.0
 10
4.3465618558
 20
4.5178042786
 30
0.0
 10
4.3465618558
 20
4.5260380576
 30
0.0
 11
4.5805618558
 21
4.5260380576
 31
0.0
 11
4.5771800187
 21
4.5015048617
 31
0.0
 11
4.5670225991
 21
4.4773902936
 31
0.0
 11
4.5510399976
 21
4.4560487497
 31
0.0
 11
4.5302560367
 21
4.4386387212
 31
0.0
 11
4.505020113
 21
4.4259015153
 31
0.0
 11
4.477467617
 21
4.4193512979
 31
0.0
 11
4.4496949008
 21
4.4193467898
 31
0.0
 11
4.4220804262
 21
4.4259099953
 31
0.0
 11
4.3968483631
 21
4.4386514924
 31
0.0
 11
4.3760983514
 21
4.4560333278
 31
0.0
 11
4.3600810666
 21
4.477425041
 31
0.0
 11
4.3499265835
 21
4.5015669591
 31
0.0
 11
4.3465618558
 21
4.5260380576
 31
0.0
  0
SPLINE
  5
4ED
100
AcDbEntity
  8
0
100
AcDbSpline
 62
7
  6
CONTINUOUS
 70
0
 71
3
 72
20
 73
16
 74
14
 42
0.0000001
 43
0.0000001
 44
0.0000000001
 12
-0.2305360009
 22
-0.0495823092
 32
0.0
 13
-0.2305360066
 23
0.0495823083
 33
0.0
 40
0.0
 40
0.0
 40
0.0
 40
0.0
 40
0.0146665538
 40
0.058606209
 40
0.1274344244
 40
0.2164630008
 40
0.3240193317
 40
0.4410219771
 40
0.5588089858
 40
0.6760770501
 40
0.7836198541
 40
0.8725038797
 40
0.9414815471
 40
0.985408045
 40
1.0
 40
1.0
 40
1.0
 40
1.0
 10
7.2255618558
 20
4.7895380576
 30
0.0
 10
7.2244347996
 20
4.7892956571
 30
0.0
 10
7.2199284254
 20
4.788339805
 30
0.0
 10
7.2101061809
 20
4.7863731946
 30
0.0
 10
7.1944851659
 20
4.7836084393
 30
0.0
 10
7.1738305943
 20
4.7806388405
 30
0.0
 10
7.1492988363
 20
4.7781497727
 30
0.0
 10
7.1224140232
 20
4.7767474163
 30
0.0
 10
7.0947287019
 20
4.7767463734
 30
0.0
 10
7.0678240233
 20
4.7781493464
 30
0.0
 10
7.0432839697
 20
4.7806402147
 30
0.0
 10
7.0226300995
 20
4.7836097948
 30
0.0
 10
7.0070097281
 20
4.7863745283
 30
0.0
 10
6.9971827919
 20
4.7883424044
 30
0.0
 10
6.9926831795
 20
4.78929689
 30
0.0
 10
6.9915618558
 20
4.7895380576
 30
0.0
 11
7.2255618558
 21
4.7895380576
 31
0.0
 11
7.2221786286
 21
4.7888204621
 31
0.0
 11
7.2120188131
 21
4.7867869301
 31
0.0
 11
7.1960365459
 21
4.7839605881
 31
0.0
 11
7.1752559458
 21
4.7809772247
 31
0.0
 11
7.1500222709
 21
4.7784226286
 31
0.0
 11
7.1224693541
 21
4.7769892957
 31
0.0
 11
7.0946942215
 21
4.776988254
 31
0.0
 11
7.067078778
 21
4.7784243923
 31
0.0
 11
7.0418483753
 21
4.7809796403
 31
0.0
 11
7.0211015291
 21
4.7839582548
 31
0.0
 11
7.0050845729
 21
4.7867908156
 31
0.0
 11
6.9949278645
 21
4.7888240633
 31
0.0
 11
6.9915618558
 21
4.7895380576
 31
0.0
  0
SPLINE
  5
4EE
100
AcDbEntity
  8
0
100
AcDbSpline
 62
7
  6
CONTINUOUS
 70
0
 71
3
 72
20
 73
16
 74
14
 42
0.0000001
 43
0.0000001
 44
0.0000000001
 12
0.2305360009
 22
0.0495823092
 32
0.0
 13
0.2305360066
 23
-0.0495823083
 33
0.0
 40
0.0
 40
0.0
 40
0.0
 40
0.0
 40
0.0146665538
 40
0.058606209
 40
0.1274344244
 40
0.2164630008
 40
0.3240193317
 40
0.4410219771
 40
0.5588089858
 40
0.6760770501
 40
0.7836198541
 40
0.8725038797
 40
0.9414815471
 40
0.985408045
 40
1.0
 40
1.0
 40
1.0
 40
1.0
 10
6.9915618558
 20
3.7015380576
 30
0.0
 10
6.9926889121
 20
3.7017804581
 30
0.0
 10
6.9971952863
 20
3.7027363102
 30
0.0
 10
7.0070175308
 20
3.7047029206
 30
0.0
 10
7.0226385458
 20
3.7074676759
 30
0.0
 10
7.0432931174
 20
3.7104372747
 30
0.0
 10
7.0678248754
 20
3.7129263425
 30
0.0
 10
7.0947096885
 20
3.7143286989
 30
0.0
 10
7.1223950098
 20
3.7143297418
 30
0.0
 10
7.1492996884
 20
3.7129267688
 30
0.0
 10
7.173839742
 20
3.7104359005
 30
0.0
 10
7.1944936122
 20
3.7074663204
 30
0.0
 10
7.2101139836
 20
3.7047015869
 30
0.0
 10
7.2199409197
 20
3.7027337108
 30
0.0
 10
7.2244405322
 20
3.7017792252
 30
0.0
 10
7.2255618558
 20
3.7015380576
 30
0.0
 11
6.9915618558
 21
3.7015380576
 31
0.0
 11
6.9949450831
 21
3.7022556531
 31
0.0
 11
7.0051048986
 21
3.7042891851
 31
0.0
 11
7.0210871658
 21
3.7071155271
 31
0.0
 11
7.0418677659
 21
3.7100988905
 31
0.0
 11
7.0671014408
 21
3.7126534866
 31
0.0
 11
7.0946543576
 21
3.7140868195
 31
0.0
 11
7.1224294902
 21
3.7140878612
 31
0.0
 11
7.1500449336
 21
3.7126517229
 31
0.0
 11
7.1752753364
 21
3.7100964749
 31
0.0
 11
7.1960221826
 21
3.7071178604
 31
0.0
 11
7.2120391388
 21
3.7042852996
 31
0.0
 11
7.2221958471
 21
3.7022520519
 31
0.0
 11
7.2255618558
 21
3.7015380576
 31
0.0
  0
SPLINE
  5
4EF
100
AcDbEntity
  8
0
100
AcDbSpline
 62
7
  6
CONTINUOUS
 70
0
 71
3
 72
13
 73
9
 74
7
 42
0.0000001
 43
0.0000001
 44
0.0000000001
 12
-0.0000127828
 22
0.0000755913
 32
0.0
 13
0.064066459
 23
0.0064794246
 33
0.0
 40
0.0
 40
0.0
 40
0.0
 40
0.0
 40
0.0112941633
 40
0.034762882
 40
0.1741090122
 40
0.4221174325
 40
0.7621467179
 40
1.0
 40
1.0
 40
1.0
 40
1.0
 10
5.6726921347
 20
3.7015656556
 30
0.0
 10
5.6726920866
 20
3.7015659402
 30
0.0
 10
5.6728881207
 20
3.7016084414
 30
0.0
 10
5.6773917255
 20
3.7025697074
 30
0.0
 10
5.6849764254
 20
3.7041079076
 30
0.0
 10
5.7009668667
 20
3.7070479215
 30
0.0
 10
5.7182422593
 20
3.7096059238
 30
0.0
 10
5.7305480477
 20
3.7110220828
 30
0.0
 10
5.7356275202
 20
3.7115358003
 30
0.0
 11
5.6726921347
 21
3.7015656556
 31
0.0
 11
5.6728936881
 21
3.7016093294
 31
0.0
 11
5.674369325
 21
3.7019239305
 31
0.0
 11
5.683146797
 21
3.7037159791
 31
0.0
 11
5.6988324007
 21
3.706577174
 31
0.0
 11
5.7204549993
 21
3.7097930085
 31
0.0
 11
5.7356275202
 21
3.7115358003
 31
0.0
  0
SPLINE
  5
4F0
100
AcDbEntity
  8
0
100
AcDbSpline
 62
7
  6
CONTINUOUS
 70
0
 71
3
 72
12
 73
8
 74
6
 42
0.0000001
 43
0.0000001
 44
0.0000000001
 12
0.1076250856
 22
0.0108847693
 32
0.0
 13
0.1076249438
 23
-0.0108847864
 33
0.0
 40
0.0
 40
0.0
 40
0.0
 40
0.0
 40
0.1002792433
 40
0.3645719691
 40
0.6359180243
 40
0.9001855043
 40
1.0
 40
1.0
 40
1.0
 40
1.0
 10
5.7356275202
 20
3.7115358003
 30
0.0
 10
5.7392250409
 20
3.7118996391
 30
0.0
 10
5.7523304731
 20
3.7130962655
 30
0.0
 10
5.7751735456
 20
3.7143356686
 30
0.0
 10
5.8040023575
 20
3.7143342372
 30
0.0
 10
5.8268278636
 20
3.7130935387
 30
0.0
 10
5.8399153389
 20
3.7118979783
 30
0.0
 10
5.8434961821
 20
3.7115358251
 30
0.0
 11
5.7356275202
 21
3.7115358003
 31
0.0
 11
5.7464338886
 21
3.7125211521
 31
0.0
 11
5.7749356759
 21
3.7140675268
 31
0.0
 11
5.8042411439
 21
3.7140660626
 31
0.0
 11
5.8327400592
 21
3.712517085
 31
0.0
 11
5.8434961821
 21
3.7115358251
 31
0.0
  0
SPLINE
  5
4F1
100
AcDbEntity
  8
0
100
AcDbSpline
 62
7
  6
CONTINUOUS
 70
0
 71
3
 72
13
 73
9
 74
7
 42
0.0000001
 43
0.0000001
 44
0.0000000001
 12
0.0640658819
 22
-0.006479385
 32
0.0
 13
-0.0000128427
 23
-0.0000759902
 33
0.0
 40
0.0
 40
0.0
 40
0.0
 40
0.0
 40
0.2385401211
 40
0.5784288582
 40
0.8262578335
 40
0.9653984358
 40
0.9886464497
 40
1.0
 40
1.0
 40
1.0
 40
1.0
 10
5.8434961821
 20
3.7115358251
 30
0.0
 10
5.8485902765
 20
3.7110206274
 30
0.0
 10
5.8609077593
 20
3.7096025956
 30
0.0
 10
5.8781921241
 20
3.7070419068
 30
0.0
 10
5.894166143
 20
3.7041042721
 30
0.0
 10
5.9017472117
 20
3.7025664631
 30
0.0
 10
5.9062336391
 20
3.7016088588
 30
0.0
 10
5.9064298391
 20
3.7015663232
 30
0.0
 10
5.9064297905
 20
3.7015660356
 30
0.0
 11
5.8434961821
 21
3.7115358251
 31
0.0
 11
5.858712593
 21
3.7097873465
 31
0.0
 11
5.8803258633
 21
3.7065713563
 31
0.0
 11
5.8959998549
 21
3.7037114731
 31
0.0
 11
5.9047642633
 21
3.7019218375
 31
0.0
 11
5.9062260103
 21
3.7016101902
 31
0.0
 11
5.9064297905
 21
3.7015660356
 31
0.0
  0
SPLINE
  5
4F2
100
AcDbEntity
  8
0
100
AcDbSpline
 62
7
  6
CONTINUOUS
 70
0
 71
3
 72
20
 73
16
 74
14
 42
0.0000001
 43
0.0000001
 44
0.0000000001
 12
0.0
 22
0.3347621748
 32
0.0
 13
0.0
 23
-0.3347621748
 33
0.0
 40
0.0
 40
0.0
 40
0.0
 40
0.0
 40
0.0709500026
 40
0.1426134162
 40
0.2153872828
 40
0.2920110581
 40
0.3740562474
 40
0.4583584723
 40
0.5418388569
 40
0.6263434616
 40
0.7083931152
 40
0.784857538
 40
0.8576797996
 40
0.9292418222
 40
1.0
 40
1.0
 40
1.0
 40
1.0
 10
6.9915618558
 20
4.5175380576
 30
0.0
 10
6.9915618558
 20
4.5254551833
 30
0.0
 10
6.9937558207
 20
4.5414696639
 30
0.0
 10
7.0038445438
 20
4.5636452248
 30
0.0
 10
7.0201027267
 20
4.5825953094
 30
0.0
 10
7.0415208675
 20
4.5974615861
 30
0.0
 10
7.0668746758
 20
4.6076326062
 30
0.0
 10
7.0944560427
 20
4.6127129981
 30
0.0
 10
7.1227570681
 20
4.6127069764
 30
0.0
 10
7.1503588977
 20
4.6076039055
 30
0.0
 10
7.1757074582
 20
4.5974041988
 30
0.0
 10
7.197099628
 20
4.5825230975
 30
0.0
 10
7.2133239279
 20
4.5635743671
 30
0.0
 10
7.223378602
 20
4.5414147019
 30
0.0
 10
7.2255618558
 20
4.5254337781
 30
0.0
 10
7.2255618558
 20
4.5175380576
 30
0.0
 11
6.9915618558
 21
4.5175380576
 31
0.0
 11
6.9948551622
 21
4.5410600059
 31
0.0
 11
7.004742102
 21
4.5629181423
 31
0.0
 11
7.0204929644
 21
4.5815034685
 31
0.0
 11
7.0414560604
 21
4.5962855236
 31
0.0
 11
7.066884076
 21
4.6066670762
 31
0.0
 11
7.0946220144
 21
4.611867334
 31
0.0
 11
7.1225680889
 21
4.6118612905
 31
0.0
 11
7.1503690108
 21
4.6066293536
 31
0.0
 11
7.1757874054
 21
4.5962203228
 31
0.0
 11
7.1966919498
 21
4.5814478236
 31
0.0
 11
7.2124348016
 21
4.562834488
 31
0.0
 11
7.2222864971
 21
4.5409976749
 31
0.0
 11
7.2255618558
 21
4.5175380576
 31
0.0
  0
SPLINE
  5
4F3
100
AcDbEntity
  8
0
100
AcDbSpline
 62
7
  6
CONTINUOUS
 70
0
 71
3
 72
20
 73
16
 74
14
 42
0.0000001
 43
0.0000001
 44
0.0000000001
 12
0.0002506627
 22
0.3072167436
 32
0.0
 13
0.0002419422
 23
-0.3072161679
 33
0.0
 40
0.0
 40
0.0
 40
0.0
 40
0.0
 40
0.0468052677
 40
0.114252449
 40
0.1872186663
 40
0.2685943043
 40
0.3578200942
 40
0.4521046873
 40
0.548068021
 40
0.6423467395
 40
0.7315599804
 40
0.8129205074
 40
0.8858747439
 40
0.9533201231
 40
1.0
 40
1.0
 40
1.0
 40
1.0
 10
5.6725696085
 20
4.6302004124
 30
0.0
 10
5.6725735193
 20
4.634993533
 30
0.0
 10
5.6740005835
 20
4.6466946902
 30
0.0
 10
5.6824570045
 20
4.664273165
 30
0.0
 10
5.6989040421
 20
4.6802749934
 30
0.0
 10
5.720864259
 20
4.69226021
 30
0.0
 10
5.7467847686
 20
4.700183673
 30
0.0
 10
5.7750627028
 20
4.7041071307
 30
0.0
 10
5.8041142007
 20
4.7041035362
 30
0.0
 10
5.8323892774
 20
4.7001727995
 30
0.0
 10
5.8583040459
 20
4.6922418727
 30
0.0
 10
5.8802557524
 20
4.680249039
 30
0.0
 10
5.8966915991
 20
4.6642394514
 30
0.0
 10
5.905129093
 20
4.6466677371
 30
0.0
 10
5.9065503257
 20
4.6349797539
 30
0.0
 10
5.9065540903
 20
4.6301994829
 30
0.0
 11
5.6725696085
 21
4.6302004124
 31
0.0
 11
5.6743693455
 21
4.6444172413
 31
0.0
 11
5.683146857
 21
4.663050508
 31
0.0
 11
5.6988325087
 21
4.6788768741
 31
0.0
 11
5.7204551579
 21
4.6911250122
 31
0.0
 11
5.7464340936
 21
4.6993436882
 31
0.0
 11
5.7749359183
 21
4.7034269946
 31
0.0
 11
5.8042414115
 21
4.703423254
 31
0.0
 11
5.8327403359
 21
4.699332361
 31
0.0
 11
5.8587128551
 21
4.691106113
 31
0.0
 11
5.880326087
 21
4.6788507175
 31
0.0
 11
5.8960000053
 21
4.6630178789
 31
0.0
 11
5.9047643411
 21
4.6443790193
 31
0.0
 11
5.9065540903
 21
4.6301994829
 31
0.0
  0
SPLINE
  5
4F4
100
AcDbEntity
  8
0
100
AcDbSpline
 62
7
  6
CONTINUOUS
 70
0
 71
3
 72
20
 73
16
 74
14
 42
0.0000001
 43
0.0000001
 44
0.0000000001
 12
0.0
 22
0.3349972427
 32
0.0
 13
0.0
 23
-0.3349972427
 33
0.0
 40
0.0
 40
0.0
 40
0.0
 40
0.0
 40
0.0709892805
 40
0.142756579
 40
0.2155463787
 40
0.2921813165
 40
0.3741956965
 40
0.4584224523
 40
0.5418107773
 40
0.6262384191
 40
0.7082535294
 40
0.7847258929
 40
0.8575372008
 40
0.9292114563
 40
1.0
 40
1.0
 40
1.0
 40
1.0
 10
4.3465618558
 20
4.5260380576
 30
0.0
 10
4.3465618558
 20
4.5339651287
 30
0.0
 10
4.3487623892
 20
4.5500065221
 30
0.0
 10
4.3588635934
 20
4.5722139673
 30
0.0
 10
4.3751268388
 20
4.5911998563
 30
0.0
 10
4.3965395491
 20
4.6061045144
 30
0.0
 10
4.4218888542
 20
4.6163112287
 30
0.0
 10
4.4494651676
 20
4.6214116269
 30
0.0
 10
4.477759959
 20
4.6214044772
 30
0.0
 10
4.505355748
 20
4.6162791901
 30
0.0
 10
4.5306979934
 20
4.6060419411
 30
0.0
 10
4.5520802453
 20
4.5911227024
 30
0.0
 10
4.568306836
 20
4.5721394151
 30
0.0
 10
4.5783723676
 20
4.5499504293
 30
0.0
 10
4.5805618558
 20
4.5339427132
 30
0.0
 10
4.5805618558
 20
4.5260380576
 30
0.0
 11
4.3465618558
 21
4.5260380576
 31
0.0
 11
4.3498605719
 21
4.5495893755
 31
0.0
 11
4.3597656455
 21
4.5714959939
 31
0.0
 11
4.3755176328
 21
4.5901097788
 31
0.0
 11
4.3964805659
 21
4.6049297765
 31
0.0
 11
4.4219046645
 21
4.6153445912
 31
0.0
 11
4.4496336709
 21
4.6205627976
 31
0.0
 11
4.477568529
 21
4.6205556233
 31
0.0
 11
4.505359612
 21
4.6153034496
 31
0.0
 11
4.5307719838
 21
4.60485941
 31
0.0
 11
4.5516741178
 21
4.5900477827
 31
0.0
 11
4.5674113677
 21
4.5714121045
 31
0.0
 11
4.5772819325
 21
4.549524103
 31
0.0
 11
4.5805618558
 21
4.5260380576
 31
0.0
  0
SPLINE
  5
4F5
100
AcDbEntity
  8
0
100
AcDbSpline
 62
7
  6
CONTINUOUS
 70
0
 71
3
 72
12
 73
8
 74
6
 42
0.0000001
 43
0.0000001
 44
0.0000000001
 12
0.0000812491
 22
-0.0985708027
 32
0.0
 13
-0.0940907657
 23
-0.0278417545
 33
0.0
 40
0.0
 40
0.0
 40
0.0
 40
0.0
 40
0.0631968289
 40
0.2706160607
 40
0.4891009592
 40
0.7314432557
 40
1.0
 40
1.0
 40
1.0
 40
1.0
 10
5.9065603635
 20
3.8608753188
 30
0.0
 10
5.906562075
 20
3.8587988647
 30
0.0
 10
5.9060955889
 20
3.8499104343
 30
0.0
 10
5.9013356408
 20
3.8342283853
 30
0.0
 10
5.8875375018
 20
3.8167226092
 30
0.0
 10
5.8676098859
 20
3.8031230812
 30
0.0
 10
5.8519199053
 20
3.7970187807
 30
0.0
 10
5.8434970021
 20
3.7945264171
 30
0.0
 11
5.9065603635
 21
3.8608753188
 31
0.0
 11
5.9062260103
 21
3.8546589869
 31
0.0
 11
5.9003406271
 21
3.835175781
 31
0.0
 11
5.8873388931
 21
3.8181298137
 31
0.0
 11
5.8679364741
 21
3.8043817093
 31
0.0
 11
5.8434970021
 21
3.7945264171
 31
0.0
  0
SPLINE
  5
4F6
100
AcDbEntity
  8
0
100
AcDbSpline
 62
7
  6
CONTINUOUS
 70
0
 71
3
 72
20
 73
16
 74
14
 42
0.0000001
 43
0.0000001
 44
0.0000000001
 12
0.0
 22
-0.3349971736
 32
0.0
 13
0.0
 23
0.3349971736
 33
0.0
 40
0.0
 40
0.0
 40
0.0
 40
0.0
 40
0.0709996755
 40
0.1427988312
 40
0.2155891812
 40
0.2922202766
 40
0.374224957
 40
0.4584365819
 40
0.5418087774
 40
0.6262216572
 40
0.7082269847
 40
0.784695334
 40
0.8574986434
 40
0.9292062703
 40
1.0
 40
1.0
 40
1.0
 40
1.0
 10
4.5805618558
 20
3.9650380576
 30
0.0
 10
4.5805618558
 20
3.9571098274
 30
0.0
 10
4.5783603525
 20
3.9410636711
 30
0.0
 10
4.5682545891
 20
3.9188526255
 30
0.0
 10
4.5519862837
 20
3.8998669221
 30
0.0
 10
4.5305729477
 20
3.8849658601
 30
0.0
 10
4.5052258208
 20
3.8747626036
 30
0.0
 10
4.47765386
 20
3.8696643875
 30
0.0
 10
4.4493642982
 20
3.8696719067
 30
0.0
 10
4.4217729651
 20
3.8747957857
 30
0.0
 10
4.396433205
 20
3.885030399
 30
0.0
 10
4.3750516968
 20
3.8999463182
 30
0.0
 10
4.3588212027
 20
3.9189292442
 30
0.0
 10
4.3487520814
 20
3.9411207813
 30
0.0
 10
4.3465618558
 20
3.9571328245
 30
0.0
 10
4.3465618558
 20
3.9650380576
 30
0.0
 11
4.5805618558
 21
3.9650380576
 31
0.0
 11
4.5772621665
 21
3.9414833647
 31
0.0
 11
4.5673503963
 21
3.9195680675
 31
0.0
 11
4.5515953874
 21
3.900956605
 31
0.0
 11
4.5306316063
 21
3.8861400464
 31
0.0
 11
4.5052095803
 21
3.875728759
 31
0.0
 11
4.4774852986
 21
3.8705128855
 31
0.0
 11
4.4495558498
 21
3.8705204308
 31
0.0
 11
4.4217695168
 21
3.8757710771
 31
0.0
 11
4.3963595818
 21
3.8862124097
 31
0.0
 11
4.375457219
 21
3.9010213788
 31
0.0
 11
4.3597193301
 21
3.9196530035
 31
0.0
 11
4.3498422626
 21
3.9415503304
 31
0.0
 11
4.3465618558
 21
3.9650380576
 31
0.0
  0
SPLINE
  5
4F7
100
AcDbEntity
  8
0
100
AcDbSpline
 62
7
  6
CONTINUOUS
 70
0
 71
3
 72
11
 73
7
 74
5
 42
0.0000001
 43
0.0000001
 44
0.0000000001
 12
-0.1046644699
 22
-0.0309705469
 32
0.0
 13
-0.1046644699
 23
0.0309705469
 33
0.0
 40
0.0
 40
0.0
 40
0.0
 40
0.0
 40
0.2471354317
 40
0.4994136673
 40
0.7526040808
 40
1.0
 40
1.0
 40
1.0
 40
1.0
 10
5.8434970021
 20
3.7945264171
 30
0.0
 10
5.8348749024
 20
3.7919751106
 30
0.0
 10
5.8169903134
 20
3.788315286
 30
0.0
 10
5.7895930184
 20
3.7865521261
 30
0.0
 10
5.7621848972
 20
3.7883055819
 30
0.0
 10
5.7442578972
 20
3.7919724214
 30
0.0
 10
5.7356267096
 20
3.7945264171
 30
0.0
 11
5.8434970021
 21
3.7945264171
 31
0.0
 11
5.8171020652
 21
3.7889626764
 31
0.0
 11
5.789626
 21
3.7871424952
 31
0.0
 11
5.762049902
 21
3.7889588739
 31
0.0
 11
5.7356267096
 21
3.7945264171
 31
0.0
  0
SPLINE
  5
4F8
100
AcDbEntity
  8
0
100
AcDbSpline
 62
7
  6
CONTINUOUS
 70
0
 71
3
 72
12
 73
8
 74
6
 42
0.0000001
 43
0.0000001
 44
0.0000000001
 12
-0.0940911731
 22
0.0278418751
 32
0.0
 13
0.0000822326
 23
0.0985706237
 33
0.0
 40
0.0
 40
0.0
 40
0.0
 40
0.0
 40
0.2686849243
 40
0.5110943688
 40
0.7296367686
 40
0.9371719258
 40
1.0
 40
1.0
 40
1.0
 40
1.0
 10
5.7356267096
 20
3.7945264171
 30
0.0
 10
5.7271997497
 20
3.7970199811
 30
0.0
 10
5.7115037971
 20
3.803127289
 30
0.0
 10
5.6915712279
 20
3.8167351162
 30
0.0
 10
5.6777738494
 20
3.8342524637
 30
0.0
 10
5.6730248482
 20
3.8499315891
 30
0.0
 10
5.6725615691
 20
3.8588117594
 30
0.0
 10
5.6725632913
 20
3.8608760936
 30
0.0
 11
5.7356267096
 21
3.7945264171
 31
0.0
 11
5.7111759807
 21
3.8043877299
 31
0.0
 11
5.6917706291
 21
3.8181432692
 31
0.0
 11
5.6787714231
 21
3.8351983761
 31
0.0
 11
5.6728936881
 21
3.8546958638
 31
0.0
 11
5.6725632913
 21
3.8608760936
 31
0.0
  0
SPLINE
  5
4F9
100
AcDbEntity
  8
0
100
AcDbSpline
 62
7
  6
CONTINUOUS
 70
0
 71
3
 72
20
 73
16
 74
14
 42
0.0000001
 43
0.0000001
 44
0.0000000001
 12
0.0
 22
-0.3347621086
 32
0.0
 13
0.0
 23
0.3347621086
 33
0.0
 40
0.0
 40
0.0
 40
0.0
 40
0.0
 40
0.070961599
 40
0.1426564027
 40
0.2154267464
 40
0.2920478889
 40
0.3740842184
 40
0.4583721424
 40
0.5418371831
 40
0.6263278527
 40
0.7083685677
 40
0.7848300707
 40
0.8576398977
 40
0.9292355036
 40
1.0
 40
1.0
 40
1.0
 40
1.0
 10
7.2255618558
 20
3.9735380576
 30
0.0
 10
7.2255618558
 20
3.9656196394
 30
0.0
 10
7.2233668727
 20
3.949600312
 30
0.0
 10
7.2132736563
 20
3.9274215426
 30
0.0
 10
7.1970107795
 20
3.9084718817
 30
0.0
 10
7.1755923166
 20
3.8936091412
 30
0.0
 10
7.1502404304
 20
3.8834413391
 30
0.0
 10
7.1226631497
 20
3.8783630145
 30
0.0
 10
7.0943670726
 20
3.8783693999
 30
0.0
 10
7.0667694299
 20
3.8834711662
 30
0.0
 10
7.0414231056
 20
3.8936684626
 30
0.0
 10
7.0200320184
 20
3.9085462638
 30
0.0
 10
7.0038041403
 20
3.9274943844
 30
0.0
 10
6.9937459022
 20
3.9496562307
 30
0.0
 10
6.9915618558
 20
3.9656416336
 30
0.0
 10
6.9915618558
 20
3.9735380576
 30
0.0
 11
7.2255618558
 21
3.9735380576
 31
0.0
 11
7.2222674642
 21
3.9500123461
 31
0.0
 11
7.2123738074
 21
3.9281457202
 31
0.0
 11
7.1966208871
 21
3.9095636906
 31
0.0
 11
7.1756567424
 21
3.8947846612
 31
0.0
 11
7.1502305899
 21
3.8844064066
 31
0.0
 11
7.1224971124
 21
3.879208365
 31
0.0
 11
7.0945561801
 21
3.8792147738
 31
0.0
 11
7.0667597432
 21
3.8844452889
 31
0.0
 11
7.0413435696
 21
3.8948518327
 31
0.0
 11
7.0204386181
 21
3.9096220532
 31
0.0
 11
7.0046961391
 21
3.9282302457
 31
0.0
 11
6.9948378036
 21
3.9500763915
 31
0.0
 11
6.9915618558
 21
3.9735380576
 31
0.0
  0
ENDSEC
  0
SECTION
  2
OBJECTS
  0
DICTIONARY
  5
C
100
AcDbDictionary
280
0
281
1
  3
ACAD_GROUP
350
D
  3
ACAD_MLINESTYLE
350
17
  3
ACAD_LAYOUT
350
1A
  3
ACAD_PLOTSETTINGS
350
19
  3
ACAD_PLOTSTYLENAME
350
E
  0
DICTIONARY
  5
D
102
{ACAD_REACTORS
330
C
102
}
100
AcDbDictionary
280
0
281
1
  0
ACDBDICTIONARYWDFLT
  5
E
102
{ACAD_REACTORS
330
C
102
}
100
AcDbDictionary
281
1
  3
Normal
350
F
100
AcDbDictionaryWithDefault
340
F
  0
DICTIONARY
  5
17
102
{ACAD_REACTORS
330
C
102
}
100
AcDbDictionary
280
0
281
1
  3
Standard
350
18
  0
DICTIONARY
  5
19
102
{ACAD_REACTORS
330
C
102
}
100
AcDbDictionary
281
1
  0
DICTIONARY
  5
1A
102
{ACAD_REACTORS
330
C
102
}
100
AcDbDictionary
281
1
  3
Layout1
350
1E
  3
Model
350
22
  0
ACDBPLACEHOLDER
  5
F
102
{ACAD_REACTORS
330
E
102
}
  0
MLINESTYLE
  5
18
102
{ACAD_REACTORS
330
17
102
}
100
AcDbMlineStyle
  2
STANDARD
 70
0
  3

 62
256
 51
90.0
 52
90.0
 71
2
 49
0.5
 62
256
  6
BYLAYER
 49
-0.5
 62
256
  6
BYLAYER
  0
LAYOUT
  5
1E
102
{ACAD_REACTORS
330
1A
102
}
100
AcDbPlotSettings
  1

  2

  4

  6

 40
0.0
 41
0.0
 42
0.0
 43
0.0
 44
0.0
 45
0.0
 46
0.0
 47
0.0
 48
0.0
 49
0.0
140
0.0
141
0.0
142
1.0
143
1.0
 70
0
 72
0
 73
0
 74
0
  7

 75
0
147
1.0
148
0.0
149
0.0
100
AcDbLayout
  1
Layout1
 70
0
 71
0
 10
0.0
 20
0.0
 11
0.0
 21
0.0
 12
0.0
 22
0.0
 32
0.0
 14
0.0
 24
0.0
 34
0.0
 15
0.0
 25
0.0
 35
0.0
146
0.0
 13
0.0
 23
0.0
 33
0.0
 16
0.0
 26
0.0
 36
0.0
 17
0.0
 27
0.0
 37
0.0
 76
0
330
1B
331
0
345
0
346
0
  0
LAYOUT
  5
22
102
{ACAD_REACTORS
330
1A
102
}
100
AcDbPlotSettings
  1

  2

  4

  6

 40
0.0
 41
0.0
 42
0.0
 43
0.0
 44
0.0
 45
0.0
 46
0.0
 47
0.0
 48
0.0
 49
0.0
140
0.0
141
0.0
142
1.0
143
1.0
 70
0
 72
0
 73
0
 74
0
  7

 75
0
147
1.0
148
0.0
149
0.0
100
AcDbLayout
  1
Model
 70
0
 71
0
 10
0.0
 20
0.0
 11
0.0
 21
0.0
 12
0.0
 22
0.0
 32
0.0
 14
0.0
 24
0.0
 34
0.0
 15
0.0
 25
0.0
 35
0.0
146
0.0
 13
0.0
 23
0.0
 33
0.0
 16
0.0
 26
0.0
 36
0.0
 17
0.0
 27
0.0
 37
0.0
 76
0
330
1F
331
0
345
0
346
0
  0
ENDSEC
  0
EOF
