999
DXF file: FSDA-XAN.dxf
999
Pro/ENGINEER 2006240 by Parametric Technology Corporation
  0
SECTION
  2
HEADER
  9
$ACADVER
  1
AC1015
  9
$DWGCODEPAGE
  3
ANSI_1252
  9
$EXTMAX
 10
11.6929133858
 20
8.2677165354
 30
0.0
  9
$EXTMIN
 10
0.0
 20
0.0
 30
0.0
  9
$LIMMIN
 10
0.0
 20
0.0
  9
$LIMMAX
 10
11.6929133858
 20
8.2677165354
  9
$VIEWCTR
 10
5.8464566929
 20
4.1338582677
  9
$VIEWSIZE
 40
8.2677165354
  9
$CLAYER
  8
0
  9
$LTSCALE
 40
0.6431102362
  9
$CELTYPE
  6
BYLAYER
  9
$DIMSCALE
 40
1.0
  9
$DIMASZ
 40
0.1875
  9
$DIMEXO
 40
0.0730807087
  9
$DIMDLI
 40
0.4443307087
  9
$DIMEXE
 40
0.2104724409
  9
$DIMCEN
 40
0.1052362205
  9
$DIMLFAC
 40
1.0
  9
$DIMBLK
  1
_CLOSED
  9
$DIMTXT
 40
0.15625
  9
$DIMTOL
 70
0
  9
$DIMLIM
 70
0
  9
$DIMTFAC
 40
1.0
  9
$PDMODE
 70
3
  9
$PDSIZE
 40
0.3125
  9
$HANDSEED
  5
4CD
  9
$MEASUREMENT
 70
0
  9
$INSUNITS
 70
1
  0
ENDSEC
  0
SECTION
  2
CLASSES
  0
CLASS
  1
ACDBDICTIONARYWDFLT
  2
AcDbDictionaryWithDefault
  3
AutoCAD 2000
 90
0
280
0
281
0
  0
CLASS
  1
ACDBPLACEHOLDER
  2
AcDbPlaceHolder
  3
AutoCAD 2000
 90
0
280
0
281
0
  0
CLASS
  1
LAYOUT
  2
AcDbLayout
  3
AutoCAD 2000
 90
0
280
0
281
0
  0
ENDSEC
  0
SECTION
  2
TABLES
  0
TABLE
  2
VPORT
  5
8
100
AcDbSymbolTable
 70
2
  0
VPORT
  5
1F4
100
AcDbSymbolTableRecord
100
AcDbViewportTableRecord
  2
*ACTIVE
 70
0
 10
0.0
 20
0.0
 11
1.0
 21
1.0
 12
5.8464566929
 22
4.1338582677
 13
0.0
 23
0.0
 14
1.0
 24
1.0
 15
0.0
 25
0.0
 16
0.0
 26
0.0
 36
1.0
 17
0.0
 27
0.0
 37
0.0
 40
8.2677165354
 41
1.4142857143
 42
50.0
 43
0.0
 44
0.0
 50
0.0
 51
0.0
 71
0
 72
100
 73
1
 74
1
 75
0
 76
0
 77
0
 78
0
  0
ENDTAB
  0
TABLE
  2
LTYPE
  5
5
100
AcDbSymbolTable
 70
6
  0
LTYPE
  5
14
100
AcDbSymbolTableRecord
100
AcDbLinetypeTableRecord
  2
BYBLOCK
 70
0
  3

 72
65
 73
0
 40
0.0
  0
LTYPE
  5
15
100
AcDbSymbolTableRecord
100
AcDbLinetypeTableRecord
  2
BYLAYER
 70
0
  3

 72
65
 73
0
 40
0.0
  0
LTYPE
  5
16
100
AcDbSymbolTableRecord
100
AcDbLinetypeTableRecord
  2
CONTINUOUS
 70
64
  3
Solid line
 72
65
 73
0
 40
0.0
  0
LTYPE
  5
1F5
100
AcDbSymbolTableRecord
100
AcDbLinetypeTableRecord
  2
CENTER
 70
64
  3
____ _ ____ _ ____ _ ____ _ ____ _ ____ _ ____
 72
65
 73
4
 40
0.6
 49
0.375
 74
0
 49
-0.075
 74
0
 49
0.075
 74
0
 49
-0.075
 74
0
  0
LTYPE
  5
1F6
100
AcDbSymbolTableRecord
100
AcDbLinetypeTableRecord
  2
HIDDEN
 70
64
  3
- - - - - - - - - - - - - - - - - - - -
 72
65
 73
2
 40
0.2
 49
0.1
 74
0
 49
-0.1
 74
0
  0
LTYPE
  5
1F7
100
AcDbSymbolTableRecord
100
AcDbLinetypeTableRecord
  2
PHANTOM
 70
64
  3
_____ _ _ _____ _ _ _____ _ _ _____
 72
65
 73
6
 40
0.8
 49
0.45
 74
0
 49
-0.05
 74
0
 49
0.1
 74
0
 49
-0.05
 74
0
 49
0.1
 74
0
 49
-0.05
 74
0
  0
LTYPE
  5
1F8
100
AcDbSymbolTableRecord
100
AcDbLinetypeTableRecord
  2
DOT
 70
64
  3
. . . . . . . . . . . . . . . . . . . .
 72
65
 73
2
 40
0.2
 49
0.1
 74
0
 49
-0.1
 74
0
  0
LTYPE
  5
1F9
100
AcDbSymbolTableRecord
100
AcDbLinetypeTableRecord
  2
DASHED
 70
64
  3
- - - - - - - - - - - - - - - - - - - -
 72
65
 73
2
 40
0.2
 49
0.1
 74
0
 49
-0.1
 74
0
  0
ENDTAB
  0
TABLE
  2
LAYER
  5
2
100
AcDbSymbolTable
 70
36
  0
LAYER
  5
10
100
AcDbSymbolTableRecord
100
AcDbLayerTableRecord
  2
0
 70
0
 62
7
  6
CONTINUOUS
370
-3
390
F
  0
LAYER
  5
1FA
100
AcDbSymbolTableRecord
100
AcDbLayerTableRecord
  2
DEFAULT_1
 70
0
 62
7
  6
CENTER
370
-3
390
F
  0
LAYER
  5
1FB
100
AcDbSymbolTableRecord
100
AcDbLayerTableRecord
  2
DEFAULT_2
 70
0
 62
8
  6
HIDDEN
370
-3
390
F
  0
LAYER
  5
1FC
100
AcDbSymbolTableRecord
100
AcDbLayerTableRecord
  2
DEFAULT_3
 70
0
 62
7
  6
PHANTOM
370
-3
390
F
  0
LAYER
  5
1FD
100
AcDbSymbolTableRecord
100
AcDbLayerTableRecord
  2
_BLACK_HOLE
 70
0
 62
7
  6
CONTINUOUS
370
-3
390
F
  0
LAYER
  5
1FE
100
AcDbSymbolTableRecord
100
AcDbLayerTableRecord
  2
01_ALL_DTM_PLN
 70
0
 62
7
  6
CONTINUOUS
370
-3
390
F
  0
LAYER
  5
1FF
100
AcDbSymbolTableRecord
100
AcDbLayerTableRecord
  2
01__ASM_ALL_DTM_PLN
 70
0
 62
7
  6
CONTINUOUS
370
-3
390
F
  0
LAYER
  5
200
100
AcDbSymbolTableRecord
100
AcDbLayerTableRecord
  2
01__ASM_DEF_DTM_PLN
 70
0
 62
7
  6
CONTINUOUS
370
-3
390
F
  0
LAYER
  5
201
100
AcDbSymbolTableRecord
100
AcDbLayerTableRecord
  2
01___PRT_ALL_DTM_PLN
 70
0
 62
7
  6
CONTINUOUS
370
-3
390
F
  0
LAYER
  5
202
100
AcDbSymbolTableRecord
100
AcDbLayerTableRecord
  2
01___PRT_DEF_DTM_PLN
 70
0
 62
7
  6
CONTINUOUS
370
-3
390
F
  0
LAYER
  5
203
100
AcDbSymbolTableRecord
100
AcDbLayerTableRecord
  2
02_ALL_AXES
 70
0
 62
7
  6
CONTINUOUS
370
-3
390
F
  0
LAYER
  5
204
100
AcDbSymbolTableRecord
100
AcDbLayerTableRecord
  2
02__ASM_ALL_AXES
 70
0
 62
7
  6
CONTINUOUS
370
-3
390
F
  0
LAYER
  5
205
100
AcDbSymbolTableRecord
100
AcDbLayerTableRecord
  2
02___PRT_ALL_AXES
 70
0
 62
7
  6
CONTINUOUS
370
-3
390
F
  0
LAYER
  5
206
100
AcDbSymbolTableRecord
100
AcDbLayerTableRecord
  2
03_ALL_CURVES
 70
0
 62
7
  6
CONTINUOUS
370
-3
390
F
  0
LAYER
  5
207
100
AcDbSymbolTableRecord
100
AcDbLayerTableRecord
  2
03__ASM_ALL_CURVES
 70
0
 62
7
  6
CONTINUOUS
370
-3
390
F
  0
LAYER
  5
208
100
AcDbSymbolTableRecord
100
AcDbLayerTableRecord
  2
03___PRT_ALL_CURVES
 70
0
 62
7
  6
CONTINUOUS
370
-3
390
F
  0
LAYER
  5
209
100
AcDbSymbolTableRecord
100
AcDbLayerTableRecord
  2
04_ALL_DTM_PNT
 70
0
 62
7
  6
CONTINUOUS
370
-3
390
F
  0
LAYER
  5
20A
100
AcDbSymbolTableRecord
100
AcDbLayerTableRecord
  2
04__ASM_ALL_DTM_PNT
 70
0
 62
7
  6
CONTINUOUS
370
-3
390
F
  0
LAYER
  5
20B
100
AcDbSymbolTableRecord
100
AcDbLayerTableRecord
  2
04___PRT_ALL_DTM_PNT
 70
0
 62
7
  6
CONTINUOUS
370
-3
390
F
  0
LAYER
  5
20C
100
AcDbSymbolTableRecord
100
AcDbLayerTableRecord
  2
05_ALL_DTM_CSYS
 70
0
 62
7
  6
CONTINUOUS
370
-3
390
F
  0
LAYER
  5
20D
100
AcDbSymbolTableRecord
100
AcDbLayerTableRecord
  2
05__ASM_ALL_DTM_CSYS
 70
0
 62
7
  6
CONTINUOUS
370
-3
390
F
  0
LAYER
  5
20E
100
AcDbSymbolTableRecord
100
AcDbLayerTableRecord
  2
05__ASM_DEF_DTM_CSYS
 70
0
 62
7
  6
CONTINUOUS
370
-3
390
F
  0
LAYER
  5
20F
100
AcDbSymbolTableRecord
100
AcDbLayerTableRecord
  2
05___PRT_ALL_DTM_CSYS
 70
0
 62
7
  6
CONTINUOUS
370
-3
390
F
  0
LAYER
  5
210
100
AcDbSymbolTableRecord
100
AcDbLayerTableRecord
  2
05___PRT_DEF_DTM_CSYS
 70
0
 62
7
  6
CONTINUOUS
370
-3
390
F
  0
LAYER
  5
211
100
AcDbSymbolTableRecord
100
AcDbLayerTableRecord
  2
06_ALL_SURFS
 70
0
 62
7
  6
CONTINUOUS
370
-3
390
F
  0
LAYER
  5
212
100
AcDbSymbolTableRecord
100
AcDbLayerTableRecord
  2
06__ASM_ALL_SURFS
 70
0
 62
7
  6
CONTINUOUS
370
-3
390
F
  0
LAYER
  5
213
100
AcDbSymbolTableRecord
100
AcDbLayerTableRecord
  2
06___PRT_ALL_SURFS
 70
0
 62
7
  6
CONTINUOUS
370
-3
390
F
  0
LAYER
  5
214
100
AcDbSymbolTableRecord
100
AcDbLayerTableRecord
  2
07__ASM_ALL_SKELETONS
 70
0
 62
7
  6
CONTINUOUS
370
-3
390
F
  0
LAYER
  5
215
100
AcDbSymbolTableRecord
100
AcDbLayerTableRecord
  2
127-002_FEATURES
 70
0
 62
7
  6
CONTINUOUS
370
-3
390
F
  0
LAYER
  5
216
100
AcDbSymbolTableRecord
100
AcDbLayerTableRecord
  2
127-002_REF_GEOMETRY
 70
0
 62
7
  6
CONTINUOUS
370
-3
390
F
  0
LAYER
  5
217
100
AcDbSymbolTableRecord
100
AcDbLayerTableRecord
  2
127-110_FEATURES
 70
0
 62
7
  6
CONTINUOUS
370
-3
390
F
  0
LAYER
  5
218
100
AcDbSymbolTableRecord
100
AcDbLayerTableRecord
  2
127-110_REF_GEOMETRY
 70
0
 62
7
  6
CONTINUOUS
370
-3
390
F
  0
LAYER
  5
219
100
AcDbSymbolTableRecord
100
AcDbLayerTableRecord
  2
127-112_FEATURES
 70
0
 62
7
  6
CONTINUOUS
370
-3
390
F
  0
LAYER
  5
21A
100
AcDbSymbolTableRecord
100
AcDbLayerTableRecord
  2
127-112_REF_GEOMETRY
 70
0
 62
7
  6
CONTINUOUS
370
-3
390
F
  0
LAYER
  5
21B
100
AcDbSymbolTableRecord
100
AcDbLayerTableRecord
  2
127-113_FEATURES
 70
0
 62
7
  6
CONTINUOUS
370
-3
390
F
  0
LAYER
  5
21C
100
AcDbSymbolTableRecord
100
AcDbLayerTableRecord
  2
127-113_REF_GEOMETRY
 70
0
 62
7
  6
CONTINUOUS
370
-3
390
F
  0
LAYER
  5
21D
100
AcDbSymbolTableRecord
100
AcDbLayerTableRecord
  2
127-114_FEATURES
 70
0
 62
7
  6
CONTINUOUS
370
-3
390
F
  0
LAYER
  5
21E
100
AcDbSymbolTableRecord
100
AcDbLayerTableRecord
  2
127-114_REF_GEOMETRY
 70
0
 62
7
  6
CONTINUOUS
370
-3
390
F
  0
LAYER
  5
21F
100
AcDbSymbolTableRecord
100
AcDbLayerTableRecord
  2
250-18_NPTF_PORT
 70
0
 62
7
  6
CONTINUOUS
370
-3
390
F
  0
LAYER
  5
220
100
AcDbSymbolTableRecord
100
AcDbLayerTableRecord
  2
COPY_GEO_FET
 70
0
 62
7
  6
CONTINUOUS
370
-3
390
F
  0
LAYER
  5
221
100
AcDbSymbolTableRecord
100
AcDbLayerTableRecord
  2
COSMETIC
 70
0
 62
7
  6
CONTINUOUS
370
-3
390
F
  0
LAYER
  5
222
100
AcDbSymbolTableRecord
100
AcDbLayerTableRecord
  2
CURVES
 70
0
 62
7
  6
CONTINUOUS
370
-3
390
F
  0
LAYER
  5
223
100
AcDbSymbolTableRecord
100
AcDbLayerTableRecord
  2
CUT_REF_SURF
 70
0
 62
7
  6
CONTINUOUS
370
-3
390
F
  0
LAYER
  5
224
100
AcDbSymbolTableRecord
100
AcDbLayerTableRecord
  2
DATUM
 70
0
 62
7
  6
CONTINUOUS
370
-3
390
F
  0
LAYER
  5
225
100
AcDbSymbolTableRecord
100
AcDbLayerTableRecord
  2
DATUMCURVES
 70
0
 62
7
  6
CONTINUOUS
370
-3
390
F
  0
LAYER
  5
226
100
AcDbSymbolTableRecord
100
AcDbLayerTableRecord
  2
DIMENSIONS
 70
0
 62
7
  6
CONTINUOUS
370
-3
390
F
  0
LAYER
  5
227
100
AcDbSymbolTableRecord
100
AcDbLayerTableRecord
  2
DTM
 70
0
 62
7
  6
CONTINUOUS
370
-3
390
F
  0
LAYER
  5
228
100
AcDbSymbolTableRecord
100
AcDbLayerTableRecord
  2
DTM230
 70
0
 62
7
  6
CONTINUOUS
370
-3
390
F
  0
LAYER
  5
229
100
AcDbSymbolTableRecord
100
AcDbLayerTableRecord
  2
DTM_500001
 70
0
 62
7
  6
CONTINUOUS
370
-3
390
F
  0
LAYER
  5
22A
100
AcDbSymbolTableRecord
100
AcDbLayerTableRecord
  2
DTM_500002
 70
0
 62
7
  6
CONTINUOUS
370
-3
390
F
  0
LAYER
  5
22B
100
AcDbSymbolTableRecord
100
AcDbLayerTableRecord
  2
DTM_515002
 70
0
 62
7
  6
CONTINUOUS
370
-3
390
F
  0
LAYER
  5
22C
100
AcDbSymbolTableRecord
100
AcDbLayerTableRecord
  2
DTM_SPRING_RH
 70
0
 62
7
  6
CONTINUOUS
370
-3
390
F
  0
LAYER
  5
22D
100
AcDbSymbolTableRecord
100
AcDbLayerTableRecord
  2
DTM_SP_RH_CONSTR
 70
0
 62
7
  6
CONTINUOUS
370
-3
390
F
  0
LAYER
  5
22E
100
AcDbSymbolTableRecord
100
AcDbLayerTableRecord
  2
DTM_WIRE
 70
0
 62
7
  6
CONTINUOUS
370
-3
390
F
  0
LAYER
  5
22F
100
AcDbSymbolTableRecord
100
AcDbLayerTableRecord
  2
GEOMETRICTOLERANCES
 70
0
 62
7
  6
CONTINUOUS
370
-3
390
F
  0
LAYER
  5
230
100
AcDbSymbolTableRecord
100
AcDbLayerTableRecord
  2
PARAMETERDIMENSIONS
 70
0
 62
7
  6
CONTINUOUS
370
-3
390
F
  0
LAYER
  5
231
100
AcDbSymbolTableRecord
100
AcDbLayerTableRecord
  2
PLANE
 70
0
 62
7
  6
CONTINUOUS
370
-3
390
F
  0
LAYER
  5
232
100
AcDbSymbolTableRecord
100
AcDbLayerTableRecord
  2
SAE-6_PORT
 70
0
 62
7
  6
CONTINUOUS
370
-3
390
F
  0
LAYER
  5
233
100
AcDbSymbolTableRecord
100
AcDbLayerTableRecord
  2
T-8A_CAVITY
 70
0
 62
7
  6
CONTINUOUS
370
-3
390
F
  0
LAYER
  5
234
100
AcDbSymbolTableRecord
100
AcDbLayerTableRecord
  2
T-8A_CAVITY_REF_GEOMETRY
 70
0
 62
7
  6
CONTINUOUS
370
-3
390
F
  0
LAYER
  5
235
100
AcDbSymbolTableRecord
100
AcDbLayerTableRecord
  2
TEXT
 70
0
 62
7
  6
CONTINUOUS
370
-3
390
F
  0
LAYER
  5
236
100
AcDbSymbolTableRecord
100
AcDbLayerTableRecord
  2
THREAD
 70
0
 62
7
  6
CONTINUOUS
370
-3
390
F
  0
ENDTAB
  0
TABLE
  2
STYLE
  5
3
100
AcDbSymbolTable
 70
1
  0
STYLE
  5
11
100
AcDbSymbolTableRecord
100
AcDbTextStyleTableRecord
  2
STANDARD
 70
0
 40
0.0
 41
0.8
 50
0.0
 71
0
 42
0.2
  3
txt
  4

  0
ENDTAB
  0
TABLE
  2
VIEW
  5
6
100
AcDbSymbolTable
 70
0
  0
ENDTAB
  0
TABLE
  2
UCS
  5
7
100
AcDbSymbolTable
 70
0
  0
ENDTAB
  0
TABLE
  2
APPID
  5
9
100
AcDbSymbolTable
 70
1
  0
APPID
  5
237
100
AcDbSymbolTableRecord
100
AcDbRegAppTableRecord
  2
ACAD
 70
0
  0
ENDTAB
  0
TABLE
  2
BLOCK_RECORD
  5
1
100
AcDbSymbolTable
 70
0
  0
BLOCK_RECORD
  5
1F
100
AcDbSymbolTableRecord
100
AcDbBlockTableRecord
  2
*MODEL_SPACE
  0
BLOCK_RECORD
  5
1B
100
AcDbSymbolTableRecord
100
AcDbBlockTableRecord
  2
*PAPER_SPACE
  0
ENDTAB
  0
TABLE
  2
DIMSTYLE
  5
A
100
AcDbSymbolTable
 70
1
100
AcDbDimStyleTable
 71
0
  0
DIMSTYLE
105
238
100
AcDbSymbolTableRecord
100
AcDbDimStyleTableRecord
  2
STANDARD
 70
0
  3

  4

 40
1.0
 41
0.1875
 42
0.0625
 43
0.38
 44
0.18
 45
0.0
 46
0.0
 47
0.01
 48
0.01
140
0.15625
141
0.09
142
0.0
143
25.4
144
1.0
145
0.0
146
1.0
147
0.09
 71
0.0
 72
0.0
 73
1
 74
1
 75
0
 76
0
 77
0
 78
4
170
0
171
2
172
0
173
0
174
0
175
0
176
0
177
0
178
0
270
2
271
2
272
2
273
2
274
2
275
0
280
0
281
0
282
0
283
1
284
4
285
0
286
0
287
3
288
0
340
11
  0
ENDTAB
  0
ENDSEC
  0
SECTION
  2
BLOCKS
  0
BLOCK
  5
20
100
AcDbEntity
  8
0
100
AcDbBlockBegin
  2
*MODEL_SPACE
 70
0
 10
0.0
 20
0.0
 30
0.0
  3
*MODEL_SPACE
  1

  0
ENDBLK
  5
21
100
AcDbEntity
  8
0
100
AcDbBlockEnd
  0
BLOCK
  5
1C
100
AcDbEntity
  8
0
100
AcDbBlockBegin
  2
*PAPER_SPACE
 70
0
 10
0.0
 20
0.0
 30
0.0
  3
*PAPER_SPACE
  1

  0
ENDBLK
  5
1D
100
AcDbEntity
  8
0
100
AcDbBlockEnd
  0
ENDSEC
  0
SECTION
  2
ENTITIES
  0
LINE
  5
239
100
AcDbEntity
  8
03__ASM_ALL_CURVES
100
AcDbLine
 62
40
  6
CONTINUOUS
 10
2.7500454494
 20
5.1609220181
 11
2.7567798244
 21
5.1788803471
  0
LINE
  5
23A
100
AcDbEntity
  8
03__ASM_ALL_CURVES
100
AcDbLine
 62
40
  6
CONTINUOUS
 10
2.7500454494
 20
5.1250053503
 11
2.7500454494
 21
5.1609220181
  0
LINE
  5
23B
100
AcDbEntity
  8
03__ASM_ALL_CURVES
100
AcDbLine
 62
40
  6
CONTINUOUS
 10
2.8039204494
 20
5.1609220181
 11
2.8039204494
 21
5.1250053503
  0
LINE
  5
23C
100
AcDbEntity
  8
03__ASM_ALL_CURVES
100
AcDbLine
 62
40
  6
CONTINUOUS
 10
2.8039204494
 20
5.1250053503
 11
2.7971860744
 21
5.1070470165
  0
LINE
  5
23D
100
AcDbEntity
  8
03__ASM_ALL_CURVES
100
AcDbLine
 62
40
  6
CONTINUOUS
 10
2.9655454494
 20
5.1609220181
 11
2.9722798244
 21
5.1788803471
  0
LINE
  5
23E
100
AcDbEntity
  8
03__ASM_ALL_CURVES
100
AcDbLine
 62
40
  6
CONTINUOUS
 10
2.9655454494
 20
5.1250053503
 11
2.9722798244
 21
5.1429636826
  0
LINE
  5
23F
100
AcDbEntity
  8
03__ASM_ALL_CURVES
100
AcDbLine
 62
40
  6
CONTINUOUS
 10
2.7567798244
 20
5.1788803471
 11
2.7635141994
 21
5.1878595181
  0
LINE
  5
240
100
AcDbEntity
  8
03__ASM_ALL_CURVES
100
AcDbLine
 62
40
  6
CONTINUOUS
 10
2.8779985744
 20
5.0890886826
 11
2.8779985744
 21
5.0980678495
  0
LINE
  5
241
100
AcDbEntity
  8
03__ASM_ALL_CURVES
100
AcDbLine
 62
40
  6
CONTINUOUS
 10
2.9655454494
 20
5.1250053503
 11
2.9655454494
 21
5.1609220181
  0
LINE
  5
242
100
AcDbEntity
  8
0
100
AcDbLine
 62
7
  6
CONTINUOUS
 10
2.9722329494
 20
3.6223086826
 11
2.9722329494
 21
4.7323086826
  0
LINE
  5
243
100
AcDbEntity
  8
03__ASM_ALL_CURVES
100
AcDbLine
 62
40
  6
CONTINUOUS
 10
2.9722329494
 20
4.7323086826
 11
2.9722329494
 21
5.0890886826
  0
LINE
  5
244
100
AcDbEntity
  8
0
100
AcDbLine
 62
7
  6
CONTINUOUS
 10
3.0178436207
 20
3.5433086826
 11
3.0178436207
 21
3.5439233731
  0
LINE
  5
245
100
AcDbEntity
  8
0
100
AcDbLine
 62
7
  6
CONTINUOUS
 10
3.0178436207
 20
3.8364439921
 11
3.0178436207
 21
3.8847880637
  0
LINE
  5
246
100
AcDbEntity
  8
0
100
AcDbLine
 62
7
  6
CONTINUOUS
 10
3.0178436207
 20
4.4698293015
 11
3.0178436207
 21
4.5181733731
  0
LINE
  5
247
100
AcDbEntity
  8
0
100
AcDbLine
 62
7
  6
CONTINUOUS
 10
3.0178436207
 20
4.8106939921
 11
3.0178436207
 21
4.8113086826
  0
LINE
  5
248
100
AcDbEntity
  8
03__ASM_ALL_CURVES
100
AcDbLine
 62
40
  6
CONTINUOUS
 10
3.0665610744
 20
5.1160261826
 11
3.0665610744
 21
5.1250053503
  0
LINE
  5
249
100
AcDbEntity
  8
03__ASM_ALL_CURVES
100
AcDbLine
 62
40
  6
CONTINUOUS
 10
3.2012485744
 20
5.1788803471
 11
3.1945141994
 21
5.1519428471
  0
LINE
  5
24A
100
AcDbEntity
  8
03__ASM_ALL_CURVES
100
AcDbLine
 62
40
  6
CONTINUOUS
 10
3.0194204494
 20
5.1250053503
 11
3.0126860744
 21
5.1070470165
  0
LINE
  5
24B
100
AcDbEntity
  8
03__ASM_ALL_CURVES
100
AcDbLine
 62
40
  6
CONTINUOUS
 10
2.7971860744
 20
5.1070470165
 11
2.7904516994
 21
5.0980678495
  0
LINE
  5
24C
100
AcDbEntity
  8
03__ASM_ALL_CURVES
100
AcDbLine
 62
40
  6
CONTINUOUS
 10
2.9722798244
 20
5.1788803471
 11
2.9790141994
 21
5.1878595181
  0
LINE
  5
24D
100
AcDbEntity
  8
0
100
AcDbLine
 62
7
  6
CONTINUOUS
 10
3.0175774519
 20
3.5437697005
 11
2.9722329494
 21
3.6223086826
  0
LINE
  5
24E
100
AcDbEntity
  8
03__ASM_ALL_CURVES
100
AcDbLine
 62
40
  6
CONTINUOUS
 10
3.0732954494
 20
5.1699011826
 11
3.0732954494
 21
5.1788803471
  0
LINE
  5
24F
100
AcDbEntity
  8
03__ASM_ALL_CURVES
100
AcDbLine
 62
40
  6
CONTINUOUS
 10
3.1015329494
 20
5.0675386826
 11
3.1015329494
 21
5.0244386826
  0
LINE
  5
250
100
AcDbEntity
  8
03__ASM_ALL_CURVES
100
AcDbLine
 62
40
  6
CONTINUOUS
 10
3.1271704494
 20
5.1788803471
 11
3.1271704494
 21
5.1699011826
  0
LINE
  5
251
100
AcDbEntity
  8
03__ASM_ALL_CURVES
100
AcDbLine
 62
40
  6
CONTINUOUS
 10
3.1339048244
 20
5.1250053503
 11
3.1339048244
 21
5.1160261826
  0
LINE
  5
252
100
AcDbEntity
  8
03__ASM_ALL_CURVES
100
AcDbLine
 62
40
  6
CONTINUOUS
 10
3.1945141994
 20
5.1519428471
 11
3.1945141994
 21
5.1339845149
  0
LINE
  5
253
100
AcDbEntity
  8
03__ASM_ALL_CURVES
100
AcDbLine
 62
40
  6
CONTINUOUS
 10
3.4369516994
 20
5.1609220181
 11
3.4504204494
 21
5.1968386826
  0
LINE
  5
254
100
AcDbEntity
  8
0
100
AcDbLine
 62
7
  6
CONTINUOUS
 10
3.0175774519
 20
4.8108476647
 11
2.9722329494
 21
4.7323086826
  0
LINE
  5
255
100
AcDbEntity
  8
03__ASM_ALL_CURVES
100
AcDbLine
 62
40
  6
CONTINUOUS
 10
3.0126860744
 20
5.1070470165
 11
3.0059516994
 21
5.0980678495
  0
LINE
  5
256
100
AcDbEntity
  8
03__ASM_ALL_CURVES
100
AcDbLine
 62
40
  6
CONTINUOUS
 10
3.0732954494
 20
5.1788803471
 11
3.0800298244
 21
5.1878595181
  0
LINE
  5
257
100
AcDbEntity
  8
03__ASM_ALL_CURVES
100
AcDbLine
 62
40
  6
CONTINUOUS
 10
3.0665610744
 20
5.1250053503
 11
3.0800298244
 21
5.1429636826
  0
LINE
  5
258
100
AcDbEntity
  8
03__ASM_ALL_CURVES
100
AcDbLine
 62
40
  6
CONTINUOUS
 10
3.1271704494
 20
5.1699011826
 11
3.1204360744
 21
5.1609220181
  0
LINE
  5
259
100
AcDbEntity
  8
03__ASM_ALL_CURVES
100
AcDbLine
 62
40
  6
CONTINUOUS
 10
3.1339048244
 20
5.1160261826
 11
3.1204360744
 21
5.0980678495
  0
LINE
  5
25A
100
AcDbEntity
  8
03__ASM_ALL_CURVES
100
AcDbLine
 62
40
  6
CONTINUOUS
 10
3.2147173244
 20
5.1968386826
 11
3.2012485744
 21
5.1788803471
  0
LINE
  5
25B
100
AcDbEntity
  8
03__ASM_ALL_CURVES
100
AcDbLine
 62
40
  6
CONTINUOUS
 10
2.7567798244
 20
5.1070470165
 11
2.7500454494
 21
5.1250053503
  0
LINE
  5
25C
100
AcDbEntity
  8
03__ASM_ALL_CURVES
100
AcDbLine
 62
40
  6
CONTINUOUS
 10
3.3157329494
 20
5.1968386826
 11
3.3157329494
 21
5.0890886826
  0
LINE
  5
25D
100
AcDbEntity
  8
0
100
AcDbLine
 62
7
  6
CONTINUOUS
 10
3.4158073236
 20
3.5433086826
 11
3.4158073236
 21
3.5439233731
  0
LINE
  5
25E
100
AcDbEntity
  8
0
100
AcDbLine
 62
7
  6
CONTINUOUS
 10
3.4158073236
 20
3.8364439921
 11
3.4158073236
 21
3.8847880637
  0
LINE
  5
25F
100
AcDbEntity
  8
0
100
AcDbLine
 62
7
  6
CONTINUOUS
 10
3.4158073236
 20
4.4698293015
 11
3.4158073236
 21
4.5181733731
  0
LINE
  5
260
100
AcDbEntity
  8
0
100
AcDbLine
 62
7
  6
CONTINUOUS
 10
3.4158073236
 20
4.8106939921
 11
3.4158073236
 21
4.8113086826
  0
LINE
  5
261
100
AcDbEntity
  8
0
100
AcDbLine
 62
7
  6
CONTINUOUS
 10
3.4712329494
 20
3.6393086826
 11
3.4712329494
 21
4.7153086826
  0
LINE
  5
262
100
AcDbEntity
  8
03__ASM_ALL_CURVES
100
AcDbLine
 62
40
  6
CONTINUOUS
 10
3.4234829494
 20
5.0890886826
 11
3.4302173244
 21
5.1339845149
  0
LINE
  5
263
100
AcDbEntity
  8
03__ASM_ALL_CURVES
100
AcDbLine
 62
40
  6
CONTINUOUS
 10
3.4302173244
 20
5.1339845149
 11
3.4369516994
 21
5.1609220181
  0
LINE
  5
264
100
AcDbEntity
  8
03__ASM_ALL_CURVES
100
AcDbLine
 62
40
  6
CONTINUOUS
 10
3.6187798244
 20
5.1160261826
 11
3.6120454494
 21
5.0890886826
  0
LINE
  5
265
100
AcDbEntity
  8
03__ASM_ALL_CURVES
100
AcDbLine
 62
40
  6
CONTINUOUS
 10
2.7635141994
 20
5.1878595181
 11
2.7769829494
 21
5.1968386826
  0
LINE
  5
266
100
AcDbEntity
  8
03__ASM_ALL_CURVES
100
AcDbLine
 62
40
  6
CONTINUOUS
 10
2.7904516994
 20
5.0980678495
 11
2.7769829494
 21
5.0890886826
  0
LINE
  5
267
100
AcDbEntity
  8
03__ASM_ALL_CURVES
100
AcDbLine
 62
40
  6
CONTINUOUS
 10
2.9790141994
 20
5.1878595181
 11
2.9924829494
 21
5.1968386826
  0
LINE
  5
268
100
AcDbEntity
  8
03__ASM_ALL_CURVES
100
AcDbLine
 62
40
  6
CONTINUOUS
 10
2.7971860744
 20
5.1788803471
 11
2.8039204494
 21
5.1609220181
  0
LINE
  5
269
100
AcDbEntity
  8
03__ASM_ALL_CURVES
100
AcDbLine
 62
40
  6
CONTINUOUS
 10
2.9722798244
 20
5.1070470165
 11
2.9655454494
 21
5.1250053503
  0
LINE
  5
26A
100
AcDbEntity
  8
03__ASM_ALL_CURVES
100
AcDbLine
 62
40
  6
CONTINUOUS
 10
3.0126860744
 20
5.1429636826
 11
3.0194204494
 21
5.1250053503
  0
LINE
  5
26B
100
AcDbEntity
  8
03__ASM_ALL_CURVES
100
AcDbLine
 62
40
  6
CONTINUOUS
 10
3.1945141994
 20
5.1339845149
 11
3.2012485744
 21
5.1070470165
  0
LINE
  5
26C
100
AcDbEntity
  8
03__ASM_ALL_CURVES
100
AcDbLine
 62
40
  6
CONTINUOUS
 10
3.5244985744
 20
5.0890886826
 11
3.5244985744
 21
5.0980678495
  0
LINE
  5
26D
100
AcDbEntity
  8
03__ASM_ALL_CURVES
100
AcDbLine
 62
40
  6
CONTINUOUS
 10
3.5299329494
 20
5.0675386826
 11
3.5299329494
 21
5.0244386826
  0
LINE
  5
26E
100
AcDbEntity
  8
0
100
AcDbLine
 62
7
  6
CONTINUOUS
 10
3.6562329494
 20
4.7153086826
 11
3.6562329494
 21
3.6393086826
  0
LINE
  5
26F
100
AcDbEntity
  8
0
100
AcDbLine
 62
7
  6
CONTINUOUS
 10
3.6592329494
 20
4.7123086826
 11
3.6592329494
 21
3.6423086826
  0
LINE
  5
270
100
AcDbEntity
  8
03__ASM_ALL_CURVES
100
AcDbLine
 62
40
  6
CONTINUOUS
 10
3.6592329494
 20
4.7368586826
 11
3.6592329494
 21
5.0890886826
  0
LINE
  5
271
100
AcDbEntity
  8
0
100
AcDbLine
 62
7
  6
CONTINUOUS
 10
3.6617329494
 20
3.6512520583
 11
3.6617329494
 21
4.7033653069
  0
LINE
  5
272
100
AcDbEntity
  8
03__ASM_ALL_CURVES
100
AcDbLine
 62
40
  6
CONTINUOUS
 10
3.6659204494
 20
5.1788803471
 11
3.6659204494
 21
5.1609220181
  0
LINE
  5
273
100
AcDbEntity
  8
0
100
AcDbLine
 62
7
  6
CONTINUOUS
 10
3.6805893512
 20
4.6918087
 11
3.6805893559
 21
4.6924785556
  0
LINE
  5
274
100
AcDbEntity
  8
0
100
AcDbLine
 62
7
  6
CONTINUOUS
 10
3.6805893559
 20
3.6621388096
 11
3.6805893512
 21
4.6918087
  0
LINE
  5
275
100
AcDbEntity
  8
0
100
AcDbLine
 62
7
  6
CONTINUOUS
 10
3.6830893559
 20
3.6628086826
 11
3.6830893559
 21
4.6918086826
  0
LINE
  5
276
100
AcDbEntity
  8
THREAD
100
AcDbLine
 62
7
  6
CONTINUOUS
 10
3.7062329494
 20
3.6628086826
 11
3.7062329494
 21
4.6918086826
  0
LINE
  5
277
100
AcDbEntity
  8
03__ASM_ALL_CURVES
100
AcDbLine
 62
40
  6
CONTINUOUS
 10
3.7467329494
 20
5.0890886826
 11
3.7534673244
 21
5.1339845149
  0
LINE
  5
278
100
AcDbEntity
  8
03__ASM_ALL_CURVES
100
AcDbLine
 62
40
  6
CONTINUOUS
 10
3.7534673244
 20
5.1339845149
 11
3.7602016994
 21
5.1609220181
  0
LINE
  5
279
100
AcDbEntity
  8
03__ASM_ALL_CURVES
100
AcDbLine
 62
40
  6
CONTINUOUS
 10
3.7602016994
 20
5.1609220181
 11
3.7736704494
 21
5.1968386826
  0
LINE
  5
27A
100
AcDbEntity
  8
03__ASM_ALL_CURVES
100
AcDbLine
 62
40
  6
CONTINUOUS
 10
3.6120454494
 20
5.1788803471
 11
3.6187798244
 21
5.1878595181
  0
LINE
  5
27B
100
AcDbEntity
  8
03__ASM_ALL_CURVES
100
AcDbLine
 62
40
  6
CONTINUOUS
 10
3.6322485744
 20
5.1339845149
 11
3.6187798244
 21
5.1160261826
  0
LINE
  5
27C
100
AcDbEntity
  8
03__ASM_ALL_CURVES
100
AcDbLine
 62
40
  6
CONTINUOUS
 10
3.6659204494
 20
5.1609220181
 11
3.6591860744
 21
5.1519428471
  0
LINE
  5
27D
100
AcDbEntity
  8
03__ASM_ALL_CURVES
100
AcDbLine
 62
40
  6
CONTINUOUS
 10
3.0800298244
 20
5.1878595181
 11
3.0934985744
 21
5.1968386826
  0
LINE
  5
27E
100
AcDbEntity
  8
03__ASM_ALL_CURVES
100
AcDbLine
 62
40
  6
CONTINUOUS
 10
3.0059516994
 20
5.0980678495
 11
2.9924829494
 21
5.0890886826
  0
LINE
  5
27F
100
AcDbEntity
  8
03__ASM_ALL_CURVES
100
AcDbLine
 62
40
  6
CONTINUOUS
 10
3.0800298244
 20
5.1429636826
 11
3.0934985744
 21
5.1519428471
  0
LINE
  5
280
100
AcDbEntity
  8
03__ASM_ALL_CURVES
100
AcDbLine
 62
40
  6
CONTINUOUS
 10
3.1204360744
 20
5.1609220181
 11
3.1069673244
 21
5.1519428471
  0
LINE
  5
281
100
AcDbEntity
  8
03__ASM_ALL_CURVES
100
AcDbLine
 62
40
  6
CONTINUOUS
 10
3.1204360744
 20
5.0980678495
 11
3.1069673244
 21
5.0890886826
  0
LINE
  5
282
100
AcDbEntity
  8
0
100
AcDbLine
 62
7
  6
CONTINUOUS
 10
3.7762329494
 20
3.6653086826
 11
3.7762329494
 21
4.6893086826
  0
LINE
  5
283
100
AcDbEntity
  8
03__ASM_ALL_CURVES
100
AcDbLine
 62
40
  6
CONTINUOUS
 10
3.7885329494
 20
5.0675386826
 11
3.7885329494
 21
5.0244386826
  0
LINE
  5
284
100
AcDbEntity
  8
0
100
AcDbLine
 62
7
  6
CONTINUOUS
 10
3.8262329494
 20
3.6653086826
 11
3.8262329494
 21
4.6893086826
  0
LINE
  5
285
100
AcDbEntity
  8
03__ASM_ALL_CURVES
100
AcDbLine
 62
40
  6
CONTINUOUS
 10
3.8316329498
 20
5.1968386826
 11
3.8316329498
 21
5.0890886826
  0
LINE
  5
286
100
AcDbEntity
  8
THREAD
100
AcDbLine
 62
7
  6
CONTINUOUS
 10
3.8400160711
 20
3.7193086826
 11
3.8400160711
 21
4.6353086826
  0
LINE
  5
287
100
AcDbEntity
  8
THREAD
100
AcDbLine
 62
7
  6
CONTINUOUS
 10
3.8508413886
 20
3.7130586826
 11
3.8508413886
 21
4.6415586826
  0
LINE
  5
288
100
AcDbEntity
  8
03__ASM_ALL_CURVES
100
AcDbLine
 62
40
  6
CONTINUOUS
 10
3.8679516994
 20
5.1519428471
 11
3.8679516994
 21
5.1339845149
  0
LINE
  5
289
100
AcDbEntity
  8
THREAD
100
AcDbLine
 62
7
  6
CONTINUOUS
 10
3.8691722597
 20
3.6813086826
 11
3.8691722597
 21
4.6733086826
  0
LINE
  5
28A
100
AcDbEntity
  8
03__ASM_ALL_CURVES
100
AcDbLine
 62
40
  6
CONTINUOUS
 10
3.8679516994
 20
5.1339845149
 11
3.8612173244
 21
5.1070470165
  0
LINE
  5
28B
100
AcDbEntity
  8
03__ASM_ALL_CURVES
100
AcDbLine
 62
40
  6
CONTINUOUS
 10
3.9259141998
 20
5.1429636826
 11
3.9326485748
 21
5.1699011826
  0
LINE
  5
28C
100
AcDbEntity
  8
03__ASM_ALL_CURVES
100
AcDbLine
 62
40
  6
CONTINUOUS
 10
4.0067266998
 20
5.1429636826
 11
3.9999923248
 21
5.1160261826
  0
LINE
  5
28D
100
AcDbEntity
  8
03__ASM_ALL_CURVES
100
AcDbLine
 62
40
  6
CONTINUOUS
 10
4.0336641998
 20
5.1429636826
 11
4.0403985748
 21
5.1699011826
  0
LINE
  5
28E
100
AcDbEntity
  8
03__ASM_ALL_CURVES
100
AcDbLine
 62
40
  6
CONTINUOUS
 10
3.8612173244
 20
5.1070470165
 11
3.8477485744
 21
5.0890886826
  0
LINE
  5
28F
100
AcDbEntity
  8
03__ASM_ALL_CURVES
100
AcDbLine
 62
40
  6
CONTINUOUS
 10
3.9326485748
 20
5.1699011826
 11
3.9461173248
 21
5.1878595181
  0
LINE
  5
290
100
AcDbEntity
  8
03__ASM_ALL_CURVES
100
AcDbLine
 62
40
  6
CONTINUOUS
 10
3.9999923248
 20
5.1160261826
 11
3.9865235748
 21
5.0980678495
  0
LINE
  5
291
100
AcDbEntity
  8
03__ASM_ALL_CURVES
100
AcDbLine
 62
40
  6
CONTINUOUS
 10
4.0403985748
 20
5.1699011826
 11
4.0538673248
 21
5.1878595181
  0
LINE
  5
292
100
AcDbEntity
  8
03__ASM_ALL_CURVES
100
AcDbLine
 62
40
  6
CONTINUOUS
 10
3.6187798244
 20
5.1878595181
 11
3.6322485744
 21
5.1968386826
  0
LINE
  5
293
100
AcDbEntity
  8
03__ASM_ALL_CURVES
100
AcDbLine
 62
40
  6
CONTINUOUS
 10
3.6591860744
 20
5.1519428471
 11
3.6322485744
 21
5.1339845149
  0
LINE
  5
294
100
AcDbEntity
  8
03__ASM_ALL_CURVES
100
AcDbLine
 62
40
  6
CONTINUOUS
 10
2.9722798244
 20
5.1429636826
 11
2.9924829494
 21
5.1519428471
  0
LINE
  5
295
100
AcDbEntity
  8
03__ASM_ALL_CURVES
100
AcDbLine
 62
40
  6
CONTINUOUS
 10
2.7635141994
 20
5.0980678495
 11
2.7567798244
 21
5.1070470165
  0
LINE
  5
296
100
AcDbEntity
  8
THREAD
100
AcDbLine
 62
7
  6
CONTINUOUS
 10
3.8691722597
 20
3.6813086826
 11
3.8508413886
 21
3.7130586826
  0
LINE
  5
297
100
AcDbEntity
  8
03__ASM_ALL_CURVES
100
AcDbLine
 62
40
  6
CONTINUOUS
 10
4.1481485748
 20
5.0890886826
 11
4.1818204498
 21
5.1968386826
  0
LINE
  5
298
100
AcDbEntity
  8
THREAD
100
AcDbLine
 62
7
  6
CONTINUOUS
 10
3.8691722597
 20
4.6733086826
 11
3.8508413886
 21
4.6415586826
  0
LINE
  5
299
100
AcDbEntity
  8
0
100
AcDbLine
 62
7
  6
CONTINUOUS
 10
3.4712329494
 20
3.6393086826
 11
3.4160734924
 21
3.5437697005
  0
LINE
  5
29A
100
AcDbEntity
  8
03__ASM_ALL_CURVES
100
AcDbLine
 62
40
  6
CONTINUOUS
 10
4.1010079498
 20
5.1070470165
 11
4.0942735748
 21
5.0980678495
  0
LINE
  5
29B
100
AcDbEntity
  8
03__ASM_ALL_CURVES
100
AcDbLine
 62
40
  6
CONTINUOUS
 10
3.9461173248
 20
5.1878595181
 11
3.9595860748
 21
5.1968386826
  0
LINE
  5
29C
100
AcDbEntity
  8
03__ASM_ALL_CURVES
100
AcDbLine
 62
40
  6
CONTINUOUS
 10
4.0538673248
 20
5.1878595181
 11
4.0673360748
 21
5.1968386826
  0
LINE
  5
29D
100
AcDbEntity
  8
03__ASM_ALL_CURVES
100
AcDbLine
 62
40
  6
CONTINUOUS
 10
3.9865235748
 20
5.0980678495
 11
3.9730548248
 21
5.0890886826
  0
LINE
  5
29E
100
AcDbEntity
  8
03__ASM_ALL_CURVES
100
AcDbLine
 62
40
  6
CONTINUOUS
 10
2.7904516994
 20
5.1878595181
 11
2.7971860744
 21
5.1788803471
  0
LINE
  5
29F
100
AcDbEntity
  8
03__ASM_ALL_CURVES
100
AcDbLine
 62
40
  6
CONTINUOUS
 10
2.8779985744
 20
5.0980678495
 11
2.8847329494
 21
5.0890886826
  0
LINE
  5
2A0
100
AcDbEntity
  8
03__ASM_ALL_CURVES
100
AcDbLine
 62
40
  6
CONTINUOUS
 10
2.9790141994
 20
5.0980678495
 11
2.9722798244
 21
5.1070470165
  0
LINE
  5
2A1
100
AcDbEntity
  8
03__ASM_ALL_CURVES
100
AcDbLine
 62
40
  6
CONTINUOUS
 10
3.0059516994
 20
5.1878595181
 11
3.0126860744
 21
5.1788803471
  0
LINE
  5
2A2
100
AcDbEntity
  8
03__ASM_ALL_CURVES
100
AcDbLine
 62
40
  6
CONTINUOUS
 10
3.0800298244
 20
5.0980678495
 11
3.0665610744
 21
5.1160261826
  0
LINE
  5
2A3
100
AcDbEntity
  8
0
100
AcDbLine
 62
7
  6
CONTINUOUS
 10
3.4712329494
 20
4.7153086826
 11
3.4160734924
 21
4.8108476647
  0
LINE
  5
2A4
100
AcDbEntity
  8
THREAD
100
AcDbLine
 62
7
  6
CONTINUOUS
 10
4.2402329494
 20
3.6813086826
 11
4.2402329494
 21
4.6733086826
  0
LINE
  5
2A5
100
AcDbEntity
  8
THREAD
100
AcDbLine
 62
7
  6
CONTINUOUS
 10
4.2842329494
 20
3.7253086826
 11
4.2842329494
 21
4.6293086826
  0
LINE
  5
2A6
100
AcDbEntity
  8
03__ASM_ALL_CURVES
100
AcDbLine
 62
40
  6
CONTINUOUS
 10
4.2895704498
 20
5.1968386826
 11
4.2895704498
 21
5.0890886826
  0
LINE
  5
2A7
100
AcDbEntity
  8
03__ASM_ALL_CURVES
100
AcDbLine
 62
40
  6
CONTINUOUS
 10
4.5791485748
 20
5.1699011826
 11
4.5926173248
 21
5.1878595181
  0
LINE
  5
2A8
100
AcDbEntity
  8
03__ASM_ALL_CURVES
100
AcDbLine
 62
40
  6
CONTINUOUS
 10
4.0942735748
 20
5.0980678495
 11
4.0808048248
 21
5.0890886826
  0
LINE
  5
2A9
100
AcDbEntity
  8
03__ASM_ALL_CURVES
100
AcDbLine
 62
40
  6
CONTINUOUS
 10
3.0800298244
 20
5.1609220181
 11
3.0732954494
 21
5.1699011826
  0
LINE
  5
2AA
100
AcDbEntity
  8
03__ASM_ALL_CURVES
100
AcDbLine
 62
40
  6
CONTINUOUS
 10
3.1204360744
 20
5.1429636826
 11
3.1339048244
 21
5.1250053503
  0
LINE
  5
2AB
100
AcDbEntity
  8
03__ASM_ALL_CURVES
100
AcDbLine
 62
40
  6
CONTINUOUS
 10
3.1204360744
 20
5.1878595181
 11
3.1271704494
 21
5.1788803471
  0
LINE
  5
2AC
100
AcDbEntity
  8
03__ASM_ALL_CURVES
100
AcDbLine
 62
40
  6
CONTINUOUS
 10
3.2012485744
 20
5.1070470165
 11
3.2147173244
 21
5.0890886826
  0
LINE
  5
2AD
100
AcDbEntity
  8
03__ASM_ALL_CURVES
100
AcDbLine
 62
40
  6
CONTINUOUS
 10
3.8612173244
 20
5.1788803471
 11
3.8679516994
 21
5.1519428471
  0
LINE
  5
2AE
100
AcDbEntity
  8
03__ASM_ALL_CURVES
100
AcDbLine
 62
40
  6
CONTINUOUS
 10
3.9326485748
 20
5.1160261826
 11
3.9259141998
 21
5.1429636826
  0
LINE
  5
2AF
100
AcDbEntity
  8
03__ASM_ALL_CURVES
100
AcDbLine
 62
40
  6
CONTINUOUS
 10
3.9999923248
 20
5.1699011826
 11
4.0067266998
 21
5.1429636826
  0
LINE
  5
2B0
100
AcDbEntity
  8
03__ASM_ALL_CURVES
100
AcDbLine
 62
40
  6
CONTINUOUS
 10
4.0403985748
 20
5.1160261826
 11
4.0336641998
 21
5.1429636826
  0
LINE
  5
2B1
100
AcDbEntity
  8
03__ASM_ALL_CURVES
100
AcDbLine
 62
40
  6
CONTINUOUS
 10
4.3973204498
 20
5.1968386826
 11
4.3973204498
 21
5.0890886826
  0
LINE
  5
2B2
100
AcDbEntity
  8
0
100
AcDbLine
 62
7
  6
CONTINUOUS
 10
4.4242329494
 20
3.7253086826
 11
4.4242329494
 21
4.6293086826
  0
LINE
  5
2B3
100
AcDbEntity
  8
0
100
AcDbLine
 62
7
  6
CONTINUOUS
 10
4.4402329494
 20
3.7413086826
 11
4.4402329494
 21
4.6133086826
  0
LINE
  5
2B4
100
AcDbEntity
  8
0
100
AcDbLine
 62
7
  6
CONTINUOUS
 10
4.4462329494
 20
4.3732215287
 11
4.4462329494
 21
4.3346353565
  0
LINE
  5
2B5
100
AcDbEntity
  8
0
100
AcDbLine
 62
7
  6
CONTINUOUS
 10
4.4462329494
 20
3.9811054307
 11
4.4462329494
 21
4.0199832058
  0
LINE
  5
2B6
100
AcDbEntity
  8
0
100
AcDbLine
 62
7
  6
CONTINUOUS
 10
4.4552329494
 20
4.3835517549
 11
4.4552329494
 21
4.3225043303
  0
LINE
  5
2B7
100
AcDbEntity
  8
0
100
AcDbLine
 62
7
  6
CONTINUOUS
 10
4.4552329494
 20
3.9712141494
 11
4.4552329494
 21
4.0321103925
  0
LINE
  5
2B8
100
AcDbEntity
  8
0
100
AcDbLine
 62
7
  6
CONTINUOUS
 10
4.4632329494
 20
3.9647652636
 11
4.4632329494
 21
4.0396488672
  0
LINE
  5
2B9
100
AcDbEntity
  8
0
100
AcDbLine
 62
7
  6
CONTINUOUS
 10
4.4632329494
 20
4.3149708224
 11
4.4632329494
 21
4.3897128511
  0
LINE
  5
2BA
100
AcDbEntity
  8
03__ASM_ALL_CURVES
100
AcDbLine
 62
40
  6
CONTINUOUS
 10
4.4781329498
 20
5.0890886826
 11
4.4781329498
 21
5.1968386826
  0
LINE
  5
2BB
100
AcDbEntity
  8
03__ASM_ALL_CURVES
100
AcDbLine
 62
40
  6
CONTINUOUS
 10
4.5320079498
 20
5.0890886826
 11
4.5320079498
 21
5.1968386826
  0
LINE
  5
2BC
100
AcDbEntity
  8
03__ASM_ALL_CURVES
100
AcDbLine
 62
40
  6
CONTINUOUS
 10
4.5724141998
 20
5.1429636826
 11
4.5791485748
 21
5.1699011826
  0
LINE
  5
2BD
100
AcDbEntity
  8
03__ASM_ALL_CURVES
100
AcDbLine
 62
40
  6
CONTINUOUS
 10
4.6397579498
 20
5.1070470165
 11
4.6330235748
 21
5.0980678495
  0
LINE
  5
2BE
100
AcDbEntity
  8
03__ASM_ALL_CURVES
100
AcDbLine
 62
40
  6
CONTINUOUS
 10
4.8081173248
 20
5.1878595181
 11
4.8013829498
 21
5.1788803471
  0
LINE
  5
2BF
100
AcDbEntity
  8
03__ASM_ALL_CURVES
100
AcDbLine
 62
40
  6
CONTINUOUS
 10
4.8552579498
 20
5.1070470165
 11
4.8485235748
 21
5.0980678495
  0
LINE
  5
2C0
100
AcDbEntity
  8
03__ASM_ALL_CURVES
100
AcDbLine
 62
40
  6
CONTINUOUS
 10
4.5926173248
 20
5.1878595181
 11
4.6060860748
 21
5.1968386826
  0
LINE
  5
2C1
100
AcDbEntity
  8
03__ASM_ALL_CURVES
100
AcDbLine
 62
40
  6
CONTINUOUS
 10
4.6330235748
 20
5.0980678495
 11
4.6195548248
 21
5.0890886826
  0
LINE
  5
2C2
100
AcDbEntity
  8
03__ASM_ALL_CURVES
100
AcDbLine
 62
40
  6
CONTINUOUS
 10
4.8215860748
 20
5.1968386826
 11
4.8081173248
 21
5.1878595181
  0
LINE
  5
2C3
100
AcDbEntity
  8
03__ASM_ALL_CURVES
100
AcDbLine
 62
40
  6
CONTINUOUS
 10
4.6738443226
 20
3.3774961826
 11
4.6637427601
 21
3.3842305578
  0
LINE
  5
2C4
100
AcDbEntity
  8
03__ASM_ALL_CURVES
100
AcDbLine
 62
40
  6
CONTINUOUS
 10
4.6031333851
 20
3.4583086826
 11
4.6132349476
 21
3.4515743092
  0
LINE
  5
2C5
100
AcDbEntity
  8
03__ASM_ALL_CURVES
100
AcDbLine
 62
40
  6
CONTINUOUS
 10
4.6839458851
 20
3.4583086826
 11
4.6940474476
 21
3.4515743092
  0
LINE
  5
2C6
100
AcDbEntity
  8
03__ASM_ALL_CURVES
100
AcDbLine
 62
40
  6
CONTINUOUS
 10
4.7647583851
 20
3.4583086826
 11
4.7748599476
 21
3.4515743092
  0
LINE
  5
2C7
100
AcDbEntity
  8
03__ASM_ALL_CURVES
100
AcDbLine
 62
40
  6
CONTINUOUS
 10
4.6132349476
 20
3.4515743092
 11
4.6182857289
 21
3.444839931
  0
LINE
  5
2C8
100
AcDbEntity
  8
03__ASM_ALL_CURVES
100
AcDbLine
 62
40
  6
CONTINUOUS
 10
4.6637427601
 20
3.3842305578
 11
4.6536411976
 21
3.3976993076
  0
LINE
  5
2C9
100
AcDbEntity
  8
03__ASM_ALL_CURVES
100
AcDbLine
 62
40
  6
CONTINUOUS
 10
4.6940474476
 20
3.4515743092
 11
4.7041490101
 21
3.4381055576
  0
LINE
  5
2CA
100
AcDbEntity
  8
03__ASM_ALL_CURVES
100
AcDbLine
 62
40
  6
CONTINUOUS
 10
3.5244985744
 20
5.0980678495
 11
3.5312329494
 21
5.0890886826
  0
LINE
  5
2CB
100
AcDbEntity
  8
03__ASM_ALL_CURVES
100
AcDbLine
 62
40
  6
CONTINUOUS
 10
4.7748599476
 20
3.4515743092
 11
4.7799107289
 21
3.444839931
  0
LINE
  5
2CC
100
AcDbEntity
  8
03__ASM_ALL_CURVES
100
AcDbLine
 62
40
  6
CONTINUOUS
 10
4.7647583851
 20
3.4179024326
 11
4.7799107289
 21
3.3774961826
  0
LINE
  5
2CD
100
AcDbEntity
  8
03__ASM_ALL_CURVES
100
AcDbLine
 62
40
  6
CONTINUOUS
 10
4.1818204498
 20
5.1968386826
 11
4.2154923248
 21
5.0890886826
  0
LINE
  5
2CE
100
AcDbEntity
  8
03__ASM_ALL_CURVES
100
AcDbLine
 62
40
  6
CONTINUOUS
 10
4.6536411976
 20
3.3976993076
 11
4.6485904164
 21
3.4179024326
  0
LINE
  5
2CF
100
AcDbEntity
  8
03__ASM_ALL_CURVES
100
AcDbLine
 62
40
  6
CONTINUOUS
 10
4.7041490101
 20
3.4381055576
 11
4.7091997914
 21
3.4179024326
  0
LINE
  5
2D0
100
AcDbEntity
  8
03__ASM_ALL_CURVES
100
AcDbLine
 62
40
  6
CONTINUOUS
 10
4.5778794789
 20
3.3774961826
 11
4.5778794789
 21
3.4583086826
  0
LINE
  5
2D1
100
AcDbEntity
  8
03__ASM_ALL_CURVES
100
AcDbLine
 62
40
  6
CONTINUOUS
 10
4.6182857289
 20
3.444839931
 11
4.6182857289
 21
3.4313711842
  0
LINE
  5
2D2
100
AcDbEntity
  8
03__ASM_ALL_CURVES
100
AcDbLine
 62
40
  6
CONTINUOUS
 10
4.6397579498
 20
5.1429636826
 11
4.6397579498
 21
5.1070470165
  0
LINE
  5
2D3
100
AcDbEntity
  8
03__ASM_ALL_CURVES
100
AcDbLine
 62
40
  6
CONTINUOUS
 10
4.7395044789
 20
3.3774961826
 11
4.7395044789
 21
3.4583086826
  0
LINE
  5
2D4
100
AcDbEntity
  8
03__ASM_ALL_CURVES
100
AcDbLine
 62
40
  6
CONTINUOUS
 10
5.0101485748
 20
5.1699011826
 11
5.0236173248
 21
5.1878595181
  0
LINE
  5
2D5
100
AcDbEntity
  8
03__ASM_ALL_CURVES
100
AcDbLine
 62
40
  6
CONTINUOUS
 10
5.0774923248
 20
5.1160261826
 11
5.0640235748
 21
5.0980678495
  0
LINE
  5
2D6
100
AcDbEntity
  8
03__ASM_ALL_CURVES
100
AcDbLine
 62
40
  6
CONTINUOUS
 10
4.8485235748
 20
5.0980678495
 11
4.8350548248
 21
5.0890886826
  0
LINE
  5
2D7
100
AcDbEntity
  8
03__ASM_ALL_CURVES
100
AcDbLine
 62
40
  6
CONTINUOUS
 10
5.0236173248
 20
5.1878595181
 11
5.0370860748
 21
5.1968386826
  0
LINE
  5
2D8
100
AcDbEntity
  8
03__ASM_ALL_CURVES
100
AcDbLine
 62
40
  6
CONTINUOUS
 10
5.0640235748
 20
5.0980678495
 11
5.0505548248
 21
5.0890886826
  0
LINE
  5
2D9
100
AcDbEntity
  8
03__ASM_ALL_CURVES
100
AcDbLine
 62
40
  6
CONTINUOUS
 10
3.6591860744
 20
5.1878595181
 11
3.6659204494
 21
5.1788803471
  0
LINE
  5
2DA
100
AcDbEntity
  8
03__ASM_ALL_CURVES
100
AcDbLine
 62
40
  6
CONTINUOUS
 10
4.7799107289
 20
3.444839931
 11
4.7799107289
 21
3.4313711842
  0
LINE
  5
2DB
100
AcDbEntity
  8
03__ASM_ALL_CURVES
100
AcDbLine
 62
40
  6
CONTINUOUS
 10
4.8013829498
 20
5.1788803471
 11
4.8013829498
 21
5.1699011826
  0
LINE
  5
2DC
100
AcDbEntity
  8
03__ASM_ALL_CURVES
100
AcDbLine
 62
40
  6
CONTINUOUS
 10
4.8405201039
 20
3.4583086826
 11
4.8405201039
 21
3.3774961826
  0
LINE
  5
2DD
100
AcDbEntity
  8
03__ASM_ALL_CURVES
100
AcDbLine
 62
40
  6
CONTINUOUS
 10
4.8552579498
 20
5.1250053503
 11
4.8552579498
 21
5.1070470165
  0
LINE
  5
2DE
100
AcDbEntity
  8
03__ASM_ALL_CURVES
100
AcDbLine
 62
40
  6
CONTINUOUS
 10
4.9091329498
 20
5.1968386826
 11
4.9091329498
 21
5.0890886826
  0
LINE
  5
2DF
100
AcDbEntity
  8
03__ASM_ALL_CURVES
100
AcDbLine
 62
40
  6
CONTINUOUS
 10
4.9364849476
 20
3.3774961826
 11
4.9364849476
 21
3.4583086826
  0
LINE
  5
2E0
100
AcDbEntity
  8
03__ASM_ALL_CURVES
100
AcDbLine
 62
40
  6
CONTINUOUS
 10
4.9630079498
 20
5.1968386826
 11
4.9630079498
 21
5.0890886826
  0
LINE
  5
2E1
100
AcDbEntity
  8
0
100
AcDbLine
 62
7
  6
CONTINUOUS
 10
4.9762329494
 20
3.7883086826
 11
4.9762329494
 21
4.5663086826
  0
LINE
  5
2E2
100
AcDbEntity
  8
03__ASM_ALL_CURVES
100
AcDbLine
 62
40
  6
CONTINUOUS
 10
5.0034141998
 20
5.1429636826
 11
5.0101485748
 21
5.1699011826
  0
LINE
  5
2E3
100
AcDbEntity
  8
03__ASM_ALL_CURVES
100
AcDbLine
 62
40
  6
CONTINUOUS
 10
4.6485904164
 20
3.4179024326
 11
4.6536411976
 21
3.4381055576
  0
LINE
  5
2E4
100
AcDbEntity
  8
03__ASM_ALL_CURVES
100
AcDbLine
 62
40
  6
CONTINUOUS
 10
5.0842266998
 20
5.1429636826
 11
5.0774923248
 21
5.1160261826
  0
LINE
  5
2E5
100
AcDbEntity
  8
03__ASM_ALL_CURVES
100
AcDbLine
 62
40
  6
CONTINUOUS
 10
4.7091997914
 20
3.4179024326
 11
4.7041490101
 21
3.3976993076
  0
LINE
  5
2E6
100
AcDbEntity
  8
03__ASM_ALL_CURVES
100
AcDbLine
 62
40
  6
CONTINUOUS
 10
5.1785079498
 20
5.1070470165
 11
5.1717735748
 21
5.0980678495
  0
LINE
  5
2E7
100
AcDbEntity
  8
03__ASM_ALL_CURVES
100
AcDbLine
 62
40
  6
CONTINUOUS
 10
5.3940079498
 20
5.1160261826
 11
5.3805391998
 21
5.0980678495
  0
LINE
  5
2E8
100
AcDbEntity
  8
03__ASM_ALL_CURVES
100
AcDbLine
 62
40
  6
CONTINUOUS
 10
5.1717735748
 20
5.0980678495
 11
5.1583048248
 21
5.0890886826
  0
LINE
  5
2E9
100
AcDbEntity
  8
03__ASM_ALL_CURVES
100
AcDbLine
 62
40
  6
CONTINUOUS
 10
5.3805391998
 20
5.0980678495
 11
5.3670704498
 21
5.0890886826
  0
LINE
  5
2EA
100
AcDbEntity
  8
03__ASM_ALL_CURVES
100
AcDbLine
 62
40
  6
CONTINUOUS
 10
5.6027735748
 20
5.1519428471
 11
5.5893048248
 21
5.1429636826
  0
LINE
  5
2EB
100
AcDbEntity
  8
03__ASM_ALL_CURVES
100
AcDbLine
 62
40
  6
CONTINUOUS
 10
6.6714712147
 20
3.3774961826
 11
6.6613696522
 21
3.3774961826
  0
LINE
  5
2EC
100
AcDbEntity
  8
03__ASM_ALL_CURVES
100
AcDbLine
 62
40
  6
CONTINUOUS
 10
5.9573833851
 20
3.3774961826
 11
5.9472818226
 21
3.3774961826
  0
LINE
  5
2ED
100
AcDbEntity
  8
03__ASM_ALL_CURVES
100
AcDbLine
 62
40
  6
CONTINUOUS
 10
5.7149458851
 20
3.3774961826
 11
5.7048443226
 21
3.3774961826
  0
LINE
  5
2EE
100
AcDbEntity
  8
03__ASM_ALL_CURVES
100
AcDbLine
 62
40
  6
CONTINUOUS
 10
4.6839458851
 20
3.3774961826
 11
4.6738443226
 21
3.3774961826
  0
LINE
  5
2EF
100
AcDbEntity
  8
03__ASM_ALL_CURVES
100
AcDbLine
 62
40
  6
CONTINUOUS
 10
6.8886548085
 20
3.3774961826
 11
6.9290610585
 21
3.3774961826
  0
LINE
  5
2F0
100
AcDbEntity
  8
03__ASM_ALL_CURVES
100
AcDbLine
 62
40
  6
CONTINUOUS
 10
4.9011294789
 20
3.3976993076
 11
4.9465865101
 21
3.3976993076
  0
LINE
  5
2F1
100
AcDbEntity
  8
03__ASM_ALL_CURVES
100
AcDbLine
 62
40
  6
CONTINUOUS
 10
6.7522837147
 20
3.4179024326
 11
6.7270298085
 21
3.4179024326
  0
LINE
  5
2F2
100
AcDbEntity
  8
03__ASM_ALL_CURVES
100
AcDbLine
 62
40
  6
CONTINUOUS
 10
6.5906587147
 20
3.4179024326
 11
6.5654048085
 21
3.4179024326
  0
LINE
  5
2F3
100
AcDbEntity
  8
03__ASM_ALL_CURVES
100
AcDbLine
 62
40
  6
CONTINUOUS
 10
5.7957583851
 20
3.4179024326
 11
5.7705044789
 21
3.4179024326
  0
LINE
  5
2F4
100
AcDbEntity
  8
03__ASM_ALL_CURVES
100
AcDbLine
 62
40
  6
CONTINUOUS
 10
5.6341333851
 20
3.4179024326
 11
5.6088794789
 21
3.4179024326
  0
LINE
  5
2F5
100
AcDbEntity
  8
03__ASM_ALL_CURVES
100
AcDbLine
 62
40
  6
CONTINUOUS
 10
4.7647583851
 20
3.4179024326
 11
4.7395044789
 21
3.4179024326
  0
LINE
  5
2F6
100
AcDbEntity
  8
03__ASM_ALL_CURVES
100
AcDbLine
 62
40
  6
CONTINUOUS
 10
4.6031333851
 20
3.4179024326
 11
4.5778794789
 21
3.4179024326
  0
LINE
  5
2F7
100
AcDbEntity
  8
03__ASM_ALL_CURVES
100
AcDbLine
 62
40
  6
CONTINUOUS
 10
5.9472818226
 20
3.424636806
 11
5.9573833851
 21
3.424636806
  0
LINE
  5
2F8
100
AcDbEntity
  8
03__ASM_ALL_CURVES
100
AcDbLine
 62
40
  6
CONTINUOUS
 10
4.5778794789
 20
3.4583086826
 11
4.6031333851
 21
3.4583086826
  0
LINE
  5
2F9
100
AcDbEntity
  8
03__ASM_ALL_CURVES
100
AcDbLine
 62
40
  6
CONTINUOUS
 10
4.6738443226
 20
3.4583086826
 11
4.6839458851
 21
3.4583086826
  0
LINE
  5
2FA
100
AcDbEntity
  8
03__ASM_ALL_CURVES
100
AcDbLine
 62
40
  6
CONTINUOUS
 10
4.7395044789
 20
3.4583086826
 11
4.7647583851
 21
3.4583086826
  0
LINE
  5
2FB
100
AcDbEntity
  8
03__ASM_ALL_CURVES
100
AcDbLine
 62
40
  6
CONTINUOUS
 10
4.8152661976
 20
3.4583086826
 11
4.8657740101
 21
3.4583086826
  0
LINE
  5
2FC
100
AcDbEntity
  8
03__ASM_ALL_CURVES
100
AcDbLine
 62
40
  6
CONTINUOUS
 10
5.6088794789
 20
3.4583086826
 11
5.6341333851
 21
3.4583086826
  0
LINE
  5
2FD
100
AcDbEntity
  8
03__ASM_ALL_CURVES
100
AcDbLine
 62
40
  6
CONTINUOUS
 10
5.7048443226
 20
3.4583086826
 11
5.7149458851
 21
3.4583086826
  0
LINE
  5
2FE
100
AcDbEntity
  8
03__ASM_ALL_CURVES
100
AcDbLine
 62
40
  6
CONTINUOUS
 10
5.7705044789
 20
3.4583086826
 11
5.7957583851
 21
3.4583086826
  0
LINE
  5
2FF
100
AcDbEntity
  8
03__ASM_ALL_CURVES
100
AcDbLine
 62
40
  6
CONTINUOUS
 10
5.8462661976
 20
3.4583086826
 11
5.8967740101
 21
3.4583086826
  0
LINE
  5
300
100
AcDbEntity
  8
03__ASM_ALL_CURVES
100
AcDbLine
 62
40
  6
CONTINUOUS
 10
5.9472818226
 20
3.4583086826
 11
5.9573833851
 21
3.4583086826
  0
LINE
  5
301
100
AcDbEntity
  8
03__ASM_ALL_CURVES
100
AcDbLine
 62
40
  6
CONTINUOUS
 10
6.5654048085
 20
3.4583086826
 11
6.5906587147
 21
3.4583086826
  0
LINE
  5
302
100
AcDbEntity
  8
03__ASM_ALL_CURVES
100
AcDbLine
 62
40
  6
CONTINUOUS
 10
6.6613696522
 20
3.4583086826
 11
6.6714712147
 21
3.4583086826
  0
LINE
  5
303
100
AcDbEntity
  8
03__ASM_ALL_CURVES
100
AcDbLine
 62
40
  6
CONTINUOUS
 10
6.7270298085
 20
3.4583086826
 11
6.7522837147
 21
3.4583086826
  0
LINE
  5
304
100
AcDbEntity
  8
03__ASM_ALL_CURVES
100
AcDbLine
 62
40
  6
CONTINUOUS
 10
6.8027915272
 20
3.4583086826
 11
6.8532993397
 21
3.4583086826
  0
LINE
  5
305
100
AcDbEntity
  8
03__ASM_ALL_CURVES
100
AcDbLine
 62
40
  6
CONTINUOUS
 10
6.9038071522
 20
3.4583086826
 11
6.9139087147
 21
3.4583086826
  0
LINE
  5
306
100
AcDbEntity
  8
03__ASM_ALL_CURVES
100
AcDbLine
 62
40
  6
CONTINUOUS
 10
2.7769829494
 20
5.0890886826
 11
2.7635141994
 21
5.0980678495
  0
LINE
  5
307
100
AcDbEntity
  8
03__ASM_ALL_CURVES
100
AcDbLine
 62
40
  6
CONTINUOUS
 10
2.7769829494
 20
5.1968386826
 11
2.7904516994
 21
5.1878595181
  0
LINE
  5
308
100
AcDbEntity
  8
03__ASM_ALL_CURVES
100
AcDbLine
 62
40
  6
CONTINUOUS
 10
2.9924829494
 20
5.0890886826
 11
2.9790141994
 21
5.0980678495
  0
LINE
  5
309
100
AcDbEntity
  8
03__ASM_ALL_CURVES
100
AcDbLine
 62
40
  6
CONTINUOUS
 10
3.0934985744
 20
5.0890886826
 11
3.0800298244
 21
5.0980678495
  0
LINE
  5
30A
100
AcDbEntity
  8
THREAD
100
AcDbLine
 62
7
  6
CONTINUOUS
 10
4.2842329494
 20
4.6293086826
 11
4.2402329494
 21
4.6733086826
  0
LINE
  5
30B
100
AcDbEntity
  8
03__ASM_ALL_CURVES
100
AcDbLine
 62
40
  6
CONTINUOUS
 10
3.8477485744
 20
5.1968386826
 11
3.8612173244
 21
5.1788803471
  0
LINE
  5
30C
100
AcDbEntity
  8
03__ASM_ALL_CURVES
100
AcDbLine
 62
40
  6
CONTINUOUS
 10
3.9461173248
 20
5.0980678495
 11
3.9326485748
 21
5.1160261826
  0
LINE
  5
30D
100
AcDbEntity
  8
03__ASM_ALL_CURVES
100
AcDbLine
 62
40
  6
CONTINUOUS
 10
4.0538673248
 20
5.0980678495
 11
4.0403985748
 21
5.1160261826
  0
LINE
  5
30E
100
AcDbEntity
  8
03__ASM_ALL_CURVES
100
AcDbLine
 62
40
  6
CONTINUOUS
 10
3.9865235748
 20
5.1878595181
 11
3.9999923248
 21
5.1699011826
  0
LINE
  5
30F
100
AcDbEntity
  8
03__ASM_ALL_CURVES
100
AcDbLine
 62
40
  6
CONTINUOUS
 10
4.0942735748
 20
5.1878595181
 11
4.1010079498
 21
5.1788803471
  0
LINE
  5
310
100
AcDbEntity
  8
03__ASM_ALL_CURVES
100
AcDbLine
 62
40
  6
CONTINUOUS
 10
4.5791485748
 20
5.1160261826
 11
4.5724141998
 21
5.1429636826
  0
LINE
  5
311
100
AcDbEntity
  8
0
100
AcDbLine
 62
7
  6
CONTINUOUS
 10
5.0162329494
 20
4.6233086826
 11
5.0162329494
 21
3.7313086826
  0
LINE
  5
312
100
AcDbEntity
  8
0
100
AcDbLine
 62
7
  6
CONTINUOUS
 10
5.0912329494
 20
3.729809363
 11
5.0912329494
 21
4.6248080022
  0
LINE
  5
313
100
AcDbEntity
  8
03__ASM_ALL_CURVES
100
AcDbLine
 62
40
  6
CONTINUOUS
 10
5.1246329498
 20
5.1070470165
 11
5.1246329498
 21
5.1968386826
  0
LINE
  5
314
100
AcDbEntity
  8
0
100
AcDbLine
 62
7
  6
CONTINUOUS
 10
5.1412329494
 20
3.729809363
 11
5.1412329494
 21
4.6248080022
  0
LINE
  5
315
100
AcDbEntity
  8
03__ASM_ALL_CURVES
100
AcDbLine
 62
40
  6
CONTINUOUS
 10
5.1785079498
 20
5.1968386826
 11
5.1785079498
 21
5.1070470165
  0
LINE
  5
316
100
AcDbEntity
  8
03__ASM_ALL_CURVES
100
AcDbLine
 62
40
  6
CONTINUOUS
 10
5.6095079498
 20
5.1609220181
 11
5.6027735748
 21
5.1519428471
  0
LINE
  5
317
100
AcDbEntity
  8
THREAD
100
AcDbLine
 62
7
  6
CONTINUOUS
 10
4.2842329494
 20
3.7253086826
 11
4.2402329494
 21
3.6813086826
  0
LINE
  5
318
100
AcDbEntity
  8
0
100
AcDbLine
 62
7
  6
CONTINUOUS
 10
3.4158073236
 20
3.5433086826
 11
3.0178436207
 21
3.5433086826
  0
LINE
  5
319
100
AcDbEntity
  8
0
100
AcDbLine
 62
7
  6
CONTINUOUS
 10
3.4158073236
 20
3.5439233731
 11
3.0178436207
 21
3.5439233731
  0
LINE
  5
31A
100
AcDbEntity
  8
0
100
AcDbLine
 62
7
  6
CONTINUOUS
 10
3.6562329494
 20
3.6393086826
 11
3.4712329494
 21
3.6393086826
  0
LINE
  5
31B
100
AcDbEntity
  8
THREAD
100
AcDbLine
 62
7
  6
CONTINUOUS
 10
3.7062329494
 20
3.6628086826
 11
3.6830893559
 21
3.6628086826
  0
LINE
  5
31C
100
AcDbEntity
  8
0
100
AcDbLine
 62
7
  6
CONTINUOUS
 10
3.7762329494
 20
3.6653086826
 11
3.8262329494
 21
3.6653086826
  0
LINE
  5
31D
100
AcDbEntity
  8
THREAD
100
AcDbLine
 62
7
  6
CONTINUOUS
 10
3.6805893559
 20
4.6924785556
 11
3.6617329494
 21
4.7033653069
  0
LINE
  5
31E
100
AcDbEntity
  8
03__ASM_ALL_CURVES
100
AcDbLine
 62
40
  6
CONTINUOUS
 10
5.7048443226
 20
3.3774961826
 11
5.6947427601
 21
3.3842305578
  0
LINE
  5
31F
100
AcDbEntity
  8
03__ASM_ALL_CURVES
100
AcDbLine
 62
40
  6
CONTINUOUS
 10
2.9924829494
 20
5.1968386826
 11
3.0059516994
 21
5.1878595181
  0
LINE
  5
320
100
AcDbEntity
  8
03__ASM_ALL_CURVES
100
AcDbLine
 62
40
  6
CONTINUOUS
 10
3.0934985744
 20
5.1519428471
 11
3.0800298244
 21
5.1609220181
  0
LINE
  5
321
100
AcDbEntity
  8
03__ASM_ALL_CURVES
100
AcDbLine
 62
40
  6
CONTINUOUS
 10
5.6341333851
 20
3.4583086826
 11
5.6442349476
 21
3.4515743092
  0
LINE
  5
322
100
AcDbEntity
  8
03__ASM_ALL_CURVES
100
AcDbLine
 62
40
  6
CONTINUOUS
 10
3.1069673244
 20
5.1519428471
 11
3.1204360744
 21
5.1429636826
  0
LINE
  5
323
100
AcDbEntity
  8
03__ASM_ALL_CURVES
100
AcDbLine
 62
40
  6
CONTINUOUS
 10
3.1069673244
 20
5.1968386826
 11
3.1204360744
 21
5.1878595181
  0
LINE
  5
324
100
AcDbEntity
  8
03__ASM_ALL_CURVES
100
AcDbLine
 62
40
  6
CONTINUOUS
 10
5.7149458851
 20
3.4583086826
 11
5.7250474476
 21
3.4515743092
  0
LINE
  5
325
100
AcDbEntity
  8
03__ASM_ALL_CURVES
100
AcDbLine
 62
40
  6
CONTINUOUS
 10
5.7957583851
 20
3.4583086826
 11
5.8058599476
 21
3.4515743092
  0
LINE
  5
326
100
AcDbEntity
  8
03__ASM_ALL_CURVES
100
AcDbLine
 62
40
  6
CONTINUOUS
 10
5.9472818226
 20
3.3774961826
 11
5.9371802601
 21
3.3842305578
  0
LINE
  5
327
100
AcDbEntity
  8
03__ASM_ALL_CURVES
100
AcDbLine
 62
40
  6
CONTINUOUS
 10
5.9573833851
 20
3.424636806
 11
5.9674849476
 21
3.4179024326
  0
LINE
  5
328
100
AcDbEntity
  8
0
100
AcDbLine
 62
7
  6
CONTINUOUS
 10
4.4402329494
 20
4.6133086826
 11
4.4242329494
 21
4.6293086826
  0
LINE
  5
329
100
AcDbEntity
  8
03__ASM_ALL_CURVES
100
AcDbLine
 62
40
  6
CONTINUOUS
 10
5.6947427601
 20
3.3842305578
 11
5.6846411976
 21
3.3976993076
  0
LINE
  5
32A
100
AcDbEntity
  8
03__ASM_ALL_CURVES
100
AcDbLine
 62
40
  6
CONTINUOUS
 10
5.6442349476
 20
3.4515743092
 11
5.6492857289
 21
3.444839931
  0
LINE
  5
32B
100
AcDbEntity
  8
03__ASM_ALL_CURVES
100
AcDbLine
 62
40
  6
CONTINUOUS
 10
4.4781329498
 20
5.1968386826
 11
4.5320079498
 21
5.0890886826
  0
LINE
  5
32C
100
AcDbEntity
  8
0
100
AcDbLine
 62
7
  6
CONTINUOUS
 10
5.2112329494
 20
3.729809363
 11
5.2112329494
 21
4.6248080022
  0
LINE
  5
32D
100
AcDbEntity
  8
03__ASM_ALL_CURVES
100
AcDbLine
 62
40
  6
CONTINUOUS
 10
5.2323829498
 20
5.1968386826
 11
5.2323829498
 21
5.0890886826
  0
LINE
  5
32E
100
AcDbEntity
  8
0
100
AcDbLine
 62
7
  6
CONTINUOUS
 10
5.2612329494
 20
3.729809363
 11
5.2612329494
 21
4.6248080022
  0
LINE
  5
32F
100
AcDbEntity
  8
0
100
AcDbLine
 62
7
  6
CONTINUOUS
 10
5.2892329494
 20
4.6233086826
 11
5.2892329494
 21
3.7313086826
  0
LINE
  5
330
100
AcDbEntity
  8
03__ASM_ALL_CURVES
100
AcDbLine
 62
40
  6
CONTINUOUS
 10
5.3401329498
 20
5.0890886826
 11
5.3401329498
 21
5.1968386826
  0
LINE
  5
331
100
AcDbEntity
  8
0
100
AcDbLine
 62
7
  6
CONTINUOUS
 10
5.3642329494
 20
4.6233086826
 11
5.3642329494
 21
3.7313086826
  0
LINE
  5
332
100
AcDbEntity
  8
0
100
AcDbLine
 62
7
  6
CONTINUOUS
 10
5.4042329494
 20
3.8028086826
 11
5.4042329494
 21
4.5518086826
  0
LINE
  5
333
100
AcDbEntity
  8
03__ASM_ALL_CURVES
100
AcDbLine
 62
40
  6
CONTINUOUS
 10
5.4007423248
 20
5.1429636826
 11
5.3940079498
 21
5.1160261826
  0
LINE
  5
334
100
AcDbEntity
  8
03__ASM_ALL_CURVES
100
AcDbLine
 62
40
  6
CONTINUOUS
 10
4.6182857289
 20
3.4313711842
 11
4.6132349476
 21
3.424636806
  0
LINE
  5
335
100
AcDbEntity
  8
03__ASM_ALL_CURVES
100
AcDbLine
 62
40
  6
CONTINUOUS
 10
4.6536411976
 20
3.4381055576
 11
4.6637427601
 21
3.4515743092
  0
LINE
  5
336
100
AcDbEntity
  8
0
100
AcDbLine
 62
7
  6
CONTINUOUS
 10
4.4402329494
 20
3.7413086826
 11
4.4242329494
 21
3.7253086826
  0
LINE
  5
337
100
AcDbEntity
  8
THREAD
100
AcDbLine
 62
7
  6
CONTINUOUS
 10
3.6805893559
 20
3.6621388096
 11
3.6617329494
 21
3.6512520583
  0
LINE
  5
338
100
AcDbEntity
  8
THREAD
100
AcDbLine
 62
7
  6
CONTINUOUS
 10
4.2402329494
 20
3.6813086826
 11
3.8691722597
 21
3.6813086826
  0
LINE
  5
339
100
AcDbEntity
  8
THREAD
100
AcDbLine
 62
7
  6
CONTINUOUS
 10
3.8400160711
 20
3.7193086826
 11
3.8262329494
 21
3.7193086826
  0
LINE
  5
33A
100
AcDbEntity
  8
THREAD
100
AcDbLine
 62
7
  6
CONTINUOUS
 10
4.4242329494
 20
3.7253086826
 11
4.2842329494
 21
3.7253086826
  0
LINE
  5
33B
100
AcDbEntity
  8
0
100
AcDbLine
 62
7
  6
CONTINUOUS
 10
5.0912329494
 20
3.7298086826
 11
5.1412329494
 21
3.7298086826
  0
LINE
  5
33C
100
AcDbEntity
  8
0
100
AcDbLine
 62
7
  6
CONTINUOUS
 10
5.2112329494
 20
3.7298086826
 11
5.2612329494
 21
3.7298086826
  0
LINE
  5
33D
100
AcDbEntity
  8
0
100
AcDbLine
 62
7
  6
CONTINUOUS
 10
5.0162329494
 20
3.7313086826
 11
5.0912329494
 21
3.7313086826
  0
LINE
  5
33E
100
AcDbEntity
  8
0
100
AcDbLine
 62
7
  6
CONTINUOUS
 10
5.2892329494
 20
3.7313086826
 11
5.3642329494
 21
3.7313086826
  0
LINE
  5
33F
100
AcDbEntity
  8
0
100
AcDbLine
 62
7
  6
CONTINUOUS
 10
6.3042329494
 20
3.7518086826
 11
6.2292329494
 21
3.7518086826
  0
LINE
  5
340
100
AcDbEntity
  8
0
100
AcDbLine
 62
7
  6
CONTINUOUS
 10
6.0312329494
 20
3.7518086826
 11
5.9562329494
 21
3.7518086826
  0
LINE
  5
341
100
AcDbEntity
  8
0
100
AcDbLine
 62
7
  6
CONTINUOUS
 10
6.0312329494
 20
3.7528086826
 11
6.0812329494
 21
3.7528086826
  0
LINE
  5
342
100
AcDbEntity
  8
0
100
AcDbLine
 62
7
  6
CONTINUOUS
 10
6.1512329494
 20
3.7528086826
 11
6.2012329494
 21
3.7528086826
  0
LINE
  5
343
100
AcDbEntity
  8
0
100
AcDbLine
 62
7
  6
CONTINUOUS
 10
6.9842329494
 20
3.7528086826
 11
7.0342329494
 21
3.7528086826
  0
LINE
  5
344
100
AcDbEntity
  8
0
100
AcDbLine
 62
7
  6
CONTINUOUS
 10
7.1042329494
 20
3.7528086826
 11
7.1542329494
 21
3.7528086826
  0
LINE
  5
345
100
AcDbEntity
  8
0
100
AcDbLine
 62
7
  6
CONTINUOUS
 10
7.2702329494
 20
3.7728086826
 11
7.1822329494
 21
3.7728086826
  0
LINE
  5
346
100
AcDbEntity
  8
0
100
AcDbLine
 62
7
  6
CONTINUOUS
 10
6.9842329494
 20
3.7728086826
 11
6.9065235335
 21
3.7728086826
  0
LINE
  5
347
100
AcDbEntity
  8
0
100
AcDbLine
 62
7
  6
CONTINUOUS
 10
5.2892329494
 20
3.7838086826
 11
5.2612329494
 21
3.7838086826
  0
LINE
  5
348
100
AcDbEntity
  8
0
100
AcDbLine
 62
7
  6
CONTINUOUS
 10
4.9762329494
 20
3.7883086826
 11
4.6072329494
 21
3.7883086826
  0
LINE
  5
349
100
AcDbEntity
  8
0
100
AcDbLine
 62
7
  6
CONTINUOUS
 10
5.9162329494
 20
3.8028086826
 11
5.7072329494
 21
3.8028086826
  0
LINE
  5
34A
100
AcDbEntity
  8
0
100
AcDbLine
 62
7
  6
CONTINUOUS
 10
5.5112329494
 20
3.8028086826
 11
5.4042329494
 21
3.8028086826
  0
LINE
  5
34B
100
AcDbEntity
  8
0
100
AcDbLine
 62
7
  6
CONTINUOUS
 10
6.8672329494
 20
3.8053086826
 11
6.8572329494
 21
3.8053086826
  0
LINE
  5
34C
100
AcDbEntity
  8
0
100
AcDbLine
 62
7
  6
CONTINUOUS
 10
6.6852329494
 20
3.8053086826
 11
6.3442329494
 21
3.8053086826
  0
LINE
  5
34D
100
AcDbEntity
  8
0
100
AcDbLine
 62
7
  6
CONTINUOUS
 10
6.2292329494
 20
3.8068086826
 11
6.2012329494
 21
3.8068086826
  0
LINE
  5
34E
100
AcDbEntity
  8
0
100
AcDbLine
 62
7
  6
CONTINUOUS
 10
7.1822329494
 20
3.8273086826
 11
7.1542329494
 21
3.8273086826
  0
LINE
  5
34F
100
AcDbEntity
  8
0
100
AcDbLine
 62
7
  6
CONTINUOUS
 10
3.4158073236
 20
3.8364439921
 11
3.0178436207
 21
3.8364439921
  0
LINE
  5
350
100
AcDbEntity
  8
0
100
AcDbLine
 62
7
  6
CONTINUOUS
 10
3.4158073236
 20
3.8847880637
 11
3.0178436207
 21
3.8847880637
  0
LINE
  5
351
100
AcDbEntity
  8
03__ASM_ALL_CURVES
100
AcDbLine
 62
40
  6
CONTINUOUS
 10
5.9573833851
 20
3.4583086826
 11
5.9674849476
 21
3.4515743092
  0
LINE
  5
352
100
AcDbEntity
  8
03__ASM_ALL_CURVES
100
AcDbLine
 62
40
  6
CONTINUOUS
 10
3.6457173244
 20
5.1968386826
 11
3.6591860744
 21
5.1878595181
  0
LINE
  5
353
100
AcDbEntity
  8
03__ASM_ALL_CURVES
100
AcDbLine
 62
40
  6
CONTINUOUS
 10
5.7250474476
 20
3.4515743092
 11
5.7351490101
 21
3.4381055576
  0
LINE
  5
354
100
AcDbEntity
  8
03__ASM_ALL_CURVES
100
AcDbLine
 62
40
  6
CONTINUOUS
 10
5.8058599476
 20
3.4515743092
 11
5.8109107289
 21
3.444839931
  0
LINE
  5
355
100
AcDbEntity
  8
03__ASM_ALL_CURVES
100
AcDbLine
 62
40
  6
CONTINUOUS
 10
4.5926173248
 20
5.0980678495
 11
4.5791485748
 21
5.1160261826
  0
LINE
  5
356
100
AcDbEntity
  8
03__ASM_ALL_CURVES
100
AcDbLine
 62
40
  6
CONTINUOUS
 10
5.9371802601
 20
3.3842305578
 11
5.9321294789
 21
3.390964933
  0
LINE
  5
357
100
AcDbEntity
  8
03__ASM_ALL_CURVES
100
AcDbLine
 62
40
  6
CONTINUOUS
 10
5.0101485748
 20
5.1160261826
 11
5.0034141998
 21
5.1429636826
  0
LINE
  5
358
100
AcDbEntity
  8
03__ASM_ALL_CURVES
100
AcDbLine
 62
40
  6
CONTINUOUS
 10
5.0774923248
 20
5.1699011826
 11
5.0842266998
 21
5.1429636826
  0
LINE
  5
359
100
AcDbEntity
  8
03__ASM_ALL_CURVES
100
AcDbLine
 62
40
  6
CONTINUOUS
 10
5.4478829498
 20
5.0890886826
 11
5.4478829498
 21
5.1968386826
  0
LINE
  5
35A
100
AcDbEntity
  8
0
100
AcDbLine
 62
7
  6
CONTINUOUS
 10
5.5512329494
 20
3.974163505
 11
5.5512329494
 21
4.062340583
  0
LINE
  5
35B
100
AcDbEntity
  8
0
100
AcDbLine
 62
7
  6
CONTINUOUS
 10
5.5512329494
 20
4.2922741046
 11
5.5512329494
 21
4.3170424447
  0
LINE
  5
35C
100
AcDbEntity
  8
0
100
AcDbLine
 62
7
  6
CONTINUOUS
 10
5.5512329496
 20
4.3798737803
 11
5.5512329496
 21
4.3804389037
  0
LINE
  5
35D
100
AcDbEntity
  8
0
100
AcDbLine
 62
7
  6
CONTINUOUS
 10
5.5542329494
 20
4.3172745636
 11
5.5542329494
 21
4.3724417296
  0
LINE
  5
35E
100
AcDbEntity
  8
03__ASM_ALL_CURVES
100
AcDbLine
 62
40
  6
CONTINUOUS
 10
5.5556329498
 20
5.0890886826
 11
5.5556329498
 21
5.1968386826
  0
LINE
  5
35F
100
AcDbEntity
  8
0
100
AcDbLine
 62
7
  6
CONTINUOUS
 10
5.5981741628
 20
4.3936696928
 11
5.5981741628
 21
4.3564922724
  0
LINE
  5
360
100
AcDbEntity
  8
0
100
AcDbLine
 62
7
  6
CONTINUOUS
 10
5.5981741628
 20
4.0807572253
 11
5.5981741627
 21
3.9609485101
  0
LINE
  5
361
100
AcDbEntity
  8
03__ASM_ALL_CURVES
100
AcDbLine
 62
40
  6
CONTINUOUS
 10
5.6088794789
 20
3.3774961826
 11
5.6088794789
 21
3.4583086826
  0
LINE
  5
362
100
AcDbEntity
  8
03__ASM_ALL_CURVES
100
AcDbLine
 62
40
  6
CONTINUOUS
 10
5.6095079498
 20
5.1788803471
 11
5.6095079498
 21
5.1609220181
  0
LINE
  5
363
100
AcDbEntity
  8
03__ASM_ALL_CURVES
100
AcDbLine
 62
40
  6
CONTINUOUS
 10
4.9364849476
 20
3.4583086826
 11
4.9011294789
 21
3.3976993076
  0
LINE
  5
364
100
AcDbEntity
  8
03__ASM_ALL_CURVES
100
AcDbLine
 62
40
  6
CONTINUOUS
 10
4.7041490101
 20
3.3976993076
 11
4.6940474476
 21
3.3842305578
  0
LINE
  5
365
100
AcDbEntity
  8
03__ASM_ALL_CURVES
100
AcDbLine
 62
40
  6
CONTINUOUS
 10
4.7799107289
 20
3.4313711842
 11
4.7748599476
 21
3.424636806
  0
LINE
  5
366
100
AcDbEntity
  8
0
100
AcDbLine
 62
7
  6
CONTINUOUS
 10
7.4362329494
 20
3.8961586826
 11
7.3482329494
 21
3.8961586826
  0
LINE
  5
367
100
AcDbEntity
  8
0
100
AcDbLine
 62
7
  6
CONTINUOUS
 10
7.3242329494
 20
3.8961586826
 11
7.2832329494
 21
3.8961586826
  0
LINE
  5
368
100
AcDbEntity
  8
0
100
AcDbLine
 62
7
  6
CONTINUOUS
 10
7.8662329494
 20
3.9013086826
 11
7.8272329494
 21
3.9013086826
  0
LINE
  5
369
100
AcDbEntity
  8
0
100
AcDbLine
 62
7
  6
CONTINUOUS
 10
7.7652329494
 20
3.9013086826
 11
7.4362329494
 21
3.9013086826
  0
LINE
  5
36A
100
AcDbEntity
  8
0
100
AcDbLine
 62
7
  6
CONTINUOUS
 10
7.3322329494
 20
3.9101586826
 11
7.3412329494
 21
3.9101586826
  0
LINE
  5
36B
100
AcDbEntity
  8
03__ASM_ALL_CURVES
100
AcDbLine
 62
40
  6
CONTINUOUS
 10
2.9924829494
 20
5.1519428471
 11
3.0126860744
 21
5.1429636826
  0
LINE
  5
36C
100
AcDbEntity
  8
03__ASM_ALL_CURVES
100
AcDbLine
 62
40
  6
CONTINUOUS
 10
3.9595860748
 20
5.0890886826
 11
3.9461173248
 21
5.0980678495
  0
LINE
  5
36D
100
AcDbEntity
  8
03__ASM_ALL_CURVES
100
AcDbLine
 62
40
  6
CONTINUOUS
 10
4.0673360748
 20
5.0890886826
 11
4.0538673248
 21
5.0980678495
  0
LINE
  5
36E
100
AcDbEntity
  8
03__ASM_ALL_CURVES
100
AcDbLine
 62
40
  6
CONTINUOUS
 10
6.6613696522
 20
3.3774961826
 11
6.6512680897
 21
3.3842305578
  0
LINE
  5
36F
100
AcDbEntity
  8
03__ASM_ALL_CURVES
100
AcDbLine
 62
40
  6
CONTINUOUS
 10
3.9730548248
 20
5.1968386826
 11
3.9865235748
 21
5.1878595181
  0
LINE
  5
370
100
AcDbEntity
  8
03__ASM_ALL_CURVES
100
AcDbLine
 62
40
  6
CONTINUOUS
 10
6.5906587147
 20
3.4583086826
 11
6.6007602772
 21
3.4515743092
  0
LINE
  5
371
100
AcDbEntity
  8
03__ASM_ALL_CURVES
100
AcDbLine
 62
40
  6
CONTINUOUS
 10
6.6714712147
 20
3.4583086826
 11
6.6815727772
 21
3.4515743092
  0
LINE
  5
372
100
AcDbEntity
  8
03__ASM_ALL_CURVES
100
AcDbLine
 62
40
  6
CONTINUOUS
 10
4.0808048248
 20
5.1968386826
 11
4.0942735748
 21
5.1878595181
  0
LINE
  5
373
100
AcDbEntity
  8
03__ASM_ALL_CURVES
100
AcDbLine
 62
40
  6
CONTINUOUS
 10
4.6330235748
 20
5.1878595181
 11
4.6397579498
 21
5.1788803471
  0
LINE
  5
374
100
AcDbEntity
  8
03__ASM_ALL_CURVES
100
AcDbLine
 62
40
  6
CONTINUOUS
 10
5.9674849476
 20
3.4179024326
 11
5.9775865101
 21
3.4044336834
  0
LINE
  5
375
100
AcDbEntity
  8
03__ASM_ALL_CURVES
100
AcDbLine
 62
40
  6
CONTINUOUS
 10
5.9674849476
 20
3.4515743092
 11
5.9725357289
 21
3.444839931
  0
LINE
  5
376
100
AcDbEntity
  8
03__ASM_ALL_CURVES
100
AcDbLine
 62
40
  6
CONTINUOUS
 10
4.8081173248
 20
5.0980678495
 11
4.7946485748
 21
5.1160261826
  0
LINE
  5
377
100
AcDbEntity
  8
03__ASM_ALL_CURVES
100
AcDbLine
 62
40
  6
CONTINUOUS
 10
4.8013829498
 20
5.1699011826
 11
4.8081173248
 21
5.1609220181
  0
LINE
  5
378
100
AcDbEntity
  8
03__ASM_ALL_CURVES
100
AcDbLine
 62
40
  6
CONTINUOUS
 10
4.8485235748
 20
5.1339845149
 11
4.8552579498
 21
5.1250053503
  0
LINE
  5
379
100
AcDbEntity
  8
03__ASM_ALL_CURVES
100
AcDbLine
 62
40
  6
CONTINUOUS
 10
4.8552579498
 20
5.1788803471
 11
4.8485235748
 21
5.1878595181
  0
LINE
  5
37A
100
AcDbEntity
  8
03__ASM_ALL_CURVES
100
AcDbLine
 62
40
  6
CONTINUOUS
 10
5.7957583851
 20
3.4179024326
 11
5.8109107289
 21
3.3774961826
  0
LINE
  5
37B
100
AcDbEntity
  8
03__ASM_ALL_CURVES
100
AcDbLine
 62
40
  6
CONTINUOUS
 10
5.6846411976
 20
3.3976993076
 11
5.6795904164
 21
3.4179024326
  0
LINE
  5
37C
100
AcDbEntity
  8
03__ASM_ALL_CURVES
100
AcDbLine
 62
40
  6
CONTINUOUS
 10
5.7351490101
 20
3.4381055576
 11
5.7401997914
 21
3.4179024326
  0
LINE
  5
37D
100
AcDbEntity
  8
03__ASM_ALL_CURVES
100
AcDbLine
 62
40
  6
CONTINUOUS
 10
5.6492857289
 20
3.444839931
 11
5.6492857289
 21
3.4313711842
  0
LINE
  5
37E
100
AcDbEntity
  8
03__ASM_ALL_CURVES
100
AcDbLine
 62
40
  6
CONTINUOUS
 10
5.7705044789
 20
3.3774961826
 11
5.7705044789
 21
3.4583086826
  0
LINE
  5
37F
100
AcDbEntity
  8
03__ASM_ALL_CURVES
100
AcDbLine
 62
40
  6
CONTINUOUS
 10
5.8109107289
 20
3.444839931
 11
5.8109107289
 21
3.4313711842
  0
LINE
  5
380
100
AcDbEntity
  8
03__ASM_ALL_CURVES
100
AcDbLine
 62
40
  6
CONTINUOUS
 10
8.615299356
 20
4.1988586826
 11
8.6051977935
 21
4.1988586826
  0
LINE
  5
381
100
AcDbEntity
  8
03__ASM_ALL_CURVES
100
AcDbLine
 62
40
  6
CONTINUOUS
 10
8.696111856
 20
4.2392649326
 11
8.6708579497
 21
4.2392649326
  0
LINE
  5
382
100
AcDbEntity
  8
03__ASM_ALL_CURVES
100
AcDbLine
 62
40
  6
CONTINUOUS
 10
8.534486856
 20
4.2392649326
 11
8.5092329497
 21
4.2392649326
  0
LINE
  5
383
100
AcDbEntity
  8
03__ASM_ALL_CURVES
100
AcDbLine
 62
40
  6
CONTINUOUS
 10
8.5092329497
 20
4.2796711826
 11
8.534486856
 21
4.2796711826
  0
LINE
  5
384
100
AcDbEntity
  8
03__ASM_ALL_CURVES
100
AcDbLine
 62
40
  6
CONTINUOUS
 10
8.6051977935
 20
4.2796711826
 11
8.615299356
 21
4.2796711826
  0
LINE
  5
385
100
AcDbEntity
  8
03__ASM_ALL_CURVES
100
AcDbLine
 62
40
  6
CONTINUOUS
 10
8.6708579497
 20
4.2796711826
 11
8.696111856
 21
4.2796711826
  0
LINE
  5
386
100
AcDbEntity
  8
03__ASM_ALL_CURVES
100
AcDbLine
 62
40
  6
CONTINUOUS
 10
8.7466196685
 20
4.2796711826
 11
8.797127481
 21
4.2796711826
  0
LINE
  5
387
100
AcDbEntity
  8
03__ASM_ALL_CURVES
100
AcDbLine
 62
40
  6
CONTINUOUS
 10
6.7522837147
 20
3.4583086826
 11
6.7623852772
 21
3.4515743092
  0
LINE
  5
388
100
AcDbEntity
  8
03__ASM_ALL_CURVES
100
AcDbLine
 62
40
  6
CONTINUOUS
 10
6.9139087147
 20
3.4583086826
 11
6.9240102772
 21
3.4515743092
  0
LINE
  5
389
100
AcDbEntity
  8
03__ASM_ALL_CURVES
100
AcDbLine
 62
40
  6
CONTINUOUS
 10
4.6060860748
 20
5.0890886826
 11
4.5926173248
 21
5.0980678495
  0
LINE
  5
38A
100
AcDbEntity
  8
03__ASM_ALL_CURVES
100
AcDbLine
 62
40
  6
CONTINUOUS
 10
5.0236173248
 20
5.0980678495
 11
5.0101485748
 21
5.1160261826
  0
LINE
  5
38B
100
AcDbEntity
  8
03__ASM_ALL_CURVES
100
AcDbLine
 62
40
  6
CONTINUOUS
 10
5.1313673248
 20
5.0980678495
 11
5.1246329498
 21
5.1070470165
  0
LINE
  5
38C
100
AcDbEntity
  8
03__ASM_ALL_CURVES
100
AcDbLine
 62
40
  6
CONTINUOUS
 10
5.0640235748
 20
5.1878595181
 11
5.0774923248
 21
5.1699011826
  0
LINE
  5
38D
100
AcDbEntity
  8
03__ASM_ALL_CURVES
100
AcDbLine
 62
40
  6
CONTINUOUS
 10
5.3940079498
 20
5.1699011826
 11
5.4007423248
 21
5.1429636826
  0
LINE
  5
38E
100
AcDbEntity
  8
03__ASM_ALL_CURVES
100
AcDbLine
 62
40
  6
CONTINUOUS
 10
5.8715201039
 20
3.4583086826
 11
5.8715201039
 21
3.3774961826
  0
LINE
  5
38F
100
AcDbEntity
  8
0
100
AcDbLine
 62
7
  6
CONTINUOUS
 10
5.9162329494
 20
3.8028086826
 11
5.9162329494
 21
4.5518086826
  0
LINE
  5
390
100
AcDbEntity
  8
0
100
AcDbLine
 62
7
  6
CONTINUOUS
 10
5.9562329494
 20
3.7518086826
 11
5.9562329494
 21
4.6028086826
  0
LINE
  5
391
100
AcDbEntity
  8
03__ASM_ALL_CURVES
100
AcDbLine
 62
40
  6
CONTINUOUS
 10
5.9725357289
 20
3.444839931
 11
5.9725357289
 21
3.4381055576
  0
LINE
  5
392
100
AcDbEntity
  8
03__ASM_ALL_CURVES
100
AcDbLine
 62
40
  6
CONTINUOUS
 10
5.9775865101
 20
3.4044336834
 11
5.9775865101
 21
3.3976993076
  0
LINE
  5
393
100
AcDbEntity
  8
0
100
AcDbLine
 62
7
  6
CONTINUOUS
 10
6.0312329494
 20
3.7518086826
 11
6.0312329494
 21
4.6028086826
  0
LINE
  5
394
100
AcDbEntity
  8
03__ASM_ALL_CURVES
100
AcDbLine
 62
40
  6
CONTINUOUS
 10
5.6795904164
 20
3.4179024326
 11
5.6846411976
 21
3.4381055576
  0
LINE
  5
395
100
AcDbEntity
  8
03__ASM_ALL_CURVES
100
AcDbLine
 62
40
  6
CONTINUOUS
 10
5.7401997914
 20
3.4179024326
 11
5.7351490101
 21
3.3976993076
  0
LINE
  5
396
100
AcDbEntity
  8
03__ASM_ALL_CURVES
100
AcDbLine
 62
40
  6
CONTINUOUS
 10
4.6132349476
 20
3.424636806
 11
4.6031333851
 21
3.4179024326
  0
LINE
  5
397
100
AcDbEntity
  8
03__ASM_ALL_CURVES
100
AcDbLine
 62
40
  6
CONTINUOUS
 10
4.6637427601
 20
3.4515743092
 11
4.6738443226
 21
3.4583086826
  0
LINE
  5
398
100
AcDbEntity
  8
03__ASM_ALL_CURVES
100
AcDbLine
 62
40
  6
CONTINUOUS
 10
4.6940474476
 20
3.3842305578
 11
4.6839458851
 21
3.3774961826
  0
LINE
  5
399
100
AcDbEntity
  8
03__ASM_ALL_CURVES
100
AcDbLine
 62
40
  6
CONTINUOUS
 10
4.7748599476
 20
3.424636806
 11
4.7647583851
 21
3.4179024326
  0
LINE
  5
39A
100
AcDbEntity
  8
0
100
AcDbLine
 62
7
  6
CONTINUOUS
 10
5.5542329494
 20
4.3172745636
 11
5.691292293
 21
4.3172745636
  0
LINE
  5
39B
100
AcDbEntity
  8
0
100
AcDbLine
 62
7
  6
CONTINUOUS
 10
5.6951855309
 20
4.3564922724
 11
5.5981741628
 21
4.3564922724
  0
LINE
  5
39C
100
AcDbEntity
  8
0
100
AcDbLine
 62
7
  6
CONTINUOUS
 10
7.3322329494
 20
4.4444586826
 11
7.3412329494
 21
4.4444586826
  0
LINE
  5
39D
100
AcDbEntity
  8
0
100
AcDbLine
 62
7
  6
CONTINUOUS
 10
7.8662329494
 20
4.4533086826
 11
7.4362329494
 21
4.4533086826
  0
LINE
  5
39E
100
AcDbEntity
  8
0
100
AcDbLine
 62
7
  6
CONTINUOUS
 10
7.4362329494
 20
4.4584586826
 11
7.3482329494
 21
4.4584586826
  0
LINE
  5
39F
100
AcDbEntity
  8
0
100
AcDbLine
 62
7
  6
CONTINUOUS
 10
7.3242329494
 20
4.4584586826
 11
7.2832329494
 21
4.4584586826
  0
LINE
  5
3A0
100
AcDbEntity
  8
0
100
AcDbLine
 62
7
  6
CONTINUOUS
 10
3.4158073236
 20
4.4698293015
 11
3.0178436207
 21
4.4698293015
  0
LINE
  5
3A1
100
AcDbEntity
  8
0
100
AcDbLine
 62
7
  6
CONTINUOUS
 10
3.4158073236
 20
4.5181733731
 11
3.0178436207
 21
4.5181733731
  0
LINE
  5
3A2
100
AcDbEntity
  8
0
100
AcDbLine
 62
7
  6
CONTINUOUS
 10
7.1822329494
 20
4.5273086826
 11
7.1542329494
 21
4.5273086826
  0
LINE
  5
3A3
100
AcDbEntity
  8
03__ASM_ALL_CURVES
100
AcDbLine
 62
40
  6
CONTINUOUS
 10
4.6195548248
 20
5.1968386826
 11
4.6330235748
 21
5.1878595181
  0
LINE
  5
3A4
100
AcDbEntity
  8
03__ASM_ALL_CURVES
100
AcDbLine
 62
40
  6
CONTINUOUS
 10
4.8215860748
 20
5.0890886826
 11
4.8081173248
 21
5.0980678495
  0
LINE
  5
3A5
100
AcDbEntity
  8
03__ASM_ALL_CURVES
100
AcDbLine
 62
40
  6
CONTINUOUS
 10
4.8081173248
 20
5.1609220181
 11
4.8485235748
 21
5.1339845149
  0
LINE
  5
3A6
100
AcDbEntity
  8
03__ASM_ALL_CURVES
100
AcDbLine
 62
40
  6
CONTINUOUS
 10
4.8485235748
 20
5.1878595181
 11
4.8350548248
 21
5.1968386826
  0
LINE
  5
3A7
100
AcDbEntity
  8
03__ASM_ALL_CURVES
100
AcDbLine
 62
40
  6
CONTINUOUS
 10
6.6512680897
 20
3.3842305578
 11
6.6411665272
 21
3.3976993076
  0
LINE
  5
3A8
100
AcDbEntity
  8
03__ASM_ALL_CURVES
100
AcDbLine
 62
40
  6
CONTINUOUS
 10
6.6007602772
 20
3.4515743092
 11
6.6058110585
 21
3.444839931
  0
LINE
  5
3A9
100
AcDbEntity
  8
03__ASM_ALL_CURVES
100
AcDbLine
 62
40
  6
CONTINUOUS
 10
6.6815727772
 20
3.4515743092
 11
6.6916743397
 21
3.4381055576
  0
LINE
  5
3AA
100
AcDbEntity
  8
03__ASM_ALL_CURVES
100
AcDbLine
 62
40
  6
CONTINUOUS
 10
5.3805391998
 20
5.1878595181
 11
5.3940079498
 21
5.1699011826
  0
LINE
  5
3AB
100
AcDbEntity
  8
03__ASM_ALL_CURVES
100
AcDbLine
 62
40
  6
CONTINUOUS
 10
5.5893048248
 20
5.1429636826
 11
5.6095079498
 21
5.0890886826
  0
LINE
  5
3AC
100
AcDbEntity
  8
0
100
AcDbLine
 62
7
  6
CONTINUOUS
 10
6.0812329494
 20
3.752809328
 11
6.0812329494
 21
4.6018080372
  0
LINE
  5
3AD
100
AcDbEntity
  8
0
100
AcDbLine
 62
7
  6
CONTINUOUS
 10
6.1512329494
 20
3.752809328
 11
6.1512329494
 21
4.6018080372
  0
LINE
  5
3AE
100
AcDbEntity
  8
0
100
AcDbLine
 62
7
  6
CONTINUOUS
 10
6.2012329494
 20
3.752809328
 11
6.2012329494
 21
4.6018080372
  0
LINE
  5
3AF
100
AcDbEntity
  8
0
100
AcDbLine
 62
7
  6
CONTINUOUS
 10
6.2292329494
 20
3.7518086826
 11
6.2292329494
 21
4.6028086826
  0
LINE
  5
3B0
100
AcDbEntity
  8
03__ASM_ALL_CURVES
100
AcDbLine
 62
40
  6
CONTINUOUS
 10
5.6492857289
 20
3.4313711842
 11
5.6442349476
 21
3.424636806
  0
LINE
  5
3B1
100
AcDbEntity
  8
03__ASM_ALL_CURVES
100
AcDbLine
 62
40
  6
CONTINUOUS
 10
5.6846411976
 20
3.4381055576
 11
5.6947427601
 21
3.4515743092
  0
LINE
  5
3B2
100
AcDbEntity
  8
0
100
AcDbLine
 62
7
  6
CONTINUOUS
 10
6.2292329494
 20
4.5478086826
 11
6.2012329494
 21
4.5478086826
  0
LINE
  5
3B3
100
AcDbEntity
  8
0
100
AcDbLine
 62
7
  6
CONTINUOUS
 10
6.8672329494
 20
4.5493086826
 11
6.7172329494
 21
4.5493086826
  0
LINE
  5
3B4
100
AcDbEntity
  8
0
100
AcDbLine
 62
7
  6
CONTINUOUS
 10
6.5452329494
 20
4.5493086826
 11
6.3442329494
 21
4.5493086826
  0
LINE
  5
3B5
100
AcDbEntity
  8
0
100
AcDbLine
 62
7
  6
CONTINUOUS
 10
5.9162329494
 20
4.5518086826
 11
5.7072329494
 21
4.5518086826
  0
LINE
  5
3B6
100
AcDbEntity
  8
0
100
AcDbLine
 62
7
  6
CONTINUOUS
 10
5.5112329494
 20
4.5518086826
 11
5.4042329494
 21
4.5518086826
  0
LINE
  5
3B7
100
AcDbEntity
  8
0
100
AcDbLine
 62
7
  6
CONTINUOUS
 10
4.9762329494
 20
4.5663086826
 11
4.6072329494
 21
4.5663086826
  0
LINE
  5
3B8
100
AcDbEntity
  8
0
100
AcDbLine
 62
7
  6
CONTINUOUS
 10
5.2892329494
 20
4.5708086826
 11
5.2612329494
 21
4.5708086826
  0
LINE
  5
3B9
100
AcDbEntity
  8
0
100
AcDbLine
 62
7
  6
CONTINUOUS
 10
7.2702329494
 20
4.5818086826
 11
7.1822329494
 21
4.5818086826
  0
LINE
  5
3BA
100
AcDbEntity
  8
0
100
AcDbLine
 62
7
  6
CONTINUOUS
 10
6.9842329494
 20
4.5818086826
 11
6.9065235335
 21
4.5818086826
  0
LINE
  5
3BB
100
AcDbEntity
  8
0
100
AcDbLine
 62
7
  6
CONTINUOUS
 10
6.0312329494
 20
4.6018086826
 11
6.0812329494
 21
4.6018086826
  0
LINE
  5
3BC
100
AcDbEntity
  8
0
100
AcDbLine
 62
7
  6
CONTINUOUS
 10
6.1512329494
 20
4.6018086826
 11
6.2012329494
 21
4.6018086826
  0
LINE
  5
3BD
100
AcDbEntity
  8
0
100
AcDbLine
 62
7
  6
CONTINUOUS
 10
6.9842329494
 20
4.6018086826
 11
7.0342329494
 21
4.6018086826
  0
LINE
  5
3BE
100
AcDbEntity
  8
0
100
AcDbLine
 62
7
  6
CONTINUOUS
 10
7.1042329494
 20
4.6018086826
 11
7.1542329494
 21
4.6018086826
  0
LINE
  5
3BF
100
AcDbEntity
  8
0
100
AcDbLine
 62
7
  6
CONTINUOUS
 10
6.3042329494
 20
4.6028086826
 11
6.2292329494
 21
4.6028086826
  0
LINE
  5
3C0
100
AcDbEntity
  8
0
100
AcDbLine
 62
7
  6
CONTINUOUS
 10
6.0312329494
 20
4.6028086826
 11
5.9562329494
 21
4.6028086826
  0
LINE
  5
3C1
100
AcDbEntity
  8
0
100
AcDbLine
 62
7
  6
CONTINUOUS
 10
5.0162329494
 20
4.6233086826
 11
5.0912329494
 21
4.6233086826
  0
LINE
  5
3C2
100
AcDbEntity
  8
0
100
AcDbLine
 62
7
  6
CONTINUOUS
 10
5.2892329494
 20
4.6233086826
 11
5.3642329494
 21
4.6233086826
  0
LINE
  5
3C3
100
AcDbEntity
  8
0
100
AcDbLine
 62
7
  6
CONTINUOUS
 10
5.0912329494
 20
4.6248086826
 11
5.1412329494
 21
4.6248086826
  0
LINE
  5
3C4
100
AcDbEntity
  8
0
100
AcDbLine
 62
7
  6
CONTINUOUS
 10
5.2112329494
 20
4.6248086826
 11
5.2612329494
 21
4.6248086826
  0
LINE
  5
3C5
100
AcDbEntity
  8
THREAD
100
AcDbLine
 62
7
  6
CONTINUOUS
 10
4.4242329494
 20
4.6293086826
 11
4.2842329494
 21
4.6293086826
  0
LINE
  5
3C6
100
AcDbEntity
  8
THREAD
100
AcDbLine
 62
7
  6
CONTINUOUS
 10
3.8400160711
 20
4.6353086826
 11
3.8262329494
 21
4.6353086826
  0
LINE
  5
3C7
100
AcDbEntity
  8
THREAD
100
AcDbLine
 62
7
  6
CONTINUOUS
 10
4.2402329494
 20
4.6733086826
 11
3.8691722597
 21
4.6733086826
  0
LINE
  5
3C8
100
AcDbEntity
  8
0
100
AcDbLine
 62
7
  6
CONTINUOUS
 10
3.7762329494
 20
4.6893086826
 11
3.8262329494
 21
4.6893086826
  0
LINE
  5
3C9
100
AcDbEntity
  8
THREAD
100
AcDbLine
 62
7
  6
CONTINUOUS
 10
3.7062329494
 20
4.6918086826
 11
3.6830893559
 21
4.6918086826
  0
LINE
  5
3CA
100
AcDbEntity
  8
0
100
AcDbLine
 62
7
  6
CONTINUOUS
 10
3.6562329494
 20
4.7153086826
 11
3.4712329494
 21
4.7153086826
  0
LINE
  5
3CB
100
AcDbEntity
  8
03__ASM_ALL_CURVES
100
AcDbLine
 62
40
  6
CONTINUOUS
 10
3.1015329494
 20
5.0316220159
 11
2.9722329494
 21
5.0459886826
  0
LINE
  5
3CC
100
AcDbEntity
  8
03__ASM_ALL_CURVES
100
AcDbLine
 62
40
  6
CONTINUOUS
 10
3.1015329494
 20
5.0280303493
 11
2.9722329494
 21
5.0459886826
  0
LINE
  5
3CD
100
AcDbEntity
  8
03__ASM_ALL_CURVES
100
AcDbLine
 62
40
  6
CONTINUOUS
 10
3.1015329494
 20
5.0244386826
 11
2.9722329494
 21
5.0459886826
  0
LINE
  5
3CE
100
AcDbEntity
  8
03__ASM_ALL_CURVES
100
AcDbLine
 62
40
  6
CONTINUOUS
 10
3.7885329494
 20
5.0244386826
 11
3.5299329494
 21
5.0675386826
  0
LINE
  5
3CF
100
AcDbEntity
  8
03__ASM_ALL_CURVES
100
AcDbLine
 62
40
  6
CONTINUOUS
 10
5.0370860748
 20
5.0890886826
 11
5.0236173248
 21
5.0980678495
  0
LINE
  5
3D0
100
AcDbEntity
  8
03__ASM_ALL_CURVES
100
AcDbLine
 62
40
  6
CONTINUOUS
 10
5.1448360748
 20
5.0890886826
 11
5.1313673248
 21
5.0980678495
  0
LINE
  5
3D1
100
AcDbEntity
  8
03__ASM_ALL_CURVES
100
AcDbLine
 62
40
  6
CONTINUOUS
 10
5.0505548248
 20
5.1968386826
 11
5.0640235748
 21
5.1878595181
  0
LINE
  5
3D2
100
AcDbEntity
  8
03__ASM_ALL_CURVES
100
AcDbLine
 62
40
  6
CONTINUOUS
 10
6.7623852772
 20
3.4515743092
 11
6.7674360585
 21
3.444839931
  0
LINE
  5
3D3
100
AcDbEntity
  8
03__ASM_ALL_CURVES
100
AcDbLine
 62
40
  6
CONTINUOUS
 10
5.6027735748
 20
5.1878595181
 11
5.6095079498
 21
5.1788803471
  0
LINE
  5
3D4
100
AcDbEntity
  8
03__ASM_ALL_CURVES
100
AcDbLine
 62
40
  6
CONTINUOUS
 10
6.9240102772
 20
3.4515743092
 11
6.9290610585
 21
3.444839931
  0
LINE
  5
3D5
100
AcDbEntity
  8
0
100
AcDbLine
 62
7
  6
CONTINUOUS
 10
6.3042329494
 20
3.7518086826
 11
6.3042329494
 21
4.6028086826
  0
LINE
  5
3D6
100
AcDbEntity
  8
0
100
AcDbLine
 62
7
  6
CONTINUOUS
 10
6.3442329494
 20
3.8053086826
 11
6.3442329494
 21
4.5493086826
  0
LINE
  5
3D7
100
AcDbEntity
  8
03__ASM_ALL_CURVES
100
AcDbLine
 62
40
  6
CONTINUOUS
 10
5.7351490101
 20
3.3976993076
 11
5.7250474476
 21
3.3842305578
  0
LINE
  5
3D8
100
AcDbEntity
  8
03__ASM_ALL_CURVES
100
AcDbLine
 62
40
  6
CONTINUOUS
 10
5.8109107289
 20
3.4313711842
 11
5.8058599476
 21
3.424636806
  0
LINE
  5
3D9
100
AcDbEntity
  8
03__ASM_ALL_CURVES
100
AcDbLine
 62
40
  6
CONTINUOUS
 10
5.9725357289
 20
3.4381055576
 11
5.9674849476
 21
3.4313711842
  0
LINE
  5
3DA
100
AcDbEntity
  8
03__ASM_ALL_CURVES
100
AcDbLine
 62
40
  6
CONTINUOUS
 10
5.6442349476
 20
3.424636806
 11
5.6341333851
 21
3.4179024326
  0
LINE
  5
3DB
100
AcDbEntity
  8
03__ASM_ALL_CURVES
100
AcDbLine
 62
40
  6
CONTINUOUS
 10
5.6947427601
 20
3.4515743092
 11
5.7048443226
 21
3.4583086826
  0
LINE
  5
3DC
100
AcDbEntity
  8
0
100
AcDbLine
 62
7
  6
CONTINUOUS
 10
3.4158073236
 20
4.8106939921
 11
3.0178436207
 21
4.8106939921
  0
LINE
  5
3DD
100
AcDbEntity
  8
0
100
AcDbLine
 62
7
  6
CONTINUOUS
 10
3.4158073236
 20
4.8113086826
 11
3.0178436207
 21
4.8113086826
  0
LINE
  5
3DE
100
AcDbEntity
  8
03__ASM_ALL_CURVES
100
AcDbLine
 62
40
  6
CONTINUOUS
 10
3.1015329494
 20
5.0388053493
 11
2.9722329494
 21
5.0459886826
  0
LINE
  5
3DF
100
AcDbEntity
  8
03__ASM_ALL_CURVES
100
AcDbLine
 62
40
  6
CONTINUOUS
 10
3.5299329494
 20
5.0531720159
 11
3.7885329494
 21
5.0388053493
  0
LINE
  5
3E0
100
AcDbEntity
  8
03__ASM_ALL_CURVES
100
AcDbLine
 62
40
  6
CONTINUOUS
 10
3.1015329494
 20
5.0352136826
 11
2.9722329494
 21
5.0459886826
  0
LINE
  5
3E1
100
AcDbEntity
  8
03__ASM_ALL_CURVES
100
AcDbLine
 62
40
  6
CONTINUOUS
 10
3.5299329494
 20
5.0567636826
 11
3.7885329494
 21
5.0352136826
  0
LINE
  5
3E2
100
AcDbEntity
  8
03__ASM_ALL_CURVES
100
AcDbLine
 62
40
  6
CONTINUOUS
 10
3.5299329494
 20
5.0603553493
 11
3.7885329494
 21
5.0316220159
  0
LINE
  5
3E3
100
AcDbEntity
  8
03__ASM_ALL_CURVES
100
AcDbLine
 62
40
  6
CONTINUOUS
 10
3.5299329494
 20
5.0639470159
 11
3.7885329494
 21
5.0280303493
  0
LINE
  5
3E4
100
AcDbEntity
  8
03__ASM_ALL_CURVES
100
AcDbLine
 62
40
  6
CONTINUOUS
 10
5.3670704498
 20
5.1968386826
 11
5.3805391998
 21
5.1878595181
  0
LINE
  5
3E5
100
AcDbEntity
  8
03__ASM_ALL_CURVES
100
AcDbLine
 62
40
  6
CONTINUOUS
 10
5.5893048248
 20
5.1968386826
 11
5.6027735748
 21
5.1878595181
  0
LINE
  5
3E6
100
AcDbEntity
  8
03__ASM_ALL_CURVES
100
AcDbLine
 62
40
  6
CONTINUOUS
 10
6.7522837147
 20
3.4179024326
 11
6.7674360585
 21
3.3774961826
  0
LINE
  5
3E7
100
AcDbEntity
  8
03__ASM_ALL_CURVES
100
AcDbLine
 62
40
  6
CONTINUOUS
 10
6.6411665272
 20
3.3976993076
 11
6.636115746
 21
3.4179024326
  0
LINE
  5
3E8
100
AcDbEntity
  8
03__ASM_ALL_CURVES
100
AcDbLine
 62
40
  6
CONTINUOUS
 10
6.6916743397
 20
3.4381055576
 11
6.696725121
 21
3.4179024326
  0
LINE
  5
3E9
100
AcDbEntity
  8
0
100
AcDbLine
 62
7
  6
CONTINUOUS
 10
6.5512329494
 20
3.9895953568
 11
6.5512329494
 21
4.0176465501
  0
LINE
  5
3EA
100
AcDbEntity
  8
0
100
AcDbLine
 62
7
  6
CONTINUOUS
 10
6.5582329494
 20
3.9786731644
 11
6.5582329494
 21
4.0315635644
  0
LINE
  5
3EB
100
AcDbEntity
  8
03__ASM_ALL_CURVES
100
AcDbLine
 62
40
  6
CONTINUOUS
 10
6.5654048085
 20
3.3774961826
 11
6.5654048085
 21
3.4583086826
  0
LINE
  5
3EC
100
AcDbEntity
  8
0
100
AcDbLine
 62
7
  6
CONTINUOUS
 10
6.5992329494
 20
3.9525127701
 11
6.5992329494
 21
4.0640128735
  0
LINE
  5
3ED
100
AcDbEntity
  8
03__ASM_ALL_CURVES
100
AcDbLine
 62
40
  6
CONTINUOUS
 10
6.6058110585
 20
3.444839931
 11
6.6058110585
 21
3.4313711842
  0
LINE
  5
3EE
100
AcDbEntity
  8
0
100
AcDbLine
 62
7
  6
CONTINUOUS
 10
6.6072329494
 20
3.9501274251
 11
6.6072329494
 21
4.0672222187
  0
LINE
  5
3EF
100
AcDbEntity
  8
0
100
AcDbLine
 62
7
  6
CONTINUOUS
 10
6.6162329494
 20
3.9488299496
 11
6.6162329494
 21
4.0689010035
  0
LINE
  5
3F0
100
AcDbEntity
  8
0
100
AcDbLine
 62
7
  6
CONTINUOUS
 10
6.6232329494
 20
3.9481717634
 11
6.6232329494
 21
4.0697991231
  0
LINE
  5
3F1
100
AcDbEntity
  8
03__ASM_ALL_CURVES
100
AcDbLine
 62
40
  6
CONTINUOUS
 10
5.9775865101
 20
3.3976993076
 11
5.9674849476
 21
3.3842305578
  0
LINE
  5
3F2
100
AcDbEntity
  8
03__ASM_ALL_CURVES
100
AcDbLine
 62
40
  6
CONTINUOUS
 10
5.7250474476
 20
3.3842305578
 11
5.7149458851
 21
3.3774961826
  0
LINE
  5
3F3
100
AcDbEntity
  8
03__ASM_ALL_CURVES
100
AcDbLine
 62
40
  6
CONTINUOUS
 10
5.8058599476
 20
3.424636806
 11
5.7957583851
 21
3.4179024326
  0
LINE
  5
3F4
100
AcDbEntity
  8
03__ASM_ALL_CURVES
100
AcDbLine
 62
40
  6
CONTINUOUS
 10
5.9371802601
 20
3.4515743092
 11
5.9472818226
 21
3.4583086826
  0
LINE
  5
3F5
100
AcDbEntity
  8
03__ASM_ALL_CURVES
100
AcDbLine
 62
40
  6
CONTINUOUS
 10
5.9674849476
 20
3.4313711842
 11
5.9573833851
 21
3.424636806
  0
LINE
  5
3F6
100
AcDbEntity
  8
03__ASM_ALL_CURVES
100
AcDbLine
 62
40
  6
CONTINUOUS
 10
5.9674849476
 20
3.3842305578
 11
5.9573833851
 21
3.3774961826
  0
LINE
  5
3F7
100
AcDbEntity
  8
03__ASM_ALL_CURVES
100
AcDbLine
 62
40
  6
CONTINUOUS
 10
3.5299329494
 20
5.0388053493
 11
3.7885329494
 21
5.0531720159
  0
LINE
  5
3F8
100
AcDbEntity
  8
03__ASM_ALL_CURVES
100
AcDbLine
 62
40
  6
CONTINUOUS
 10
3.5299329494
 20
5.0423970159
 11
3.7885329494
 21
5.0495803493
  0
LINE
  5
3F9
100
AcDbEntity
  8
03__ASM_ALL_CURVES
100
AcDbLine
 62
40
  6
CONTINUOUS
 10
3.1015329494
 20
5.0495803493
 11
2.9722329494
 21
5.0459886826
  0
LINE
  5
3FA
100
AcDbEntity
  8
03__ASM_ALL_CURVES
100
AcDbLine
 62
40
  6
CONTINUOUS
 10
2.9722329494
 20
5.0459886826
 11
5.7280329494
 21
5.0459886826
  0
LINE
  5
3FB
100
AcDbEntity
  8
03__ASM_ALL_CURVES
100
AcDbLine
 62
40
  6
CONTINUOUS
 10
5.5017579498
 20
5.0890886826
 11
5.4478829498
 21
5.0890886826
  0
LINE
  5
3FC
100
AcDbEntity
  8
03__ASM_ALL_CURVES
100
AcDbLine
 62
40
  6
CONTINUOUS
 10
5.3670704498
 20
5.0890886826
 11
5.3401329498
 21
5.0890886826
  0
LINE
  5
3FD
100
AcDbEntity
  8
03__ASM_ALL_CURVES
100
AcDbLine
 62
40
  6
CONTINUOUS
 10
5.1583048248
 20
5.0890886826
 11
5.1448360748
 21
5.0890886826
  0
LINE
  5
3FE
100
AcDbEntity
  8
03__ASM_ALL_CURVES
100
AcDbLine
 62
40
  6
CONTINUOUS
 10
5.0505548248
 20
5.0890886826
 11
5.0370860748
 21
5.0890886826
  0
LINE
  5
3FF
100
AcDbEntity
  8
03__ASM_ALL_CURVES
100
AcDbLine
 62
40
  6
CONTINUOUS
 10
4.8350548248
 20
5.0890886826
 11
4.8215860748
 21
5.0890886826
  0
LINE
  5
400
100
AcDbEntity
  8
03__ASM_ALL_CURVES
100
AcDbLine
 62
40
  6
CONTINUOUS
 10
4.6195548248
 20
5.0890886826
 11
4.6060860748
 21
5.0890886826
  0
LINE
  5
401
100
AcDbEntity
  8
03__ASM_ALL_CURVES
100
AcDbLine
 62
40
  6
CONTINUOUS
 10
4.0808048248
 20
5.0890886826
 11
4.0673360748
 21
5.0890886826
  0
LINE
  5
402
100
AcDbEntity
  8
03__ASM_ALL_CURVES
100
AcDbLine
 62
40
  6
CONTINUOUS
 10
3.9730548248
 20
5.0890886826
 11
3.9595860748
 21
5.0890886826
  0
LINE
  5
403
100
AcDbEntity
  8
03__ASM_ALL_CURVES
100
AcDbLine
 62
40
  6
CONTINUOUS
 10
3.5312329494
 20
5.0890886826
 11
3.5244985744
 21
5.0890886826
  0
LINE
  5
404
100
AcDbEntity
  8
03__ASM_ALL_CURVES
100
AcDbLine
 62
40
  6
CONTINUOUS
 10
3.1069673244
 20
5.0890886826
 11
3.0934985744
 21
5.0890886826
  0
LINE
  5
405
100
AcDbEntity
  8
03__ASM_ALL_CURVES
100
AcDbLine
 62
40
  6
CONTINUOUS
 10
2.8847329494
 20
5.0890886826
 11
2.8779985744
 21
5.0890886826
  0
LINE
  5
406
100
AcDbEntity
  8
03__ASM_ALL_CURVES
100
AcDbLine
 62
40
  6
CONTINUOUS
 10
3.6120454494
 20
5.0890886826
 11
3.6659204494
 21
5.0890886826
  0
LINE
  5
407
100
AcDbEntity
  8
03__ASM_ALL_CURVES
100
AcDbLine
 62
40
  6
CONTINUOUS
 10
3.8316329498
 20
5.0890886826
 11
3.8855079498
 21
5.0890886826
  0
LINE
  5
408
100
AcDbEntity
  8
03__ASM_ALL_CURVES
100
AcDbLine
 62
40
  6
CONTINUOUS
 10
5.2323829498
 20
5.0890886826
 11
5.2862579498
 21
5.0890886826
  0
LINE
  5
409
100
AcDbEntity
  8
03__ASM_ALL_CURVES
100
AcDbLine
 62
40
  6
CONTINUOUS
 10
4.1616173248
 20
5.1250053503
 11
4.2020235748
 21
5.1250053503
  0
LINE
  5
40A
100
AcDbEntity
  8
03__ASM_ALL_CURVES
100
AcDbLine
 62
40
  6
CONTINUOUS
 10
5.5893048248
 20
5.1429636826
 11
5.5556329498
 21
5.1429636826
  0
LINE
  5
40B
100
AcDbEntity
  8
03__ASM_ALL_CURVES
100
AcDbLine
 62
40
  6
CONTINUOUS
 10
4.6128204498
 20
5.1429636826
 11
4.6397579498
 21
5.1429636826
  0
LINE
  5
40C
100
AcDbEntity
  8
03__ASM_ALL_CURVES
100
AcDbLine
 62
40
  6
CONTINUOUS
 10
4.9091329498
 20
5.1429636826
 11
4.9630079498
 21
5.1429636826
  0
LINE
  5
40D
100
AcDbEntity
  8
03__ASM_ALL_CURVES
100
AcDbLine
 62
40
  6
CONTINUOUS
 10
5.4478829498
 20
5.1429636826
 11
5.4815548248
 21
5.1429636826
  0
LINE
  5
40E
100
AcDbEntity
  8
03__ASM_ALL_CURVES
100
AcDbLine
 62
40
  6
CONTINUOUS
 10
3.0934985744
 20
5.1519428471
 11
3.1069673244
 21
5.1519428471
  0
LINE
  5
40F
100
AcDbEntity
  8
03__ASM_ALL_CURVES
100
AcDbLine
 62
40
  6
CONTINUOUS
 10
3.1015329494
 20
5.0423970159
 11
2.9722329494
 21
5.0459886826
  0
LINE
  5
410
100
AcDbEntity
  8
03__ASM_ALL_CURVES
100
AcDbLine
 62
40
  6
CONTINUOUS
 10
3.5299329494
 20
5.0495803493
 11
3.7885329494
 21
5.0423970159
  0
LINE
  5
411
100
AcDbEntity
  8
03__ASM_ALL_CURVES
100
AcDbLine
 62
40
  6
CONTINUOUS
 10
6.7270298085
 20
3.3774961826
 11
6.7270298085
 21
3.4583086826
  0
LINE
  5
412
100
AcDbEntity
  8
03__ASM_ALL_CURVES
100
AcDbLine
 62
40
  6
CONTINUOUS
 10
6.7674360585
 20
3.444839931
 11
6.7674360585
 21
3.4313711842
  0
LINE
  5
413
100
AcDbEntity
  8
03__ASM_ALL_CURVES
100
AcDbLine
 62
40
  6
CONTINUOUS
 10
6.8280454335
 20
3.4583086826
 11
6.8280454335
 21
3.3774961826
  0
LINE
  5
414
100
AcDbEntity
  8
0
100
AcDbLine
 62
7
  6
CONTINUOUS
 10
6.8672329494
 20
3.8053086826
 11
6.8672329494
 21
4.5493086826
  0
LINE
  5
415
100
AcDbEntity
  8
03__ASM_ALL_CURVES
100
AcDbLine
 62
40
  6
CONTINUOUS
 10
6.636115746
 20
3.4179024326
 11
6.6411665272
 21
3.4381055576
  0
LINE
  5
416
100
AcDbEntity
  8
03__ASM_ALL_CURVES
100
AcDbLine
 62
40
  6
CONTINUOUS
 10
6.696725121
 20
3.4179024326
 11
6.6916743397
 21
3.3976993076
  0
LINE
  5
417
100
AcDbEntity
  8
03__ASM_ALL_CURVES
100
AcDbLine
 62
40
  6
CONTINUOUS
 10
3.5299329494
 20
5.0280303493
 11
3.7885329494
 21
5.0639470159
  0
LINE
  5
418
100
AcDbEntity
  8
03__ASM_ALL_CURVES
100
AcDbLine
 62
40
  6
CONTINUOUS
 10
3.5299329494
 20
5.0316220159
 11
3.7885329494
 21
5.0603553493
  0
LINE
  5
419
100
AcDbEntity
  8
03__ASM_ALL_CURVES
100
AcDbLine
 62
40
  6
CONTINUOUS
 10
3.1015329494
 20
5.0603553493
 11
2.9722329494
 21
5.0459886826
  0
LINE
  5
41A
100
AcDbEntity
  8
03__ASM_ALL_CURVES
100
AcDbLine
 62
40
  6
CONTINUOUS
 10
3.5299329494
 20
5.0352136826
 11
3.7885329494
 21
5.0567636826
  0
LINE
  5
41B
100
AcDbEntity
  8
03__ASM_ALL_CURVES
100
AcDbLine
 62
40
  6
CONTINUOUS
 10
3.1015329494
 20
5.0567636826
 11
2.9722329494
 21
5.0459886826
  0
LINE
  5
41C
100
AcDbEntity
  8
03__ASM_ALL_CURVES
100
AcDbLine
 62
40
  6
CONTINUOUS
 10
3.1015329494
 20
5.0531720159
 11
2.9722329494
 21
5.0459886826
  0
LINE
  5
41D
100
AcDbEntity
  8
03__ASM_ALL_CURVES
100
AcDbLine
 62
40
  6
CONTINUOUS
 10
4.8350548248
 20
5.1968386826
 11
4.8215860748
 21
5.1968386826
  0
LINE
  5
41E
100
AcDbEntity
  8
03__ASM_ALL_CURVES
100
AcDbLine
 62
40
  6
CONTINUOUS
 10
3.7736704494
 20
5.1968386826
 11
3.7197954494
 21
5.1968386826
  0
LINE
  5
41F
100
AcDbEntity
  8
03__ASM_ALL_CURVES
100
AcDbLine
 62
40
  6
CONTINUOUS
 10
3.4504204494
 20
5.1968386826
 11
3.3965454494
 21
5.1968386826
  0
LINE
  5
420
100
AcDbEntity
  8
03__ASM_ALL_CURVES
100
AcDbLine
 62
40
  6
CONTINUOUS
 10
3.0934985744
 20
5.1968386826
 11
3.1069673244
 21
5.1968386826
  0
LINE
  5
421
100
AcDbEntity
  8
03__ASM_ALL_CURVES
100
AcDbLine
 62
40
  6
CONTINUOUS
 10
3.6322485744
 20
5.1968386826
 11
3.6457173244
 21
5.1968386826
  0
LINE
  5
422
100
AcDbEntity
  8
03__ASM_ALL_CURVES
100
AcDbLine
 62
40
  6
CONTINUOUS
 10
3.9595860748
 20
5.1968386826
 11
3.9730548248
 21
5.1968386826
  0
LINE
  5
423
100
AcDbEntity
  8
03__ASM_ALL_CURVES
100
AcDbLine
 62
40
  6
CONTINUOUS
 10
4.0673360748
 20
5.1968386826
 11
4.0808048248
 21
5.1968386826
  0
LINE
  5
424
100
AcDbEntity
  8
03__ASM_ALL_CURVES
100
AcDbLine
 62
40
  6
CONTINUOUS
 10
4.2558985748
 20
5.1968386826
 11
4.3232423248
 21
5.1968386826
  0
LINE
  5
425
100
AcDbEntity
  8
03__ASM_ALL_CURVES
100
AcDbLine
 62
40
  6
CONTINUOUS
 10
4.6060860748
 20
5.1968386826
 11
4.6195548248
 21
5.1968386826
  0
LINE
  5
426
100
AcDbEntity
  8
03__ASM_ALL_CURVES
100
AcDbLine
 62
40
  6
CONTINUOUS
 10
5.0370860748
 20
5.1968386826
 11
5.0505548248
 21
5.1968386826
  0
LINE
  5
427
100
AcDbEntity
  8
03__ASM_ALL_CURVES
100
AcDbLine
 62
40
  6
CONTINUOUS
 10
5.3401329498
 20
5.1968386826
 11
5.3670704498
 21
5.1968386826
  0
LINE
  5
428
100
AcDbEntity
  8
03__ASM_ALL_CURVES
100
AcDbLine
 62
40
  6
CONTINUOUS
 10
5.4478829498
 20
5.1968386826
 11
5.5017579498
 21
5.1968386826
  0
LINE
  5
429
100
AcDbEntity
  8
03__ASM_ALL_CURVES
100
AcDbLine
 62
40
  6
CONTINUOUS
 10
5.5556329498
 20
5.1968386826
 11
5.5893048248
 21
5.1968386826
  0
LINE
  5
42A
100
AcDbEntity
  8
0
100
AcDbLine
 62
7
  6
CONTINUOUS
 10
6.9065235335
 20
3.7728086826
 11
6.9065235335
 21
4.5818086826
  0
LINE
  5
42B
100
AcDbEntity
  8
03__ASM_ALL_CURVES
100
AcDbLine
 62
40
  6
CONTINUOUS
 10
6.9290610585
 20
3.444839931
 11
6.9290610585
 21
3.4313711842
  0
LINE
  5
42C
100
AcDbEntity
  8
0
100
AcDbLine
 62
7
  6
CONTINUOUS
 10
6.9842329494
 20
3.752809328
 11
6.9842329494
 21
4.6018080372
  0
LINE
  5
42D
100
AcDbEntity
  8
0
100
AcDbLine
 62
7
  6
CONTINUOUS
 10
7.0342329494
 20
3.752809328
 11
7.0342329494
 21
4.6018080372
  0
LINE
  5
42E
100
AcDbEntity
  8
03__ASM_ALL_CURVES
100
AcDbLine
 62
40
  6
CONTINUOUS
 10
6.8937055897
 20
3.3976993076
 11
6.8886548085
 21
3.3774961826
  0
LINE
  5
42F
100
AcDbEntity
  8
03__ASM_ALL_CURVES
100
AcDbLine
 62
40
  6
CONTINUOUS
 10
6.6058110585
 20
3.4313711842
 11
6.6007602772
 21
3.424636806
  0
LINE
  5
430
100
AcDbEntity
  8
03__ASM_ALL_CURVES
100
AcDbLine
 62
40
  6
CONTINUOUS
 10
6.6411665272
 20
3.4381055576
 11
6.6512680897
 21
3.4515743092
  0
LINE
  5
431
100
AcDbEntity
  8
03__ASM_ALL_CURVES
100
AcDbLine
 62
40
  6
CONTINUOUS
 10
6.6916743397
 20
3.3976993076
 11
6.6815727772
 21
3.3842305578
  0
LINE
  5
432
100
AcDbEntity
  8
03__ASM_ALL_CURVES
100
AcDbLine
 62
40
  6
CONTINUOUS
 10
6.7674360585
 20
3.4313711842
 11
6.7623852772
 21
3.424636806
  0
LINE
  5
433
100
AcDbEntity
  8
03__ASM_ALL_CURVES
100
AcDbLine
 62
40
  6
CONTINUOUS
 10
6.6007602772
 20
3.424636806
 11
6.5906587147
 21
3.4179024326
  0
LINE
  5
434
100
AcDbEntity
  8
03__ASM_ALL_CURVES
100
AcDbLine
 62
40
  6
CONTINUOUS
 10
6.6512680897
 20
3.4515743092
 11
6.6613696522
 21
3.4583086826
  0
LINE
  5
435
100
AcDbEntity
  8
03__ASM_ALL_CURVES
100
AcDbLine
 62
40
  6
CONTINUOUS
 10
6.6815727772
 20
3.3842305578
 11
6.6714712147
 21
3.3774961826
  0
LINE
  5
436
100
AcDbEntity
  8
03__ASM_ALL_CURVES
100
AcDbLine
 62
40
  6
CONTINUOUS
 10
6.7623852772
 20
3.424636806
 11
6.7522837147
 21
3.4179024326
  0
LINE
  5
437
100
AcDbEntity
  8
03__ASM_ALL_CURVES
100
AcDbLine
 62
40
  6
CONTINUOUS
 10
6.8937055897
 20
3.4515743092
 11
6.9038071522
 21
3.4583086826
  0
LINE
  5
438
100
AcDbEntity
  8
03__ASM_ALL_CURVES
100
AcDbLine
 62
40
  6
CONTINUOUS
 10
3.5299329494
 20
5.0244386826
 11
3.7885329494
 21
5.0675386826
  0
LINE
  5
439
100
AcDbEntity
  8
03__ASM_ALL_CURVES
100
AcDbLine
 62
40
  6
CONTINUOUS
 10
2.9722329494
 20
5.0459886826
 11
3.1015329494
 21
5.0675386826
  0
LINE
  5
43A
100
AcDbEntity
  8
03__ASM_ALL_CURVES
100
AcDbLine
 62
40
  6
CONTINUOUS
 10
3.1015329494
 20
5.0639470159
 11
2.9722329494
 21
5.0459886826
  0
LINE
  5
43B
100
AcDbEntity
  8
0
100
AcDbLine
 62
7
  6
CONTINUOUS
 10
7.2822329494
 20
4.5698086826
 11
7.2702329494
 21
4.5818086826
  0
LINE
  5
43C
100
AcDbEntity
  8
0
100
AcDbLine
 62
7
  6
CONTINUOUS
 10
7.1042329494
 20
3.752809328
 11
7.1042329494
 21
4.6018080372
  0
LINE
  5
43D
100
AcDbEntity
  8
0
100
AcDbLine
 62
7
  6
CONTINUOUS
 10
7.1542329494
 20
3.752809328
 11
7.1542329494
 21
4.6018080372
  0
LINE
  5
43E
100
AcDbEntity
  8
0
100
AcDbLine
 62
7
  6
CONTINUOUS
 10
7.1822329494
 20
3.7728086826
 11
7.1822329494
 21
4.5818086826
  0
LINE
  5
43F
100
AcDbEntity
  8
0
100
AcDbLine
 62
7
  6
CONTINUOUS
 10
7.2702329494
 20
3.7728086826
 11
7.2702329494
 21
4.5818086826
  0
LINE
  5
440
100
AcDbEntity
  8
0
100
AcDbLine
 62
7
  6
CONTINUOUS
 10
7.2822329494
 20
3.7848086826
 11
7.2822329494
 21
4.5698086826
  0
LINE
  5
441
100
AcDbEntity
  8
0
100
AcDbLine
 62
7
  6
CONTINUOUS
 10
7.2832329494
 20
3.8961713153
 11
7.2832329494
 21
4.4584460499
  0
LINE
  5
442
100
AcDbEntity
  8
03__ASM_ALL_CURVES
100
AcDbLine
 62
40
  6
CONTINUOUS
 10
6.8886548085
 20
3.444839931
 11
6.8937055897
 21
3.4515743092
  0
LINE
  5
443
100
AcDbEntity
  8
03__ASM_ALL_CURVES
100
AcDbLine
 62
40
  6
CONTINUOUS
 10
6.9038071522
 20
3.4111680568
 11
6.8937055897
 21
3.3976993076
  0
LINE
  5
444
100
AcDbEntity
  8
03__ASM_ALL_CURVES
100
AcDbLine
 62
40
  6
CONTINUOUS
 10
6.9290610585
 20
3.4313711842
 11
6.9240102772
 21
3.424636806
  0
LINE
  5
445
100
AcDbEntity
  8
0
100
AcDbLine
 62
7
  6
CONTINUOUS
 10
7.2822329494
 20
3.7848086826
 11
7.2702329494
 21
3.7728086826
  0
LINE
  5
446
100
AcDbEntity
  8
03__ASM_ALL_CURVES
100
AcDbLine
 62
40
  6
CONTINUOUS
 10
6.9240102772
 20
3.424636806
 11
6.9038071522
 21
3.4111680568
  0
LINE
  5
447
100
AcDbEntity
  8
03__ASM_ALL_CURVES
100
AcDbLine
 62
40
  6
CONTINUOUS
 10
8.6051977935
 20
4.1988586826
 11
8.595096231
 21
4.2055930578
  0
LINE
  5
448
100
AcDbEntity
  8
03__ASM_ALL_CURVES
100
AcDbLine
 62
40
  6
CONTINUOUS
 10
8.534486856
 20
4.2796711826
 11
8.5445884185
 21
4.2729368092
  0
LINE
  5
449
100
AcDbEntity
  8
0
100
AcDbLine
 62
7
  6
CONTINUOUS
 10
7.3242329494
 20
3.8961713153
 11
7.3242329494
 21
4.4584460499
  0
LINE
  5
44A
100
AcDbEntity
  8
0
100
AcDbLine
 62
7
  6
CONTINUOUS
 10
7.3322329494
 20
3.9101586826
 11
7.3322329494
 21
4.4444586826
  0
LINE
  5
44B
100
AcDbEntity
  8
0
100
AcDbLine
 62
7
  6
CONTINUOUS
 10
7.3412329494
 20
3.9101586826
 11
7.3412329494
 21
4.4444586826
  0
LINE
  5
44C
100
AcDbEntity
  8
0
100
AcDbLine
 62
7
  6
CONTINUOUS
 10
7.3482329494
 20
3.8961713153
 11
7.3482329494
 21
4.4584460499
  0
LINE
  5
44D
100
AcDbEntity
  8
0
100
AcDbLine
 62
7
  6
CONTINUOUS
 10
7.4362329494
 20
3.8961713153
 11
7.4362329494
 21
4.4584460499
  0
LINE
  5
44E
100
AcDbEntity
  8
03__ASM_ALL_CURVES
100
AcDbLine
 62
40
  6
CONTINUOUS
 10
8.5445884185
 20
4.245999306
 11
8.534486856
 21
4.2392649326
  0
LINE
  5
44F
100
AcDbEntity
  8
03__ASM_ALL_CURVES
100
AcDbLine
 62
40
  6
CONTINUOUS
 10
8.595096231
 20
4.2729368092
 11
8.6051977935
 21
4.2796711826
  0
LINE
  5
450
100
AcDbEntity
  8
03__ASM_ALL_CURVES
100
AcDbLine
 62
40
  6
CONTINUOUS
 10
8.6254009185
 20
4.2055930578
 11
8.615299356
 21
4.1988586826
  0
LINE
  5
451
100
AcDbEntity
  8
03__ASM_ALL_CURVES
100
AcDbLine
 62
40
  6
CONTINUOUS
 10
8.7062134185
 20
4.245999306
 11
8.696111856
 21
4.2392649326
  0
LINE
  5
452
100
AcDbEntity
  8
03__ASM_ALL_CURVES
100
AcDbLine
 62
40
  6
CONTINUOUS
 10
8.615299356
 20
4.2796711826
 11
8.6254009185
 21
4.2729368092
  0
LINE
  5
453
100
AcDbEntity
  8
03__ASM_ALL_CURVES
100
AcDbLine
 62
40
  6
CONTINUOUS
 10
8.696111856
 20
4.2796711826
 11
8.7062134185
 21
4.2729368092
  0
LINE
  5
454
100
AcDbEntity
  8
0
100
AcDbLine
 62
7
  6
CONTINUOUS
 10
7.8762329494
 20
4.4433086826
 11
7.8662329494
 21
4.4533086826
  0
LINE
  5
455
100
AcDbEntity
  8
0
100
AcDbLine
 62
7
  6
CONTINUOUS
 10
7.8762329494
 20
3.9113086826
 11
7.8662329494
 21
3.9013086826
  0
LINE
  5
456
100
AcDbEntity
  8
0
100
AcDbLine
 62
7
  6
CONTINUOUS
 10
7.8662329494
 20
3.9013086826
 11
7.8662329494
 21
4.4533086826
  0
LINE
  5
457
100
AcDbEntity
  8
0
100
AcDbLine
 62
7
  6
CONTINUOUS
 10
7.8762329494
 20
3.9113086826
 11
7.8762329494
 21
4.4433086826
  0
LINE
  5
458
100
AcDbEntity
  8
03__ASM_ALL_CURVES
100
AcDbLine
 62
40
  6
CONTINUOUS
 10
8.5496391997
 20
4.2527336842
 11
8.5445884185
 21
4.245999306
  0
LINE
  5
459
100
AcDbEntity
  8
03__ASM_ALL_CURVES
100
AcDbLine
 62
40
  6
CONTINUOUS
 10
8.5849946685
 20
4.2594680576
 11
8.595096231
 21
4.2729368092
  0
LINE
  5
45A
100
AcDbEntity
  8
03__ASM_ALL_CURVES
100
AcDbLine
 62
40
  6
CONTINUOUS
 10
8.635502481
 20
4.2190618076
 11
8.6254009185
 21
4.2055930578
  0
LINE
  5
45B
100
AcDbEntity
  8
03__ASM_ALL_CURVES
100
AcDbLine
 62
40
  6
CONTINUOUS
 10
8.7112641997
 20
4.2527336842
 11
8.7062134185
 21
4.245999306
  0
LINE
  5
45C
100
AcDbEntity
  8
03__ASM_ALL_CURVES
100
AcDbLine
 62
40
  6
CONTINUOUS
 10
8.595096231
 20
4.2055930578
 11
8.5849946685
 21
4.2190618076
  0
LINE
  5
45D
100
AcDbEntity
  8
03__ASM_ALL_CURVES
100
AcDbLine
 62
40
  6
CONTINUOUS
 10
8.5445884185
 20
4.2729368092
 11
8.5496391997
 21
4.266202431
  0
LINE
  5
45E
100
AcDbEntity
  8
03__ASM_ALL_CURVES
100
AcDbLine
 62
40
  6
CONTINUOUS
 10
8.6254009185
 20
4.2729368092
 11
8.635502481
 21
4.2594680576
  0
LINE
  5
45F
100
AcDbEntity
  8
03__ASM_ALL_CURVES
100
AcDbLine
 62
40
  6
CONTINUOUS
 10
8.7062134185
 20
4.2729368092
 11
8.7112641997
 21
4.266202431
  0
LINE
  5
460
100
AcDbEntity
  8
03__ASM_ALL_CURVES
100
AcDbLine
 62
40
  6
CONTINUOUS
 10
8.5092329497
 20
4.1988586826
 11
8.5092329497
 21
4.2796711826
  0
LINE
  5
461
100
AcDbEntity
  8
03__ASM_ALL_CURVES
100
AcDbLine
 62
40
  6
CONTINUOUS
 10
8.5496391997
 20
4.266202431
 11
8.5496391997
 21
4.2527336842
  0
LINE
  5
462
100
AcDbEntity
  8
03__ASM_ALL_CURVES
100
AcDbLine
 62
40
  6
CONTINUOUS
 10
8.5799438872
 20
4.2392649326
 11
8.5849946685
 21
4.2594680576
  0
LINE
  5
463
100
AcDbEntity
  8
03__ASM_ALL_CURVES
100
AcDbLine
 62
40
  6
CONTINUOUS
 10
8.6405532622
 20
4.2392649326
 11
8.635502481
 21
4.2190618076
  0
LINE
  5
464
100
AcDbEntity
  8
03__ASM_ALL_CURVES
100
AcDbLine
 62
40
  6
CONTINUOUS
 10
8.696111856
 20
4.2392649326
 11
8.7112641997
 21
4.1988586826
  0
LINE
  5
465
100
AcDbEntity
  8
03__ASM_ALL_CURVES
100
AcDbLine
 62
40
  6
CONTINUOUS
 10
8.5849946685
 20
4.2190618076
 11
8.5799438872
 21
4.2392649326
  0
LINE
  5
466
100
AcDbEntity
  8
03__ASM_ALL_CURVES
100
AcDbLine
 62
40
  6
CONTINUOUS
 10
8.635502481
 20
4.2594680576
 11
8.6405532622
 21
4.2392649326
  0
LINE
  5
467
100
AcDbEntity
  8
03__ASM_ALL_CURVES
100
AcDbLine
 62
40
  6
CONTINUOUS
 10
8.6708579497
 20
4.1988586826
 11
8.6708579497
 21
4.2796711826
  0
LINE
  5
468
100
AcDbEntity
  8
03__ASM_ALL_CURVES
100
AcDbLine
 62
40
  6
CONTINUOUS
 10
8.7112641997
 20
4.266202431
 11
8.7112641997
 21
4.2527336842
  0
LINE
  5
469
100
AcDbEntity
  8
03__ASM_ALL_CURVES
100
AcDbLine
 62
40
  6
CONTINUOUS
 10
8.7718735747
 20
4.2796711826
 11
8.7718735747
 21
4.1988586826
  0
LINE
  5
46A
100
AcDbEntity
  8
03__ASM_ALL_CURVES
100
AcDbLine
 62
40
  6
CONTINUOUS
 10
8.8526860747
 20
4.2796711826
 11
8.8526860747
 21
4.1988586826
  0
ARC
  5
46B
100
AcDbEntity
  8
0
100
AcDbCircle
 62
7
  6
CONTINUOUS
 10
4.9762329494
 20
3.7483086826
 40
0.04
100
AcDbArc
 50
0.0000283515
 51
90.0
  0
ARC
  5
46C
100
AcDbEntity
  8
0
100
AcDbCircle
 62
7
  6
CONTINUOUS
 10
4.9762329494
 20
4.6063086826
 40
0.04
100
AcDbArc
 50
270.0
 51
359.9999716485
  0
ARC
  5
46D
100
AcDbEntity
  8
0
100
AcDbCircle
 62
7
  6
CONTINUOUS
 10
6.8672329494
 20
4.5893086826
 40
0.04
100
AcDbArc
 50
270.0
 51
349.1930771251
  0
ARC
  5
46E
100
AcDbEntity
  8
0
100
AcDbCircle
 62
7
  6
CONTINUOUS
 10
6.8672329494
 20
3.7653086826
 40
0.04
100
AcDbArc
 50
10.8069228749
 51
90.0
  0
ARC
  5
46F
100
AcDbEntity
  8
0
100
AcDbCircle
 62
7
  6
CONTINUOUS
 10
6.3442329494
 20
4.5893086826
 40
0.04
100
AcDbArc
 50
180.0000012527
 51
270.0
  0
ARC
  5
470
100
AcDbEntity
  8
0
100
AcDbCircle
 62
7
  6
CONTINUOUS
 10
6.3442329494
 20
3.7653086826
 40
0.04
100
AcDbArc
 50
90.0
 51
179.9999987473
  0
ARC
  5
471
100
AcDbEntity
  8
0
100
AcDbCircle
 62
7
  6
CONTINUOUS
 10
5.9162329494
 20
4.5918086826
 40
0.04
100
AcDbArc
 50
270.0
 51
359.9999725524
  0
ARC
  5
472
100
AcDbEntity
  8
0
100
AcDbCircle
 62
7
  6
CONTINUOUS
 10
5.9162329494
 20
3.7628086826
 40
0.04
100
AcDbArc
 50
0.0000274476
 51
90.0
  0
ARC
  5
473
100
AcDbEntity
  8
0
100
AcDbCircle
 62
7
  6
CONTINUOUS
 10
5.4042329494
 20
4.5918086826
 40
0.04
100
AcDbArc
 50
180.0000027732
 51
270.0
  0
ARC
  5
474
100
AcDbEntity
  8
0
100
AcDbCircle
 62
7
  6
CONTINUOUS
 10
5.4042329494
 20
3.7628086826
 40
0.04
100
AcDbArc
 50
90.0
 51
179.9999972268
  0
ARC
  5
475
100
AcDbEntity
  8
THREAD
100
AcDbCircle
 62
7
  6
CONTINUOUS
 10
3.8400160711
 20
3.7068086826
 40
0.0125
100
AcDbArc
 50
29.9999999999
 51
90.0
  0
ARC
  5
476
100
AcDbEntity
  8
THREAD
100
AcDbCircle
 62
7
  6
CONTINUOUS
 10
3.8400160711
 20
4.6478086826
 40
0.0125
100
AcDbArc
 50
270.0
 51
330.0000000037
  0
ARC
  5
477
100
AcDbEntity
  8
0
100
AcDbCircle
 62
7
  6
CONTINUOUS
 10
7.3322329494
 20
3.9021586826
 40
0.008
100
AcDbArc
 50
90.0
 51
180.0
  0
ARC
  5
478
100
AcDbEntity
  8
0
100
AcDbCircle
 62
7
  6
CONTINUOUS
 10
7.3322329494
 20
4.4524586826
 40
0.008
100
AcDbArc
 50
180.0
 51
270.0
  0
ARC
  5
479
100
AcDbEntity
  8
0
100
AcDbCircle
 62
7
  6
CONTINUOUS
 10
7.3412329494
 20
3.9031586826
 40
0.007
100
AcDbArc
 50
0.0
 51
90.0
  0
ARC
  5
47A
100
AcDbEntity
  8
0
100
AcDbCircle
 62
7
  6
CONTINUOUS
 10
7.3412329494
 20
4.4514586826
 40
0.007
100
AcDbArc
 50
270.0
 51
360.0
  0
ARC
  5
47B
100
AcDbEntity
  8
0
100
AcDbCircle
 62
7
  6
CONTINUOUS
 10
3.6642329494
 20
3.6469219312
 40
0.005
100
AcDbArc
 50
120.0000000091
 51
179.9999999998
  0
ARC
  5
47C
100
AcDbEntity
  8
0
100
AcDbCircle
 62
7
  6
CONTINUOUS
 10
3.6642329494
 20
4.7076954339
 40
0.005
100
AcDbArc
 50
180.0000000002
 51
239.9999999883
  0
ARC
  5
47D
100
AcDbEntity
  8
0
100
AcDbCircle
 62
7
  6
CONTINUOUS
 10
3.6830893559
 20
3.6578086826
 40
0.005
100
AcDbArc
 50
90.0
 51
120.0000000137
  0
ARC
  5
47E
100
AcDbEntity
  8
0
100
AcDbCircle
 62
7
  6
CONTINUOUS
 10
3.6830893559
 20
4.6968086826
 40
0.005
100
AcDbArc
 50
239.9999999853
 51
270.0
  0
ARC
  5
47F
100
AcDbEntity
  8
0
100
AcDbCircle
 62
7
  6
CONTINUOUS
 10
3.6562329494
 20
3.6423086826
 40
0.003
100
AcDbArc
 50
270.0
 51
360.0
  0
ARC
  5
480
100
AcDbEntity
  8
0
100
AcDbCircle
 62
7
  6
CONTINUOUS
 10
3.6562329494
 20
4.7123086826
 40
0.003
100
AcDbArc
 50
0.0
 51
90.0
  0
SPLINE
  5
481
100
AcDbEntity
  8
0
100
AcDbSpline
 62
7
  6
CONTINUOUS
 70
0
 71
3
 72
15
 73
11
 74
9
 42
0.0000001
 43
0.0000001
 44
0.0000000001
 12
0.0
 22
0.1099409465
 32
0.0
 13
0.0
 23
-0.1099409465
 33
0.0
 40
0.0
 40
0.0
 40
0.0
 40
0.0
 40
0.125
 40
0.25
 40
0.375
 40
0.5
 40
0.625
 40
0.75
 40
0.875
 40
1.0
 40
1.0
 40
1.0
 40
1.0
 10
7.1042329494
 20
4.5828086826
 30
0.0
 10
7.1042329494
 20
4.5873895554
 30
0.0
 10
7.1024105649
 20
4.5965513009
 30
0.0
 10
7.094625997
 20
4.6082017302
 30
0.0
 10
7.0829755677
 20
4.6159862981
 30
0.0
 10
7.0692329494
 20
4.6187198748
 30
0.0
 10
7.0554903311
 20
4.6159862981
 30
0.0
 10
7.0438399019
 20
4.6082017302
 30
0.0
 10
7.0360553339
 20
4.5965513009
 30
0.0
 10
7.0342329494
 20
4.5873895554
 30
0.0
 10
7.0342329494
 20
4.5828086826
 30
0.0
 11
7.1042329494
 21
4.5828086826
 31
0.0
 11
7.1015687331
 21
4.5962026027
 31
0.0
 11
7.0939816868
 21
4.6075574199
 31
0.0
 11
7.0826268696
 21
4.6151444662
 31
0.0
 11
7.0692329494
 21
4.6178086826
 31
0.0
 11
7.0558390293
 21
4.6151444662
 31
0.0
 11
7.0444842121
 21
4.6075574199
 31
0.0
 11
7.0368971658
 21
4.5962026027
 31
0.0
 11
7.0342329494
 21
4.5828086826
 31
0.0
  0
SPLINE
  5
482
100
AcDbEntity
  8
0
100
AcDbSpline
 62
7
  6
CONTINUOUS
 70
0
 71
3
 72
15
 73
11
 74
9
 42
0.0000001
 43
0.0000001
 44
0.0000000001
 12
0.0
 22
-0.1099409465
 32
0.0
 13
0.0
 23
0.1099409465
 33
0.0
 40
0.0
 40
0.0
 40
0.0
 40
0.0
 40
0.125
 40
0.25
 40
0.375
 40
0.5
 40
0.625
 40
0.75
 40
0.875
 40
1.0
 40
1.0
 40
1.0
 40
1.0
 10
7.1042329494
 20
3.7718086826
 30
0.0
 10
7.1042329494
 20
3.7672278098
 30
0.0
 10
7.1024105649
 20
3.7580660643
 30
0.0
 10
7.094625997
 20
3.746415635
 30
0.0
 10
7.0829755677
 20
3.7386310671
 30
0.0
 10
7.0692329494
 20
3.7358974903
 30
0.0
 10
7.0554903311
 20
3.7386310671
 30
0.0
 10
7.0438399019
 20
3.746415635
 30
0.0
 10
7.0360553339
 20
3.7580660643
 30
0.0
 10
7.0342329494
 20
3.7672278098
 30
0.0
 10
7.0342329494
 20
3.7718086826
 30
0.0
 11
7.1042329494
 21
3.7718086826
 31
0.0
 11
7.1015687331
 21
3.7584147625
 31
0.0
 11
7.0939816868
 21
3.7470599453
 31
0.0
 11
7.0826268696
 21
3.739472899
 31
0.0
 11
7.0692329494
 21
3.7368086826
 31
0.0
 11
7.0558390293
 21
3.739472899
 31
0.0
 11
7.0444842121
 21
3.7470599453
 31
0.0
 11
7.0368971658
 21
3.7584147625
 31
0.0
 11
7.0342329494
 21
3.7718086826
 31
0.0
  0
SPLINE
  5
483
100
AcDbEntity
  8
0
100
AcDbSpline
 62
7
  6
CONTINUOUS
 70
0
 71
3
 72
15
 73
11
 74
9
 42
0.0000001
 43
0.0000001
 44
0.0000000001
 12
0.0
 22
0.1099409465
 32
0.0
 13
0.0
 23
-0.1099409465
 33
0.0
 40
0.0
 40
0.0
 40
0.0
 40
0.0
 40
0.125
 40
0.25
 40
0.375
 40
0.5
 40
0.625
 40
0.75
 40
0.875
 40
1.0
 40
1.0
 40
1.0
 40
1.0
 10
6.1512329494
 20
4.5828086826
 30
0.0
 10
6.1512329494
 20
4.5873895554
 30
0.0
 10
6.1494105649
 20
4.5965513009
 30
0.0
 10
6.141625997
 20
4.6082017302
 30
0.0
 10
6.1299755677
 20
4.6159862981
 30
0.0
 10
6.1162329494
 20
4.6187198748
 30
0.0
 10
6.1024903311
 20
4.6159862981
 30
0.0
 10
6.0908399019
 20
4.6082017302
 30
0.0
 10
6.0830553339
 20
4.5965513009
 30
0.0
 10
6.0812329494
 20
4.5873895554
 30
0.0
 10
6.0812329494
 20
4.5828086826
 30
0.0
 11
6.1512329494
 21
4.5828086826
 31
0.0
 11
6.1485687331
 21
4.5962026027
 31
0.0
 11
6.1409816868
 21
4.6075574199
 31
0.0
 11
6.1296268696
 21
4.6151444662
 31
0.0
 11
6.1162329494
 21
4.6178086826
 31
0.0
 11
6.1028390293
 21
4.6151444662
 31
0.0
 11
6.0914842121
 21
4.6075574199
 31
0.0
 11
6.0838971658
 21
4.5962026027
 31
0.0
 11
6.0812329494
 21
4.5828086826
 31
0.0
  0
SPLINE
  5
484
100
AcDbEntity
  8
0
100
AcDbSpline
 62
7
  6
CONTINUOUS
 70
0
 71
3
 72
15
 73
11
 74
9
 42
0.0000001
 43
0.0000001
 44
0.0000000001
 12
0.0
 22
-0.1099409465
 32
0.0
 13
0.0
 23
0.1099409465
 33
0.0
 40
0.0
 40
0.0
 40
0.0
 40
0.0
 40
0.125
 40
0.25
 40
0.375
 40
0.5
 40
0.625
 40
0.75
 40
0.875
 40
1.0
 40
1.0
 40
1.0
 40
1.0
 10
6.1512329494
 20
3.7718086826
 30
0.0
 10
6.1512329494
 20
3.7672278098
 30
0.0
 10
6.1494105649
 20
3.7580660643
 30
0.0
 10
6.141625997
 20
3.746415635
 30
0.0
 10
6.1299755677
 20
3.7386310671
 30
0.0
 10
6.1162329494
 20
3.7358974903
 30
0.0
 10
6.1024903311
 20
3.7386310671
 30
0.0
 10
6.0908399019
 20
3.746415635
 30
0.0
 10
6.0830553339
 20
3.7580660643
 30
0.0
 10
6.0812329494
 20
3.7672278098
 30
0.0
 10
6.0812329494
 20
3.7718086826
 30
0.0
 11
6.1512329494
 21
3.7718086826
 31
0.0
 11
6.1485687331
 21
3.7584147625
 31
0.0
 11
6.1409816868
 21
3.7470599453
 31
0.0
 11
6.1296268696
 21
3.739472899
 31
0.0
 11
6.1162329494
 21
3.7368086826
 31
0.0
 11
6.1028390293
 21
3.739472899
 31
0.0
 11
6.0914842121
 21
3.7470599453
 31
0.0
 11
6.0838971658
 21
3.7584147625
 31
0.0
 11
6.0812329494
 21
3.7718086826
 31
0.0
  0
SPLINE
  5
485
100
AcDbEntity
  8
0
100
AcDbSpline
 62
7
  6
CONTINUOUS
 70
0
 71
3
 72
15
 73
11
 74
9
 42
0.0000001
 43
0.0000001
 44
0.0000000001
 12
0.0
 22
0.1099409465
 32
0.0
 13
0.0
 23
-0.1099409465
 33
0.0
 40
0.0
 40
0.0
 40
0.0
 40
0.0
 40
0.125
 40
0.25
 40
0.375
 40
0.5
 40
0.625
 40
0.75
 40
0.875
 40
1.0
 40
1.0
 40
1.0
 40
1.0
 10
5.2112329494
 20
4.6058086826
 30
0.0
 10
5.2112329494
 20
4.6103895554
 30
0.0
 10
5.2094105649
 20
4.6195513009
 30
0.0
 10
5.201625997
 20
4.6312017302
 30
0.0
 10
5.1899755677
 20
4.6389862981
 30
0.0
 10
5.1762329494
 20
4.6417198748
 30
0.0
 10
5.1624903311
 20
4.6389862981
 30
0.0
 10
5.1508399019
 20
4.6312017302
 30
0.0
 10
5.1430553339
 20
4.6195513009
 30
0.0
 10
5.1412329494
 20
4.6103895554
 30
0.0
 10
5.1412329494
 20
4.6058086826
 30
0.0
 11
5.2112329494
 21
4.6058086826
 31
0.0
 11
5.2085687331
 21
4.6192026027
 31
0.0
 11
5.2009816868
 21
4.6305574199
 31
0.0
 11
5.1896268696
 21
4.6381444662
 31
0.0
 11
5.1762329494
 21
4.6408086826
 31
0.0
 11
5.1628390293
 21
4.6381444662
 31
0.0
 11
5.1514842121
 21
4.6305574199
 31
0.0
 11
5.1438971658
 21
4.6192026027
 31
0.0
 11
5.1412329494
 21
4.6058086826
 31
0.0
  0
SPLINE
  5
486
100
AcDbEntity
  8
0
100
AcDbSpline
 62
7
  6
CONTINUOUS
 70
0
 71
3
 72
15
 73
11
 74
9
 42
0.0000001
 43
0.0000001
 44
0.0000000001
 12
0.0
 22
-0.1099409465
 32
0.0
 13
0.0
 23
0.1099409465
 33
0.0
 40
0.0
 40
0.0
 40
0.0
 40
0.0
 40
0.125
 40
0.25
 40
0.375
 40
0.5
 40
0.625
 40
0.75
 40
0.875
 40
1.0
 40
1.0
 40
1.0
 40
1.0
 10
5.2112329494
 20
3.7488086826
 30
0.0
 10
5.2112329494
 20
3.7442278098
 30
0.0
 10
5.2094105649
 20
3.7350660643
 30
0.0
 10
5.201625997
 20
3.723415635
 30
0.0
 10
5.1899755677
 20
3.7156310671
 30
0.0
 10
5.1762329494
 20
3.7128974903
 30
0.0
 10
5.1624903311
 20
3.7156310671
 30
0.0
 10
5.1508399019
 20
3.723415635
 30
0.0
 10
5.1430553339
 20
3.7350660643
 30
0.0
 10
5.1412329494
 20
3.7442278098
 30
0.0
 10
5.1412329494
 20
3.7488086826
 30
0.0
 11
5.2112329494
 21
3.7488086826
 31
0.0
 11
5.2085687331
 21
3.7354147625
 31
0.0
 11
5.2009816868
 21
3.7240599453
 31
0.0
 11
5.1896268696
 21
3.716472899
 31
0.0
 11
5.1762329494
 21
3.7138086826
 31
0.0
 11
5.1628390293
 21
3.716472899
 31
0.0
 11
5.1514842121
 21
3.7240599453
 31
0.0
 11
5.1438971658
 21
3.7354147625
 31
0.0
 11
5.1412329494
 21
3.7488086826
 31
0.0
  0
SPLINE
  5
487
100
AcDbEntity
  8
0
100
AcDbSpline
 62
7
  6
CONTINUOUS
 70
0
 71
3
 72
15
 73
11
 74
9
 42
0.0000001
 43
0.0000001
 44
0.0000000001
 12
0.0
 22
0.1099409465
 32
0.0
 13
0.0
 23
-0.1099409465
 33
0.0
 40
0.0
 40
0.0
 40
0.0
 40
0.0
 40
0.125
 40
0.25
 40
0.375
 40
0.5
 40
0.625
 40
0.75
 40
0.875
 40
1.0
 40
1.0
 40
1.0
 40
1.0
 10
3.7762329494
 20
4.6703086826
 30
0.0
 10
3.7762329494
 20
4.6748895554
 30
0.0
 10
3.7744105649
 20
4.6840513009
 30
0.0
 10
3.766625997
 20
4.6957017302
 30
0.0
 10
3.7549755677
 20
4.7034862981
 30
0.0
 10
3.7412329494
 20
4.7062198748
 30
0.0
 10
3.7274903311
 20
4.7034862981
 30
0.0
 10
3.7158399019
 20
4.6957017302
 30
0.0
 10
3.7080553339
 20
4.6840513009
 30
0.0
 10
3.7062329494
 20
4.6748895554
 30
0.0
 10
3.7062329494
 20
4.6703086826
 30
0.0
 11
3.7762329494
 21
4.6703086826
 31
0.0
 11
3.7735687331
 21
4.6837026027
 31
0.0
 11
3.7659816868
 21
4.6950574199
 31
0.0
 11
3.7546268696
 21
4.7026444662
 31
0.0
 11
3.7412329494
 21
4.7053086826
 31
0.0
 11
3.7278390293
 21
4.7026444662
 31
0.0
 11
3.7164842121
 21
4.6950574199
 31
0.0
 11
3.7088971658
 21
4.6837026027
 31
0.0
 11
3.7062329494
 21
4.6703086826
 31
0.0
  0
SPLINE
  5
488
100
AcDbEntity
  8
0
100
AcDbSpline
 62
7
  6
CONTINUOUS
 70
0
 71
3
 72
15
 73
11
 74
9
 42
0.0000001
 43
0.0000001
 44
0.0000000001
 12
0.0
 22
-0.1099409465
 32
0.0
 13
0.0
 23
0.1099409465
 33
0.0
 40
0.0
 40
0.0
 40
0.0
 40
0.0
 40
0.125
 40
0.25
 40
0.375
 40
0.5
 40
0.625
 40
0.75
 40
0.875
 40
1.0
 40
1.0
 40
1.0
 40
1.0
 10
3.7762329494
 20
3.6843086826
 30
0.0
 10
3.7762329494
 20
3.6797278098
 30
0.0
 10
3.7744105649
 20
3.6705660643
 30
0.0
 10
3.766625997
 20
3.658915635
 30
0.0
 10
3.7549755677
 20
3.6511310671
 30
0.0
 10
3.7412329494
 20
3.6483974903
 30
0.0
 10
3.7274903311
 20
3.6511310671
 30
0.0
 10
3.7158399019
 20
3.658915635
 30
0.0
 10
3.7080553339
 20
3.6705660643
 30
0.0
 10
3.7062329494
 20
3.6797278098
 30
0.0
 10
3.7062329494
 20
3.6843086826
 30
0.0
 11
3.7762329494
 21
3.6843086826
 31
0.0
 11
3.7735687331
 21
3.6709147625
 31
0.0
 11
3.7659816868
 21
3.6595599453
 31
0.0
 11
3.7546268696
 21
3.651972899
 31
0.0
 11
3.7412329494
 21
3.6493086826
 31
0.0
 11
3.7278390293
 21
3.651972899
 31
0.0
 11
3.7164842121
 21
3.6595599453
 31
0.0
 11
3.7088971658
 21
3.6709147625
 31
0.0
 11
3.7062329494
 21
3.6843086826
 31
0.0
  0
SPLINE
  5
489
100
AcDbEntity
  8
0
100
AcDbSpline
 62
7
  6
CONTINUOUS
 70
0
 71
3
 72
15
 73
11
 74
9
 42
0.0000001
 43
0.0000001
 44
0.0000000001
 12
-0.1524995809
 22
0.5724822844
 32
0.0
 13
0.1524995809
 23
0.5724822844
 33
0.0
 40
0.0
 40
0.0
 40
0.0
 40
0.0
 40
0.1303027146
 40
0.2554233163
 40
0.3781382012
 40
0.500042666
 40
0.6219428883
 40
0.7446469008
 40
0.8697222521
 40
1.0
 40
1.0
 40
1.0
 40
1.0
 10
3.0178436207
 20
3.8847880637
 30
0.0
 10
3.0112199176
 20
3.9096533956
 30
0.0
 10
2.9994481258
 20
3.9587325202
 30
0.0
 10
2.9863478877
 20
4.0322981402
 30
0.0
 10
2.9783538082
 20
4.10493623
 30
0.0
 10
2.9756554985
 20
4.1773331603
 30
0.0
 10
2.9783573917
 20
4.2497277978
 30
0.0
 10
2.9863532821
 20
4.3223536688
 30
0.0
 10
2.9994524003
 20
4.3959031668
 30
0.0
 10
3.0112211867
 20
4.444968734
 30
0.0
 10
3.0178436207
 20
4.4698293015
 30
0.0
 11
3.0178436207
 21
3.8847880637
 31
0.0
 11
2.9999699704
 21
3.9598877054
 31
0.0
 11
2.9870871899
 21
4.0328868356
 31
0.0
 11
2.9792140705
 21
4.1051612005
 31
0.0
 11
2.9765535504
 21
4.1773339741
 31
0.0
 11
2.9792175928
 21
4.2495041026
 31
0.0
 11
2.9870931059
 21
4.3217717273
 31
0.0
 11
2.999972986
 21
4.3947441466
 31
0.0
 11
3.0178436207
 21
4.4698293015
 31
0.0
  0
SPLINE
  5
48A
100
AcDbEntity
  8
0
100
AcDbSpline
 62
7
  6
CONTINUOUS
 70
0
 71
3
 72
15
 73
11
 74
9
 42
0.0000001
 43
0.0000001
 44
0.0000000001
 12
0.1524995809
 22
0.5724822844
 32
0.0
 13
-0.1524995809
 23
0.5724822844
 33
0.0
 40
0.0
 40
0.0
 40
0.0
 40
0.0
 40
0.1303027146
 40
0.2554233163
 40
0.3781382012
 40
0.500042666
 40
0.6219428883
 40
0.7446469008
 40
0.8697222521
 40
1.0
 40
1.0
 40
1.0
 40
1.0
 10
3.4158073236
 20
3.8847880637
 30
0.0
 10
3.4224310267
 20
3.9096533956
 30
0.0
 10
3.4342028185
 20
3.9587325202
 30
0.0
 10
3.4473030566
 20
4.0322981402
 30
0.0
 10
3.4552971361
 20
4.10493623
 30
0.0
 10
3.4579954458
 20
4.1773331603
 30
0.0
 10
3.4552935526
 20
4.2497277978
 30
0.0
 10
3.4472976621
 20
4.3223536688
 30
0.0
 10
3.434198544
 20
4.3959031668
 30
0.0
 10
3.4224297576
 20
4.444968734
 30
0.0
 10
3.4158073236
 20
4.4698293015
 30
0.0
 11
3.4158073236
 21
3.8847880637
 31
0.0
 11
3.4336809739
 21
3.9598877054
 31
0.0
 11
3.4465637544
 21
4.0328868356
 31
0.0
 11
3.4544368738
 21
4.1051612005
 31
0.0
 11
3.4570973939
 21
4.1773339741
 31
0.0
 11
3.4544333515
 21
4.2495041026
 31
0.0
 11
3.4465578384
 21
4.3217717273
 31
0.0
 11
3.4336779582
 21
4.3947441466
 31
0.0
 11
3.4158073236
 21
4.4698293015
 31
0.0
  0
SPLINE
  5
48B
100
AcDbEntity
  8
0
100
AcDbSpline
 62
7
  6
CONTINUOUS
 70
0
 71
3
 72
15
 73
11
 74
9
 42
0.0000001
 43
0.0000001
 44
0.0000000001
 12
-0.144303637
 22
0.2708573861
 32
0.0
 13
0.144303637
 23
0.2708573861
 33
0.0
 40
0.0
 40
0.0
 40
0.0
 40
0.0
 40
0.1355060615
 40
0.2616268072
 40
0.3821382325
 40
0.5000411188
 40
0.6179405518
 40
0.7384429083
 40
0.8645194725
 40
1.0
 40
1.0
 40
1.0
 40
1.0
 10
3.0178436207
 20
4.5181733731
 30
0.0
 10
3.0113256149
 20
4.5304076457
 30
0.0
 10
2.9996923499
 20
4.5545626265
 30
0.0
 10
2.9864843676
 20
4.5914450553
 30
0.0
 10
2.9783878976
 20
4.6279641918
 30
0.0
 10
2.9756455024
 20
4.6644460243
 30
0.0
 10
2.9783915322
 20
4.700926629
 30
0.0
 10
2.9864897617
 20
4.7374393751
 30
0.0
 10
2.9996965029
 20
4.7743135808
 30
0.0
 10
3.0113268431
 20
4.7984620249
 30
0.0
 10
3.0178436207
 20
4.8106939921
 30
0.0
 11
3.0178436207
 21
4.5181733731
 31
0.0
 11
2.9999699704
 21
4.555723194
 31
0.0
 11
2.9870871899
 21
4.5922227591
 31
0.0
 11
2.9792140705
 21
4.6283599416
 31
0.0
 11
2.9765535504
 21
4.6644463284
 31
0.0
 11
2.9792175928
 21
4.7005313926
 31
0.0
 11
2.9870931059
 21
4.7366652049
 31
0.0
 11
2.999972986
 21
4.7731514146
 31
0.0
 11
3.0178436207
 21
4.8106939921
 31
0.0
  0
SPLINE
  5
48C
100
AcDbEntity
  8
0
100
AcDbSpline
 62
7
  6
CONTINUOUS
 70
0
 71
3
 72
15
 73
11
 74
9
 42
0.0000001
 43
0.0000001
 44
0.0000000001
 12
0.144303637
 22
0.2708573861
 32
0.0
 13
-0.144303637
 23
0.2708573861
 33
0.0
 40
0.0
 40
0.0
 40
0.0
 40
0.0
 40
0.1355060615
 40
0.2616268072
 40
0.3821382325
 40
0.5000411188
 40
0.6179405518
 40
0.7384429083
 40
0.8645194725
 40
1.0
 40
1.0
 40
1.0
 40
1.0
 10
3.4158073236
 20
4.5181733731
 30
0.0
 10
3.4223253294
 20
4.5304076457
 30
0.0
 10
3.4339585944
 20
4.5545626265
 30
0.0
 10
3.4471665767
 20
4.5914450553
 30
0.0
 10
3.4552630466
 20
4.6279641918
 30
0.0
 10
3.4580054419
 20
4.6644460243
 30
0.0
 10
3.4552594121
 20
4.700926629
 30
0.0
 10
3.4471611826
 20
4.7374393751
 30
0.0
 10
3.4339544414
 20
4.7743135808
 30
0.0
 10
3.4223241012
 20
4.7984620249
 30
0.0
 10
3.4158073236
 20
4.8106939921
 30
0.0
 11
3.4158073236
 21
4.5181733731
 31
0.0
 11
3.4336809739
 21
4.555723194
 31
0.0
 11
3.4465637544
 21
4.5922227591
 31
0.0
 11
3.4544368738
 21
4.6283599416
 31
0.0
 11
3.4570973939
 21
4.6644463284
 31
0.0
 11
3.4544333515
 21
4.7005313926
 31
0.0
 11
3.4465578384
 21
4.7366652049
 31
0.0
 11
3.4336779582
 21
4.7731514146
 31
0.0
 11
3.4158073236
 21
4.8106939921
 31
0.0
  0
SPLINE
  5
48D
100
AcDbEntity
  8
0
100
AcDbSpline
 62
7
  6
CONTINUOUS
 70
0
 71
3
 72
15
 73
11
 74
9
 42
0.0000001
 43
0.0000001
 44
0.0000000001
 12
-0.144303637
 22
0.2708573861
 32
0.0
 13
0.144303637
 23
0.2708573861
 33
0.0
 40
0.0
 40
0.0
 40
0.0
 40
0.0
 40
0.1355060615
 40
0.2616268072
 40
0.3821382325
 40
0.5000411188
 40
0.6179405518
 40
0.7384429083
 40
0.8645194725
 40
1.0
 40
1.0
 40
1.0
 40
1.0
 10
3.0178436207
 20
3.5439233731
 30
0.0
 10
3.0113256149
 20
3.5561576457
 30
0.0
 10
2.9996923499
 20
3.5803126265
 30
0.0
 10
2.9864843676
 20
3.6171950553
 30
0.0
 10
2.9783878976
 20
3.6537141918
 30
0.0
 10
2.9756455024
 20
3.6901960243
 30
0.0
 10
2.9783915322
 20
3.726676629
 30
0.0
 10
2.9864897617
 20
3.7631893751
 30
0.0
 10
2.9996965029
 20
3.8000635808
 30
0.0
 10
3.0113268431
 20
3.8242120249
 30
0.0
 10
3.0178436207
 20
3.8364439921
 30
0.0
 11
3.0178436207
 21
3.5439233731
 31
0.0
 11
2.9999699704
 21
3.581473194
 31
0.0
 11
2.9870871899
 21
3.6179727591
 31
0.0
 11
2.9792140705
 21
3.6541099416
 31
0.0
 11
2.9765535504
 21
3.6901963284
 31
0.0
 11
2.9792175928
 21
3.7262813926
 31
0.0
 11
2.9870931059
 21
3.7624152049
 31
0.0
 11
2.999972986
 21
3.7989014146
 31
0.0
 11
3.0178436207
 21
3.8364439921
 31
0.0
  0
SPLINE
  5
48E
100
AcDbEntity
  8
0
100
AcDbSpline
 62
7
  6
CONTINUOUS
 70
0
 71
3
 72
15
 73
11
 74
9
 42
0.0000001
 43
0.0000001
 44
0.0000000001
 12
0.144303637
 22
0.2708573861
 32
0.0
 13
-0.144303637
 23
0.2708573861
 33
0.0
 40
0.0
 40
0.0
 40
0.0
 40
0.0
 40
0.1355060615
 40
0.2616268072
 40
0.3821382325
 40
0.5000411188
 40
0.6179405518
 40
0.7384429083
 40
0.8645194725
 40
1.0
 40
1.0
 40
1.0
 40
1.0
 10
3.4158073236
 20
3.5439233731
 30
0.0
 10
3.4223253294
 20
3.5561576457
 30
0.0
 10
3.4339585944
 20
3.5803126265
 30
0.0
 10
3.4471665767
 20
3.6171950553
 30
0.0
 10
3.4552630466
 20
3.6537141918
 30
0.0
 10
3.4580054419
 20
3.6901960243
 30
0.0
 10
3.4552594121
 20
3.726676629
 30
0.0
 10
3.4471611826
 20
3.7631893751
 30
0.0
 10
3.4339544414
 20
3.8000635808
 30
0.0
 10
3.4223241012
 20
3.8242120249
 30
0.0
 10
3.4158073236
 20
3.8364439921
 30
0.0
 11
3.4158073236
 21
3.5439233731
 31
0.0
 11
3.4336809739
 21
3.581473194
 31
0.0
 11
3.4465637544
 21
3.6179727591
 31
0.0
 11
3.4544368738
 21
3.6541099416
 31
0.0
 11
3.4570973939
 21
3.6901963284
 31
0.0
 11
3.4544333515
 21
3.7262813926
 31
0.0
 11
3.4465578384
 21
3.7624152049
 31
0.0
 11
3.4336779582
 21
3.7989014146
 31
0.0
 11
3.4158073236
 21
3.8364439921
 31
0.0
  0
SPLINE
  5
48F
100
AcDbEntity
  8
0
100
AcDbSpline
 62
7
  6
CONTINUOUS
 70
0
 71
3
 72
10
 73
6
 74
4
 42
0.0000001
 43
0.0000001
 44
0.0000000001
 12
-0.0194578494
 22
-0.0149381141
 32
0.0
 13
-0.0000054023
 23
-0.0245894231
 33
0.0
 40
0.0
 40
0.0
 40
0.0
 40
0.0
 40
0.4121782639
 40
0.8084175958
 40
1.0
 40
1.0
 40
1.0
 40
1.0
 10
4.5472267287
 20
4.0577408041
 30
0.0
 10
4.5445533611
 20
4.0556884154
 30
0.0
 10
4.5399564401
 20
4.0508015708
 30
0.0
 10
4.5367193062
 20
4.0431239755
 30
0.0
 10
4.5362369926
 20
4.0383039952
 30
0.0
 10
4.5362366476
 20
4.0367336949
 30
0.0
 11
4.5472267287
 21
4.0577408041
 31
0.0
 11
4.5403805086
 21
4.0503621165
 31
0.0
 11
4.536702278
 21
4.0414132413
 31
0.0
 11
4.5362366476
 21
4.0367336949
 31
0.0
  0
SPLINE
  5
490
100
AcDbEntity
  8
0
100
AcDbSpline
 62
7
  6
CONTINUOUS
 70
0
 71
3
 72
10
 73
6
 74
4
 42
0.0000001
 43
0.0000001
 44
0.0000000001
 12
-0.0321588338
 22
0.0
 32
0.0
 13
-0.0275188911
 23
-0.0167912069
 33
0.0
 40
0.0
 40
0.0
 40
0.0
 40
0.0
 40
0.4139286948
 40
0.8052729784
 40
1.0
 40
1.0
 40
1.0
 40
1.0
 10
4.5292329494
 20
3.9581902255
 30
0.0
 10
4.5247957947
 20
3.9581902255
 30
0.0
 10
4.5161382258
 20
3.9573441199
 30
0.0
 10
4.5058174375
 20
3.9541832937
 30
0.0
 10
4.500199143
 20
3.9512956094
 30
0.0
 10
4.4984129191
 20
3.9502057089
 30
0.0
 11
4.5292329494
 21
3.9581902255
 31
0.0
 11
4.5159869751
 21
3.9568714227
 31
0.0
 11
4.5039801091
 21
3.9531002402
 31
0.0
 11
4.4984129191
 21
3.9502057089
 31
0.0
  0
SPLINE
  5
491
100
AcDbEntity
  8
0
100
AcDbSpline
 62
7
  6
CONTINUOUS
 70
0
 71
3
 72
8
 73
4
 74
2
 42
0.0000001
 43
0.0000001
 44
0.0000000001
 12
0.0018787877
 22
0.0002110254
 32
0.0
 13
0.0018801664
 23
0.0001985209
 33
0.0
 40
0.0
 40
0.0
 40
0.0
 40
0.0
 40
1.0
 40
1.0
 40
1.0
 40
1.0
 10
7.7652329494
 20
3.9013086826
 30
0.0
 10
7.765859212
 20
3.9013790244
 30
0.0
 10
7.7664857111
 20
3.901447287
 30
0.0
 10
7.7671124332
 20
3.9015134606
 30
0.0
 11
7.7652329494
 21
3.9013086826
 31
0.0
 11
7.7671124332
 21
3.9015134606
 31
0.0
  0
SPLINE
  5
492
100
AcDbEntity
  8
0
100
AcDbSpline
 62
7
  6
CONTINUOUS
 70
0
 71
3
 72
14
 73
10
 74
8
 42
0.0000001
 43
0.0000001
 44
0.0000000001
 12
0.0580275661
 22
0.006126949
 32
0.0
 13
0.0580275045
 23
-0.0061275174
 33
0.0
 40
0.0
 40
0.0
 40
0.0
 40
0.0
 40
0.0961569401
 40
0.2396432468
 40
0.4106212407
 40
0.5928825881
 40
0.7641010201
 40
0.904876905
 40
1.0
 40
1.0
 40
1.0
 40
1.0
 10
7.7671124332
 20
3.9015134606
 30
0.0
 10
7.768972351
 20
3.9017098435
 30
0.0
 10
7.7736125519
 20
3.902153419
 30
0.0
 10
7.781580563
 20
3.90271494
 30
0.0
 10
7.7912372883
 20
3.903074224
 30
0.0
 10
7.8014405464
 20
3.903070365
 30
0.0
 10
7.8110489842
 20
3.9027053826
 30
0.0
 10
7.8189486677
 20
3.9021446332
 30
0.0
 10
7.8235163119
 20
3.9017074582
 30
0.0
 10
7.8253562305
 20
3.9015131687
 30
0.0
 11
7.7671124332
 21
3.9015134606
 31
0.0
 11
7.7726977291
 21
3.9020471586
 31
0.0
 11
7.7810494495
 21
3.9026351697
 31
0.0
 11
7.7910190989
 21
3.9030055943
 31
0.0
 11
7.8016540079
 21
3.9030015776
 31
0.0
 11
7.8116373856
 21
3.9026228682
 31
0.0
 11
7.819831048
 21
3.9020417753
 31
0.0
 11
7.8253562305
 21
3.9015131687
 31
0.0
  0
SPLINE
  5
493
100
AcDbEntity
  8
0
100
AcDbSpline
 62
7
  6
CONTINUOUS
 70
0
 71
3
 72
8
 73
4
 74
2
 42
0.0000001
 43
0.0000001
 44
0.0000000001
 12
0.0018773996
 22
-0.0001982473
 32
0.0
 13
0.0018760249
 23
-0.0002107151
 33
0.0
 40
0.0
 40
0.0
 40
0.0
 40
0.0
 40
1.0
 40
1.0
 40
1.0
 40
1.0
 10
7.8253562305
 20
3.9015131687
 30
0.0
 10
7.8259820303
 20
3.9014470862
 30
0.0
 10
7.8266076078
 20
3.9013789209
 30
0.0
 10
7.8272329494
 20
3.9013086826
 30
0.0
 11
7.8253562305
 21
3.9015131687
 31
0.0
 11
7.8272329494
 21
3.9013086826
 31
0.0
  0
SPLINE
  5
494
100
AcDbEntity
  8
0
100
AcDbSpline
 62
7
  6
CONTINUOUS
 70
0
 71
3
 72
10
 73
6
 74
4
 42
0.0000001
 43
0.0000001
 44
0.0000000001
 12
0.0264977581
 22
0.0
 32
0.0
 13
0.0241800226
 23
0.0110091749
 33
0.0
 40
0.0
 40
0.0
 40
0.0
 40
0.0
 40
0.5023619005
 40
0.9773143755
 40
1.0
 40
1.0
 40
1.0
 40
1.0
 10
4.5292329494
 20
4.3964271396
 30
0.0
 10
4.5336701041
 20
4.3964271396
 30
0.0
 10
4.542327673
 20
4.3972732453
 30
0.0
 10
4.5508316429
 20
4.3998776559
 30
0.0
 10
4.5548528542
 20
4.4016804373
 30
0.0
 10
4.5550357005
 20
4.4017636873
 30
0.0
 11
4.5292329494
 21
4.3964271396
 31
0.0
 11
4.5424789237
 21
4.3977459425
 31
0.0
 11
4.5544857898
 21
4.401517125
 31
0.0
 11
4.5550357005
 21
4.4017636873
 31
0.0
  0
SPLINE
  5
495
100
AcDbEntity
  8
0
100
AcDbSpline
 62
7
  6
CONTINUOUS
 70
0
 71
3
 72
12
 73
8
 74
6
 42
0.0000001
 43
0.0000001
 44
0.0000000001
 12
0.0457996092
 22
0.0
 32
0.0
 13
0.0000101329
 23
0.0461214038
 33
0.0
 40
0.0
 40
0.0
 40
0.0
 40
0.0
 40
0.2341028439
 40
0.4644636948
 40
0.6866054333
 40
0.897858686
 40
1.0
 40
1.0
 40
1.0
 40
1.0
 10
6.7452329494
 20
4.2901797559
 30
0.0
 10
6.748806889
 20
4.2901797559
 30
0.0
 10
6.7559505604
 20
4.2913260386
 30
0.0
 10
6.7653986724
 20
4.2962667957
 30
0.0
 10
6.7724949429
 20
4.3037813668
 30
0.0
 10
6.7757465927
 20
4.3114933897
 30
0.0
 10
6.7762289063
 20
4.31631337
 30
0.0
 10
6.7762292513
 20
4.3178836703
 30
0.0
 11
6.7452329494
 21
4.2901797559
 31
0.0
 11
6.7558169796
 21
4.2918931454
 31
0.0
 11
6.7651518012
 21
4.2968097322
 31
0.0
 11
6.7720853903
 21
4.3042552487
 31
0.0
 11
6.7757636208
 21
4.3132041239
 31
0.0
 11
6.7762292513
 21
4.3178836703
 31
0.0
  0
SPLINE
  5
496
100
AcDbEntity
  8
0
100
AcDbSpline
 62
7
  6
CONTINUOUS
 70
0
 71
3
 72
10
 73
6
 74
4
 42
0.0000001
 43
0.0000001
 44
0.0000000001
 12
0.0000052359
 22
-0.0239251267
 32
0.0
 13
0.0186205905
 23
-0.014939376
 33
0.0
 40
0.0
 40
0.0
 40
0.0
 40
0.0
 40
0.1969089288
 40
0.6041587474
 40
1.0
 40
1.0
 40
1.0
 40
1.0
 10
6.7142366476
 20
4.3178836923
 30
0.0
 10
6.7142369913
 20
4.3163133353
 30
0.0
 10
6.7147193309
 20
4.3114932283
 30
0.0
 10
6.7178690888
 20
4.3040230722
 30
0.0
 10
6.7222484207
 20
4.2992569718
 30
0.0
 10
6.7247053533
 20
4.2972857647
 30
0.0
 11
6.7142366476
 21
4.3178836923
 31
0.0
 11
6.7147023073
 21
4.3132039782
 31
0.0
 11
6.7183807026
 21
4.3042549481
 31
0.0
 11
6.7247053533
 21
4.2972857647
 31
0.0
  0
SPLINE
  5
497
100
AcDbEntity
  8
0
100
AcDbSpline
 62
7
  6
CONTINUOUS
 70
0
 71
3
 72
8
 73
4
 74
2
 42
0.0000001
 43
0.0000001
 44
0.0000000001
 12
0.0090362539
 22
-0.0025953564
 32
0.0
 13
0.0093476216
 23
0.0
 33
0.0
 40
0.0
 40
0.0
 40
0.0
 40
0.0
 40
1.0
 40
1.0
 40
1.0
 40
1.0
 10
6.7359688452
 20
4.2914840227
 30
0.0
 10
6.7389809298
 20
4.2906189039
 30
0.0
 10
6.7421170756
 20
4.2901797559
 30
0.0
 10
6.7452329494
 20
4.2901797559
 30
0.0
 11
6.7359688452
 21
4.2914840227
 31
0.0
 11
6.7452329494
 21
4.2901797559
 31
0.0
  0
SPLINE
  5
498
100
AcDbEntity
  8
0
100
AcDbSpline
 62
7
  6
CONTINUOUS
 70
0
 71
3
 72
10
 73
6
 74
4
 42
0.0000001
 43
0.0000001
 44
0.0000000001
 12
0.0273880726
 22
-0.0164669816
 32
0.0
 13
0.0318785035
 23
0.0
 33
0.0
 40
0.0
 40
0.0
 40
0.0
 40
0.0
 40
0.1876693528
 40
0.582450384
 40
1.0
 40
1.0
 40
1.0
 40
1.0
 10
4.4986532834
 20
4.40426607
 30
0.0
 10
4.500366584
 20
4.4032359541
 30
0.0
 10
4.5059078326
 20
4.4004063392
 30
0.0
 10
4.5161386824
 20
4.3972731828
 30
0.0
 10
4.5247959971
 20
4.3964271396
 30
0.0
 10
4.5292329494
 20
4.3964271396
 30
0.0
 11
4.4986532834
 21
4.40426607
 31
0.0
 11
4.5039808035
 21
4.4015168187
 31
0.0
 11
4.5159875732
 21
4.397745821
 31
0.0
 11
4.5292329494
 21
4.3964271396
 31
0.0
  0
SPLINE
  5
499
100
AcDbEntity
  8
0
100
AcDbSpline
 62
7
  6
CONTINUOUS
 70
0
 71
3
 72
10
 73
6
 74
4
 42
0.0000001
 43
0.0000001
 44
0.0000000001
 12
-0.0243816242
 22
0.0112653392
 32
0.0
 13
-0.0267850269
 23
0.0
 33
0.0
 40
0.0
 40
0.0
 40
0.0
 40
0.0
 40
0.0331954686
 40
0.5030485896
 40
1.0
 40
1.0
 40
1.0
 40
1.0
 10
4.5552975172
 20
3.9527335926
 30
0.0
 10
4.5550277308
 20
3.9528582453
 30
0.0
 10
4.5509234037
 20
3.9547116348
 30
0.0
 10
4.5423272165
 20
3.9573441824
 30
0.0
 10
4.5336699017
 20
3.9581902255
 30
0.0
 10
4.5292329494
 20
3.9581902255
 30
0.0
 11
4.5552975172
 21
3.9527335926
 31
0.0
 11
4.5544850954
 21
3.9531005465
 31
0.0
 11
4.5424783257
 21
3.9568715442
 31
0.0
 11
4.5292329494
 21
3.9581902255
 31
0.0
  0
SPLINE
  5
49A
100
AcDbEntity
  8
0
100
AcDbSpline
 62
7
  6
CONTINUOUS
 70
0
 71
3
 72
10
 73
6
 74
4
 42
0.0000001
 43
0.0000001
 44
0.0000000001
 12
0.0000053813
 22
-0.0245893714
 32
0.0
 13
0.019457789
 23
-0.0149381346
 33
0.0
 40
0.0
 40
0.0
 40
0.0
 40
0.0
 40
0.1915897318
 40
0.5878383123
 40
1.0
 40
1.0
 40
1.0
 40
1.0
 10
4.5362366476
 20
4.3178836923
 30
0.0
 10
4.5362369913
 20
4.3163133353
 30
0.0
 10
4.5367193309
 20
4.3114932283
 30
0.0
 10
4.539956537
 20
4.3038156747
 30
0.0
 10
4.5445534252
 20
4.29892891
 30
0.0
 10
4.5472266769
 20
4.2968766011
 30
0.0
 11
4.5362366476
 21
4.3178836923
 31
0.0
 11
4.5367023073
 21
4.3132039782
 31
0.0
 11
4.5403807026
 21
4.3042549481
 31
0.0
 11
4.5472266769
 21
4.2968766011
 31
0.0
  0
SPLINE
  5
49B
100
AcDbEntity
  8
0
100
AcDbSpline
 62
7
  6
CONTINUOUS
 70
0
 71
3
 72
8
 73
4
 74
2
 42
0.0000001
 43
0.0000001
 44
0.0000000001
 12
-0.0030040147
 22
0.0
 32
0.0
 13
-0.0030046773
 23
-0.0000684865
 33
0.0
 40
0.0
 40
0.0
 40
0.0
 40
0.0
 40
1.0
 40
1.0
 40
1.0
 40
1.0
 10
5.5542329494
 20
4.3172745636
 30
0.0
 10
5.5532316112
 20
4.3172745636
 30
0.0
 10
5.5522299961
 20
4.317263244
 30
0.0
 10
5.551228437
 20
4.3172404152
 30
0.0
 11
5.5542329494
 21
4.3172745636
 31
0.0
 11
5.551228437
 21
4.3172404152
 31
0.0
  0
SPLINE
  5
49C
100
AcDbEntity
  8
0
100
AcDbSpline
 62
7
  6
CONTINUOUS
 70
0
 71
3
 72
9
 73
5
 74
3
 42
0.0000001
 43
0.0000001
 44
0.0000000001
 12
-0.022164134
 22
-0.0005051938
 32
0.0
 13
-0.0217299851
 23
-0.0045173263
 33
0.0
 40
0.0
 40
0.0
 40
0.0
 40
0.0
 40
0.7567323093
 40
1.0
 40
1.0
 40
1.0
 40
1.0
 10
5.551228437
 20
4.3172404152
 30
0.0
 10
5.5456376649
 20
4.317112983
 30
0.0
 10
5.5382519248
 20
4.3164706752
 30
0.0
 10
5.5309703143
 20
4.3151444913
 30
0.0
 10
5.5292082466
 20
4.3147781848
 30
0.0
 11
5.551228437
 21
4.3172404152
 31
0.0
 11
5.5345192378
 21
4.3157492555
 31
0.0
 11
5.5292082466
 21
4.3147781848
 31
0.0
  0
SPLINE
  5
49D
100
AcDbEntity
  8
0
100
AcDbSpline
 62
7
  6
CONTINUOUS
 70
0
 71
3
 72
12
 73
8
 74
6
 42
0.0000001
 43
0.0000001
 44
0.0000000001
 12
0.0000098968
 22
0.0450466146
 32
0.0
 13
-0.0447323189
 23
0.0
 33
0.0
 40
0.0
 40
0.0
 40
0.0
 40
0.0
 40
0.1035015833
 40
0.3120560395
 40
0.5302271997
 40
0.7610027549
 40
1.0
 40
1.0
 40
1.0
 40
1.0
 10
6.7762292513
 20
4.3178836703
 30
0.0
 10
6.7762295927
 20
4.3194378023
 30
0.0
 10
6.7757674086
 20
4.3241216488
 30
0.0
 10
6.7725199301
 20
4.3315732167
 30
0.0
 10
6.7653086622
 20
4.3385381656
 30
0.0
 10
6.7558443016
 20
4.3428940871
 30
0.0
 10
6.7487965831
 20
4.3438733309
 30
0.0
 10
6.7452329494
 20
4.3438733309
 30
0.0
 11
6.7762292513
 21
4.3178836703
 31
0.0
 11
6.7757635915
 21
4.322512022
 31
0.0
 11
6.7720851963
 21
4.331085351
 31
0.0
 11
6.7651511236
 21
4.3379528549
 31
0.0
 11
6.7558162745
 21
4.3423605206
 31
0.0
 11
6.7452329494
 21
4.3438733309
 31
0.0
  0
SPLINE
  5
49E
100
AcDbEntity
  8
0
100
AcDbSpline
 62
7
  6
CONTINUOUS
 70
0
 71
3
 72
10
 73
6
 74
4
 42
0.0000001
 43
0.0000001
 44
0.0000000001
 12
0.0303870798
 22
0.0
 32
0.0
 13
0.0177011487
 23
0.0249070793
 33
0.0
 40
0.0
 40
0.0
 40
0.0
 40
0.0
 40
0.3518478421
 40
0.691571558
 40
1.0
 40
1.0
 40
1.0
 40
1.0
 10
4.5672329494
 20
4.0107440343
 30
0.0
 10
4.5707968256
 20
4.0107440343
 30
0.0
 10
4.5778448248
 20
4.0117233825
 30
0.0
 10
4.5871903014
 20
4.0160248541
 30
0.0
 10
4.592042861
 20
4.0206529165
 30
0.0
 10
4.5938627069
 20
4.0232136004
 30
0.0
 11
4.5672329494
 21
4.0107440343
 31
0.0
 11
4.5778169796
 21
4.012257053
 31
0.0
 11
4.5871518012
 21
4.0166649783
 31
0.0
 11
4.5938627069
 21
4.0232136004
 31
0.0
  0
SPLINE
  5
49F
100
AcDbEntity
  8
0
100
AcDbSpline
 62
7
  6
CONTINUOUS
 70
0
 71
3
 72
12
 73
8
 74
6
 42
0.0000001
 43
0.0000001
 44
0.0000000001
 12
-0.0447322986
 22
0.0
 32
0.0
 13
0.0000098583
 23
-0.0450465924
 33
0.0
 40
0.0
 40
0.0
 40
0.0
 40
0.0
 40
0.2390136166
 40
0.4697911978
 40
0.6879518499
 40
0.8965020829
 40
1.0
 40
1.0
 40
1.0
 40
1.0
 10
4.5672329494
 20
4.3438733309
 30
0.0
 10
4.5636690733
 20
4.3438733309
 30
0.0
 10
4.5566210741
 20
4.3428939827
 30
0.0
 10
4.5471567033
 20
4.3385377873
 30
0.0
 10
4.5399457483
 20
4.3315728266
 30
0.0
 10
4.5366984672
 20
4.3241214936
 30
0.0
 10
4.5362363075
 20
4.3194377685
 30
0.0
 10
4.5362366476
 20
4.3178836923
 30
0.0
 11
4.5672329494
 21
4.3438733309
 31
0.0
 11
4.5566489193
 21
4.3423603122
 31
0.0
 11
4.5473140977
 21
4.3379523869
 31
0.0
 11
4.5403805086
 21
4.3310850691
 31
0.0
 11
4.536702278
 21
4.3225118795
 31
0.0
 11
4.5362366476
 21
4.3178836923
 31
0.0
  0
SPLINE
  5
4A0
100
AcDbEntity
  8
0
100
AcDbSpline
 62
7
  6
CONTINUOUS
 70
0
 71
3
 72
10
 73
6
 74
4
 42
0.0000001
 43
0.0000001
 44
0.0000000001
 12
-0.0177011172
 22
0.0249072211
 32
0.0
 13
-0.0303871596
 23
0.0
 33
0.0
 40
0.0
 40
0.0
 40
0.0
 40
0.0
 40
0.3084570262
 40
0.648177022
 40
1.0
 40
1.0
 40
1.0
 40
1.0
 10
4.5938627524
 20
4.3314037006
 30
0.0
 10
4.5920427411
 20
4.3339646364
 30
0.0
 10
4.5871898956
 20
4.3385928273
 30
0.0
 10
4.5778443016
 20
4.3428940871
 30
0.0
 10
4.5707965831
 20
4.3438733309
 30
0.0
 10
4.5672329494
 20
4.3438733309
 30
0.0
 11
4.5938627524
 21
4.3314037006
 31
0.0
 11
4.5871511236
 21
4.3379528549
 31
0.0
 11
4.5778162745
 21
4.3423605206
 31
0.0
 11
4.5672329494
 21
4.3438733309
 31
0.0
  0
SPLINE
  5
4A1
100
AcDbEntity
  8
0
100
AcDbSpline
 62
7
  6
CONTINUOUS
 70
0
 71
3
 72
12
 73
8
 74
6
 42
0.0000001
 43
0.0000001
 44
0.0000000001
 12
-0.0000098968
 22
-0.0450466146
 32
0.0
 13
0.0447323189
 23
-0.0
 33
0.0
 40
0.0
 40
0.0
 40
0.0
 40
0.0
 40
0.1035015833
 40
0.3120560395
 40
0.5302271997
 40
0.7610027549
 40
1.0
 40
1.0
 40
1.0
 40
1.0
 10
4.5362366476
 20
4.0367336949
 30
0.0
 10
4.5362363061
 20
4.0351795629
 30
0.0
 10
4.5366984902
 20
4.0304957163
 30
0.0
 10
4.5399459688
 20
4.0230441485
 30
0.0
 10
4.5471572367
 20
4.0160791996
 30
0.0
 10
4.5566215973
 20
4.0117232781
 30
0.0
 10
4.5636693158
 20
4.0107440343
 30
0.0
 10
4.5672329494
 20
4.0107440343
 30
0.0
 11
4.5362366476
 21
4.0367336949
 31
0.0
 11
4.5367023073
 21
4.0321053432
 31
0.0
 11
4.5403807026
 21
4.0235320142
 31
0.0
 11
4.5473147753
 21
4.0166645103
 31
0.0
 11
4.5566496244
 21
4.0122568446
 31
0.0
 11
4.5672329494
 21
4.0107440343
 31
0.0
  0
SPLINE
  5
4A2
100
AcDbEntity
  8
0
100
AcDbSpline
 62
7
  6
CONTINUOUS
 70
0
 71
3
 72
13
 73
9
 74
7
 42
0.0000001
 43
0.0000001
 44
0.0000000001
 12
0.0283104513
 22
-0.038997054
 32
0.0
 13
0.0481897486
 23
-0.0
 33
0.0
 40
0.0
 40
0.0
 40
0.0
 40
0.0
 40
0.1255653928
 40
0.2693794008
 40
0.4317959801
 40
0.6107053227
 40
0.8021215794
 40
1.0
 40
1.0
 40
1.0
 40
1.0
 10
5.5542329494
 20
4.3724417296
 30
0.0
 10
5.5554178871
 20
4.3708095028
 30
0.0
 10
5.5584911806
 20
4.3676878607
 30
0.0
 10
5.5643176424
 20
4.3638622052
 30
0.0
 10
5.5714695337
 20
4.3606930668
 30
0.0
 10
5.5797119702
 20
4.3583103233
 30
0.0
 10
5.5887367805
 20
4.3568264564
 30
0.0
 10
5.5949955924
 20
4.3564922724
 30
0.0
 10
5.5981741628
 20
4.3564922724
 30
0.0
 11
5.5542329494
 21
4.3724417296
 31
0.0
 11
5.5584050062
 21
4.3680590231
 31
0.0
 11
5.5641509405
 21
4.3641842147
 31
0.0
 11
5.5712828011
 21
4.3609599963
 31
0.0
 11
5.5795540192
 21
4.358527123
 31
0.0
 11
5.5886524259
 21
4.3570083302
 31
0.0
 11
5.5981741628
 21
4.3564922724
 31
0.0
  0
SPLINE
  5
4A3
100
AcDbEntity
  8
0
100
AcDbSpline
 62
7
  6
CONTINUOUS
 70
0
 71
3
 72
9
 73
5
 74
3
 42
0.0000001
 43
0.0000001
 44
0.0000000001
 12
0.0007765074
 22
-0.0080501657
 32
0.0
 13
0.0047512513
 23
-0.0065447492
 33
0.0
 40
0.0
 40
0.0
 40
0.0
 40
0.0
 40
0.4856829168
 40
1.0
 40
1.0
 40
1.0
 40
1.0
 10
5.5512329496
 20
4.3798737803
 30
0.0
 10
5.5513586617
 20
4.3785705043
 30
0.0
 10
5.5520448026
 20
4.3759164007
 30
0.0
 10
5.5534183995
 20
4.3735637551
 30
0.0
 10
5.5542329494
 20
4.3724417296
 30
0.0
 11
5.5512329496
 21
4.3798737803
 31
0.0
 11
5.5521873181
 21
4.376063509
 31
0.0
 11
5.5542329494
 21
4.3724417296
 31
0.0
  0
SPLINE
  5
4A4
100
AcDbEntity
  8
0
100
AcDbSpline
 62
7
  6
CONTINUOUS
 70
0
 71
3
 72
8
 73
4
 74
2
 42
0.0000001
 43
0.0000001
 44
0.0000000001
 12
0.001116161
 22
0.0000425084
 32
0.0
 13
0.0011161777
 23
0.0000310079
 33
0.0
 40
0.0
 40
0.0
 40
0.0
 40
0.0
 40
1.0
 40
1.0
 40
1.0
 40
1.0
 10
5.5501167674
 20
4.379837026
 30
0.0
 10
5.5504888211
 20
4.3798511955
 30
0.0
 10
5.5508608904
 20
4.3798634444
 30
0.0
 10
5.5512329496
 20
4.3798737803
 30
0.0
 11
5.5501167674
 21
4.379837026
 31
0.0
 11
5.5512329496
 21
4.3798737803
 31
0.0
  0
SPLINE
  5
4A5
100
AcDbEntity
  8
0
100
AcDbSpline
 62
7
  6
CONTINUOUS
 70
0
 71
3
 72
12
 73
8
 74
6
 42
0.0000001
 43
0.0000001
 44
0.0000000001
 12
-0.0447322986
 22
0.0
 32
0.0
 13
0.0000098583
 23
-0.0450465924
 33
0.0
 40
0.0
 40
0.0
 40
0.0
 40
0.0
 40
0.2390136166
 40
0.4697911978
 40
0.6879518499
 40
0.8965020829
 40
1.0
 40
1.0
 40
1.0
 40
1.0
 10
6.7452329494
 20
4.3438733309
 30
0.0
 10
6.7416690733
 20
4.3438733309
 30
0.0
 10
6.7346210741
 20
4.3428939827
 30
0.0
 10
6.7251567033
 20
4.3385377873
 30
0.0
 10
6.7179457483
 20
4.3315728266
 30
0.0
 10
6.7146984672
 20
4.3241214936
 30
0.0
 10
6.7142363075
 20
4.3194377685
 30
0.0
 10
6.7142366476
 20
4.3178836923
 30
0.0
 11
6.7452329494
 21
4.3438733309
 31
0.0
 11
6.7346489193
 21
4.3423603122
 31
0.0
 11
6.7253140977
 21
4.3379523869
 31
0.0
 11
6.7183805086
 21
4.3310850691
 31
0.0
 11
6.714702278
 21
4.3225118795
 31
0.0
 11
6.7142366476
 21
4.3178836923
 31
0.0
  0
SPLINE
  5
4A6
100
AcDbEntity
  8
0
100
AcDbSpline
 62
7
  6
CONTINUOUS
 70
0
 71
3
 72
19
 73
15
 74
13
 42
0.0000001
 43
0.0000001
 44
0.0000000001
 12
0.0817575289
 22
0.2190659047
 32
0.0
 13
-0.0
 23
-0.2332206427
 33
0.0
 40
0.0
 40
0.0
 40
0.0
 40
0.0
 40
0.0536646151
 40
0.1385223195
 40
0.2259861373
 40
0.3138566578
 40
0.402914782
 40
0.4911228761
 40
0.5802106931
 40
0.6680475511
 40
0.7556389689
 40
0.8404604825
 40
0.9224232664
 40
1.0
 40
1.0
 40
1.0
 40
1.0
 10
4.439720313
 20
4.0070396606
 30
0.0
 10
4.4411828085
 20
4.0109583564
 30
0.0
 10
4.4458052207
 20
4.0207528176
 30
0.0
 10
4.4564132102
 20
4.0349621422
 30
0.0
 10
4.4720501493
 20
4.0480747597
 30
0.0
 10
4.490550916
 20
4.0574376521
 30
0.0
 10
4.5107793749
 20
4.062299141
 30
0.0
 10
4.5316767731
 20
4.0623005896
 30
0.0
 10
4.5519055706
 20
4.0574410649
 30
0.0
 10
4.5704157213
 20
4.0480757956
 30
0.0
 10
4.5860563832
 20
4.0349595028
 30
0.0
 10
4.5979943982
 20
4.0189635506
 30
0.0
 10
4.6054692313
 20
4.0012935974
 30
0.0
 10
4.6072329494
 20
3.9888395145
 30
0.0
 10
4.6072329494
 20
3.9828086826
 30
0.0
 11
4.439720313
 21
4.0070396606
 31
0.0
 11
4.4450464763
 21
4.0183844746
 31
0.0
 11
4.4568406624
 21
4.0342767297
 31
0.0
 11
4.4724566435
 21
4.0474005454
 31
0.0
 11
4.4907436122
 21
4.056650346
 31
0.0
 11
4.510940996
 21
4.0614945801
 31
0.0
 11
4.5315129444
 21
4.0614959897
 31
0.0
 11
4.5517175315
 21
4.0566520977
 31
0.0
 11
4.5699984302
 21
4.0474076904
 31
0.0
 11
4.5856368832
 21
4.0342643594
 31
0.0
 11
4.5974236326
 21
4.0183770965
 31
0.0
 11
4.6047808485
 21
4.0007342398
 31
0.0
 11
4.6072329494
 21
3.9828086826
 31
0.0
  0
SPLINE
  5
4A7
100
AcDbEntity
  8
0
100
AcDbSpline
 62
7
  6
CONTINUOUS
 70
0
 71
3
 72
19
 73
15
 74
13
 42
0.0000001
 43
0.0000001
 44
0.0000000001
 12
0.0
 22
-0.2332244179
 32
0.0
 13
-0.0817481322
 23
0.2190744402
 33
0.0
 40
0.0
 40
0.0
 40
0.0
 40
0.0
 40
0.0776752063
 40
0.1595730412
 40
0.244429372
 40
0.3318917741
 40
0.4197608722
 40
0.5088175548
 40
0.5970242211
 40
0.686110596
 40
0.7739460322
 40
0.8615360322
 40
0.9463561728
 40
1.0
 40
1.0
 40
1.0
 40
1.0
 10
4.6072329494
 20
4.3718086826
 30
0.0
 10
4.6072329494
 20
4.3657700977
 30
0.0
 10
4.605466479
 20
4.3533130282
 30
0.0
 10
4.5979860327
 20
4.3356398504
 30
0.0
 10
4.5860526887
 20
4.319655223
 30
0.0
 10
4.5704157496
 20
4.3065426055
 30
0.0
 10
4.5519149829
 20
4.297179713
 30
0.0
 10
4.5316865239
 20
4.2923182242
 30
0.0
 10
4.5107891258
 20
4.2923167756
 30
0.0
 10
4.4905603282
 20
4.2971763002
 30
0.0
 10
4.4720501776
 20
4.3065415696
 30
0.0
 10
4.4564095156
 20
4.3196578624
 30
0.0
 10
4.4458004867
 20
4.3338730834
 30
0.0
 10
4.4411807173
 20
4.3436640476
 30
0.0
 10
4.4397189564
 20
4.3475813781
 30
0.0
 11
4.6072329494
 21
4.3718086826
 31
0.0
 11
4.6047746553
 21
4.3538604971
 31
0.0
 11
4.5974194226
 21
4.3362328906
 31
0.0
 11
4.5856252365
 21
4.3203406355
 31
0.0
 11
4.5700092553
 21
4.3072168197
 31
0.0
 11
4.5517222866
 21
4.2979670191
 31
0.0
 11
4.5315249028
 21
4.2931227851
 31
0.0
 11
4.5109529545
 21
4.2931213755
 31
0.0
 11
4.4907483674
 21
4.2979652675
 31
0.0
 11
4.4724674687
 21
4.3072096748
 31
0.0
 11
4.4568290157
 21
4.3203530057
 31
0.0
 11
4.4450422662
 21
4.3362402687
 31
0.0
 11
4.4397189564
 21
4.3475813781
 31
0.0
  0
SPLINE
  5
4A8
100
AcDbEntity
  8
0
100
AcDbSpline
 62
7
  6
CONTINUOUS
 70
0
 71
3
 72
18
 73
14
 74
12
 42
0.0000001
 43
0.0000001
 44
0.0000000001
 12
-0.1643243659
 22
-0.0363289119
 32
0.0
 13
-0.1647415303
 23
0.0343999635
 33
0.0
 40
0.0
 40
0.0
 40
0.0
 40
0.0
 40
0.0173281558
 40
0.0708393206
 40
0.156090721
 40
0.2626944468
 40
0.3843986492
 40
0.5144704262
 40
0.644550323
 40
0.7664535304
 40
0.8734685813
 40
0.9593541068
 40
1.0
 40
1.0
 40
1.0
 40
1.0
 10
4.6072329494
 20
4.5663086826
 30
0.0
 10
4.6062838034
 20
4.5660988449
 30
0.0
 10
4.6024007271
 20
4.5652538846
 30
0.0
 10
4.5938193288
 20
4.5635092708
 30
0.0
 10
4.5802576645
 20
4.5611392179
 30
0.0
 10
4.5628183138
 20
4.5587979316
 30
0.0
 10
4.542776594
 20
4.5570983784
 30
0.0
 10
4.5213525987
 20
4.5564721804
 30
0.0
 10
4.4999170457
 20
4.5570851785
 30
0.0
 10
4.4798397297
 20
4.5587761576
 30
0.0
 10
4.4623301195
 20
4.5611192997
 30
0.0
 10
4.4494212643
 20
4.5633726545
 30
0.0
 10
4.4424614009
 20
4.5647686071
 30
0.0
 10
4.4402293787
 20
4.5652346795
 30
0.0
 11
4.6072329494
 21
4.5663086826
 31
0.0
 11
4.6043834229
 21
4.5656886528
 31
0.0
 11
4.5955582424
 21
4.5638953471
 31
0.0
 11
4.5814247129
 21
4.5614285186
 31
0.0
 11
4.5636429434
 21
4.5590462988
 31
0.0
 11
4.5432338409
 21
4.5573205761
 31
0.0
 11
4.5213529874
 21
4.5566831868
 31
0.0
 11
4.4994703714
 21
4.5573068534
 31
0.0
 11
4.4790269106
 21
4.5590236937
 31
0.0
 11
4.4611755129
 21
4.5614074924
 31
0.0
 11
4.4469363586
 21
4.5638898299
 31
0.0
 11
4.4402293787
 21
4.5652346795
 31
0.0
  0
SPLINE
  5
4A9
100
AcDbEntity
  8
0
100
AcDbSpline
 62
7
  6
CONTINUOUS
 70
0
 71
3
 72
20
 73
16
 74
14
 42
0.0000001
 43
0.0000001
 44
0.0000000001
 12
0.0
 22
0.295255701
 32
0.0
 13
0.0
 23
-0.295255701
 33
0.0
 40
0.0
 40
0.0
 40
0.0
 40
0.0
 40
0.0706404301
 40
0.1456013741
 40
0.2219915223
 40
0.2994748007
 40
0.3800284469
 40
0.4605058833
 40
0.5393537769
 40
0.6200214596
 40
0.7005871757
 40
0.7779553995
 40
0.8545219983
 40
0.9295461997
 40
1.0
 40
1.0
 40
1.0
 40
1.0
 10
5.5112329494
 20
3.9900586826
 30
0.0
 10
5.5112329494
 20
3.9970110125
 30
0.0
 10
5.5132929812
 20
4.0113983625
 30
0.0
 10
5.5219031168
 20
4.0317116563
 30
0.0
 10
5.535435945
 20
4.0499648047
 30
0.0
 10
5.5531203781
 20
4.0650800438
 30
0.0
 10
5.5741486473
 20
4.0759943876
 30
0.0
 10
5.5972990953
 20
4.0816813068
 30
0.0
 10
5.6211438409
 20
4.0816864566
 30
0.0
 10
5.6443157712
 20
4.0759975222
 30
0.0
 10
5.6653499475
 20
4.065075631
 30
0.0
 10
5.6830391393
 20
4.0499559149
 30
0.0
 10
5.6965782557
 20
4.0316906853
 30
0.0
 10
5.7051802478
 20
4.0113674783
 30
0.0
 10
5.7072329494
 20
3.9969926447
 30
0.0
 10
5.7072329494
 20
3.9900586826
 30
0.0
 11
5.5112329494
 21
3.9900586826
 31
0.0
 11
5.5140762304
 21
4.0107209616
 31
0.0
 11
5.5226032914
 21
4.0311450467
 31
0.0
 11
5.535989408
 21
4.049297817
 31
0.0
 11
5.5533722339
 21
4.0641710098
 31
0.0
 11
5.5744916487
 21
4.0751092604
 31
0.0
 11
5.5975720974
 21
4.0807570971
 31
0.0
 11
5.620852387
 21
4.080762054
 31
0.0
 11
5.6439881695
 21
4.0751040232
 31
0.0
 11
5.6651089484
 21
4.0641606583
 31
0.0
 11
5.6824657693
 21
4.0493093248
 31
0.0
 11
5.6958807913
 21
4.0311131386
 31
0.0
 11
5.70440436
 21
4.0106673592
 31
0.0
 11
5.7072329494
 21
3.9900586826
 31
0.0
  0
SPLINE
  5
4AA
100
AcDbEntity
  8
0
100
AcDbSpline
 62
7
  6
CONTINUOUS
 70
0
 71
3
 72
20
 73
16
 74
14
 42
0.0000001
 43
0.0000001
 44
0.0000000001
 12
-0.1690787481
 22
-0.0390881974
 32
0.0
 13
-0.1690787816
 23
0.0390881955
 33
0.0
 40
0.0
 40
0.0
 40
0.0
 40
0.0
 40
0.0147233404
 40
0.0592758063
 40
0.1296677279
 40
0.2217467148
 40
0.3289497411
 40
0.4465885547
 40
0.56500802
 40
0.6802226855
 40
0.7844734113
 40
0.8740134152
 40
0.9425258644
 40
0.9857221284
 40
1.0
 40
1.0
 40
1.0
 40
1.0
 10
6.7172329494
 20
4.5493086826
 30
0.0
 10
6.7164031481
 20
4.5491168463
 30
0.0
 10
6.7130600518
 20
4.5483545617
 30
0.0
 10
6.7057267332
 20
4.5467763742
 30
0.0
 10
6.6939597429
 20
4.5445415263
 30
0.0
 10
6.6785358612
 20
4.5421772625
 30
0.0
 10
6.6602999677
 20
4.5402238851
 30
0.0
 10
6.6404618454
 20
4.5391556729
 30
0.0
 10
6.6201311402
 20
4.5392123586
 30
0.0
 10
6.600609647
 20
4.5403602527
 30
0.0
 10
6.5828365361
 20
4.5423280216
 30
0.0
 10
6.5678395685
 20
4.5446606484
 30
0.0
 10
6.5564034532
 20
4.5468465474
 30
0.0
 10
6.5492790598
 20
4.5483832407
 30
0.0
 10
6.5460376445
 20
4.5491226505
 30
0.0
 10
6.5452329494
 20
4.5493086826
 30
0.0
 11
6.7172329494
 21
4.5493086826
 31
0.0
 11
6.7147418153
 21
4.5487406827
 31
0.0
 11
6.7071831671
 21
4.5471146257
 31
0.0
 11
6.6951815674
 21
4.544837492
 31
0.0
 11
6.6793861409
 21
4.5424206241
 31
0.0
 11
6.6608875602
 21
4.5404441889
 31
0.0
 11
6.6405020274
 21
4.5393500004
 31
0.0
 11
6.6199517566
 21
4.539407102
 31
0.0
 11
6.5999918299
 21
4.5405771887
 31
0.0
 11
6.5820096523
 21
4.5425632965
 31
0.0
 11
6.5666550081
 21
4.5449475142
 31
0.0
 11
6.5549764787
 21
4.547177645
 31
0.0
 11
6.5476486615
 21
4.548757647
 31
0.0
 11
6.5452329494
 21
4.5493086826
 31
0.0
  0
SPLINE
  5
4AB
100
AcDbEntity
  8
0
100
AcDbSpline
 62
7
  6
CONTINUOUS
 70
0
 71
3
 72
20
 73
16
 74
14
 42
0.0000001
 43
0.0000001
 44
0.0000000001
 12
-0.1917967193
 22
-0.0501898998
 32
0.0
 13
-0.1917967183
 23
0.050189899
 33
0.0
 40
0.0
 40
0.0
 40
0.0
 40
0.0
 40
0.0143045699
 40
0.0578610859
 40
0.1269036898
 40
0.2162666832
 40
0.3238739938
 40
0.4407103828
 40
0.5582690338
 40
0.6754162225
 40
0.7831543602
 40
0.8725477672
 40
0.9419513442
 40
0.9857012913
 40
1.0
 40
1.0
 40
1.0
 40
1.0
 10
5.7072329494
 20
4.5518086826
 30
0.0
 10
5.7063184262
 20
4.5515693676
 30
0.0
 10
5.7026161275
 20
4.5506131651
 30
0.0
 10
5.6944689069
 20
4.5486220488
 30
0.0
 10
5.6814228324
 20
4.5457939047
 30
0.0
 10
5.6641058069
 20
4.5427339875
 30
0.0
 10
5.6435173701
 20
4.5401575737
 30
0.0
 10
5.6209478347
 20
4.5386997162
 30
0.0
 10
5.5976999449
 20
4.538693184
 30
0.0
 10
5.5751004874
 20
4.5401423268
 30
0.0
 10
5.5544801813
 20
4.5427156664
 30
0.0
 10
5.5371282935
 20
4.5457767005
 30
0.0
 10
5.5240439205
 20
4.5486107696
 30
0.0
 10
5.5158613971
 20
4.5506101586
 30
0.0
 10
5.5121470979
 20
4.5515694657
 30
0.0
 10
5.5112329494
 20
4.5518086826
 30
0.0
 11
5.7072329494
 21
4.5518086826
 31
0.0
 11
5.7044870852
 21
4.5510995337
 31
0.0
 11
5.696098432
 21
4.549050343
 31
0.0
 11
5.6827203608
 21
4.5461537037
 31
0.0
 11
5.6652727977
 21
4.5430773453
 31
0.0
 11
5.644103083
 21
4.5404370018
 31
0.0
 11
5.6209874148
 21
4.5389499654
 31
0.0
 11
5.5976807737
 21
4.5389434469
 31
0.0
 11
5.5745029185
 21
4.5404235749
 31
0.0
 11
5.5533065754
 21
4.5430599769
 31
0.0
 11
5.535852208
 21
4.546132466
 31
0.0
 11
5.5224036804
 21
4.5490418826
 31
0.0
 11
5.5139776876
 21
4.5510998207
 31
0.0
 11
5.5112329494
 21
4.5518086826
 31
0.0
  0
SPLINE
  5
4AC
100
AcDbEntity
  8
0
100
AcDbSpline
 62
7
  6
CONTINUOUS
 70
0
 71
3
 72
8
 73
4
 74
2
 42
0.0000001
 43
0.0000001
 44
0.0000000001
 12
-0.0022923736
 22
-0.0108328062
 32
0.0
 13
-0.004229991
 23
-0.0102300701
 33
0.0
 40
0.0
 40
0.0
 40
0.0
 40
0.0
 40
1.0
 40
1.0
 40
1.0
 40
1.0
 10
6.7159028148
 20
4.0031966268
 30
0.0
 10
6.7151386903
 20
3.9995856914
 30
0.0
 10
6.7140453961
 20
3.9960431838
 30
0.0
 10
6.7126353991
 20
3.9926331604
 30
0.0
 11
6.7159028148
 21
4.0031966268
 31
0.0
 11
6.7126353991
 21
3.9926331604
 31
0.0
  0
SPLINE
  5
4AD
100
AcDbEntity
  8
0
100
AcDbSpline
 62
7
  6
CONTINUOUS
 70
0
 71
3
 72
8
 73
4
 74
2
 42
0.0000001
 43
0.0000001
 44
0.0000000001
 12
-0.0009559168
 22
-0.002311848
 32
0.0
 13
-0.0010525282
 23
-0.0022690348
 33
0.0
 40
0.0
 40
0.0
 40
0.0
 40
0.0
 40
1.0
 40
1.0
 40
1.0
 40
1.0
 10
6.7126353991
 20
3.9926331604
 30
0.0
 10
6.7123167602
 20
3.9918625444
 30
0.0
 10
6.7119819474
 20
3.9910986943
 30
0.0
 10
6.7116311047
 20
3.9903423494
 30
0.0
 11
6.7126353991
 21
3.9926331604
 31
0.0
 11
6.7116311047
 21
3.9903423494
 31
0.0
  0
SPLINE
  5
4AE
100
AcDbEntity
  8
0
100
AcDbSpline
 62
7
  6
CONTINUOUS
 70
0
 71
3
 72
12
 73
8
 74
6
 42
0.0000001
 43
0.0000001
 44
0.0000000001
 12
-0.0404889171
 22
-0.0872857911
 32
0.0
 13
-0.0959087033
 23
-0.0
 33
0.0
 40
0.0
 40
0.0
 40
0.0
 40
0.0
 40
0.1826230294
 40
0.3753081125
 40
0.5789586014
 40
0.7879626138
 40
1.0
 40
1.0
 40
1.0
 40
1.0
 10
6.7116311047
 20
3.9903423494
 30
0.0
 10
6.7091663684
 20
3.9850288842
 30
0.0
 10
6.702475244
 20
3.9748704139
 30
0.0
 10
6.6882961384
 20
3.9626467861
 30
0.0
 10
6.6708895053
 20
3.9538236865
 30
0.0
 10
6.6515027846
 20
3.9485722272
 30
0.0
 10
6.638011693
 20
3.9474195507
 30
0.0
 10
6.6312329494
 20
3.9474195507
 30
0.0
 11
6.7116311047
 21
3.9903423494
 31
0.0
 11
6.7020625938
 21
3.9756718464
 31
0.0
 11
6.6881652082
 21
3.9634907301
 31
0.0
 11
6.6708144078
 21
3.9545217247
 31
0.0
 11
6.6514923283
 21
3.9491858602
 31
0.0
 11
6.6312329494
 21
3.9474195507
 31
0.0
  0
SPLINE
  5
4AF
100
AcDbEntity
  8
0
100
AcDbSpline
 62
7
  6
CONTINUOUS
 70
0
 71
3
 72
13
 73
9
 74
7
 42
0.0000001
 43
0.0000001
 44
0.0000000001
 12
0.000040026
 22
0.1295186748
 32
0.0
 13
-0.1290522393
 23
-0.0
 33
0.0
 40
0.0
 40
0.0
 40
0.0
 40
0.0
 40
0.1522695967
 40
0.312845366
 40
0.4813662057
 40
0.6542374749
 40
0.8275963068
 40
1.0
 40
1.0
 40
1.0
 40
1.0
 10
6.717232948
 20
3.9913087344
 30
0.0
 10
6.7172349795
 20
3.9978826532
 30
0.0
 10
6.7151493872
 20
4.0113680674
 30
0.0
 10
6.7064112685
 20
4.0304114198
 30
0.0
 10
6.6925509971
 20
4.0472698403
 30
0.0
 10
6.6745026101
 20
4.0604994564
 30
0.0
 10
6.6535915166
 20
4.0689067173
 30
0.0
 10
6.6386493103
 20
4.0708255455
 30
0.0
 10
6.6312329494
 20
4.0708255455
 30
0.0
 11
6.717232948
 21
3.9913087344
 31
0.0
 11
6.7143534779
 21
4.0107473191
 31
0.0
 11
6.7058143752
 21
4.0296288569
 31
0.0
 11
6.6920513384
 21
4.0464679175
 31
0.0
 11
6.6740659352
 21
4.0596677543
 31
0.0
 11
6.6533013189
 21
4.067995572
 31
0.0
 11
6.6312329494
 21
4.0708255455
 31
0.0
  0
SPLINE
  5
4B0
100
AcDbEntity
  8
0
100
AcDbSpline
 62
7
  6
CONTINUOUS
 70
0
 71
3
 72
13
 73
9
 74
7
 42
0.0000001
 43
0.0000001
 44
0.0000000001
 12
-0.1290522703
 22
0.0
 32
0.0
 13
0.0000399142
 23
-0.1295184869
 33
0.0
 40
0.0
 40
0.0
 40
0.0
 40
0.0
 40
0.1724914284
 40
0.3458038376
 40
0.5186475799
 40
0.6871632707
 40
0.8477656591
 40
1.0
 40
1.0
 40
1.0
 40
1.0
 10
6.6312329494
 20
4.0708255455
 30
0.0
 10
6.6238128126
 20
4.0708255455
 30
0.0
 10
6.6088687205
 20
4.0689054708
 30
0.0
 10
6.5879580302
 20
4.0604960622
 30
0.0
 10
6.5699129891
 20
4.0472677942
 30
0.0
 10
6.5560531862
 20
4.0304093481
 30
0.0
 10
6.5473159425
 20
4.0113661508
 30
0.0
 10
6.5452309229
 20
3.9978810323
 30
0.0
 10
6.5452329484
 20
3.9913086451
 30
0.0
 11
6.6312329494
 21
4.0708255455
 31
0.0
 11
6.6091535286
 21
4.0679926939
 31
0.0
 11
6.588395257
 21
4.0596651363
 31
0.0
 11
6.5704132472
 21
4.046466671
 31
0.0
 11
6.5566509185
 21
4.0296278831
 31
0.0
 11
6.5481111082
 21
4.0107428896
 31
0.0
 11
6.5452329484
 21
3.9913086451
 31
0.0
  0
SPLINE
  5
4B1
100
AcDbEntity
  8
0
100
AcDbSpline
 62
7
  6
CONTINUOUS
 70
0
 71
3
 72
20
 73
16
 74
14
 42
0.0000001
 43
0.0000001
 44
0.0000000001
 12
0.0
 22
-0.2582131526
 32
0.0
 13
0.0
 23
0.2582131526
 33
0.0
 40
0.0
 40
0.0
 40
0.0
 40
0.0
 40
0.0701774527
 40
0.1442962562
 40
0.2211253946
 40
0.3002759596
 40
0.3797158616
 40
0.4601584865
 40
0.5398032547
 40
0.6202707763
 40
0.6996799624
 40
0.7789485329
 40
0.8557461914
 40
0.9299209218
 40
1.0
 40
1.0
 40
1.0
 40
1.0
 10
6.8572329494
 20
4.3633086826
 30
0.0
 10
6.8572329494
 20
4.3572684355
 30
0.0
 10
6.8554643691
 20
4.3447976548
 30
0.0
 10
6.8479849435
 20
4.327092307
 30
0.0
 10
6.8360515881
 20
4.3110566562
 30
0.0
 10
6.8204147603
 20
4.2978889876
 30
0.0
 10
6.8019143812
 20
4.2884795283
 30
0.0
 10
6.7816858225
 20
4.2835912717
 30
0.0
 10
6.7607878803
 20
4.2835900677
 30
0.0
 10
6.7405592794
 20
4.2884767318
 30
0.0
 10
6.7220496448
 20
4.2978889265
 30
0.0
 10
6.7064091301
 20
4.3110608253
 30
0.0
 10
6.6944714339
 20
4.3271083125
 30
0.0
 10
6.6869984422
 20
4.3448099681
 30
0.0
 10
6.6852329494
 20
4.3572769027
 30
0.0
 10
6.6852329494
 20
4.3633086826
 30
0.0
 11
6.8572329494
 21
4.3633086826
 31
0.0
 11
6.8547765621
 21
4.3453552031
 31
0.0
 11
6.8474201595
 21
4.3276870508
 31
0.0
 11
6.835621022
 21
4.3117390646
 31
0.0
 11
6.8200004071
 21
4.2985596616
 31
0.0
 11
6.8017135112
 21
4.2892672387
 31
0.0
 11
6.7815205446
 21
4.2843997115
 31
0.0
 11
6.7609552179
 21
4.2843985427
 31
0.0
 11
6.7407556309
 21
4.2892660381
 31
0.0
 11
6.7224750291
 21
4.2985533394
 31
0.0
 11
6.7068317166
 21
4.3117530922
 31
0.0
 11
6.6950402718
 21
4.3276966581
 31
0.0
 11
6.6876825847
 21
4.3453799178
 31
0.0
 11
6.6852329494
 21
4.3633086826
 31
0.0
  0
SPLINE
  5
4B2
100
AcDbEntity
  8
0
100
AcDbSpline
 62
7
  6
CONTINUOUS
 70
0
 71
3
 72
18
 73
14
 74
12
 42
0.0000001
 43
0.0000001
 44
0.0000000001
 12
-0.0764059935
 22
0.2182769769
 32
0.0
 13
-0.0765205287
 23
-0.2182449371
 33
0.0
 40
0.0
 40
0.0
 40
0.0
 40
0.0
 40
0.0710767977
 40
0.1611944666
 40
0.2527030617
 40
0.350179194
 40
0.4504571523
 40
0.5496602624
 40
0.6495646476
 40
0.7466849906
 40
0.8379922506
 40
0.9276871649
 40
1.0
 40
1.0
 40
1.0
 40
1.0
 10
5.7034626986
 20
4.3407204122
 30
0.0
 10
5.7016524675
 20
4.3458918883
 30
0.0
 10
5.696079791
 20
4.3571072921
 30
0.0
 10
5.6827708715
 20
4.3716101504
 30
0.0
 10
5.6644542951
 20
4.3831116863
 30
0.0
 10
5.6433987317
 20
4.3906170396
 30
0.0
 10
5.6207878667
 20
4.3942772925
 30
0.0
 10
5.5977120522
 20
4.3942777334
 30
0.0
 10
5.5751563599
 20
4.390634072
 30
0.0
 10
5.5541615566
 20
4.3831771028
 30
0.0
 10
5.5358856704
 20
4.3717567236
 30
0.0
 10
5.5224927582
 20
4.3572722242
 30
0.0
 10
5.5168585981
 20
4.3460130263
 30
0.0
 10
5.515014126
 20
4.3407523896
 30
0.0
 11
5.7034626986
 21
4.3407204122
 31
0.0
 11
5.6961709467
 21
4.3554005749
 31
0.0
 11
5.6822646142
 21
4.3708067706
 31
0.0
 11
5.6645285035
 21
4.3821894949
 31
0.0
 11
5.6434416527
 21
4.389889904
 31
0.0
 11
5.6206588709
 21
4.3936692792
 31
0.0
 11
5.5978122801
 21
4.3936696994
 31
0.0
 11
5.575112983
 21
4.3899127911
 31
0.0
 11
5.5540938451
 21
4.3822658783
 31
0.0
 11
5.5363711835
 21
4.370948145
 31
0.0
 11
5.5224722655
 21
4.3556666131
 31
0.0
 11
5.515014126
 21
4.3407523896
 31
0.0
  0
SPLINE
  5
4B3
100
AcDbEntity
  8
0
100
AcDbSpline
 62
7
  6
CONTINUOUS
 70
0
 71
3
 72
9
 73
5
 74
3
 42
0.0000001
 43
0.0000001
 44
0.0000000001
 12
-0.0038007183
 22
-0.0142729202
 32
0.0
 13
-0.0071573134
 23
-0.0129002366
 33
0.0
 40
0.0
 40
0.0
 40
0.0
 40
0.0
 40
0.162320479
 40
1.0
 40
1.0
 40
1.0
 40
1.0
 10
4.6051636877
 20
4.0000953845
 30
0.0
 10
4.6049580429
 20
3.9993231221
 30
0.0
 10
4.6035958198
 20
3.9945914941
 30
0.0
 10
4.6016439429
 20
3.9900483205
 30
0.0
 10
4.5996454313
 20
3.9864462325
 30
0.0
 11
4.6051636877
 21
4.0000953845
 31
0.0
 11
4.6045002733
 21
3.9977920072
 31
0.0
 11
4.5996454313
 21
3.9864462325
 31
0.0
  0
SPLINE
  5
4B4
100
AcDbEntity
  8
0
100
AcDbSpline
 62
7
  6
CONTINUOUS
 70
0
 71
3
 72
19
 73
15
 74
13
 42
0.0000001
 43
0.0000001
 44
0.0000000001
 12
-0.0891854714
 22
-0.1607465842
 32
0.0
 13
-0.0891442601
 23
0.1607862139
 33
0.0
 40
0.0
 40
0.0
 40
0.0
 40
0.0
 40
0.0307341093
 40
0.1265920928
 40
0.2194791372
 40
0.3062783118
 40
0.3990215162
 40
0.498953806
 40
0.5989422357
 40
0.6918259667
 40
0.7787445822
 40
0.871862617
 40
0.9680430571
 40
1.0
 40
1.0
 40
1.0
 40
1.0
 10
4.5996454313
 20
3.9864462325
 30
0.0
 10
4.5987317526
 20
3.9847994315
 30
0.0
 10
4.5946554494
 20
3.9781916618
 30
0.0
 10
4.5854949655
 20
3.9681880565
 30
0.0
 10
4.5713842307
 20
3.9587866692
 30
0.0
 10
4.5559707234
 20
3.952326595
 30
0.0
 10
4.5393011012
 20
3.9483550855
 30
0.0
 10
4.5214133993
 20
3.9469486556
 30
0.0
 10
4.5035129524
 20
3.9483010482
 30
0.0
 10
4.4868120646
 20
3.9522240985
 30
0.0
 10
4.4713491326
 20
3.9586430975
 30
0.0
 10
4.4571696515
 20
3.9680154421
 30
0.0
 10
4.4478981815
 20
3.9780664587
 30
0.0
 10
4.44376134
 20
3.9847496877
 30
0.0
 10
4.4428117473
 20
3.986462433
 30
0.0
 11
4.5996454313
 21
3.9864462325
 31
0.0
 11
4.5966812953
 21
3.9816403392
 31
0.0
 11
4.5849097862
 21
3.9686105321
 31
0.0
 11
4.5708147338
 21
3.9590786449
 31
0.0
 11
4.5561782707
 21
3.952866284
 31
0.0
 11
4.5396641015
 21
3.9488770997
 31
0.0
 11
4.5214161216
 21
3.9474196927
 31
0.0
 11
4.5031534533
 21
3.9488212552
 31
0.0
 11
4.4866015502
 21
3.9527634912
 31
0.0
 11
4.4719237324
 21
3.9589341811
 31
0.0
 11
4.4577588363
 21
3.9684381208
 31
0.0
 11
4.4459014297
 21
3.9814697813
 31
0.0
 11
4.4428117473
 21
3.986462433
 31
0.0
  0
SPLINE
  5
4B5
100
AcDbEntity
  8
0
100
AcDbSpline
 62
7
  6
CONTINUOUS
 70
0
 71
3
 72
8
 73
4
 74
2
 42
0.0000001
 43
0.0000001
 44
0.0000000001
 12
-0.0034667068
 22
0.0062527712
 32
0.0
 13
-0.002707588
 23
0.0066198645
 33
0.0
 40
0.0
 40
0.0
 40
0.0
 40
0.0
 40
1.0
 40
1.0
 40
1.0
 40
1.0
 10
4.4428117473
 20
3.986462433
 30
0.0
 10
4.4416561784
 20
3.9885466901
 30
0.0
 10
4.4406222167
 20
3.9906990303
 30
0.0
 10
4.4397196874
 20
3.9929056518
 30
0.0
 11
4.4428117473
 21
3.986462433
 31
0.0
 11
4.4397196874
 21
3.9929056518
 31
0.0
  0
SPLINE
  5
4B6
100
AcDbEntity
  8
0
100
AcDbSpline
 62
7
  6
CONTINUOUS
 70
0
 71
3
 72
8
 73
4
 74
2
 42
0.0000001
 43
0.0000001
 44
0.0000000001
 12
0.0027937152
 22
0.0068545206
 32
0.0
 13
0.0036069731
 23
0.0064606404
 33
0.0
 40
0.0
 40
0.0
 40
0.0
 40
0.0
 40
1.0
 40
1.0
 40
1.0
 40
1.0
 10
4.4396955724
 20
4.3616518241
 30
0.0
 10
4.4406268108
 20
4.3639366643
 30
0.0
 10
4.4416985548
 20
4.3661638239
 30
0.0
 10
4.4429008791
 20
4.3683173707
 30
0.0
 11
4.4396955724
 21
4.3616518241
 31
0.0
 11
4.4429008791
 21
4.3683173707
 31
0.0
  0
SPLINE
  5
4B7
100
AcDbEntity
  8
0
100
AcDbSpline
 62
7
  6
CONTINUOUS
 70
0
 71
3
 72
18
 73
14
 74
12
 42
0.0000001
 43
0.0000001
 44
0.0000000001
 12
0.0893938709
 22
0.1601180924
 32
0.0
 13
0.089378944
 23
-0.1601300805
 33
0.0
 40
0.0
 40
0.0
 40
0.0
 40
0.0
 40
0.0223680496
 40
0.1205435457
 40
0.223920211
 40
0.3309488699
 40
0.4425091968
 40
0.5572044823
 40
0.6687584427
 40
0.7758194799
 40
0.8791437868
 40
0.9772568497
 40
1.0
 40
1.0
 40
1.0
 40
1.0
 10
4.4429008791
 20
4.3683173707
 30
0.0
 10
4.4435674013
 20
4.3695112138
 30
0.0
 10
4.4473756145
 20
4.3758230336
 30
0.0
 10
4.4565234199
 20
4.3861809097
 30
0.0
 10
4.4723276843
 20
4.396696597
 30
0.0
 10
4.4907661773
 20
4.4037727419
 30
0.0
 10
4.5108660104
 20
4.4073527258
 30
0.0
 10
4.5315531787
 20
4.4073567119
 30
0.0
 10
4.5516559711
 20
4.4037847795
 30
0.0
 10
4.5700962246
 20
4.3967177318
 30
0.0
 10
4.585902051
 20
4.3862142061
 30
0.0
 10
4.5950692364
 20
4.3758526757
 30
0.0
 10
4.5988903292
 20
4.3695260143
 30
0.0
 10
4.5995679154
 20
4.3683120602
 30
0.0
 11
4.4429008791
 21
4.3683173707
 31
0.0
 11
4.4450191434
 21
4.3718283186
 31
0.0
 11
4.4568065056
 21
4.3853578873
 31
0.0
 11
4.4724480598
 21
4.3959575914
 31
0.0
 11
4.4906659593
 21
4.4030843018
 31
0.0
 11
4.510728145
 21
4.4067288381
 31
0.0
 11
4.531691675
 21
4.4067329618
 31
0.0
 11
4.5517542521
 21
4.4030971004
 31
0.0
 11
4.569980977
 21
4.3959767118
 31
0.0
 11
4.5856208967
 21
4.3853916606
 31
0.0
 11
4.5974124991
 21
4.3718809296
 31
0.0
 11
4.5995679154
 21
4.3683120602
 31
0.0
  0
SPLINE
  5
4B8
100
AcDbEntity
  8
0
100
AcDbSpline
 62
7
  6
CONTINUOUS
 70
0
 71
3
 72
9
 73
5
 74
3
 42
0.0000001
 43
0.0000001
 44
0.0000000001
 12
0.007061211
 22
-0.0126507681
 32
0.0
 13
0.0038350979
 23
-0.0139843326
 33
0.0
 40
0.0
 40
0.0
 40
0.0
 40
0.0
 40
0.9285439597
 40
1.0
 40
1.0
 40
1.0
 40
1.0
 10
4.5995679154
 20
4.3683120602
 30
0.0
 10
4.6017534637
 20
4.3643964621
 30
0.0
 10
4.6036424357
 20
4.3599175732
 30
0.0
 10
4.6049614413
 20
4.3552675275
 30
0.0
 10
4.6050527883
 20
4.3549344392
 30
0.0
 11
4.5995679154
 21
4.3683120602
 31
0.0
 11
4.6047700293
 21
4.3559312013
 31
0.0
 11
4.6050527883
 21
4.3549344392
 31
0.0
  0
SPLINE
  5
4B9
100
AcDbEntity
  8
0
100
AcDbSpline
 62
7
  6
CONTINUOUS
 70
0
 71
3
 72
20
 73
16
 74
14
 42
0.0000001
 43
0.0000001
 44
0.0000000001
 12
0.0
 22
-0.295255701
 32
0.0
 13
0.0
 23
0.295255701
 33
0.0
 40
0.0
 40
0.0
 40
0.0
 40
0.0
 40
0.0706404301
 40
0.1456013741
 40
0.2219915223
 40
0.2994748007
 40
0.3800284469
 40
0.4605058833
 40
0.5393537769
 40
0.6200214596
 40
0.7005871757
 40
0.7779553995
 40
0.8545219983
 40
0.9295461997
 40
1.0
 40
1.0
 40
1.0
 40
1.0
 10
5.7072329494
 20
4.3645586826
 30
0.0
 10
5.7072329494
 20
4.3576063527
 30
0.0
 10
5.7051729176
 20
4.3432190026
 30
0.0
 10
5.696562782
 20
4.3229057089
 30
0.0
 10
5.6830299538
 20
4.3046525605
 30
0.0
 10
5.6653455208
 20
4.2895373214
 30
0.0
 10
5.6443172516
 20
4.2786229776
 30
0.0
 10
5.6211668035
 20
4.2729360584
 30
0.0
 10
5.5973220579
 20
4.2729309086
 30
0.0
 10
5.5741501277
 20
4.278619843
 30
0.0
 10
5.5531159513
 20
4.2895417342
 30
0.0
 10
5.5354267595
 20
4.3046614503
 30
0.0
 10
5.5218876432
 20
4.3229266798
 30
0.0
 10
5.5132856511
 20
4.3432498869
 30
0.0
 10
5.5112329494
 20
4.3576247205
 30
0.0
 10
5.5112329494
 20
4.3645586826
 30
0.0
 11
5.7072329494
 21
4.3645586826
 31
0.0
 11
5.7043896684
 21
4.3438964036
 31
0.0
 11
5.6958626075
 21
4.3234723185
 31
0.0
 11
5.6824764909
 21
4.3053195482
 31
0.0
 11
5.6650936649
 21
4.2904463554
 31
0.0
 11
5.6439742502
 21
4.2795081048
 31
0.0
 11
5.6208938015
 21
4.2738602681
 31
0.0
 11
5.5976135119
 21
4.2738553112
 31
0.0
 11
5.5744777294
 21
4.279513342
 31
0.0
 11
5.5533569505
 21
4.2904567068
 31
0.0
 11
5.5360001295
 21
4.3053080404
 31
0.0
 11
5.5225851076
 21
4.3235042266
 31
0.0
 11
5.5140615389
 21
4.343950006
 31
0.0
 11
5.5112329494
 21
4.3645586826
 31
0.0
  0
SPLINE
  5
4BA
100
AcDbEntity
  8
0
100
AcDbSpline
 62
7
  6
CONTINUOUS
 70
0
 71
3
 72
18
 73
14
 74
12
 42
0.0000001
 43
0.0000001
 44
0.0000000001
 12
0.0764088403
 22
-0.2182739521
 32
0.0
 13
0.0765223859
 23
0.2182423422
 33
0.0
 40
0.0
 40
0.0
 40
0.0
 40
0.0
 40
0.0711041441
 40
0.1612177518
 40
0.2527044869
 40
0.3501466483
 40
0.4504325637
 40
0.5496715806
 40
0.6495863473
 40
0.7466753885
 40
0.8379716384
 40
0.927666457
 40
1.0
 40
1.0
 40
1.0
 40
1.0
 10
5.5150035571
 20
4.0138958915
 30
0.0
 10
5.5168145522
 20
4.0087224973
 30
0.0
 10
5.5223887746
 20
3.9975059088
 30
0.0
 10
5.5356989941
 20
3.9830043661
 30
0.0
 10
5.5540118095
 20
3.9715061294
 30
0.0
 10
5.5750633924
 20
3.9640014465
 30
0.0
 10
5.5976747032
 20
3.9603400712
 30
0.0
 10
5.6207545858
 20
3.9603394117
 30
0.0
 10
5.6433111829
 20
3.9639838433
 30
0.0
 10
5.6643032928
 20
3.9714401937
 30
0.0
 10
5.6825766672
 20
3.9828579327
 30
0.0
 10
5.6959710527
 20
3.997341851
 30
0.0
 10
5.701606472
 20
4.0086021368
 30
0.0
 10
5.7034515171
 20
4.0138642174
 30
0.0
 11
5.5150035571
 21
4.0138958915
 31
0.0
 11
5.5222989797
 21
3.9992107168
 31
0.0
 11
5.5362060231
 21
3.9838066407
 31
0.0
 11
5.5539382316
 21
3.9724274612
 31
0.0
 11
5.5750173659
 21
3.9647292387
 31
0.0
 11
5.5978016
 21
3.9609485205
 31
0.0
 11
5.6206562821
 21
3.9609478788
 31
0.0
 11
5.6433576542
 21
3.9647057944
 31
0.0
 11
5.6643697821
 21
3.9723503803
 31
0.0
 11
5.6820906749
 21
3.9836658679
 31
0.0
 11
5.6959906048
 21
3.9989462319
 31
0.0
 11
5.7034515171
 21
4.0138642174
 31
0.0
  0
SPLINE
  5
4BB
100
AcDbEntity
  8
0
100
AcDbSpline
 62
7
  6
CONTINUOUS
 70
0
 71
3
 72
8
 73
4
 74
2
 42
0.0000001
 43
0.0000001
 44
0.0000000001
 12
0.0012644493
 22
0.0065217284
 32
0.0
 13
0.0019757413
 23
0.0063393595
 33
0.0
 40
0.0
 40
0.0
 40
0.0
 40
0.0
 40
1.0
 40
1.0
 40
1.0
 40
1.0
 10
6.6863710673
 20
4.3504668632
 30
0.0
 10
6.6867925505
 20
4.3526407727
 30
0.0
 10
6.6873319094
 20
4.3547921917
 30
0.0
 10
6.6879904898
 20
4.3569053116
 30
0.0
 11
6.6863710673
 21
4.3504668632
 31
0.0
 11
6.6879904898
 21
4.3569053116
 31
0.0
  0
SPLINE
  5
4BC
100
AcDbEntity
  8
0
100
AcDbSpline
 62
7
  6
CONTINUOUS
 70
0
 71
3
 72
8
 73
4
 74
2
 42
0.0000001
 43
0.0000001
 44
0.0000000001
 12
0.0013521712
 22
0.0043385739
 32
0.0
 13
0.0016796808
 23
0.0042203569
 33
0.0
 40
0.0
 40
0.0
 40
0.0
 40
0.0
 40
1.0
 40
1.0
 40
1.0
 40
1.0
 10
6.6879904898
 20
4.3569053116
 30
0.0
 10
6.6884412136
 20
4.3583515028
 30
0.0
 10
6.6889477789
 20
4.3597797553
 30
0.0
 10
6.6895076725
 20
4.361186541
 30
0.0
 11
6.6879904898
 21
4.3569053116
 31
0.0
 11
6.6895076725
 21
4.361186541
 31
0.0
  0
SPLINE
  5
4BD
100
AcDbEntity
  8
0
100
AcDbSpline
 62
7
  6
CONTINUOUS
 70
0
 71
3
 72
19
 73
15
 74
13
 42
0.0000001
 43
0.0000001
 44
0.0000000001
 12
0.073714497
 22
0.1852146436
 32
0.0
 13
0.0737818419
 23
-0.1851599879
 33
0.0
 40
0.0
 40
0.0
 40
0.0
 40
0.0
 40
0.0679831635
 40
0.1568176143
 40
0.242830549
 40
0.3232296945
 40
0.4094587373
 40
0.5021317317
 40
0.5946624654
 40
0.6804460098
 40
0.7608436087
 40
0.846180886
 40
0.9344471778
 40
1.0
 40
1.0
 40
1.0
 40
1.0
 10
6.6895076725
 20
4.361186541
 30
0.0
 10
6.6911781207
 20
4.3653837001
 30
0.0
 10
6.6961263445
 20
4.3746245643
 30
0.0
 10
6.7071498554
 20
4.3865875368
 30
0.0
 10
6.7213508283
 20
4.3959774044
 30
0.0
 10
6.7368672675
 20
4.4024150961
 30
0.0
 10
6.7536478862
 20
4.4063415739
 30
0.0
 10
6.771636616
 20
4.4076720322
 30
0.0
 10
6.7895864826
 20
4.406220832
 30
0.0
 10
6.8063011877
 20
4.4021871377
 30
0.0
 10
6.8217013354
 20
4.3956615313
 30
0.0
 10
6.8357556626
 20
4.3862022545
 30
0.0
 10
6.8465184167
 20
4.3743348009
 30
0.0
 10
6.8513358665
 20
4.3652581221
 30
0.0
 10
6.8529480691
 20
4.3612122022
 30
0.0
 11
6.6895076725
 21
4.361186541
 31
0.0
 11
6.6958763495
 21
4.3731110708
 31
0.0
 11
6.7077401309
 21
4.3861633899
 31
0.0
 11
6.7219201491
 21
4.395681293
 31
0.0
 11
6.7366371474
 21
4.4018654582
 31
0.0
 11
6.7532956395
 21
4.4058183673
 31
0.0
 11
6.7716444461
 21
4.4071970981
 31
0.0
 11
6.7899550765
 21
4.405693197
 31
0.0
 11
6.8064995442
 21
4.4016446952
 31
0.0
 11
6.8211688996
 21
4.3953491298
 31
0.0
 11
6.8351603173
 21
4.3857919639
 31
0.0
 11
6.8468474928
 21
4.3727322767
 31
0.0
 11
6.8529480691
 21
4.3612122022
 31
0.0
  0
SPLINE
  5
4BE
100
AcDbEntity
  8
0
100
AcDbSpline
 62
7
  6
CONTINUOUS
 70
0
 71
3
 72
8
 73
4
 74
2
 42
0.0000001
 43
0.0000001
 44
0.0000000001
 12
0.0017561533
 22
-0.0044071729
 32
0.0
 13
0.0013990241
 23
-0.0045356258
 33
0.0
 40
0.0
 40
0.0
 40
0.0
 40
0.0
 40
1.0
 40
1.0
 40
1.0
 40
1.0
 10
6.8529480691
 20
4.3612122022
 30
0.0
 10
6.8535334536
 20
4.3597431446
 30
0.0
 10
6.854060718
 20
4.3582506556
 30
0.0
 10
6.8545270594
 20
4.3567387803
 30
0.0
 11
6.8529480691
 21
4.3612122022
 31
0.0
 11
6.8545270594
 21
4.3567387803
 31
0.0
  0
SPLINE
  5
4BF
100
AcDbEntity
  8
0
100
AcDbSpline
 62
7
  6
CONTINUOUS
 70
0
 71
3
 72
8
 73
4
 74
2
 42
0.0000001
 43
0.0000001
 44
0.0000000001
 12
0.0018860445
 22
-0.0061145422
 32
0.0
 13
0.0012253776
 23
-0.0062834929
 33
0.0
 40
0.0
 40
0.0
 40
0.0
 40
0.0
 40
1.0
 40
1.0
 40
1.0
 40
1.0
 10
6.8545270594
 20
4.3567387803
 30
0.0
 10
6.8551557409
 20
4.3547005996
 30
0.0
 10
6.8556737001
 20
4.3526271861
 30
0.0
 10
6.8560821593
 20
4.3505326884
 30
0.0
 11
6.8545270594
 21
4.3567387803
 31
0.0
 11
6.8560821593
 21
4.3505326884
 31
0.0
  0
SPLINE
  5
4C0
100
AcDbEntity
  8
0
100
AcDbSpline
 62
7
  6
CONTINUOUS
 70
0
 71
3
 72
12
 73
8
 74
6
 42
0.0000001
 43
0.0000001
 44
0.0000000001
 12
-0.0947313647
 22
0.0
 32
0.0
 13
-0.0416613092
 23
0.0853178627
 33
0.0
 40
0.0
 40
0.0
 40
0.0
 40
0.0
 40
0.2310290855
 40
0.4537863448
 40
0.6606284218
 40
0.8424350077
 40
1.0
 40
1.0
 40
1.0
 40
1.0
 10
6.6312329494
 20
3.9474195507
 30
0.0
 10
6.6239377159
 20
3.9474195507
 30
0.0
 10
6.6095700818
 20
3.9487390668
 30
0.0
 10
6.5894127138
 20
3.9546210605
 30
0.0
 10
6.5723131782
 20
3.9639566539
 30
0.0
 10
6.5594619528
 20
3.9757289565
 30
0.0
 10
6.5535353773
 20
3.9847849162
 30
0.0
 10
6.551347256
 20
3.9892659523
 30
0.0
 11
6.6312329494
 21
3.9474195507
 31
0.0
 11
6.6094433578
 21
3.9494683517
 31
0.0
 11
6.5892210454
 21
3.9554980008
 31
0.0
 11
6.5721017356
 21
3.9650306294
 31
0.0
 11
6.5594822577
 21
3.976751258
 31
0.0
 11
6.551347256
 21
3.9892659523
 31
0.0
  0
SPLINE
  5
4C1
100
AcDbEntity
  8
0
100
AcDbSpline
 62
7
  6
CONTINUOUS
 70
0
 71
3
 72
8
 73
4
 74
2
 42
0.0000001
 43
0.0000001
 44
0.0000000001
 12
-0.0017248935
 22
0.0035323956
 32
0.0
 13
-0.001488859
 23
0.0036387165
 33
0.0
 40
0.0
 40
0.0
 40
0.0
 40
0.0
 40
1.0
 40
1.0
 40
1.0
 40
1.0
 10
6.551347256
 20
3.9892659523
 30
0.0
 10
6.5507722915
 20
3.9904434175
 30
0.0
 10
6.5502362342
 20
3.9916399736
 30
0.0
 10
6.5497399479
 20
3.9928528791
 30
0.0
 11
6.551347256
 21
3.9892659523
 31
0.0
 11
6.5497399479
 21
3.9928528791
 31
0.0
  0
SPLINE
  5
4C2
100
AcDbEntity
  8
0
100
AcDbSpline
 62
7
  6
CONTINUOUS
 70
0
 71
3
 72
8
 73
4
 74
2
 42
0.0000001
 43
0.0000001
 44
0.0000000001
 12
-0.0037208136
 22
0.0090935312
 32
0.0
 13
-0.0021900314
 23
0.0095778358
 33
0.0
 40
0.0
 40
0.0
 40
0.0
 40
0.0
 40
1.0
 40
1.0
 40
1.0
 40
1.0
 10
6.5497399479
 20
3.9928528791
 30
0.0
 10
6.5484996767
 20
3.9958840561
 30
0.0
 10
6.5475077956
 20
3.9990173442
 30
0.0
 10
6.5467777851
 20
4.0022099562
 30
0.0
 11
6.5497399479
 21
3.9928528791
 31
0.0
 11
6.5467777851
 21
4.0022099562
 31
0.0
  0
SPLINE
  5
4C3
100
AcDbEntity
  8
0
100
AcDbSpline
 62
7
  6
CONTINUOUS
 70
0
 71
3
 72
20
 73
16
 74
14
 42
0.0000001
 43
0.0000001
 44
0.0000000001
 12
0.1690788758
 22
0.0390882214
 32
0.0
 13
0.1690788936
 23
-0.0390882201
 33
0.0
 40
0.0
 40
0.0
 40
0.0
 40
0.0
 40
0.0146232688
 40
0.0598633333
 40
0.1328367446
 40
0.2256457622
 40
0.331528112
 40
0.4476214392
 40
0.5652372929
 40
0.6805867845
 40
0.7853226743
 40
0.8751374832
 40
0.9430785548
 40
0.9858018759
 40
1.0
 40
1.0
 40
1.0
 40
1.0
 10
6.6852329494
 20
3.8053086826
 30
0.0
 10
6.6860571114
 20
3.8054992151
 30
0.0
 10
6.6894333295
 20
3.8062691247
 30
0.0
 10
6.6969460466
 20
3.8078851356
 30
0.0
 10
6.7089423215
 20
3.8101536014
 30
0.0
 10
6.7244839071
 20
3.8125107857
 30
0.0
 10
6.7425996243
 20
3.8144236387
 30
0.0
 10
6.7622263052
 20
3.8154634664
 30
0.0
 10
6.7824286983
 20
3.8154010228
 30
0.0
 10
6.801939462
 20
3.8142509988
 30
0.0
 10
6.8197635555
 20
3.8122724861
 30
0.0
 10
6.8347703075
 20
3.8099315493
 30
0.0
 10
6.8461618879
 20
3.8077499321
 30
0.0
 10
6.8532225137
 20
3.8062260278
 30
0.0
 10
6.8564327484
 20
3.8054936757
 30
0.0
 10
6.8572329494
 20
3.8053086826
 30
0.0
 11
6.6852329494
 21
3.8053086826
 31
0.0
 11
6.6877071417
 21
3.8058728731
 31
0.0
 11
6.6953826198
 21
3.8075232414
 31
0.0
 11
6.7078262758
 21
3.8098737819
 31
0.0
 11
6.7237507756
 21
3.8122846329
 31
0.0
 11
6.7420243821
 21
3.8142093292
 31
0.0
 11
6.7621430291
 21
3.8152719073
 31
0.0
 11
6.7825538373
 21
3.8152090243
 31
0.0
 11
6.8025369691
 21
3.8140347616
 31
0.0
 11
6.8206022852
 21
3.8120343592
 31
0.0
 11
6.8360030111
 21
3.8096360553
 31
0.0
 11
6.8475833526
 21
3.8074203426
 31
0.0
 11
6.8548307376
 21
3.8058566801
 31
0.0
 11
6.8572329494
 21
3.8053086826
 31
0.0
  0
SPLINE
  5
4C4
100
AcDbEntity
  8
0
100
AcDbSpline
 62
7
  6
CONTINUOUS
 70
0
 71
3
 72
20
 73
16
 74
14
 42
0.0000001
 43
0.0000001
 44
0.0000000001
 12
0.1917967279
 22
0.0501899024
 32
0.0
 13
0.1917967268
 23
-0.0501899016
 33
0.0
 40
0.0
 40
0.0
 40
0.0
 40
0.0
 40
0.0143176786
 40
0.0579092074
 40
0.1269704121
 40
0.2163261349
 40
0.3239121794
 40
0.4407170866
 40
0.5582422682
 40
0.6753587191
 40
0.7830782122
 40
0.8724684899
 40
0.9418959099
 40
0.9856856929
 40
1.0
 40
1.0
 40
1.0
 40
1.0
 10
5.5112329494
 20
3.8028086826
 30
0.0
 10
5.5121483107
 20
3.8030482169
 30
0.0
 10
5.5158536916
 20
3.8040052039
 30
0.0
 10
5.5240052249
 20
3.805997254
 30
0.0
 10
5.5370543723
 20
3.8088256916
 30
0.0
 10
5.5543708482
 20
3.8118849472
 30
0.0
 10
5.5749554108
 20
3.814460338
 30
0.0
 10
5.5975192674
 20
3.8159175498
 30
0.0
 10
5.6207608211
 20
3.8159242085
 30
0.0
 10
5.6433548375
 20
3.8144759366
 30
0.0
 10
5.6639717866
 20
3.8119037527
 30
0.0
 10
5.6813239292
 20
3.8088433698
 30
0.0
 10
5.694412307
 20
3.8060088717
 30
0.0
 10
5.7025999538
 20
3.8040083708
 30
0.0
 10
5.7063178037
 20
3.8030481605
 30
0.0
 10
5.7072329494
 20
3.8028086826
 30
0.0
 11
5.5112329494
 21
3.8028086826
 31
0.0
 11
5.5139813322
 21
3.8035184733
 31
0.0
 11
5.5223767579
 21
3.8055691932
 31
0.0
 11
5.5357585134
 21
3.8084662464
 31
0.0
 11
5.5532047548
 21
3.8115418052
 31
0.0
 11
5.5743703542
 21
3.8141810872
 31
0.0
 11
5.5974798132
 21
3.815667443
 31
0.0
 11
5.6207798199
 21
3.8156740877
 31
0.0
 11
5.6439516285
 21
3.8141948758
 31
0.0
 11
5.6651443968
 21
3.8115596704
 31
0.0
 11
5.6825982733
 21
3.8084879663
 31
0.0
 11
5.6960515154
 21
3.8055779825
 31
0.0
 11
5.7044852144
 21
3.8035183082
 31
0.0
 11
5.7072329494
 21
3.8028086826
 31
0.0
  0
SPLINE
  5
4C5
100
AcDbEntity
  8
0
100
AcDbSpline
 62
7
  6
CONTINUOUS
 70
0
 71
3
 72
19
 73
15
 74
13
 42
0.0000001
 43
0.0000001
 44
0.0000000001
 12
0.1647430372
 22
0.0344001607
 32
0.0
 13
0.1643262585
 23
-0.0363292778
 33
0.0
 40
0.0
 40
0.0
 40
0.0
 40
0.0
 40
0.0313252268
 40
0.1065349522
 40
0.2022170909
 40
0.3114251763
 40
0.4311984875
 40
0.5525925351
 40
0.6715821731
 40
0.7794157674
 40
0.8720289825
 40
0.9418966644
 40
0.9854551036
 40
1.0
 40
1.0
 40
1.0
 40
1.0
 10
4.4402297334
 20
3.78938276
 30
0.0
 10
4.4419499377
 20
3.7897419576
 30
0.0
 10
4.4478077158
 20
3.7909279121
 30
0.0
 10
4.4589727905
 20
3.7929445924
 30
0.0
 10
4.4745279774
 20
3.7951960173
 30
0.0
 10
4.4926561294
 20
3.7970205115
 30
0.0
 10
4.5122958717
 20
3.7980099657
 30
0.0
 10
4.5325097297
 20
3.7979463279
 30
0.0
 10
4.5520220138
 20
3.7968445642
 30
0.0
 10
4.5698480375
 20
3.7949521717
 30
0.0
 10
4.5848499331
 20
3.7927142217
 30
0.0
 10
4.5962206153
 20
3.7906310483
 30
0.0
 10
4.6032516407
 20
3.7891795691
 30
0.0
 10
4.6064362466
 20
3.7884848178
 30
0.0
 10
4.6072329494
 20
3.7883086826
 30
0.0
 11
4.4402297334
 21
3.78938276
 31
0.0
 11
4.4453968526
 21
3.7904287095
 31
0.0
 11
4.4578530694
 21
3.7926763787
 31
0.0
 11
4.4737903304
 21
3.7949792408
 31
0.0
 11
4.4920774877
 21
3.7968155277
 31
0.0
 11
4.5122092894
 21
3.7978268959
 31
0.0
 11
4.5326391397
 21
3.7977627681
 31
0.0
 11
4.5526327715
 21
3.7966369752
 31
0.0
 11
4.5706796146
 21
3.794725394
 31
0.0
 11
4.5860958466
 21
3.7924292269
 31
0.0
 11
4.5976620144
 21
3.7903120392
 31
0.0
 11
4.6048413699
 21
3.7888304104
 31
0.0
 11
4.6072329494
 21
3.7883086826
 31
0.0
  0
SPLINE
  5
4C6
100
AcDbEntity
  8
0
100
AcDbSpline
 62
7
  6
CONTINUOUS
 70
0
 71
3
 72
20
 73
16
 74
14
 42
0.0000001
 43
0.0000001
 44
0.0000000001
 12
0.0
 22
-0.2789787302
 32
0.0
 13
0.0
 23
0.2789787302
 33
0.0
 40
0.0
 40
0.0
 40
0.0
 40
0.0
 40
0.0721833029
 40
0.1457325745
 40
0.2200230952
 40
0.2965639787
 40
0.3772291823
 40
0.4589722428
 40
0.5412451184
 40
0.6230354353
 40
0.7036498142
 40
0.7801564024
 40
0.8546044474
 40
0.9281502693
 40
1.0
 40
1.0
 40
1.0
 40
1.0
 10
5.7072329494
 20
3.9900586826
 30
0.0
 10
5.7072329494
 20
3.9833461472
 30
0.0
 10
5.705341275
 20
3.969702141
 30
0.0
 10
5.6965068932
 20
3.9509064363
 30
0.0
 10
5.6823508763
 20
3.9352080704
 30
0.0
 10
5.6641643466
 20
3.9233193573
 30
0.0
 10
5.6432217744
 20
3.9154426296
 30
0.0
 10
5.620683954
 20
3.9115451026
 30
0.0
 10
5.5977163705
 20
3.911550262
 30
0.0
 10
5.5751806691
 20
3.9154595411
 30
0.0
 10
5.5542462583
 20
3.9233478498
 30
0.0
 10
5.5360614222
 20
3.9352513483
 30
0.0
 10
5.5219117005
 20
3.9509727311
 30
0.0
 10
5.5131109702
 20
3.9697658135
 30
0.0
 10
5.5112329494
 20
3.9833771671
 30
0.0
 10
5.5112329494
 20
3.9900586826
 30
0.0
 11
5.7072329494
 21
3.9900586826
 31
0.0
 11
5.7043875293
 21
3.9701231172
 31
0.0
 11
5.6956973771
 21
3.9515355519
 31
0.0
 11
5.6819267356
 21
3.9360463702
 31
0.0
 11
5.6641498354
 21
3.9242165637
 31
0.0
 11
5.6431372922
 21
3.9161606673
 31
0.0
 11
5.6206787039
 21
3.9122033369
 31
0.0
 11
5.5977263222
 21
3.9122085872
 31
0.0
 11
5.5752568757
 21
3.9161802478
 31
0.0
 11
5.5542625114
 21
3.9242439405
 31
0.0
 11
5.536500826
 21
3.9360793334
 31
0.0
 11
5.5227160505
 21
3.9516147386
 31
0.0
 11
5.5140518071
 21
3.9702133333
 31
0.0
 11
5.5112329494
 21
3.9900586826
 31
0.0
  0
SPLINE
  5
4C7
100
AcDbEntity
  8
0
100
AcDbSpline
 62
7
  6
CONTINUOUS
 70
0
 71
3
 72
20
 73
16
 74
14
 42
0.0000001
 43
0.0000001
 44
0.0000000001
 12
0.0
 22
0.2789786768
 32
0.0
 13
-0.0
 23
-0.2789786768
 33
0.0
 40
0.0
 40
0.0
 40
0.0
 40
0.0
 40
0.0721704641
 40
0.1457422354
 40
0.220070074
 40
0.2966140095
 40
0.3771896417
 40
0.4589261178
 40
0.5412675338
 40
0.623075918
 40
0.7035973541
 40
0.7801166686
 40
0.8546032904
 40
0.9281689984
 40
1.0
 40
1.0
 40
1.0
 40
1.0
 10
5.5112329494
 20
4.3645586826
 30
0.0
 10
5.5112329494
 20
4.3712700228
 30
0.0
 10
5.5131243781
 20
4.384914878
 30
0.0
 10
5.5219606094
 20
4.4037148505
 30
0.0
 10
5.5361225252
 20
4.4194162114
 30
0.0
 10
5.554306955
 20
4.431299613
 30
0.0
 10
5.5752410049
 20
4.439173068
 30
0.0
 10
5.5977759409
 20
4.4430722655
 30
0.0
 10
5.6207511832
 20
4.4430676657
 30
0.0
 10
5.6432861451
 20
4.439156949
 30
0.0
 10
5.6642147314
 20
4.4312709409
 30
0.0
 10
5.6823980497
 20
4.4193722249
 30
0.0
 10
5.6965537405
 20
4.4036468277
 30
0.0
 10
5.705355446
 20
4.3848498437
 30
0.0
 10
5.7072329494
 20
4.3712384552
 30
0.0
 10
5.7072329494
 20
4.3645586826
 30
0.0
 11
5.5112329494
 21
4.3645586826
 31
0.0
 11
5.5140773437
 21
4.3844907724
 31
0.0
 11
5.5227700258
 21
4.4030840797
 31
0.0
 11
5.53654919
 21
4.4185796093
 31
0.0
 11
5.5543285845
 21
4.4304071966
 31
0.0
 11
5.5753179291
 21
4.4384537863
 31
0.0
 11
5.5977743297
 21
4.442412921
 31
0.0
 11
5.6207458285
 21
4.4424082372
 31
0.0
 11
5.6432199563
 21
4.4384341288
 31
0.0
 11
5.664190266
 21
4.4303801364
 31
0.0
 11
5.6819565981
 21
4.4185453221
 31
0.0
 11
5.6957496701
 21
4.403002896
 31
0.0
 11
5.7044155805
 21
4.3843989621
 31
0.0
 11
5.7072329494
 21
4.3645586826
 31
0.0
  0
SPLINE
  5
4C8
100
AcDbEntity
  8
0
100
AcDbSpline
 62
7
  6
CONTINUOUS
 70
0
 71
3
 72
13
 73
9
 74
7
 42
0.0000001
 43
0.0000001
 44
0.0000000001
 12
0.0000379695
 22
-0.1232080892
 32
0.0
 13
0.1227645876
 23
-0.0
 33
0.0
 40
0.0
 40
0.0
 40
0.0
 40
0.0
 40
0.1547831795
 40
0.3102140349
 40
0.4719366493
 40
0.6422047098
 40
0.8193791169
 40
1.0
 40
1.0
 40
1.0
 40
1.0
 10
6.5452329484
 20
3.9913086451
 30
0.0
 10
6.5452349074
 20
3.9849517985
 30
0.0
 10
6.5471449822
 20
3.9721923794
 30
0.0
 10
6.5559850632
 20
3.9546580793
 30
0.0
 10
6.5701306467
 20
3.940196593
 30
0.0
 10
6.5883416109
 20
3.9296311829
 30
0.0
 10
6.6091582758
 20
3.9232736374
 30
0.0
 10
6.6238416667
 20
3.921869176
 30
0.0
 10
6.6312329494
 20
3.921869176
 30
0.0
 11
6.5452329484
 21
3.9913086451
 31
0.0
 11
6.5481121013
 21
3.9725261697
 31
0.0
 11
6.5566510176
 21
3.9554619698
 31
0.0
 11
6.5704140235
 21
3.9411527615
 31
0.0
 11
6.5883995297
 21
3.9305013623
 31
0.0
 11
6.6091643448
 21
3.9240270071
 31
0.0
 11
6.6312329494
 21
3.921869176
 31
0.0
  0
SPLINE
  5
4C9
100
AcDbEntity
  8
0
100
AcDbSpline
 62
7
  6
CONTINUOUS
 70
0
 71
3
 72
19
 73
15
 74
13
 42
0.0000001
 43
0.0000001
 44
0.0000000001
 12
0.0
 22
-0.2222186332
 32
0.0
 13
-0.083531382
 23
0.2067760485
 33
0.0
 40
0.0
 40
0.0
 40
0.0
 40
0.0
 40
0.0790794032
 40
0.1587314059
 40
0.2401733066
 40
0.3255884105
 40
0.4139962057
 40
0.5057201202
 40
0.5988600389
 40
0.6921479596
 40
0.7809519628
 40
0.8665175983
 40
0.9478947059
 40
1.0
 40
1.0
 40
1.0
 40
1.0
 10
4.6072329494
 20
3.9828086826
 30
0.0
 10
4.6072329494
 20
3.9769510436
 30
0.0
 10
4.6056007456
 20
3.965117386
 30
0.0
 10
4.5980795803
 20
3.9487240712
 30
0.0
 10
4.585957861
 20
3.9347644849
 30
0.0
 10
4.5701907546
 20
3.9240028863
 30
0.0
 10
4.5517752211
 20
3.9167062814
 30
0.0
 10
4.5317552095
 20
3.9130054448
 30
0.0
 10
4.511041652
 20
3.9129654756
 30
0.0
 10
4.4908643875
 20
3.9166422195
 30
0.0
 10
4.4722972468
 20
3.9239860813
 30
0.0
 10
4.4565005607
 20
3.934769767
 30
0.0
 10
4.4457327721
 20
3.9471768562
 30
0.0
 10
4.4411465528
 20
3.9560233155
 30
0.0
 10
4.4396957437
 20
3.9596146911
 30
0.0
 11
4.6072329494
 21
3.9828086826
 31
0.0
 11
4.604778004
 21
3.9654080892
 31
0.0
 11
4.5974323231
 21
3.9493041578
 31
0.0
 11
4.5856526051
 21
3.9355647068
 31
0.0
 11
4.5700573795
 21
3.9247452449
 31
0.0
 11
4.5518354933
 21
3.9174020402
 31
0.0
 11
4.5318039668
 21
3.9136344191
 31
0.0
 11
4.5111065812
 21
3.9135938044
 31
0.0
 11
4.4907240242
 21
3.9173749811
 31
0.0
 11
4.4724164219
 21
3.92474103
 31
0.0
 11
4.4567948624
 21
3.9355812176
 31
0.0
 11
4.4450280476
 21
3.9493127648
 31
0.0
 11
4.4396957437
 21
3.9596146911
 31
0.0
  0
SPLINE
  5
4CA
100
AcDbEntity
  8
0
100
AcDbSpline
 62
7
  6
CONTINUOUS
 70
0
 71
3
 72
13
 73
9
 74
7
 42
0.0000001
 43
0.0000001
 44
0.0000000001
 12
0.1227646316
 22
0.0
 32
0.0
 13
0.0000380759
 23
0.1232083417
 33
0.0
 40
0.0
 40
0.0
 40
0.0
 40
0.0
 40
0.1807323438
 40
0.3578580915
 40
0.5280855128
 40
0.6897957046
 40
0.845250671
 40
1.0
 40
1.0
 40
1.0
 40
1.0
 10
6.6312329494
 20
3.921869176
 30
0.0
 10
6.638628796
 20
3.921869176
 30
0.0
 10
6.6533148556
 20
3.9232747471
 30
0.0
 10
6.6741316322
 20
3.9296347735
 30
0.0
 10
6.6923382032
 20
3.9401992308
 30
0.0
 10
6.7064824938
 20
3.9546602489
 30
0.0
 10
6.7153214458
 20
3.9721942179
 30
0.0
 10
6.7172309839
 20
3.984953265
 30
0.0
 10
6.717232948
 20
3.9913087344
 30
0.0
 11
6.6312329494
 21
3.921869176
 31
0.0
 11
6.6533150474
 21
3.9240296999
 31
0.0
 11
6.6740734802
 21
3.930504482
 31
0.0
 11
6.6920540399
 21
3.9411544572
 31
0.0
 11
6.7058155868
 21
3.9554629628
 31
0.0
 11
6.7143550749
 21
3.9725301941
 31
0.0
 11
6.717232948
 21
3.9913087344
 31
0.0
  0
SPLINE
  5
4CB
100
AcDbEntity
  8
0
100
AcDbSpline
 62
7
  6
CONTINUOUS
 70
0
 71
3
 72
19
 73
15
 74
13
 42
0.0000001
 43
0.0000001
 44
0.0000000001
 12
0.0835397705
 22
0.2067679555
 32
0.0
 13
0.0
 23
-0.2222157676
 33
0.0
 40
0.0
 40
0.0
 40
0.0
 40
0.0
 40
0.0520847612
 40
0.1334966788
 40
0.2188796418
 40
0.3072157137
 40
0.3987900994
 40
0.4921994211
 40
0.5856639566
 40
0.6744875846
 40
0.7600257908
 40
0.8413666862
 40
0.9210265585
 40
1.0
 40
1.0
 40
1.0
 40
1.0
 10
4.4396968731
 20
4.3950055475
 30
0.0
 10
4.4411472561
 20
4.3985953674
 30
0.0
 10
4.4457339741
 20
4.4074424688
 30
0.0
 10
4.4564939382
 20
4.419839715
 30
0.0
 10
4.4722494169
 20
4.4306000513
 30
0.0
 10
4.4906443532
 20
4.4378962971
 30
0.0
 10
4.5106651834
 20
4.4416086276
 30
0.0
 10
4.5314012939
 20
4.4416569295
 30
0.0
 10
4.5516128055
 20
4.4379735173
 30
0.0
 10
4.5701896387
 20
4.4306202898
 30
0.0
 10
4.5859801083
 20
4.4198338318
 30
0.0
 10
4.5980955155
 20
4.40586689
 30
0.0
 10
4.6056041352
 20
4.3894843175
 30
0.0
 10
4.6072329494
 20
4.3776583972
 30
0.0
 10
4.6072329494
 20
4.3718086826
 30
0.0
 11
4.4396968731
 21
4.3950055475
 31
0.0
 11
4.4450271178
 21
4.4053031525
 31
0.0
 11
4.456799218
 21
4.4190400504
 31
0.0
 11
4.4723853007
 21
4.4298597304
 31
0.0
 11
4.4905895114
 21
4.4372034748
 31
0.0
 11
4.510586065
 21
4.440975839
 31
0.0
 11
4.5313430308
 21
4.4410250148
 31
0.0
 11
4.551763789
 21
4.4372360587
 31
0.0
 11
4.5700732574
 21
4.4298636485
 31
0.0
 11
4.5856863667
 21
4.4190224063
 31
0.0
 11
4.5974444668
 21
4.4052942963
 31
0.0
 11
4.6047847057
 21
4.3891862128
 31
0.0
 11
4.6072329494
 21
4.3718086826
 31
0.0
  0
SPLINE
  5
4CC
100
AcDbEntity
  8
0
100
AcDbSpline
 62
7
  6
CONTINUOUS
 70
0
 71
3
 72
20
 73
16
 74
14
 42
0.0000001
 43
0.0000001
 44
0.0000000001
 12
0.0
 22
0.2456357095
 32
0.0
 13
-0.0
 23
-0.2456357095
 33
0.0
 40
0.0
 40
0.0
 40
0.0
 40
0.0
 40
0.0711786943
 40
0.1427874948
 40
0.2159650222
 40
0.2927562071
 40
0.3721716877
 40
0.4547607087
 40
0.5408342903
 40
0.6261880611
 40
0.7065020821
 40
0.7833171139
 40
0.8563965511
 40
0.9286199096
 40
1.0
 40
1.0
 40
1.0
 40
1.0
 10
6.6852329494
 20
4.3633086826
 30
0.0
 10
6.6852329494
 20
4.3691366923
 30
0.0
 10
6.6868473945
 20
4.3809034198
 30
0.0
 10
6.6943029269
 20
4.3972067488
 30
0.0
 10
6.7063307688
 20
4.4110908888
 30
0.0
 10
6.721979785
 20
4.4217982814
 30
0.0
 10
6.7402702161
 20
4.429084859
 30
0.0
 10
6.7603453408
 20
4.4328624346
 30
0.0
 10
6.7812585592
 20
4.4329598734
 30
0.0
 10
6.8016639383
 20
4.4292659322
 30
0.0
 10
6.8202623514
 20
4.4219250425
 30
0.0
 10
6.8359916421
 20
4.4112152166
 30
0.0
 10
6.8480876145
 20
4.3973333214
 30
0.0
 10
6.8556047423
 20
4.3809874257
 30
0.0
 10
6.8572329494
 20
4.3691531823
 30
0.0
 10
6.8572329494
 20
4.3633086826
 30
0.0
 11
6.6852329494
 21
4.3633086826
 31
0.0
 11
6.6876662607
 21
4.3806225576
 31
0.0
 11
6.6949486301
 21
4.396633925
 31
0.0
 11
6.7066323341
 21
4.4102938
 31
0.0
 11
6.7221168216
 21
4.4210655447
 31
0.0
 11
6.7401956339
 21
4.4283929205
 31
0.0
 11
6.7601202861
 21
4.4322090714
 31
0.0
 11
6.7812627933
 21
4.4323094172
 31
0.0
 11
6.8018808453
 21
4.4285059557
 31
0.0
 11
6.8201869755
 21
4.4211520963
 31
0.0
 11
6.8357009394
 21
4.4104125537
 31
0.0
 11
6.847407749
 21
4.3968042431
 31
0.0
 11
6.8547857061
 21
4.3806705544
 31
0.0
 11
6.8572329494
 21
4.3633086826
 31
0.0
  0
ENDSEC
  0
SECTION
  2
OBJECTS
  0
DICTIONARY
  5
C
100
AcDbDictionary
280
0
281
1
  3
ACAD_GROUP
350
D
  3
ACAD_MLINESTYLE
350
17
  3
ACAD_LAYOUT
350
1A
  3
ACAD_PLOTSETTINGS
350
19
  3
ACAD_PLOTSTYLENAME
350
E
  0
DICTIONARY
  5
D
102
{ACAD_REACTORS
330
C
102
}
100
AcDbDictionary
280
0
281
1
  0
ACDBDICTIONARYWDFLT
  5
E
102
{ACAD_REACTORS
330
C
102
}
100
AcDbDictionary
281
1
  3
Normal
350
F
100
AcDbDictionaryWithDefault
340
F
  0
DICTIONARY
  5
17
102
{ACAD_REACTORS
330
C
102
}
100
AcDbDictionary
280
0
281
1
  3
Standard
350
18
  0
DICTIONARY
  5
19
102
{ACAD_REACTORS
330
C
102
}
100
AcDbDictionary
281
1
  0
DICTIONARY
  5
1A
102
{ACAD_REACTORS
330
C
102
}
100
AcDbDictionary
281
1
  3
Layout1
350
1E
  3
Model
350
22
  0
ACDBPLACEHOLDER
  5
F
102
{ACAD_REACTORS
330
E
102
}
  0
MLINESTYLE
  5
18
102
{ACAD_REACTORS
330
17
102
}
100
AcDbMlineStyle
  2
STANDARD
 70
0
  3

 62
256
 51
90.0
 52
90.0
 71
2
 49
0.5
 62
256
  6
BYLAYER
 49
-0.5
 62
256
  6
BYLAYER
  0
LAYOUT
  5
1E
102
{ACAD_REACTORS
330
1A
102
}
100
AcDbPlotSettings
  1

  2

  4

  6

 40
0.0
 41
0.0
 42
0.0
 43
0.0
 44
0.0
 45
0.0
 46
0.0
 47
0.0
 48
0.0
 49
0.0
140
0.0
141
0.0
142
1.0
143
1.0
 70
0
 72
0
 73
0
 74
0
  7

 75
0
147
1.0
148
0.0
149
0.0
100
AcDbLayout
  1
Layout1
 70
0
 71
0
 10
0.0
 20
0.0
 11
0.0
 21
0.0
 12
0.0
 22
0.0
 32
0.0
 14
0.0
 24
0.0
 34
0.0
 15
0.0
 25
0.0
 35
0.0
146
0.0
 13
0.0
 23
0.0
 33
0.0
 16
0.0
 26
0.0
 36
0.0
 17
0.0
 27
0.0
 37
0.0
 76
0
330
1B
331
0
345
0
346
0
  0
LAYOUT
  5
22
102
{ACAD_REACTORS
330
1A
102
}
100
AcDbPlotSettings
  1

  2

  4

  6

 40
0.0
 41
0.0
 42
0.0
 43
0.0
 44
0.0
 45
0.0
 46
0.0
 47
0.0
 48
0.0
 49
0.0
140
0.0
141
0.0
142
1.0
143
1.0
 70
0
 72
0
 73
0
 74
0
  7

 75
0
147
1.0
148
0.0
149
0.0
100
AcDbLayout
  1
Model
 70
0
 71
0
 10
0.0
 20
0.0
 11
0.0
 21
0.0
 12
0.0
 22
0.0
 32
0.0
 14
0.0
 24
0.0
 34
0.0
 15
0.0
 25
0.0
 35
0.0
146
0.0
 13
0.0
 23
0.0
 33
0.0
 16
0.0
 26
0.0
 36
0.0
 17
0.0
 27
0.0
 37
0.0
 76
0
330
1F
331
0
345
0
346
0
  0
ENDSEC
  0
EOF
