999
DXF file: FSCS-XAN.dxf
999
Pro/ENGINEER 2006240 by Parametric Technology Corporation
  0
SECTION
  2
HEADER
  9
$ACADVER
  1
AC1015
  9
$DWGCODEPAGE
  3
ANSI_1252
  9
$EXTMAX
 10
11.6929133858
 20
8.2677165354
 30
0.0
  9
$EXTMIN
 10
0.0
 20
0.0
 30
0.0
  9
$LIMMIN
 10
0.0
 20
0.0
  9
$LIMMAX
 10
11.6929133858
 20
8.2677165354
  9
$VIEWCTR
 10
5.8464566929
 20
4.1338582677
  9
$VIEWSIZE
 40
8.2677165354
  9
$CLAYER
  8
0
  9
$LTSCALE
 40
0.6431102362
  9
$CELTYPE
  6
BYLAYER
  9
$DIMSCALE
 40
1.0
  9
$DIMASZ
 40
0.1875
  9
$DIMEXO
 40
0.0730807087
  9
$DIMDLI
 40
0.4443307087
  9
$DIMEXE
 40
0.2104724409
  9
$DIMCEN
 40
0.1052362205
  9
$DIMLFAC
 40
1.0
  9
$DIMBLK
  1
_CLOSED
  9
$DIMTXT
 40
0.15625
  9
$DIMTOL
 70
0
  9
$DIMLIM
 70
0
  9
$DIMTFAC
 40
1.0
  9
$PDMODE
 70
3
  9
$PDSIZE
 40
0.3125
  9
$HANDSEED
  5
4A0
  9
$MEASUREMENT
 70
0
  9
$INSUNITS
 70
1
  0
ENDSEC
  0
SECTION
  2
CLASSES
  0
CLASS
  1
ACDBDICTIONARYWDFLT
  2
AcDbDictionaryWithDefault
  3
AutoCAD 2000
 90
0
280
0
281
0
  0
CLASS
  1
ACDBPLACEHOLDER
  2
AcDbPlaceHolder
  3
AutoCAD 2000
 90
0
280
0
281
0
  0
CLASS
  1
LAYOUT
  2
AcDbLayout
  3
AutoCAD 2000
 90
0
280
0
281
0
  0
ENDSEC
  0
SECTION
  2
TABLES
  0
TABLE
  2
VPORT
  5
8
100
AcDbSymbolTable
 70
2
  0
VPORT
  5
1F4
100
AcDbSymbolTableRecord
100
AcDbViewportTableRecord
  2
*ACTIVE
 70
0
 10
0.0
 20
0.0
 11
1.0
 21
1.0
 12
5.8464566929
 22
4.1338582677
 13
0.0
 23
0.0
 14
1.0
 24
1.0
 15
0.0
 25
0.0
 16
0.0
 26
0.0
 36
1.0
 17
0.0
 27
0.0
 37
0.0
 40
8.2677165354
 41
1.4142857143
 42
50.0
 43
0.0
 44
0.0
 50
0.0
 51
0.0
 71
0
 72
100
 73
1
 74
1
 75
0
 76
0
 77
0
 78
0
  0
ENDTAB
  0
TABLE
  2
LTYPE
  5
5
100
AcDbSymbolTable
 70
6
  0
LTYPE
  5
14
100
AcDbSymbolTableRecord
100
AcDbLinetypeTableRecord
  2
BYBLOCK
 70
0
  3

 72
65
 73
0
 40
0.0
  0
LTYPE
  5
15
100
AcDbSymbolTableRecord
100
AcDbLinetypeTableRecord
  2
BYLAYER
 70
0
  3

 72
65
 73
0
 40
0.0
  0
LTYPE
  5
16
100
AcDbSymbolTableRecord
100
AcDbLinetypeTableRecord
  2
CONTINUOUS
 70
64
  3
Solid line
 72
65
 73
0
 40
0.0
  0
LTYPE
  5
1F5
100
AcDbSymbolTableRecord
100
AcDbLinetypeTableRecord
  2
CENTER
 70
64
  3
____ _ ____ _ ____ _ ____ _ ____ _ ____ _ ____
 72
65
 73
4
 40
0.6
 49
0.375
 74
0
 49
-0.075
 74
0
 49
0.075
 74
0
 49
-0.075
 74
0
  0
LTYPE
  5
1F6
100
AcDbSymbolTableRecord
100
AcDbLinetypeTableRecord
  2
HIDDEN
 70
64
  3
- - - - - - - - - - - - - - - - - - - -
 72
65
 73
2
 40
0.2
 49
0.1
 74
0
 49
-0.1
 74
0
  0
LTYPE
  5
1F7
100
AcDbSymbolTableRecord
100
AcDbLinetypeTableRecord
  2
PHANTOM
 70
64
  3
_____ _ _ _____ _ _ _____ _ _ _____
 72
65
 73
6
 40
0.8
 49
0.45
 74
0
 49
-0.05
 74
0
 49
0.1
 74
0
 49
-0.05
 74
0
 49
0.1
 74
0
 49
-0.05
 74
0
  0
LTYPE
  5
1F8
100
AcDbSymbolTableRecord
100
AcDbLinetypeTableRecord
  2
DOT
 70
64
  3
. . . . . . . . . . . . . . . . . . . .
 72
65
 73
2
 40
0.2
 49
0.1
 74
0
 49
-0.1
 74
0
  0
LTYPE
  5
1F9
100
AcDbSymbolTableRecord
100
AcDbLinetypeTableRecord
  2
DASHED
 70
64
  3
- - - - - - - - - - - - - - - - - - - -
 72
65
 73
2
 40
0.2
 49
0.1
 74
0
 49
-0.1
 74
0
  0
ENDTAB
  0
TABLE
  2
LAYER
  5
2
100
AcDbSymbolTable
 70
36
  0
LAYER
  5
10
100
AcDbSymbolTableRecord
100
AcDbLayerTableRecord
  2
0
 70
0
 62
7
  6
CONTINUOUS
370
-3
390
F
  0
LAYER
  5
1FA
100
AcDbSymbolTableRecord
100
AcDbLayerTableRecord
  2
DEFAULT_1
 70
0
 62
7
  6
CENTER
370
-3
390
F
  0
LAYER
  5
1FB
100
AcDbSymbolTableRecord
100
AcDbLayerTableRecord
  2
DEFAULT_2
 70
0
 62
8
  6
HIDDEN
370
-3
390
F
  0
LAYER
  5
1FC
100
AcDbSymbolTableRecord
100
AcDbLayerTableRecord
  2
DEFAULT_3
 70
0
 62
7
  6
PHANTOM
370
-3
390
F
  0
LAYER
  5
1FD
100
AcDbSymbolTableRecord
100
AcDbLayerTableRecord
  2
_BLACK_HOLE
 70
0
 62
7
  6
CONTINUOUS
370
-3
390
F
  0
LAYER
  5
1FE
100
AcDbSymbolTableRecord
100
AcDbLayerTableRecord
  2
01_ALL_DTM_PLN
 70
0
 62
7
  6
CONTINUOUS
370
-3
390
F
  0
LAYER
  5
1FF
100
AcDbSymbolTableRecord
100
AcDbLayerTableRecord
  2
01__ASM_ALL_DTM_PLN
 70
0
 62
7
  6
CONTINUOUS
370
-3
390
F
  0
LAYER
  5
200
100
AcDbSymbolTableRecord
100
AcDbLayerTableRecord
  2
01__ASM_DEF_DTM_PLN
 70
0
 62
7
  6
CONTINUOUS
370
-3
390
F
  0
LAYER
  5
201
100
AcDbSymbolTableRecord
100
AcDbLayerTableRecord
  2
01___PRT_ALL_DTM_PLN
 70
0
 62
7
  6
CONTINUOUS
370
-3
390
F
  0
LAYER
  5
202
100
AcDbSymbolTableRecord
100
AcDbLayerTableRecord
  2
01___PRT_DEF_DTM_PLN
 70
0
 62
7
  6
CONTINUOUS
370
-3
390
F
  0
LAYER
  5
203
100
AcDbSymbolTableRecord
100
AcDbLayerTableRecord
  2
02_ALL_AXES
 70
0
 62
7
  6
CONTINUOUS
370
-3
390
F
  0
LAYER
  5
204
100
AcDbSymbolTableRecord
100
AcDbLayerTableRecord
  2
02__ASM_ALL_AXES
 70
0
 62
7
  6
CONTINUOUS
370
-3
390
F
  0
LAYER
  5
205
100
AcDbSymbolTableRecord
100
AcDbLayerTableRecord
  2
02___PRT_ALL_AXES
 70
0
 62
7
  6
CONTINUOUS
370
-3
390
F
  0
LAYER
  5
206
100
AcDbSymbolTableRecord
100
AcDbLayerTableRecord
  2
03_ALL_CURVES
 70
0
 62
7
  6
CONTINUOUS
370
-3
390
F
  0
LAYER
  5
207
100
AcDbSymbolTableRecord
100
AcDbLayerTableRecord
  2
03__ASM_ALL_CURVES
 70
0
 62
7
  6
CONTINUOUS
370
-3
390
F
  0
LAYER
  5
208
100
AcDbSymbolTableRecord
100
AcDbLayerTableRecord
  2
03___PRT_ALL_CURVES
 70
0
 62
7
  6
CONTINUOUS
370
-3
390
F
  0
LAYER
  5
209
100
AcDbSymbolTableRecord
100
AcDbLayerTableRecord
  2
04_ALL_DTM_PNT
 70
0
 62
7
  6
CONTINUOUS
370
-3
390
F
  0
LAYER
  5
20A
100
AcDbSymbolTableRecord
100
AcDbLayerTableRecord
  2
04__ASM_ALL_DTM_PNT
 70
0
 62
7
  6
CONTINUOUS
370
-3
390
F
  0
LAYER
  5
20B
100
AcDbSymbolTableRecord
100
AcDbLayerTableRecord
  2
04___PRT_ALL_DTM_PNT
 70
0
 62
7
  6
CONTINUOUS
370
-3
390
F
  0
LAYER
  5
20C
100
AcDbSymbolTableRecord
100
AcDbLayerTableRecord
  2
05_ALL_DTM_CSYS
 70
0
 62
7
  6
CONTINUOUS
370
-3
390
F
  0
LAYER
  5
20D
100
AcDbSymbolTableRecord
100
AcDbLayerTableRecord
  2
05__ASM_ALL_DTM_CSYS
 70
0
 62
7
  6
CONTINUOUS
370
-3
390
F
  0
LAYER
  5
20E
100
AcDbSymbolTableRecord
100
AcDbLayerTableRecord
  2
05__ASM_DEF_DTM_CSYS
 70
0
 62
7
  6
CONTINUOUS
370
-3
390
F
  0
LAYER
  5
20F
100
AcDbSymbolTableRecord
100
AcDbLayerTableRecord
  2
05___PRT_ALL_DTM_CSYS
 70
0
 62
7
  6
CONTINUOUS
370
-3
390
F
  0
LAYER
  5
210
100
AcDbSymbolTableRecord
100
AcDbLayerTableRecord
  2
05___PRT_DEF_DTM_CSYS
 70
0
 62
7
  6
CONTINUOUS
370
-3
390
F
  0
LAYER
  5
211
100
AcDbSymbolTableRecord
100
AcDbLayerTableRecord
  2
06_ALL_SURFS
 70
0
 62
7
  6
CONTINUOUS
370
-3
390
F
  0
LAYER
  5
212
100
AcDbSymbolTableRecord
100
AcDbLayerTableRecord
  2
06__ASM_ALL_SURFS
 70
0
 62
7
  6
CONTINUOUS
370
-3
390
F
  0
LAYER
  5
213
100
AcDbSymbolTableRecord
100
AcDbLayerTableRecord
  2
06___PRT_ALL_SURFS
 70
0
 62
7
  6
CONTINUOUS
370
-3
390
F
  0
LAYER
  5
214
100
AcDbSymbolTableRecord
100
AcDbLayerTableRecord
  2
07__ASM_ALL_SKELETONS
 70
0
 62
7
  6
CONTINUOUS
370
-3
390
F
  0
LAYER
  5
215
100
AcDbSymbolTableRecord
100
AcDbLayerTableRecord
  2
126-002_HEX_FEATURES
 70
0
 62
7
  6
CONTINUOUS
370
-3
390
F
  0
LAYER
  5
216
100
AcDbSymbolTableRecord
100
AcDbLayerTableRecord
  2
126-002_REF_GEOMETRY
 70
0
 62
7
  6
CONTINUOUS
370
-3
390
F
  0
LAYER
  5
217
100
AcDbSymbolTableRecord
100
AcDbLayerTableRecord
  2
126-100_HEX_FEATURES
 70
0
 62
7
  6
CONTINUOUS
370
-3
390
F
  0
LAYER
  5
218
100
AcDbSymbolTableRecord
100
AcDbLayerTableRecord
  2
126-100_REF_GEOMETRY
 70
0
 62
7
  6
CONTINUOUS
370
-3
390
F
  0
LAYER
  5
219
100
AcDbSymbolTableRecord
100
AcDbLayerTableRecord
  2
126-101_HEX_FEATURES
 70
0
 62
7
  6
CONTINUOUS
370
-3
390
F
  0
LAYER
  5
21A
100
AcDbSymbolTableRecord
100
AcDbLayerTableRecord
  2
126-101_REF_GEOMETRY
 70
0
 62
7
  6
CONTINUOUS
370
-3
390
F
  0
LAYER
  5
21B
100
AcDbSymbolTableRecord
100
AcDbLayerTableRecord
  2
126-102_HEX_FEATURES
 70
0
 62
7
  6
CONTINUOUS
370
-3
390
F
  0
LAYER
  5
21C
100
AcDbSymbolTableRecord
100
AcDbLayerTableRecord
  2
126-102_REF_GEOMETRY
 70
0
 62
7
  6
CONTINUOUS
370
-3
390
F
  0
LAYER
  5
21D
100
AcDbSymbolTableRecord
100
AcDbLayerTableRecord
  2
126-103_HEX_FEATURES
 70
0
 62
7
  6
CONTINUOUS
370
-3
390
F
  0
LAYER
  5
21E
100
AcDbSymbolTableRecord
100
AcDbLayerTableRecord
  2
126-103_REF_GEOMETRY
 70
0
 62
7
  6
CONTINUOUS
370
-3
390
F
  0
LAYER
  5
21F
100
AcDbSymbolTableRecord
100
AcDbLayerTableRecord
  2
126-104_HEX_FEATURES
 70
0
 62
7
  6
CONTINUOUS
370
-3
390
F
  0
LAYER
  5
220
100
AcDbSymbolTableRecord
100
AcDbLayerTableRecord
  2
126-104_REF_GEOMETRY
 70
0
 62
7
  6
CONTINUOUS
370
-3
390
F
  0
LAYER
  5
221
100
AcDbSymbolTableRecord
100
AcDbLayerTableRecord
  2
250-19_BSPP_PORT_PER_S-186
 70
0
 62
7
  6
CONTINUOUS
370
-3
390
F
  0
LAYER
  5
222
100
AcDbSymbolTableRecord
100
AcDbLayerTableRecord
  2
COPY_GEO_FET
 70
0
 62
7
  6
CONTINUOUS
370
-3
390
F
  0
LAYER
  5
223
100
AcDbSymbolTableRecord
100
AcDbLayerTableRecord
  2
COSMESTIC
 70
0
 62
7
  6
CONTINUOUS
370
-3
390
F
  0
LAYER
  5
224
100
AcDbSymbolTableRecord
100
AcDbLayerTableRecord
  2
COSMETIC
 70
0
 62
7
  6
CONTINUOUS
370
-3
390
F
  0
LAYER
  5
225
100
AcDbSymbolTableRecord
100
AcDbLayerTableRecord
  2
CURVES
 70
0
 62
7
  6
CONTINUOUS
370
-3
390
F
  0
LAYER
  5
226
100
AcDbSymbolTableRecord
100
AcDbLayerTableRecord
  2
CUT_REF_SURF
 70
0
 62
7
  6
CONTINUOUS
370
-3
390
F
  0
LAYER
  5
227
100
AcDbSymbolTableRecord
100
AcDbLayerTableRecord
  2
DATUM
 70
0
 62
7
  6
CONTINUOUS
370
-3
390
F
  0
LAYER
  5
228
100
AcDbSymbolTableRecord
100
AcDbLayerTableRecord
  2
DATUMCURVES
 70
0
 62
7
  6
CONTINUOUS
370
-3
390
F
  0
LAYER
  5
229
100
AcDbSymbolTableRecord
100
AcDbLayerTableRecord
  2
DIMENSIONS
 70
0
 62
7
  6
CONTINUOUS
370
-3
390
F
  0
LAYER
  5
22A
100
AcDbSymbolTableRecord
100
AcDbLayerTableRecord
  2
DTM
 70
0
 62
7
  6
CONTINUOUS
370
-3
390
F
  0
LAYER
  5
22B
100
AcDbSymbolTableRecord
100
AcDbLayerTableRecord
  2
DTM230
 70
0
 62
7
  6
CONTINUOUS
370
-3
390
F
  0
LAYER
  5
22C
100
AcDbSymbolTableRecord
100
AcDbLayerTableRecord
  2
DTM_500001
 70
0
 62
7
  6
CONTINUOUS
370
-3
390
F
  0
LAYER
  5
22D
100
AcDbSymbolTableRecord
100
AcDbLayerTableRecord
  2
DTM_500002
 70
0
 62
7
  6
CONTINUOUS
370
-3
390
F
  0
LAYER
  5
22E
100
AcDbSymbolTableRecord
100
AcDbLayerTableRecord
  2
DTM_515002
 70
0
 62
7
  6
CONTINUOUS
370
-3
390
F
  0
LAYER
  5
22F
100
AcDbSymbolTableRecord
100
AcDbLayerTableRecord
  2
DTM_SPRING_RH
 70
0
 62
7
  6
CONTINUOUS
370
-3
390
F
  0
LAYER
  5
230
100
AcDbSymbolTableRecord
100
AcDbLayerTableRecord
  2
DTM_SP_RH_CONSTR
 70
0
 62
7
  6
CONTINUOUS
370
-3
390
F
  0
LAYER
  5
231
100
AcDbSymbolTableRecord
100
AcDbLayerTableRecord
  2
DTM_WIRE
 70
0
 62
7
  6
CONTINUOUS
370
-3
390
F
  0
LAYER
  5
232
100
AcDbSymbolTableRecord
100
AcDbLayerTableRecord
  2
GEOMETRICTOLERANCES
 70
0
 62
7
  6
CONTINUOUS
370
-3
390
F
  0
LAYER
  5
233
100
AcDbSymbolTableRecord
100
AcDbLayerTableRecord
  2
PARAMETERDIMENSIONS
 70
0
 62
7
  6
CONTINUOUS
370
-3
390
F
  0
LAYER
  5
234
100
AcDbSymbolTableRecord
100
AcDbLayerTableRecord
  2
PLANE
 70
0
 62
7
  6
CONTINUOUS
370
-3
390
F
  0
LAYER
  5
235
100
AcDbSymbolTableRecord
100
AcDbLayerTableRecord
  2
STD_SAE-4_PORT
 70
0
 62
7
  6
CONTINUOUS
370
-3
390
F
  0
LAYER
  5
236
100
AcDbSymbolTableRecord
100
AcDbLayerTableRecord
  2
STD_SAE-6_PORT
 70
0
 62
7
  6
CONTINUOUS
370
-3
390
F
  0
LAYER
  5
237
100
AcDbSymbolTableRecord
100
AcDbLayerTableRecord
  2
T-8A_CAVITY
 70
0
 62
7
  6
CONTINUOUS
370
-3
390
F
  0
LAYER
  5
238
100
AcDbSymbolTableRecord
100
AcDbLayerTableRecord
  2
T-8A_CAVITY_REF_GEOMETRY
 70
0
 62
7
  6
CONTINUOUS
370
-3
390
F
  0
LAYER
  5
239
100
AcDbSymbolTableRecord
100
AcDbLayerTableRecord
  2
TEXT
 70
0
 62
7
  6
CONTINUOUS
370
-3
390
F
  0
LAYER
  5
23A
100
AcDbSymbolTableRecord
100
AcDbLayerTableRecord
  2
THREAD
 70
0
 62
7
  6
CONTINUOUS
370
-3
390
F
  0
LAYER
  5
23B
100
AcDbSymbolTableRecord
100
AcDbLayerTableRecord
  2
XSEC_DATUMS
 70
0
 62
7
  6
CONTINUOUS
370
-3
390
F
  0
ENDTAB
  0
TABLE
  2
STYLE
  5
3
100
AcDbSymbolTable
 70
1
  0
STYLE
  5
11
100
AcDbSymbolTableRecord
100
AcDbTextStyleTableRecord
  2
STANDARD
 70
0
 40
0.0
 41
0.8
 50
0.0
 71
0
 42
0.2
  3
txt
  4

  0
ENDTAB
  0
TABLE
  2
VIEW
  5
6
100
AcDbSymbolTable
 70
0
  0
ENDTAB
  0
TABLE
  2
UCS
  5
7
100
AcDbSymbolTable
 70
0
  0
ENDTAB
  0
TABLE
  2
APPID
  5
9
100
AcDbSymbolTable
 70
1
  0
APPID
  5
23C
100
AcDbSymbolTableRecord
100
AcDbRegAppTableRecord
  2
ACAD
 70
0
  0
ENDTAB
  0
TABLE
  2
BLOCK_RECORD
  5
1
100
AcDbSymbolTable
 70
0
  0
BLOCK_RECORD
  5
1F
100
AcDbSymbolTableRecord
100
AcDbBlockTableRecord
  2
*MODEL_SPACE
  0
BLOCK_RECORD
  5
1B
100
AcDbSymbolTableRecord
100
AcDbBlockTableRecord
  2
*PAPER_SPACE
  0
ENDTAB
  0
TABLE
  2
DIMSTYLE
  5
A
100
AcDbSymbolTable
 70
1
100
AcDbDimStyleTable
 71
0
  0
DIMSTYLE
105
23D
100
AcDbSymbolTableRecord
100
AcDbDimStyleTableRecord
  2
STANDARD
 70
0
  3

  4

 40
1.0
 41
0.1875
 42
0.0625
 43
0.38
 44
0.18
 45
0.0
 46
0.0
 47
0.01
 48
0.01
140
0.15625
141
0.09
142
0.0
143
25.4
144
1.0
145
0.0
146
1.0
147
0.09
 71
0.0
 72
0.0
 73
1
 74
1
 75
0
 76
0
 77
0
 78
4
170
0
171
2
172
0
173
0
174
0
175
0
176
0
177
0
178
0
270
2
271
2
272
2
273
2
274
2
275
0
280
0
281
0
282
0
283
1
284
4
285
0
286
0
287
3
288
0
340
11
  0
ENDTAB
  0
ENDSEC
  0
SECTION
  2
BLOCKS
  0
BLOCK
  5
20
100
AcDbEntity
  8
0
100
AcDbBlockBegin
  2
*MODEL_SPACE
 70
0
 10
0.0
 20
0.0
 30
0.0
  3
*MODEL_SPACE
  1

  0
ENDBLK
  5
21
100
AcDbEntity
  8
0
100
AcDbBlockEnd
  0
BLOCK
  5
1C
100
AcDbEntity
  8
0
100
AcDbBlockBegin
  2
*PAPER_SPACE
 70
0
 10
0.0
 20
0.0
 30
0.0
  3
*PAPER_SPACE
  1

  0
ENDBLK
  5
1D
100
AcDbEntity
  8
0
100
AcDbBlockEnd
  0
ENDSEC
  0
SECTION
  2
ENTITIES
  0
LINE
  5
23E
100
AcDbEntity
  8
THREAD
100
AcDbLine
 62
7
  6
CONTINUOUS
 10
3.482611387
 20
3.7933509326
 11
3.482611387
 21
4.6533509326
  0
LINE
  5
23F
100
AcDbEntity
  8
03__ASM_ALL_CURVES
100
AcDbLine
 62
40
  6
CONTINUOUS
 10
3.482611387
 20
4.6533509326
 11
3.482611387
 21
4.9021989326
  0
LINE
  5
240
100
AcDbEntity
  8
THREAD
100
AcDbLine
 62
7
  6
CONTINUOUS
 10
3.5166750529
 20
3.7343509326
 11
3.5166750529
 21
3.7352484601
  0
LINE
  5
241
100
AcDbEntity
  8
THREAD
100
AcDbLine
 62
7
  6
CONTINUOUS
 10
3.5166750529
 20
3.9536534051
 11
3.5166750529
 21
4.0049459876
  0
LINE
  5
242
100
AcDbEntity
  8
THREAD
100
AcDbLine
 62
7
  6
CONTINUOUS
 10
3.5166750529
 20
4.4417558776
 11
3.5166750529
 21
4.4930484601
  0
LINE
  5
243
100
AcDbEntity
  8
THREAD
100
AcDbLine
 62
7
  6
CONTINUOUS
 10
3.5166750529
 20
4.7114534051
 11
3.5166750529
 21
4.7123509326
  0
LINE
  5
244
100
AcDbEntity
  8
03__ASM_ALL_CURVES
100
AcDbLine
 62
40
  6
CONTINUOUS
 10
3.525751387
 20
4.8950089326
 11
3.525751387
 21
4.8806289326
  0
LINE
  5
245
100
AcDbEntity
  8
03__ASM_ALL_CURVES
100
AcDbLine
 62
40
  6
CONTINUOUS
 10
3.631126387
 20
4.9309589335
 11
3.633822637
 21
4.9381489317
  0
LINE
  5
246
100
AcDbEntity
  8
03__ASM_ALL_CURVES
100
AcDbLine
 62
40
  6
CONTINUOUS
 10
3.652696387
 20
4.916578933
 11
3.650000137
 21
4.9093889328
  0
LINE
  5
247
100
AcDbEntity
  8
THREAD
100
AcDbLine
 62
7
  6
CONTINUOUS
 10
3.5166750529
 20
3.7343509326
 11
3.482611387
 21
3.7933509326
  0
LINE
  5
248
100
AcDbEntity
  8
03__ASM_ALL_CURVES
100
AcDbLine
 62
40
  6
CONTINUOUS
 10
3.631126387
 20
4.916578933
 11
3.631126387
 21
4.9309589335
  0
LINE
  5
249
100
AcDbEntity
  8
03__ASM_ALL_CURVES
100
AcDbLine
 62
40
  6
CONTINUOUS
 10
3.652696387
 20
4.9309589335
 11
3.652696387
 21
4.916578933
  0
LINE
  5
24A
100
AcDbEntity
  8
03__ASM_ALL_CURVES
100
AcDbLine
 62
40
  6
CONTINUOUS
 10
3.682355137
 20
4.9021989326
 11
3.682355137
 21
4.9057939327
  0
LINE
  5
24B
100
AcDbEntity
  8
03__ASM_ALL_CURVES
100
AcDbLine
 62
40
  6
CONTINUOUS
 10
3.728191387
 20
4.9021989326
 11
3.730887637
 21
4.9201739322
  0
LINE
  5
24C
100
AcDbEntity
  8
03__ASM_ALL_CURVES
100
AcDbLine
 62
40
  6
CONTINUOUS
 10
3.765938887
 20
4.9453389326
 11
3.763242637
 21
4.9273639317
  0
LINE
  5
24D
100
AcDbEntity
  8
03__ASM_ALL_CURVES
100
AcDbLine
 62
40
  6
CONTINUOUS
 10
3.730887637
 20
4.9201739322
 11
3.733583887
 21
4.9309589335
  0
LINE
  5
24E
100
AcDbEntity
  8
03__ASM_ALL_CURVES
100
AcDbLine
 62
40
  6
CONTINUOUS
 10
3.811775137
 20
4.9381489317
 11
3.809078887
 21
4.9273639317
  0
LINE
  5
24F
100
AcDbEntity
  8
03__ASM_ALL_CURVES
100
AcDbLine
 62
40
  6
CONTINUOUS
 10
3.733583887
 20
4.9309589335
 11
3.738976387
 21
4.9453389326
  0
LINE
  5
250
100
AcDbEntity
  8
03__ASM_ALL_CURVES
100
AcDbLine
 62
40
  6
CONTINUOUS
 10
3.784812637
 20
4.916578933
 11
3.782116387
 21
4.9093889328
  0
LINE
  5
251
100
AcDbEntity
  8
THREAD
100
AcDbLine
 62
7
  6
CONTINUOUS
 10
3.5166750529
 20
4.7123509326
 11
3.482611387
 21
4.6533509326
  0
LINE
  5
252
100
AcDbEntity
  8
03__ASM_ALL_CURVES
100
AcDbLine
 62
40
  6
CONTINUOUS
 10
3.633822637
 20
4.9381489317
 11
3.636518887
 21
4.9417439335
  0
LINE
  5
253
100
AcDbEntity
  8
03__ASM_ALL_CURVES
100
AcDbLine
 62
40
  6
CONTINUOUS
 10
3.650000137
 20
4.9093889328
 11
3.647303887
 21
4.9057939327
  0
LINE
  5
254
100
AcDbEntity
  8
03__ASM_ALL_CURVES
100
AcDbLine
 62
40
  6
CONTINUOUS
 10
3.809078887
 20
4.9273639317
 11
3.809078887
 21
4.9201739322
  0
LINE
  5
255
100
AcDbEntity
  8
03__ASM_ALL_CURVES
100
AcDbLine
 62
40
  6
CONTINUOUS
 10
3.857611387
 20
4.9453389326
 11
3.857611387
 21
4.9021989326
  0
LINE
  5
256
100
AcDbEntity
  8
03__ASM_ALL_CURVES
100
AcDbLine
 62
40
  6
CONTINUOUS
 10
3.889966387
 20
4.9309589335
 11
3.892662637
 21
4.9381489317
  0
LINE
  5
257
100
AcDbEntity
  8
03__ASM_ALL_CURVES
100
AcDbLine
 62
40
  6
CONTINUOUS
 10
3.911536387
 20
4.9309589335
 11
3.908840137
 21
4.9237689326
  0
LINE
  5
258
100
AcDbEntity
  8
03__ASM_ALL_CURVES
100
AcDbLine
 62
40
  6
CONTINUOUS
 10
3.911536387
 20
4.916578933
 11
3.908840137
 21
4.9093889328
  0
LINE
  5
259
100
AcDbEntity
  8
03__ASM_ALL_CURVES
100
AcDbLine
 62
40
  6
CONTINUOUS
 10
3.976246387
 20
4.9309589335
 11
3.978942637
 21
4.9381489317
  0
LINE
  5
25A
100
AcDbEntity
  8
03__ASM_ALL_CURVES
100
AcDbLine
 62
40
  6
CONTINUOUS
 10
3.997816387
 20
4.916578933
 11
3.995120137
 21
4.9093889328
  0
LINE
  5
25B
100
AcDbEntity
  8
03__ASM_ALL_CURVES
100
AcDbLine
 62
40
  6
CONTINUOUS
 10
3.782116387
 20
4.9093889328
 11
3.779420137
 21
4.9057939327
  0
LINE
  5
25C
100
AcDbEntity
  8
03__ASM_ALL_CURVES
100
AcDbLine
 62
40
  6
CONTINUOUS
 10
3.817167637
 20
4.9453389326
 11
3.811775137
 21
4.9381489317
  0
LINE
  5
25D
100
AcDbEntity
  8
03__ASM_ALL_CURVES
100
AcDbLine
 62
40
  6
CONTINUOUS
 10
3.892662637
 20
4.9381489317
 11
3.895358887
 21
4.9417439335
  0
LINE
  5
25E
100
AcDbEntity
  8
03__ASM_ALL_CURVES
100
AcDbLine
 62
40
  6
CONTINUOUS
 10
3.911536387
 20
4.9309589335
 11
3.911536387
 21
4.916578933
  0
LINE
  5
25F
100
AcDbEntity
  8
03__ASM_ALL_CURVES
100
AcDbLine
 62
40
  6
CONTINUOUS
 10
3.941195137
 20
4.9021989326
 11
3.941195137
 21
4.9057939327
  0
LINE
  5
260
100
AcDbEntity
  8
THREAD
100
AcDbLine
 62
7
  6
CONTINUOUS
 10
3.952111387
 20
3.7343509326
 11
3.952111387
 21
3.7352484601
  0
LINE
  5
261
100
AcDbEntity
  8
THREAD
100
AcDbLine
 62
7
  6
CONTINUOUS
 10
3.952111387
 20
3.9536534051
 11
3.952111387
 21
4.0049459876
  0
LINE
  5
262
100
AcDbEntity
  8
THREAD
100
AcDbLine
 62
7
  6
CONTINUOUS
 10
3.952111387
 20
4.4417558776
 11
3.952111387
 21
4.4930484601
  0
LINE
  5
263
100
AcDbEntity
  8
THREAD
100
AcDbLine
 62
7
  6
CONTINUOUS
 10
3.952111387
 20
4.7114534051
 11
3.952111387
 21
4.7123509326
  0
LINE
  5
264
100
AcDbEntity
  8
03__ASM_ALL_CURVES
100
AcDbLine
 62
40
  6
CONTINUOUS
 10
3.976246387
 20
4.916578933
 11
3.976246387
 21
4.9309589335
  0
LINE
  5
265
100
AcDbEntity
  8
03__ASM_ALL_CURVES
100
AcDbLine
 62
40
  6
CONTINUOUS
 10
3.997816387
 20
4.9309589335
 11
3.997816387
 21
4.916578933
  0
LINE
  5
266
100
AcDbEntity
  8
THREAD
100
AcDbLine
 62
7
  6
CONTINUOUS
 10
4.013611387
 20
3.7958509326
 11
4.013611387
 21
4.6508509326
  0
LINE
  5
267
100
AcDbEntity
  8
03__ASM_ALL_CURVES
100
AcDbLine
 62
40
  6
CONTINUOUS
 10
4.038260137
 20
4.9021989326
 11
4.038260137
 21
4.9453389326
  0
LINE
  5
268
100
AcDbEntity
  8
03__ASM_ALL_CURVES
100
AcDbLine
 62
40
  6
CONTINUOUS
 10
4.078703887
 20
4.9201739322
 11
4.076007637
 21
4.9093889328
  0
LINE
  5
269
100
AcDbEntity
  8
03__ASM_ALL_CURVES
100
AcDbLine
 62
40
  6
CONTINUOUS
 10
4.038260137
 20
4.9453389326
 11
4.019386387
 21
4.9129839326
  0
LINE
  5
26A
100
AcDbEntity
  8
03__ASM_ALL_CURVES
100
AcDbLine
 62
40
  6
CONTINUOUS
 10
3.908840137
 20
4.9093889328
 11
3.906143887
 21
4.9057939327
  0
LINE
  5
26B
100
AcDbEntity
  8
03__ASM_ALL_CURVES
100
AcDbLine
 62
40
  6
CONTINUOUS
 10
3.978942637
 20
4.9381489317
 11
3.981638887
 21
4.9417439335
  0
LINE
  5
26C
100
AcDbEntity
  8
03__ASM_ALL_CURVES
100
AcDbLine
 62
40
  6
CONTINUOUS
 10
3.995120137
 20
4.9093889328
 11
3.992423887
 21
4.9057939327
  0
LINE
  5
26D
100
AcDbEntity
  8
03__ASM_ALL_CURVES
100
AcDbLine
 62
40
  6
CONTINUOUS
 10
4.076007637
 20
4.9093889328
 11
4.070615137
 21
4.9021989326
  0
LINE
  5
26E
100
AcDbEntity
  8
03__ASM_ALL_CURVES
100
AcDbLine
 62
40
  6
CONTINUOUS
 10
3.633822637
 20
4.9093889328
 11
3.631126387
 21
4.916578933
  0
LINE
  5
26F
100
AcDbEntity
  8
03__ASM_ALL_CURVES
100
AcDbLine
 62
40
  6
CONTINUOUS
 10
3.650000137
 20
4.9381489317
 11
3.652696387
 21
4.9309589335
  0
LINE
  5
270
100
AcDbEntity
  8
03__ASM_ALL_CURVES
100
AcDbLine
 62
40
  6
CONTINUOUS
 10
3.809078887
 20
4.9201739322
 11
3.811775137
 21
4.9093889328
  0
LINE
  5
271
100
AcDbEntity
  8
03__ASM_ALL_CURVES
100
AcDbLine
 62
40
  6
CONTINUOUS
 10
4.078703887
 20
4.9273639317
 11
4.078703887
 21
4.9201739322
  0
LINE
  5
272
100
AcDbEntity
  8
0
100
AcDbLine
 62
7
  6
CONTINUOUS
 10
4.159611387
 20
3.7958509326
 11
4.159611387
 21
4.6508509326
  0
LINE
  5
273
100
AcDbEntity
  8
0
100
AcDbLine
 62
7
  6
CONTINUOUS
 10
4.168133425
 20
3.8051983851
 11
4.168133425
 21
4.6415034801
  0
LINE
  5
274
100
AcDbEntity
  8
0
100
AcDbLine
 62
7
  6
CONTINUOUS
 10
4.171089349
 20
3.8051983851
 11
4.171089349
 21
4.6415034801
  0
LINE
  5
275
100
AcDbEntity
  8
0
100
AcDbLine
 62
7
  6
CONTINUOUS
 10
4.179611387
 20
3.7958509326
 11
4.179611387
 21
4.6508509326
  0
LINE
  5
276
100
AcDbEntity
  8
03__ASM_ALL_CURVES
100
AcDbLine
 62
40
  6
CONTINUOUS
 10
4.189471387
 20
4.8950089326
 11
4.189471387
 21
4.8806289326
  0
LINE
  5
277
100
AcDbEntity
  8
03__ASM_ALL_CURVES
100
AcDbLine
 62
40
  6
CONTINUOUS
 10
3.636518887
 20
4.9417439335
 11
3.641911387
 21
4.9453389326
  0
LINE
  5
278
100
AcDbEntity
  8
03__ASM_ALL_CURVES
100
AcDbLine
 62
40
  6
CONTINUOUS
 10
3.647303887
 20
4.9057939327
 11
3.641911387
 21
4.9021989326
  0
LINE
  5
279
100
AcDbEntity
  8
03__ASM_ALL_CURVES
100
AcDbLine
 62
40
  6
CONTINUOUS
 10
3.763242637
 20
4.9273639317
 11
3.768635137
 21
4.9309589335
  0
LINE
  5
27A
100
AcDbEntity
  8
03__ASM_ALL_CURVES
100
AcDbLine
 62
40
  6
CONTINUOUS
 10
3.779420137
 20
4.9057939327
 11
3.774027637
 21
4.9021989326
  0
LINE
  5
27B
100
AcDbEntity
  8
03__ASM_ALL_CURVES
100
AcDbLine
 62
40
  6
CONTINUOUS
 10
3.895358887
 20
4.9417439335
 11
3.900751387
 21
4.9453389326
  0
LINE
  5
27C
100
AcDbEntity
  8
03__ASM_ALL_CURVES
100
AcDbLine
 62
40
  6
CONTINUOUS
 10
3.782116387
 20
4.9237689326
 11
3.784812637
 21
4.916578933
  0
LINE
  5
27D
100
AcDbEntity
  8
0
100
AcDbLine
 62
7
  6
CONTINUOUS
 10
4.229611387
 20
4.6508509326
 11
4.229611387
 21
3.7958509326
  0
LINE
  5
27E
100
AcDbEntity
  8
0
100
AcDbLine
 62
7
  6
CONTINUOUS
 10
4.232611387
 20
4.6478509326
 11
4.232611387
 21
3.7988509326
  0
LINE
  5
27F
100
AcDbEntity
  8
03__ASM_ALL_CURVES
100
AcDbLine
 62
40
  6
CONTINUOUS
 10
4.232611387
 20
4.6580409326
 11
4.232611387
 21
4.9021989326
  0
LINE
  5
280
100
AcDbEntity
  8
0
100
AcDbLine
 62
7
  6
CONTINUOUS
 10
4.235111387
 20
3.8062943083
 11
4.235111387
 21
4.6404075569
  0
LINE
  5
281
100
AcDbEntity
  8
0
100
AcDbLine
 62
7
  6
CONTINUOUS
 10
4.2548338188
 20
3.8176810596
 11
4.2548338188
 21
4.6290208056
  0
LINE
  5
282
100
AcDbEntity
  8
0
100
AcDbLine
 62
7
  6
CONTINUOUS
 10
4.2573338188
 20
3.8183509326
 11
4.2573338188
 21
4.6283509326
  0
LINE
  5
283
100
AcDbEntity
  8
03__ASM_ALL_CURVES
100
AcDbLine
 62
40
  6
CONTINUOUS
 10
4.275751387
 20
4.8950089326
 11
4.275751387
 21
4.8806289326
  0
LINE
  5
284
100
AcDbEntity
  8
0
100
AcDbLine
 62
7
  6
CONTINUOUS
 10
4.279611387
 20
3.8183509326
 11
4.279611387
 21
4.6283509326
  0
LINE
  5
285
100
AcDbEntity
  8
03__ASM_ALL_CURVES
100
AcDbLine
 62
40
  6
CONTINUOUS
 10
4.2901313866
 20
4.9453389326
 11
4.2901313866
 21
4.9021989326
  0
LINE
  5
286
100
AcDbEntity
  8
0
100
AcDbLine
 62
7
  6
CONTINUOUS
 10
4.349611387
 20
3.8188515476
 11
4.349611387
 21
4.6278503176
  0
LINE
  5
287
100
AcDbEntity
  8
03__ASM_ALL_CURVES
100
AcDbLine
 62
40
  6
CONTINUOUS
 10
4.3278788866
 20
4.9237689326
 11
4.3305751366
 21
4.9345539326
  0
LINE
  5
288
100
AcDbEntity
  8
03__ASM_ALL_CURVES
100
AcDbLine
 62
40
  6
CONTINUOUS
 10
4.3602338866
 20
4.9237689326
 11
4.3575376366
 21
4.9129839326
  0
LINE
  5
289
100
AcDbEntity
  8
03__ASM_ALL_CURVES
100
AcDbLine
 62
40
  6
CONTINUOUS
 10
4.3710188866
 20
4.9237689326
 11
4.3737151366
 21
4.9345539326
  0
LINE
  5
28A
100
AcDbEntity
  8
03__ASM_ALL_CURVES
100
AcDbLine
 62
40
  6
CONTINUOUS
 10
4.4168551366
 20
4.9021989326
 11
4.4303363866
 21
4.9453389326
  0
LINE
  5
28B
100
AcDbEntity
  8
03__ASM_ALL_CURVES
100
AcDbLine
 62
40
  6
CONTINUOUS
 10
4.3305751366
 20
4.9345539326
 11
4.3359676366
 21
4.9417439335
  0
LINE
  5
28C
100
AcDbEntity
  8
03__ASM_ALL_CURVES
100
AcDbLine
 62
40
  6
CONTINUOUS
 10
4.3575376366
 20
4.9129839326
 11
4.3521451366
 21
4.9057939327
  0
LINE
  5
28D
100
AcDbEntity
  8
03__ASM_ALL_CURVES
100
AcDbLine
 62
40
  6
CONTINUOUS
 10
4.3737151366
 20
4.9345539326
 11
4.3791076366
 21
4.9417439335
  0
LINE
  5
28E
100
AcDbEntity
  8
03__ASM_ALL_CURVES
100
AcDbLine
 62
40
  6
CONTINUOUS
 10
4.3979813866
 20
4.9093889328
 11
4.3952851366
 21
4.9057939327
  0
LINE
  5
28F
100
AcDbEntity
  8
0
100
AcDbLine
 62
7
  6
CONTINUOUS
 10
4.179611387
 20
4.6508509326
 11
4.171089349
 21
4.6415034801
  0
LINE
  5
290
100
AcDbEntity
  8
03__ASM_ALL_CURVES
100
AcDbLine
 62
40
  6
CONTINUOUS
 10
3.906143887
 20
4.9057939327
 11
3.900751387
 21
4.9021989326
  0
LINE
  5
291
100
AcDbEntity
  8
03__ASM_ALL_CURVES
100
AcDbLine
 62
40
  6
CONTINUOUS
 10
3.981638887
 20
4.9417439335
 11
3.987031387
 21
4.9453389326
  0
LINE
  5
292
100
AcDbEntity
  8
03__ASM_ALL_CURVES
100
AcDbLine
 62
40
  6
CONTINUOUS
 10
3.992423887
 20
4.9057939327
 11
3.987031387
 21
4.9021989326
  0
LINE
  5
293
100
AcDbEntity
  8
0
100
AcDbLine
 62
7
  6
CONTINUOUS
 10
4.179611387
 20
3.7958509326
 11
4.171089349
 21
3.8051983851
  0
LINE
  5
294
100
AcDbEntity
  8
03__ASM_ALL_CURVES
100
AcDbLine
 62
40
  6
CONTINUOUS
 10
3.892662637
 20
4.9237689326
 11
3.889966387
 21
4.9309589335
  0
LINE
  5
295
100
AcDbEntity
  8
03__ASM_ALL_CURVES
100
AcDbLine
 62
40
  6
CONTINUOUS
 10
3.908840137
 20
4.9381489317
 11
3.911536387
 21
4.9309589335
  0
LINE
  5
296
100
AcDbEntity
  8
03__ASM_ALL_CURVES
100
AcDbLine
 62
40
  6
CONTINUOUS
 10
3.978942637
 20
4.9093889328
 11
3.976246387
 21
4.916578933
  0
LINE
  5
297
100
AcDbEntity
  8
03__ASM_ALL_CURVES
100
AcDbLine
 62
40
  6
CONTINUOUS
 10
3.995120137
 20
4.9381489317
 11
3.997816387
 21
4.9309589335
  0
LINE
  5
298
100
AcDbEntity
  8
03__ASM_ALL_CURVES
100
AcDbLine
 62
40
  6
CONTINUOUS
 10
4.076007637
 20
4.9381489317
 11
4.078703887
 21
4.9273639317
  0
LINE
  5
299
100
AcDbEntity
  8
0
100
AcDbLine
 62
7
  6
CONTINUOUS
 10
4.399611387
 20
3.8188515476
 11
4.399611387
 21
4.6278503176
  0
LINE
  5
29A
100
AcDbEntity
  8
0
100
AcDbLine
 62
7
  6
CONTINUOUS
 10
4.4121058335
 20
3.8728509326
 11
4.4121058335
 21
4.5738509326
  0
LINE
  5
29B
100
AcDbEntity
  8
0
100
AcDbLine
 62
7
  6
CONTINUOUS
 10
4.4233641637
 20
3.8663509326
 11
4.4233641637
 21
4.5803509326
  0
LINE
  5
29C
100
AcDbEntity
  8
0
100
AcDbLine
 62
7
  6
CONTINUOUS
 10
4.4409733469
 20
3.8358509326
 11
4.4409733469
 21
4.6108509326
  0
LINE
  5
29D
100
AcDbEntity
  8
03__ASM_ALL_CURVES
100
AcDbLine
 62
40
  6
CONTINUOUS
 10
4.4734763866
 20
4.9453389326
 11
4.4734763866
 21
4.9021989326
  0
LINE
  5
29E
100
AcDbEntity
  8
03__ASM_ALL_CURVES
100
AcDbLine
 62
40
  6
CONTINUOUS
 10
4.5166163866
 20
4.9453389326
 11
4.5166163866
 21
4.9021989326
  0
LINE
  5
29F
100
AcDbEntity
  8
03__ASM_ALL_CURVES
100
AcDbLine
 62
40
  6
CONTINUOUS
 10
4.5867188866
 20
4.9237689326
 11
4.5894151366
 21
4.9345539326
  0
LINE
  5
2A0
100
AcDbEntity
  8
0
100
AcDbLine
 62
7
  6
CONTINUOUS
 10
4.4409733469
 20
4.6108509326
 11
4.4233641637
 21
4.5803509326
  0
LINE
  5
2A1
100
AcDbEntity
  8
03__ASM_ALL_CURVES
100
AcDbLine
 62
40
  6
CONTINUOUS
 10
4.5894151366
 20
4.9345539326
 11
4.5948076366
 21
4.9417439335
  0
LINE
  5
2A2
100
AcDbEntity
  8
03__ASM_ALL_CURVES
100
AcDbLine
 62
40
  6
CONTINUOUS
 10
4.6136813866
 20
4.9093889328
 11
4.6109851366
 21
4.9057939327
  0
LINE
  5
2A3
100
AcDbEntity
  8
03__ASM_ALL_CURVES
100
AcDbLine
 62
40
  6
CONTINUOUS
 10
4.6810876366
 20
4.9417439335
 11
4.6783913866
 21
4.9381489317
  0
LINE
  5
2A4
100
AcDbEntity
  8
03__ASM_ALL_CURVES
100
AcDbLine
 62
40
  6
CONTINUOUS
 10
4.3359676366
 20
4.9417439335
 11
4.3413601366
 21
4.9453389326
  0
LINE
  5
2A5
100
AcDbEntity
  8
03__ASM_ALL_CURVES
100
AcDbLine
 62
40
  6
CONTINUOUS
 10
4.3791076366
 20
4.9417439335
 11
4.3845001366
 21
4.9453389326
  0
LINE
  5
2A6
100
AcDbEntity
  8
03__ASM_ALL_CURVES
100
AcDbLine
 62
40
  6
CONTINUOUS
 10
4.3521451366
 20
4.9057939327
 11
4.3467526366
 21
4.9021989326
  0
LINE
  5
2A7
100
AcDbEntity
  8
03__ASM_ALL_CURVES
100
AcDbLine
 62
40
  6
CONTINUOUS
 10
4.3952851366
 20
4.9057939327
 11
4.3898926366
 21
4.9021989326
  0
LINE
  5
2A8
100
AcDbEntity
  8
03__ASM_ALL_CURVES
100
AcDbLine
 62
40
  6
CONTINUOUS
 10
3.908840137
 20
4.9237689326
 11
3.900751387
 21
4.9201739322
  0
LINE
  5
2A9
100
AcDbEntity
  8
03__ASM_ALL_CURVES
100
AcDbLine
 62
40
  6
CONTINUOUS
 10
3.636518887
 20
4.9057939327
 11
3.633822637
 21
4.9093889328
  0
LINE
  5
2AA
100
AcDbEntity
  8
03__ASM_ALL_CURVES
100
AcDbLine
 62
40
  6
CONTINUOUS
 10
3.647303887
 20
4.9417439335
 11
3.650000137
 21
4.9381489317
  0
LINE
  5
2AB
100
AcDbEntity
  8
03__ASM_ALL_CURVES
100
AcDbLine
 62
40
  6
CONTINUOUS
 10
3.682355137
 20
4.9057939327
 11
3.685051387
 21
4.9021989326
  0
LINE
  5
2AC
100
AcDbEntity
  8
0
100
AcDbLine
 62
7
  6
CONTINUOUS
 10
4.4409733469
 20
3.8358509326
 11
4.4233641637
 21
3.8663509326
  0
LINE
  5
2AD
100
AcDbEntity
  8
03__ASM_ALL_CURVES
100
AcDbLine
 62
40
  6
CONTINUOUS
 10
4.3305751366
 20
4.9129839326
 11
4.3278788866
 21
4.9237689326
  0
LINE
  5
2AE
100
AcDbEntity
  8
03__ASM_ALL_CURVES
100
AcDbLine
 62
40
  6
CONTINUOUS
 10
4.5489713866
 20
4.9021989326
 11
4.5489713866
 21
4.9453389326
  0
LINE
  5
2AF
100
AcDbEntity
  8
03__ASM_ALL_CURVES
100
AcDbLine
 62
40
  6
CONTINUOUS
 10
4.5705413866
 20
4.9021989326
 11
4.5705413866
 21
4.9453389326
  0
LINE
  5
2B0
100
AcDbEntity
  8
03__ASM_ALL_CURVES
100
AcDbLine
 62
40
  6
CONTINUOUS
 10
4.6136813866
 20
4.9237689326
 11
4.6136813866
 21
4.9093889328
  0
LINE
  5
2B1
100
AcDbEntity
  8
03__ASM_ALL_CURVES
100
AcDbLine
 62
40
  6
CONTINUOUS
 10
4.6783913866
 20
4.9381489317
 11
4.6783913866
 21
4.9345539326
  0
LINE
  5
2B2
100
AcDbEntity
  8
0
100
AcDbLine
 62
7
  6
CONTINUOUS
 10
4.688111387
 20
3.8358509326
 11
4.688111387
 21
4.6108509326
  0
LINE
  5
2B3
100
AcDbEntity
  8
03__ASM_ALL_CURVES
100
AcDbLine
 62
40
  6
CONTINUOUS
 10
4.7592788866
 20
4.9237689326
 11
4.7619751366
 21
4.9345539326
  0
LINE
  5
2B4
100
AcDbEntity
  8
03__ASM_ALL_CURVES
100
AcDbLine
 62
40
  6
CONTINUOUS
 10
4.7916338866
 20
4.9237689326
 11
4.7889376366
 21
4.9129839326
  0
LINE
  5
2B5
100
AcDbEntity
  8
03__ASM_ALL_CURVES
100
AcDbLine
 62
40
  6
CONTINUOUS
 10
4.6999613866
 20
4.9093889328
 11
4.6972651366
 21
4.9057939327
  0
LINE
  5
2B6
100
AcDbEntity
  8
03__ASM_ALL_CURVES
100
AcDbLine
 62
40
  6
CONTINUOUS
 10
4.7619751366
 20
4.9345539326
 11
4.7673676366
 21
4.9417439335
  0
LINE
  5
2B7
100
AcDbEntity
  8
03__ASM_ALL_CURVES
100
AcDbLine
 62
40
  6
CONTINUOUS
 10
4.7889376366
 20
4.9129839326
 11
4.7835451366
 21
4.9057939327
  0
LINE
  5
2B8
100
AcDbEntity
  8
03__ASM_ALL_CURVES
100
AcDbLine
 62
40
  6
CONTINUOUS
 10
4.8293813866
 20
4.9093889328
 11
4.8266851366
 21
4.9057939327
  0
LINE
  5
2B9
100
AcDbEntity
  8
03__ASM_ALL_CURVES
100
AcDbLine
 62
40
  6
CONTINUOUS
 10
4.5948076366
 20
4.9417439335
 11
4.6002001366
 21
4.9453389326
  0
LINE
  5
2BA
100
AcDbEntity
  8
03__ASM_ALL_CURVES
100
AcDbLine
 62
40
  6
CONTINUOUS
 10
4.6109851366
 20
4.9057939327
 11
4.6055926366
 21
4.9021989326
  0
LINE
  5
2BB
100
AcDbEntity
  8
03__ASM_ALL_CURVES
100
AcDbLine
 62
40
  6
CONTINUOUS
 10
4.6864801366
 20
4.9453389326
 11
4.6810876366
 21
4.9417439335
  0
LINE
  5
2BC
100
AcDbEntity
  8
03__ASM_ALL_CURVES
100
AcDbLine
 62
40
  6
CONTINUOUS
 10
4.6972651366
 20
4.9057939327
 11
4.6918726366
 21
4.9021989326
  0
LINE
  5
2BD
100
AcDbEntity
  8
03__ASM_ALL_CURVES
100
AcDbLine
 62
40
  6
CONTINUOUS
 10
4.7673676366
 20
4.9417439335
 11
4.7727601366
 21
4.9453389326
  0
LINE
  5
2BE
100
AcDbEntity
  8
03__ASM_ALL_CURVES
100
AcDbLine
 62
40
  6
CONTINUOUS
 10
3.763242637
 20
4.9057939327
 11
3.760546387
 21
4.9093889328
  0
LINE
  5
2BF
100
AcDbEntity
  8
03__ASM_ALL_CURVES
100
AcDbLine
 62
40
  6
CONTINUOUS
 10
3.779420137
 20
4.9273639317
 11
3.782116387
 21
4.9237689326
  0
LINE
  5
2C0
100
AcDbEntity
  8
03__ASM_ALL_CURVES
100
AcDbLine
 62
40
  6
CONTINUOUS
 10
3.811775137
 20
4.9093889328
 11
3.817167637
 21
4.9021989326
  0
LINE
  5
2C1
100
AcDbEntity
  8
03__ASM_ALL_CURVES
100
AcDbLine
 62
40
  6
CONTINUOUS
 10
3.895358887
 20
4.9057939327
 11
3.892662637
 21
4.9093889328
  0
LINE
  5
2C2
100
AcDbEntity
  8
03__ASM_ALL_CURVES
100
AcDbLine
 62
40
  6
CONTINUOUS
 10
3.906143887
 20
4.9417439335
 11
3.908840137
 21
4.9381489317
  0
LINE
  5
2C3
100
AcDbEntity
  8
03__ASM_ALL_CURVES
100
AcDbLine
 62
40
  6
CONTINUOUS
 10
3.941195137
 20
4.9057939327
 11
3.943891387
 21
4.9021989326
  0
LINE
  5
2C4
100
AcDbEntity
  8
03__ASM_ALL_CURVES
100
AcDbLine
 62
40
  6
CONTINUOUS
 10
4.4303363866
 20
4.9453389326
 11
4.4438176366
 21
4.9021989326
  0
LINE
  5
2C5
100
AcDbEntity
  8
03__ASM_ALL_CURVES
100
AcDbLine
 62
40
  6
CONTINUOUS
 10
4.3575376366
 20
4.9345539326
 11
4.3602338866
 21
4.9237689326
  0
LINE
  5
2C6
100
AcDbEntity
  8
03__ASM_ALL_CURVES
100
AcDbLine
 62
40
  6
CONTINUOUS
 10
4.3737151366
 20
4.9129839326
 11
4.3710188866
 21
4.9237689326
  0
LINE
  5
2C7
100
AcDbEntity
  8
03__ASM_ALL_CURVES
100
AcDbLine
 62
40
  6
CONTINUOUS
 10
4.6999613866
 20
4.916578933
 11
4.6999613866
 21
4.9093889328
  0
LINE
  5
2C8
100
AcDbEntity
  8
03__ASM_ALL_CURVES
100
AcDbLine
 62
40
  6
CONTINUOUS
 10
4.7215313866
 20
4.9453389326
 11
4.7215313866
 21
4.9021989326
  0
LINE
  5
2C9
100
AcDbEntity
  8
0
100
AcDbLine
 62
7
  6
CONTINUOUS
 10
4.732611387
 20
3.8803509326
 11
4.732611387
 21
4.5663509326
  0
LINE
  5
2CA
100
AcDbEntity
  8
03__ASM_ALL_CURVES
100
AcDbLine
 62
40
  6
CONTINUOUS
 10
4.7431013866
 20
4.9453389326
 11
4.7431013866
 21
4.9021989326
  0
LINE
  5
2CB
100
AcDbEntity
  8
03__ASM_ALL_CURVES
100
AcDbLine
 62
40
  6
CONTINUOUS
 10
4.8078113866
 20
4.9093889328
 11
4.8078113866
 21
4.9453389326
  0
LINE
  5
2CC
100
AcDbEntity
  8
03__ASM_ALL_CURVES
100
AcDbLine
 62
40
  6
CONTINUOUS
 10
4.8293813866
 20
4.9453389326
 11
4.8293813866
 21
4.9093889328
  0
LINE
  5
2CD
100
AcDbEntity
  8
03__ASM_ALL_CURVES
100
AcDbLine
 62
40
  6
CONTINUOUS
 10
4.8509513866
 20
4.9453389326
 11
4.8509513866
 21
4.9021989326
  0
LINE
  5
2CE
100
AcDbEntity
  8
03__ASM_ALL_CURVES
100
AcDbLine
 62
40
  6
CONTINUOUS
 10
4.9183576366
 20
4.9237689326
 11
4.9156613866
 21
4.9129839326
  0
LINE
  5
2CF
100
AcDbEntity
  8
03__ASM_ALL_CURVES
100
AcDbLine
 62
40
  6
CONTINUOUS
 10
4.9156613866
 20
4.9129839326
 11
4.9102688866
 21
4.9057939327
  0
LINE
  5
2D0
100
AcDbEntity
  8
03__ASM_ALL_CURVES
100
AcDbLine
 62
40
  6
CONTINUOUS
 10
5.0019413866
 20
4.9309589335
 11
4.9992451366
 21
4.9273639317
  0
LINE
  5
2D1
100
AcDbEntity
  8
03__ASM_ALL_CURVES
100
AcDbLine
 62
40
  6
CONTINUOUS
 10
4.7835451366
 20
4.9057939327
 11
4.7781526366
 21
4.9021989326
  0
LINE
  5
2D2
100
AcDbEntity
  8
03__ASM_ALL_CURVES
100
AcDbLine
 62
40
  6
CONTINUOUS
 10
4.8266851366
 20
4.9057939327
 11
4.8212926366
 21
4.9021989326
  0
LINE
  5
2D3
100
AcDbEntity
  8
03__ASM_ALL_CURVES
100
AcDbLine
 62
40
  6
CONTINUOUS
 10
4.9102688866
 20
4.9057939327
 11
4.9048763866
 21
4.9021989326
  0
LINE
  5
2D4
100
AcDbEntity
  8
03__ASM_ALL_CURVES
100
AcDbLine
 62
40
  6
CONTINUOUS
 10
4.9992451366
 20
4.9273639317
 11
4.9938526366
 21
4.9237689326
  0
LINE
  5
2D5
100
AcDbEntity
  8
THREAD
100
AcDbLine
 62
7
  6
CONTINUOUS
 10
4.013611387
 20
4.6508509326
 11
3.9525601507
 21
4.7119021688
  0
LINE
  5
2D6
100
AcDbEntity
  8
0
100
AcDbLine
 62
7
  6
CONTINUOUS
 10
4.168133425
 20
4.6415034801
 11
4.159611387
 21
4.6508509326
  0
LINE
  5
2D7
100
AcDbEntity
  8
03__ASM_ALL_CURVES
100
AcDbLine
 62
40
  6
CONTINUOUS
 10
3.981638887
 20
4.9057939327
 11
3.978942637
 21
4.9093889328
  0
LINE
  5
2D8
100
AcDbEntity
  8
03__ASM_ALL_CURVES
100
AcDbLine
 62
40
  6
CONTINUOUS
 10
3.992423887
 20
4.9417439335
 11
3.995120137
 21
4.9381489317
  0
LINE
  5
2D9
100
AcDbEntity
  8
03__ASM_ALL_CURVES
100
AcDbLine
 62
40
  6
CONTINUOUS
 10
4.070615137
 20
4.9453389326
 11
4.076007637
 21
4.9381489317
  0
LINE
  5
2DA
100
AcDbEntity
  8
03__ASM_ALL_CURVES
100
AcDbLine
 62
40
  6
CONTINUOUS
 10
4.5894151366
 20
4.9129839326
 11
4.5867188866
 21
4.9237689326
  0
LINE
  5
2DB
100
AcDbEntity
  8
03__ASM_ALL_CURVES
100
AcDbLine
 62
40
  6
CONTINUOUS
 10
4.8940913866
 20
4.9021989326
 11
4.8940913866
 21
4.9453389326
  0
LINE
  5
2DC
100
AcDbEntity
  8
0
100
AcDbLine
 62
7
  6
CONTINUOUS
 10
4.910611387
 20
3.8803509326
 11
4.910611387
 21
4.5663509326
  0
LINE
  5
2DD
100
AcDbEntity
  8
0
100
AcDbLine
 62
7
  6
CONTINUOUS
 10
4.920611387
 20
3.8903509326
 11
4.920611387
 21
4.5563509326
  0
LINE
  5
2DE
100
AcDbEntity
  8
03__ASM_ALL_CURVES
100
AcDbLine
 62
40
  6
CONTINUOUS
 10
4.9372313866
 20
4.9021989326
 11
4.9372313866
 21
4.9453389326
  0
LINE
  5
2DF
100
AcDbEntity
  8
03__ASM_ALL_CURVES
100
AcDbLine
 62
40
  6
CONTINUOUS
 10
4.9803713866
 20
4.9021989326
 11
4.9803713866
 21
4.9453389326
  0
LINE
  5
2E0
100
AcDbEntity
  8
03__ASM_ALL_CURVES
100
AcDbLine
 62
40
  6
CONTINUOUS
 10
5.0019413866
 20
4.9381489317
 11
5.0019413866
 21
4.9309589335
  0
LINE
  5
2E1
100
AcDbEntity
  8
0
100
AcDbLine
 62
7
  6
CONTINUOUS
 10
4.168133425
 20
3.8051983851
 11
4.159611387
 21
3.7958509326
  0
LINE
  5
2E2
100
AcDbEntity
  8
THREAD
100
AcDbLine
 62
7
  6
CONTINUOUS
 10
4.013611387
 20
3.7958509326
 11
3.9525601507
 21
3.7347996963
  0
LINE
  5
2E3
100
AcDbEntity
  8
03__ASM_ALL_CURVES
100
AcDbLine
 62
40
  6
CONTINUOUS
 10
5.1472230875
 20
3.6289959326
 11
5.1431787125
 21
3.6316921827
  0
LINE
  5
2E4
100
AcDbEntity
  8
03__ASM_ALL_CURVES
100
AcDbLine
 62
40
  6
CONTINUOUS
 10
5.1189124625
 20
3.6613509326
 11
5.1229568375
 21
3.6586546832
  0
LINE
  5
2E5
100
AcDbEntity
  8
03__ASM_ALL_CURVES
100
AcDbLine
 62
40
  6
CONTINUOUS
 10
5.1512674625
 20
3.6613509326
 11
5.1553118375
 21
3.6586546832
  0
LINE
  5
2E6
100
AcDbEntity
  8
03__ASM_ALL_CURVES
100
AcDbLine
 62
40
  6
CONTINUOUS
 10
5.1836224625
 20
3.6613509326
 11
5.1876668375
 21
3.6586546832
  0
LINE
  5
2E7
100
AcDbEntity
  8
03__ASM_ALL_CURVES
100
AcDbLine
 62
40
  6
CONTINUOUS
 10
5.1431787125
 20
3.6316921827
 11
5.1391343375
 21
3.6370846826
  0
LINE
  5
2E8
100
AcDbEntity
  8
03__ASM_ALL_CURVES
100
AcDbLine
 62
40
  6
CONTINUOUS
 10
5.1229568375
 20
3.6586546832
 11
5.124979025
 21
3.655958432
  0
LINE
  5
2E9
100
AcDbEntity
  8
03__ASM_ALL_CURVES
100
AcDbLine
 62
40
  6
CONTINUOUS
 10
5.1553118375
 20
3.6586546832
 11
5.1593562125
 21
3.6532621826
  0
LINE
  5
2EA
100
AcDbEntity
  8
03__ASM_ALL_CURVES
100
AcDbLine
 62
40
  6
CONTINUOUS
 10
5.1876668375
 20
3.6586546832
 11
5.189689025
 21
3.655958432
  0
LINE
  5
2EB
100
AcDbEntity
  8
03__ASM_ALL_CURVES
100
AcDbLine
 62
40
  6
CONTINUOUS
 10
4.3359676366
 20
4.9057939327
 11
4.3305751366
 21
4.9129839326
  0
LINE
  5
2EC
100
AcDbEntity
  8
03__ASM_ALL_CURVES
100
AcDbLine
 62
40
  6
CONTINUOUS
 10
4.5489713866
 20
4.9453389326
 11
4.5705413866
 21
4.9021989326
  0
LINE
  5
2ED
100
AcDbEntity
  8
03__ASM_ALL_CURVES
100
AcDbLine
 62
40
  6
CONTINUOUS
 10
5.1836224625
 20
3.6451734326
 11
5.189689025
 21
3.6289959326
  0
LINE
  5
2EE
100
AcDbEntity
  8
03__ASM_ALL_CURVES
100
AcDbLine
 62
40
  6
CONTINUOUS
 10
4.7619751366
 20
4.9129839326
 11
4.7592788866
 21
4.9237689326
  0
LINE
  5
2EF
100
AcDbEntity
  8
03__ASM_ALL_CURVES
100
AcDbLine
 62
40
  6
CONTINUOUS
 10
4.7889376366
 20
4.9345539326
 11
4.7916338866
 21
4.9237689326
  0
LINE
  5
2F0
100
AcDbEntity
  8
03__ASM_ALL_CURVES
100
AcDbLine
 62
40
  6
CONTINUOUS
 10
5.1391343375
 20
3.6370846826
 11
5.13711215
 21
3.6451734326
  0
LINE
  5
2F1
100
AcDbEntity
  8
03__ASM_ALL_CURVES
100
AcDbLine
 62
40
  6
CONTINUOUS
 10
5.108801525
 20
3.6289959326
 11
5.108801525
 21
3.6613509326
  0
LINE
  5
2F2
100
AcDbEntity
  8
03__ASM_ALL_CURVES
100
AcDbLine
 62
40
  6
CONTINUOUS
 10
5.124979025
 20
3.655958432
 11
5.124979025
 21
3.6505659332
  0
LINE
  5
2F3
100
AcDbEntity
  8
03__ASM_ALL_CURVES
100
AcDbLine
 62
40
  6
CONTINUOUS
 10
5.173511525
 20
3.6289959326
 11
5.173511525
 21
3.6613509326
  0
LINE
  5
2F4
100
AcDbEntity
  8
03__ASM_ALL_CURVES
100
AcDbLine
 62
40
  6
CONTINUOUS
 10
6.9902785957
 20
3.6289959326
 11
6.9862342207
 21
3.6289959326
  0
LINE
  5
2F5
100
AcDbEntity
  8
03__ASM_ALL_CURVES
100
AcDbLine
 62
40
  6
CONTINUOUS
 10
6.1993325221
 20
3.6289959326
 11
6.1952881471
 21
3.6289959326
  0
LINE
  5
2F6
100
AcDbEntity
  8
03__ASM_ALL_CURVES
100
AcDbLine
 62
40
  6
CONTINUOUS
 10
6.1022675221
 20
3.6289959326
 11
6.0982231471
 21
3.6289959326
  0
LINE
  5
2F7
100
AcDbEntity
  8
03__ASM_ALL_CURVES
100
AcDbLine
 62
40
  6
CONTINUOUS
 10
5.1512674625
 20
3.6289959326
 11
5.1472230875
 21
3.6289959326
  0
LINE
  5
2F8
100
AcDbEntity
  8
03__ASM_ALL_CURVES
100
AcDbLine
 62
40
  6
CONTINUOUS
 10
7.0772326582
 20
3.6289959326
 11
7.0934101582
 21
3.6289959326
  0
LINE
  5
2F9
100
AcDbEntity
  8
03__ASM_ALL_CURVES
100
AcDbLine
 62
40
  6
CONTINUOUS
 10
5.238221525
 20
3.6370846826
 11
5.2564212125
 21
3.6370846826
  0
LINE
  5
2FA
100
AcDbEntity
  8
03__ASM_ALL_CURVES
100
AcDbLine
 62
40
  6
CONTINUOUS
 10
7.0226335957
 20
3.6451734326
 11
7.0125226582
 21
3.6451734326
  0
LINE
  5
2FB
100
AcDbEntity
  8
03__ASM_ALL_CURVES
100
AcDbLine
 62
40
  6
CONTINUOUS
 10
6.9579235957
 20
3.6451734326
 11
6.9478126582
 21
3.6451734326
  0
LINE
  5
2FC
100
AcDbEntity
  8
03__ASM_ALL_CURVES
100
AcDbLine
 62
40
  6
CONTINUOUS
 10
6.1346225221
 20
3.6451734326
 11
6.1245115846
 21
3.6451734326
  0
LINE
  5
2FD
100
AcDbEntity
  8
03__ASM_ALL_CURVES
100
AcDbLine
 62
40
  6
CONTINUOUS
 10
6.0699125221
 20
3.6451734326
 11
6.0598015846
 21
3.6451734326
  0
LINE
  5
2FE
100
AcDbEntity
  8
03__ASM_ALL_CURVES
100
AcDbLine
 62
40
  6
CONTINUOUS
 10
5.1836224625
 20
3.6451734326
 11
5.173511525
 21
3.6451734326
  0
LINE
  5
2FF
100
AcDbEntity
  8
03__ASM_ALL_CURVES
100
AcDbLine
 62
40
  6
CONTINUOUS
 10
5.1189124625
 20
3.6451734326
 11
5.108801525
 21
3.6451734326
  0
LINE
  5
300
100
AcDbEntity
  8
03__ASM_ALL_CURVES
100
AcDbLine
 62
40
  6
CONTINUOUS
 10
6.1952881471
 20
3.647869682
 11
6.1993325221
 21
3.647869682
  0
LINE
  5
301
100
AcDbEntity
  8
03__ASM_ALL_CURVES
100
AcDbLine
 62
40
  6
CONTINUOUS
 10
5.108801525
 20
3.6613509326
 11
5.1189124625
 21
3.6613509326
  0
LINE
  5
302
100
AcDbEntity
  8
03__ASM_ALL_CURVES
100
AcDbLine
 62
40
  6
CONTINUOUS
 10
5.1472230875
 20
3.6613509326
 11
5.1512674625
 21
3.6613509326
  0
LINE
  5
303
100
AcDbEntity
  8
03__ASM_ALL_CURVES
100
AcDbLine
 62
40
  6
CONTINUOUS
 10
5.173511525
 20
3.6613509326
 11
5.1836224625
 21
3.6613509326
  0
LINE
  5
304
100
AcDbEntity
  8
03__ASM_ALL_CURVES
100
AcDbLine
 62
40
  6
CONTINUOUS
 10
5.2038443375
 20
3.6613509326
 11
5.2240662125
 21
3.6613509326
  0
LINE
  5
305
100
AcDbEntity
  8
03__ASM_ALL_CURVES
100
AcDbLine
 62
40
  6
CONTINUOUS
 10
6.0598015846
 20
3.6613509326
 11
6.0699125221
 21
3.6613509326
  0
LINE
  5
306
100
AcDbEntity
  8
03__ASM_ALL_CURVES
100
AcDbLine
 62
40
  6
CONTINUOUS
 10
6.0982231471
 20
3.6613509326
 11
6.1022675221
 21
3.6613509326
  0
LINE
  5
307
100
AcDbEntity
  8
03__ASM_ALL_CURVES
100
AcDbLine
 62
40
  6
CONTINUOUS
 10
6.1245115846
 20
3.6613509326
 11
6.1346225221
 21
3.6613509326
  0
LINE
  5
308
100
AcDbEntity
  8
03__ASM_ALL_CURVES
100
AcDbLine
 62
40
  6
CONTINUOUS
 10
6.1548443971
 20
3.6613509326
 11
6.1750662721
 21
3.6613509326
  0
LINE
  5
309
100
AcDbEntity
  8
03__ASM_ALL_CURVES
100
AcDbLine
 62
40
  6
CONTINUOUS
 10
6.1952881471
 20
3.6613509326
 11
6.1993325221
 21
3.6613509326
  0
LINE
  5
30A
100
AcDbEntity
  8
03__ASM_ALL_CURVES
100
AcDbLine
 62
40
  6
CONTINUOUS
 10
6.9478126582
 20
3.6613509326
 11
6.9579235957
 21
3.6613509326
  0
LINE
  5
30B
100
AcDbEntity
  8
03__ASM_ALL_CURVES
100
AcDbLine
 62
40
  6
CONTINUOUS
 10
6.9862342207
 20
3.6613509326
 11
6.9902785957
 21
3.6613509326
  0
LINE
  5
30C
100
AcDbEntity
  8
03__ASM_ALL_CURVES
100
AcDbLine
 62
40
  6
CONTINUOUS
 10
7.0125226582
 20
3.6613509326
 11
7.0226335957
 21
3.6613509326
  0
LINE
  5
30D
100
AcDbEntity
  8
03__ASM_ALL_CURVES
100
AcDbLine
 62
40
  6
CONTINUOUS
 10
7.0428554707
 20
3.6613509326
 11
7.0630773457
 21
3.6613509326
  0
LINE
  5
30E
100
AcDbEntity
  8
03__ASM_ALL_CURVES
100
AcDbLine
 62
40
  6
CONTINUOUS
 10
7.0832992207
 20
3.6613509326
 11
7.0873435957
 21
3.6613509326
  0
LINE
  5
30F
100
AcDbEntity
  8
03__ASM_ALL_CURVES
100
AcDbLine
 62
40
  6
CONTINUOUS
 10
3.641911387
 20
4.9021989326
 11
3.636518887
 21
4.9057939327
  0
LINE
  5
310
100
AcDbEntity
  8
03__ASM_ALL_CURVES
100
AcDbLine
 62
40
  6
CONTINUOUS
 10
3.641911387
 20
4.9453389326
 11
3.647303887
 21
4.9417439335
  0
LINE
  5
311
100
AcDbEntity
  8
03__ASM_ALL_CURVES
100
AcDbLine
 62
40
  6
CONTINUOUS
 10
4.3791076366
 20
4.9057939327
 11
4.3737151366
 21
4.9129839326
  0
LINE
  5
312
100
AcDbEntity
  8
03__ASM_ALL_CURVES
100
AcDbLine
 62
40
  6
CONTINUOUS
 10
4.3521451366
 20
4.9417439335
 11
4.3575376366
 21
4.9345539326
  0
LINE
  5
313
100
AcDbEntity
  8
03__ASM_ALL_CURVES
100
AcDbLine
 62
40
  6
CONTINUOUS
 10
4.3952851366
 20
4.9417439335
 11
4.3979813866
 21
4.9381489317
  0
LINE
  5
314
100
AcDbEntity
  8
03__ASM_ALL_CURVES
100
AcDbLine
 62
40
  6
CONTINUOUS
 10
5.1593562125
 20
3.6532621826
 11
5.1613784
 21
3.6451734326
  0
LINE
  5
315
100
AcDbEntity
  8
03__ASM_ALL_CURVES
100
AcDbLine
 62
40
  6
CONTINUOUS
 10
4.9156613866
 20
4.9345539326
 11
4.9183576366
 21
4.9237689326
  0
LINE
  5
316
100
AcDbEntity
  8
03__ASM_ALL_CURVES
100
AcDbLine
 62
40
  6
CONTINUOUS
 10
5.189689025
 20
3.655958432
 11
5.189689025
 21
3.6505659332
  0
LINE
  5
317
100
AcDbEntity
  8
03__ASM_ALL_CURVES
100
AcDbLine
 62
40
  6
CONTINUOUS
 10
5.213955275
 20
3.6613509326
 11
5.213955275
 21
3.6289959326
  0
LINE
  5
318
100
AcDbEntity
  8
03__ASM_ALL_CURVES
100
AcDbLine
 62
40
  6
CONTINUOUS
 10
5.2523768375
 20
3.6289959326
 11
5.2523768375
 21
3.6613509326
  0
LINE
  5
319
100
AcDbEntity
  8
03__ASM_ALL_CURVES
100
AcDbLine
 62
40
  6
CONTINUOUS
 10
5.13711215
 20
3.6451734326
 11
5.1391343375
 21
3.6532621826
  0
LINE
  5
31A
100
AcDbEntity
  8
03__ASM_ALL_CURVES
100
AcDbLine
 62
40
  6
CONTINUOUS
 10
5.1613784
 20
3.6451734326
 11
5.1593562125
 21
3.6370846826
  0
LINE
  5
31B
100
AcDbEntity
  8
0
100
AcDbLine
 62
7
  6
CONTINUOUS
 10
4.732611387
 20
3.8803509326
 11
4.688111387
 21
3.8358509326
  0
LINE
  5
31C
100
AcDbEntity
  8
THREAD
100
AcDbLine
 62
7
  6
CONTINUOUS
 10
3.952111387
 20
3.7343509326
 11
3.5166750529
 21
3.7343509326
  0
LINE
  5
31D
100
AcDbEntity
  8
THREAD
100
AcDbLine
 62
7
  6
CONTINUOUS
 10
3.952111387
 20
3.7352484601
 11
3.5166750529
 21
3.7352484601
  0
LINE
  5
31E
100
AcDbEntity
  8
THREAD
100
AcDbLine
 62
7
  6
CONTINUOUS
 10
4.229611387
 20
3.7958509326
 11
4.179611387
 21
3.7958509326
  0
LINE
  5
31F
100
AcDbEntity
  8
THREAD
100
AcDbLine
 62
7
  6
CONTINUOUS
 10
4.159611387
 20
3.7958509326
 11
4.013611387
 21
3.7958509326
  0
LINE
  5
320
100
AcDbEntity
  8
0
100
AcDbLine
 62
7
  6
CONTINUOUS
 10
4.279611387
 20
3.8183509326
 11
4.2573338188
 21
3.8183509326
  0
LINE
  5
321
100
AcDbEntity
  8
0
100
AcDbLine
 62
7
  6
CONTINUOUS
 10
4.349611387
 20
3.8188509326
 11
4.399611387
 21
3.8188509326
  0
LINE
  5
322
100
AcDbEntity
  8
0
100
AcDbLine
 62
7
  6
CONTINUOUS
 10
4.2548338188
 20
4.6290208056
 11
4.235111387
 21
4.6404075569
  0
LINE
  5
323
100
AcDbEntity
  8
03__ASM_ALL_CURVES
100
AcDbLine
 62
40
  6
CONTINUOUS
 10
3.768635137
 20
4.9021989326
 11
3.763242637
 21
4.9057939327
  0
LINE
  5
324
100
AcDbEntity
  8
03__ASM_ALL_CURVES
100
AcDbLine
 62
40
  6
CONTINUOUS
 10
3.774027637
 20
4.9309589335
 11
3.779420137
 21
4.9273639317
  0
LINE
  5
325
100
AcDbEntity
  8
03__ASM_ALL_CURVES
100
AcDbLine
 62
40
  6
CONTINUOUS
 10
3.900751387
 20
4.9021989326
 11
3.895358887
 21
4.9057939327
  0
LINE
  5
326
100
AcDbEntity
  8
03__ASM_ALL_CURVES
100
AcDbLine
 62
40
  6
CONTINUOUS
 10
3.900751387
 20
4.9453389326
 11
3.906143887
 21
4.9417439335
  0
LINE
  5
327
100
AcDbEntity
  8
03__ASM_ALL_CURVES
100
AcDbLine
 62
40
  6
CONTINUOUS
 10
3.987031387
 20
4.9021989326
 11
3.981638887
 21
4.9057939327
  0
LINE
  5
328
100
AcDbEntity
  8
0
100
AcDbLine
 62
7
  6
CONTINUOUS
 10
4.732611387
 20
4.5663509326
 11
4.688111387
 21
4.6108509326
  0
LINE
  5
329
100
AcDbEntity
  8
03__ASM_ALL_CURVES
100
AcDbLine
 62
40
  6
CONTINUOUS
 10
4.5948076366
 20
4.9057939327
 11
4.5894151366
 21
4.9129839326
  0
LINE
  5
32A
100
AcDbEntity
  8
03__ASM_ALL_CURVES
100
AcDbLine
 62
40
  6
CONTINUOUS
 10
4.6109851366
 20
4.9417439335
 11
4.6136813866
 21
4.9381489317
  0
LINE
  5
32B
100
AcDbEntity
  8
03__ASM_ALL_CURVES
100
AcDbLine
 62
40
  6
CONTINUOUS
 10
4.6810876366
 20
4.9057939327
 11
4.6756951366
 21
4.9129839326
  0
LINE
  5
32C
100
AcDbEntity
  8
03__ASM_ALL_CURVES
100
AcDbLine
 62
40
  6
CONTINUOUS
 10
4.6783913866
 20
4.9345539326
 11
4.6810876366
 21
4.9309589335
  0
LINE
  5
32D
100
AcDbEntity
  8
03__ASM_ALL_CURVES
100
AcDbLine
 62
40
  6
CONTINUOUS
 10
4.6972651366
 20
4.9201739322
 11
4.6999613866
 21
4.916578933
  0
LINE
  5
32E
100
AcDbEntity
  8
03__ASM_ALL_CURVES
100
AcDbLine
 62
40
  6
CONTINUOUS
 10
4.6999613866
 20
4.9381489317
 11
4.6972651366
 21
4.9417439335
  0
LINE
  5
32F
100
AcDbEntity
  8
03__ASM_ALL_CURVES
100
AcDbLine
 62
40
  6
CONTINUOUS
 10
4.9938526366
 20
4.9237689326
 11
5.0019413866
 21
4.9021989326
  0
LINE
  5
330
100
AcDbEntity
  8
0
100
AcDbLine
 62
7
  6
CONTINUOUS
 10
5.377111387
 20
3.9433509326
 11
5.377111387
 21
4.5033509326
  0
LINE
  5
331
100
AcDbEntity
  8
0
100
AcDbLine
 62
7
  6
CONTINUOUS
 10
5.423111387
 20
4.5703414744
 11
5.423111387
 21
3.8763603908
  0
LINE
  5
332
100
AcDbEntity
  8
0
100
AcDbLine
 62
7
  6
CONTINUOUS
 10
5.485611387
 20
4.5703414744
 11
5.485611387
 21
3.8763603908
  0
LINE
  5
333
100
AcDbEntity
  8
0
100
AcDbLine
 62
7
  6
CONTINUOUS
 10
4.920611387
 20
3.8903509326
 11
4.910611387
 21
3.8803509326
  0
LINE
  5
334
100
AcDbEntity
  8
0
100
AcDbLine
 62
7
  6
CONTINUOUS
 10
4.2548338188
 20
3.8176810596
 11
4.235111387
 21
3.8062943083
  0
LINE
  5
335
100
AcDbEntity
  8
0
100
AcDbLine
 62
7
  6
CONTINUOUS
 10
4.688111387
 20
3.8358509326
 11
4.4409733469
 21
3.8358509326
  0
LINE
  5
336
100
AcDbEntity
  8
0
100
AcDbLine
 62
7
  6
CONTINUOUS
 10
4.4121058335
 20
3.8728509326
 11
4.399611387
 21
3.8728509326
  0
LINE
  5
337
100
AcDbEntity
  8
0
100
AcDbLine
 62
7
  6
CONTINUOUS
 10
5.423111387
 20
3.8763509326
 11
5.485611387
 21
3.8763509326
  0
LINE
  5
338
100
AcDbEntity
  8
0
100
AcDbLine
 62
7
  6
CONTINUOUS
 10
5.683111387
 20
3.8763509326
 11
5.748111387
 21
3.8763509326
  0
LINE
  5
339
100
AcDbEntity
  8
0
100
AcDbLine
 62
7
  6
CONTINUOUS
 10
5.485611387
 20
3.8768509326
 11
5.535611387
 21
3.8768509326
  0
LINE
  5
33A
100
AcDbEntity
  8
0
100
AcDbLine
 62
7
  6
CONTINUOUS
 10
5.605611387
 20
3.8768509326
 11
5.655611387
 21
3.8768509326
  0
LINE
  5
33B
100
AcDbEntity
  8
0
100
AcDbLine
 62
7
  6
CONTINUOUS
 10
4.910611387
 20
3.8803509326
 11
4.732611387
 21
3.8803509326
  0
LINE
  5
33C
100
AcDbEntity
  8
0
100
AcDbLine
 62
7
  6
CONTINUOUS
 10
6.648111387
 20
3.8943509326
 11
6.583111387
 21
3.8943509326
  0
LINE
  5
33D
100
AcDbEntity
  8
0
100
AcDbLine
 62
7
  6
CONTINUOUS
 10
6.385611387
 20
3.8943509326
 11
6.323111387
 21
3.8943509326
  0
LINE
  5
33E
100
AcDbEntity
  8
0
100
AcDbLine
 62
7
  6
CONTINUOUS
 10
6.385611387
 20
3.8953509326
 11
6.435611387
 21
3.8953509326
  0
LINE
  5
33F
100
AcDbEntity
  8
0
100
AcDbLine
 62
7
  6
CONTINUOUS
 10
6.505611387
 20
3.8953509326
 11
6.555611387
 21
3.8953509326
  0
LINE
  5
340
100
AcDbEntity
  8
0
100
AcDbLine
 62
7
  6
CONTINUOUS
 10
7.295611387
 20
3.8953509326
 11
7.345611387
 21
3.8953509326
  0
LINE
  5
341
100
AcDbEntity
  8
0
100
AcDbLine
 62
7
  6
CONTINUOUS
 10
7.415611387
 20
3.8953509326
 11
7.465611387
 21
3.8953509326
  0
LINE
  5
342
100
AcDbEntity
  8
0
100
AcDbLine
 62
7
  6
CONTINUOUS
 10
7.563111387
 20
3.9123509326
 11
7.493111387
 21
3.9123509326
  0
LINE
  5
343
100
AcDbEntity
  8
0
100
AcDbLine
 62
7
  6
CONTINUOUS
 10
7.295611387
 20
3.9123509326
 11
7.2276455304
 21
3.9123509326
  0
LINE
  5
344
100
AcDbEntity
  8
0
100
AcDbLine
 62
7
  6
CONTINUOUS
 10
5.683111387
 20
3.9308509326
 11
5.655611387
 21
3.9308509326
  0
LINE
  5
345
100
AcDbEntity
  8
0
100
AcDbLine
 62
7
  6
CONTINUOUS
 10
7.184611387
 20
3.9421009326
 11
7.115111387
 21
3.9421009326
  0
LINE
  5
346
100
AcDbEntity
  8
0
100
AcDbLine
 62
7
  6
CONTINUOUS
 10
7.006111387
 20
3.9421009326
 11
6.694111387
 21
3.9421009326
  0
LINE
  5
347
100
AcDbEntity
  8
0
100
AcDbLine
 62
7
  6
CONTINUOUS
 10
6.277111387
 20
3.9421009326
 11
6.111611387
 21
3.9421009326
  0
LINE
  5
348
100
AcDbEntity
  8
0
100
AcDbLine
 62
7
  6
CONTINUOUS
 10
5.971611387
 20
3.9421009326
 11
5.794111387
 21
3.9421009326
  0
LINE
  5
349
100
AcDbEntity
  8
0
100
AcDbLine
 62
7
  6
CONTINUOUS
 10
5.377111387
 20
3.9433509326
 11
5.075111387
 21
3.9433509326
  0
LINE
  5
34A
100
AcDbEntity
  8
0
100
AcDbLine
 62
7
  6
CONTINUOUS
 10
4.966111387
 20
3.9433509326
 11
4.920611387
 21
3.9433509326
  0
LINE
  5
34B
100
AcDbEntity
  8
0
100
AcDbLine
 62
7
  6
CONTINUOUS
 10
6.583111387
 20
3.9493509326
 11
6.555611387
 21
3.9493509326
  0
LINE
  5
34C
100
AcDbEntity
  8
THREAD
100
AcDbLine
 62
7
  6
CONTINUOUS
 10
3.952111387
 20
3.9536534051
 11
3.5166750529
 21
3.9536534051
  0
LINE
  5
34D
100
AcDbEntity
  8
0
100
AcDbLine
 62
7
  6
CONTINUOUS
 10
7.493111387
 20
3.9668509326
 11
7.465611387
 21
3.9668509326
  0
LINE
  5
34E
100
AcDbEntity
  8
03__ASM_ALL_CURVES
100
AcDbLine
 62
40
  6
CONTINUOUS
 10
3.987031387
 20
4.9453389326
 11
3.992423887
 21
4.9417439335
  0
LINE
  5
34F
100
AcDbEntity
  8
03__ASM_ALL_CURVES
100
AcDbLine
 62
40
  6
CONTINUOUS
 10
6.0982231471
 20
3.6289959326
 11
6.0941787721
 21
3.6316921827
  0
LINE
  5
350
100
AcDbEntity
  8
03__ASM_ALL_CURVES
100
AcDbLine
 62
40
  6
CONTINUOUS
 10
6.0699125221
 20
3.6613509326
 11
6.0739568971
 21
3.6586546832
  0
LINE
  5
351
100
AcDbEntity
  8
03__ASM_ALL_CURVES
100
AcDbLine
 62
40
  6
CONTINUOUS
 10
6.1022675221
 20
3.6613509326
 11
6.1063118971
 21
3.6586546832
  0
LINE
  5
352
100
AcDbEntity
  8
03__ASM_ALL_CURVES
100
AcDbLine
 62
40
  6
CONTINUOUS
 10
6.1346225221
 20
3.6613509326
 11
6.1386668971
 21
3.6586546832
  0
LINE
  5
353
100
AcDbEntity
  8
03__ASM_ALL_CURVES
100
AcDbLine
 62
40
  6
CONTINUOUS
 10
6.1952881471
 20
3.6289959326
 11
6.1912437721
 21
3.6316921827
  0
LINE
  5
354
100
AcDbEntity
  8
03__ASM_ALL_CURVES
100
AcDbLine
 62
40
  6
CONTINUOUS
 10
6.1993325221
 20
3.647869682
 11
6.2033768971
 21
3.6451734326
  0
LINE
  5
355
100
AcDbEntity
  8
03__ASM_ALL_CURVES
100
AcDbLine
 62
40
  6
CONTINUOUS
 10
6.1993325221
 20
3.6613509326
 11
6.2033768971
 21
3.6586546832
  0
LINE
  5
356
100
AcDbEntity
  8
0
100
AcDbLine
 62
7
  6
CONTINUOUS
 10
4.920611387
 20
4.5563509326
 11
4.910611387
 21
4.5663509326
  0
LINE
  5
357
100
AcDbEntity
  8
03__ASM_ALL_CURVES
100
AcDbLine
 62
40
  6
CONTINUOUS
 10
4.7673676366
 20
4.9057939327
 11
4.7619751366
 21
4.9129839326
  0
LINE
  5
358
100
AcDbEntity
  8
03__ASM_ALL_CURVES
100
AcDbLine
 62
40
  6
CONTINUOUS
 10
4.8105076366
 20
4.9057939327
 11
4.8078113866
 21
4.9093889328
  0
LINE
  5
359
100
AcDbEntity
  8
03__ASM_ALL_CURVES
100
AcDbLine
 62
40
  6
CONTINUOUS
 10
4.7835451366
 20
4.9417439335
 11
4.7889376366
 21
4.9345539326
  0
LINE
  5
35A
100
AcDbEntity
  8
03__ASM_ALL_CURVES
100
AcDbLine
 62
40
  6
CONTINUOUS
 10
4.9102688866
 20
4.9417439335
 11
4.9156613866
 21
4.9345539326
  0
LINE
  5
35B
100
AcDbEntity
  8
0
100
AcDbLine
 62
7
  6
CONTINUOUS
 10
5.535611387
 20
3.8768514594
 11
5.535611387
 21
4.5698504058
  0
LINE
  5
35C
100
AcDbEntity
  8
0
100
AcDbLine
 62
7
  6
CONTINUOUS
 10
5.605611387
 20
3.8768514594
 11
5.605611387
 21
4.5698504058
  0
LINE
  5
35D
100
AcDbEntity
  8
0
100
AcDbLine
 62
7
  6
CONTINUOUS
 10
5.655611387
 20
3.8768514594
 11
5.655611387
 21
4.5698504058
  0
LINE
  5
35E
100
AcDbEntity
  8
03__ASM_ALL_CURVES
100
AcDbLine
 62
40
  6
CONTINUOUS
 10
5.2523768375
 20
3.6613509326
 11
5.238221525
 21
3.6370846826
  0
LINE
  5
35F
100
AcDbEntity
  8
03__ASM_ALL_CURVES
100
AcDbLine
 62
40
  6
CONTINUOUS
 10
5.124979025
 20
3.6505659332
 11
5.1229568375
 21
3.647869682
  0
LINE
  5
360
100
AcDbEntity
  8
03__ASM_ALL_CURVES
100
AcDbLine
 62
40
  6
CONTINUOUS
 10
5.1391343375
 20
3.6532621826
 11
5.1431787125
 21
3.6586546832
  0
LINE
  5
361
100
AcDbEntity
  8
THREAD
100
AcDbLine
 62
7
  6
CONTINUOUS
 10
3.952111387
 20
4.0049459876
 11
3.5166750529
 21
4.0049459876
  0
LINE
  5
362
100
AcDbEntity
  8
0
100
AcDbLine
 62
7
  6
CONTINUOUS
 10
7.908611387
 20
4.0238509326
 11
7.575611387
 21
4.0238509326
  0
LINE
  5
363
100
AcDbEntity
  8
0
100
AcDbLine
 62
7
  6
CONTINUOUS
 10
6.1008249287
 20
4.0914268879
 11
5.9824497169
 21
4.0914268879
  0
LINE
  5
364
100
AcDbEntity
  8
0
100
AcDbLine
 62
7
  6
CONTINUOUS
 10
5.9891647762
 20
4.1241609382
 11
6.0940576803
 21
4.1241609382
  0
LINE
  5
365
100
AcDbEntity
  8
03__ASM_ALL_CURVES
100
AcDbLine
 62
40
  6
CONTINUOUS
 10
3.900751387
 20
4.9201739322
 11
3.892662637
 21
4.9237689326
  0
LINE
  5
366
100
AcDbEntity
  8
03__ASM_ALL_CURVES
100
AcDbLine
 62
40
  6
CONTINUOUS
 10
4.3413601366
 20
4.9021989326
 11
4.3359676366
 21
4.9057939327
  0
LINE
  5
367
100
AcDbEntity
  8
03__ASM_ALL_CURVES
100
AcDbLine
 62
40
  6
CONTINUOUS
 10
4.3845001366
 20
4.9021989326
 11
4.3791076366
 21
4.9057939327
  0
LINE
  5
368
100
AcDbEntity
  8
03__ASM_ALL_CURVES
100
AcDbLine
 62
40
  6
CONTINUOUS
 10
4.3467526366
 20
4.9453389326
 11
4.3521451366
 21
4.9417439335
  0
LINE
  5
369
100
AcDbEntity
  8
03__ASM_ALL_CURVES
100
AcDbLine
 62
40
  6
CONTINUOUS
 10
4.3898926366
 20
4.9453389326
 11
4.3952851366
 21
4.9417439335
  0
LINE
  5
36A
100
AcDbEntity
  8
03__ASM_ALL_CURVES
100
AcDbLine
 62
40
  6
CONTINUOUS
 10
4.6002001366
 20
4.9021989326
 11
4.5948076366
 21
4.9057939327
  0
LINE
  5
36B
100
AcDbEntity
  8
03__ASM_ALL_CURVES
100
AcDbLine
 62
40
  6
CONTINUOUS
 10
4.9992451366
 20
4.9417439335
 11
5.0019413866
 21
4.9381489317
  0
LINE
  5
36C
100
AcDbEntity
  8
03__ASM_ALL_CURVES
100
AcDbLine
 62
40
  6
CONTINUOUS
 10
6.0941787721
 20
3.6316921827
 11
6.0901343971
 21
3.6370846826
  0
LINE
  5
36D
100
AcDbEntity
  8
03__ASM_ALL_CURVES
100
AcDbLine
 62
40
  6
CONTINUOUS
 10
6.0739568971
 20
3.6586546832
 11
6.0759790846
 21
3.655958432
  0
LINE
  5
36E
100
AcDbEntity
  8
0
100
AcDbLine
 62
7
  6
CONTINUOUS
 10
5.683111387
 20
4.5703414744
 11
5.683111387
 21
3.8763603908
  0
LINE
  5
36F
100
AcDbEntity
  8
0
100
AcDbLine
 62
7
  6
CONTINUOUS
 10
5.748111387
 20
4.5703414744
 11
5.748111387
 21
3.8763603908
  0
LINE
  5
370
100
AcDbEntity
  8
0
100
AcDbLine
 62
7
  6
CONTINUOUS
 10
5.794111387
 20
3.9421009326
 11
5.794111387
 21
4.5046009326
  0
LINE
  5
371
100
AcDbEntity
  8
03__ASM_ALL_CURVES
100
AcDbLine
 62
40
  6
CONTINUOUS
 10
5.1593562125
 20
3.6370846826
 11
5.1553118375
 21
3.6316921827
  0
LINE
  5
372
100
AcDbEntity
  8
03__ASM_ALL_CURVES
100
AcDbLine
 62
40
  6
CONTINUOUS
 10
5.189689025
 20
3.6505659332
 11
5.1876668375
 21
3.647869682
  0
LINE
  5
373
100
AcDbEntity
  8
03__ASM_ALL_CURVES
100
AcDbLine
 62
40
  6
CONTINUOUS
 10
8.0250773246
 20
4.2305409326
 11
8.0210329496
 21
4.2305409326
  0
LINE
  5
374
100
AcDbEntity
  8
03__ASM_ALL_CURVES
100
AcDbLine
 62
40
  6
CONTINUOUS
 10
8.0574323246
 20
4.2467184326
 11
8.0473213871
 21
4.2467184326
  0
LINE
  5
375
100
AcDbEntity
  8
03__ASM_ALL_CURVES
100
AcDbLine
 62
40
  6
CONTINUOUS
 10
7.9927223246
 20
4.2467184326
 11
7.9826113871
 21
4.2467184326
  0
LINE
  5
376
100
AcDbEntity
  8
03__ASM_ALL_CURVES
100
AcDbLine
 62
40
  6
CONTINUOUS
 10
7.9826113871
 20
4.2628959326
 11
7.9927223246
 21
4.2628959326
  0
LINE
  5
377
100
AcDbEntity
  8
03__ASM_ALL_CURVES
100
AcDbLine
 62
40
  6
CONTINUOUS
 10
8.0210329496
 20
4.2628959326
 11
8.0250773246
 21
4.2628959326
  0
LINE
  5
378
100
AcDbEntity
  8
03__ASM_ALL_CURVES
100
AcDbLine
 62
40
  6
CONTINUOUS
 10
8.0473213871
 20
4.2628959326
 11
8.0574323246
 21
4.2628959326
  0
LINE
  5
379
100
AcDbEntity
  8
03__ASM_ALL_CURVES
100
AcDbLine
 62
40
  6
CONTINUOUS
 10
8.0776541996
 20
4.2628959326
 11
8.0978760746
 21
4.2628959326
  0
LINE
  5
37A
100
AcDbEntity
  8
03__ASM_ALL_CURVES
100
AcDbLine
 62
40
  6
CONTINUOUS
 10
4.6055926366
 20
4.9453389326
 11
4.6109851366
 21
4.9417439335
  0
LINE
  5
37B
100
AcDbEntity
  8
03__ASM_ALL_CURVES
100
AcDbLine
 62
40
  6
CONTINUOUS
 10
4.6864801366
 20
4.9021989326
 11
4.6810876366
 21
4.9057939327
  0
LINE
  5
37C
100
AcDbEntity
  8
03__ASM_ALL_CURVES
100
AcDbLine
 62
40
  6
CONTINUOUS
 10
4.6810876366
 20
4.9309589335
 11
4.6972651366
 21
4.9201739322
  0
LINE
  5
37D
100
AcDbEntity
  8
03__ASM_ALL_CURVES
100
AcDbLine
 62
40
  6
CONTINUOUS
 10
4.6972651366
 20
4.9417439335
 11
4.6918726366
 21
4.9453389326
  0
LINE
  5
37E
100
AcDbEntity
  8
03__ASM_ALL_CURVES
100
AcDbLine
 62
40
  6
CONTINUOUS
 10
4.7727601366
 20
4.9021989326
 11
4.7673676366
 21
4.9057939327
  0
LINE
  5
37F
100
AcDbEntity
  8
03__ASM_ALL_CURVES
100
AcDbLine
 62
40
  6
CONTINUOUS
 10
4.8159001366
 20
4.9021989326
 11
4.8105076366
 21
4.9057939327
  0
LINE
  5
380
100
AcDbEntity
  8
03__ASM_ALL_CURVES
100
AcDbLine
 62
40
  6
CONTINUOUS
 10
4.7781526366
 20
4.9453389326
 11
4.7835451366
 21
4.9417439335
  0
LINE
  5
381
100
AcDbEntity
  8
03__ASM_ALL_CURVES
100
AcDbLine
 62
40
  6
CONTINUOUS
 10
6.1063118971
 20
3.6586546832
 11
6.1103562721
 21
3.6532621826
  0
LINE
  5
382
100
AcDbEntity
  8
03__ASM_ALL_CURVES
100
AcDbLine
 62
40
  6
CONTINUOUS
 10
6.1386668971
 20
3.6586546832
 11
6.1406890846
 21
3.655958432
  0
LINE
  5
383
100
AcDbEntity
  8
03__ASM_ALL_CURVES
100
AcDbLine
 62
40
  6
CONTINUOUS
 10
6.1912437721
 20
3.6316921827
 11
6.1892215846
 21
3.6343884328
  0
LINE
  5
384
100
AcDbEntity
  8
03__ASM_ALL_CURVES
100
AcDbLine
 62
40
  6
CONTINUOUS
 10
6.2033768971
 20
3.6451734326
 11
6.2074212721
 21
3.6397809329
  0
LINE
  5
385
100
AcDbEntity
  8
03__ASM_ALL_CURVES
100
AcDbLine
 62
40
  6
CONTINUOUS
 10
6.2033768971
 20
3.6586546832
 11
6.2053990846
 21
3.655958432
  0
LINE
  5
386
100
AcDbEntity
  8
03__ASM_ALL_CURVES
100
AcDbLine
 62
40
  6
CONTINUOUS
 10
5.1229568375
 20
3.647869682
 11
5.1189124625
 21
3.6451734326
  0
LINE
  5
387
100
AcDbEntity
  8
03__ASM_ALL_CURVES
100
AcDbLine
 62
40
  6
CONTINUOUS
 10
5.1431787125
 20
3.6586546832
 11
5.1472230875
 21
3.6613509326
  0
LINE
  5
388
100
AcDbEntity
  8
0
100
AcDbLine
 62
7
  6
CONTINUOUS
 10
7.908611387
 20
4.4228509326
 11
7.880111387
 21
4.4228509326
  0
LINE
  5
389
100
AcDbEntity
  8
0
100
AcDbLine
 62
7
  6
CONTINUOUS
 10
7.833111387
 20
4.4228509326
 11
7.575611387
 21
4.4228509326
  0
LINE
  5
38A
100
AcDbEntity
  8
THREAD
100
AcDbLine
 62
7
  6
CONTINUOUS
 10
3.952111387
 20
4.4417558776
 11
3.5166750529
 21
4.4417558776
  0
LINE
  5
38B
100
AcDbEntity
  8
03__ASM_ALL_CURVES
100
AcDbLine
 62
40
  6
CONTINUOUS
 10
4.9048763866
 20
4.9453389326
 11
4.9102688866
 21
4.9417439335
  0
LINE
  5
38C
100
AcDbEntity
  8
03__ASM_ALL_CURVES
100
AcDbLine
 62
40
  6
CONTINUOUS
 10
4.9938526366
 20
4.9453389326
 11
4.9992451366
 21
4.9417439335
  0
LINE
  5
38D
100
AcDbEntity
  8
03__ASM_ALL_CURVES
100
AcDbLine
 62
40
  6
CONTINUOUS
 10
6.9862342207
 20
3.6289959326
 11
6.9821898457
 21
3.6316921827
  0
LINE
  5
38E
100
AcDbEntity
  8
03__ASM_ALL_CURVES
100
AcDbLine
 62
40
  6
CONTINUOUS
 10
6.9579235957
 20
3.6613509326
 11
6.9619679707
 21
3.6586546832
  0
LINE
  5
38F
100
AcDbEntity
  8
03__ASM_ALL_CURVES
100
AcDbLine
 62
40
  6
CONTINUOUS
 10
6.9902785957
 20
3.6613509326
 11
6.9943229707
 21
3.6586546832
  0
LINE
  5
390
100
AcDbEntity
  8
03__ASM_ALL_CURVES
100
AcDbLine
 62
40
  6
CONTINUOUS
 10
7.0226335957
 20
3.6613509326
 11
7.0266779707
 21
3.6586546832
  0
LINE
  5
391
100
AcDbEntity
  8
03__ASM_ALL_CURVES
100
AcDbLine
 62
40
  6
CONTINUOUS
 10
6.1346225221
 20
3.6451734326
 11
6.1406890846
 21
3.6289959326
  0
LINE
  5
392
100
AcDbEntity
  8
03__ASM_ALL_CURVES
100
AcDbLine
 62
40
  6
CONTINUOUS
 10
6.0901343971
 20
3.6370846826
 11
6.0881122096
 21
3.6451734326
  0
LINE
  5
393
100
AcDbEntity
  8
03__ASM_ALL_CURVES
100
AcDbLine
 62
40
  6
CONTINUOUS
 10
6.1103562721
 20
3.6532621826
 11
6.1123784596
 21
3.6451734326
  0
LINE
  5
394
100
AcDbEntity
  8
03__ASM_ALL_CURVES
100
AcDbLine
 62
40
  6
CONTINUOUS
 10
6.0598015846
 20
3.6289959326
 11
6.0598015846
 21
3.6613509326
  0
LINE
  5
395
100
AcDbEntity
  8
03__ASM_ALL_CURVES
100
AcDbLine
 62
40
  6
CONTINUOUS
 10
6.0759790846
 20
3.655958432
 11
6.0759790846
 21
3.6505659332
  0
LINE
  5
396
100
AcDbEntity
  8
03__ASM_ALL_CURVES
100
AcDbLine
 62
40
  6
CONTINUOUS
 10
6.1245115846
 20
3.6289959326
 11
6.1245115846
 21
3.6613509326
  0
LINE
  5
397
100
AcDbEntity
  8
03__ASM_ALL_CURVES
100
AcDbLine
 62
40
  6
CONTINUOUS
 10
6.1406890846
 20
3.655958432
 11
6.1406890846
 21
3.6505659332
  0
LINE
  5
398
100
AcDbEntity
  8
03__ASM_ALL_CURVES
100
AcDbLine
 62
40
  6
CONTINUOUS
 10
5.1553118375
 20
3.6316921827
 11
5.1512674625
 21
3.6289959326
  0
LINE
  5
399
100
AcDbEntity
  8
03__ASM_ALL_CURVES
100
AcDbLine
 62
40
  6
CONTINUOUS
 10
5.1876668375
 20
3.647869682
 11
5.1836224625
 21
3.6451734326
  0
LINE
  5
39A
100
AcDbEntity
  8
0
100
AcDbLine
 62
7
  6
CONTINUOUS
 10
7.493111387
 20
4.4798509326
 11
7.465611387
 21
4.4798509326
  0
LINE
  5
39B
100
AcDbEntity
  8
THREAD
100
AcDbLine
 62
7
  6
CONTINUOUS
 10
3.952111387
 20
4.4930484601
 11
3.5166750529
 21
4.4930484601
  0
LINE
  5
39C
100
AcDbEntity
  8
0
100
AcDbLine
 62
7
  6
CONTINUOUS
 10
6.583111387
 20
4.4973509326
 11
6.555611387
 21
4.4973509326
  0
LINE
  5
39D
100
AcDbEntity
  8
0
100
AcDbLine
 62
7
  6
CONTINUOUS
 10
5.377111387
 20
4.5033509326
 11
5.075111387
 21
4.5033509326
  0
LINE
  5
39E
100
AcDbEntity
  8
0
100
AcDbLine
 62
7
  6
CONTINUOUS
 10
4.966111387
 20
4.5033509326
 11
4.920611387
 21
4.5033509326
  0
LINE
  5
39F
100
AcDbEntity
  8
0
100
AcDbLine
 62
7
  6
CONTINUOUS
 10
7.184611387
 20
4.5046009326
 11
7.115111387
 21
4.5046009326
  0
LINE
  5
3A0
100
AcDbEntity
  8
0
100
AcDbLine
 62
7
  6
CONTINUOUS
 10
7.006111387
 20
4.5046009326
 11
6.694111387
 21
4.5046009326
  0
LINE
  5
3A1
100
AcDbEntity
  8
0
100
AcDbLine
 62
7
  6
CONTINUOUS
 10
6.277111387
 20
4.5046009326
 11
6.111611387
 21
4.5046009326
  0
LINE
  5
3A2
100
AcDbEntity
  8
0
100
AcDbLine
 62
7
  6
CONTINUOUS
 10
5.971611387
 20
4.5046009326
 11
5.794111387
 21
4.5046009326
  0
LINE
  5
3A3
100
AcDbEntity
  8
0
100
AcDbLine
 62
7
  6
CONTINUOUS
 10
5.683111387
 20
4.5158509326
 11
5.655611387
 21
4.5158509326
  0
LINE
  5
3A4
100
AcDbEntity
  8
0
100
AcDbLine
 62
7
  6
CONTINUOUS
 10
7.563111387
 20
4.5343509326
 11
7.493111387
 21
4.5343509326
  0
LINE
  5
3A5
100
AcDbEntity
  8
0
100
AcDbLine
 62
7
  6
CONTINUOUS
 10
7.295611387
 20
4.5343509326
 11
7.2276455304
 21
4.5343509326
  0
LINE
  5
3A6
100
AcDbEntity
  8
0
100
AcDbLine
 62
7
  6
CONTINUOUS
 10
6.385611387
 20
4.5513509326
 11
6.435611387
 21
4.5513509326
  0
LINE
  5
3A7
100
AcDbEntity
  8
0
100
AcDbLine
 62
7
  6
CONTINUOUS
 10
6.505611387
 20
4.5513509326
 11
6.555611387
 21
4.5513509326
  0
LINE
  5
3A8
100
AcDbEntity
  8
0
100
AcDbLine
 62
7
  6
CONTINUOUS
 10
7.295611387
 20
4.5513509326
 11
7.345611387
 21
4.5513509326
  0
LINE
  5
3A9
100
AcDbEntity
  8
0
100
AcDbLine
 62
7
  6
CONTINUOUS
 10
7.415611387
 20
4.5513509326
 11
7.465611387
 21
4.5513509326
  0
LINE
  5
3AA
100
AcDbEntity
  8
0
100
AcDbLine
 62
7
  6
CONTINUOUS
 10
6.648111387
 20
4.5523509326
 11
6.583111387
 21
4.5523509326
  0
LINE
  5
3AB
100
AcDbEntity
  8
0
100
AcDbLine
 62
7
  6
CONTINUOUS
 10
6.385611387
 20
4.5523509326
 11
6.323111387
 21
4.5523509326
  0
LINE
  5
3AC
100
AcDbEntity
  8
0
100
AcDbLine
 62
7
  6
CONTINUOUS
 10
4.910611387
 20
4.5663509326
 11
4.732611387
 21
4.5663509326
  0
LINE
  5
3AD
100
AcDbEntity
  8
0
100
AcDbLine
 62
7
  6
CONTINUOUS
 10
5.485611387
 20
4.5698509326
 11
5.535611387
 21
4.5698509326
  0
LINE
  5
3AE
100
AcDbEntity
  8
0
100
AcDbLine
 62
7
  6
CONTINUOUS
 10
5.605611387
 20
4.5698509326
 11
5.655611387
 21
4.5698509326
  0
LINE
  5
3AF
100
AcDbEntity
  8
0
100
AcDbLine
 62
7
  6
CONTINUOUS
 10
5.423111387
 20
4.5703509326
 11
5.485611387
 21
4.5703509326
  0
LINE
  5
3B0
100
AcDbEntity
  8
0
100
AcDbLine
 62
7
  6
CONTINUOUS
 10
5.683111387
 20
4.5703509326
 11
5.748111387
 21
4.5703509326
  0
LINE
  5
3B1
100
AcDbEntity
  8
0
100
AcDbLine
 62
7
  6
CONTINUOUS
 10
4.4121058335
 20
4.5738509326
 11
4.399611387
 21
4.5738509326
  0
LINE
  5
3B2
100
AcDbEntity
  8
0
100
AcDbLine
 62
7
  6
CONTINUOUS
 10
4.688111387
 20
4.6108509326
 11
4.4409733469
 21
4.6108509326
  0
LINE
  5
3B3
100
AcDbEntity
  8
0
100
AcDbLine
 62
7
  6
CONTINUOUS
 10
4.349611387
 20
4.6278509326
 11
4.399611387
 21
4.6278509326
  0
LINE
  5
3B4
100
AcDbEntity
  8
0
100
AcDbLine
 62
7
  6
CONTINUOUS
 10
4.279611387
 20
4.6283509326
 11
4.2573338188
 21
4.6283509326
  0
LINE
  5
3B5
100
AcDbEntity
  8
03__ASM_ALL_CURVES
100
AcDbLine
 62
40
  6
CONTINUOUS
 10
3.525751387
 20
4.8830255993
 11
3.482611387
 21
4.8878189326
  0
LINE
  5
3B6
100
AcDbEntity
  8
03__ASM_ALL_CURVES
100
AcDbLine
 62
40
  6
CONTINUOUS
 10
3.525751387
 20
4.8818272659
 11
3.482611387
 21
4.8878189326
  0
LINE
  5
3B7
100
AcDbEntity
  8
03__ASM_ALL_CURVES
100
AcDbLine
 62
40
  6
CONTINUOUS
 10
3.525751387
 20
4.8806289326
 11
3.482611387
 21
4.8878189326
  0
LINE
  5
3B8
100
AcDbEntity
  8
03__ASM_ALL_CURVES
100
AcDbLine
 62
40
  6
CONTINUOUS
 10
4.275751387
 20
4.8806289326
 11
4.189471387
 21
4.8950089326
  0
LINE
  5
3B9
100
AcDbEntity
  8
03__ASM_ALL_CURVES
100
AcDbLine
 62
40
  6
CONTINUOUS
 10
7.0873435957
 20
3.6613509326
 11
7.0913879707
 21
3.6586546832
  0
LINE
  5
3BA
100
AcDbEntity
  8
03__ASM_ALL_CURVES
100
AcDbLine
 62
40
  6
CONTINUOUS
 10
6.1649553346
 20
3.6613509326
 11
6.1649553346
 21
3.6289959326
  0
LINE
  5
3BB
100
AcDbEntity
  8
03__ASM_ALL_CURVES
100
AcDbLine
 62
40
  6
CONTINUOUS
 10
6.2053990846
 20
3.655958432
 11
6.2053990846
 21
3.6532621826
  0
LINE
  5
3BC
100
AcDbEntity
  8
03__ASM_ALL_CURVES
100
AcDbLine
 62
40
  6
CONTINUOUS
 10
6.2074212721
 20
3.6397809329
 11
6.2074212721
 21
3.6370846826
  0
LINE
  5
3BD
100
AcDbEntity
  8
0
100
AcDbLine
 62
7
  6
CONTINUOUS
 10
6.277111387
 20
3.9421009326
 11
6.277111387
 21
4.5046009326
  0
LINE
  5
3BE
100
AcDbEntity
  8
03__ASM_ALL_CURVES
100
AcDbLine
 62
40
  6
CONTINUOUS
 10
6.0881122096
 20
3.6451734326
 11
6.0901343971
 21
3.6532621826
  0
LINE
  5
3BF
100
AcDbEntity
  8
03__ASM_ALL_CURVES
100
AcDbLine
 62
40
  6
CONTINUOUS
 10
6.1123784596
 20
3.6451734326
 11
6.1103562721
 21
3.6370846826
  0
LINE
  5
3C0
100
AcDbEntity
  8
THREAD
100
AcDbLine
 62
7
  6
CONTINUOUS
 10
4.229611387
 20
4.6508509326
 11
4.179611387
 21
4.6508509326
  0
LINE
  5
3C1
100
AcDbEntity
  8
THREAD
100
AcDbLine
 62
7
  6
CONTINUOUS
 10
4.159611387
 20
4.6508509326
 11
4.013611387
 21
4.6508509326
  0
LINE
  5
3C2
100
AcDbEntity
  8
THREAD
100
AcDbLine
 62
7
  6
CONTINUOUS
 10
3.952111387
 20
4.7114534051
 11
3.5166750529
 21
4.7114534051
  0
LINE
  5
3C3
100
AcDbEntity
  8
THREAD
100
AcDbLine
 62
7
  6
CONTINUOUS
 10
3.952111387
 20
4.7123509326
 11
3.5166750529
 21
4.7123509326
  0
LINE
  5
3C4
100
AcDbEntity
  8
03__ASM_ALL_CURVES
100
AcDbLine
 62
40
  6
CONTINUOUS
 10
3.525751387
 20
4.8854222659
 11
3.482611387
 21
4.8878189326
  0
LINE
  5
3C5
100
AcDbEntity
  8
03__ASM_ALL_CURVES
100
AcDbLine
 62
40
  6
CONTINUOUS
 10
3.525751387
 20
4.8842239326
 11
3.482611387
 21
4.8878189326
  0
LINE
  5
3C6
100
AcDbEntity
  8
03__ASM_ALL_CURVES
100
AcDbLine
 62
40
  6
CONTINUOUS
 10
4.189471387
 20
4.8914139326
 11
4.275751387
 21
4.8842239326
  0
LINE
  5
3C7
100
AcDbEntity
  8
03__ASM_ALL_CURVES
100
AcDbLine
 62
40
  6
CONTINUOUS
 10
4.189471387
 20
4.8926122659
 11
4.275751387
 21
4.8830255993
  0
LINE
  5
3C8
100
AcDbEntity
  8
03__ASM_ALL_CURVES
100
AcDbLine
 62
40
  6
CONTINUOUS
 10
4.189471387
 20
4.8938105993
 11
4.275751387
 21
4.8818272659
  0
LINE
  5
3C9
100
AcDbEntity
  8
0
100
AcDbLine
 62
7
  6
CONTINUOUS
 10
6.323111387
 20
3.8943599002
 11
6.323111387
 21
4.552341965
  0
LINE
  5
3CA
100
AcDbEntity
  8
0
100
AcDbLine
 62
7
  6
CONTINUOUS
 10
6.385611387
 20
3.8943599002
 11
6.385611387
 21
4.552341965
  0
LINE
  5
3CB
100
AcDbEntity
  8
0
100
AcDbLine
 62
7
  6
CONTINUOUS
 10
6.435611387
 20
3.8953514313
 11
6.435611387
 21
4.5513504339
  0
LINE
  5
3CC
100
AcDbEntity
  8
03__ASM_ALL_CURVES
100
AcDbLine
 62
40
  6
CONTINUOUS
 10
6.0759790846
 20
3.6505659332
 11
6.0739568971
 21
3.647869682
  0
LINE
  5
3CD
100
AcDbEntity
  8
03__ASM_ALL_CURVES
100
AcDbLine
 62
40
  6
CONTINUOUS
 10
6.0901343971
 20
3.6532621826
 11
6.0941787721
 21
3.6586546832
  0
LINE
  5
3CE
100
AcDbEntity
  8
03__ASM_ALL_CURVES
100
AcDbLine
 62
40
  6
CONTINUOUS
 10
6.1103562721
 20
3.6370846826
 11
6.1063118971
 21
3.6316921827
  0
LINE
  5
3CF
100
AcDbEntity
  8
03__ASM_ALL_CURVES
100
AcDbLine
 62
40
  6
CONTINUOUS
 10
6.1406890846
 20
3.6505659332
 11
6.1386668971
 21
3.647869682
  0
LINE
  5
3D0
100
AcDbEntity
  8
03__ASM_ALL_CURVES
100
AcDbLine
 62
40
  6
CONTINUOUS
 10
4.189471387
 20
4.8866205993
 11
4.275751387
 21
4.8890172659
  0
LINE
  5
3D1
100
AcDbEntity
  8
03__ASM_ALL_CURVES
100
AcDbLine
 62
40
  6
CONTINUOUS
 10
3.482611387
 20
4.8878189326
 11
5.052271387
 21
4.8878189326
  0
LINE
  5
3D2
100
AcDbEntity
  8
03__ASM_ALL_CURVES
100
AcDbLine
 62
40
  6
CONTINUOUS
 10
4.9588013866
 20
4.9021989326
 11
4.9372313866
 21
4.9021989326
  0
LINE
  5
3D3
100
AcDbEntity
  8
03__ASM_ALL_CURVES
100
AcDbLine
 62
40
  6
CONTINUOUS
 10
4.9048763866
 20
4.9021989326
 11
4.8940913866
 21
4.9021989326
  0
LINE
  5
3D4
100
AcDbEntity
  8
03__ASM_ALL_CURVES
100
AcDbLine
 62
40
  6
CONTINUOUS
 10
4.8212926366
 20
4.9021989326
 11
4.8159001366
 21
4.9021989326
  0
LINE
  5
3D5
100
AcDbEntity
  8
03__ASM_ALL_CURVES
100
AcDbLine
 62
40
  6
CONTINUOUS
 10
4.7781526366
 20
4.9021989326
 11
4.7727601366
 21
4.9021989326
  0
LINE
  5
3D6
100
AcDbEntity
  8
03__ASM_ALL_CURVES
100
AcDbLine
 62
40
  6
CONTINUOUS
 10
4.6918726366
 20
4.9021989326
 11
4.6864801366
 21
4.9021989326
  0
LINE
  5
3D7
100
AcDbEntity
  8
03__ASM_ALL_CURVES
100
AcDbLine
 62
40
  6
CONTINUOUS
 10
4.6055926366
 20
4.9021989326
 11
4.6002001366
 21
4.9021989326
  0
LINE
  5
3D8
100
AcDbEntity
  8
03__ASM_ALL_CURVES
100
AcDbLine
 62
40
  6
CONTINUOUS
 10
4.3898926366
 20
4.9021989326
 11
4.3845001366
 21
4.9021989326
  0
LINE
  5
3D9
100
AcDbEntity
  8
03__ASM_ALL_CURVES
100
AcDbLine
 62
40
  6
CONTINUOUS
 10
4.3467526366
 20
4.9021989326
 11
4.3413601366
 21
4.9021989326
  0
LINE
  5
3DA
100
AcDbEntity
  8
03__ASM_ALL_CURVES
100
AcDbLine
 62
40
  6
CONTINUOUS
 10
3.943891387
 20
4.9021989326
 11
3.941195137
 21
4.9021989326
  0
LINE
  5
3DB
100
AcDbEntity
  8
03__ASM_ALL_CURVES
100
AcDbLine
 62
40
  6
CONTINUOUS
 10
3.774027637
 20
4.9021989326
 11
3.768635137
 21
4.9021989326
  0
LINE
  5
3DC
100
AcDbEntity
  8
03__ASM_ALL_CURVES
100
AcDbLine
 62
40
  6
CONTINUOUS
 10
3.685051387
 20
4.9021989326
 11
3.682355137
 21
4.9021989326
  0
LINE
  5
3DD
100
AcDbEntity
  8
03__ASM_ALL_CURVES
100
AcDbLine
 62
40
  6
CONTINUOUS
 10
4.2901313866
 20
4.9021989326
 11
4.3117013866
 21
4.9021989326
  0
LINE
  5
3DE
100
AcDbEntity
  8
03__ASM_ALL_CURVES
100
AcDbLine
 62
40
  6
CONTINUOUS
 10
4.8509513866
 20
4.9021989326
 11
4.8725213866
 21
4.9021989326
  0
LINE
  5
3DF
100
AcDbEntity
  8
03__ASM_ALL_CURVES
100
AcDbLine
 62
40
  6
CONTINUOUS
 10
4.019386387
 20
4.9129839326
 11
4.043652637
 21
4.9129839326
  0
LINE
  5
3E0
100
AcDbEntity
  8
03__ASM_ALL_CURVES
100
AcDbLine
 62
40
  6
CONTINUOUS
 10
4.4222476366
 20
4.916578933
 11
4.4384251366
 21
4.916578933
  0
LINE
  5
3E1
100
AcDbEntity
  8
03__ASM_ALL_CURVES
100
AcDbLine
 62
40
  6
CONTINUOUS
 10
4.9938526366
 20
4.9237689326
 11
4.9803713866
 21
4.9237689326
  0
LINE
  5
3E2
100
AcDbEntity
  8
03__ASM_ALL_CURVES
100
AcDbLine
 62
40
  6
CONTINUOUS
 10
4.6028963866
 20
4.9237689326
 11
4.6136813866
 21
4.9237689326
  0
LINE
  5
3E3
100
AcDbEntity
  8
03__ASM_ALL_CURVES
100
AcDbLine
 62
40
  6
CONTINUOUS
 10
4.7215313866
 20
4.9237689326
 11
4.7431013866
 21
4.9237689326
  0
LINE
  5
3E4
100
AcDbEntity
  8
03__ASM_ALL_CURVES
100
AcDbLine
 62
40
  6
CONTINUOUS
 10
4.9372313866
 20
4.9237689326
 11
4.9507126366
 21
4.9237689326
  0
LINE
  5
3E5
100
AcDbEntity
  8
03__ASM_ALL_CURVES
100
AcDbLine
 62
40
  6
CONTINUOUS
 10
3.768635137
 20
4.9309589335
 11
3.774027637
 21
4.9309589335
  0
LINE
  5
3E6
100
AcDbEntity
  8
03__ASM_ALL_CURVES
100
AcDbLine
 62
40
  6
CONTINUOUS
 10
4.6918726366
 20
4.9453389326
 11
4.6864801366
 21
4.9453389326
  0
LINE
  5
3E7
100
AcDbEntity
  8
03__ASM_ALL_CURVES
100
AcDbLine
 62
40
  6
CONTINUOUS
 10
3.782116387
 20
4.9453389326
 11
3.765938887
 21
4.9453389326
  0
LINE
  5
3E8
100
AcDbEntity
  8
03__ASM_ALL_CURVES
100
AcDbLine
 62
40
  6
CONTINUOUS
 10
3.738976387
 20
4.9453389326
 11
3.717406387
 21
4.9453389326
  0
LINE
  5
3E9
100
AcDbEntity
  8
03__ASM_ALL_CURVES
100
AcDbLine
 62
40
  6
CONTINUOUS
 10
4.3413601366
 20
4.9453389326
 11
4.3467526366
 21
4.9453389326
  0
LINE
  5
3EA
100
AcDbEntity
  8
03__ASM_ALL_CURVES
100
AcDbLine
 62
40
  6
CONTINUOUS
 10
4.3845001366
 20
4.9453389326
 11
4.3898926366
 21
4.9453389326
  0
LINE
  5
3EB
100
AcDbEntity
  8
03__ASM_ALL_CURVES
100
AcDbLine
 62
40
  6
CONTINUOUS
 10
4.4599951366
 20
4.9453389326
 11
4.4869576366
 21
4.9453389326
  0
LINE
  5
3EC
100
AcDbEntity
  8
03__ASM_ALL_CURVES
100
AcDbLine
 62
40
  6
CONTINUOUS
 10
4.6002001366
 20
4.9453389326
 11
4.6055926366
 21
4.9453389326
  0
LINE
  5
3ED
100
AcDbEntity
  8
03__ASM_ALL_CURVES
100
AcDbLine
 62
40
  6
CONTINUOUS
 10
4.7727601366
 20
4.9453389326
 11
4.7781526366
 21
4.9453389326
  0
LINE
  5
3EE
100
AcDbEntity
  8
03__ASM_ALL_CURVES
100
AcDbLine
 62
40
  6
CONTINUOUS
 10
4.8940913866
 20
4.9453389326
 11
4.9048763866
 21
4.9453389326
  0
LINE
  5
3EF
100
AcDbEntity
  8
03__ASM_ALL_CURVES
100
AcDbLine
 62
40
  6
CONTINUOUS
 10
4.9372313866
 20
4.9453389326
 11
4.9588013866
 21
4.9453389326
  0
LINE
  5
3F0
100
AcDbEntity
  8
03__ASM_ALL_CURVES
100
AcDbLine
 62
40
  6
CONTINUOUS
 10
4.9803713866
 20
4.9453389326
 11
4.9938526366
 21
4.9453389326
  0
LINE
  5
3F1
100
AcDbEntity
  8
03__ASM_ALL_CURVES
100
AcDbLine
 62
40
  6
CONTINUOUS
 10
3.525751387
 20
4.8866205993
 11
3.482611387
 21
4.8878189326
  0
LINE
  5
3F2
100
AcDbEntity
  8
03__ASM_ALL_CURVES
100
AcDbLine
 62
40
  6
CONTINUOUS
 10
4.189471387
 20
4.8890172659
 11
4.275751387
 21
4.8866205993
  0
LINE
  5
3F3
100
AcDbEntity
  8
03__ASM_ALL_CURVES
100
AcDbLine
 62
40
  6
CONTINUOUS
 10
4.189471387
 20
4.8902155993
 11
4.275751387
 21
4.8854222659
  0
LINE
  5
3F4
100
AcDbEntity
  8
03__ASM_ALL_CURVES
100
AcDbLine
 62
40
  6
CONTINUOUS
 10
6.9821898457
 20
3.6316921827
 11
6.9781454707
 21
3.6370846826
  0
LINE
  5
3F5
100
AcDbEntity
  8
03__ASM_ALL_CURVES
100
AcDbLine
 62
40
  6
CONTINUOUS
 10
6.9619679707
 20
3.6586546832
 11
6.9639901582
 21
3.655958432
  0
LINE
  5
3F6
100
AcDbEntity
  8
03__ASM_ALL_CURVES
100
AcDbLine
 62
40
  6
CONTINUOUS
 10
6.9943229707
 20
3.6586546832
 11
6.9983673457
 21
3.6532621826
  0
LINE
  5
3F7
100
AcDbEntity
  8
03__ASM_ALL_CURVES
100
AcDbLine
 62
40
  6
CONTINUOUS
 10
7.0266779707
 20
3.6586546832
 11
7.0287001582
 21
3.655958432
  0
LINE
  5
3F8
100
AcDbEntity
  8
03__ASM_ALL_CURVES
100
AcDbLine
 62
40
  6
CONTINUOUS
 10
7.0913879707
 20
3.6586546832
 11
7.0934101582
 21
3.655958432
  0
LINE
  5
3F9
100
AcDbEntity
  8
0
100
AcDbLine
 62
7
  6
CONTINUOUS
 10
6.505611387
 20
3.8953514313
 11
6.505611387
 21
4.5513504339
  0
LINE
  5
3FA
100
AcDbEntity
  8
0
100
AcDbLine
 62
7
  6
CONTINUOUS
 10
6.555611387
 20
3.8953514313
 11
6.555611387
 21
4.5513504339
  0
LINE
  5
3FB
100
AcDbEntity
  8
0
100
AcDbLine
 62
7
  6
CONTINUOUS
 10
6.583111387
 20
3.8943599002
 11
6.583111387
 21
4.552341965
  0
LINE
  5
3FC
100
AcDbEntity
  8
03__ASM_ALL_CURVES
100
AcDbLine
 62
40
  6
CONTINUOUS
 10
6.2053990846
 20
3.6532621826
 11
6.2033768971
 21
3.6505659332
  0
LINE
  5
3FD
100
AcDbEntity
  8
03__ASM_ALL_CURVES
100
AcDbLine
 62
40
  6
CONTINUOUS
 10
6.2074212721
 20
3.6370846826
 11
6.2033768971
 21
3.6316921827
  0
LINE
  5
3FE
100
AcDbEntity
  8
03__ASM_ALL_CURVES
100
AcDbLine
 62
40
  6
CONTINUOUS
 10
6.0739568971
 20
3.647869682
 11
6.0699125221
 21
3.6451734326
  0
LINE
  5
3FF
100
AcDbEntity
  8
03__ASM_ALL_CURVES
100
AcDbLine
 62
40
  6
CONTINUOUS
 10
6.0941787721
 20
3.6586546832
 11
6.0982231471
 21
3.6613509326
  0
LINE
  5
400
100
AcDbEntity
  8
03__ASM_ALL_CURVES
100
AcDbLine
 62
40
  6
CONTINUOUS
 10
6.1063118971
 20
3.6316921827
 11
6.1022675221
 21
3.6289959326
  0
LINE
  5
401
100
AcDbEntity
  8
03__ASM_ALL_CURVES
100
AcDbLine
 62
40
  6
CONTINUOUS
 10
6.1386668971
 20
3.647869682
 11
6.1346225221
 21
3.6451734326
  0
LINE
  5
402
100
AcDbEntity
  8
03__ASM_ALL_CURVES
100
AcDbLine
 62
40
  6
CONTINUOUS
 10
6.1912437721
 20
3.6586546832
 11
6.1952881471
 21
3.6613509326
  0
LINE
  5
403
100
AcDbEntity
  8
03__ASM_ALL_CURVES
100
AcDbLine
 62
40
  6
CONTINUOUS
 10
6.2033768971
 20
3.6505659332
 11
6.1993325221
 21
3.647869682
  0
LINE
  5
404
100
AcDbEntity
  8
03__ASM_ALL_CURVES
100
AcDbLine
 62
40
  6
CONTINUOUS
 10
6.2033768971
 20
3.6316921827
 11
6.1993325221
 21
3.6289959326
  0
LINE
  5
405
100
AcDbEntity
  8
03__ASM_ALL_CURVES
100
AcDbLine
 62
40
  6
CONTINUOUS
 10
4.189471387
 20
4.8818272659
 11
4.275751387
 21
4.8938105993
  0
LINE
  5
406
100
AcDbEntity
  8
03__ASM_ALL_CURVES
100
AcDbLine
 62
40
  6
CONTINUOUS
 10
4.189471387
 20
4.8830255993
 11
4.275751387
 21
4.8926122659
  0
LINE
  5
407
100
AcDbEntity
  8
03__ASM_ALL_CURVES
100
AcDbLine
 62
40
  6
CONTINUOUS
 10
4.189471387
 20
4.8842239326
 11
4.275751387
 21
4.8914139326
  0
LINE
  5
408
100
AcDbEntity
  8
03__ASM_ALL_CURVES
100
AcDbLine
 62
40
  6
CONTINUOUS
 10
3.525751387
 20
4.8914139326
 11
3.482611387
 21
4.8878189326
  0
LINE
  5
409
100
AcDbEntity
  8
03__ASM_ALL_CURVES
100
AcDbLine
 62
40
  6
CONTINUOUS
 10
4.189471387
 20
4.8854222659
 11
4.275751387
 21
4.8902155993
  0
LINE
  5
40A
100
AcDbEntity
  8
03__ASM_ALL_CURVES
100
AcDbLine
 62
40
  6
CONTINUOUS
 10
3.525751387
 20
4.8902155993
 11
3.482611387
 21
4.8878189326
  0
LINE
  5
40B
100
AcDbEntity
  8
03__ASM_ALL_CURVES
100
AcDbLine
 62
40
  6
CONTINUOUS
 10
3.525751387
 20
4.8890172659
 11
3.482611387
 21
4.8878189326
  0
LINE
  5
40C
100
AcDbEntity
  8
0
100
AcDbLine
 62
7
  6
CONTINUOUS
 10
6.648111387
 20
3.8943599002
 11
6.648111387
 21
4.552341965
  0
LINE
  5
40D
100
AcDbEntity
  8
0
100
AcDbLine
 62
7
  6
CONTINUOUS
 10
6.694111387
 20
3.9421009326
 11
6.694111387
 21
4.5046009326
  0
LINE
  5
40E
100
AcDbEntity
  8
03__ASM_ALL_CURVES
100
AcDbLine
 62
40
  6
CONTINUOUS
 10
4.189471387
 20
4.8806289326
 11
4.275751387
 21
4.8950089326
  0
LINE
  5
40F
100
AcDbEntity
  8
03__ASM_ALL_CURVES
100
AcDbLine
 62
40
  6
CONTINUOUS
 10
3.482611387
 20
4.8878189326
 11
3.525751387
 21
4.8950089326
  0
LINE
  5
410
100
AcDbEntity
  8
03__ASM_ALL_CURVES
100
AcDbLine
 62
40
  6
CONTINUOUS
 10
3.525751387
 20
4.8938105993
 11
3.482611387
 21
4.8878189326
  0
LINE
  5
411
100
AcDbEntity
  8
03__ASM_ALL_CURVES
100
AcDbLine
 62
40
  6
CONTINUOUS
 10
3.525751387
 20
4.8926122659
 11
3.482611387
 21
4.8878189326
  0
LINE
  5
412
100
AcDbEntity
  8
03__ASM_ALL_CURVES
100
AcDbLine
 62
40
  6
CONTINUOUS
 10
7.0226335957
 20
3.6451734326
 11
7.0287001582
 21
3.6289959326
  0
LINE
  5
413
100
AcDbEntity
  8
03__ASM_ALL_CURVES
100
AcDbLine
 62
40
  6
CONTINUOUS
 10
6.9781454707
 20
3.6370846826
 11
6.9761232832
 21
3.6451734326
  0
LINE
  5
414
100
AcDbEntity
  8
03__ASM_ALL_CURVES
100
AcDbLine
 62
40
  6
CONTINUOUS
 10
6.9983673457
 20
3.6532621826
 11
7.0003895332
 21
3.6451734326
  0
LINE
  5
415
100
AcDbEntity
  8
03__ASM_ALL_CURVES
100
AcDbLine
 62
40
  6
CONTINUOUS
 10
6.9478126582
 20
3.6289959326
 11
6.9478126582
 21
3.6613509326
  0
LINE
  5
416
100
AcDbEntity
  8
03__ASM_ALL_CURVES
100
AcDbLine
 62
40
  6
CONTINUOUS
 10
6.9639901582
 20
3.655958432
 11
6.9639901582
 21
3.6505659332
  0
LINE
  5
417
100
AcDbEntity
  8
03__ASM_ALL_CURVES
100
AcDbLine
 62
40
  6
CONTINUOUS
 10
7.0125226582
 20
3.6289959326
 11
7.0125226582
 21
3.6613509326
  0
LINE
  5
418
100
AcDbEntity
  8
03__ASM_ALL_CURVES
100
AcDbLine
 62
40
  6
CONTINUOUS
 10
7.0287001582
 20
3.655958432
 11
7.0287001582
 21
3.6505659332
  0
LINE
  5
419
100
AcDbEntity
  8
03__ASM_ALL_CURVES
100
AcDbLine
 62
40
  6
CONTINUOUS
 10
7.0529664082
 20
3.6613509326
 11
7.0529664082
 21
3.6289959326
  0
LINE
  5
41A
100
AcDbEntity
  8
03__ASM_ALL_CURVES
100
AcDbLine
 62
40
  6
CONTINUOUS
 10
7.0934101582
 20
3.655958432
 11
7.0934101582
 21
3.6505659332
  0
LINE
  5
41B
100
AcDbEntity
  8
03__ASM_ALL_CURVES
100
AcDbLine
 62
40
  6
CONTINUOUS
 10
6.9761232832
 20
3.6451734326
 11
6.9781454707
 21
3.6532621826
  0
LINE
  5
41C
100
AcDbEntity
  8
03__ASM_ALL_CURVES
100
AcDbLine
 62
40
  6
CONTINUOUS
 10
6.9619679707
 20
3.647869682
 11
6.9579235957
 21
3.6451734326
  0
LINE
  5
41D
100
AcDbEntity
  8
03__ASM_ALL_CURVES
100
AcDbLine
 62
40
  6
CONTINUOUS
 10
6.9821898457
 20
3.6586546832
 11
6.9862342207
 21
3.6613509326
  0
LINE
  5
41E
100
AcDbEntity
  8
03__ASM_ALL_CURVES
100
AcDbLine
 62
40
  6
CONTINUOUS
 10
6.9943229707
 20
3.6316921827
 11
6.9902785957
 21
3.6289959326
  0
LINE
  5
41F
100
AcDbEntity
  8
03__ASM_ALL_CURVES
100
AcDbLine
 62
40
  6
CONTINUOUS
 10
7.0266779707
 20
3.647869682
 11
7.0226335957
 21
3.6451734326
  0
LINE
  5
420
100
AcDbEntity
  8
03__ASM_ALL_CURVES
100
AcDbLine
 62
40
  6
CONTINUOUS
 10
7.0792548457
 20
3.6586546832
 11
7.0832992207
 21
3.6613509326
  0
LINE
  5
421
100
AcDbEntity
  8
03__ASM_ALL_CURVES
100
AcDbLine
 62
40
  6
CONTINUOUS
 10
7.0913879707
 20
3.647869682
 11
7.0832992207
 21
3.6424771823
  0
LINE
  5
422
100
AcDbEntity
  8
03__ASM_ALL_CURVES
100
AcDbLine
 62
40
  6
CONTINUOUS
 10
7.9967666996
 20
4.249414682
 11
7.9927223246
 21
4.2467184326
  0
LINE
  5
423
100
AcDbEntity
  8
03__ASM_ALL_CURVES
100
AcDbLine
 62
40
  6
CONTINUOUS
 10
8.0169885746
 20
4.2601996832
 11
8.0210329496
 21
4.2628959326
  0
LINE
  5
424
100
AcDbEntity
  8
03__ASM_ALL_CURVES
100
AcDbLine
 62
40
  6
CONTINUOUS
 10
8.0291216996
 20
4.2332371827
 11
8.0250773246
 21
4.2305409326
  0
LINE
  5
425
100
AcDbEntity
  8
03__ASM_ALL_CURVES
100
AcDbLine
 62
40
  6
CONTINUOUS
 10
8.0614766996
 20
4.249414682
 11
8.0574323246
 21
4.2467184326
  0
LINE
  5
426
100
AcDbEntity
  8
03__ASM_ALL_CURVES
100
AcDbLine
 62
40
  6
CONTINUOUS
 10
8.0210329496
 20
4.2305409326
 11
8.0169885746
 21
4.2332371827
  0
LINE
  5
427
100
AcDbEntity
  8
03__ASM_ALL_CURVES
100
AcDbLine
 62
40
  6
CONTINUOUS
 10
7.9927223246
 20
4.2628959326
 11
7.9967666996
 21
4.2601996832
  0
LINE
  5
428
100
AcDbEntity
  8
03__ASM_ALL_CURVES
100
AcDbLine
 62
40
  6
CONTINUOUS
 10
8.0250773246
 20
4.2628959326
 11
8.0291216996
 21
4.2601996832
  0
LINE
  5
429
100
AcDbEntity
  8
03__ASM_ALL_CURVES
100
AcDbLine
 62
40
  6
CONTINUOUS
 10
8.0574323246
 20
4.2628959326
 11
8.0614766996
 21
4.2601996832
  0
LINE
  5
42A
100
AcDbEntity
  8
0
100
AcDbLine
 62
7
  6
CONTINUOUS
 10
7.184611387
 20
3.9421009326
 11
7.184611387
 21
4.5046009326
  0
LINE
  5
42B
100
AcDbEntity
  8
0
100
AcDbLine
 62
7
  6
CONTINUOUS
 10
7.2276455304
 20
3.9123509326
 11
7.2276455304
 21
4.5343509326
  0
LINE
  5
42C
100
AcDbEntity
  8
03__ASM_ALL_CURVES
100
AcDbLine
 62
40
  6
CONTINUOUS
 10
7.0003895332
 20
3.6451734326
 11
6.9983673457
 21
3.6370846826
  0
LINE
  5
42D
100
AcDbEntity
  8
03__ASM_ALL_CURVES
100
AcDbLine
 62
40
  6
CONTINUOUS
 10
7.0792548457
 20
3.6370846826
 11
7.0772326582
 21
3.6289959326
  0
LINE
  5
42E
100
AcDbEntity
  8
03__ASM_ALL_CURVES
100
AcDbLine
 62
40
  6
CONTINUOUS
 10
6.9639901582
 20
3.6505659332
 11
6.9619679707
 21
3.647869682
  0
LINE
  5
42F
100
AcDbEntity
  8
03__ASM_ALL_CURVES
100
AcDbLine
 62
40
  6
CONTINUOUS
 10
6.9781454707
 20
3.6532621826
 11
6.9821898457
 21
3.6586546832
  0
LINE
  5
430
100
AcDbEntity
  8
03__ASM_ALL_CURVES
100
AcDbLine
 62
40
  6
CONTINUOUS
 10
6.9983673457
 20
3.6370846826
 11
6.9943229707
 21
3.6316921827
  0
LINE
  5
431
100
AcDbEntity
  8
03__ASM_ALL_CURVES
100
AcDbLine
 62
40
  6
CONTINUOUS
 10
7.0287001582
 20
3.6505659332
 11
7.0266779707
 21
3.647869682
  0
LINE
  5
432
100
AcDbEntity
  8
03__ASM_ALL_CURVES
100
AcDbLine
 62
40
  6
CONTINUOUS
 10
7.0772326582
 20
3.655958432
 11
7.0792548457
 21
3.6586546832
  0
LINE
  5
433
100
AcDbEntity
  8
03__ASM_ALL_CURVES
100
AcDbLine
 62
40
  6
CONTINUOUS
 10
7.0832992207
 20
3.6424771823
 11
7.0792548457
 21
3.6370846826
  0
LINE
  5
434
100
AcDbEntity
  8
03__ASM_ALL_CURVES
100
AcDbLine
 62
40
  6
CONTINUOUS
 10
7.0934101582
 20
3.6505659332
 11
7.0913879707
 21
3.647869682
  0
LINE
  5
435
100
AcDbEntity
  8
0
100
AcDbLine
 62
7
  6
CONTINUOUS
 10
7.575611387
 20
4.5218509326
 11
7.563111387
 21
4.5343509326
  0
LINE
  5
436
100
AcDbEntity
  8
0
100
AcDbLine
 62
7
  6
CONTINUOUS
 10
7.295611387
 20
3.8953514313
 11
7.295611387
 21
4.5513504339
  0
LINE
  5
437
100
AcDbEntity
  8
0
100
AcDbLine
 62
7
  6
CONTINUOUS
 10
7.345611387
 20
3.8953514313
 11
7.345611387
 21
4.5513504339
  0
LINE
  5
438
100
AcDbEntity
  8
0
100
AcDbLine
 62
7
  6
CONTINUOUS
 10
7.415611387
 20
3.8953514313
 11
7.415611387
 21
4.5513504339
  0
LINE
  5
439
100
AcDbEntity
  8
0
100
AcDbLine
 62
7
  6
CONTINUOUS
 10
7.575611387
 20
3.9248509326
 11
7.563111387
 21
3.9123509326
  0
LINE
  5
43A
100
AcDbEntity
  8
0
100
AcDbLine
 62
7
  6
CONTINUOUS
 10
7.916611387
 20
4.4148509326
 11
7.908611387
 21
4.4228509326
  0
LINE
  5
43B
100
AcDbEntity
  8
0
100
AcDbLine
 62
7
  6
CONTINUOUS
 10
7.465611387
 20
3.8953514313
 11
7.465611387
 21
4.5513504339
  0
LINE
  5
43C
100
AcDbEntity
  8
0
100
AcDbLine
 62
7
  6
CONTINUOUS
 10
7.493111387
 20
3.9123594095
 11
7.493111387
 21
4.5343424556
  0
LINE
  5
43D
100
AcDbEntity
  8
0
100
AcDbLine
 62
7
  6
CONTINUOUS
 10
7.563111387
 20
3.9123509326
 11
7.563111387
 21
4.5343509326
  0
LINE
  5
43E
100
AcDbEntity
  8
0
100
AcDbLine
 62
7
  6
CONTINUOUS
 10
7.575611387
 20
3.9248643449
 11
7.575611387
 21
4.5218375203
  0
LINE
  5
43F
100
AcDbEntity
  8
03__ASM_ALL_CURVES
100
AcDbLine
 62
40
  6
CONTINUOUS
 10
7.9987888871
 20
4.2521109332
 11
7.9967666996
 21
4.249414682
  0
LINE
  5
440
100
AcDbEntity
  8
03__ASM_ALL_CURVES
100
AcDbLine
 62
40
  6
CONTINUOUS
 10
8.0129441996
 20
4.2548071826
 11
8.0169885746
 21
4.2601996832
  0
LINE
  5
441
100
AcDbEntity
  8
0
100
AcDbLine
 62
7
  6
CONTINUOUS
 10
7.916611387
 20
4.0318509326
 11
7.908611387
 21
4.0238509326
  0
LINE
  5
442
100
AcDbEntity
  8
03__ASM_ALL_CURVES
100
AcDbLine
 62
40
  6
CONTINUOUS
 10
8.0169885746
 20
4.2332371827
 11
8.0129441996
 21
4.2386296826
  0
LINE
  5
443
100
AcDbEntity
  8
03__ASM_ALL_CURVES
100
AcDbLine
 62
40
  6
CONTINUOUS
 10
7.9967666996
 20
4.2601996832
 11
7.9987888871
 21
4.257503432
  0
LINE
  5
444
100
AcDbEntity
  8
03__ASM_ALL_CURVES
100
AcDbLine
 62
40
  6
CONTINUOUS
 10
8.0291216996
 20
4.2601996832
 11
8.0331660746
 21
4.2548071826
  0
LINE
  5
445
100
AcDbEntity
  8
03__ASM_ALL_CURVES
100
AcDbLine
 62
40
  6
CONTINUOUS
 10
8.0331660746
 20
4.2386296826
 11
8.0291216996
 21
4.2332371827
  0
LINE
  5
446
100
AcDbEntity
  8
03__ASM_ALL_CURVES
100
AcDbLine
 62
40
  6
CONTINUOUS
 10
8.0634988871
 20
4.2521109332
 11
8.0614766996
 21
4.249414682
  0
LINE
  5
447
100
AcDbEntity
  8
03__ASM_ALL_CURVES
100
AcDbLine
 62
40
  6
CONTINUOUS
 10
8.0614766996
 20
4.2601996832
 11
8.0634988871
 21
4.257503432
  0
LINE
  5
448
100
AcDbEntity
  8
0
100
AcDbLine
 62
7
  6
CONTINUOUS
 10
7.908611387
 20
4.0238509326
 11
7.908611387
 21
4.4228509326
  0
LINE
  5
449
100
AcDbEntity
  8
03__ASM_ALL_CURVES
100
AcDbLine
 62
40
  6
CONTINUOUS
 10
8.0574323246
 20
4.2467184326
 11
8.0634988871
 21
4.2305409326
  0
LINE
  5
44A
100
AcDbEntity
  8
0
100
AcDbLine
 62
7
  6
CONTINUOUS
 10
7.916611387
 20
4.0318661658
 11
7.916611387
 21
4.4148356994
  0
LINE
  5
44B
100
AcDbEntity
  8
03__ASM_ALL_CURVES
100
AcDbLine
 62
40
  6
CONTINUOUS
 10
7.9826113871
 20
4.2305409326
 11
7.9826113871
 21
4.2628959326
  0
LINE
  5
44C
100
AcDbEntity
  8
03__ASM_ALL_CURVES
100
AcDbLine
 62
40
  6
CONTINUOUS
 10
7.9987888871
 20
4.257503432
 11
7.9987888871
 21
4.2521109332
  0
LINE
  5
44D
100
AcDbEntity
  8
03__ASM_ALL_CURVES
100
AcDbLine
 62
40
  6
CONTINUOUS
 10
8.0473213871
 20
4.2305409326
 11
8.0473213871
 21
4.2628959326
  0
LINE
  5
44E
100
AcDbEntity
  8
03__ASM_ALL_CURVES
100
AcDbLine
 62
40
  6
CONTINUOUS
 10
8.0634988871
 20
4.257503432
 11
8.0634988871
 21
4.2521109332
  0
LINE
  5
44F
100
AcDbEntity
  8
03__ASM_ALL_CURVES
100
AcDbLine
 62
40
  6
CONTINUOUS
 10
8.0877651371
 20
4.2628959326
 11
8.0877651371
 21
4.2305409326
  0
LINE
  5
450
100
AcDbEntity
  8
03__ASM_ALL_CURVES
100
AcDbLine
 62
40
  6
CONTINUOUS
 10
8.1201201371
 20
4.2628959326
 11
8.1201201371
 21
4.2305409326
  0
LINE
  5
451
100
AcDbEntity
  8
03__ASM_ALL_CURVES
100
AcDbLine
 62
40
  6
CONTINUOUS
 10
8.0109220121
 20
4.2467184326
 11
8.0129441996
 21
4.2548071826
  0
LINE
  5
452
100
AcDbEntity
  8
03__ASM_ALL_CURVES
100
AcDbLine
 62
40
  6
CONTINUOUS
 10
8.0351882621
 20
4.2467184326
 11
8.0331660746
 21
4.2386296826
  0
LINE
  5
453
100
AcDbEntity
  8
03__ASM_ALL_CURVES
100
AcDbLine
 62
40
  6
CONTINUOUS
 10
8.0129441996
 20
4.2386296826
 11
8.0109220121
 21
4.2467184326
  0
LINE
  5
454
100
AcDbEntity
  8
03__ASM_ALL_CURVES
100
AcDbLine
 62
40
  6
CONTINUOUS
 10
8.0331660746
 20
4.2548071826
 11
8.0351882621
 21
4.2467184326
  0
ARC
  5
455
100
AcDbEntity
  8
0
100
AcDbCircle
 62
7
  6
CONTINUOUS
 10
5.377111387
 20
3.8973509326
 40
0.046
100
AcDbArc
 50
0.0000393417
 51
90.0
  0
ARC
  5
456
100
AcDbEntity
  8
0
100
AcDbCircle
 62
7
  6
CONTINUOUS
 10
5.377111387
 20
4.5493509326
 40
0.046
100
AcDbArc
 50
270.0
 51
359.9999606583
  0
ARC
  5
457
100
AcDbEntity
  8
0
100
AcDbCircle
 62
7
  6
CONTINUOUS
 10
7.184611387
 20
4.5506009326
 40
0.046
100
AcDbArc
 50
270.0
 51
339.3131053161
  0
ARC
  5
458
100
AcDbEntity
  8
0
100
AcDbCircle
 62
7
  6
CONTINUOUS
 10
7.184611387
 20
3.8961009326
 40
0.046
100
AcDbArc
 50
20.6868946839
 51
90.0
  0
ARC
  5
459
100
AcDbEntity
  8
0
100
AcDbCircle
 62
7
  6
CONTINUOUS
 10
6.694111387
 20
4.5506009326
 40
0.046
100
AcDbArc
 50
180.0000035544
 51
270.0
  0
ARC
  5
45A
100
AcDbEntity
  8
0
100
AcDbCircle
 62
7
  6
CONTINUOUS
 10
6.694111387
 20
3.8961009326
 40
0.046
100
AcDbArc
 50
90.0
 51
179.9999964456
  0
ARC
  5
45B
100
AcDbEntity
  8
0
100
AcDbCircle
 62
7
  6
CONTINUOUS
 10
6.277111387
 20
4.5506009326
 40
0.046
100
AcDbArc
 50
270.0
 51
359.9999605553
  0
ARC
  5
45C
100
AcDbEntity
  8
0
100
AcDbCircle
 62
7
  6
CONTINUOUS
 10
6.277111387
 20
3.8961009326
 40
0.046
100
AcDbArc
 50
0.0000394447
 51
90.0
  0
ARC
  5
45D
100
AcDbEntity
  8
0
100
AcDbCircle
 62
7
  6
CONTINUOUS
 10
5.794111387
 20
4.5506009326
 40
0.046
100
AcDbArc
 50
180.0000035544
 51
270.0
  0
ARC
  5
45E
100
AcDbEntity
  8
0
100
AcDbCircle
 62
7
  6
CONTINUOUS
 10
5.794111387
 20
3.8961009326
 40
0.046
100
AcDbArc
 50
90.0
 51
179.9999964456
  0
ARC
  5
45F
100
AcDbEntity
  8
0
100
AcDbCircle
 62
7
  6
CONTINUOUS
 10
4.4121058335
 20
3.8598509326
 40
0.013
100
AcDbArc
 50
29.999999997
 51
90.0
  0
ARC
  5
460
100
AcDbEntity
  8
0
100
AcDbCircle
 62
7
  6
CONTINUOUS
 10
4.4121058335
 20
4.5868509326
 40
0.013
100
AcDbArc
 50
270.0
 51
330.0000000004
  0
ARC
  5
461
100
AcDbEntity
  8
0
100
AcDbCircle
 62
7
  6
CONTINUOUS
 10
4.237611387
 20
3.8019641812
 40
0.005
100
AcDbArc
 50
120.0000000123
 51
179.9999999997
  0
ARC
  5
462
100
AcDbEntity
  8
0
100
AcDbCircle
 62
7
  6
CONTINUOUS
 10
4.237611387
 20
4.6447376839
 40
0.005
100
AcDbArc
 50
180.0000000002
 51
239.9999999914
  0
ARC
  5
463
100
AcDbEntity
  8
0
100
AcDbCircle
 62
7
  6
CONTINUOUS
 10
4.2573338188
 20
3.8133509326
 40
0.005
100
AcDbArc
 50
90.0
 51
120.0000000158
  0
ARC
  5
464
100
AcDbEntity
  8
0
100
AcDbCircle
 62
7
  6
CONTINUOUS
 10
4.2573338188
 20
4.6333509326
 40
0.005
100
AcDbArc
 50
239.9999999852
 51
270.0
  0
ARC
  5
465
100
AcDbEntity
  8
0
100
AcDbCircle
 62
7
  6
CONTINUOUS
 10
4.229611387
 20
3.7988509326
 40
0.003
100
AcDbArc
 50
270.0
 51
360.0
  0
ARC
  5
466
100
AcDbEntity
  8
0
100
AcDbCircle
 62
7
  6
CONTINUOUS
 10
4.229611387
 20
4.6478509326
 40
0.003
100
AcDbArc
 50
0.0
 51
90.0
  0
ARC
  5
467
100
AcDbEntity
  8
0
100
AcDbCircle
 62
7
  6
CONTINUOUS
 10
4.169611387
 20
4.6428509326
 40
0.002
100
AcDbArc
 50
222.3553148142
 51
317.6446851858
  0
ARC
  5
468
100
AcDbEntity
  8
0
100
AcDbCircle
 62
7
  6
CONTINUOUS
 10
4.169611387
 20
3.8038509326
 40
0.002
100
AcDbArc
 50
42.3553148142
 51
137.6446851858
  0
SPLINE
  5
469
100
AcDbEntity
  8
0
100
AcDbSpline
 62
7
  6
CONTINUOUS
 70
0
 71
3
 72
15
 73
11
 74
9
 42
0.0000001
 43
0.0000001
 44
0.0000000001
 12
0.0
 22
0.1099409465
 32
0.0
 13
0.0
 23
-0.1099409465
 33
0.0
 40
0.0
 40
0.0
 40
0.0
 40
0.0
 40
0.125
 40
0.25
 40
0.375
 40
0.5
 40
0.625
 40
0.75
 40
0.875
 40
1.0
 40
1.0
 40
1.0
 40
1.0
 10
7.415611387
 20
4.5323509326
 30
0.0
 10
7.415611387
 20
4.5369318054
 30
0.0
 10
7.4137890025
 20
4.5460935509
 30
0.0
 10
7.4060044345
 20
4.5577439802
 30
0.0
 10
7.3943540053
 20
4.5655285481
 30
0.0
 10
7.380611387
 20
4.5682621248
 30
0.0
 10
7.3668687687
 20
4.5655285481
 30
0.0
 10
7.3552183394
 20
4.5577439802
 30
0.0
 10
7.3474337715
 20
4.5460935509
 30
0.0
 10
7.345611387
 20
4.5369318054
 30
0.0
 10
7.345611387
 20
4.5323509326
 30
0.0
 11
7.415611387
 21
4.5323509326
 31
0.0
 11
7.4129471706
 21
4.5457448527
 31
0.0
 11
7.4053601243
 21
4.5570996699
 31
0.0
 11
7.3940053071
 21
4.5646867162
 31
0.0
 11
7.380611387
 21
4.5673509326
 31
0.0
 11
7.3672174669
 21
4.5646867162
 31
0.0
 11
7.3558626496
 21
4.5570996699
 31
0.0
 11
7.3482756033
 21
4.5457448527
 31
0.0
 11
7.345611387
 21
4.5323509326
 31
0.0
  0
SPLINE
  5
46A
100
AcDbEntity
  8
0
100
AcDbSpline
 62
7
  6
CONTINUOUS
 70
0
 71
3
 72
15
 73
11
 74
9
 42
0.0000001
 43
0.0000001
 44
0.0000000001
 12
0.0
 22
-0.1099409465
 32
0.0
 13
0.0
 23
0.1099409465
 33
0.0
 40
0.0
 40
0.0
 40
0.0
 40
0.0
 40
0.125
 40
0.25
 40
0.375
 40
0.5
 40
0.625
 40
0.75
 40
0.875
 40
1.0
 40
1.0
 40
1.0
 40
1.0
 10
7.415611387
 20
3.9143509326
 30
0.0
 10
7.415611387
 20
3.9097700598
 30
0.0
 10
7.4137890025
 20
3.9006083143
 30
0.0
 10
7.4060044345
 20
3.888957885
 30
0.0
 10
7.3943540053
 20
3.8811733171
 30
0.0
 10
7.380611387
 20
3.8784397403
 30
0.0
 10
7.3668687687
 20
3.8811733171
 30
0.0
 10
7.3552183394
 20
3.888957885
 30
0.0
 10
7.3474337715
 20
3.9006083143
 30
0.0
 10
7.345611387
 20
3.9097700598
 30
0.0
 10
7.345611387
 20
3.9143509326
 30
0.0
 11
7.415611387
 21
3.9143509326
 31
0.0
 11
7.4129471706
 21
3.9009570125
 31
0.0
 11
7.4053601243
 21
3.8896021953
 31
0.0
 11
7.3940053071
 21
3.882015149
 31
0.0
 11
7.380611387
 21
3.8793509326
 31
0.0
 11
7.3672174669
 21
3.882015149
 31
0.0
 11
7.3558626496
 21
3.8896021953
 31
0.0
 11
7.3482756033
 21
3.9009570125
 31
0.0
 11
7.345611387
 21
3.9143509326
 31
0.0
  0
SPLINE
  5
46B
100
AcDbEntity
  8
0
100
AcDbSpline
 62
7
  6
CONTINUOUS
 70
0
 71
3
 72
15
 73
11
 74
9
 42
0.0000001
 43
0.0000001
 44
0.0000000001
 12
0.0
 22
0.1099409465
 32
0.0
 13
0.0
 23
-0.1099409465
 33
0.0
 40
0.0
 40
0.0
 40
0.0
 40
0.0
 40
0.125
 40
0.25
 40
0.375
 40
0.5
 40
0.625
 40
0.75
 40
0.875
 40
1.0
 40
1.0
 40
1.0
 40
1.0
 10
6.505611387
 20
4.5323509326
 30
0.0
 10
6.505611387
 20
4.5369318054
 30
0.0
 10
6.5037890025
 20
4.5460935509
 30
0.0
 10
6.4960044345
 20
4.5577439802
 30
0.0
 10
6.4843540053
 20
4.5655285481
 30
0.0
 10
6.470611387
 20
4.5682621248
 30
0.0
 10
6.4568687687
 20
4.5655285481
 30
0.0
 10
6.4452183394
 20
4.5577439802
 30
0.0
 10
6.4374337715
 20
4.5460935509
 30
0.0
 10
6.435611387
 20
4.5369318054
 30
0.0
 10
6.435611387
 20
4.5323509326
 30
0.0
 11
6.505611387
 21
4.5323509326
 31
0.0
 11
6.5029471706
 21
4.5457448527
 31
0.0
 11
6.4953601243
 21
4.5570996699
 31
0.0
 11
6.4840053071
 21
4.5646867162
 31
0.0
 11
6.470611387
 21
4.5673509326
 31
0.0
 11
6.4572174669
 21
4.5646867162
 31
0.0
 11
6.4458626496
 21
4.5570996699
 31
0.0
 11
6.4382756033
 21
4.5457448527
 31
0.0
 11
6.435611387
 21
4.5323509326
 31
0.0
  0
SPLINE
  5
46C
100
AcDbEntity
  8
0
100
AcDbSpline
 62
7
  6
CONTINUOUS
 70
0
 71
3
 72
15
 73
11
 74
9
 42
0.0000001
 43
0.0000001
 44
0.0000000001
 12
0.0
 22
-0.1099409465
 32
0.0
 13
0.0
 23
0.1099409465
 33
0.0
 40
0.0
 40
0.0
 40
0.0
 40
0.0
 40
0.125
 40
0.25
 40
0.375
 40
0.5
 40
0.625
 40
0.75
 40
0.875
 40
1.0
 40
1.0
 40
1.0
 40
1.0
 10
6.505611387
 20
3.9143509326
 30
0.0
 10
6.505611387
 20
3.9097700598
 30
0.0
 10
6.5037890025
 20
3.9006083143
 30
0.0
 10
6.4960044345
 20
3.888957885
 30
0.0
 10
6.4843540053
 20
3.8811733171
 30
0.0
 10
6.470611387
 20
3.8784397403
 30
0.0
 10
6.4568687687
 20
3.8811733171
 30
0.0
 10
6.4452183394
 20
3.888957885
 30
0.0
 10
6.4374337715
 20
3.9006083143
 30
0.0
 10
6.435611387
 20
3.9097700598
 30
0.0
 10
6.435611387
 20
3.9143509326
 30
0.0
 11
6.505611387
 21
3.9143509326
 31
0.0
 11
6.5029471706
 21
3.9009570125
 31
0.0
 11
6.4953601243
 21
3.8896021953
 31
0.0
 11
6.4840053071
 21
3.882015149
 31
0.0
 11
6.470611387
 21
3.8793509326
 31
0.0
 11
6.4572174669
 21
3.882015149
 31
0.0
 11
6.4458626496
 21
3.8896021953
 31
0.0
 11
6.4382756033
 21
3.9009570125
 31
0.0
 11
6.435611387
 21
3.9143509326
 31
0.0
  0
SPLINE
  5
46D
100
AcDbEntity
  8
0
100
AcDbSpline
 62
7
  6
CONTINUOUS
 70
0
 71
3
 72
15
 73
11
 74
9
 42
0.0000001
 43
0.0000001
 44
0.0000000001
 12
0.0
 22
0.1099409465
 32
0.0
 13
-0.0
 23
-0.1099409465
 33
0.0
 40
0.0
 40
0.0
 40
0.0
 40
0.0
 40
0.125
 40
0.25
 40
0.375
 40
0.5
 40
0.625
 40
0.75
 40
0.875
 40
1.0
 40
1.0
 40
1.0
 40
1.0
 10
5.605611387
 20
4.5508509326
 30
0.0
 10
5.605611387
 20
4.5554318054
 30
0.0
 10
5.6037890025
 20
4.5645935509
 30
0.0
 10
5.5960044345
 20
4.5762439802
 30
0.0
 10
5.5843540053
 20
4.5840285481
 30
0.0
 10
5.570611387
 20
4.5867621248
 30
0.0
 10
5.5568687687
 20
4.5840285481
 30
0.0
 10
5.5452183394
 20
4.5762439802
 30
0.0
 10
5.5374337715
 20
4.5645935509
 30
0.0
 10
5.535611387
 20
4.5554318054
 30
0.0
 10
5.535611387
 20
4.5508509326
 30
0.0
 11
5.605611387
 21
4.5508509326
 31
0.0
 11
5.6029471706
 21
4.5642448527
 31
0.0
 11
5.5953601243
 21
4.5755996699
 31
0.0
 11
5.5840053071
 21
4.5831867162
 31
0.0
 11
5.570611387
 21
4.5858509326
 31
0.0
 11
5.5572174669
 21
4.5831867162
 31
0.0
 11
5.5458626496
 21
4.5755996699
 31
0.0
 11
5.5382756033
 21
4.5642448527
 31
0.0
 11
5.535611387
 21
4.5508509326
 31
0.0
  0
SPLINE
  5
46E
100
AcDbEntity
  8
0
100
AcDbSpline
 62
7
  6
CONTINUOUS
 70
0
 71
3
 72
15
 73
11
 74
9
 42
0.0000001
 43
0.0000001
 44
0.0000000001
 12
0.0
 22
-0.1099409465
 32
0.0
 13
-0.0
 23
0.1099409465
 33
0.0
 40
0.0
 40
0.0
 40
0.0
 40
0.0
 40
0.125
 40
0.25
 40
0.375
 40
0.5
 40
0.625
 40
0.75
 40
0.875
 40
1.0
 40
1.0
 40
1.0
 40
1.0
 10
5.605611387
 20
3.8958509326
 30
0.0
 10
5.605611387
 20
3.8912700598
 30
0.0
 10
5.6037890025
 20
3.8821083143
 30
0.0
 10
5.5960044345
 20
3.870457885
 30
0.0
 10
5.5843540053
 20
3.8626733171
 30
0.0
 10
5.570611387
 20
3.8599397403
 30
0.0
 10
5.5568687687
 20
3.8626733171
 30
0.0
 10
5.5452183394
 20
3.870457885
 30
0.0
 10
5.5374337715
 20
3.8821083143
 30
0.0
 10
5.535611387
 20
3.8912700598
 30
0.0
 10
5.535611387
 20
3.8958509326
 30
0.0
 11
5.605611387
 21
3.8958509326
 31
0.0
 11
5.6029471706
 21
3.8824570125
 31
0.0
 11
5.5953601243
 21
3.8711021953
 31
0.0
 11
5.5840053071
 21
3.863515149
 31
0.0
 11
5.570611387
 21
3.8608509326
 31
0.0
 11
5.5572174669
 21
3.863515149
 31
0.0
 11
5.5458626496
 21
3.8711021953
 31
0.0
 11
5.5382756033
 21
3.8824570125
 31
0.0
 11
5.535611387
 21
3.8958509326
 31
0.0
  0
SPLINE
  5
46F
100
AcDbEntity
  8
0
100
AcDbSpline
 62
7
  6
CONTINUOUS
 70
0
 71
3
 72
15
 73
11
 74
9
 42
0.0000001
 43
0.0000001
 44
0.0000000001
 12
0.0
 22
0.1099409465
 32
0.0
 13
0.0
 23
-0.1099409465
 33
0.0
 40
0.0
 40
0.0
 40
0.0
 40
0.0
 40
0.125
 40
0.25
 40
0.375
 40
0.5
 40
0.625
 40
0.75
 40
0.875
 40
1.0
 40
1.0
 40
1.0
 40
1.0
 10
4.349611387
 20
4.6088509326
 30
0.0
 10
4.349611387
 20
4.6134318054
 30
0.0
 10
4.3477890025
 20
4.6225935509
 30
0.0
 10
4.3400044345
 20
4.6342439802
 30
0.0
 10
4.3283540053
 20
4.6420285481
 30
0.0
 10
4.314611387
 20
4.6447621248
 30
0.0
 10
4.3008687687
 20
4.6420285481
 30
0.0
 10
4.2892183394
 20
4.6342439802
 30
0.0
 10
4.2814337715
 20
4.6225935509
 30
0.0
 10
4.279611387
 20
4.6134318054
 30
0.0
 10
4.279611387
 20
4.6088509326
 30
0.0
 11
4.349611387
 21
4.6088509326
 31
0.0
 11
4.3469471706
 21
4.6222448527
 31
0.0
 11
4.3393601243
 21
4.6335996699
 31
0.0
 11
4.3280053071
 21
4.6411867162
 31
0.0
 11
4.314611387
 21
4.6438509326
 31
0.0
 11
4.3012174669
 21
4.6411867162
 31
0.0
 11
4.2898626496
 21
4.6335996699
 31
0.0
 11
4.2822756033
 21
4.6222448527
 31
0.0
 11
4.279611387
 21
4.6088509326
 31
0.0
  0
SPLINE
  5
470
100
AcDbEntity
  8
0
100
AcDbSpline
 62
7
  6
CONTINUOUS
 70
0
 71
3
 72
15
 73
11
 74
9
 42
0.0000001
 43
0.0000001
 44
0.0000000001
 12
0.0
 22
-0.1099409465
 32
0.0
 13
0.0
 23
0.1099409465
 33
0.0
 40
0.0
 40
0.0
 40
0.0
 40
0.0
 40
0.125
 40
0.25
 40
0.375
 40
0.5
 40
0.625
 40
0.75
 40
0.875
 40
1.0
 40
1.0
 40
1.0
 40
1.0
 10
4.349611387
 20
3.8378509326
 30
0.0
 10
4.349611387
 20
3.8332700598
 30
0.0
 10
4.3477890025
 20
3.8241083143
 30
0.0
 10
4.3400044345
 20
3.812457885
 30
0.0
 10
4.3283540053
 20
3.8046733171
 30
0.0
 10
4.314611387
 20
3.8019397403
 30
0.0
 10
4.3008687687
 20
3.8046733171
 30
0.0
 10
4.2892183394
 20
3.812457885
 30
0.0
 10
4.2814337715
 20
3.8241083143
 30
0.0
 10
4.279611387
 20
3.8332700598
 30
0.0
 10
4.279611387
 20
3.8378509326
 30
0.0
 11
4.349611387
 21
3.8378509326
 31
0.0
 11
4.3469471706
 21
3.8244570125
 31
0.0
 11
4.3393601243
 21
3.8131021953
 31
0.0
 11
4.3280053071
 21
3.805515149
 31
0.0
 11
4.314611387
 21
3.8028509326
 31
0.0
 11
4.3012174669
 21
3.805515149
 31
0.0
 11
4.2898626496
 21
3.8131021953
 31
0.0
 11
4.2822756033
 21
3.8244570125
 31
0.0
 11
4.279611387
 21
3.8378509326
 31
0.0
  0
SPLINE
  5
471
100
AcDbEntity
  8
THREAD
100
AcDbSpline
 62
7
  6
CONTINUOUS
 70
0
 71
3
 72
15
 73
11
 74
9
 42
0.0000001
 43
0.0000001
 44
0.0000000001
 12
-0.1103563678
 22
0.4279612204
 32
0.0
 13
0.1103563678
 23
0.4279612204
 33
0.0
 40
0.0
 40
0.0
 40
0.0
 40
0.0
 40
0.1297189924
 40
0.2548338227
 40
0.3778008073
 40
0.5000360058
 40
0.6222676266
 40
0.7452254315
 40
0.8703025816
 40
1.0
 40
1.0
 40
1.0
 40
1.0
 10
3.5166750529
 20
4.0049459876
 30
0.0
 10
3.5119032806
 20
4.023450887
 30
0.0
 10
3.5034205542
 20
4.060043909
 30
0.0
 10
3.4939954171
 20
4.114931717
 30
0.0
 10
3.4882449387
 20
4.1692248534
 30
0.0
 10
3.4863050709
 20
4.223366341
 30
0.0
 10
3.4882471078
 20
4.2775063915
 30
0.0
 10
3.4939986981
 20
4.3317919231
 30
0.0
 10
3.5034231727
 20
4.386669583
 30
0.0
 10
3.5119040742
 20
4.4232540558
 30
0.0
 10
3.5166750529
 20
4.4417558776
 30
0.0
 11
3.5166750529
 21
4.0049459876
 31
0.0
 11
3.5038179898
 21
4.0608164266
 31
0.0
 11
3.4945361538
 21
4.1153276949
 31
0.0
 11
3.4888656017
 21
4.1693776359
 31
0.0
 11
3.4869507714
 21
4.2233668541
 31
0.0
 11
3.488867736
 21
4.2773544144
 31
0.0
 11
3.4945397459
 21
4.3314001231
 31
0.0
 11
3.50381987
 21
4.38589479
 31
0.0
 11
3.5166750529
 21
4.4417558776
 31
0.0
  0
SPLINE
  5
472
100
AcDbEntity
  8
THREAD
100
AcDbSpline
 62
7
  6
CONTINUOUS
 70
0
 71
3
 72
15
 73
11
 74
9
 42
0.0000001
 43
0.0000001
 44
0.0000000001
 12
0.1843202379
 22
0.4126856942
 32
0.0
 13
-0.1843202379
 23
0.4126856942
 33
0.0
 40
0.0
 40
0.0
 40
0.0
 40
0.0
 40
0.1377942686
 40
0.2640673782
 40
0.3836049145
 40
0.5000649493
 40
0.6165122554
 40
0.736022619
 40
0.8622283762
 40
1.0
 40
1.0
 40
1.0
 40
1.0
 10
3.952111387
 20
4.0049459876
 30
0.0
 10
3.9605774778
 20
4.0239012287
 30
0.0
 10
3.9754090205
 20
4.0608821676
 30
0.0
 10
3.9917461358
 20
4.1164184487
 30
0.0
 10
4.0014393052
 20
4.170249188
 30
0.0
 10
4.0046609617
 20
4.2233784909
 30
0.0
 10
4.0014327716
 20
4.2765032415
 30
0.0
 10
3.99173725
 20
4.3303170241
 30
0.0
 10
3.9754028006
 20
4.3858355193
 30
0.0
 10
3.9605760865
 20
4.4228037515
 30
0.0
 10
3.952111387
 20
4.4417558776
 30
0.0
 11
3.952111387
 21
4.0049459876
 31
0.0
 11
3.9750798608
 21
4.0628358136
 31
0.0
 11
3.9910060456
 21
4.1176412437
 31
0.0
 11
4.000455043
 21
4.1708368063
 31
0.0
 11
4.003595352
 21
4.2233803343
 31
0.0
 11
4.0004487638
 21
4.2759177232
 31
0.0
 11
3.9909967316
 21
4.3291002729
 31
0.0
 11
3.9750765241
 21
4.3838757389
 31
0.0
 11
3.952111387
 21
4.4417558776
 31
0.0
  0
SPLINE
  5
473
100
AcDbEntity
  8
THREAD
100
AcDbSpline
 62
7
  6
CONTINUOUS
 70
0
 71
3
 72
15
 73
11
 74
9
 42
0.0000001
 43
0.0000001
 44
0.0000000001
 12
-0.1047017673
 22
0.2030163597
 32
0.0
 13
0.1047017673
 23
0.2030163597
 33
0.0
 40
0.0
 40
0.0
 40
0.0
 40
0.0
 40
0.1346257358
 40
0.2606745914
 40
0.3815608613
 40
0.5000347823
 40
0.6185057449
 40
0.7393842591
 40
0.8653963
 40
1.0
 40
1.0
 40
1.0
 40
1.0
 10
3.5166750529
 20
4.4930484601
 30
0.0
 10
3.5119765354
 20
4.502158869
 30
0.0
 10
3.5035875976
 20
4.5201839227
 30
0.0
 10
3.4940874708
 20
4.5477022542
 30
0.0
 10
3.4882676274
 20
4.5749912481
 30
0.0
 10
3.4862984289
 20
4.6022586966
 30
0.0
 10
3.4882698252
 20
4.6295253807
 30
0.0
 10
3.4940907529
 20
4.6568104096
 30
0.0
 10
3.503590147
 20
4.6843235662
 30
0.0
 10
3.5119773044
 20
4.7023444874
 30
0.0
 10
3.5166750529
 20
4.7114534051
 30
0.0
 11
3.5166750529
 21
4.4930484601
 31
0.0
 11
3.5038179898
 21
4.5209836796
 31
0.0
 11
3.4945361538
 21
4.5482393138
 31
0.0
 11
3.4888656017
 21
4.5752642842
 31
0.0
 11
3.4869507714
 21
4.6022588934
 31
0.0
 11
3.488867736
 21
4.6292526735
 31
0.0
 11
3.4945397459
 21
4.6562755279
 31
0.0
 11
3.50381987
 21
4.6835228613
 31
0.0
 11
3.5166750529
 21
4.7114534051
 31
0.0
  0
SPLINE
  5
474
100
AcDbEntity
  8
THREAD
100
AcDbSpline
 62
7
  6
CONTINUOUS
 70
0
 71
3
 72
15
 73
11
 74
9
 42
0.0000001
 43
0.0000001
 44
0.0000000001
 12
0.1643031241
 22
0.1839340856
 32
0.0
 13
-0.1643031241
 23
0.1839340856
 33
0.0
 40
0.0
 40
0.0
 40
0.0
 40
0.0
 40
0.1498215377
 40
0.2783315905
 40
0.3927788038
 40
0.5000592815
 40
0.6073304266
 40
0.7217569014
 40
0.8502022558
 40
1.0
 40
1.0
 40
1.0
 40
1.0
 10
3.952111387
 20
4.4930484601
 30
0.0
 10
3.9603167692
 20
4.5022342226
 30
0.0
 10
3.9747485487
 20
4.5200771812
 30
0.0
 10
3.9913462775
 20
4.5479355953
 30
0.0
 10
4.0013313844
 20
4.5751626693
 30
0.0
 10
4.0046924075
 20
4.602265025
 30
0.0
 10
4.0013246338
 20
4.6293646888
 30
0.0
 10
3.9913375166
 20
4.6565824654
 30
0.0
 10
3.974742787
 20
4.6844319258
 30
0.0
 10
3.9603154661
 20
4.7022691014
 30
0.0
 10
3.952111387
 20
4.7114534051
 30
0.0
 11
3.952111387
 21
4.4930484601
 31
0.0
 11
3.9750798608
 21
4.5219933731
 31
0.0
 11
3.9910060456
 21
4.5493960881
 31
0.0
 11
4.000455043
 21
4.5759938695
 31
0.0
 11
4.003595352
 21
4.6022656334
 31
0.0
 11
4.0004487638
 21
4.6285343279
 31
0.0
 11
3.9909967316
 21
4.6551256027
 31
0.0
 11
3.9750765241
 21
4.6825133357
 31
0.0
 11
3.952111387
 21
4.7114534051
 31
0.0
  0
SPLINE
  5
475
100
AcDbEntity
  8
THREAD
100
AcDbSpline
 62
7
  6
CONTINUOUS
 70
0
 71
3
 72
15
 73
11
 74
9
 42
0.0000001
 43
0.0000001
 44
0.0000000001
 12
-0.1047017673
 22
0.2030163597
 32
0.0
 13
0.1047017673
 23
0.2030163597
 33
0.0
 40
0.0
 40
0.0
 40
0.0
 40
0.0
 40
0.1346257358
 40
0.2606745914
 40
0.3815608613
 40
0.5000347823
 40
0.6185057449
 40
0.7393842591
 40
0.8653963
 40
1.0
 40
1.0
 40
1.0
 40
1.0
 10
3.5166750529
 20
3.7352484601
 30
0.0
 10
3.5119765354
 20
3.744358869
 30
0.0
 10
3.5035875976
 20
3.7623839227
 30
0.0
 10
3.4940874708
 20
3.7899022542
 30
0.0
 10
3.4882676274
 20
3.8171912481
 30
0.0
 10
3.4862984289
 20
3.8444586966
 30
0.0
 10
3.4882698252
 20
3.8717253807
 30
0.0
 10
3.4940907529
 20
3.8990104096
 30
0.0
 10
3.503590147
 20
3.9265235662
 30
0.0
 10
3.5119773044
 20
3.9445444874
 30
0.0
 10
3.5166750529
 20
3.9536534051
 30
0.0
 11
3.5166750529
 21
3.7352484601
 31
0.0
 11
3.5038179898
 21
3.7631836796
 31
0.0
 11
3.4945361538
 21
3.7904393138
 31
0.0
 11
3.4888656017
 21
3.8174642842
 31
0.0
 11
3.4869507714
 21
3.8444588934
 31
0.0
 11
3.488867736
 21
3.8714526735
 31
0.0
 11
3.4945397459
 21
3.8984755279
 31
0.0
 11
3.50381987
 21
3.9257228613
 31
0.0
 11
3.5166750529
 21
3.9536534051
 31
0.0
  0
SPLINE
  5
476
100
AcDbEntity
  8
THREAD
100
AcDbSpline
 62
7
  6
CONTINUOUS
 70
0
 71
3
 72
15
 73
11
 74
9
 42
0.0000001
 43
0.0000001
 44
0.0000000001
 12
0.1643031241
 22
0.1839340856
 32
0.0
 13
-0.1643031241
 23
0.1839340856
 33
0.0
 40
0.0
 40
0.0
 40
0.0
 40
0.0
 40
0.1498215377
 40
0.2783315905
 40
0.3927788038
 40
0.5000592815
 40
0.6073304266
 40
0.7217569014
 40
0.8502022558
 40
1.0
 40
1.0
 40
1.0
 40
1.0
 10
3.952111387
 20
3.7352484601
 30
0.0
 10
3.9603167692
 20
3.7444342226
 30
0.0
 10
3.9747485487
 20
3.7622771812
 30
0.0
 10
3.9913462775
 20
3.7901355953
 30
0.0
 10
4.0013313844
 20
3.8173626693
 30
0.0
 10
4.0046924075
 20
3.844465025
 30
0.0
 10
4.0013246338
 20
3.8715646888
 30
0.0
 10
3.9913375166
 20
3.8987824654
 30
0.0
 10
3.974742787
 20
3.9266319258
 30
0.0
 10
3.9603154661
 20
3.9444691014
 30
0.0
 10
3.952111387
 20
3.9536534051
 30
0.0
 11
3.952111387
 21
3.7352484601
 31
0.0
 11
3.9750798608
 21
3.7641933731
 31
0.0
 11
3.9910060456
 21
3.7915960881
 31
0.0
 11
4.000455043
 21
3.8181938695
 31
0.0
 11
4.003595352
 21
3.8444656334
 31
0.0
 11
4.0004487638
 21
3.8707343279
 31
0.0
 11
3.9909967316
 21
3.8973256027
 31
0.0
 11
3.9750765241
 21
3.9247133357
 31
0.0
 11
3.952111387
 21
3.9536534051
 31
0.0
  0
SPLINE
  5
477
100
AcDbEntity
  8
0
100
AcDbSpline
 62
7
  6
CONTINUOUS
 70
0
 71
3
 72
8
 73
4
 74
2
 42
0.0000001
 43
0.0000001
 44
0.0000000001
 12
-0.0014256757
 22
-0.0001679385
 32
0.0
 13
-0.0014268249
 23
-0.0001579996
 33
0.0
 40
0.0
 40
0.0
 40
0.0
 40
0.0
 40
1.0
 40
1.0
 40
1.0
 40
1.0
 10
7.880111387
 20
4.4228509326
 30
0.0
 10
7.8796361618
 20
4.4227949531
 30
0.0
 10
7.8791607394
 20
4.4227406258
 30
0.0
 10
7.8786851311
 20
4.4226879592
 30
0.0
 11
7.880111387
 21
4.4228509326
 31
0.0
 11
7.8786851311
 21
4.4226879592
 31
0.0
  0
SPLINE
  5
478
100
AcDbEntity
  8
0
100
AcDbSpline
 62
7
  6
CONTINUOUS
 70
0
 71
3
 72
14
 73
10
 74
8
 42
0.0000001
 43
0.0000001
 44
0.0000000001
 12
-0.0439710962
 22
-0.0048691451
 32
0.0
 13
-0.0439710079
 23
0.0048699408
 33
0.0
 40
0.0
 40
0.0
 40
0.0
 40
0.0
 40
0.095895887
 40
0.2392593784
 40
0.4105709916
 40
0.5932653732
 40
0.7649294004
 40
0.9054806457
 40
1.0
 40
1.0
 40
1.0
 40
1.0
 10
7.8786851311
 20
4.4226879592
 30
0.0
 10
7.8772795821
 20
4.4225323156
 30
0.0
 10
7.8737686973
 20
4.4221801748
 30
0.0
 10
7.8677297072
 20
4.4217332057
 30
0.0
 10
7.8603990487
 20
4.421446611
 30
0.0
 10
7.8526450615
 20
4.4214500093
 30
0.0
 10
7.8453509082
 20
4.4217418388
 30
0.0
 10
7.8393686708
 20
4.4221883852
 30
0.0
 10
7.8359193156
 20
4.4225349342
 30
0.0
 10
7.8345339452
 20
4.4226883687
 30
0.0
 11
7.8786851311
 21
4.4226879592
 31
0.0
 11
7.8744638983
 21
4.4222647636
 31
0.0
 11
7.8681388235
 21
4.4217971011
 31
0.0
 11
7.8605658382
 21
4.4215014756
 31
0.0
 11
7.8524835168
 21
4.4215050123
 31
0.0
 11
7.8448952255
 21
4.4218081533
 31
0.0
 11
7.8386945149
 21
4.4222705503
 31
0.0
 11
7.8345339452
 21
4.4226883687
 31
0.0
  0
SPLINE
  5
479
100
AcDbEntity
  8
0
100
AcDbSpline
 62
7
  6
CONTINUOUS
 70
0
 71
3
 72
8
 73
4
 74
2
 42
0.0000001
 43
0.0000001
 44
0.0000000001
 12
-0.0014231244
 22
0.0001576159
 32
0.0
 13
-0.001421981
 23
0.0001675033
 33
0.0
 40
0.0
 40
0.0
 40
0.0
 40
0.0
 40
1.0
 40
1.0
 40
1.0
 40
1.0
 10
7.8345339452
 20
4.4226883687
 30
0.0
 10
7.8340595704
 20
4.4227409074
 30
0.0
 10
7.8335853806
 20
4.4227950982
 30
0.0
 10
7.833111387
 20
4.4228509326
 30
0.0
 11
7.8345339452
 21
4.4226883687
 31
0.0
 11
7.833111387
 21
4.4228509326
 31
0.0
  0
SPLINE
  5
47A
100
AcDbEntity
  8
0
100
AcDbSpline
 62
7
  6
CONTINUOUS
 70
0
 71
3
 72
19
 73
15
 74
13
 42
0.0000001
 43
0.0000001
 44
0.0000000001
 12
0.0
 22
0.1629013085
 32
0.0
 13
0.0
 23
-0.1629013085
 33
0.0
 40
0.0
 40
0.0
 40
0.0
 40
0.0
 40
0.0763785291
 40
0.156767337
 40
0.2402857204
 40
0.3259533602
 40
0.4127415229
 40
0.4999619478
 40
0.5871887585
 40
0.6740185448
 40
0.7597593582
 40
0.8433462285
 40
0.9237577685
 40
1.0
 40
1.0
 40
1.0
 40
1.0
 10
4.966111387
 20
4.0833509326
 30
0.0
 10
4.966111387
 20
4.08749832
 30
0.0
 10
4.9674288445
 20
4.0960525483
 30
0.0
 10
4.9729818781
 20
4.1080270245
 30
0.0
 10
4.9817536642
 20
4.1185516514
 30
0.0
 10
4.9931373672
 20
4.1267746222
 30
0.0
 10
5.0063832676
 20
4.1320229697
 30
0.0
 10
5.020605431
 20
4.1338296644
 30
0.0
 10
5.0348302601
 20
4.1320256923
 30
0.0
 10
5.0480832176
 20
4.1267767184
 30
0.0
 10
5.0594750815
 20
4.1185474371
 30
0.0
 10
5.0682503031
 20
4.1080135959
 30
0.0
 10
5.0737973203
 20
4.0960387916
 30
0.0
 10
5.075111387
 20
4.087490919
 30
0.0
 10
5.075111387
 20
4.0833509326
 30
0.0
 11
4.966111387
 21
4.0833509326
 31
0.0
 11
4.9679423955
 21
4.0956576304
 31
0.0
 11
4.9733841271
 21
4.1075688923
 31
0.0
 11
4.9820625885
 21
4.118046833
 31
0.0
 11
4.9933657298
 21
4.1262316583
 31
0.0
 11
5.0065098051
 21
4.1314387353
 31
0.0
 11
5.0206051501
 21
4.1332269315
 31
0.0
 11
5.0347019048
 21
4.1314415845
 31
0.0
 11
5.0478530199
 21
4.1262338684
 31
0.0
 11
5.0591656044
 21
4.1180417599
 31
0.0
 11
5.0678485948
 21
4.1075530844
 31
0.0
 11
5.0732867882
 21
4.0956361362
 31
0.0
 11
5.075111387
 21
4.0833509326
 31
0.0
  0
SPLINE
  5
47B
100
AcDbEntity
  8
0
100
AcDbSpline
 62
7
  6
CONTINUOUS
 70
0
 71
3
 72
19
 73
15
 74
13
 42
0.0000001
 43
0.0000001
 44
0.0000000001
 12
0.0
 22
-0.1629013085
 32
0.0
 13
0.0
 23
0.1629013085
 33
0.0
 40
0.0
 40
0.0
 40
0.0
 40
0.0
 40
0.0763785291
 40
0.156767337
 40
0.2402857204
 40
0.3259533602
 40
0.4127415229
 40
0.4999619478
 40
0.5871887585
 40
0.6740185448
 40
0.7597593582
 40
0.8433462285
 40
0.9237577685
 40
1.0
 40
1.0
 40
1.0
 40
1.0
 10
5.075111387
 20
4.3633509326
 30
0.0
 10
5.075111387
 20
4.3592035452
 30
0.0
 10
5.0737939295
 20
4.3506493169
 30
0.0
 10
5.0682408959
 20
4.3386748407
 30
0.0
 10
5.0594691098
 20
4.3281502137
 30
0.0
 10
5.0480854068
 20
4.319927243
 30
0.0
 10
5.0348395063
 20
4.3146788954
 30
0.0
 10
5.020617343
 20
4.3128722007
 30
0.0
 10
5.0063925138
 20
4.3146761729
 30
0.0
 10
4.9931395563
 20
4.3199251468
 30
0.0
 10
4.9817476925
 20
4.3281544281
 30
0.0
 10
4.9729724708
 20
4.3386882693
 30
0.0
 10
4.9674254536
 20
4.3506630736
 30
0.0
 10
4.966111387
 20
4.3592109462
 30
0.0
 10
4.966111387
 20
4.3633509326
 30
0.0
 11
5.075111387
 21
4.3633509326
 31
0.0
 11
5.0732803784
 21
4.3510442348
 31
0.0
 11
5.0678386469
 21
4.3391329729
 31
0.0
 11
5.0591601854
 21
4.3286550322
 31
0.0
 11
5.0478570441
 21
4.3204702069
 31
0.0
 11
5.0347129689
 21
4.3152631299
 31
0.0
 11
5.0206176239
 21
4.3134749337
 31
0.0
 11
5.0065208692
 21
4.3152602807
 31
0.0
 11
4.993369754
 21
4.3204679968
 31
0.0
 11
4.9820571695
 21
4.3286601053
 31
0.0
 11
4.9733741792
 21
4.3391487808
 31
0.0
 11
4.9679359857
 21
4.351065729
 31
0.0
 11
4.966111387
 21
4.3633509326
 31
0.0
  0
SPLINE
  5
47C
100
AcDbEntity
  8
0
100
AcDbSpline
 62
7
  6
CONTINUOUS
 70
0
 71
3
 72
19
 73
15
 74
13
 42
0.0000001
 43
0.0000001
 44
0.0000000001
 12
-0.1076664989
 22
-0.0209565869
 32
0.0
 13
-0.1076665026
 23
0.020956586
 33
0.0
 40
0.0
 40
0.0
 40
0.0
 40
0.0
 40
0.0168783337
 40
0.0686243586
 40
0.1508582412
 40
0.2541610489
 40
0.3724463116
 40
0.4990285498
 40
0.6256430258
 40
0.7442284283
 40
0.8480948728
 40
0.9312440283
 40
0.9832169322
 40
1.0
 40
1.0
 40
1.0
 40
1.0
 10
5.075111387
 20
4.5033509326
 30
0.0
 10
5.0745056433
 20
4.5032330285
 30
0.0
 10
5.072041343
 20
4.5027610603
 30
0.0
 10
5.0666113723
 20
4.5017902862
 30
0.0
 10
5.0580348771
 20
4.5004734675
 30
0.0
 10
5.0469998911
 20
4.4991727915
 30
0.0
 10
5.0343004453
 20
4.4982276959
 30
0.0
 10
5.0207168279
 20
4.4978785021
 30
0.0
 10
5.0071219681
 20
4.498217515
 30
0.0
 10
4.9943891599
 20
4.4991562299
 30
0.0
 10
4.9832888617
 20
4.5004588848
 30
0.0
 10
4.9746503902
 20
4.5017833011
 30
0.0
 10
4.96918273
 20
4.5027607787
 30
0.0
 10
4.9667137117
 20
4.503233694
 30
0.0
 10
4.966111387
 20
4.5033509326
 30
0.0
 11
5.075111387
 21
4.5033509326
 31
0.0
 11
5.0732930934
 21
4.5030027021
 31
0.0
 11
5.0677057349
 21
4.5020041716
 31
0.0
 11
5.0587899929
 21
4.5006366263
 31
0.0
 11
5.0475366343
 21
4.4993123773
 31
0.0
 11
5.0345978643
 21
4.4983516081
 31
0.0
 11
5.0207179612
 21
4.4979957238
 31
0.0
 11
5.006834254
 21
4.4983410404
 31
0.0
 11
4.9938619897
 21
4.4992952753
 31
0.0
 11
4.9825465541
 21
4.5006209842
 31
0.0
 11
4.9735312746
 21
4.5020017661
 31
0.0
 11
4.9679194117
 21
4.5030046368
 31
0.0
 11
4.966111387
 21
4.5033509326
 31
0.0
  0
SPLINE
  5
47D
100
AcDbEntity
  8
0
100
AcDbSpline
 62
7
  6
CONTINUOUS
 70
0
 71
3
 72
19
 73
15
 74
13
 42
0.0000001
 43
0.0000001
 44
0.0000000001
 12
0.0
 22
0.2105038487
 32
0.0
 13
0.0
 23
-0.2105038487
 33
0.0
 40
0.0
 40
0.0
 40
0.0
 40
0.0
 40
0.0759924155
 40
0.1568107565
 40
0.2409133744
 40
0.3268537375
 40
0.4133862433
 40
0.4999737175
 40
0.5865518335
 40
0.673100269
 40
0.7591039937
 40
0.8432710938
 40
0.9240981646
 40
1.0
 40
1.0
 40
1.0
 40
1.0
 10
5.971611387
 20
4.0827259326
 30
0.0
 10
5.971611387
 20
4.0880581646
 30
0.0
 10
5.9733133594
 20
4.0991112798
 30
0.0
 10
5.9804348816
 20
4.114651123
 30
0.0
 10
5.9916984764
 20
4.1284212562
 30
0.0
 10
6.0063184946
 20
4.1392416873
 30
0.0
 10
6.0233329052
 20
4.1461772212
 30
0.0
 10
6.0416051006
 20
4.1485701701
 30
0.0
 10
6.0598787742
 20
4.1461802289
 30
0.0
 10
6.0768989498
 20
4.1392455021
 30
0.0
 10
6.0915278405
 20
4.1284194455
 30
0.0
 10
6.1027957616
 20
4.1146399475
 30
0.0
 10
6.1099123929
 20
4.0990990341
 30
0.0
 10
6.111611387
 20
4.0880518088
 30
0.0
 10
6.111611387
 20
4.0827259326
 30
0.0
 11
5.971611387
 21
4.0827259326
 31
0.0
 11
5.9739498944
 21
4.0985507758
 31
0.0
 11
5.9809452964
 21
4.1140585788
 31
0.0
 11
5.9921185213
 21
4.1277913133
 31
0.0
 11
6.0066571415
 21
4.1385572197
 31
0.0
 11
6.023531802
 21
4.145416342
 31
0.0
 11
6.0416058186
 21
4.1477728919
 31
0.0
 11
6.0596782859
 21
4.145419698
 31
0.0
 11
6.0765571434
 21
4.1385619964
 31
0.0
 11
6.0911069295
 21
4.1277887561
 31
0.0
 11
6.1022866379
 21
4.114043798
 31
0.0
 11
6.1092783303
 21
4.0985323066
 31
0.0
 11
6.111611387
 21
4.0827259326
 31
0.0
  0
SPLINE
  5
47E
100
AcDbEntity
  8
0
100
AcDbSpline
 62
7
  6
CONTINUOUS
 70
0
 71
3
 72
19
 73
15
 74
13
 42
0.0000001
 43
0.0000001
 44
0.0000000001
 12
0.0
 22
-0.2105038487
 32
0.0
 13
0.0
 23
0.2105038487
 33
0.0
 40
0.0
 40
0.0
 40
0.0
 40
0.0
 40
0.0759924155
 40
0.1568107565
 40
0.2409133744
 40
0.3268537375
 40
0.4133862433
 40
0.4999737175
 40
0.5865518335
 40
0.673100269
 40
0.7591039937
 40
0.8432710938
 40
0.9240981646
 40
1.0
 40
1.0
 40
1.0
 40
1.0
 10
6.111611387
 20
4.3639759326
 30
0.0
 10
6.111611387
 20
4.3586437006
 30
0.0
 10
6.1099094146
 20
4.3475905854
 30
0.0
 10
6.1027878923
 20
4.3320507422
 30
0.0
 10
6.0915242976
 20
4.318280609
 30
0.0
 10
6.0769042794
 20
4.3074601779
 30
0.0
 10
6.0598898688
 20
4.300524644
 30
0.0
 10
6.0416176733
 20
4.2981316951
 30
0.0
 10
6.0233439998
 20
4.3005216363
 30
0.0
 10
6.0063238242
 20
4.307456363
 30
0.0
 10
5.9916949335
 20
4.3182824197
 30
0.0
 10
5.9804270124
 20
4.3320619177
 30
0.0
 10
5.973310381
 20
4.3476028311
 30
0.0
 10
5.971611387
 20
4.3586500564
 30
0.0
 10
5.971611387
 20
4.3639759326
 30
0.0
 11
6.111611387
 21
4.3639759326
 31
0.0
 11
6.1092728795
 21
4.3481510893
 31
0.0
 11
6.1022774776
 21
4.3326432864
 31
0.0
 11
6.0911042527
 21
4.3189105519
 31
0.0
 11
6.0765656325
 21
4.3081446454
 31
0.0
 11
6.0596909719
 21
4.3012855232
 31
0.0
 11
6.0416169553
 21
4.2989289733
 31
0.0
 11
6.023544488
 21
4.3012821672
 31
0.0
 11
6.0066656306
 21
4.3081398688
 31
0.0
 11
5.9921158445
 21
4.3189131091
 31
0.0
 11
5.9809361361
 21
4.3326580672
 31
0.0
 11
5.9739444437
 21
4.3481695586
 31
0.0
 11
5.971611387
 21
4.3639759326
 31
0.0
  0
SPLINE
  5
47F
100
AcDbEntity
  8
0
100
AcDbSpline
 62
7
  6
CONTINUOUS
 70
0
 71
3
 72
19
 73
15
 74
13
 42
0.0000001
 43
0.0000001
 44
0.0000000001
 12
-0.1372646294
 22
-0.034163764
 32
0.0
 13
-0.1372646351
 23
0.0341637632
 33
0.0
 40
0.0
 40
0.0
 40
0.0
 40
0.0
 40
0.0168855818
 40
0.0689629255
 40
0.1517787787
 40
0.255245651
 40
0.3732567279
 40
0.4993204019
 40
0.6253828527
 40
0.7435750361
 40
0.847446253
 40
0.9309199555
 40
0.9831697618
 40
1.0
 40
1.0
 40
1.0
 40
1.0
 10
6.111611387
 20
4.5046009326
 30
0.0
 10
6.1108387893
 20
4.5044086409
 30
0.0
 10
6.1076805197
 20
4.5036347807
 30
0.0
 10
6.1007041962
 20
4.5020361931
 30
0.0
 10
6.0896752364
 20
4.4998597881
 30
0.0
 10
6.0754843288
 20
4.4977038181
 30
0.0
 10
6.0591629141
 20
4.4961345418
 30
0.0
 10
6.0417076709
 20
4.4955554604
 30
0.0
 10
6.0242434818
 20
4.4961224897
 30
0.0
 10
6.0078935847
 20
4.4976839012
 30
0.0
 10
5.9936436232
 20
4.4998419589
 30
0.0
 10
5.9825570441
 20
4.5020273998
 30
0.0
 10
5.9755450763
 20
4.5036340591
 30
0.0
 10
5.9723814525
 20
4.5044092712
 30
0.0
 10
5.971611387
 20
4.5046009326
 30
0.0
 11
6.111611387
 21
4.5046009326
 31
0.0
 11
6.1092914928
 21
4.5040325302
 31
0.0
 11
6.1021108934
 21
4.5023881215
 31
0.0
 11
6.0906173101
 21
4.5001236607
 31
0.0
 11
6.0761468032
 21
4.4979310802
 31
0.0
 11
6.0595298793
 21
4.4963392746
 31
0.0
 11
6.0417075443
 21
4.495750587
 31
0.0
 11
6.0238849726
 21
4.4963267342
 31
0.0
 11
6.0072415281
 21
4.4979103063
 31
0.0
 11
5.9927134286
 21
4.5001045646
 31
0.0
 11
5.9811280729
 21
4.5023846112
 31
0.0
 11
5.9739236708
 21
4.5040343654
 31
0.0
 11
5.971611387
 21
4.5046009326
 31
0.0
  0
SPLINE
  5
480
100
AcDbEntity
  8
0
100
AcDbSpline
 62
7
  6
CONTINUOUS
 70
0
 71
3
 72
19
 73
15
 74
13
 42
0.0000001
 43
0.0000001
 44
0.0000000001
 12
0.0
 22
0.1628856933
 32
0.0
 13
0.0
 23
-0.1628856933
 33
0.0
 40
0.0
 40
0.0
 40
0.0
 40
0.0
 40
0.0763824499
 40
0.1567649379
 40
0.2402752703
 40
0.3259395526
 40
0.4127317797
 40
0.4999615454
 40
0.5871978788
 40
0.6740318864
 40
0.7597691379
 40
0.8433476942
 40
0.9237529682
 40
1.0
 40
1.0
 40
1.0
 40
1.0
 10
7.006111387
 20
4.0827259326
 30
0.0
 10
7.006111387
 20
4.0868731354
 30
0.0
 10
7.0074286695
 20
4.0954264589
 30
0.0
 10
7.0129817618
 20
4.1073989839
 30
0.0
 10
7.0217536559
 20
4.1179206399
 30
0.0
 10
7.0331374643
 20
4.1261404916
 30
0.0
 10
7.0463833556
 20
4.1313864439
 30
0.0
 10
7.0606053747
 20
4.1331922416
 30
0.0
 10
7.0748300719
 20
4.1313891933
 30
0.0
 10
7.088083035
 20
4.1261426333
 30
0.0
 10
7.0994750039
 20
4.1179165027
 30
0.0
 10
7.1082503445
 20
4.1073856728
 30
0.0
 10
7.1137974714
 20
4.0954128029
 30
0.0
 10
7.115111387
 20
4.0868657828
 30
0.0
 10
7.115111387
 20
4.0827259326
 30
0.0
 11
7.006111387
 21
4.0827259326
 31
0.0
 11
7.0079424584
 21
4.0950320609
 31
0.0
 11
7.0133840802
 21
4.106940861
 31
0.0
 11
7.0220623096
 21
4.1174155976
 31
0.0
 11
7.0333653147
 21
4.1255973973
 31
0.0
 11
7.0465094835
 21
4.1308023559
 31
0.0
 11
7.0606050846
 21
4.1325898005
 31
0.0
 11
7.074702128
 21
4.1308052291
 31
0.0
 11
7.0878533679
 21
4.1255996434
 31
0.0
 11
7.0991658032
 21
4.1174106012
 31
0.0
 11
7.1078485607
 21
4.1069251856
 31
0.0
 11
7.1132866843
 21
4.0950107076
 31
0.0
 11
7.115111387
 21
4.0827259326
 31
0.0
  0
SPLINE
  5
481
100
AcDbEntity
  8
0
100
AcDbSpline
 62
7
  6
CONTINUOUS
 70
0
 71
3
 72
19
 73
15
 74
13
 42
0.0000001
 43
0.0000001
 44
0.0000000001
 12
0.0
 22
-0.1628856933
 32
0.0
 13
0.0
 23
0.1628856933
 33
0.0
 40
0.0
 40
0.0
 40
0.0
 40
0.0
 40
0.0763824499
 40
0.1567649379
 40
0.2402752703
 40
0.3259395526
 40
0.4127317797
 40
0.4999615454
 40
0.5871978788
 40
0.6740318864
 40
0.7597691379
 40
0.8433476942
 40
0.9237529682
 40
1.0
 40
1.0
 40
1.0
 40
1.0
 10
7.115111387
 20
4.3639759326
 30
0.0
 10
7.115111387
 20
4.3598287298
 30
0.0
 10
7.1137941044
 20
4.3512754063
 30
0.0
 10
7.1082410122
 20
4.3393028813
 30
0.0
 10
7.0994691181
 20
4.3287812253
 30
0.0
 10
7.0880853097
 20
4.3205613736
 30
0.0
 10
7.0748394184
 20
4.3153154213
 30
0.0
 10
7.0606173993
 20
4.3135096236
 30
0.0
 10
7.0463927021
 20
4.3153126719
 30
0.0
 10
7.0331397389
 20
4.3205592319
 30
0.0
 10
7.0217477701
 20
4.3287853625
 30
0.0
 10
7.0129724295
 20
4.3393161924
 30
0.0
 10
7.0074253026
 20
4.3512890623
 30
0.0
 10
7.006111387
 20
4.3598360824
 30
0.0
 10
7.006111387
 20
4.3639759326
 30
0.0
 11
7.115111387
 21
4.3639759326
 31
0.0
 11
7.1132803156
 21
4.3516698043
 31
0.0
 11
7.1078386938
 21
4.3397610041
 31
0.0
 11
7.0991604644
 21
4.3292862676
 31
0.0
 11
7.0878574592
 21
4.3211044679
 31
0.0
 11
7.0747132905
 21
4.3158995093
 31
0.0
 11
7.0606176894
 21
4.3141120647
 31
0.0
 11
7.0465206459
 21
4.3158966361
 31
0.0
 11
7.0333694061
 21
4.3211022218
 31
0.0
 11
7.0220569708
 21
4.329291264
 31
0.0
 11
7.0133742132
 21
4.3397766796
 31
0.0
 11
7.0079360897
 21
4.3516911575
 31
0.0
 11
7.006111387
 21
4.3639759326
 31
0.0
  0
SPLINE
  5
482
100
AcDbEntity
  8
0
100
AcDbSpline
 62
7
  6
CONTINUOUS
 70
0
 71
3
 72
17
 73
13
 74
11
 42
0.0000001
 43
0.0000001
 44
0.0000000001
 12
-0.062238308
 22
0.1465721043
 32
0.0
 13
-0.0622781012
 23
-0.1465658556
 33
0.0
 40
0.0
 40
0.0
 40
0.0
 40
0.0
 40
0.0717133274
 40
0.1733030419
 40
0.2774783697
 40
0.3869596543
 40
0.4988329602
 40
0.6106376549
 40
0.7201553255
 40
0.8244553529
 40
0.9264860025
 40
1.0
 40
1.0
 40
1.0
 40
1.0
 10
6.1078217882
 20
4.3440552221
 30
0.0
 10
6.1063340161
 20
4.3475589466
 30
0.0
 10
6.101712878
 20
4.3555909467
 30
0.0
 10
6.0909506601
 20
4.365881867
 30
0.0
 10
6.0761051806
 20
4.3737756821
 30
0.0
 10
6.0594257294
 20
4.3783990008
 30
0.0
 10
6.0418062021
 20
4.3799395661
 30
0.0
 10
6.0241795429
 20
4.3784651716
 30
0.0
 10
6.0074760449
 20
4.3739143705
 30
0.0
 10
5.9925605848
 20
4.3660882791
 30
0.0
 10
5.9816408878
 20
4.3557788373
 30
0.0
 10
5.9769305284
 20
4.3476551491
 30
0.0
 10
5.9754044243
 20
4.3440636017
 30
0.0
 11
6.1078217882
 21
4.3440552221
 31
0.0
 11
6.1021498494
 21
4.3539315082
 31
0.0
 11
6.0906343501
 21
4.3651817304
 31
0.0
 11
6.0761444463
 21
4.3730923282
 31
0.0
 11
6.0594590347
 21
4.3778463704
 31
0.0
 11
6.041801699
 21
4.3794335505
 31
0.0
 11
6.0241491877
 21
4.3779156284
 31
0.0
 11
6.0074369068
 21
4.3732354943
 31
0.0
 11
5.9928859045
 21
4.3653961034
 31
0.0
 11
5.9812509164
 21
4.3541686384
 31
0.0
 11
5.9754044243
 21
4.3440636017
 31
0.0
  0
SPLINE
  5
483
100
AcDbEntity
  8
0
100
AcDbSpline
 62
7
  6
CONTINUOUS
 70
0
 71
3
 72
9
 73
5
 74
3
 42
0.0000001
 43
0.0000001
 44
0.0000000001
 12
-0.0030781478
 22
-0.0097616102
 32
0.0
 13
-0.0055062305
 23
-0.0086135847
 33
0.0
 40
0.0
 40
0.0
 40
0.0
 40
0.0
 40
0.0590405441
 40
1.0
 40
1.0
 40
1.0
 40
1.0
 10
5.0733058085
 20
4.0957624716
 30
0.0
 10
5.07324523
 20
4.0955703614
 30
0.0
 10
5.0721932567
 20
4.0923249453
 30
0.0
 10
5.0707019251
 20
4.0892311005
 30
0.0
 10
5.0689748785
 20
4.0865294225
 30
0.0
 11
5.0733058085
 21
4.0957624716
 31
0.0
 11
5.0731194804
 21
4.0951876675
 31
0.0
 11
5.0689748785
 21
4.0865294225
 31
0.0
  0
SPLINE
  5
484
100
AcDbEntity
  8
0
100
AcDbSpline
 62
7
  6
CONTINUOUS
 70
0
 71
3
 72
17
 73
13
 74
11
 42
0.0000001
 43
0.0000001
 44
0.0000000001
 12
-0.0590010213
 22
-0.0922973164
 32
0.0
 13
-0.0638240559
 23
0.0888838453
 33
0.0
 40
0.0
 40
0.0
 40
0.0
 40
0.0
 40
0.0258076098
 40
0.1375254261
 40
0.2449593974
 40
0.3469240281
 40
0.4583497011
 40
0.5739909192
 40
0.6868367741
 40
0.7940911004
 40
0.8976702376
 40
1.0
 40
1.0
 40
1.0
 40
1.0
 10
5.0689748785
 20
4.0865294225
 30
0.0
 10
5.0684673201
 20
4.0857354315
 30
0.0
 10
5.0656135923
 20
4.0816007812
 30
0.0
 10
5.0591999138
 20
4.0752480977
 30
0.0
 10
5.0490505943
 20
4.0692802824
 30
0.0
 10
5.0379719893
 20
4.0654302934
 30
0.0
 10
5.0260990842
 20
4.0635093368
 30
0.0
 10
5.0136762167
 20
4.0636262667
 30
0.0
 10
5.0016024743
 20
4.0658381261
 30
0.0
 10
4.9905327955
 20
4.0700515043
 30
0.0
 10
4.9808582429
 20
4.0762355786
 30
0.0
 10
4.9756310105
 20
4.0817174691
 30
0.0
 10
4.973453977
 20
4.08474929
 30
0.0
 11
5.0689748785
 21
4.0865294225
 31
0.0
 11
5.0673699687
 21
4.0842036457
 31
0.0
 11
5.0587788654
 21
4.0755555355
 31
0.0
 11
5.0487164837
 21
4.0695415627
 31
0.0
 11
5.0382230442
 21
4.0658440576
 31
0.0
 11
5.0262258931
 21
4.0638719823
 31
0.0
 11
5.013608339
 21
4.0639926763
 31
0.0
 11
5.0015033325
 21
4.0662469301
 31
0.0
 11
4.9905875161
 21
4.0704665463
 31
0.0
 11
4.9811065745
 21
4.0766185036
 31
0.0
 11
4.973453977
 21
4.08474929
 31
0.0
  0
SPLINE
  5
485
100
AcDbEntity
  8
0
100
AcDbSpline
 62
7
  6
CONTINUOUS
 70
0
 71
3
 72
8
 73
4
 74
2
 42
0.0000001
 43
0.0000001
 44
0.0000000001
 12
-0.0012312809
 22
0.0017147294
 32
0.0
 13
-0.0011395169
 23
0.0017779518
 33
0.0
 40
0.0
 40
0.0
 40
0.0
 40
0.0
 40
1.0
 40
1.0
 40
1.0
 40
1.0
 10
4.973453977
 20
4.08474929
 30
0.0
 10
4.97304355
 20
4.0853208664
 30
0.0
 10
4.9726480764
 20
4.0859033723
 30
0.0
 10
4.9722682374
 20
4.0864960229
 30
0.0
 11
4.973453977
 21
4.08474929
 31
0.0
 11
4.9722682374
 21
4.0864960229
 31
0.0
  0
SPLINE
  5
486
100
AcDbEntity
  8
0
100
AcDbSpline
 62
7
  6
CONTINUOUS
 70
0
 71
3
 72
9
 73
5
 74
3
 42
0.0000001
 43
0.0000001
 44
0.0000000001
 12
-0.0055570574
 22
0.0086704989
 32
0.0
 13
-0.0030905687
 23
0.0098440478
 33
0.0
 40
0.0
 40
0.0
 40
0.0
 40
0.0
 40
0.9221482363
 40
1.0
 40
1.0
 40
1.0
 40
1.0
 10
4.9722682374
 20
4.0864960229
 30
0.0
 10
4.9705600939
 20
4.0891611847
 30
0.0
 10
4.969050617
 20
4.0922738305
 30
0.0
 10
4.967985822
 20
4.0955438215
 30
0.0
 10
4.9679056199
 20
4.0957992803
 30
0.0
 11
4.9722682374
 21
4.0864960229
 31
0.0
 11
4.9681543095
 21
4.095035626
 31
0.0
 11
4.9679056199
 21
4.0957992803
 31
0.0
  0
SPLINE
  5
487
100
AcDbEntity
  8
0
100
AcDbSpline
 62
7
  6
CONTINUOUS
 70
0
 71
3
 72
8
 73
4
 74
2
 42
0.0000001
 43
0.0000001
 44
0.0000000001
 12
0.0031144903
 22
0.0097791477
 32
0.0
 13
0.0055496991
 23
0.0086212817
 33
0.0
 40
0.0
 40
0.0
 40
0.0
 40
0.0
 40
1.0
 40
1.0
 40
1.0
 40
1.0
 10
4.967945625
 20
4.3510303706
 30
0.0
 10
4.9689837884
 20
4.3542900865
 30
0.0
 10
4.9704649475
 20
4.3574043743
 30
0.0
 10
4.9723148472
 20
4.3602781349
 30
0.0
 11
4.967945625
 21
4.3510303706
 31
0.0
 11
4.9723148472
 21
4.3602781349
 31
0.0
  0
SPLINE
  5
488
100
AcDbEntity
  8
0
100
AcDbSpline
 62
7
  6
CONTINUOUS
 70
0
 71
3
 72
8
 73
4
 74
2
 42
0.0000001
 43
0.0000001
 44
0.0000000001
 12
0.0009752661
 22
0.0015150449
 32
0.0
 13
0.0010423821
 23
0.0014689287
 33
0.0
 40
0.0
 40
0.0
 40
0.0
 40
0.0
 40
1.0
 40
1.0
 40
1.0
 40
1.0
 10
4.9723148472
 20
4.3602781349
 30
0.0
 10
4.9726399358
 20
4.3607831498
 30
0.0
 10
4.972976412
 20
4.3612807368
 30
0.0
 10
4.9733238727
 20
4.3617703797
 30
0.0
 11
4.9723148472
 21
4.3602781349
 31
0.0
 11
4.9733238727
 21
4.3617703797
 31
0.0
  0
SPLINE
  5
489
100
AcDbEntity
  8
0
100
AcDbSpline
 62
7
  6
CONTINUOUS
 70
0
 71
3
 72
15
 73
11
 74
9
 42
0.0000001
 43
0.0000001
 44
0.0000000001
 12
0.0623422937
 22
0.0878529862
 32
0.0
 13
0.0623336094
 23
-0.0878583982
 33
0.0
 40
0.0
 40
0.0
 40
0.0
 40
0.0
 40
0.1158084708
 40
0.2374137628
 40
0.3636402353
 40
0.4966978477
 40
0.6329112137
 40
0.7623663444
 40
0.8842896735
 40
1.0
 40
1.0
 40
1.0
 40
1.0
 10
4.9733238727
 20
4.3617703797
 30
0.0
 10
4.9757304613
 20
4.3651617531
 30
0.0
 10
4.9817443871
 20
4.3713329834
 30
0.0
 10
4.9930884272
 20
4.3779780078
 30
0.0
 10
5.0061951138
 20
4.3820750331
 30
0.0
 10
5.0203675895
 20
4.3835194386
 30
0.0
 10
5.0346706358
 20
4.3821691227
 30
0.0
 10
5.0480263144
 20
4.3780414476
 30
0.0
 10
5.0594789796
 20
4.3713340698
 30
0.0
 10
5.0654969651
 20
4.3651558787
 30
0.0
 10
5.0679011792
 20
4.3617671707
 30
0.0
 11
4.9733238727
 21
4.3617703797
 31
0.0
 11
4.9819288522
 21
4.3707462005
 31
0.0
 11
4.9931360993
 21
4.3774450219
 31
0.0
 11
5.0060475431
 21
4.3815649889
 31
0.0
 11
5.020256957
 21
4.3830451252
 31
0.0
 11
5.0348143306
 21
4.3816389955
 31
0.0
 11
5.0480685467
 21
4.3774530839
 31
0.0
 11
5.0593053662
 21
4.370737181
 31
0.0
 11
5.0679011792
 21
4.3617671707
 31
0.0
  0
SPLINE
  5
48A
100
AcDbEntity
  8
0
100
AcDbSpline
 62
7
  6
CONTINUOUS
 70
0
 71
3
 72
8
 73
4
 74
2
 42
0.0000001
 43
0.0000001
 44
0.0000000001
 12
0.0010401041
 22
-0.001466013
 32
0.0
 13
0.0009732592
 23
-0.0015119353
 33
0.0
 40
0.0
 40
0.0
 40
0.0
 40
0.0
 40
1.0
 40
1.0
 40
1.0
 40
1.0
 10
5.0679011792
 20
4.3617671707
 30
0.0
 10
5.0682478805
 20
4.3612784997
 30
0.0
 10
5.0685836413
 20
4.3607819187
 30
0.0
 10
5.0689080611
 20
4.3602779402
 30
0.0
 11
5.0679011792
 21
4.3617671707
 31
0.0
 11
5.0689080611
 21
4.3602779402
 31
0.0
  0
SPLINE
  5
48B
100
AcDbEntity
  8
0
100
AcDbSpline
 62
7
  6
CONTINUOUS
 70
0
 71
3
 72
8
 73
4
 74
2
 42
0.0000001
 43
0.0000001
 44
0.0000000001
 12
0.0055512048
 22
-0.0086236665
 32
0.0
 13
0.0031145147
 23
-0.0097822003
 33
0.0
 40
0.0
 40
0.0
 40
0.0
 40
0.0
 40
1.0
 40
1.0
 40
1.0
 40
1.0
 10
5.0689080611
 20
4.3602779402
 30
0.0
 10
5.0707584627
 20
4.3574033847
 30
0.0
 10
5.0722399101
 20
4.3542881741
 30
0.0
 10
5.0732780817
 20
4.3510274407
 30
0.0
 11
5.0689080611
 21
4.3602779402
 31
0.0
 11
5.0732780817
 21
4.3510274407
 31
0.0
  0
SPLINE
  5
48C
100
AcDbEntity
  8
0
100
AcDbSpline
 62
7
  6
CONTINUOUS
 70
0
 71
3
 72
8
 73
4
 74
2
 42
0.0000001
 43
0.0000001
 44
0.0000000001
 12
-0.0032710266
 22
-0.0099677747
 32
0.0
 13
-0.0057956685
 23
-0.0087319697
 33
0.0
 40
0.0
 40
0.0
 40
0.0
 40
0.0
 40
1.0
 40
1.0
 40
1.0
 40
1.0
 10
7.1131755269
 20
4.0953571833
 30
0.0
 10
7.1120851847
 20
4.0920345918
 30
0.0
 10
7.1105344069
 20
4.0888671723
 30
0.0
 10
7.1086025174
 20
4.0859565157
 30
0.0
 11
7.1131755269
 21
4.0953571833
 31
0.0
 11
7.1086025174
 21
4.0859565157
 31
0.0
  0
SPLINE
  5
48D
100
AcDbEntity
  8
0
100
AcDbSpline
 62
7
  6
CONTINUOUS
 70
0
 71
3
 72
8
 73
4
 74
2
 42
0.0000001
 43
0.0000001
 44
0.0000000001
 12
-0.0006876532
 22
-0.0010360438
 32
0.0
 13
-0.0007194468
 23
-0.001013847
 33
0.0
 40
0.0
 40
0.0
 40
0.0
 40
0.0
 40
1.0
 40
1.0
 40
1.0
 40
1.0
 10
7.1086025174
 20
4.0859565157
 30
0.0
 10
7.1083732997
 20
4.0856111678
 30
0.0
 10
7.1081387168
 20
4.0852694345
 30
0.0
 10
7.1078989012
 20
4.0849314855
 30
0.0
 11
7.1086025174
 21
4.0859565157
 31
0.0
 11
7.1078989012
 21
4.0849314855
 31
0.0
  0
SPLINE
  5
48E
100
AcDbEntity
  8
0
100
AcDbSpline
 62
7
  6
CONTINUOUS
 70
0
 71
3
 72
15
 73
11
 74
9
 42
0.0000001
 43
0.0000001
 44
0.0000000001
 12
-0.0623422937
 22
-0.0878529862
 32
0.0
 13
-0.0623336094
 23
0.0878583982
 33
0.0
 40
0.0
 40
0.0
 40
0.0
 40
0.0
 40
0.1158084708
 40
0.2374137628
 40
0.3636402353
 40
0.4966978477
 40
0.6329112137
 40
0.7623663444
 40
0.8842896735
 40
1.0
 40
1.0
 40
1.0
 40
1.0
 10
7.1078989012
 20
4.0849314855
 30
0.0
 10
7.1054923127
 20
4.0815401121
 30
0.0
 10
7.0994783869
 20
4.0753688818
 30
0.0
 10
7.0881343467
 20
4.0687238574
 30
0.0
 10
7.0750276602
 20
4.0646268321
 30
0.0
 10
7.0608551845
 20
4.0631824266
 30
0.0
 10
7.0465521382
 20
4.0645327425
 30
0.0
 10
7.0331964595
 20
4.0686604176
 30
0.0
 10
7.0217437943
 20
4.0753677954
 30
0.0
 10
7.0157258089
 20
4.0815459865
 30
0.0
 10
7.0133215948
 20
4.0849346945
 30
0.0
 11
7.1078989012
 21
4.0849314855
 31
0.0
 11
7.0992939218
 21
4.0759556647
 31
0.0
 11
7.0880866746
 21
4.0692568433
 31
0.0
 11
7.0751752308
 21
4.0651368763
 31
0.0
 11
7.060965817
 21
4.06365674
 31
0.0
 11
7.0464084434
 21
4.0650628697
 31
0.0
 11
7.0331542273
 21
4.0692487813
 31
0.0
 11
7.0219174077
 21
4.0759646842
 31
0.0
 11
7.0133215948
 21
4.0849346945
 31
0.0
  0
SPLINE
  5
48F
100
AcDbEntity
  8
0
100
AcDbSpline
 62
7
  6
CONTINUOUS
 70
0
 71
3
 72
8
 73
4
 74
2
 42
0.0000001
 43
0.0000001
 44
0.0000000001
 12
-0.000717219
 22
0.0010109107
 32
0.0
 13
-0.0006856117
 23
0.0010329738
 33
0.0
 40
0.0
 40
0.0
 40
0.0
 40
0.0
 40
1.0
 40
1.0
 40
1.0
 40
1.0
 10
7.0133215948
 20
4.0849346945
 30
0.0
 10
7.0130825218
 20
4.0852716647
 30
0.0
 10
7.012848651
 20
4.0856123962
 30
0.0
 10
7.0126201138
 20
4.0859567208
 30
0.0
 11
7.0133215948
 21
4.0849346945
 31
0.0
 11
7.0126201138
 21
4.0859567208
 31
0.0
  0
SPLINE
  5
490
100
AcDbEntity
  8
0
100
AcDbSpline
 62
7
  6
CONTINUOUS
 70
0
 71
3
 72
8
 73
4
 74
2
 42
0.0000001
 43
0.0000001
 44
0.0000000001
 12
-0.0057970937
 22
0.0087341658
 32
0.0
 13
-0.0032710497
 23
0.0099706127
 33
0.0
 40
0.0
 40
0.0
 40
0.0
 40
0.0
 40
1.0
 40
1.0
 40
1.0
 40
1.0
 10
7.0126201138
 20
4.0859567208
 30
0.0
 10
7.0106877492
 20
4.0888681094
 30
0.0
 10
7.0091366974
 20
4.0920363818
 30
0.0
 10
7.0080463475
 20
4.0953599194
 30
0.0
 11
7.0126201138
 21
4.0859567208
 31
0.0
 11
7.0080463475
 21
4.0953599194
 31
0.0
  0
SPLINE
  5
491
100
AcDbEntity
  8
0
100
AcDbSpline
 62
7
  6
CONTINUOUS
 70
0
 71
3
 72
17
 73
13
 74
11
 42
0.0000001
 43
0.0000001
 44
0.0000000001
 12
0.0622355875
 22
-0.1465760368
 32
0.0
 13
0.062275802
 23
0.1465699407
 33
0.0
 40
0.0
 40
0.0
 40
0.0
 40
0.0
 40
0.0716795778
 40
0.1734067987
 40
0.2775582149
 40
0.3869963509
 40
0.4988043032
 40
0.6105414933
 40
0.7200133565
 40
0.8243165072
 40
0.9264796365
 40
1.0
 40
1.0
 40
1.0
 40
1.0
 10
5.975400539
 20
4.102647764
 30
0.0
 10
5.9768875459
 20
4.0991455945
 30
0.0
 10
5.9815107932
 20
4.0911082619
 30
0.0
 10
5.9922778964
 20
4.0808149874
 30
0.0
 10
6.0071282825
 20
4.0729224745
 30
0.0
 10
6.0238015223
 20
4.0683025955
 30
0.0
 10
6.0414118674
 20
4.0667628932
 30
0.0
 10
6.0590293295
 20
4.0682348509
 30
0.0
 10
6.0757281926
 20
4.0727807122
 30
0.0
 10
6.0906504264
 20
4.0806042662
 30
0.0
 10
6.1015785719
 20
4.0909170169
 30
0.0
 10
6.1062926139
 20
4.099047425
 30
0.0
 10
6.1078187938
 20
4.1026393834
 30
0.0
 11
5.975400539
 21
4.102647764
 31
0.0
 11
5.981069119
 21
4.0927754598
 31
0.0
 11
5.992601279
 21
4.0815108136
 31
0.0
 11
6.007089699
 21
4.0736049648
 31
0.0
 11
6.0237692492
 21
4.0688544932
 31
0.0
 11
6.0414165054
 21
4.0672683233
 31
0.0
 11
6.0590587349
 21
4.0687836011
 31
0.0
 11
6.0757652567
 21
4.0734582052
 31
0.0
 11
6.0903193983
 21
4.0812932576
 31
0.0
 11
6.1019718248
 21
4.0925331834
 31
0.0
 11
6.1078187938
 21
4.1026393834
 31
0.0
  0
SPLINE
  5
492
100
AcDbEntity
  8
0
100
AcDbSpline
 62
7
  6
CONTINUOUS
 70
0
 71
3
 72
9
 73
5
 74
3
 42
0.0000001
 43
0.0000001
 44
0.0000000001
 12
0.0032264737
 22
0.0098094104
 32
0.0
 13
0.005675514
 23
0.008612547
 33
0.0
 40
0.0
 40
0.0
 40
0.0
 40
0.0
 40
0.0135695438
 40
1.0
 40
1.0
 40
1.0
 40
1.0
 10
7.0080592648
 20
4.351381173
 30
0.0
 10
7.0080738587
 20
4.3514255428
 30
0.0
 10
7.0091554189
 20
4.3546932791
 30
0.0
 10
7.0106842944
 20
4.3578066991
 30
0.0
 10
7.012550461
 20
4.360638592
 30
0.0
 11
7.0080592648
 21
4.351381173
 31
0.0
 11
7.0081032936
 21
4.3515141977
 31
0.0
 11
7.012550461
 21
4.360638592
 31
0.0
  0
SPLINE
  5
493
100
AcDbEntity
  8
0
100
AcDbSpline
 62
7
  6
CONTINUOUS
 70
0
 71
3
 72
17
 73
13
 74
11
 42
0.0000001
 43
0.0000001
 44
0.0000000001
 12
0.0599658486
 22
0.0909976934
 32
0.0
 13
0.0635002506
 23
-0.0884329014
 33
0.0
 40
0.0
 40
0.0
 40
0.0
 40
0.0
 40
0.0208399334
 40
0.1331274298
 40
0.2411092366
 40
0.3435938131
 40
0.4555876764
 40
0.5718185811
 40
0.6852398683
 40
0.793041114
 40
0.8971484298
 40
1.0
 40
1.0
 40
1.0
 40
1.0
 10
7.012550461
 20
4.360638592
 30
0.0
 10
7.0129670224
 20
4.3612707206
 30
0.0
 10
7.0157420167
 20
4.3652326557
 30
0.0
 10
7.0220228601
 20
4.3714537674
 30
0.0
 10
7.0321721797
 20
4.3774215828
 30
0.0
 10
7.0432507846
 20
4.3812715718
 30
0.0
 10
7.0551236897
 20
4.3831925284
 30
0.0
 10
7.0675465573
 20
4.3830755985
 30
0.0
 10
7.0796202997
 20
4.3808637391
 30
0.0
 10
7.0906899784
 20
4.3766503609
 30
0.0
 10
7.100364531
 20
4.3704662866
 30
0.0
 10
7.1055917635
 20
4.3649843961
 30
0.0
 10
7.107768797
 20
4.3619525752
 30
0.0
 11
7.012550461
 21
4.360638592
 31
0.0
 11
7.0138528053
 21
4.3624982195
 31
0.0
 11
7.0224439086
 21
4.3711463297
 31
0.0
 11
7.0325062903
 21
4.3771603024
 31
0.0
 11
7.0429997298
 21
4.3808578075
 31
0.0
 11
7.0549968809
 21
4.3828298829
 31
0.0
 11
7.0676144349
 21
4.3827091889
 31
0.0
 11
7.0797194414
 21
4.3804549351
 31
0.0
 11
7.0906352578
 21
4.3762353189
 31
0.0
 11
7.1001161995
 21
4.3700833616
 31
0.0
 11
7.107768797
 21
4.3619525752
 31
0.0
  0
SPLINE
  5
494
100
AcDbEntity
  8
0
100
AcDbSpline
 62
7
  6
CONTINUOUS
 70
0
 71
3
 72
8
 73
4
 74
2
 42
0.0000001
 43
0.0000001
 44
0.0000000001
 12
0.0009071359
 22
-0.0012633125
 32
0.0
 13
0.0008576195
 23
-0.0012979652
 33
0.0
 40
0.0
 40
0.0
 40
0.0
 40
0.0
 40
1.0
 40
1.0
 40
1.0
 40
1.0
 10
7.107768797
 20
4.3619525752
 30
0.0
 10
7.1080711756
 20
4.361531471
 30
0.0
 10
7.1083654377
 20
4.3611044345
 30
0.0
 10
7.1086513109
 20
4.3606717794
 30
0.0
 11
7.107768797
 21
4.3619525752
 31
0.0
 11
7.1086513109
 21
4.3606717794
 31
0.0
  0
SPLINE
  5
495
100
AcDbEntity
  8
0
100
AcDbSpline
 62
7
  6
CONTINUOUS
 70
0
 71
3
 72
9
 73
5
 74
3
 42
0.0000001
 43
0.0000001
 44
0.0000000001
 12
0.0057282193
 22
-0.00866938
 32
0.0
 13
0.0032394788
 23
-0.0098926327
 33
0.0
 40
0.0
 40
0.0
 40
0.0
 40
0.0
 40
0.9673690668
 40
1.0
 40
1.0
 40
1.0
 40
1.0
 10
7.1086513109
 20
4.3606717794
 30
0.0
 10
7.1104984116
 20
4.3578762828
 30
0.0
 10
7.1120457839
 20
4.3547440139
 30
0.0
 10
7.1131403821
 20
4.3514515366
 30
0.0
 10
7.1131756179
 20
4.3513439346
 30
0.0
 11
7.1086513109
 21
4.3606717794
 31
0.0
 11
7.1130684645
 21
4.3516662392
 31
0.0
 11
7.1131756179
 21
4.3513439346
 31
0.0
  0
SPLINE
  5
496
100
AcDbEntity
  8
0
100
AcDbSpline
 62
7
  6
CONTINUOUS
 70
0
 71
3
 72
19
 73
15
 74
13
 42
0.0000001
 43
0.0000001
 44
0.0000000001
 12
-0.1076778901
 22
-0.0208656536
 32
0.0
 13
-0.1076778937
 23
0.0208656527
 33
0.0
 40
0.0
 40
0.0
 40
0.0
 40
0.0
 40
0.0168770899
 40
0.0686188923
 40
0.1508483659
 40
0.2541501725
 40
0.3724385199
 40
0.4990262122
 40
0.6256465276
 40
0.7442360826
 40
0.8481025845
 40
0.931248357
 40
0.9832178688
 40
1.0
 40
1.0
 40
1.0
 40
1.0
 10
7.115111387
 20
4.5046009326
 30
0.0
 10
7.1145056238
 20
4.5044835488
 30
0.0
 10
7.112041271
 20
4.5040136711
 30
0.0
 10
7.1066112119
 20
4.503047226
 30
0.0
 10
7.0980346666
 20
4.5017363493
 30
0.0
 10
7.0869997203
 20
4.5004416175
 30
0.0
 10
7.0743004321
 20
4.4995008874
 30
0.0
 10
7.0607170639
 20
4.49915331
 30
0.0
 10
7.0471224166
 20
4.499490731
 30
0.0
 10
7.0343896804
 20
4.5004250972
 30
0.0
 10
7.0232893118
 20
4.5017217993
 30
0.0
 10
7.0146506839
 20
4.5030402493
 30
0.0
 10
7.0091828541
 20
4.5040133809
 30
0.0
 10
7.0067137418
 20
4.5044842092
 30
0.0
 10
7.006111387
 20
4.5046009326
 30
0.0
 11
7.115111387
 21
4.5046009326
 31
0.0
 11
7.1132930437
 21
4.5042542424
 31
0.0
 11
7.1077056831
 21
4.5032601772
 31
0.0
 11
7.0987899972
 21
4.5018988078
 31
0.0
 11
7.0875366812
 21
4.5005805918
 31
0.0
 11
7.0745979753
 21
4.4996242342
 31
0.0
 11
7.0607182115
 21
4.4992699858
 31
0.0
 11
7.0468346033
 21
4.4996136921
 31
0.0
 11
7.0338622921
 21
4.5005635344
 31
0.0
 11
7.0225467879
 21
4.501883204
 31
0.0
 11
7.0135314504
 21
4.5032577616
 31
0.0
 11
7.0079194935
 21
4.5042561624
 31
0.0
 11
7.006111387
 21
4.5046009326
 31
0.0
  0
SPLINE
  5
497
100
AcDbEntity
  8
0
100
AcDbSpline
 62
7
  6
CONTINUOUS
 70
0
 71
3
 72
19
 73
15
 74
13
 42
0.0000001
 43
0.0000001
 44
0.0000000001
 12
0.1076778963
 22
0.0208656552
 32
0.0
 13
0.1076778998
 23
-0.0208656543
 33
0.0
 40
0.0
 40
0.0
 40
0.0
 40
0.0
 40
0.0169005493
 40
0.0687209691
 40
0.1509999367
 40
0.2542767176
 40
0.372498919
 40
0.4990040667
 40
0.6255425352
 40
0.7440721354
 40
0.8479215748
 40
0.9311328745
 40
0.9831912995
 40
1.0
 40
1.0
 40
1.0
 40
1.0
 10
7.006111387
 20
3.9421009326
 30
0.0
 10
7.0067179922
 20
3.9422184796
 30
0.0
 10
7.0091860131
 20
3.942689046
 30
0.0
 10
7.0146215515
 20
3.9436563399
 30
0.0
 10
7.0232018869
 20
3.944967384
 30
0.0
 10
7.0342353879
 20
3.9462613513
 30
0.0
 10
7.0469283704
 20
3.9472011452
 30
0.0
 10
7.0605033054
 20
3.9475484026
 30
0.0
 10
7.0740897514
 20
3.9472115269
 30
0.0
 10
7.0868167386
 20
3.946278256
 30
0.0
 10
7.0979167752
 20
3.9449823347
 30
0.0
 10
7.1065604444
 20
3.9436636002
 30
0.0
 10
7.1120348164
 20
3.9426894483
 30
0.0
 10
7.1145080785
 20
3.9422178408
 30
0.0
 10
7.115111387
 20
3.9421009326
 30
0.0
 11
7.006111387
 21
3.9421009326
 31
0.0
 11
7.0079322593
 21
3.9424480971
 31
0.0
 11
7.0135281326
 21
3.9434435455
 31
0.0
 11
7.0224492495
 21
3.9448053147
 31
0.0
 11
7.03369991
 21
3.946122615
 31
0.0
 11
7.0466314164
 21
3.947077966
 31
0.0
 11
7.0605021332
 21
3.9474318785
 31
0.0
 11
7.0743767766
 21
3.9470887411
 31
0.0
 11
7.0873425801
 21
3.9461400577
 31
0.0
 11
7.098656313
 21
3.9448213491
 31
0.0
 11
7.1076788317
 21
3.9434462044
 31
0.0
 11
7.1133004161
 21
3.9424462401
 31
0.0
 11
7.115111387
 21
3.9421009326
 31
0.0
  0
SPLINE
  5
498
100
AcDbEntity
  8
0
100
AcDbSpline
 62
7
  6
CONTINUOUS
 70
0
 71
3
 72
19
 73
15
 74
13
 42
0.0000001
 43
0.0000001
 44
0.0000000001
 12
0.1076665052
 22
0.0209565885
 32
0.0
 13
0.1076665088
 23
-0.0209565876
 33
0.0
 40
0.0
 40
0.0
 40
0.0
 40
0.0
 40
0.0169018089
 40
0.0687264954
 40
0.1510099084
 40
0.2542876848
 40
0.3725067628
 40
0.4990063996
 40
0.6255389734
 40
0.7440643858
 40
0.8479137658
 40
0.9311284884
 40
0.983190349
 40
1.0
 40
1.0
 40
1.0
 40
1.0
 10
4.966111387
 20
3.9433509326
 30
0.0
 10
4.9667179732
 20
3.9434690007
 30
0.0
 10
4.9691859434
 20
3.9439416611
 30
0.0
 10
4.9746213966
 20
3.9449132883
 30
0.0
 10
4.9832016851
 20
3.9462302755
 30
0.0
 10
4.994235226
 20
3.9475301832
 30
0.0
 10
5.0069283626
 20
3.9484743376
 30
0.0
 10
5.0205035407
 20
3.9488232096
 30
0.0
 10
5.0340901935
 20
3.948484745
 30
0.0
 10
5.0468172495
 20
3.947547131
 30
0.0
 10
5.0579172167
 20
3.9462452607
 30
0.0
 10
5.0665607328
 20
3.9449205583
 30
0.0
 10
5.0720349384
 20
3.9439420552
 30
0.0
 10
5.0745081082
 20
3.9434683569
 30
0.0
 10
5.075111387
 20
3.9433509326
 30
0.0
 11
4.966111387
 21
3.9433509326
 31
0.0
 11
4.9679322111
 21
3.9436996398
 31
0.0
 11
4.9735280864
 21
3.9446995605
 31
0.0
 11
4.9824492639
 21
3.9460675078
 31
0.0
 11
4.993699967
 21
3.9473908367
 31
0.0
 11
5.0066315334
 21
3.9483505939
 31
0.0
 11
5.0205023828
 21
3.9487061404
 31
0.0
 11
5.0343771188
 21
3.9483613958
 31
0.0
 11
5.0473428717
 21
3.9474083257
 31
0.0
 11
5.0586565368
 21
3.9460835825
 31
0.0
 11
5.0676790022
 21
3.9447022104
 31
0.0
 11
5.0733004967
 21
3.9436977683
 31
0.0
 11
5.075111387
 21
3.9433509326
 31
0.0
  0
SPLINE
  5
499
100
AcDbEntity
  8
0
100
AcDbSpline
 62
7
  6
CONTINUOUS
 70
0
 71
3
 72
19
 73
15
 74
13
 42
0.0000001
 43
0.0000001
 44
0.0000000001
 12
0.1372644053
 22
0.0341637159
 32
0.0
 13
0.1372644787
 23
-0.0341637198
 33
0.0
 40
0.0
 40
0.0
 40
0.0
 40
0.0
 40
0.0172301253
 40
0.0703560875
 40
0.1546274412
 40
0.2596233284
 40
0.3793570936
 40
0.5065698391
 40
0.6334535783
 40
0.7519404971
 40
0.8547658985
 40
0.9339505985
 40
0.9834415658
 40
1.0
 40
1.0
 40
1.0
 40
1.0
 10
5.971611387
 20
3.9421009326
 30
0.0
 10
5.972399748
 20
3.9422971476
 30
0.0
 10
5.975621875
 20
3.9430864008
 30
0.0
 10
5.9827297702
 20
3.9447122833
 30
0.0
 10
5.9939475823
 20
3.9469146138
 30
0.0
 10
6.0083619904
 20
3.949078791
 30
0.0
 10
6.0248945367
 20
3.9506241952
 30
0.0
 10
6.0425260799
 20
3.9511479503
 30
0.0
 10
6.0600948035
 20
3.950507538
 30
0.0
 10
6.076441333
 20
3.9488777865
 30
0.0
 10
6.0904479051
 20
3.9467021569
 30
0.0
 10
6.1011546226
 20
3.9445652506
 30
0.0
 10
6.1078289764
 20
3.9430308769
 30
0.0
 10
6.1108537587
 20
3.9422894985
 30
0.0
 10
6.111611387
 20
3.9421009326
 30
0.0
 11
5.971611387
 21
3.9421009326
 31
0.0
 11
5.9739786577
 21
3.942680755
 31
0.0
 11
5.9813044819
 21
3.9443554393
 31
0.0
 11
5.9930023095
 21
3.9466481951
 31
0.0
 11
6.0076905195
 21
3.948847403
 31
0.0
 11
6.0245542072
 21
3.9504177725
 31
0.0
 11
6.0425409114
 21
3.9509497092
 31
0.0
 11
6.0604771332
 21
3.9502987785
 31
0.0
 11
6.0771553337
 21
3.9486421147
 31
0.0
 11
6.0915287871
 21
3.9464153637
 31
0.0
 11
6.1025136403
 21
3.9442261452
 31
0.0
 11
6.1093364822
 21
3.9426584834
 31
0.0
 11
6.111611387
 21
3.9421009326
 31
0.0
  0
SPLINE
  5
49A
100
AcDbEntity
  8
0
100
AcDbSpline
 62
7
  6
CONTINUOUS
 70
0
 71
3
 72
19
 73
15
 74
13
 42
0.0000001
 43
0.0000001
 44
0.0000000001
 12
0.0
 22
0.1562133576
 32
0.0
 13
0.0
 23
-0.1562133576
 33
0.0
 40
0.0
 40
0.0
 40
0.0
 40
0.0
 40
0.077006508
 40
0.1547068404
 40
0.2348697095
 40
0.3187832219
 40
0.4060098027
 40
0.4980264245
 40
0.5918909565
 40
0.6810131965
 40
0.765251617
 40
0.8454049021
 40
0.9231073173
 40
1.0
 40
1.0
 40
1.0
 40
1.0
 10
4.966111387
 20
4.3633509326
 30
0.0
 10
4.966111387
 20
4.3673607477
 30
0.0
 10
4.967323714
 20
4.3754763258
 30
0.0
 10
4.9728653862
 20
4.3865921585
 30
0.0
 10
4.9816849324
 20
4.3958170829
 30
0.0
 10
4.9930129146
 20
4.4026300071
 30
0.0
 10
5.0061545402
 20
4.4068682124
 30
0.0
 10
5.0203954518
 20
4.4083642262
 30
0.0
 10
5.0347491584
 20
4.4069541536
 30
0.0
 10
5.0481112131
 20
4.4026892604
 30
0.0
 10
5.0595408149
 20
4.3958177757
 30
0.0
 10
5.0683680975
 20
4.3865770472
 30
0.0
 10
5.0739018575
 20
4.3754643153
 30
0.0
 10
5.075111387
 20
4.3673548206
 30
0.0
 10
5.075111387
 20
4.3633509326
 30
0.0
 11
4.966111387
 21
4.3633509326
 31
0.0
 11
4.9679223047
 21
4.3752432885
 31
0.0
 11
4.9732999979
 21
4.3861248016
 31
0.0
 11
4.9818848952
 21
4.3952414248
 31
0.0
 11
4.9930635917
 21
4.4020873869
 31
0.0
 11
5.0060089532
 21
4.4063399533
 31
0.0
 11
5.0203014048
 21
4.4078710264
 31
0.0
 11
5.0348911545
 21
4.4064082708
 31
0.0
 11
5.0481300809
 21
4.4021006888
 31
0.0
 11
5.0593527937
 21
4.3952294168
 31
0.0
 11
5.0679328922
 21
4.3861103327
 31
0.0
 11
5.0733058612
 21
4.3752261232
 31
0.0
 11
5.075111387
 21
4.3633509326
 31
0.0
  0
SPLINE
  5
49B
100
AcDbEntity
  8
0
100
AcDbSpline
 62
7
  6
CONTINUOUS
 70
0
 71
3
 72
19
 73
15
 74
13
 42
0.0000001
 43
0.0000001
 44
0.0000000001
 12
0.0
 22
0.1562278439
 32
0.0
 13
0.0
 23
-0.1562278439
 33
0.0
 40
0.0
 40
0.0
 40
0.0
 40
0.0
 40
0.0770186908
 40
0.1547387417
 40
0.2349233356
 40
0.3188546778
 40
0.4060852562
 40
0.498016534
 40
0.5918276051
 40
0.680943424
 40
0.7651971153
 40
0.8453729958
 40
0.9230948514
 40
1.0
 40
1.0
 40
1.0
 40
1.0
 10
7.006111387
 20
4.3639759326
 30
0.0
 10
7.006111387
 20
4.3679867539
 30
0.0
 10
7.0073243894
 20
4.3761047312
 30
0.0
 10
7.0128679946
 20
4.3872239844
 30
0.0
 10
7.0216900892
 20
4.3964523658
 30
0.0
 10
7.0330207005
 20
4.4032677832
 30
0.0
 10
7.0461604026
 20
4.4075055452
 30
0.0
 10
7.0603955224
 20
4.4090010259
 30
0.0
 10
7.0747430185
 20
4.4075916912
 30
0.0
 10
7.0881040054
 20
4.4033266992
 30
0.0
 10
7.099535681
 20
4.3964530235
 30
0.0
 10
7.1083654587
 20
4.3872089239
 30
0.0
 10
7.1139011781
 20
4.3760927354
 30
0.0
 10
7.115111387
 20
4.3679808411
 30
0.0
 10
7.115111387
 20
4.3639759326
 30
0.0
 11
7.006111387
 21
4.3639759326
 31
0.0
 11
7.0079229893
 21
4.3758712378
 31
0.0
 11
7.013302625
 21
4.3867564828
 31
0.0
 11
7.0218903306
 21
4.3958767186
 31
0.0
 11
7.0330721381
 21
4.4027252618
 31
0.0
 11
7.046019297
 21
4.4069784068
 31
0.0
 11
7.0602998222
 21
4.40850815
 31
0.0
 11
7.0748826382
 21
4.407046328
 31
0.0
 11
7.0881217728
 21
4.4027384558
 31
0.0
 11
7.0993472516
 21
4.3958647953
 31
0.0
 11
7.1079302653
 21
4.386742013
 31
0.0
 11
7.1133051641
 21
4.3758541138
 31
0.0
 11
7.115111387
 21
4.3639759326
 31
0.0
  0
SPLINE
  5
49C
100
AcDbEntity
  8
0
100
AcDbSpline
 62
7
  6
CONTINUOUS
 70
0
 71
3
 72
19
 73
15
 74
13
 42
0.0000001
 43
0.0000001
 44
0.0000000001
 12
0.0
 22
-0.199470574
 32
0.0
 13
-0.0
 23
0.199470574
 33
0.0
 40
0.0
 40
0.0
 40
0.0
 40
0.0
 40
0.0766712696
 40
0.1538339429
 40
0.2333592093
 40
0.3170149916
 40
0.4045195749
 40
0.4982763746
 40
0.5934167401
 40
0.682836823
 40
0.7667362228
 40
0.8462337757
 40
0.9233729419
 40
1.0
 40
1.0
 40
1.0
 40
1.0
 10
6.111611387
 20
4.0827259326
 30
0.0
 10
6.111611387
 20
4.0776280452
 30
0.0
 10
6.1100882916
 20
4.0673206998
 30
0.0
 10
6.1030231171
 20
4.0532244301
 30
0.0
 10
6.0917267467
 20
4.0416025436
 30
0.0
 10
6.0772043061
 20
4.0330813446
 30
0.0
 10
6.0602716487
 20
4.0277778572
 30
0.0
 10
6.0418671849
 20
4.0259097188
 30
0.0
 10
6.0233212639
 20
4.0276822797
 30
0.0
 10
6.0061412684
 20
4.0330092901
 30
0.0
 10
5.9914936403
 20
4.0416016688
 30
0.0
 10
5.9801918013
 20
4.0532362392
 30
0.0
 10
5.9731328788
 20
4.0673282848
 30
0.0
 10
5.971611387
 20
4.0776309848
 30
0.0
 10
5.971611387
 20
4.0827259326
 30
0.0
 11
6.111611387
 21
4.0827259326
 31
0.0
 11
6.1093145614
 21
4.0676057245
 31
0.0
 11
6.1024591062
 21
4.053825063
 31
0.0
 11
6.0914972804
 21
4.0423589574
 31
0.0
 11
6.0771825225
 21
4.0337834555
 31
0.0
 11
6.0605585184
 21
4.0284631941
 31
0.0
 11
6.0419569848
 21
4.0265299648
 31
0.0
 11
6.0230696265
 21
4.0283795383
 31
0.0
 11
6.0060674085
 21
4.0337713438
 31
0.0
 11
5.9917104015
 21
4.0423708797
 31
0.0
 11
5.9807557773
 21
4.0538362213
 31
0.0
 11
5.9739055332
 21
4.0676142376
 31
0.0
 11
5.971611387
 21
4.0827259326
 31
0.0
  0
SPLINE
  5
49D
100
AcDbEntity
  8
0
100
AcDbSpline
 62
7
  6
CONTINUOUS
 70
0
 71
3
 72
19
 73
15
 74
13
 42
0.0000001
 43
0.0000001
 44
0.0000000001
 12
0.0
 22
-0.1562132964
 32
0.0
 13
0.0
 23
0.1562132964
 33
0.0
 40
0.0
 40
0.0
 40
0.0
 40
0.0
 40
0.0770230149
 40
0.1547435659
 40
0.234927534
 40
0.3188621344
 40
0.4060991417
 40
0.4980118293
 40
0.5918177106
 40
0.6809375573
 40
0.7651939788
 40
0.8453693961
 40
0.9230912961
 40
1.0
 40
1.0
 40
1.0
 40
1.0
 10
5.075111387
 20
4.0833509326
 30
0.0
 10
5.075111387
 20
4.0793402596
 30
0.0
 10
5.073898501
 20
4.0712227315
 30
0.0
 10
5.0683542138
 20
4.0601046837
 30
0.0
 10
5.059530766
 20
4.050878857
 30
0.0
 10
5.0481990036
 20
4.0440668208
 30
0.0
 10
5.0350601056
 20
4.0398325218
 30
0.0
 10
5.0208272733
 20
4.0383384987
 30
0.0
 10
5.0064821754
 20
4.0397463469
 30
0.0
 10
4.9931215332
 20
4.0440080957
 30
0.0
 10
4.9816888514
 20
4.0508783272
 30
0.0
 10
4.9728577856
 20
4.0601198764
 30
0.0
 10
4.9673214573
 20
4.071234832
 30
0.0
 10
4.966111387
 20
4.0793462119
 30
0.0
 10
4.966111387
 20
4.0833509326
 30
0.0
 11
5.075111387
 21
4.0833509326
 31
0.0
 11
5.0732996881
 21
4.0714560921
 31
0.0
 11
5.0679194551
 21
4.0605723164
 31
0.0
 11
5.0593307811
 21
4.0514547294
 31
0.0
 11
5.0481478923
 21
4.0446093155
 31
0.0
 11
5.0352000923
 21
4.0403589714
 31
0.0
 11
5.0209236592
 21
4.0388308488
 31
0.0
 11
5.006342886
 21
4.0402912388
 31
0.0
 11
4.9931035171
 21
4.0445962338
 31
0.0
 11
4.9818770526
 21
4.0514667532
 31
0.0
 11
4.9732930902
 21
4.060586942
 31
0.0
 11
4.9679176698
 21
4.0714733304
 31
0.0
 11
4.966111387
 21
4.0833509326
 31
0.0
  0
SPLINE
  5
49E
100
AcDbEntity
  8
0
100
AcDbSpline
 62
7
  6
CONTINUOUS
 70
0
 71
3
 72
19
 73
15
 74
13
 42
0.0000001
 43
0.0000001
 44
0.0000000001
 12
0.0
 22
0.1994707165
 32
0.0
 13
0.0
 23
-0.1994707165
 33
0.0
 40
0.0
 40
0.0
 40
0.0
 40
0.0
 40
0.0766442255
 40
0.1537707905
 40
0.2332568638
 40
0.3168888579
 40
0.4044316747
 40
0.4983335002
 40
0.593551227
 40
0.6829667287
 40
0.7668347268
 40
0.8462938856
 40
0.9233995369
 40
1.0
 40
1.0
 40
1.0
 40
1.0
 10
5.971611387
 20
4.3639759326
 30
0.0
 10
5.971611387
 20
4.3690720255
 30
0.0
 10
5.9731332981
 20
4.3793750879
 30
0.0
 10
5.980192612
 20
4.3934663108
 30
0.0
 10
5.9914806357
 20
4.4050868038
 30
0.0
 10
6.0059987471
 20
4.4136121467
 30
0.0
 10
6.0229404279
 20
4.418923177
 30
0.0
 10
6.0413626152
 20
4.4207936168
 30
0.0
 10
6.059922923
 20
4.4190159505
 30
0.0
 10
6.0771039443
 20
4.4136826372
 30
0.0
 10
6.0917443065
 20
4.4050877594
 30
0.0
 10
6.1030377475
 20
4.3934549307
 30
0.0
 10
6.1100910403
 20
4.379367737
 30
0.0
 10
6.111611387
 20
4.3690691157
 30
0.0
 10
6.111611387
 20
4.3639759326
 30
0.0
 11
5.971611387
 21
4.3639759326
 31
0.0
 11
5.9739065768
 21
4.3790909439
 31
0.0
 11
5.9807563214
 21
4.3928664136
 31
0.0
 11
5.991709335
 21
4.4043301427
 31
0.0
 11
6.0060171149
 21
4.4129080808
 31
0.0
 11
6.0226469878
 21
4.4182350637
 31
0.0
 11
6.0412772399
 21
4.4201719414
 31
0.0
 11
6.0601795841
 21
4.4183169313
 31
0.0
 11
6.0771791966
 21
4.4129198937
 31
0.0
 11
6.0915279195
 21
4.4043186957
 31
0.0
 11
6.1024739859
 21
4.392855755
 31
0.0
 11
6.1093188484
 21
4.379082517
 31
0.0
 11
6.111611387
 21
4.3639759326
 31
0.0
  0
SPLINE
  5
49F
100
AcDbEntity
  8
0
100
AcDbSpline
 62
7
  6
CONTINUOUS
 70
0
 71
3
 72
19
 73
15
 74
13
 42
0.0000001
 43
0.0000001
 44
0.0000000001
 12
0.0
 22
-0.1562277826
 32
0.0
 13
0.0
 23
0.1562277826
 33
0.0
 40
0.0
 40
0.0
 40
0.0
 40
0.0
 40
0.0770351822
 40
0.154775406
 40
0.234980997
 40
0.3189339625
 40
0.4061774243
 40
0.498003506
 40
0.5917548992
 40
0.6808678715
 40
0.7651395089
 40
0.8453375119
 40
0.9230788485
 40
1.0
 40
1.0
 40
1.0
 40
1.0
 10
7.115111387
 20
4.0827259326
 30
0.0
 10
7.115111387
 20
4.078714254
 30
0.0
 10
7.113897826
 20
4.0705943299
 30
0.0
 10
7.1083516116
 20
4.0594728685
 30
0.0
 10
7.0995256054
 20
4.0502435661
 30
0.0
 10
7.0881910792
 20
4.0434289617
 30
0.0
 10
7.0750539945
 20
4.0391951315
 30
0.0
 10
7.0608269427
 20
4.0377017105
 30
0.0
 10
7.0464882044
 20
4.0391088399
 30
0.0
 10
7.0331287112
 20
4.0433706728
 30
0.0
 10
7.0216939799
 20
4.0502430834
 30
0.0
 10
7.0128604224
 20
4.0594880025
 30
0.0
 10
7.0073221364
 20
4.0706064138
 30
0.0
 10
7.006111387
 20
4.0787201923
 30
0.0
 10
7.006111387
 20
4.0827259326
 30
0.0
 11
7.115111387
 21
4.0827259326
 31
0.0
 11
7.1132990041
 21
4.0708281449
 31
0.0
 11
7.1079168333
 21
4.0599406428
 31
0.0
 11
7.0993253654
 21
4.0508194509
 31
0.0
 11
7.0881392918
 21
4.0439714154
 31
0.0
 11
7.0751893125
 21
4.0397204251
 31
0.0
 11
7.0609249957
 21
4.0381937241
 31
0.0
 11
7.0463513203
 21
4.0396531989
 31
0.0
 11
7.0331118135
 21
4.0439584716
 31
0.0
 11
7.0218825912
 21
4.050831377
 31
0.0
 11
7.0132957153
 21
4.0599552641
 31
0.0
 11
7.0079183661
 21
4.0708453423
 31
0.0
 11
7.006111387
 21
4.0827259326
 31
0.0
  0
ENDSEC
  0
SECTION
  2
OBJECTS
  0
DICTIONARY
  5
C
100
AcDbDictionary
280
0
281
1
  3
ACAD_GROUP
350
D
  3
ACAD_MLINESTYLE
350
17
  3
ACAD_LAYOUT
350
1A
  3
ACAD_PLOTSETTINGS
350
19
  3
ACAD_PLOTSTYLENAME
350
E
  0
DICTIONARY
  5
D
102
{ACAD_REACTORS
330
C
102
}
100
AcDbDictionary
280
0
281
1
  0
ACDBDICTIONARYWDFLT
  5
E
102
{ACAD_REACTORS
330
C
102
}
100
AcDbDictionary
281
1
  3
Normal
350
F
100
AcDbDictionaryWithDefault
340
F
  0
DICTIONARY
  5
17
102
{ACAD_REACTORS
330
C
102
}
100
AcDbDictionary
280
0
281
1
  3
Standard
350
18
  0
DICTIONARY
  5
19
102
{ACAD_REACTORS
330
C
102
}
100
AcDbDictionary
281
1
  0
DICTIONARY
  5
1A
102
{ACAD_REACTORS
330
C
102
}
100
AcDbDictionary
281
1
  3
Layout1
350
1E
  3
Model
350
22
  0
ACDBPLACEHOLDER
  5
F
102
{ACAD_REACTORS
330
E
102
}
  0
MLINESTYLE
  5
18
102
{ACAD_REACTORS
330
17
102
}
100
AcDbMlineStyle
  2
STANDARD
 70
0
  3

 62
256
 51
90.0
 52
90.0
 71
2
 49
0.5
 62
256
  6
BYLAYER
 49
-0.5
 62
256
  6
BYLAYER
  0
LAYOUT
  5
1E
102
{ACAD_REACTORS
330
1A
102
}
100
AcDbPlotSettings
  1

  2

  4

  6

 40
0.0
 41
0.0
 42
0.0
 43
0.0
 44
0.0
 45
0.0
 46
0.0
 47
0.0
 48
0.0
 49
0.0
140
0.0
141
0.0
142
1.0
143
1.0
 70
0
 72
0
 73
0
 74
0
  7

 75
0
147
1.0
148
0.0
149
0.0
100
AcDbLayout
  1
Layout1
 70
0
 71
0
 10
0.0
 20
0.0
 11
0.0
 21
0.0
 12
0.0
 22
0.0
 32
0.0
 14
0.0
 24
0.0
 34
0.0
 15
0.0
 25
0.0
 35
0.0
146
0.0
 13
0.0
 23
0.0
 33
0.0
 16
0.0
 26
0.0
 36
0.0
 17
0.0
 27
0.0
 37
0.0
 76
0
330
1B
331
0
345
0
346
0
  0
LAYOUT
  5
22
102
{ACAD_REACTORS
330
1A
102
}
100
AcDbPlotSettings
  1

  2

  4

  6

 40
0.0
 41
0.0
 42
0.0
 43
0.0
 44
0.0
 45
0.0
 46
0.0
 47
0.0
 48
0.0
 49
0.0
140
0.0
141
0.0
142
1.0
143
1.0
 70
0
 72
0
 73
0
 74
0
  7

 75
0
147
1.0
148
0.0
149
0.0
100
AcDbLayout
  1
Model
 70
0
 71
0
 10
0.0
 20
0.0
 11
0.0
 21
0.0
 12
0.0
 22
0.0
 32
0.0
 14
0.0
 24
0.0
 34
0.0
 15
0.0
 25
0.0
 35
0.0
146
0.0
 13
0.0
 23
0.0
 33
0.0
 16
0.0
 26
0.0
 36
0.0
 17
0.0
 27
0.0
 37
0.0
 76
0
330
1F
331
0
345
0
346
0
  0
ENDSEC
  0
EOF
