999
DXF file: FSCD-XAN.dxf
999
Pro/ENGINEER 2006240 by Parametric Technology Corporation
  0
SECTION
  2
HEADER
  9
$ACADVER
  1
AC1015
  9
$DWGCODEPAGE
  3
ANSI_1252
  9
$EXTMAX
 10
11.6929133858
 20
8.2677165354
 30
0.0
  9
$EXTMIN
 10
0.0
 20
0.0
 30
0.0
  9
$LIMMIN
 10
0.0
 20
0.0
  9
$LIMMAX
 10
11.6929133858
 20
8.2677165354
  9
$VIEWCTR
 10
5.8464566929
 20
4.1338582677
  9
$VIEWSIZE
 40
8.2677165354
  9
$CLAYER
  8
0
  9
$LTSCALE
 40
0.6431102362
  9
$CELTYPE
  6
BYLAYER
  9
$DIMSCALE
 40
1.0
  9
$DIMASZ
 40
0.1875
  9
$DIMEXO
 40
0.0730807087
  9
$DIMDLI
 40
0.4443307087
  9
$DIMEXE
 40
0.2104724409
  9
$DIMCEN
 40
0.1052362205
  9
$DIMLFAC
 40
1.0
  9
$DIMBLK
  1
_CLOSED
  9
$DIMTXT
 40
0.15625
  9
$DIMTOL
 70
0
  9
$DIMLIM
 70
0
  9
$DIMTFAC
 40
1.0
  9
$PDMODE
 70
3
  9
$PDSIZE
 40
0.3125
  9
$HANDSEED
  5
511
  9
$MEASUREMENT
 70
0
  9
$INSUNITS
 70
1
  0
ENDSEC
  0
SECTION
  2
CLASSES
  0
CLASS
  1
ACDBDICTIONARYWDFLT
  2
AcDbDictionaryWithDefault
  3
AutoCAD 2000
 90
0
280
0
281
0
  0
CLASS
  1
ACDBPLACEHOLDER
  2
AcDbPlaceHolder
  3
AutoCAD 2000
 90
0
280
0
281
0
  0
CLASS
  1
LAYOUT
  2
AcDbLayout
  3
AutoCAD 2000
 90
0
280
0
281
0
  0
ENDSEC
  0
SECTION
  2
TABLES
  0
TABLE
  2
VPORT
  5
8
100
AcDbSymbolTable
 70
2
  0
VPORT
  5
1F4
100
AcDbSymbolTableRecord
100
AcDbViewportTableRecord
  2
*ACTIVE
 70
0
 10
0.0
 20
0.0
 11
1.0
 21
1.0
 12
5.8464566929
 22
4.1338582677
 13
0.0
 23
0.0
 14
1.0
 24
1.0
 15
0.0
 25
0.0
 16
0.0
 26
0.0
 36
1.0
 17
0.0
 27
0.0
 37
0.0
 40
8.2677165354
 41
1.4142857143
 42
50.0
 43
0.0
 44
0.0
 50
0.0
 51
0.0
 71
0
 72
100
 73
1
 74
1
 75
0
 76
0
 77
0
 78
0
  0
ENDTAB
  0
TABLE
  2
LTYPE
  5
5
100
AcDbSymbolTable
 70
6
  0
LTYPE
  5
14
100
AcDbSymbolTableRecord
100
AcDbLinetypeTableRecord
  2
BYBLOCK
 70
0
  3

 72
65
 73
0
 40
0.0
  0
LTYPE
  5
15
100
AcDbSymbolTableRecord
100
AcDbLinetypeTableRecord
  2
BYLAYER
 70
0
  3

 72
65
 73
0
 40
0.0
  0
LTYPE
  5
16
100
AcDbSymbolTableRecord
100
AcDbLinetypeTableRecord
  2
CONTINUOUS
 70
64
  3
Solid line
 72
65
 73
0
 40
0.0
  0
LTYPE
  5
1F5
100
AcDbSymbolTableRecord
100
AcDbLinetypeTableRecord
  2
CENTER
 70
64
  3
____ _ ____ _ ____ _ ____ _ ____ _ ____ _ ____
 72
65
 73
4
 40
0.6
 49
0.375
 74
0
 49
-0.075
 74
0
 49
0.075
 74
0
 49
-0.075
 74
0
  0
LTYPE
  5
1F6
100
AcDbSymbolTableRecord
100
AcDbLinetypeTableRecord
  2
HIDDEN
 70
64
  3
- - - - - - - - - - - - - - - - - - - -
 72
65
 73
2
 40
0.2
 49
0.1
 74
0
 49
-0.1
 74
0
  0
LTYPE
  5
1F7
100
AcDbSymbolTableRecord
100
AcDbLinetypeTableRecord
  2
PHANTOM
 70
64
  3
_____ _ _ _____ _ _ _____ _ _ _____
 72
65
 73
6
 40
0.8
 49
0.45
 74
0
 49
-0.05
 74
0
 49
0.1
 74
0
 49
-0.05
 74
0
 49
0.1
 74
0
 49
-0.05
 74
0
  0
LTYPE
  5
1F8
100
AcDbSymbolTableRecord
100
AcDbLinetypeTableRecord
  2
DOT
 70
64
  3
. . . . . . . . . . . . . . . . . . . .
 72
65
 73
2
 40
0.2
 49
0.1
 74
0
 49
-0.1
 74
0
  0
LTYPE
  5
1F9
100
AcDbSymbolTableRecord
100
AcDbLinetypeTableRecord
  2
DASHED
 70
64
  3
- - - - - - - - - - - - - - - - - - - -
 72
65
 73
2
 40
0.2
 49
0.1
 74
0
 49
-0.1
 74
0
  0
ENDTAB
  0
TABLE
  2
LAYER
  5
2
100
AcDbSymbolTable
 70
36
  0
LAYER
  5
10
100
AcDbSymbolTableRecord
100
AcDbLayerTableRecord
  2
0
 70
0
 62
7
  6
CONTINUOUS
370
-3
390
F
  0
LAYER
  5
1FA
100
AcDbSymbolTableRecord
100
AcDbLayerTableRecord
  2
DEFAULT_1
 70
0
 62
7
  6
CENTER
370
-3
390
F
  0
LAYER
  5
1FB
100
AcDbSymbolTableRecord
100
AcDbLayerTableRecord
  2
DEFAULT_2
 70
0
 62
8
  6
HIDDEN
370
-3
390
F
  0
LAYER
  5
1FC
100
AcDbSymbolTableRecord
100
AcDbLayerTableRecord
  2
DEFAULT_3
 70
0
 62
7
  6
PHANTOM
370
-3
390
F
  0
LAYER
  5
1FD
100
AcDbSymbolTableRecord
100
AcDbLayerTableRecord
  2
_BLACK_HOLE
 70
0
 62
7
  6
CONTINUOUS
370
-3
390
F
  0
LAYER
  5
1FE
100
AcDbSymbolTableRecord
100
AcDbLayerTableRecord
  2
01_ALL_DTM_PLN
 70
0
 62
7
  6
CONTINUOUS
370
-3
390
F
  0
LAYER
  5
1FF
100
AcDbSymbolTableRecord
100
AcDbLayerTableRecord
  2
01__ASM_ALL_DTM_PLN
 70
0
 62
7
  6
CONTINUOUS
370
-3
390
F
  0
LAYER
  5
200
100
AcDbSymbolTableRecord
100
AcDbLayerTableRecord
  2
01__ASM_DEF_DTM_PLN
 70
0
 62
7
  6
CONTINUOUS
370
-3
390
F
  0
LAYER
  5
201
100
AcDbSymbolTableRecord
100
AcDbLayerTableRecord
  2
01___PRT_ALL_DTM_PLN
 70
0
 62
7
  6
CONTINUOUS
370
-3
390
F
  0
LAYER
  5
202
100
AcDbSymbolTableRecord
100
AcDbLayerTableRecord
  2
01___PRT_DEF_DTM_PLN
 70
0
 62
7
  6
CONTINUOUS
370
-3
390
F
  0
LAYER
  5
203
100
AcDbSymbolTableRecord
100
AcDbLayerTableRecord
  2
02_ALL_AXES
 70
0
 62
7
  6
CONTINUOUS
370
-3
390
F
  0
LAYER
  5
204
100
AcDbSymbolTableRecord
100
AcDbLayerTableRecord
  2
02__ASM_ALL_AXES
 70
0
 62
7
  6
CONTINUOUS
370
-3
390
F
  0
LAYER
  5
205
100
AcDbSymbolTableRecord
100
AcDbLayerTableRecord
  2
02___PRT_ALL_AXES
 70
0
 62
7
  6
CONTINUOUS
370
-3
390
F
  0
LAYER
  5
206
100
AcDbSymbolTableRecord
100
AcDbLayerTableRecord
  2
03_ALL_CURVES
 70
0
 62
7
  6
CONTINUOUS
370
-3
390
F
  0
LAYER
  5
207
100
AcDbSymbolTableRecord
100
AcDbLayerTableRecord
  2
03__ASM_ALL_CURVES
 70
0
 62
7
  6
CONTINUOUS
370
-3
390
F
  0
LAYER
  5
208
100
AcDbSymbolTableRecord
100
AcDbLayerTableRecord
  2
03___PRT_ALL_CURVES
 70
0
 62
7
  6
CONTINUOUS
370
-3
390
F
  0
LAYER
  5
209
100
AcDbSymbolTableRecord
100
AcDbLayerTableRecord
  2
04_ALL_DTM_PNT
 70
0
 62
7
  6
CONTINUOUS
370
-3
390
F
  0
LAYER
  5
20A
100
AcDbSymbolTableRecord
100
AcDbLayerTableRecord
  2
04__ASM_ALL_DTM_PNT
 70
0
 62
7
  6
CONTINUOUS
370
-3
390
F
  0
LAYER
  5
20B
100
AcDbSymbolTableRecord
100
AcDbLayerTableRecord
  2
04___PRT_ALL_DTM_PNT
 70
0
 62
7
  6
CONTINUOUS
370
-3
390
F
  0
LAYER
  5
20C
100
AcDbSymbolTableRecord
100
AcDbLayerTableRecord
  2
05_ALL_DTM_CSYS
 70
0
 62
7
  6
CONTINUOUS
370
-3
390
F
  0
LAYER
  5
20D
100
AcDbSymbolTableRecord
100
AcDbLayerTableRecord
  2
05__ASM_ALL_DTM_CSYS
 70
0
 62
7
  6
CONTINUOUS
370
-3
390
F
  0
LAYER
  5
20E
100
AcDbSymbolTableRecord
100
AcDbLayerTableRecord
  2
05__ASM_DEF_DTM_CSYS
 70
0
 62
7
  6
CONTINUOUS
370
-3
390
F
  0
LAYER
  5
20F
100
AcDbSymbolTableRecord
100
AcDbLayerTableRecord
  2
05___PRT_ALL_DTM_CSYS
 70
0
 62
7
  6
CONTINUOUS
370
-3
390
F
  0
LAYER
  5
210
100
AcDbSymbolTableRecord
100
AcDbLayerTableRecord
  2
05___PRT_DEF_DTM_CSYS
 70
0
 62
7
  6
CONTINUOUS
370
-3
390
F
  0
LAYER
  5
211
100
AcDbSymbolTableRecord
100
AcDbLayerTableRecord
  2
06_ALL_SURFS
 70
0
 62
7
  6
CONTINUOUS
370
-3
390
F
  0
LAYER
  5
212
100
AcDbSymbolTableRecord
100
AcDbLayerTableRecord
  2
06__ASM_ALL_SURFS
 70
0
 62
7
  6
CONTINUOUS
370
-3
390
F
  0
LAYER
  5
213
100
AcDbSymbolTableRecord
100
AcDbLayerTableRecord
  2
06___PRT_ALL_SURFS
 70
0
 62
7
  6
CONTINUOUS
370
-3
390
F
  0
LAYER
  5
214
100
AcDbSymbolTableRecord
100
AcDbLayerTableRecord
  2
07__ASM_ALL_SKELETONS
 70
0
 62
7
  6
CONTINUOUS
370
-3
390
F
  0
LAYER
  5
215
100
AcDbSymbolTableRecord
100
AcDbLayerTableRecord
  2
126-002_HEX_FEATURES
 70
0
 62
7
  6
CONTINUOUS
370
-3
390
F
  0
LAYER
  5
216
100
AcDbSymbolTableRecord
100
AcDbLayerTableRecord
  2
126-002_REF_GEOMETRY
 70
0
 62
7
  6
CONTINUOUS
370
-3
390
F
  0
LAYER
  5
217
100
AcDbSymbolTableRecord
100
AcDbLayerTableRecord
  2
126-100_HEX_FEATURES
 70
0
 62
7
  6
CONTINUOUS
370
-3
390
F
  0
LAYER
  5
218
100
AcDbSymbolTableRecord
100
AcDbLayerTableRecord
  2
126-100_REF_GEOMETRY
 70
0
 62
7
  6
CONTINUOUS
370
-3
390
F
  0
LAYER
  5
219
100
AcDbSymbolTableRecord
100
AcDbLayerTableRecord
  2
126-101_HEX_FEATURES
 70
0
 62
7
  6
CONTINUOUS
370
-3
390
F
  0
LAYER
  5
21A
100
AcDbSymbolTableRecord
100
AcDbLayerTableRecord
  2
126-101_REF_GEOMETRY
 70
0
 62
7
  6
CONTINUOUS
370
-3
390
F
  0
LAYER
  5
21B
100
AcDbSymbolTableRecord
100
AcDbLayerTableRecord
  2
126-102_HEX_FEATURES
 70
0
 62
7
  6
CONTINUOUS
370
-3
390
F
  0
LAYER
  5
21C
100
AcDbSymbolTableRecord
100
AcDbLayerTableRecord
  2
126-102_REF_GEOMETRY
 70
0
 62
7
  6
CONTINUOUS
370
-3
390
F
  0
LAYER
  5
21D
100
AcDbSymbolTableRecord
100
AcDbLayerTableRecord
  2
126-103_HEX_FEATURES
 70
0
 62
7
  6
CONTINUOUS
370
-3
390
F
  0
LAYER
  5
21E
100
AcDbSymbolTableRecord
100
AcDbLayerTableRecord
  2
126-103_REF_GEOMETRY
 70
0
 62
7
  6
CONTINUOUS
370
-3
390
F
  0
LAYER
  5
21F
100
AcDbSymbolTableRecord
100
AcDbLayerTableRecord
  2
126-104_HEX_FEATURES
 70
0
 62
7
  6
CONTINUOUS
370
-3
390
F
  0
LAYER
  5
220
100
AcDbSymbolTableRecord
100
AcDbLayerTableRecord
  2
126-104_REF_GEOMETRY
 70
0
 62
7
  6
CONTINUOUS
370
-3
390
F
  0
LAYER
  5
221
100
AcDbSymbolTableRecord
100
AcDbLayerTableRecord
  2
250-19_BSPP_PORT_PER_S-186
 70
0
 62
7
  6
CONTINUOUS
370
-3
390
F
  0
LAYER
  5
222
100
AcDbSymbolTableRecord
100
AcDbLayerTableRecord
  2
COPY_GEO_FET
 70
0
 62
7
  6
CONTINUOUS
370
-3
390
F
  0
LAYER
  5
223
100
AcDbSymbolTableRecord
100
AcDbLayerTableRecord
  2
COSMESTIC
 70
0
 62
7
  6
CONTINUOUS
370
-3
390
F
  0
LAYER
  5
224
100
AcDbSymbolTableRecord
100
AcDbLayerTableRecord
  2
COSMETIC
 70
0
 62
7
  6
CONTINUOUS
370
-3
390
F
  0
LAYER
  5
225
100
AcDbSymbolTableRecord
100
AcDbLayerTableRecord
  2
CURVES
 70
0
 62
7
  6
CONTINUOUS
370
-3
390
F
  0
LAYER
  5
226
100
AcDbSymbolTableRecord
100
AcDbLayerTableRecord
  2
CUT_REF_SURF
 70
0
 62
7
  6
CONTINUOUS
370
-3
390
F
  0
LAYER
  5
227
100
AcDbSymbolTableRecord
100
AcDbLayerTableRecord
  2
DATUM
 70
0
 62
7
  6
CONTINUOUS
370
-3
390
F
  0
LAYER
  5
228
100
AcDbSymbolTableRecord
100
AcDbLayerTableRecord
  2
DATUMCURVES
 70
0
 62
7
  6
CONTINUOUS
370
-3
390
F
  0
LAYER
  5
229
100
AcDbSymbolTableRecord
100
AcDbLayerTableRecord
  2
DIMENSIONS
 70
0
 62
7
  6
CONTINUOUS
370
-3
390
F
  0
LAYER
  5
22A
100
AcDbSymbolTableRecord
100
AcDbLayerTableRecord
  2
DTM
 70
0
 62
7
  6
CONTINUOUS
370
-3
390
F
  0
LAYER
  5
22B
100
AcDbSymbolTableRecord
100
AcDbLayerTableRecord
  2
DTM230
 70
0
 62
7
  6
CONTINUOUS
370
-3
390
F
  0
LAYER
  5
22C
100
AcDbSymbolTableRecord
100
AcDbLayerTableRecord
  2
DTM_500001
 70
0
 62
7
  6
CONTINUOUS
370
-3
390
F
  0
LAYER
  5
22D
100
AcDbSymbolTableRecord
100
AcDbLayerTableRecord
  2
DTM_500002
 70
0
 62
7
  6
CONTINUOUS
370
-3
390
F
  0
LAYER
  5
22E
100
AcDbSymbolTableRecord
100
AcDbLayerTableRecord
  2
DTM_515002
 70
0
 62
7
  6
CONTINUOUS
370
-3
390
F
  0
LAYER
  5
22F
100
AcDbSymbolTableRecord
100
AcDbLayerTableRecord
  2
GEOMETRICTOLERANCES
 70
0
 62
7
  6
CONTINUOUS
370
-3
390
F
  0
LAYER
  5
230
100
AcDbSymbolTableRecord
100
AcDbLayerTableRecord
  2
PARAMETERDIMENSIONS
 70
0
 62
7
  6
CONTINUOUS
370
-3
390
F
  0
LAYER
  5
231
100
AcDbSymbolTableRecord
100
AcDbLayerTableRecord
  2
PLANE
 70
0
 62
7
  6
CONTINUOUS
370
-3
390
F
  0
LAYER
  5
232
100
AcDbSymbolTableRecord
100
AcDbLayerTableRecord
  2
STD_SAE-4_PORT
 70
0
 62
7
  6
CONTINUOUS
370
-3
390
F
  0
LAYER
  5
233
100
AcDbSymbolTableRecord
100
AcDbLayerTableRecord
  2
STD_SAE-6_PORT
 70
0
 62
7
  6
CONTINUOUS
370
-3
390
F
  0
LAYER
  5
234
100
AcDbSymbolTableRecord
100
AcDbLayerTableRecord
  2
T-8A_CAVITY
 70
0
 62
7
  6
CONTINUOUS
370
-3
390
F
  0
LAYER
  5
235
100
AcDbSymbolTableRecord
100
AcDbLayerTableRecord
  2
T-8A_CAVITY_REF_GEOMETRY
 70
0
 62
7
  6
CONTINUOUS
370
-3
390
F
  0
LAYER
  5
236
100
AcDbSymbolTableRecord
100
AcDbLayerTableRecord
  2
TEXT
 70
0
 62
7
  6
CONTINUOUS
370
-3
390
F
  0
LAYER
  5
237
100
AcDbSymbolTableRecord
100
AcDbLayerTableRecord
  2
THREAD
 70
0
 62
7
  6
CONTINUOUS
370
-3
390
F
  0
LAYER
  5
238
100
AcDbSymbolTableRecord
100
AcDbLayerTableRecord
  2
XSEC_DATUMS
 70
0
 62
7
  6
CONTINUOUS
370
-3
390
F
  0
ENDTAB
  0
TABLE
  2
STYLE
  5
3
100
AcDbSymbolTable
 70
1
  0
STYLE
  5
11
100
AcDbSymbolTableRecord
100
AcDbTextStyleTableRecord
  2
STANDARD
 70
0
 40
0.0
 41
0.8
 50
0.0
 71
0
 42
0.2
  3
txt
  4

  0
ENDTAB
  0
TABLE
  2
VIEW
  5
6
100
AcDbSymbolTable
 70
0
  0
ENDTAB
  0
TABLE
  2
UCS
  5
7
100
AcDbSymbolTable
 70
0
  0
ENDTAB
  0
TABLE
  2
APPID
  5
9
100
AcDbSymbolTable
 70
1
  0
APPID
  5
239
100
AcDbSymbolTableRecord
100
AcDbRegAppTableRecord
  2
ACAD
 70
0
  0
ENDTAB
  0
TABLE
  2
BLOCK_RECORD
  5
1
100
AcDbSymbolTable
 70
0
  0
BLOCK_RECORD
  5
1F
100
AcDbSymbolTableRecord
100
AcDbBlockTableRecord
  2
*MODEL_SPACE
  0
BLOCK_RECORD
  5
1B
100
AcDbSymbolTableRecord
100
AcDbBlockTableRecord
  2
*PAPER_SPACE
  0
ENDTAB
  0
TABLE
  2
DIMSTYLE
  5
A
100
AcDbSymbolTable
 70
1
100
AcDbDimStyleTable
 71
0
  0
DIMSTYLE
105
23A
100
AcDbSymbolTableRecord
100
AcDbDimStyleTableRecord
  2
STANDARD
 70
0
  3

  4

 40
1.0
 41
0.1875
 42
0.0625
 43
0.38
 44
0.18
 45
0.0
 46
0.0
 47
0.01
 48
0.01
140
0.15625
141
0.09
142
0.0
143
25.4
144
1.0
145
0.0
146
1.0
147
0.09
 71
0.0
 72
0.0
 73
1
 74
1
 75
0
 76
0
 77
0
 78
4
170
0
171
2
172
0
173
0
174
0
175
0
176
0
177
0
178
0
270
2
271
2
272
2
273
2
274
2
275
0
280
0
281
0
282
0
283
1
284
4
285
0
286
0
287
3
288
0
340
11
  0
ENDTAB
  0
ENDSEC
  0
SECTION
  2
BLOCKS
  0
BLOCK
  5
20
100
AcDbEntity
  8
0
100
AcDbBlockBegin
  2
*MODEL_SPACE
 70
0
 10
0.0
 20
0.0
 30
0.0
  3
*MODEL_SPACE
  1

  0
ENDBLK
  5
21
100
AcDbEntity
  8
0
100
AcDbBlockEnd
  0
BLOCK
  5
1C
100
AcDbEntity
  8
0
100
AcDbBlockBegin
  2
*PAPER_SPACE
 70
0
 10
0.0
 20
0.0
 30
0.0
  3
*PAPER_SPACE
  1

  0
ENDBLK
  5
1D
100
AcDbEntity
  8
0
100
AcDbBlockEnd
  0
ENDSEC
  0
SECTION
  2
ENTITIES
  0
LINE
  5
23B
100
AcDbEntity
  8
THREAD
100
AcDbLine
 62
7
  6
CONTINUOUS
 10
3.4290234182
 20
3.8167184326
 11
3.4290234182
 21
4.6767184326
  0
LINE
  5
23C
100
AcDbEntity
  8
03__ASM_ALL_CURVES
100
AcDbLine
 62
40
  6
CONTINUOUS
 10
3.4290234182
 20
4.6767184326
 11
3.4290234182
 21
4.9255664326
  0
LINE
  5
23D
100
AcDbEntity
  8
THREAD
100
AcDbLine
 62
7
  6
CONTINUOUS
 10
3.4630870841
 20
3.7577184326
 11
3.4630870841
 21
3.7586159601
  0
LINE
  5
23E
100
AcDbEntity
  8
THREAD
100
AcDbLine
 62
7
  6
CONTINUOUS
 10
3.4630870841
 20
3.9770209051
 11
3.4630870841
 21
4.0283134876
  0
LINE
  5
23F
100
AcDbEntity
  8
THREAD
100
AcDbLine
 62
7
  6
CONTINUOUS
 10
3.4630870841
 20
4.4651233776
 11
3.4630870841
 21
4.5164159601
  0
LINE
  5
240
100
AcDbEntity
  8
THREAD
100
AcDbLine
 62
7
  6
CONTINUOUS
 10
3.4630870841
 20
4.7348209051
 11
3.4630870841
 21
4.7357184326
  0
LINE
  5
241
100
AcDbEntity
  8
03__ASM_ALL_CURVES
100
AcDbLine
 62
40
  6
CONTINUOUS
 10
3.4721634182
 20
4.9183764326
 11
3.4721634182
 21
4.9039964326
  0
LINE
  5
242
100
AcDbEntity
  8
03__ASM_ALL_CURVES
100
AcDbLine
 62
40
  6
CONTINUOUS
 10
3.5775384182
 20
4.9543264335
 11
3.5802346682
 21
4.9615164317
  0
LINE
  5
243
100
AcDbEntity
  8
03__ASM_ALL_CURVES
100
AcDbLine
 62
40
  6
CONTINUOUS
 10
3.5991084182
 20
4.939946433
 11
3.5964121682
 21
4.9327564328
  0
LINE
  5
244
100
AcDbEntity
  8
THREAD
100
AcDbLine
 62
7
  6
CONTINUOUS
 10
3.4630870841
 20
3.7577184326
 11
3.4290234182
 21
3.8167184326
  0
LINE
  5
245
100
AcDbEntity
  8
03__ASM_ALL_CURVES
100
AcDbLine
 62
40
  6
CONTINUOUS
 10
3.5775384182
 20
4.939946433
 11
3.5775384182
 21
4.9543264335
  0
LINE
  5
246
100
AcDbEntity
  8
03__ASM_ALL_CURVES
100
AcDbLine
 62
40
  6
CONTINUOUS
 10
3.5991084182
 20
4.9543264335
 11
3.5991084182
 21
4.939946433
  0
LINE
  5
247
100
AcDbEntity
  8
03__ASM_ALL_CURVES
100
AcDbLine
 62
40
  6
CONTINUOUS
 10
3.6287671682
 20
4.9255664326
 11
3.6287671682
 21
4.9291614327
  0
LINE
  5
248
100
AcDbEntity
  8
03__ASM_ALL_CURVES
100
AcDbLine
 62
40
  6
CONTINUOUS
 10
3.6746034182
 20
4.9255664326
 11
3.6772996682
 21
4.9435414322
  0
LINE
  5
249
100
AcDbEntity
  8
03__ASM_ALL_CURVES
100
AcDbLine
 62
40
  6
CONTINUOUS
 10
3.7123509182
 20
4.9687064326
 11
3.7096546682
 21
4.9507314317
  0
LINE
  5
24A
100
AcDbEntity
  8
03__ASM_ALL_CURVES
100
AcDbLine
 62
40
  6
CONTINUOUS
 10
3.6772996682
 20
4.9435414322
 11
3.6799959182
 21
4.9543264335
  0
LINE
  5
24B
100
AcDbEntity
  8
03__ASM_ALL_CURVES
100
AcDbLine
 62
40
  6
CONTINUOUS
 10
3.7581871682
 20
4.9615164317
 11
3.7554909182
 21
4.9507314317
  0
LINE
  5
24C
100
AcDbEntity
  8
03__ASM_ALL_CURVES
100
AcDbLine
 62
40
  6
CONTINUOUS
 10
3.6799959182
 20
4.9543264335
 11
3.6853884182
 21
4.9687064326
  0
LINE
  5
24D
100
AcDbEntity
  8
03__ASM_ALL_CURVES
100
AcDbLine
 62
40
  6
CONTINUOUS
 10
3.7312246682
 20
4.939946433
 11
3.7285284182
 21
4.9327564328
  0
LINE
  5
24E
100
AcDbEntity
  8
THREAD
100
AcDbLine
 62
7
  6
CONTINUOUS
 10
3.4630870841
 20
4.7357184326
 11
3.4290234182
 21
4.6767184326
  0
LINE
  5
24F
100
AcDbEntity
  8
03__ASM_ALL_CURVES
100
AcDbLine
 62
40
  6
CONTINUOUS
 10
3.5802346682
 20
4.9615164317
 11
3.5829309182
 21
4.9651114335
  0
LINE
  5
250
100
AcDbEntity
  8
03__ASM_ALL_CURVES
100
AcDbLine
 62
40
  6
CONTINUOUS
 10
3.5964121682
 20
4.9327564328
 11
3.5937159182
 21
4.9291614327
  0
LINE
  5
251
100
AcDbEntity
  8
03__ASM_ALL_CURVES
100
AcDbLine
 62
40
  6
CONTINUOUS
 10
3.7554909182
 20
4.9507314317
 11
3.7554909182
 21
4.9435414322
  0
LINE
  5
252
100
AcDbEntity
  8
03__ASM_ALL_CURVES
100
AcDbLine
 62
40
  6
CONTINUOUS
 10
3.8040234182
 20
4.9687064326
 11
3.8040234182
 21
4.9255664326
  0
LINE
  5
253
100
AcDbEntity
  8
03__ASM_ALL_CURVES
100
AcDbLine
 62
40
  6
CONTINUOUS
 10
3.8363784182
 20
4.9543264335
 11
3.8390746682
 21
4.9615164317
  0
LINE
  5
254
100
AcDbEntity
  8
03__ASM_ALL_CURVES
100
AcDbLine
 62
40
  6
CONTINUOUS
 10
3.8579484182
 20
4.9543264335
 11
3.8552521682
 21
4.9471364326
  0
LINE
  5
255
100
AcDbEntity
  8
03__ASM_ALL_CURVES
100
AcDbLine
 62
40
  6
CONTINUOUS
 10
3.8579484182
 20
4.939946433
 11
3.8552521682
 21
4.9327564328
  0
LINE
  5
256
100
AcDbEntity
  8
03__ASM_ALL_CURVES
100
AcDbLine
 62
40
  6
CONTINUOUS
 10
3.9226584182
 20
4.9543264335
 11
3.9253546682
 21
4.9615164317
  0
LINE
  5
257
100
AcDbEntity
  8
03__ASM_ALL_CURVES
100
AcDbLine
 62
40
  6
CONTINUOUS
 10
3.9442284182
 20
4.939946433
 11
3.9415321682
 21
4.9327564328
  0
LINE
  5
258
100
AcDbEntity
  8
03__ASM_ALL_CURVES
100
AcDbLine
 62
40
  6
CONTINUOUS
 10
3.7285284182
 20
4.9327564328
 11
3.7258321682
 21
4.9291614327
  0
LINE
  5
259
100
AcDbEntity
  8
03__ASM_ALL_CURVES
100
AcDbLine
 62
40
  6
CONTINUOUS
 10
3.7635796682
 20
4.9687064326
 11
3.7581871682
 21
4.9615164317
  0
LINE
  5
25A
100
AcDbEntity
  8
03__ASM_ALL_CURVES
100
AcDbLine
 62
40
  6
CONTINUOUS
 10
3.8390746682
 20
4.9615164317
 11
3.8417709182
 21
4.9651114335
  0
LINE
  5
25B
100
AcDbEntity
  8
03__ASM_ALL_CURVES
100
AcDbLine
 62
40
  6
CONTINUOUS
 10
3.8579484182
 20
4.9543264335
 11
3.8579484182
 21
4.939946433
  0
LINE
  5
25C
100
AcDbEntity
  8
03__ASM_ALL_CURVES
100
AcDbLine
 62
40
  6
CONTINUOUS
 10
3.8876071682
 20
4.9255664326
 11
3.8876071682
 21
4.9291614327
  0
LINE
  5
25D
100
AcDbEntity
  8
THREAD
100
AcDbLine
 62
7
  6
CONTINUOUS
 10
3.8985234182
 20
3.7577184326
 11
3.8985234182
 21
3.7586159601
  0
LINE
  5
25E
100
AcDbEntity
  8
THREAD
100
AcDbLine
 62
7
  6
CONTINUOUS
 10
3.8985234182
 20
3.9770209051
 11
3.8985234182
 21
4.0283134876
  0
LINE
  5
25F
100
AcDbEntity
  8
THREAD
100
AcDbLine
 62
7
  6
CONTINUOUS
 10
3.8985234182
 20
4.4651233776
 11
3.8985234182
 21
4.5164159601
  0
LINE
  5
260
100
AcDbEntity
  8
THREAD
100
AcDbLine
 62
7
  6
CONTINUOUS
 10
3.8985234182
 20
4.7348209051
 11
3.8985234182
 21
4.7357184326
  0
LINE
  5
261
100
AcDbEntity
  8
03__ASM_ALL_CURVES
100
AcDbLine
 62
40
  6
CONTINUOUS
 10
3.9226584182
 20
4.939946433
 11
3.9226584182
 21
4.9543264335
  0
LINE
  5
262
100
AcDbEntity
  8
03__ASM_ALL_CURVES
100
AcDbLine
 62
40
  6
CONTINUOUS
 10
3.9442284182
 20
4.9543264335
 11
3.9442284182
 21
4.939946433
  0
LINE
  5
263
100
AcDbEntity
  8
THREAD
100
AcDbLine
 62
7
  6
CONTINUOUS
 10
3.9600234182
 20
3.8192184326
 11
3.9600234182
 21
4.6742184326
  0
LINE
  5
264
100
AcDbEntity
  8
03__ASM_ALL_CURVES
100
AcDbLine
 62
40
  6
CONTINUOUS
 10
3.9846721682
 20
4.9255664326
 11
3.9846721682
 21
4.9687064326
  0
LINE
  5
265
100
AcDbEntity
  8
03__ASM_ALL_CURVES
100
AcDbLine
 62
40
  6
CONTINUOUS
 10
4.0251159182
 20
4.9435414322
 11
4.0224196682
 21
4.9327564328
  0
LINE
  5
266
100
AcDbEntity
  8
03__ASM_ALL_CURVES
100
AcDbLine
 62
40
  6
CONTINUOUS
 10
3.9846721682
 20
4.9687064326
 11
3.9657984182
 21
4.9363514326
  0
LINE
  5
267
100
AcDbEntity
  8
03__ASM_ALL_CURVES
100
AcDbLine
 62
40
  6
CONTINUOUS
 10
3.8552521682
 20
4.9327564328
 11
3.8525559182
 21
4.9291614327
  0
LINE
  5
268
100
AcDbEntity
  8
03__ASM_ALL_CURVES
100
AcDbLine
 62
40
  6
CONTINUOUS
 10
3.9253546682
 20
4.9615164317
 11
3.9280509182
 21
4.9651114335
  0
LINE
  5
269
100
AcDbEntity
  8
03__ASM_ALL_CURVES
100
AcDbLine
 62
40
  6
CONTINUOUS
 10
3.9415321682
 20
4.9327564328
 11
3.9388359182
 21
4.9291614327
  0
LINE
  5
26A
100
AcDbEntity
  8
03__ASM_ALL_CURVES
100
AcDbLine
 62
40
  6
CONTINUOUS
 10
4.0224196682
 20
4.9327564328
 11
4.0170271682
 21
4.9255664326
  0
LINE
  5
26B
100
AcDbEntity
  8
03__ASM_ALL_CURVES
100
AcDbLine
 62
40
  6
CONTINUOUS
 10
3.5829309182
 20
4.9651114335
 11
3.5883234182
 21
4.9687064326
  0
LINE
  5
26C
100
AcDbEntity
  8
03__ASM_ALL_CURVES
100
AcDbLine
 62
40
  6
CONTINUOUS
 10
3.5802346682
 20
4.9327564328
 11
3.5775384182
 21
4.939946433
  0
LINE
  5
26D
100
AcDbEntity
  8
03__ASM_ALL_CURVES
100
AcDbLine
 62
40
  6
CONTINUOUS
 10
3.5964121682
 20
4.9615164317
 11
3.5991084182
 21
4.9543264335
  0
LINE
  5
26E
100
AcDbEntity
  8
03__ASM_ALL_CURVES
100
AcDbLine
 62
40
  6
CONTINUOUS
 10
3.7554909182
 20
4.9435414322
 11
3.7581871682
 21
4.9327564328
  0
LINE
  5
26F
100
AcDbEntity
  8
03__ASM_ALL_CURVES
100
AcDbLine
 62
40
  6
CONTINUOUS
 10
4.0251159182
 20
4.9507314317
 11
4.0251159182
 21
4.9435414322
  0
LINE
  5
270
100
AcDbEntity
  8
0
100
AcDbLine
 62
7
  6
CONTINUOUS
 10
4.1060234182
 20
3.8192184326
 11
4.1060234182
 21
4.6742184326
  0
LINE
  5
271
100
AcDbEntity
  8
0
100
AcDbLine
 62
7
  6
CONTINUOUS
 10
4.1145454562
 20
3.8285658851
 11
4.1145454562
 21
4.6648709801
  0
LINE
  5
272
100
AcDbEntity
  8
0
100
AcDbLine
 62
7
  6
CONTINUOUS
 10
4.1175013802
 20
3.8285658851
 11
4.1175013802
 21
4.6648709801
  0
LINE
  5
273
100
AcDbEntity
  8
0
100
AcDbLine
 62
7
  6
CONTINUOUS
 10
4.1260234182
 20
3.8192184326
 11
4.1260234182
 21
4.6742184326
  0
LINE
  5
274
100
AcDbEntity
  8
03__ASM_ALL_CURVES
100
AcDbLine
 62
40
  6
CONTINUOUS
 10
4.1358834182
 20
4.9183764326
 11
4.1358834182
 21
4.9039964326
  0
LINE
  5
275
100
AcDbEntity
  8
0
100
AcDbLine
 62
7
  6
CONTINUOUS
 10
4.1760234182
 20
4.6742184326
 11
4.1760234182
 21
3.8192184326
  0
LINE
  5
276
100
AcDbEntity
  8
03__ASM_ALL_CURVES
100
AcDbLine
 62
40
  6
CONTINUOUS
 10
4.2742909178
 20
4.9471364326
 11
4.2769871678
 21
4.9579214326
  0
LINE
  5
277
100
AcDbEntity
  8
03__ASM_ALL_CURVES
100
AcDbLine
 62
40
  6
CONTINUOUS
 10
3.5937159182
 20
4.9291614327
 11
3.5883234182
 21
4.9255664326
  0
LINE
  5
278
100
AcDbEntity
  8
03__ASM_ALL_CURVES
100
AcDbLine
 62
40
  6
CONTINUOUS
 10
3.7096546682
 20
4.9507314317
 11
3.7150471682
 21
4.9543264335
  0
LINE
  5
279
100
AcDbEntity
  8
03__ASM_ALL_CURVES
100
AcDbLine
 62
40
  6
CONTINUOUS
 10
3.7258321682
 20
4.9291614327
 11
3.7204396682
 21
4.9255664326
  0
LINE
  5
27A
100
AcDbEntity
  8
03__ASM_ALL_CURVES
100
AcDbLine
 62
40
  6
CONTINUOUS
 10
3.8417709182
 20
4.9651114335
 11
3.8471634182
 21
4.9687064326
  0
LINE
  5
27B
100
AcDbEntity
  8
03__ASM_ALL_CURVES
100
AcDbLine
 62
40
  6
CONTINUOUS
 10
3.7285284182
 20
4.9471364326
 11
3.7312246682
 21
4.939946433
  0
LINE
  5
27C
100
AcDbEntity
  8
0
100
AcDbLine
 62
7
  6
CONTINUOUS
 10
4.1790234182
 20
4.6712184326
 11
4.1790234182
 21
3.8222184326
  0
LINE
  5
27D
100
AcDbEntity
  8
03__ASM_ALL_CURVES
100
AcDbLine
 62
40
  6
CONTINUOUS
 10
4.1790234182
 20
4.6814084326
 11
4.1790234182
 21
4.9255664326
  0
LINE
  5
27E
100
AcDbEntity
  8
0
100
AcDbLine
 62
7
  6
CONTINUOUS
 10
4.1815234182
 20
3.8296618083
 11
4.1815234182
 21
4.6637750569
  0
LINE
  5
27F
100
AcDbEntity
  8
0
100
AcDbLine
 62
7
  6
CONTINUOUS
 10
4.2012458501
 20
3.8410485596
 11
4.2012458501
 21
4.6523883056
  0
LINE
  5
280
100
AcDbEntity
  8
0
100
AcDbLine
 62
7
  6
CONTINUOUS
 10
4.2037458501
 20
3.8417184326
 11
4.2037458501
 21
4.6517184326
  0
LINE
  5
281
100
AcDbEntity
  8
03__ASM_ALL_CURVES
100
AcDbLine
 62
40
  6
CONTINUOUS
 10
4.2221634182
 20
4.9183764326
 11
4.2221634182
 21
4.9039964326
  0
LINE
  5
282
100
AcDbEntity
  8
0
100
AcDbLine
 62
7
  6
CONTINUOUS
 10
4.2260234182
 20
3.8417184326
 11
4.2260234182
 21
4.6517184326
  0
LINE
  5
283
100
AcDbEntity
  8
03__ASM_ALL_CURVES
100
AcDbLine
 62
40
  6
CONTINUOUS
 10
4.2365434178
 20
4.9687064326
 11
4.2365434178
 21
4.9255664326
  0
LINE
  5
284
100
AcDbEntity
  8
0
100
AcDbLine
 62
7
  6
CONTINUOUS
 10
4.2960234182
 20
3.8422190476
 11
4.2960234182
 21
4.6512178176
  0
LINE
  5
285
100
AcDbEntity
  8
03__ASM_ALL_CURVES
100
AcDbLine
 62
40
  6
CONTINUOUS
 10
4.3066459178
 20
4.9471364326
 11
4.3039496678
 21
4.9363514326
  0
LINE
  5
286
100
AcDbEntity
  8
03__ASM_ALL_CURVES
100
AcDbLine
 62
40
  6
CONTINUOUS
 10
4.3174309178
 20
4.9471364326
 11
4.3201271678
 21
4.9579214326
  0
LINE
  5
287
100
AcDbEntity
  8
03__ASM_ALL_CURVES
100
AcDbLine
 62
40
  6
CONTINUOUS
 10
4.3632671678
 20
4.9255664326
 11
4.3767484178
 21
4.9687064326
  0
LINE
  5
288
100
AcDbEntity
  8
03__ASM_ALL_CURVES
100
AcDbLine
 62
40
  6
CONTINUOUS
 10
4.2769871678
 20
4.9579214326
 11
4.2823796678
 21
4.9651114335
  0
LINE
  5
289
100
AcDbEntity
  8
03__ASM_ALL_CURVES
100
AcDbLine
 62
40
  6
CONTINUOUS
 10
4.3039496678
 20
4.9363514326
 11
4.2985571678
 21
4.9291614327
  0
LINE
  5
28A
100
AcDbEntity
  8
03__ASM_ALL_CURVES
100
AcDbLine
 62
40
  6
CONTINUOUS
 10
4.3201271678
 20
4.9579214326
 11
4.3255196678
 21
4.9651114335
  0
LINE
  5
28B
100
AcDbEntity
  8
03__ASM_ALL_CURVES
100
AcDbLine
 62
40
  6
CONTINUOUS
 10
4.3443934178
 20
4.9327564328
 11
4.3416971678
 21
4.9291614327
  0
LINE
  5
28C
100
AcDbEntity
  8
0
100
AcDbLine
 62
7
  6
CONTINUOUS
 10
4.1260234182
 20
4.6742184326
 11
4.1175013802
 21
4.6648709801
  0
LINE
  5
28D
100
AcDbEntity
  8
03__ASM_ALL_CURVES
100
AcDbLine
 62
40
  6
CONTINUOUS
 10
3.8525559182
 20
4.9291614327
 11
3.8471634182
 21
4.9255664326
  0
LINE
  5
28E
100
AcDbEntity
  8
03__ASM_ALL_CURVES
100
AcDbLine
 62
40
  6
CONTINUOUS
 10
3.9280509182
 20
4.9651114335
 11
3.9334434182
 21
4.9687064326
  0
LINE
  5
28F
100
AcDbEntity
  8
03__ASM_ALL_CURVES
100
AcDbLine
 62
40
  6
CONTINUOUS
 10
3.9388359182
 20
4.9291614327
 11
3.9334434182
 21
4.9255664326
  0
LINE
  5
290
100
AcDbEntity
  8
0
100
AcDbLine
 62
7
  6
CONTINUOUS
 10
4.1260234182
 20
3.8192184326
 11
4.1175013802
 21
3.8285658851
  0
LINE
  5
291
100
AcDbEntity
  8
03__ASM_ALL_CURVES
100
AcDbLine
 62
40
  6
CONTINUOUS
 10
3.8390746682
 20
4.9471364326
 11
3.8363784182
 21
4.9543264335
  0
LINE
  5
292
100
AcDbEntity
  8
03__ASM_ALL_CURVES
100
AcDbLine
 62
40
  6
CONTINUOUS
 10
3.8552521682
 20
4.9615164317
 11
3.8579484182
 21
4.9543264335
  0
LINE
  5
293
100
AcDbEntity
  8
03__ASM_ALL_CURVES
100
AcDbLine
 62
40
  6
CONTINUOUS
 10
3.9253546682
 20
4.9327564328
 11
3.9226584182
 21
4.939946433
  0
LINE
  5
294
100
AcDbEntity
  8
03__ASM_ALL_CURVES
100
AcDbLine
 62
40
  6
CONTINUOUS
 10
3.9415321682
 20
4.9615164317
 11
3.9442284182
 21
4.9543264335
  0
LINE
  5
295
100
AcDbEntity
  8
03__ASM_ALL_CURVES
100
AcDbLine
 62
40
  6
CONTINUOUS
 10
4.0224196682
 20
4.9615164317
 11
4.0251159182
 21
4.9507314317
  0
LINE
  5
296
100
AcDbEntity
  8
0
100
AcDbLine
 62
7
  6
CONTINUOUS
 10
4.3460234182
 20
3.8422190476
 11
4.3460234182
 21
4.6512178176
  0
LINE
  5
297
100
AcDbEntity
  8
0
100
AcDbLine
 62
7
  6
CONTINUOUS
 10
4.3585178647
 20
3.8962184326
 11
4.3585178647
 21
4.5972184326
  0
LINE
  5
298
100
AcDbEntity
  8
0
100
AcDbLine
 62
7
  6
CONTINUOUS
 10
4.369776195
 20
3.8897184326
 11
4.369776195
 21
4.6037184326
  0
LINE
  5
299
100
AcDbEntity
  8
0
100
AcDbLine
 62
7
  6
CONTINUOUS
 10
4.3873853782
 20
3.8592184326
 11
4.3873853782
 21
4.6342184326
  0
LINE
  5
29A
100
AcDbEntity
  8
03__ASM_ALL_CURVES
100
AcDbLine
 62
40
  6
CONTINUOUS
 10
4.4198884178
 20
4.9687064326
 11
4.4198884178
 21
4.9255664326
  0
LINE
  5
29B
100
AcDbEntity
  8
03__ASM_ALL_CURVES
100
AcDbLine
 62
40
  6
CONTINUOUS
 10
4.4630284178
 20
4.9687064326
 11
4.4630284178
 21
4.9255664326
  0
LINE
  5
29C
100
AcDbEntity
  8
03__ASM_ALL_CURVES
100
AcDbLine
 62
40
  6
CONTINUOUS
 10
4.4953834178
 20
4.9255664326
 11
4.4953834178
 21
4.9687064326
  0
LINE
  5
29D
100
AcDbEntity
  8
03__ASM_ALL_CURVES
100
AcDbLine
 62
40
  6
CONTINUOUS
 10
4.5331309178
 20
4.9471364326
 11
4.5358271678
 21
4.9579214326
  0
LINE
  5
29E
100
AcDbEntity
  8
0
100
AcDbLine
 62
7
  6
CONTINUOUS
 10
4.3873853782
 20
4.6342184326
 11
4.369776195
 21
4.6037184326
  0
LINE
  5
29F
100
AcDbEntity
  8
03__ASM_ALL_CURVES
100
AcDbLine
 62
40
  6
CONTINUOUS
 10
4.5358271678
 20
4.9579214326
 11
4.5412196678
 21
4.9651114335
  0
LINE
  5
2A0
100
AcDbEntity
  8
03__ASM_ALL_CURVES
100
AcDbLine
 62
40
  6
CONTINUOUS
 10
4.5600934178
 20
4.9327564328
 11
4.5573971678
 21
4.9291614327
  0
LINE
  5
2A1
100
AcDbEntity
  8
03__ASM_ALL_CURVES
100
AcDbLine
 62
40
  6
CONTINUOUS
 10
4.6274996678
 20
4.9651114335
 11
4.6248034178
 21
4.9615164317
  0
LINE
  5
2A2
100
AcDbEntity
  8
03__ASM_ALL_CURVES
100
AcDbLine
 62
40
  6
CONTINUOUS
 10
4.6463734178
 20
4.9327564328
 11
4.6436771678
 21
4.9291614327
  0
LINE
  5
2A3
100
AcDbEntity
  8
03__ASM_ALL_CURVES
100
AcDbLine
 62
40
  6
CONTINUOUS
 10
4.2823796678
 20
4.9651114335
 11
4.2877721678
 21
4.9687064326
  0
LINE
  5
2A4
100
AcDbEntity
  8
03__ASM_ALL_CURVES
100
AcDbLine
 62
40
  6
CONTINUOUS
 10
4.3255196678
 20
4.9651114335
 11
4.3309121678
 21
4.9687064326
  0
LINE
  5
2A5
100
AcDbEntity
  8
03__ASM_ALL_CURVES
100
AcDbLine
 62
40
  6
CONTINUOUS
 10
4.2985571678
 20
4.9291614327
 11
4.2931646678
 21
4.9255664326
  0
LINE
  5
2A6
100
AcDbEntity
  8
03__ASM_ALL_CURVES
100
AcDbLine
 62
40
  6
CONTINUOUS
 10
4.3416971678
 20
4.9291614327
 11
4.3363046678
 21
4.9255664326
  0
LINE
  5
2A7
100
AcDbEntity
  8
03__ASM_ALL_CURVES
100
AcDbLine
 62
40
  6
CONTINUOUS
 10
3.8552521682
 20
4.9471364326
 11
3.8471634182
 21
4.9435414322
  0
LINE
  5
2A8
100
AcDbEntity
  8
03__ASM_ALL_CURVES
100
AcDbLine
 62
40
  6
CONTINUOUS
 10
3.5829309182
 20
4.9291614327
 11
3.5802346682
 21
4.9327564328
  0
LINE
  5
2A9
100
AcDbEntity
  8
03__ASM_ALL_CURVES
100
AcDbLine
 62
40
  6
CONTINUOUS
 10
3.5937159182
 20
4.9651114335
 11
3.5964121682
 21
4.9615164317
  0
LINE
  5
2AA
100
AcDbEntity
  8
03__ASM_ALL_CURVES
100
AcDbLine
 62
40
  6
CONTINUOUS
 10
3.6287671682
 20
4.9291614327
 11
3.6314634182
 21
4.9255664326
  0
LINE
  5
2AB
100
AcDbEntity
  8
0
100
AcDbLine
 62
7
  6
CONTINUOUS
 10
4.3873853782
 20
3.8592184326
 11
4.369776195
 21
3.8897184326
  0
LINE
  5
2AC
100
AcDbEntity
  8
03__ASM_ALL_CURVES
100
AcDbLine
 62
40
  6
CONTINUOUS
 10
4.2769871678
 20
4.9363514326
 11
4.2742909178
 21
4.9471364326
  0
LINE
  5
2AD
100
AcDbEntity
  8
03__ASM_ALL_CURVES
100
AcDbLine
 62
40
  6
CONTINUOUS
 10
4.5169534178
 20
4.9255664326
 11
4.5169534178
 21
4.9687064326
  0
LINE
  5
2AE
100
AcDbEntity
  8
03__ASM_ALL_CURVES
100
AcDbLine
 62
40
  6
CONTINUOUS
 10
4.5600934178
 20
4.9471364326
 11
4.5600934178
 21
4.9327564328
  0
LINE
  5
2AF
100
AcDbEntity
  8
03__ASM_ALL_CURVES
100
AcDbLine
 62
40
  6
CONTINUOUS
 10
4.6248034178
 20
4.9615164317
 11
4.6248034178
 21
4.9579214326
  0
LINE
  5
2B0
100
AcDbEntity
  8
0
100
AcDbLine
 62
7
  6
CONTINUOUS
 10
4.6345234182
 20
3.8592184326
 11
4.6345234182
 21
4.6342184326
  0
LINE
  5
2B1
100
AcDbEntity
  8
03__ASM_ALL_CURVES
100
AcDbLine
 62
40
  6
CONTINUOUS
 10
4.6463734178
 20
4.939946433
 11
4.6463734178
 21
4.9327564328
  0
LINE
  5
2B2
100
AcDbEntity
  8
03__ASM_ALL_CURVES
100
AcDbLine
 62
40
  6
CONTINUOUS
 10
4.6679434178
 20
4.9687064326
 11
4.6679434178
 21
4.9255664326
  0
LINE
  5
2B3
100
AcDbEntity
  8
03__ASM_ALL_CURVES
100
AcDbLine
 62
40
  6
CONTINUOUS
 10
4.7056909178
 20
4.9471364326
 11
4.7083871678
 21
4.9579214326
  0
LINE
  5
2B4
100
AcDbEntity
  8
03__ASM_ALL_CURVES
100
AcDbLine
 62
40
  6
CONTINUOUS
 10
4.7380459178
 20
4.9471364326
 11
4.7353496678
 21
4.9363514326
  0
LINE
  5
2B5
100
AcDbEntity
  8
03__ASM_ALL_CURVES
100
AcDbLine
 62
40
  6
CONTINUOUS
 10
4.7083871678
 20
4.9579214326
 11
4.7137796678
 21
4.9651114335
  0
LINE
  5
2B6
100
AcDbEntity
  8
03__ASM_ALL_CURVES
100
AcDbLine
 62
40
  6
CONTINUOUS
 10
4.7353496678
 20
4.9363514326
 11
4.7299571678
 21
4.9291614327
  0
LINE
  5
2B7
100
AcDbEntity
  8
03__ASM_ALL_CURVES
100
AcDbLine
 62
40
  6
CONTINUOUS
 10
4.7757934178
 20
4.9327564328
 11
4.7730971678
 21
4.9291614327
  0
LINE
  5
2B8
100
AcDbEntity
  8
03__ASM_ALL_CURVES
100
AcDbLine
 62
40
  6
CONTINUOUS
 10
4.8620734178
 20
4.9363514326
 11
4.8566809178
 21
4.9291614327
  0
LINE
  5
2B9
100
AcDbEntity
  8
03__ASM_ALL_CURVES
100
AcDbLine
 62
40
  6
CONTINUOUS
 10
4.5412196678
 20
4.9651114335
 11
4.5466121678
 21
4.9687064326
  0
LINE
  5
2BA
100
AcDbEntity
  8
03__ASM_ALL_CURVES
100
AcDbLine
 62
40
  6
CONTINUOUS
 10
4.5573971678
 20
4.9291614327
 11
4.5520046678
 21
4.9255664326
  0
LINE
  5
2BB
100
AcDbEntity
  8
03__ASM_ALL_CURVES
100
AcDbLine
 62
40
  6
CONTINUOUS
 10
4.6328921678
 20
4.9687064326
 11
4.6274996678
 21
4.9651114335
  0
LINE
  5
2BC
100
AcDbEntity
  8
03__ASM_ALL_CURVES
100
AcDbLine
 62
40
  6
CONTINUOUS
 10
4.6436771678
 20
4.9291614327
 11
4.6382846678
 21
4.9255664326
  0
LINE
  5
2BD
100
AcDbEntity
  8
03__ASM_ALL_CURVES
100
AcDbLine
 62
40
  6
CONTINUOUS
 10
4.7137796678
 20
4.9651114335
 11
4.7191721678
 21
4.9687064326
  0
LINE
  5
2BE
100
AcDbEntity
  8
03__ASM_ALL_CURVES
100
AcDbLine
 62
40
  6
CONTINUOUS
 10
3.7096546682
 20
4.9291614327
 11
3.7069584182
 21
4.9327564328
  0
LINE
  5
2BF
100
AcDbEntity
  8
03__ASM_ALL_CURVES
100
AcDbLine
 62
40
  6
CONTINUOUS
 10
3.7258321682
 20
4.9507314317
 11
3.7285284182
 21
4.9471364326
  0
LINE
  5
2C0
100
AcDbEntity
  8
03__ASM_ALL_CURVES
100
AcDbLine
 62
40
  6
CONTINUOUS
 10
3.7581871682
 20
4.9327564328
 11
3.7635796682
 21
4.9255664326
  0
LINE
  5
2C1
100
AcDbEntity
  8
03__ASM_ALL_CURVES
100
AcDbLine
 62
40
  6
CONTINUOUS
 10
3.8417709182
 20
4.9291614327
 11
3.8390746682
 21
4.9327564328
  0
LINE
  5
2C2
100
AcDbEntity
  8
03__ASM_ALL_CURVES
100
AcDbLine
 62
40
  6
CONTINUOUS
 10
3.8525559182
 20
4.9651114335
 11
3.8552521682
 21
4.9615164317
  0
LINE
  5
2C3
100
AcDbEntity
  8
03__ASM_ALL_CURVES
100
AcDbLine
 62
40
  6
CONTINUOUS
 10
3.8876071682
 20
4.9291614327
 11
3.8903034182
 21
4.9255664326
  0
LINE
  5
2C4
100
AcDbEntity
  8
03__ASM_ALL_CURVES
100
AcDbLine
 62
40
  6
CONTINUOUS
 10
4.3767484178
 20
4.9687064326
 11
4.3902296678
 21
4.9255664326
  0
LINE
  5
2C5
100
AcDbEntity
  8
03__ASM_ALL_CURVES
100
AcDbLine
 62
40
  6
CONTINUOUS
 10
4.3039496678
 20
4.9579214326
 11
4.3066459178
 21
4.9471364326
  0
LINE
  5
2C6
100
AcDbEntity
  8
03__ASM_ALL_CURVES
100
AcDbLine
 62
40
  6
CONTINUOUS
 10
4.3201271678
 20
4.9363514326
 11
4.3174309178
 21
4.9471364326
  0
LINE
  5
2C7
100
AcDbEntity
  8
0
100
AcDbLine
 62
7
  6
CONTINUOUS
 10
4.6790234182
 20
3.9037184326
 11
4.6790234182
 21
4.5897184326
  0
LINE
  5
2C8
100
AcDbEntity
  8
03__ASM_ALL_CURVES
100
AcDbLine
 62
40
  6
CONTINUOUS
 10
4.6895134178
 20
4.9687064326
 11
4.6895134178
 21
4.9255664326
  0
LINE
  5
2C9
100
AcDbEntity
  8
03__ASM_ALL_CURVES
100
AcDbLine
 62
40
  6
CONTINUOUS
 10
4.7542234178
 20
4.9327564328
 11
4.7542234178
 21
4.9687064326
  0
LINE
  5
2CA
100
AcDbEntity
  8
03__ASM_ALL_CURVES
100
AcDbLine
 62
40
  6
CONTINUOUS
 10
4.7757934178
 20
4.9687064326
 11
4.7757934178
 21
4.9327564328
  0
LINE
  5
2CB
100
AcDbEntity
  8
03__ASM_ALL_CURVES
100
AcDbLine
 62
40
  6
CONTINUOUS
 10
4.7973634178
 20
4.9687064326
 11
4.7973634178
 21
4.9255664326
  0
LINE
  5
2CC
100
AcDbEntity
  8
03__ASM_ALL_CURVES
100
AcDbLine
 62
40
  6
CONTINUOUS
 10
4.8647696678
 20
4.9471364326
 11
4.8620734178
 21
4.9363514326
  0
LINE
  5
2CD
100
AcDbEntity
  8
03__ASM_ALL_CURVES
100
AcDbLine
 62
40
  6
CONTINUOUS
 10
4.9483534178
 20
4.9543264335
 11
4.9456571678
 21
4.9507314317
  0
LINE
  5
2CE
100
AcDbEntity
  8
THREAD
100
AcDbLine
 62
7
  6
CONTINUOUS
 10
3.9600234182
 20
3.8192184326
 11
3.898972182
 21
3.7581671963
  0
LINE
  5
2CF
100
AcDbEntity
  8
03__ASM_ALL_CURVES
100
AcDbLine
 62
40
  6
CONTINUOUS
 10
4.7299571678
 20
4.9291614327
 11
4.7245646678
 21
4.9255664326
  0
LINE
  5
2D0
100
AcDbEntity
  8
03__ASM_ALL_CURVES
100
AcDbLine
 62
40
  6
CONTINUOUS
 10
4.7730971678
 20
4.9291614327
 11
4.7677046678
 21
4.9255664326
  0
LINE
  5
2D1
100
AcDbEntity
  8
03__ASM_ALL_CURVES
100
AcDbLine
 62
40
  6
CONTINUOUS
 10
4.8566809178
 20
4.9291614327
 11
4.8512884178
 21
4.9255664326
  0
LINE
  5
2D2
100
AcDbEntity
  8
03__ASM_ALL_CURVES
100
AcDbLine
 62
40
  6
CONTINUOUS
 10
4.9456571678
 20
4.9507314317
 11
4.9402646678
 21
4.9471364326
  0
LINE
  5
2D3
100
AcDbEntity
  8
03__ASM_ALL_CURVES
100
AcDbLine
 62
40
  6
CONTINUOUS
 10
5.0471248412
 20
3.6056284326
 11
5.0430804662
 21
3.6083246827
  0
LINE
  5
2D4
100
AcDbEntity
  8
03__ASM_ALL_CURVES
100
AcDbLine
 62
40
  6
CONTINUOUS
 10
5.0794798412
 20
3.6056284326
 11
5.0754354662
 21
3.6083246827
  0
LINE
  5
2D5
100
AcDbEntity
  8
THREAD
100
AcDbLine
 62
7
  6
CONTINUOUS
 10
3.9600234182
 20
4.6742184326
 11
3.898972182
 21
4.7352696688
  0
LINE
  5
2D6
100
AcDbEntity
  8
0
100
AcDbLine
 62
7
  6
CONTINUOUS
 10
4.1145454562
 20
4.6648709801
 11
4.1060234182
 21
4.6742184326
  0
LINE
  5
2D7
100
AcDbEntity
  8
03__ASM_ALL_CURVES
100
AcDbLine
 62
40
  6
CONTINUOUS
 10
3.9280509182
 20
4.9291614327
 11
3.9253546682
 21
4.9327564328
  0
LINE
  5
2D8
100
AcDbEntity
  8
03__ASM_ALL_CURVES
100
AcDbLine
 62
40
  6
CONTINUOUS
 10
3.9388359182
 20
4.9651114335
 11
3.9415321682
 21
4.9615164317
  0
LINE
  5
2D9
100
AcDbEntity
  8
03__ASM_ALL_CURVES
100
AcDbLine
 62
40
  6
CONTINUOUS
 10
4.0170271682
 20
4.9687064326
 11
4.0224196682
 21
4.9615164317
  0
LINE
  5
2DA
100
AcDbEntity
  8
03__ASM_ALL_CURVES
100
AcDbLine
 62
40
  6
CONTINUOUS
 10
5.0430804662
 20
3.6083246827
 11
5.0390360912
 21
3.6137171826
  0
LINE
  5
2DB
100
AcDbEntity
  8
03__ASM_ALL_CURVES
100
AcDbLine
 62
40
  6
CONTINUOUS
 10
5.0552135912
 20
3.6352871832
 11
5.0592579662
 21
3.6298946826
  0
LINE
  5
2DC
100
AcDbEntity
  8
03__ASM_ALL_CURVES
100
AcDbLine
 62
40
  6
CONTINUOUS
 10
5.0754354662
 20
3.6083246827
 11
5.0734132787
 21
3.6110209328
  0
LINE
  5
2DD
100
AcDbEntity
  8
03__ASM_ALL_CURVES
100
AcDbLine
 62
40
  6
CONTINUOUS
 10
4.5358271678
 20
4.9363514326
 11
4.5331309178
 21
4.9471364326
  0
LINE
  5
2DE
100
AcDbEntity
  8
03__ASM_ALL_CURVES
100
AcDbLine
 62
40
  6
CONTINUOUS
 10
4.8405034178
 20
4.9255664326
 11
4.8405034178
 21
4.9687064326
  0
LINE
  5
2DF
100
AcDbEntity
  8
0
100
AcDbLine
 62
7
  6
CONTINUOUS
 10
4.8570234182
 20
3.9037184326
 11
4.8570234182
 21
4.5897184326
  0
LINE
  5
2E0
100
AcDbEntity
  8
0
100
AcDbLine
 62
7
  6
CONTINUOUS
 10
4.8670234182
 20
3.9137184326
 11
4.8670234182
 21
4.5797184326
  0
LINE
  5
2E1
100
AcDbEntity
  8
03__ASM_ALL_CURVES
100
AcDbLine
 62
40
  6
CONTINUOUS
 10
4.8836434178
 20
4.9255664326
 11
4.8836434178
 21
4.9687064326
  0
LINE
  5
2E2
100
AcDbEntity
  8
03__ASM_ALL_CURVES
100
AcDbLine
 62
40
  6
CONTINUOUS
 10
4.9267834178
 20
4.9255664326
 11
4.9267834178
 21
4.9687064326
  0
LINE
  5
2E3
100
AcDbEntity
  8
03__ASM_ALL_CURVES
100
AcDbLine
 62
40
  6
CONTINUOUS
 10
4.9483534178
 20
4.9615164317
 11
4.9483534178
 21
4.9543264335
  0
LINE
  5
2E4
100
AcDbEntity
  8
0
100
AcDbLine
 62
7
  6
CONTINUOUS
 10
4.1145454562
 20
3.8285658851
 11
4.1060234182
 21
3.8192184326
  0
LINE
  5
2E5
100
AcDbEntity
  8
03__ASM_ALL_CURVES
100
AcDbLine
 62
40
  6
CONTINUOUS
 10
5.0511692162
 20
3.6379834326
 11
5.0552135912
 21
3.6352871832
  0
LINE
  5
2E6
100
AcDbEntity
  8
03__ASM_ALL_CURVES
100
AcDbLine
 62
40
  6
CONTINUOUS
 10
5.0936351188
 20
3.6523634326
 11
5.0895907438
 21
3.6550596827
  0
LINE
  5
2E7
100
AcDbEntity
  8
03__ASM_ALL_CURVES
100
AcDbLine
 62
40
  6
CONTINUOUS
 10
5.0653244938
 20
3.6847184326
 11
5.0693688688
 21
3.6820221832
  0
LINE
  5
2E8
100
AcDbEntity
  8
03__ASM_ALL_CURVES
100
AcDbLine
 62
40
  6
CONTINUOUS
 10
5.0976794938
 20
3.6847184326
 11
5.1017238688
 21
3.6820221832
  0
LINE
  5
2E9
100
AcDbEntity
  8
03__ASM_ALL_CURVES
100
AcDbLine
 62
40
  6
CONTINUOUS
 10
5.1300344938
 20
3.6847184326
 11
5.1340788688
 21
3.6820221832
  0
LINE
  5
2EA
100
AcDbEntity
  8
03__ASM_ALL_CURVES
100
AcDbLine
 62
40
  6
CONTINUOUS
 10
5.0693688688
 20
3.6820221832
 11
5.0713910563
 21
3.679325932
  0
LINE
  5
2EB
100
AcDbEntity
  8
03__ASM_ALL_CURVES
100
AcDbLine
 62
40
  6
CONTINUOUS
 10
5.0895907438
 20
3.6550596827
 11
5.0855463688
 21
3.6604521826
  0
LINE
  5
2EC
100
AcDbEntity
  8
03__ASM_ALL_CURVES
100
AcDbLine
 62
40
  6
CONTINUOUS
 10
5.1017238688
 20
3.6820221832
 11
5.1057682438
 21
3.6766296826
  0
LINE
  5
2ED
100
AcDbEntity
  8
03__ASM_ALL_CURVES
100
AcDbLine
 62
40
  6
CONTINUOUS
 10
5.1340788688
 20
3.6820221832
 11
5.1361010563
 21
3.679325932
  0
LINE
  5
2EE
100
AcDbEntity
  8
03__ASM_ALL_CURVES
100
AcDbLine
 62
40
  6
CONTINUOUS
 10
4.2823796678
 20
4.9291614327
 11
4.2769871678
 21
4.9363514326
  0
LINE
  5
2EF
100
AcDbEntity
  8
03__ASM_ALL_CURVES
100
AcDbLine
 62
40
  6
CONTINUOUS
 10
4.4953834178
 20
4.9687064326
 11
4.5169534178
 21
4.9255664326
  0
LINE
  5
2F0
100
AcDbEntity
  8
03__ASM_ALL_CURVES
100
AcDbLine
 62
40
  6
CONTINUOUS
 10
5.1300344938
 20
3.6685409326
 11
5.1361010563
 21
3.6523634326
  0
LINE
  5
2F1
100
AcDbEntity
  8
03__ASM_ALL_CURVES
100
AcDbLine
 62
40
  6
CONTINUOUS
 10
5.0390360912
 20
3.6137171826
 11
5.0370139037
 21
3.6218059326
  0
LINE
  5
2F2
100
AcDbEntity
  8
03__ASM_ALL_CURVES
100
AcDbLine
 62
40
  6
CONTINUOUS
 10
4.7083871678
 20
4.9363514326
 11
4.7056909178
 21
4.9471364326
  0
LINE
  5
2F3
100
AcDbEntity
  8
03__ASM_ALL_CURVES
100
AcDbLine
 62
40
  6
CONTINUOUS
 10
5.0592579662
 20
3.6298946826
 11
5.0612801537
 21
3.6218059326
  0
LINE
  5
2F4
100
AcDbEntity
  8
03__ASM_ALL_CURVES
100
AcDbLine
 62
40
  6
CONTINUOUS
 10
4.7353496678
 20
4.9579214326
 11
4.7380459178
 21
4.9471364326
  0
LINE
  5
2F5
100
AcDbEntity
  8
03__ASM_ALL_CURVES
100
AcDbLine
 62
40
  6
CONTINUOUS
 10
5.0855463688
 20
3.6604521826
 11
5.0835241813
 21
3.6685409326
  0
LINE
  5
2F6
100
AcDbEntity
  8
03__ASM_ALL_CURVES
100
AcDbLine
 62
40
  6
CONTINUOUS
 10
5.1057682438
 20
3.6766296826
 11
5.1077904313
 21
3.6685409326
  0
LINE
  5
2F7
100
AcDbEntity
  8
03__ASM_ALL_CURVES
100
AcDbLine
 62
40
  6
CONTINUOUS
 10
5.0552135563
 20
3.6523634326
 11
5.0552135563
 21
3.6847184326
  0
LINE
  5
2F8
100
AcDbEntity
  8
03__ASM_ALL_CURVES
100
AcDbLine
 62
40
  6
CONTINUOUS
 10
5.0713910563
 20
3.679325932
 11
5.0713910563
 21
3.6739334332
  0
LINE
  5
2F9
100
AcDbEntity
  8
03__ASM_ALL_CURVES
100
AcDbLine
 62
40
  6
CONTINUOUS
 10
5.0734132787
 20
3.6110209328
 11
5.0734132787
 21
3.6379834326
  0
LINE
  5
2FA
100
AcDbEntity
  8
03__ASM_ALL_CURVES
100
AcDbLine
 62
40
  6
CONTINUOUS
 10
5.0895907787
 20
3.6379834326
 11
5.0895907787
 21
3.6110209328
  0
LINE
  5
2FB
100
AcDbEntity
  8
03__ASM_ALL_CURVES
100
AcDbLine
 62
40
  6
CONTINUOUS
 10
5.1138570287
 20
3.6379834326
 11
5.1138570287
 21
3.6056284326
  0
LINE
  5
2FC
100
AcDbEntity
  8
03__ASM_ALL_CURVES
100
AcDbLine
 62
40
  6
CONTINUOUS
 10
5.1199235563
 20
3.6523634326
 11
5.1199235563
 21
3.6847184326
  0
LINE
  5
2FD
100
AcDbEntity
  8
03__ASM_ALL_CURVES
100
AcDbLine
 62
40
  6
CONTINUOUS
 10
5.1361010563
 20
3.679325932
 11
5.1361010563
 21
3.6739334332
  0
LINE
  5
2FE
100
AcDbEntity
  8
03__ASM_ALL_CURVES
100
AcDbLine
 62
40
  6
CONTINUOUS
 10
5.1381232787
 20
3.6379834326
 11
5.1381232787
 21
3.6056284326
  0
LINE
  5
2FF
100
AcDbEntity
  8
03__ASM_ALL_CURVES
100
AcDbLine
 62
40
  6
CONTINUOUS
 10
5.1603673063
 20
3.6847184326
 11
5.1603673063
 21
3.6523634326
  0
LINE
  5
300
100
AcDbEntity
  8
03__ASM_ALL_CURVES
100
AcDbLine
 62
40
  6
CONTINUOUS
 10
7.0246557489
 20
3.6056284326
 11
7.0084782489
 21
3.6056284326
  0
LINE
  5
301
100
AcDbEntity
  8
03__ASM_ALL_CURVES
100
AcDbLine
 62
40
  6
CONTINUOUS
 10
6.9215241864
 20
3.6056284326
 11
6.9174798114
 21
3.6056284326
  0
LINE
  5
302
100
AcDbEntity
  8
03__ASM_ALL_CURVES
100
AcDbLine
 62
40
  6
CONTINUOUS
 10
6.8891691864
 20
3.6056284326
 11
6.8851248114
 21
3.6056284326
  0
LINE
  5
303
100
AcDbEntity
  8
03__ASM_ALL_CURVES
100
AcDbLine
 62
40
  6
CONTINUOUS
 10
6.1154117796
 20
3.6056284326
 11
6.0992342796
 21
3.6056284326
  0
LINE
  5
304
100
AcDbEntity
  8
03__ASM_ALL_CURVES
100
AcDbLine
 62
40
  6
CONTINUOUS
 10
5.1866557787
 20
3.6056284326
 11
5.1704782787
 21
3.6056284326
  0
LINE
  5
305
100
AcDbEntity
  8
03__ASM_ALL_CURVES
100
AcDbLine
 62
40
  6
CONTINUOUS
 10
5.0835242162
 20
3.6056284326
 11
5.0794798412
 21
3.6056284326
  0
LINE
  5
306
100
AcDbEntity
  8
03__ASM_ALL_CURVES
100
AcDbLine
 62
40
  6
CONTINUOUS
 10
5.0511692162
 20
3.6056284326
 11
5.0471248412
 21
3.6056284326
  0
LINE
  5
307
100
AcDbEntity
  8
03__ASM_ALL_CURVES
100
AcDbLine
 62
40
  6
CONTINUOUS
 10
5.1381232787
 20
3.6056284326
 11
5.1543007787
 21
3.6056284326
  0
LINE
  5
308
100
AcDbEntity
  8
03__ASM_ALL_CURVES
100
AcDbLine
 62
40
  6
CONTINUOUS
 10
6.0668792796
 20
3.6056284326
 11
6.0830567796
 21
3.6056284326
  0
LINE
  5
309
100
AcDbEntity
  8
03__ASM_ALL_CURVES
100
AcDbLine
 62
40
  6
CONTINUOUS
 10
6.9761232489
 20
3.6056284326
 11
6.9923007489
 21
3.6056284326
  0
LINE
  5
30A
100
AcDbEntity
  8
03__ASM_ALL_CURVES
100
AcDbLine
 62
40
  6
CONTINUOUS
 10
5.1704782787
 20
3.6218059326
 11
5.1805892162
 21
3.6218059326
  0
LINE
  5
30B
100
AcDbEntity
  8
03__ASM_ALL_CURVES
100
AcDbLine
 62
40
  6
CONTINUOUS
 10
6.0992342796
 20
3.6218059326
 11
6.1093452171
 21
3.6218059326
  0
LINE
  5
30C
100
AcDbEntity
  8
03__ASM_ALL_CURVES
100
AcDbLine
 62
40
  6
CONTINUOUS
 10
7.0084782489
 20
3.6218059326
 11
7.0185891864
 21
3.6218059326
  0
LINE
  5
30D
100
AcDbEntity
  8
03__ASM_ALL_CURVES
100
AcDbLine
 62
40
  6
CONTINUOUS
 10
5.0471248412
 20
3.6379834326
 11
5.0511692162
 21
3.6379834326
  0
LINE
  5
30E
100
AcDbEntity
  8
03__ASM_ALL_CURVES
100
AcDbLine
 62
40
  6
CONTINUOUS
 10
5.1037460912
 20
3.6379834326
 11
5.1239679662
 21
3.6379834326
  0
LINE
  5
30F
100
AcDbEntity
  8
03__ASM_ALL_CURVES
100
AcDbLine
 62
40
  6
CONTINUOUS
 10
5.1704782787
 20
3.6379834326
 11
5.1866557787
 21
3.6379834326
  0
LINE
  5
310
100
AcDbEntity
  8
03__ASM_ALL_CURVES
100
AcDbLine
 62
40
  6
CONTINUOUS
 10
5.2008110912
 20
3.6379834326
 11
5.2210329662
 21
3.6379834326
  0
LINE
  5
311
100
AcDbEntity
  8
03__ASM_ALL_CURVES
100
AcDbLine
 62
40
  6
CONTINUOUS
 10
6.0992342796
 20
3.6379834326
 11
6.1154117796
 21
3.6379834326
  0
LINE
  5
312
100
AcDbEntity
  8
03__ASM_ALL_CURVES
100
AcDbLine
 62
40
  6
CONTINUOUS
 10
6.1295670921
 20
3.6379834326
 11
6.1497889671
 21
3.6379834326
  0
LINE
  5
313
100
AcDbEntity
  8
03__ASM_ALL_CURVES
100
AcDbLine
 62
40
  6
CONTINUOUS
 10
6.8851248114
 20
3.6379834326
 11
6.8891691864
 21
3.6379834326
  0
LINE
  5
314
100
AcDbEntity
  8
03__ASM_ALL_CURVES
100
AcDbLine
 62
40
  6
CONTINUOUS
 10
6.9417460614
 20
3.6379834326
 11
6.9619679364
 21
3.6379834326
  0
LINE
  5
315
100
AcDbEntity
  8
03__ASM_ALL_CURVES
100
AcDbLine
 62
40
  6
CONTINUOUS
 10
7.0084782489
 20
3.6379834326
 11
7.0246557489
 21
3.6379834326
  0
LINE
  5
316
100
AcDbEntity
  8
03__ASM_ALL_CURVES
100
AcDbLine
 62
40
  6
CONTINUOUS
 10
7.0388110614
 20
3.6379834326
 11
7.0590329364
 21
3.6379834326
  0
LINE
  5
317
100
AcDbEntity
  8
03__ASM_ALL_CURVES
100
AcDbLine
 62
40
  6
CONTINUOUS
 10
3.5883234182
 20
4.9255664326
 11
3.5829309182
 21
4.9291614327
  0
LINE
  5
318
100
AcDbEntity
  8
03__ASM_ALL_CURVES
100
AcDbLine
 62
40
  6
CONTINUOUS
 10
3.5883234182
 20
4.9687064326
 11
3.5937159182
 21
4.9651114335
  0
LINE
  5
319
100
AcDbEntity
  8
03__ASM_ALL_CURVES
100
AcDbLine
 62
40
  6
CONTINUOUS
 10
4.3255196678
 20
4.9291614327
 11
4.3201271678
 21
4.9363514326
  0
LINE
  5
31A
100
AcDbEntity
  8
03__ASM_ALL_CURVES
100
AcDbLine
 62
40
  6
CONTINUOUS
 10
4.2985571678
 20
4.9651114335
 11
4.3039496678
 21
4.9579214326
  0
LINE
  5
31B
100
AcDbEntity
  8
03__ASM_ALL_CURVES
100
AcDbLine
 62
40
  6
CONTINUOUS
 10
4.3416971678
 20
4.9651114335
 11
4.3443934178
 21
4.9615164317
  0
LINE
  5
31C
100
AcDbEntity
  8
03__ASM_ALL_CURVES
100
AcDbLine
 62
40
  6
CONTINUOUS
 10
4.8620734178
 20
4.9579214326
 11
4.8647696678
 21
4.9471364326
  0
LINE
  5
31D
100
AcDbEntity
  8
03__ASM_ALL_CURVES
100
AcDbLine
 62
40
  6
CONTINUOUS
 10
5.1704782787
 20
3.6056284326
 11
5.1704782787
 21
3.6379834326
  0
LINE
  5
31E
100
AcDbEntity
  8
03__ASM_ALL_CURVES
100
AcDbLine
 62
40
  6
CONTINUOUS
 10
5.1987888688
 20
3.6523634326
 11
5.1987888688
 21
3.6847184326
  0
LINE
  5
31F
100
AcDbEntity
  8
03__ASM_ALL_CURVES
100
AcDbLine
 62
40
  6
CONTINUOUS
 10
5.2109220287
 20
3.6379834326
 11
5.2109220287
 21
3.6056284326
  0
LINE
  5
320
100
AcDbEntity
  8
0
100
AcDbLine
 62
7
  6
CONTINUOUS
 10
5.3235234182
 20
3.9667184326
 11
5.3235234182
 21
4.5267184326
  0
LINE
  5
321
100
AcDbEntity
  8
03__ASM_ALL_CURVES
100
AcDbLine
 62
40
  6
CONTINUOUS
 10
5.0370139037
 20
3.6218059326
 11
5.0390360912
 21
3.6298946826
  0
LINE
  5
322
100
AcDbEntity
  8
03__ASM_ALL_CURVES
100
AcDbLine
 62
40
  6
CONTINUOUS
 10
5.0612801537
 20
3.6218059326
 11
5.0592579662
 21
3.6137171826
  0
LINE
  5
323
100
AcDbEntity
  8
03__ASM_ALL_CURVES
100
AcDbLine
 62
40
  6
CONTINUOUS
 10
5.0835241813
 20
3.6685409326
 11
5.0855463688
 21
3.6766296826
  0
LINE
  5
324
100
AcDbEntity
  8
03__ASM_ALL_CURVES
100
AcDbLine
 62
40
  6
CONTINUOUS
 10
5.1077904313
 20
3.6685409326
 11
5.1057682438
 21
3.6604521826
  0
LINE
  5
325
100
AcDbEntity
  8
0
100
AcDbLine
 62
7
  6
CONTINUOUS
 10
4.6790234182
 20
3.9037184326
 11
4.6345234182
 21
3.8592184326
  0
LINE
  5
326
100
AcDbEntity
  8
03__ASM_ALL_CURVES
100
AcDbLine
 62
40
  6
CONTINUOUS
 10
6.936690627
 20
3.6523634326
 11
6.932646252
 21
3.6523634326
  0
LINE
  5
327
100
AcDbEntity
  8
03__ASM_ALL_CURVES
100
AcDbLine
 62
40
  6
CONTINUOUS
 10
6.1457445534
 20
3.6523634326
 11
6.1417001784
 21
3.6523634326
  0
LINE
  5
328
100
AcDbEntity
  8
03__ASM_ALL_CURVES
100
AcDbLine
 62
40
  6
CONTINUOUS
 10
6.0486795534
 20
3.6523634326
 11
6.0446351784
 21
3.6523634326
  0
LINE
  5
329
100
AcDbEntity
  8
03__ASM_ALL_CURVES
100
AcDbLine
 62
40
  6
CONTINUOUS
 10
5.0976794938
 20
3.6523634326
 11
5.0936351188
 21
3.6523634326
  0
LINE
  5
32A
100
AcDbEntity
  8
03__ASM_ALL_CURVES
100
AcDbLine
 62
40
  6
CONTINUOUS
 10
7.0236446895
 20
3.6523634326
 11
7.0398221895
 21
3.6523634326
  0
LINE
  5
32B
100
AcDbEntity
  8
03__ASM_ALL_CURVES
100
AcDbLine
 62
40
  6
CONTINUOUS
 10
5.1846335563
 20
3.6604521826
 11
5.2028332438
 21
3.6604521826
  0
LINE
  5
32C
100
AcDbEntity
  8
03__ASM_ALL_CURVES
100
AcDbLine
 62
40
  6
CONTINUOUS
 10
6.969045627
 20
3.6685409326
 11
6.9589346895
 21
3.6685409326
  0
LINE
  5
32D
100
AcDbEntity
  8
03__ASM_ALL_CURVES
100
AcDbLine
 62
40
  6
CONTINUOUS
 10
6.904335627
 20
3.6685409326
 11
6.8942246895
 21
3.6685409326
  0
LINE
  5
32E
100
AcDbEntity
  8
03__ASM_ALL_CURVES
100
AcDbLine
 62
40
  6
CONTINUOUS
 10
6.0810345534
 20
3.6685409326
 11
6.0709236159
 21
3.6685409326
  0
LINE
  5
32F
100
AcDbEntity
  8
03__ASM_ALL_CURVES
100
AcDbLine
 62
40
  6
CONTINUOUS
 10
6.0163245534
 20
3.6685409326
 11
6.0062136159
 21
3.6685409326
  0
LINE
  5
330
100
AcDbEntity
  8
03__ASM_ALL_CURVES
100
AcDbLine
 62
40
  6
CONTINUOUS
 10
5.1300344938
 20
3.6685409326
 11
5.1199235563
 21
3.6685409326
  0
LINE
  5
331
100
AcDbEntity
  8
03__ASM_ALL_CURVES
100
AcDbLine
 62
40
  6
CONTINUOUS
 10
5.0653244938
 20
3.6685409326
 11
5.0552135563
 21
3.6685409326
  0
LINE
  5
332
100
AcDbEntity
  8
03__ASM_ALL_CURVES
100
AcDbLine
 62
40
  6
CONTINUOUS
 10
6.1417001784
 20
3.671237182
 11
6.1457445534
 21
3.671237182
  0
LINE
  5
333
100
AcDbEntity
  8
03__ASM_ALL_CURVES
100
AcDbLine
 62
40
  6
CONTINUOUS
 10
5.0552135563
 20
3.6847184326
 11
5.0653244938
 21
3.6847184326
  0
LINE
  5
334
100
AcDbEntity
  8
03__ASM_ALL_CURVES
100
AcDbLine
 62
40
  6
CONTINUOUS
 10
5.0936351188
 20
3.6847184326
 11
5.0976794938
 21
3.6847184326
  0
LINE
  5
335
100
AcDbEntity
  8
03__ASM_ALL_CURVES
100
AcDbLine
 62
40
  6
CONTINUOUS
 10
5.1199235563
 20
3.6847184326
 11
5.1300344938
 21
3.6847184326
  0
LINE
  5
336
100
AcDbEntity
  8
03__ASM_ALL_CURVES
100
AcDbLine
 62
40
  6
CONTINUOUS
 10
5.1502563688
 20
3.6847184326
 11
5.1704782438
 21
3.6847184326
  0
LINE
  5
337
100
AcDbEntity
  8
03__ASM_ALL_CURVES
100
AcDbLine
 62
40
  6
CONTINUOUS
 10
6.0062136159
 20
3.6847184326
 11
6.0163245534
 21
3.6847184326
  0
LINE
  5
338
100
AcDbEntity
  8
03__ASM_ALL_CURVES
100
AcDbLine
 62
40
  6
CONTINUOUS
 10
6.0446351784
 20
3.6847184326
 11
6.0486795534
 21
3.6847184326
  0
LINE
  5
339
100
AcDbEntity
  8
03__ASM_ALL_CURVES
100
AcDbLine
 62
40
  6
CONTINUOUS
 10
6.0709236159
 20
3.6847184326
 11
6.0810345534
 21
3.6847184326
  0
LINE
  5
33A
100
AcDbEntity
  8
03__ASM_ALL_CURVES
100
AcDbLine
 62
40
  6
CONTINUOUS
 10
6.1012564284
 20
3.6847184326
 11
6.1214783034
 21
3.6847184326
  0
LINE
  5
33B
100
AcDbEntity
  8
03__ASM_ALL_CURVES
100
AcDbLine
 62
40
  6
CONTINUOUS
 10
6.1417001784
 20
3.6847184326
 11
6.1457445534
 21
3.6847184326
  0
LINE
  5
33C
100
AcDbEntity
  8
03__ASM_ALL_CURVES
100
AcDbLine
 62
40
  6
CONTINUOUS
 10
6.8942246895
 20
3.6847184326
 11
6.904335627
 21
3.6847184326
  0
LINE
  5
33D
100
AcDbEntity
  8
03__ASM_ALL_CURVES
100
AcDbLine
 62
40
  6
CONTINUOUS
 10
6.932646252
 20
3.6847184326
 11
6.936690627
 21
3.6847184326
  0
LINE
  5
33E
100
AcDbEntity
  8
03__ASM_ALL_CURVES
100
AcDbLine
 62
40
  6
CONTINUOUS
 10
6.9589346895
 20
3.6847184326
 11
6.969045627
 21
3.6847184326
  0
LINE
  5
33F
100
AcDbEntity
  8
03__ASM_ALL_CURVES
100
AcDbLine
 62
40
  6
CONTINUOUS
 10
6.989267502
 20
3.6847184326
 11
7.009489377
 21
3.6847184326
  0
LINE
  5
340
100
AcDbEntity
  8
03__ASM_ALL_CURVES
100
AcDbLine
 62
40
  6
CONTINUOUS
 10
7.029711252
 20
3.6847184326
 11
7.033755627
 21
3.6847184326
  0
LINE
  5
341
100
AcDbEntity
  8
THREAD
100
AcDbLine
 62
7
  6
CONTINUOUS
 10
3.8985234182
 20
3.7577184326
 11
3.4630870841
 21
3.7577184326
  0
LINE
  5
342
100
AcDbEntity
  8
THREAD
100
AcDbLine
 62
7
  6
CONTINUOUS
 10
3.8985234182
 20
3.7586159601
 11
3.4630870841
 21
3.7586159601
  0
LINE
  5
343
100
AcDbEntity
  8
0
100
AcDbLine
 62
7
  6
CONTINUOUS
 10
4.2012458501
 20
4.6523883056
 11
4.1815234182
 21
4.6637750569
  0
LINE
  5
344
100
AcDbEntity
  8
03__ASM_ALL_CURVES
100
AcDbLine
 62
40
  6
CONTINUOUS
 10
3.7150471682
 20
4.9255664326
 11
3.7096546682
 21
4.9291614327
  0
LINE
  5
345
100
AcDbEntity
  8
03__ASM_ALL_CURVES
100
AcDbLine
 62
40
  6
CONTINUOUS
 10
3.7204396682
 20
4.9543264335
 11
3.7258321682
 21
4.9507314317
  0
LINE
  5
346
100
AcDbEntity
  8
03__ASM_ALL_CURVES
100
AcDbLine
 62
40
  6
CONTINUOUS
 10
3.8471634182
 20
4.9255664326
 11
3.8417709182
 21
4.9291614327
  0
LINE
  5
347
100
AcDbEntity
  8
03__ASM_ALL_CURVES
100
AcDbLine
 62
40
  6
CONTINUOUS
 10
3.8471634182
 20
4.9687064326
 11
3.8525559182
 21
4.9651114335
  0
LINE
  5
348
100
AcDbEntity
  8
03__ASM_ALL_CURVES
100
AcDbLine
 62
40
  6
CONTINUOUS
 10
3.9334434182
 20
4.9255664326
 11
3.9280509182
 21
4.9291614327
  0
LINE
  5
349
100
AcDbEntity
  8
0
100
AcDbLine
 62
7
  6
CONTINUOUS
 10
4.6790234182
 20
4.5897184326
 11
4.6345234182
 21
4.6342184326
  0
LINE
  5
34A
100
AcDbEntity
  8
03__ASM_ALL_CURVES
100
AcDbLine
 62
40
  6
CONTINUOUS
 10
4.5412196678
 20
4.9291614327
 11
4.5358271678
 21
4.9363514326
  0
LINE
  5
34B
100
AcDbEntity
  8
03__ASM_ALL_CURVES
100
AcDbLine
 62
40
  6
CONTINUOUS
 10
4.5573971678
 20
4.9651114335
 11
4.5600934178
 21
4.9615164317
  0
LINE
  5
34C
100
AcDbEntity
  8
03__ASM_ALL_CURVES
100
AcDbLine
 62
40
  6
CONTINUOUS
 10
4.6274996678
 20
4.9291614327
 11
4.6221071678
 21
4.9363514326
  0
LINE
  5
34D
100
AcDbEntity
  8
03__ASM_ALL_CURVES
100
AcDbLine
 62
40
  6
CONTINUOUS
 10
4.6248034178
 20
4.9579214326
 11
4.6274996678
 21
4.9543264335
  0
LINE
  5
34E
100
AcDbEntity
  8
03__ASM_ALL_CURVES
100
AcDbLine
 62
40
  6
CONTINUOUS
 10
4.6436771678
 20
4.9435414322
 11
4.6463734178
 21
4.939946433
  0
LINE
  5
34F
100
AcDbEntity
  8
03__ASM_ALL_CURVES
100
AcDbLine
 62
40
  6
CONTINUOUS
 10
4.6463734178
 20
4.9615164317
 11
4.6436771678
 21
4.9651114335
  0
LINE
  5
350
100
AcDbEntity
  8
03__ASM_ALL_CURVES
100
AcDbLine
 62
40
  6
CONTINUOUS
 10
4.7137796678
 20
4.9291614327
 11
4.7083871678
 21
4.9363514326
  0
LINE
  5
351
100
AcDbEntity
  8
03__ASM_ALL_CURVES
100
AcDbLine
 62
40
  6
CONTINUOUS
 10
4.9402646678
 20
4.9471364326
 11
4.9483534178
 21
4.9255664326
  0
LINE
  5
352
100
AcDbEntity
  8
0
100
AcDbLine
 62
7
  6
CONTINUOUS
 10
5.3695234182
 20
4.5937089744
 11
5.3695234182
 21
3.8997278908
  0
LINE
  5
353
100
AcDbEntity
  8
0
100
AcDbLine
 62
7
  6
CONTINUOUS
 10
5.4320234182
 20
4.5937089744
 11
5.4320234182
 21
3.8997278908
  0
LINE
  5
354
100
AcDbEntity
  8
0
100
AcDbLine
 62
7
  6
CONTINUOUS
 10
5.4820234182
 20
3.9002189594
 11
5.4820234182
 21
4.5932179058
  0
LINE
  5
355
100
AcDbEntity
  8
0
100
AcDbLine
 62
7
  6
CONTINUOUS
 10
4.8670234182
 20
3.9137184326
 11
4.8570234182
 21
3.9037184326
  0
LINE
  5
356
100
AcDbEntity
  8
0
100
AcDbLine
 62
7
  6
CONTINUOUS
 10
4.2012458501
 20
3.8410485596
 11
4.1815234182
 21
3.8296618083
  0
LINE
  5
357
100
AcDbEntity
  8
THREAD
100
AcDbLine
 62
7
  6
CONTINUOUS
 10
4.1760234182
 20
3.8192184326
 11
4.1260234182
 21
3.8192184326
  0
LINE
  5
358
100
AcDbEntity
  8
THREAD
100
AcDbLine
 62
7
  6
CONTINUOUS
 10
4.1060234182
 20
3.8192184326
 11
3.9600234182
 21
3.8192184326
  0
LINE
  5
359
100
AcDbEntity
  8
0
100
AcDbLine
 62
7
  6
CONTINUOUS
 10
4.2260234182
 20
3.8417184326
 11
4.2037458501
 21
3.8417184326
  0
LINE
  5
35A
100
AcDbEntity
  8
0
100
AcDbLine
 62
7
  6
CONTINUOUS
 10
4.2960234182
 20
3.8422184326
 11
4.3460234182
 21
3.8422184326
  0
LINE
  5
35B
100
AcDbEntity
  8
0
100
AcDbLine
 62
7
  6
CONTINUOUS
 10
4.6345234182
 20
3.8592184326
 11
4.3873853782
 21
3.8592184326
  0
LINE
  5
35C
100
AcDbEntity
  8
0
100
AcDbLine
 62
7
  6
CONTINUOUS
 10
4.3585178647
 20
3.8962184326
 11
4.3460234182
 21
3.8962184326
  0
LINE
  5
35D
100
AcDbEntity
  8
0
100
AcDbLine
 62
7
  6
CONTINUOUS
 10
5.3695234182
 20
3.8997184326
 11
5.4320234182
 21
3.8997184326
  0
LINE
  5
35E
100
AcDbEntity
  8
0
100
AcDbLine
 62
7
  6
CONTINUOUS
 10
5.6295234182
 20
3.8997184326
 11
5.6945234182
 21
3.8997184326
  0
LINE
  5
35F
100
AcDbEntity
  8
0
100
AcDbLine
 62
7
  6
CONTINUOUS
 10
5.4320234182
 20
3.9002184326
 11
5.4820234182
 21
3.9002184326
  0
LINE
  5
360
100
AcDbEntity
  8
0
100
AcDbLine
 62
7
  6
CONTINUOUS
 10
5.5520234182
 20
3.9002184326
 11
5.6020234182
 21
3.9002184326
  0
LINE
  5
361
100
AcDbEntity
  8
0
100
AcDbLine
 62
7
  6
CONTINUOUS
 10
4.8570234182
 20
3.9037184326
 11
4.6790234182
 21
3.9037184326
  0
LINE
  5
362
100
AcDbEntity
  8
0
100
AcDbLine
 62
7
  6
CONTINUOUS
 10
6.5945234182
 20
3.9177184326
 11
6.5295234182
 21
3.9177184326
  0
LINE
  5
363
100
AcDbEntity
  8
0
100
AcDbLine
 62
7
  6
CONTINUOUS
 10
6.3320234182
 20
3.9177184326
 11
6.2695234182
 21
3.9177184326
  0
LINE
  5
364
100
AcDbEntity
  8
0
100
AcDbLine
 62
7
  6
CONTINUOUS
 10
6.3320234182
 20
3.9187184326
 11
6.3820234182
 21
3.9187184326
  0
LINE
  5
365
100
AcDbEntity
  8
0
100
AcDbLine
 62
7
  6
CONTINUOUS
 10
6.4520234182
 20
3.9187184326
 11
6.5020234182
 21
3.9187184326
  0
LINE
  5
366
100
AcDbEntity
  8
0
100
AcDbLine
 62
7
  6
CONTINUOUS
 10
7.2420234182
 20
3.9187184326
 11
7.2920234182
 21
3.9187184326
  0
LINE
  5
367
100
AcDbEntity
  8
0
100
AcDbLine
 62
7
  6
CONTINUOUS
 10
7.3620234182
 20
3.9187184326
 11
7.4120234182
 21
3.9187184326
  0
LINE
  5
368
100
AcDbEntity
  8
0
100
AcDbLine
 62
7
  6
CONTINUOUS
 10
7.5095234182
 20
3.9357184326
 11
7.4395234182
 21
3.9357184326
  0
LINE
  5
369
100
AcDbEntity
  8
0
100
AcDbLine
 62
7
  6
CONTINUOUS
 10
7.2420234182
 20
3.9357184326
 11
7.1740575617
 21
3.9357184326
  0
LINE
  5
36A
100
AcDbEntity
  8
0
100
AcDbLine
 62
7
  6
CONTINUOUS
 10
5.6295234182
 20
3.9542184326
 11
5.6020234182
 21
3.9542184326
  0
LINE
  5
36B
100
AcDbEntity
  8
0
100
AcDbLine
 62
7
  6
CONTINUOUS
 10
7.1310234182
 20
3.9654684326
 11
7.0615234182
 21
3.9654684326
  0
LINE
  5
36C
100
AcDbEntity
  8
0
100
AcDbLine
 62
7
  6
CONTINUOUS
 10
6.9525234182
 20
3.9654684326
 11
6.6405234182
 21
3.9654684326
  0
LINE
  5
36D
100
AcDbEntity
  8
0
100
AcDbLine
 62
7
  6
CONTINUOUS
 10
6.2235234182
 20
3.9654684326
 11
6.0580234182
 21
3.9654684326
  0
LINE
  5
36E
100
AcDbEntity
  8
0
100
AcDbLine
 62
7
  6
CONTINUOUS
 10
5.9180234182
 20
3.9654684326
 11
5.7405234182
 21
3.9654684326
  0
LINE
  5
36F
100
AcDbEntity
  8
0
100
AcDbLine
 62
7
  6
CONTINUOUS
 10
5.3235234182
 20
3.9667184326
 11
5.0215234182
 21
3.9667184326
  0
LINE
  5
370
100
AcDbEntity
  8
0
100
AcDbLine
 62
7
  6
CONTINUOUS
 10
4.9125234182
 20
3.9667184326
 11
4.8670234182
 21
3.9667184326
  0
LINE
  5
371
100
AcDbEntity
  8
0
100
AcDbLine
 62
7
  6
CONTINUOUS
 10
6.5295234182
 20
3.9727184326
 11
6.5020234182
 21
3.9727184326
  0
LINE
  5
372
100
AcDbEntity
  8
THREAD
100
AcDbLine
 62
7
  6
CONTINUOUS
 10
3.8985234182
 20
3.9770209051
 11
3.4630870841
 21
3.9770209051
  0
LINE
  5
373
100
AcDbEntity
  8
03__ASM_ALL_CURVES
100
AcDbLine
 62
40
  6
CONTINUOUS
 10
3.9334434182
 20
4.9687064326
 11
3.9388359182
 21
4.9651114335
  0
LINE
  5
374
100
AcDbEntity
  8
03__ASM_ALL_CURVES
100
AcDbLine
 62
40
  6
CONTINUOUS
 10
6.0446351784
 20
3.6523634326
 11
6.0405908034
 21
3.6550596827
  0
LINE
  5
375
100
AcDbEntity
  8
03__ASM_ALL_CURVES
100
AcDbLine
 62
40
  6
CONTINUOUS
 10
6.0163245534
 20
3.6847184326
 11
6.0203689284
 21
3.6820221832
  0
LINE
  5
376
100
AcDbEntity
  8
03__ASM_ALL_CURVES
100
AcDbLine
 62
40
  6
CONTINUOUS
 10
6.0486795534
 20
3.6847184326
 11
6.0527239284
 21
3.6820221832
  0
LINE
  5
377
100
AcDbEntity
  8
03__ASM_ALL_CURVES
100
AcDbLine
 62
40
  6
CONTINUOUS
 10
6.0810345534
 20
3.6847184326
 11
6.0850789284
 21
3.6820221832
  0
LINE
  5
378
100
AcDbEntity
  8
03__ASM_ALL_CURVES
100
AcDbLine
 62
40
  6
CONTINUOUS
 10
6.1417001784
 20
3.6523634326
 11
6.1376558034
 21
3.6550596827
  0
LINE
  5
379
100
AcDbEntity
  8
03__ASM_ALL_CURVES
100
AcDbLine
 62
40
  6
CONTINUOUS
 10
6.1457445534
 20
3.671237182
 11
6.1497889284
 21
3.6685409326
  0
LINE
  5
37A
100
AcDbEntity
  8
03__ASM_ALL_CURVES
100
AcDbLine
 62
40
  6
CONTINUOUS
 10
6.1457445534
 20
3.6847184326
 11
6.1497889284
 21
3.6820221832
  0
LINE
  5
37B
100
AcDbEntity
  8
03__ASM_ALL_CURVES
100
AcDbLine
 62
40
  6
CONTINUOUS
 10
4.2877721678
 20
4.9255664326
 11
4.2823796678
 21
4.9291614327
  0
LINE
  5
37C
100
AcDbEntity
  8
0
100
AcDbLine
 62
7
  6
CONTINUOUS
 10
4.8670234182
 20
4.5797184326
 11
4.8570234182
 21
4.5897184326
  0
LINE
  5
37D
100
AcDbEntity
  8
03__ASM_ALL_CURVES
100
AcDbLine
 62
40
  6
CONTINUOUS
 10
4.7569196678
 20
4.9291614327
 11
4.7542234178
 21
4.9327564328
  0
LINE
  5
37E
100
AcDbEntity
  8
03__ASM_ALL_CURVES
100
AcDbLine
 62
40
  6
CONTINUOUS
 10
4.7299571678
 20
4.9651114335
 11
4.7353496678
 21
4.9579214326
  0
LINE
  5
37F
100
AcDbEntity
  8
03__ASM_ALL_CURVES
100
AcDbLine
 62
40
  6
CONTINUOUS
 10
4.8566809178
 20
4.9651114335
 11
4.8620734178
 21
4.9579214326
  0
LINE
  5
380
100
AcDbEntity
  8
0
100
AcDbLine
 62
7
  6
CONTINUOUS
 10
5.5520234182
 20
3.9002189594
 11
5.5520234182
 21
4.5932179058
  0
LINE
  5
381
100
AcDbEntity
  8
0
100
AcDbLine
 62
7
  6
CONTINUOUS
 10
5.6020234182
 20
3.9002189594
 11
5.6020234182
 21
4.5932179058
  0
LINE
  5
382
100
AcDbEntity
  8
0
100
AcDbLine
 62
7
  6
CONTINUOUS
 10
5.6295234182
 20
4.5937089744
 11
5.6295234182
 21
3.8997278908
  0
LINE
  5
383
100
AcDbEntity
  8
03__ASM_ALL_CURVES
100
AcDbLine
 62
40
  6
CONTINUOUS
 10
5.1987888688
 20
3.6847184326
 11
5.1846335563
 21
3.6604521826
  0
LINE
  5
384
100
AcDbEntity
  8
03__ASM_ALL_CURVES
100
AcDbLine
 62
40
  6
CONTINUOUS
 10
5.0713910563
 20
3.6739334332
 11
5.0693688688
 21
3.671237182
  0
LINE
  5
385
100
AcDbEntity
  8
03__ASM_ALL_CURVES
100
AcDbLine
 62
40
  6
CONTINUOUS
 10
5.0390360912
 20
3.6298946826
 11
5.0430804662
 21
3.6352871832
  0
LINE
  5
386
100
AcDbEntity
  8
03__ASM_ALL_CURVES
100
AcDbLine
 62
40
  6
CONTINUOUS
 10
5.0855463688
 20
3.6766296826
 11
5.0895907438
 21
3.6820221832
  0
LINE
  5
387
100
AcDbEntity
  8
03__ASM_ALL_CURVES
100
AcDbLine
 62
40
  6
CONTINUOUS
 10
5.0592579662
 20
3.6137171826
 11
5.0552135912
 21
3.6083246827
  0
LINE
  5
388
100
AcDbEntity
  8
03__ASM_ALL_CURVES
100
AcDbLine
 62
40
  6
CONTINUOUS
 10
5.1057682438
 20
3.6604521826
 11
5.1017238688
 21
3.6550596827
  0
LINE
  5
389
100
AcDbEntity
  8
03__ASM_ALL_CURVES
100
AcDbLine
 62
40
  6
CONTINUOUS
 10
5.1361010563
 20
3.6739334332
 11
5.1340788688
 21
3.671237182
  0
LINE
  5
38A
100
AcDbEntity
  8
03__ASM_ALL_CURVES
100
AcDbLine
 62
40
  6
CONTINUOUS
 10
5.0895907787
 20
3.6110209328
 11
5.0875685912
 21
3.6083246827
  0
LINE
  5
38B
100
AcDbEntity
  8
0
100
AcDbLine
 62
7
  6
CONTINUOUS
 10
7.4395234182
 20
3.9902184326
 11
7.4120234182
 21
3.9902184326
  0
LINE
  5
38C
100
AcDbEntity
  8
THREAD
100
AcDbLine
 62
7
  6
CONTINUOUS
 10
3.8985234182
 20
4.0283134876
 11
3.4630870841
 21
4.0283134876
  0
LINE
  5
38D
100
AcDbEntity
  8
03__ASM_ALL_CURVES
100
AcDbLine
 62
40
  6
CONTINUOUS
 10
3.8471634182
 20
4.9435414322
 11
3.8390746682
 21
4.9471364326
  0
LINE
  5
38E
100
AcDbEntity
  8
03__ASM_ALL_CURVES
100
AcDbLine
 62
40
  6
CONTINUOUS
 10
4.3309121678
 20
4.9255664326
 11
4.3255196678
 21
4.9291614327
  0
LINE
  5
38F
100
AcDbEntity
  8
03__ASM_ALL_CURVES
100
AcDbLine
 62
40
  6
CONTINUOUS
 10
4.2931646678
 20
4.9687064326
 11
4.2985571678
 21
4.9651114335
  0
LINE
  5
390
100
AcDbEntity
  8
03__ASM_ALL_CURVES
100
AcDbLine
 62
40
  6
CONTINUOUS
 10
4.3363046678
 20
4.9687064326
 11
4.3416971678
 21
4.9651114335
  0
LINE
  5
391
100
AcDbEntity
  8
03__ASM_ALL_CURVES
100
AcDbLine
 62
40
  6
CONTINUOUS
 10
4.5466121678
 20
4.9255664326
 11
4.5412196678
 21
4.9291614327
  0
LINE
  5
392
100
AcDbEntity
  8
03__ASM_ALL_CURVES
100
AcDbLine
 62
40
  6
CONTINUOUS
 10
4.9456571678
 20
4.9651114335
 11
4.9483534178
 21
4.9615164317
  0
LINE
  5
393
100
AcDbEntity
  8
03__ASM_ALL_CURVES
100
AcDbLine
 62
40
  6
CONTINUOUS
 10
6.0405908034
 20
3.6550596827
 11
6.0365464284
 21
3.6604521826
  0
LINE
  5
394
100
AcDbEntity
  8
03__ASM_ALL_CURVES
100
AcDbLine
 62
40
  6
CONTINUOUS
 10
6.0203689284
 20
3.6820221832
 11
6.0223911159
 21
3.679325932
  0
LINE
  5
395
100
AcDbEntity
  8
03__ASM_ALL_CURVES
100
AcDbLine
 62
40
  6
CONTINUOUS
 10
6.0527239284
 20
3.6820221832
 11
6.0567683034
 21
3.6766296826
  0
LINE
  5
396
100
AcDbEntity
  8
0
100
AcDbLine
 62
7
  6
CONTINUOUS
 10
5.6945234182
 20
4.5937089744
 11
5.6945234182
 21
3.8997278908
  0
LINE
  5
397
100
AcDbEntity
  8
0
100
AcDbLine
 62
7
  6
CONTINUOUS
 10
5.7405234182
 20
3.9654684326
 11
5.7405234182
 21
4.5279684326
  0
LINE
  5
398
100
AcDbEntity
  8
03__ASM_ALL_CURVES
100
AcDbLine
 62
40
  6
CONTINUOUS
 10
8.1635971684
 20
4.2071734326
 11
8.1555084184
 21
4.2071734326
  0
LINE
  5
399
100
AcDbEntity
  8
03__ASM_ALL_CURVES
100
AcDbLine
 62
40
  6
CONTINUOUS
 10
8.1393309184
 20
4.2071734326
 11
8.1231534184
 21
4.2071734326
  0
LINE
  5
39A
100
AcDbEntity
  8
03__ASM_ALL_CURVES
100
AcDbLine
 62
40
  6
CONTINUOUS
 10
8.1009093559
 20
4.2071734326
 11
8.0968649809
 21
4.2071734326
  0
LINE
  5
39B
100
AcDbEntity
  8
03__ASM_ALL_CURVES
100
AcDbLine
 62
40
  6
CONTINUOUS
 10
8.0685543559
 20
4.2071734326
 11
8.0645099809
 21
4.2071734326
  0
LINE
  5
39C
100
AcDbEntity
  8
03__ASM_ALL_CURVES
100
AcDbLine
 62
40
  6
CONTINUOUS
 10
7.9714893559
 20
4.2071734326
 11
7.9674449809
 21
4.2071734326
  0
LINE
  5
39D
100
AcDbEntity
  8
03__ASM_ALL_CURVES
100
AcDbLine
 62
40
  6
CONTINUOUS
 10
8.1231534184
 20
4.2233509326
 11
8.1332643559
 21
4.2233509326
  0
LINE
  5
39E
100
AcDbEntity
  8
03__ASM_ALL_CURVES
100
AcDbLine
 62
40
  6
CONTINUOUS
 10
8.1009093559
 20
4.2395284326
 11
8.0968649809
 21
4.2395284326
  0
LINE
  5
39F
100
AcDbEntity
  8
03__ASM_ALL_CURVES
100
AcDbLine
 62
40
  6
CONTINUOUS
 10
7.9674449809
 20
4.2395284326
 11
7.9714893559
 21
4.2395284326
  0
LINE
  5
3A0
100
AcDbEntity
  8
03__ASM_ALL_CURVES
100
AcDbLine
 62
40
  6
CONTINUOUS
 10
7.9917112309
 20
4.2395284326
 11
8.0119331059
 21
4.2395284326
  0
LINE
  5
3A1
100
AcDbEntity
  8
03__ASM_ALL_CURVES
100
AcDbLine
 62
40
  6
CONTINUOUS
 10
8.1231534184
 20
4.2395284326
 11
8.1393309184
 21
4.2395284326
  0
LINE
  5
3A2
100
AcDbEntity
  8
03__ASM_ALL_CURVES
100
AcDbLine
 62
40
  6
CONTINUOUS
 10
8.1555084184
 20
4.2395284326
 11
8.1635971684
 21
4.2395284326
  0
LINE
  5
3A3
100
AcDbEntity
  8
03__ASM_ALL_CURVES
100
AcDbLine
 62
40
  6
CONTINUOUS
 10
7.9714893559
 20
4.2539084326
 11
7.9674449809
 21
4.2539084326
  0
LINE
  5
3A4
100
AcDbEntity
  8
03__ASM_ALL_CURVES
100
AcDbLine
 62
40
  6
CONTINUOUS
 10
8.0038443559
 20
4.2700859326
 11
7.9937334184
 21
4.2700859326
  0
LINE
  5
3A5
100
AcDbEntity
  8
03__ASM_ALL_CURVES
100
AcDbLine
 62
40
  6
CONTINUOUS
 10
7.9391343559
 20
4.2700859326
 11
7.9290234184
 21
4.2700859326
  0
LINE
  5
3A6
100
AcDbEntity
  8
03__ASM_ALL_CURVES
100
AcDbLine
 62
40
  6
CONTINUOUS
 10
7.9290234184
 20
4.2862634326
 11
7.9391343559
 21
4.2862634326
  0
LINE
  5
3A7
100
AcDbEntity
  8
03__ASM_ALL_CURVES
100
AcDbLine
 62
40
  6
CONTINUOUS
 10
7.9674449809
 20
4.2862634326
 11
7.9714893559
 21
4.2862634326
  0
LINE
  5
3A8
100
AcDbEntity
  8
03__ASM_ALL_CURVES
100
AcDbLine
 62
40
  6
CONTINUOUS
 10
7.9937334184
 20
4.2862634326
 11
8.0038443559
 21
4.2862634326
  0
LINE
  5
3A9
100
AcDbEntity
  8
03__ASM_ALL_CURVES
100
AcDbLine
 62
40
  6
CONTINUOUS
 10
8.0240662309
 20
4.2862634326
 11
8.0442881059
 21
4.2862634326
  0
LINE
  5
3AA
100
AcDbEntity
  8
03__ASM_ALL_CURVES
100
AcDbLine
 62
40
  6
CONTINUOUS
 10
4.5520046678
 20
4.9687064326
 11
4.5573971678
 21
4.9651114335
  0
LINE
  5
3AB
100
AcDbEntity
  8
03__ASM_ALL_CURVES
100
AcDbLine
 62
40
  6
CONTINUOUS
 10
4.6328921678
 20
4.9255664326
 11
4.6274996678
 21
4.9291614327
  0
LINE
  5
3AC
100
AcDbEntity
  8
03__ASM_ALL_CURVES
100
AcDbLine
 62
40
  6
CONTINUOUS
 10
4.6274996678
 20
4.9543264335
 11
4.6436771678
 21
4.9435414322
  0
LINE
  5
3AD
100
AcDbEntity
  8
03__ASM_ALL_CURVES
100
AcDbLine
 62
40
  6
CONTINUOUS
 10
4.6436771678
 20
4.9651114335
 11
4.6382846678
 21
4.9687064326
  0
LINE
  5
3AE
100
AcDbEntity
  8
03__ASM_ALL_CURVES
100
AcDbLine
 62
40
  6
CONTINUOUS
 10
4.7191721678
 20
4.9255664326
 11
4.7137796678
 21
4.9291614327
  0
LINE
  5
3AF
100
AcDbEntity
  8
03__ASM_ALL_CURVES
100
AcDbLine
 62
40
  6
CONTINUOUS
 10
4.7623121678
 20
4.9255664326
 11
4.7569196678
 21
4.9291614327
  0
LINE
  5
3B0
100
AcDbEntity
  8
03__ASM_ALL_CURVES
100
AcDbLine
 62
40
  6
CONTINUOUS
 10
4.7245646678
 20
4.9687064326
 11
4.7299571678
 21
4.9651114335
  0
LINE
  5
3B1
100
AcDbEntity
  8
03__ASM_ALL_CURVES
100
AcDbLine
 62
40
  6
CONTINUOUS
 10
6.0850789284
 20
3.6820221832
 11
6.0871011159
 21
3.679325932
  0
LINE
  5
3B2
100
AcDbEntity
  8
03__ASM_ALL_CURVES
100
AcDbLine
 62
40
  6
CONTINUOUS
 10
6.1376558034
 20
3.6550596827
 11
6.1356336159
 21
3.6577559328
  0
LINE
  5
3B3
100
AcDbEntity
  8
03__ASM_ALL_CURVES
100
AcDbLine
 62
40
  6
CONTINUOUS
 10
6.1497889284
 20
3.6685409326
 11
6.1538333034
 21
3.6631484329
  0
LINE
  5
3B4
100
AcDbEntity
  8
03__ASM_ALL_CURVES
100
AcDbLine
 62
40
  6
CONTINUOUS
 10
6.1497889284
 20
3.6820221832
 11
6.1518111159
 21
3.679325932
  0
LINE
  5
3B5
100
AcDbEntity
  8
03__ASM_ALL_CURVES
100
AcDbLine
 62
40
  6
CONTINUOUS
 10
6.0345242796
 20
3.6379834326
 11
6.0507017796
 21
3.6056284326
  0
LINE
  5
3B6
100
AcDbEntity
  8
03__ASM_ALL_CURVES
100
AcDbLine
 62
40
  6
CONTINUOUS
 10
5.0693688688
 20
3.671237182
 11
5.0653244938
 21
3.6685409326
  0
LINE
  5
3B7
100
AcDbEntity
  8
03__ASM_ALL_CURVES
100
AcDbLine
 62
40
  6
CONTINUOUS
 10
5.0895907438
 20
3.6820221832
 11
5.0936351188
 21
3.6847184326
  0
LINE
  5
3B8
100
AcDbEntity
  8
03__ASM_ALL_CURVES
100
AcDbLine
 62
40
  6
CONTINUOUS
 10
5.0430804662
 20
3.6352871832
 11
5.0471248412
 21
3.6379834326
  0
LINE
  5
3B9
100
AcDbEntity
  8
03__ASM_ALL_CURVES
100
AcDbLine
 62
40
  6
CONTINUOUS
 10
5.1017238688
 20
3.6550596827
 11
5.0976794938
 21
3.6523634326
  0
LINE
  5
3BA
100
AcDbEntity
  8
03__ASM_ALL_CURVES
100
AcDbLine
 62
40
  6
CONTINUOUS
 10
5.1340788688
 20
3.671237182
 11
5.1300344938
 21
3.6685409326
  0
LINE
  5
3BB
100
AcDbEntity
  8
03__ASM_ALL_CURVES
100
AcDbLine
 62
40
  6
CONTINUOUS
 10
5.0552135912
 20
3.6083246827
 11
5.0511692162
 21
3.6056284326
  0
LINE
  5
3BC
100
AcDbEntity
  8
03__ASM_ALL_CURVES
100
AcDbLine
 62
40
  6
CONTINUOUS
 10
5.0875685912
 20
3.6083246827
 11
5.0835242162
 21
3.6056284326
  0
LINE
  5
3BD
100
AcDbEntity
  8
THREAD
100
AcDbLine
 62
7
  6
CONTINUOUS
 10
3.8985234182
 20
4.4651233776
 11
3.4630870841
 21
4.4651233776
  0
LINE
  5
3BE
100
AcDbEntity
  8
03__ASM_ALL_CURVES
100
AcDbLine
 62
40
  6
CONTINUOUS
 10
6.8851248114
 20
3.6056284326
 11
6.8810804364
 21
3.6083246827
  0
LINE
  5
3BF
100
AcDbEntity
  8
03__ASM_ALL_CURVES
100
AcDbLine
 62
40
  6
CONTINUOUS
 10
4.8512884178
 20
4.9687064326
 11
4.8566809178
 21
4.9651114335
  0
LINE
  5
3C0
100
AcDbEntity
  8
03__ASM_ALL_CURVES
100
AcDbLine
 62
40
  6
CONTINUOUS
 10
6.9174798114
 20
3.6056284326
 11
6.9134354364
 21
3.6083246827
  0
LINE
  5
3C1
100
AcDbEntity
  8
03__ASM_ALL_CURVES
100
AcDbLine
 62
40
  6
CONTINUOUS
 10
6.8891691864
 20
3.6379834326
 11
6.8932135614
 21
3.6352871832
  0
LINE
  5
3C2
100
AcDbEntity
  8
03__ASM_ALL_CURVES
100
AcDbLine
 62
40
  6
CONTINUOUS
 10
4.9402646678
 20
4.9687064326
 11
4.9456571678
 21
4.9651114335
  0
LINE
  5
3C3
100
AcDbEntity
  8
03__ASM_ALL_CURVES
100
AcDbLine
 62
40
  6
CONTINUOUS
 10
6.932646252
 20
3.6523634326
 11
6.928601877
 21
3.6550596827
  0
LINE
  5
3C4
100
AcDbEntity
  8
03__ASM_ALL_CURVES
100
AcDbLine
 62
40
  6
CONTINUOUS
 10
6.904335627
 20
3.6847184326
 11
6.908380002
 21
3.6820221832
  0
LINE
  5
3C5
100
AcDbEntity
  8
03__ASM_ALL_CURVES
100
AcDbLine
 62
40
  6
CONTINUOUS
 10
6.936690627
 20
3.6847184326
 11
6.940735002
 21
3.6820221832
  0
LINE
  5
3C6
100
AcDbEntity
  8
03__ASM_ALL_CURVES
100
AcDbLine
 62
40
  6
CONTINUOUS
 10
6.969045627
 20
3.6847184326
 11
6.973090002
 21
3.6820221832
  0
LINE
  5
3C7
100
AcDbEntity
  8
03__ASM_ALL_CURVES
100
AcDbLine
 62
40
  6
CONTINUOUS
 10
7.033755627
 20
3.6847184326
 11
7.037800002
 21
3.6820221832
  0
LINE
  5
3C8
100
AcDbEntity
  8
03__ASM_ALL_CURVES
100
AcDbLine
 62
40
  6
CONTINUOUS
 10
6.0810345534
 20
3.6685409326
 11
6.0871011159
 21
3.6523634326
  0
LINE
  5
3C9
100
AcDbEntity
  8
03__ASM_ALL_CURVES
100
AcDbLine
 62
40
  6
CONTINUOUS
 10
6.0365464284
 20
3.6604521826
 11
6.0345242409
 21
3.6685409326
  0
LINE
  5
3CA
100
AcDbEntity
  8
03__ASM_ALL_CURVES
100
AcDbLine
 62
40
  6
CONTINUOUS
 10
6.0567683034
 20
3.6766296826
 11
6.0587904909
 21
3.6685409326
  0
LINE
  5
3CB
100
AcDbEntity
  8
03__ASM_ALL_CURVES
100
AcDbLine
 62
40
  6
CONTINUOUS
 10
6.0062136159
 20
3.6523634326
 11
6.0062136159
 21
3.6847184326
  0
LINE
  5
3CC
100
AcDbEntity
  8
03__ASM_ALL_CURVES
100
AcDbLine
 62
40
  6
CONTINUOUS
 10
6.0102580296
 20
3.6379834326
 11
6.0102580296
 21
3.6056284326
  0
LINE
  5
3CD
100
AcDbEntity
  8
03__ASM_ALL_CURVES
100
AcDbLine
 62
40
  6
CONTINUOUS
 10
6.0223911159
 20
3.679325932
 11
6.0223911159
 21
3.6739334332
  0
LINE
  5
3CE
100
AcDbEntity
  8
03__ASM_ALL_CURVES
100
AcDbLine
 62
40
  6
CONTINUOUS
 10
6.0345242796
 20
3.6056284326
 11
6.0345242796
 21
3.6379834326
  0
LINE
  5
3CF
100
AcDbEntity
  8
03__ASM_ALL_CURVES
100
AcDbLine
 62
40
  6
CONTINUOUS
 10
6.0507017796
 20
3.6056284326
 11
6.0507017796
 21
3.6379834326
  0
LINE
  5
3D0
100
AcDbEntity
  8
03__ASM_ALL_CURVES
100
AcDbLine
 62
40
  6
CONTINUOUS
 10
6.0668792796
 20
3.6379834326
 11
6.0668792796
 21
3.6056284326
  0
LINE
  5
3D1
100
AcDbEntity
  8
03__ASM_ALL_CURVES
100
AcDbLine
 62
40
  6
CONTINUOUS
 10
6.0709236159
 20
3.6523634326
 11
6.0709236159
 21
3.6847184326
  0
LINE
  5
3D2
100
AcDbEntity
  8
03__ASM_ALL_CURVES
100
AcDbLine
 62
40
  6
CONTINUOUS
 10
6.0871011159
 20
3.679325932
 11
6.0871011159
 21
3.6739334332
  0
LINE
  5
3D3
100
AcDbEntity
  8
03__ASM_ALL_CURVES
100
AcDbLine
 62
40
  6
CONTINUOUS
 10
6.0992342796
 20
3.6056284326
 11
6.0992342796
 21
3.6379834326
  0
LINE
  5
3D4
100
AcDbEntity
  8
03__ASM_ALL_CURVES
100
AcDbLine
 62
40
  6
CONTINUOUS
 10
6.1113673659
 20
3.6847184326
 11
6.1113673659
 21
3.6523634326
  0
LINE
  5
3D5
100
AcDbEntity
  8
03__ASM_ALL_CURVES
100
AcDbLine
 62
40
  6
CONTINUOUS
 10
6.1396780296
 20
3.6379834326
 11
6.1396780296
 21
3.6056284326
  0
LINE
  5
3D6
100
AcDbEntity
  8
03__ASM_ALL_CURVES
100
AcDbLine
 62
40
  6
CONTINUOUS
 10
6.1518111159
 20
3.679325932
 11
6.1518111159
 21
3.6766296826
  0
LINE
  5
3D7
100
AcDbEntity
  8
0
100
AcDbLine
 62
7
  6
CONTINUOUS
 10
7.4395234182
 20
4.5032184326
 11
7.4120234182
 21
4.5032184326
  0
LINE
  5
3D8
100
AcDbEntity
  8
THREAD
100
AcDbLine
 62
7
  6
CONTINUOUS
 10
3.8985234182
 20
4.5164159601
 11
3.4630870841
 21
4.5164159601
  0
LINE
  5
3D9
100
AcDbEntity
  8
0
100
AcDbLine
 62
7
  6
CONTINUOUS
 10
6.5295234182
 20
4.5207184326
 11
6.5020234182
 21
4.5207184326
  0
LINE
  5
3DA
100
AcDbEntity
  8
0
100
AcDbLine
 62
7
  6
CONTINUOUS
 10
5.3235234182
 20
4.5267184326
 11
5.0215234182
 21
4.5267184326
  0
LINE
  5
3DB
100
AcDbEntity
  8
0
100
AcDbLine
 62
7
  6
CONTINUOUS
 10
4.9125234182
 20
4.5267184326
 11
4.8670234182
 21
4.5267184326
  0
LINE
  5
3DC
100
AcDbEntity
  8
0
100
AcDbLine
 62
7
  6
CONTINUOUS
 10
7.1310234182
 20
4.5279684326
 11
7.0615234182
 21
4.5279684326
  0
LINE
  5
3DD
100
AcDbEntity
  8
0
100
AcDbLine
 62
7
  6
CONTINUOUS
 10
6.9525234182
 20
4.5279684326
 11
6.6405234182
 21
4.5279684326
  0
LINE
  5
3DE
100
AcDbEntity
  8
0
100
AcDbLine
 62
7
  6
CONTINUOUS
 10
6.2235234182
 20
4.5279684326
 11
6.0580234182
 21
4.5279684326
  0
LINE
  5
3DF
100
AcDbEntity
  8
0
100
AcDbLine
 62
7
  6
CONTINUOUS
 10
5.9180234182
 20
4.5279684326
 11
5.7405234182
 21
4.5279684326
  0
LINE
  5
3E0
100
AcDbEntity
  8
0
100
AcDbLine
 62
7
  6
CONTINUOUS
 10
5.6295234182
 20
4.5392184326
 11
5.6020234182
 21
4.5392184326
  0
LINE
  5
3E1
100
AcDbEntity
  8
0
100
AcDbLine
 62
7
  6
CONTINUOUS
 10
7.5095234182
 20
4.5577184326
 11
7.4395234182
 21
4.5577184326
  0
LINE
  5
3E2
100
AcDbEntity
  8
0
100
AcDbLine
 62
7
  6
CONTINUOUS
 10
7.2420234182
 20
4.5577184326
 11
7.1740575617
 21
4.5577184326
  0
LINE
  5
3E3
100
AcDbEntity
  8
0
100
AcDbLine
 62
7
  6
CONTINUOUS
 10
6.3320234182
 20
4.5747184326
 11
6.3820234182
 21
4.5747184326
  0
LINE
  5
3E4
100
AcDbEntity
  8
0
100
AcDbLine
 62
7
  6
CONTINUOUS
 10
6.4520234182
 20
4.5747184326
 11
6.5020234182
 21
4.5747184326
  0
LINE
  5
3E5
100
AcDbEntity
  8
0
100
AcDbLine
 62
7
  6
CONTINUOUS
 10
7.2420234182
 20
4.5747184326
 11
7.2920234182
 21
4.5747184326
  0
LINE
  5
3E6
100
AcDbEntity
  8
0
100
AcDbLine
 62
7
  6
CONTINUOUS
 10
7.3620234182
 20
4.5747184326
 11
7.4120234182
 21
4.5747184326
  0
LINE
  5
3E7
100
AcDbEntity
  8
0
100
AcDbLine
 62
7
  6
CONTINUOUS
 10
6.5945234182
 20
4.5757184326
 11
6.5295234182
 21
4.5757184326
  0
LINE
  5
3E8
100
AcDbEntity
  8
0
100
AcDbLine
 62
7
  6
CONTINUOUS
 10
6.3320234182
 20
4.5757184326
 11
6.2695234182
 21
4.5757184326
  0
LINE
  5
3E9
100
AcDbEntity
  8
0
100
AcDbLine
 62
7
  6
CONTINUOUS
 10
4.8570234182
 20
4.5897184326
 11
4.6790234182
 21
4.5897184326
  0
LINE
  5
3EA
100
AcDbEntity
  8
0
100
AcDbLine
 62
7
  6
CONTINUOUS
 10
5.4320234182
 20
4.5932184326
 11
5.4820234182
 21
4.5932184326
  0
LINE
  5
3EB
100
AcDbEntity
  8
0
100
AcDbLine
 62
7
  6
CONTINUOUS
 10
5.5520234182
 20
4.5932184326
 11
5.6020234182
 21
4.5932184326
  0
LINE
  5
3EC
100
AcDbEntity
  8
0
100
AcDbLine
 62
7
  6
CONTINUOUS
 10
5.3695234182
 20
4.5937184326
 11
5.4320234182
 21
4.5937184326
  0
LINE
  5
3ED
100
AcDbEntity
  8
0
100
AcDbLine
 62
7
  6
CONTINUOUS
 10
5.6295234182
 20
4.5937184326
 11
5.6945234182
 21
4.5937184326
  0
LINE
  5
3EE
100
AcDbEntity
  8
0
100
AcDbLine
 62
7
  6
CONTINUOUS
 10
4.3585178647
 20
4.5972184326
 11
4.3460234182
 21
4.5972184326
  0
LINE
  5
3EF
100
AcDbEntity
  8
0
100
AcDbLine
 62
7
  6
CONTINUOUS
 10
4.6345234182
 20
4.6342184326
 11
4.3873853782
 21
4.6342184326
  0
LINE
  5
3F0
100
AcDbEntity
  8
03__ASM_ALL_CURVES
100
AcDbLine
 62
40
  6
CONTINUOUS
 10
3.4721634182
 20
4.9051947659
 11
3.4290234182
 21
4.9111864326
  0
LINE
  5
3F1
100
AcDbEntity
  8
03__ASM_ALL_CURVES
100
AcDbLine
 62
40
  6
CONTINUOUS
 10
3.4721634182
 20
4.9039964326
 11
3.4290234182
 21
4.9111864326
  0
LINE
  5
3F2
100
AcDbEntity
  8
03__ASM_ALL_CURVES
100
AcDbLine
 62
40
  6
CONTINUOUS
 10
4.2221634182
 20
4.9039964326
 11
4.1358834182
 21
4.9183764326
  0
LINE
  5
3F3
100
AcDbEntity
  8
03__ASM_ALL_CURVES
100
AcDbLine
 62
40
  6
CONTINUOUS
 10
6.1538333034
 20
3.6631484329
 11
6.1538333034
 21
3.6604521826
  0
LINE
  5
3F4
100
AcDbEntity
  8
0
100
AcDbLine
 62
7
  6
CONTINUOUS
 10
6.2235234182
 20
3.9654684326
 11
6.2235234182
 21
4.5279684326
  0
LINE
  5
3F5
100
AcDbEntity
  8
0
100
AcDbLine
 62
7
  6
CONTINUOUS
 10
6.2695234182
 20
3.9177274002
 11
6.2695234182
 21
4.575709465
  0
LINE
  5
3F6
100
AcDbEntity
  8
03__ASM_ALL_CURVES
100
AcDbLine
 62
40
  6
CONTINUOUS
 10
6.0345242409
 20
3.6685409326
 11
6.0365464284
 21
3.6766296826
  0
LINE
  5
3F7
100
AcDbEntity
  8
03__ASM_ALL_CURVES
100
AcDbLine
 62
40
  6
CONTINUOUS
 10
6.0587904909
 20
3.6685409326
 11
6.0567683034
 21
3.6604521826
  0
LINE
  5
3F8
100
AcDbEntity
  8
0
100
AcDbLine
 62
7
  6
CONTINUOUS
 10
4.2960234182
 20
4.6512184326
 11
4.3460234182
 21
4.6512184326
  0
LINE
  5
3F9
100
AcDbEntity
  8
0
100
AcDbLine
 62
7
  6
CONTINUOUS
 10
4.2260234182
 20
4.6517184326
 11
4.2037458501
 21
4.6517184326
  0
LINE
  5
3FA
100
AcDbEntity
  8
THREAD
100
AcDbLine
 62
7
  6
CONTINUOUS
 10
4.1760234182
 20
4.6742184326
 11
4.1260234182
 21
4.6742184326
  0
LINE
  5
3FB
100
AcDbEntity
  8
THREAD
100
AcDbLine
 62
7
  6
CONTINUOUS
 10
4.1060234182
 20
4.6742184326
 11
3.9600234182
 21
4.6742184326
  0
LINE
  5
3FC
100
AcDbEntity
  8
THREAD
100
AcDbLine
 62
7
  6
CONTINUOUS
 10
3.8985234182
 20
4.7348209051
 11
3.4630870841
 21
4.7348209051
  0
LINE
  5
3FD
100
AcDbEntity
  8
THREAD
100
AcDbLine
 62
7
  6
CONTINUOUS
 10
3.8985234182
 20
4.7357184326
 11
3.4630870841
 21
4.7357184326
  0
LINE
  5
3FE
100
AcDbEntity
  8
03__ASM_ALL_CURVES
100
AcDbLine
 62
40
  6
CONTINUOUS
 10
3.4721634182
 20
4.9087897659
 11
3.4290234182
 21
4.9111864326
  0
LINE
  5
3FF
100
AcDbEntity
  8
03__ASM_ALL_CURVES
100
AcDbLine
 62
40
  6
CONTINUOUS
 10
3.4721634182
 20
4.9075914326
 11
3.4290234182
 21
4.9111864326
  0
LINE
  5
400
100
AcDbEntity
  8
03__ASM_ALL_CURVES
100
AcDbLine
 62
40
  6
CONTINUOUS
 10
4.1358834182
 20
4.9147814326
 11
4.2221634182
 21
4.9075914326
  0
LINE
  5
401
100
AcDbEntity
  8
03__ASM_ALL_CURVES
100
AcDbLine
 62
40
  6
CONTINUOUS
 10
3.4721634182
 20
4.9063930993
 11
3.4290234182
 21
4.9111864326
  0
LINE
  5
402
100
AcDbEntity
  8
03__ASM_ALL_CURVES
100
AcDbLine
 62
40
  6
CONTINUOUS
 10
4.1358834182
 20
4.9159797659
 11
4.2221634182
 21
4.9063930993
  0
LINE
  5
403
100
AcDbEntity
  8
03__ASM_ALL_CURVES
100
AcDbLine
 62
40
  6
CONTINUOUS
 10
4.1358834182
 20
4.9171780993
 11
4.2221634182
 21
4.9051947659
  0
LINE
  5
404
100
AcDbEntity
  8
03__ASM_ALL_CURVES
100
AcDbLine
 62
40
  6
CONTINUOUS
 10
6.8810804364
 20
3.6083246827
 11
6.8770360614
 21
3.6137171826
  0
LINE
  5
405
100
AcDbEntity
  8
03__ASM_ALL_CURVES
100
AcDbLine
 62
40
  6
CONTINUOUS
 10
6.9134354364
 20
3.6083246827
 11
6.9114132489
 21
3.6110209328
  0
LINE
  5
406
100
AcDbEntity
  8
03__ASM_ALL_CURVES
100
AcDbLine
 62
40
  6
CONTINUOUS
 10
6.8932135614
 20
3.6352871832
 11
6.8972579364
 21
3.6298946826
  0
LINE
  5
407
100
AcDbEntity
  8
0
100
AcDbLine
 62
7
  6
CONTINUOUS
 10
6.3320234182
 20
3.9177274002
 11
6.3320234182
 21
4.575709465
  0
LINE
  5
408
100
AcDbEntity
  8
0
100
AcDbLine
 62
7
  6
CONTINUOUS
 10
6.3820234182
 20
3.9187189313
 11
6.3820234182
 21
4.5747179339
  0
LINE
  5
409
100
AcDbEntity
  8
0
100
AcDbLine
 62
7
  6
CONTINUOUS
 10
6.4520234182
 20
3.9187189313
 11
6.4520234182
 21
4.5747179339
  0
LINE
  5
40A
100
AcDbEntity
  8
03__ASM_ALL_CURVES
100
AcDbLine
 62
40
  6
CONTINUOUS
 10
6.0223911159
 20
3.6739334332
 11
6.0203689284
 21
3.671237182
  0
LINE
  5
40B
100
AcDbEntity
  8
03__ASM_ALL_CURVES
100
AcDbLine
 62
40
  6
CONTINUOUS
 10
6.0365464284
 20
3.6766296826
 11
6.0405908034
 21
3.6820221832
  0
LINE
  5
40C
100
AcDbEntity
  8
03__ASM_ALL_CURVES
100
AcDbLine
 62
40
  6
CONTINUOUS
 10
6.0567683034
 20
3.6604521826
 11
6.0527239284
 21
3.6550596827
  0
LINE
  5
40D
100
AcDbEntity
  8
03__ASM_ALL_CURVES
100
AcDbLine
 62
40
  6
CONTINUOUS
 10
6.0871011159
 20
3.6739334332
 11
6.0850789284
 21
3.671237182
  0
LINE
  5
40E
100
AcDbEntity
  8
03__ASM_ALL_CURVES
100
AcDbLine
 62
40
  6
CONTINUOUS
 10
6.1518111159
 20
3.6766296826
 11
6.1497889284
 21
3.6739334332
  0
LINE
  5
40F
100
AcDbEntity
  8
03__ASM_ALL_CURVES
100
AcDbLine
 62
40
  6
CONTINUOUS
 10
6.1538333034
 20
3.6604521826
 11
6.1497889284
 21
3.6550596827
  0
LINE
  5
410
100
AcDbEntity
  8
03__ASM_ALL_CURVES
100
AcDbLine
 62
40
  6
CONTINUOUS
 10
6.0203689284
 20
3.671237182
 11
6.0163245534
 21
3.6685409326
  0
LINE
  5
411
100
AcDbEntity
  8
03__ASM_ALL_CURVES
100
AcDbLine
 62
40
  6
CONTINUOUS
 10
6.0405908034
 20
3.6820221832
 11
6.0446351784
 21
3.6847184326
  0
LINE
  5
412
100
AcDbEntity
  8
03__ASM_ALL_CURVES
100
AcDbLine
 62
40
  6
CONTINUOUS
 10
6.0527239284
 20
3.6550596827
 11
6.0486795534
 21
3.6523634326
  0
LINE
  5
413
100
AcDbEntity
  8
03__ASM_ALL_CURVES
100
AcDbLine
 62
40
  6
CONTINUOUS
 10
6.0850789284
 20
3.671237182
 11
6.0810345534
 21
3.6685409326
  0
LINE
  5
414
100
AcDbEntity
  8
03__ASM_ALL_CURVES
100
AcDbLine
 62
40
  6
CONTINUOUS
 10
4.1358834182
 20
4.9099880993
 11
4.2221634182
 21
4.9123847659
  0
LINE
  5
415
100
AcDbEntity
  8
03__ASM_ALL_CURVES
100
AcDbLine
 62
40
  6
CONTINUOUS
 10
3.4290234182
 20
4.9111864326
 11
4.9986834182
 21
4.9111864326
  0
LINE
  5
416
100
AcDbEntity
  8
03__ASM_ALL_CURVES
100
AcDbLine
 62
40
  6
CONTINUOUS
 10
4.9052134178
 20
4.9255664326
 11
4.8836434178
 21
4.9255664326
  0
LINE
  5
417
100
AcDbEntity
  8
03__ASM_ALL_CURVES
100
AcDbLine
 62
40
  6
CONTINUOUS
 10
4.8512884178
 20
4.9255664326
 11
4.8405034178
 21
4.9255664326
  0
LINE
  5
418
100
AcDbEntity
  8
03__ASM_ALL_CURVES
100
AcDbLine
 62
40
  6
CONTINUOUS
 10
4.7677046678
 20
4.9255664326
 11
4.7623121678
 21
4.9255664326
  0
LINE
  5
419
100
AcDbEntity
  8
03__ASM_ALL_CURVES
100
AcDbLine
 62
40
  6
CONTINUOUS
 10
4.7245646678
 20
4.9255664326
 11
4.7191721678
 21
4.9255664326
  0
LINE
  5
41A
100
AcDbEntity
  8
03__ASM_ALL_CURVES
100
AcDbLine
 62
40
  6
CONTINUOUS
 10
4.6382846678
 20
4.9255664326
 11
4.6328921678
 21
4.9255664326
  0
LINE
  5
41B
100
AcDbEntity
  8
03__ASM_ALL_CURVES
100
AcDbLine
 62
40
  6
CONTINUOUS
 10
4.5520046678
 20
4.9255664326
 11
4.5466121678
 21
4.9255664326
  0
LINE
  5
41C
100
AcDbEntity
  8
03__ASM_ALL_CURVES
100
AcDbLine
 62
40
  6
CONTINUOUS
 10
4.3363046678
 20
4.9255664326
 11
4.3309121678
 21
4.9255664326
  0
LINE
  5
41D
100
AcDbEntity
  8
03__ASM_ALL_CURVES
100
AcDbLine
 62
40
  6
CONTINUOUS
 10
4.2931646678
 20
4.9255664326
 11
4.2877721678
 21
4.9255664326
  0
LINE
  5
41E
100
AcDbEntity
  8
03__ASM_ALL_CURVES
100
AcDbLine
 62
40
  6
CONTINUOUS
 10
3.8903034182
 20
4.9255664326
 11
3.8876071682
 21
4.9255664326
  0
LINE
  5
41F
100
AcDbEntity
  8
03__ASM_ALL_CURVES
100
AcDbLine
 62
40
  6
CONTINUOUS
 10
3.7204396682
 20
4.9255664326
 11
3.7150471682
 21
4.9255664326
  0
LINE
  5
420
100
AcDbEntity
  8
03__ASM_ALL_CURVES
100
AcDbLine
 62
40
  6
CONTINUOUS
 10
3.6314634182
 20
4.9255664326
 11
3.6287671682
 21
4.9255664326
  0
LINE
  5
421
100
AcDbEntity
  8
03__ASM_ALL_CURVES
100
AcDbLine
 62
40
  6
CONTINUOUS
 10
4.2365434178
 20
4.9255664326
 11
4.2581134178
 21
4.9255664326
  0
LINE
  5
422
100
AcDbEntity
  8
03__ASM_ALL_CURVES
100
AcDbLine
 62
40
  6
CONTINUOUS
 10
4.7973634178
 20
4.9255664326
 11
4.8189334178
 21
4.9255664326
  0
LINE
  5
423
100
AcDbEntity
  8
03__ASM_ALL_CURVES
100
AcDbLine
 62
40
  6
CONTINUOUS
 10
3.9657984182
 20
4.9363514326
 11
3.9900646682
 21
4.9363514326
  0
LINE
  5
424
100
AcDbEntity
  8
03__ASM_ALL_CURVES
100
AcDbLine
 62
40
  6
CONTINUOUS
 10
4.3686596678
 20
4.939946433
 11
4.3848371678
 21
4.939946433
  0
LINE
  5
425
100
AcDbEntity
  8
03__ASM_ALL_CURVES
100
AcDbLine
 62
40
  6
CONTINUOUS
 10
4.9402646678
 20
4.9471364326
 11
4.9267834178
 21
4.9471364326
  0
LINE
  5
426
100
AcDbEntity
  8
03__ASM_ALL_CURVES
100
AcDbLine
 62
40
  6
CONTINUOUS
 10
4.5493084178
 20
4.9471364326
 11
4.5600934178
 21
4.9471364326
  0
LINE
  5
427
100
AcDbEntity
  8
03__ASM_ALL_CURVES
100
AcDbLine
 62
40
  6
CONTINUOUS
 10
4.6679434178
 20
4.9471364326
 11
4.6895134178
 21
4.9471364326
  0
LINE
  5
428
100
AcDbEntity
  8
03__ASM_ALL_CURVES
100
AcDbLine
 62
40
  6
CONTINUOUS
 10
4.8836434178
 20
4.9471364326
 11
4.8971246678
 21
4.9471364326
  0
LINE
  5
429
100
AcDbEntity
  8
03__ASM_ALL_CURVES
100
AcDbLine
 62
40
  6
CONTINUOUS
 10
3.7150471682
 20
4.9543264335
 11
3.7204396682
 21
4.9543264335
  0
LINE
  5
42A
100
AcDbEntity
  8
03__ASM_ALL_CURVES
100
AcDbLine
 62
40
  6
CONTINUOUS
 10
3.4721634182
 20
4.9099880993
 11
3.4290234182
 21
4.9111864326
  0
LINE
  5
42B
100
AcDbEntity
  8
03__ASM_ALL_CURVES
100
AcDbLine
 62
40
  6
CONTINUOUS
 10
4.1358834182
 20
4.9123847659
 11
4.2221634182
 21
4.9099880993
  0
LINE
  5
42C
100
AcDbEntity
  8
03__ASM_ALL_CURVES
100
AcDbLine
 62
40
  6
CONTINUOUS
 10
4.1358834182
 20
4.9135830993
 11
4.2221634182
 21
4.9087897659
  0
LINE
  5
42D
100
AcDbEntity
  8
03__ASM_ALL_CURVES
100
AcDbLine
 62
40
  6
CONTINUOUS
 10
6.928601877
 20
3.6550596827
 11
6.924557502
 21
3.6604521826
  0
LINE
  5
42E
100
AcDbEntity
  8
03__ASM_ALL_CURVES
100
AcDbLine
 62
40
  6
CONTINUOUS
 10
6.908380002
 20
3.6820221832
 11
6.9104021895
 21
3.679325932
  0
LINE
  5
42F
100
AcDbEntity
  8
03__ASM_ALL_CURVES
100
AcDbLine
 62
40
  6
CONTINUOUS
 10
6.940735002
 20
3.6820221832
 11
6.944779377
 21
3.6766296826
  0
LINE
  5
430
100
AcDbEntity
  8
03__ASM_ALL_CURVES
100
AcDbLine
 62
40
  6
CONTINUOUS
 10
6.973090002
 20
3.6820221832
 11
6.9751121895
 21
3.679325932
  0
LINE
  5
431
100
AcDbEntity
  8
03__ASM_ALL_CURVES
100
AcDbLine
 62
40
  6
CONTINUOUS
 10
7.037800002
 20
3.6820221832
 11
7.0398221895
 21
3.679325932
  0
LINE
  5
432
100
AcDbEntity
  8
0
100
AcDbLine
 62
7
  6
CONTINUOUS
 10
6.5020234182
 20
3.9187189313
 11
6.5020234182
 21
4.5747179339
  0
LINE
  5
433
100
AcDbEntity
  8
0
100
AcDbLine
 62
7
  6
CONTINUOUS
 10
6.5295234182
 20
3.9177274002
 11
6.5295234182
 21
4.575709465
  0
LINE
  5
434
100
AcDbEntity
  8
0
100
AcDbLine
 62
7
  6
CONTINUOUS
 10
6.5945234182
 20
3.9177274002
 11
6.5945234182
 21
4.575709465
  0
LINE
  5
435
100
AcDbEntity
  8
0
100
AcDbLine
 62
7
  6
CONTINUOUS
 10
6.6405234182
 20
3.9654684326
 11
6.6405234182
 21
4.5279684326
  0
LINE
  5
436
100
AcDbEntity
  8
03__ASM_ALL_CURVES
100
AcDbLine
 62
40
  6
CONTINUOUS
 10
6.1376558034
 20
3.6820221832
 11
6.1417001784
 21
3.6847184326
  0
LINE
  5
437
100
AcDbEntity
  8
03__ASM_ALL_CURVES
100
AcDbLine
 62
40
  6
CONTINUOUS
 10
6.1497889284
 20
3.6739334332
 11
6.1457445534
 21
3.671237182
  0
LINE
  5
438
100
AcDbEntity
  8
03__ASM_ALL_CURVES
100
AcDbLine
 62
40
  6
CONTINUOUS
 10
6.1497889284
 20
3.6550596827
 11
6.1457445534
 21
3.6523634326
  0
LINE
  5
439
100
AcDbEntity
  8
03__ASM_ALL_CURVES
100
AcDbLine
 62
40
  6
CONTINUOUS
 10
4.1358834182
 20
4.9051947659
 11
4.2221634182
 21
4.9171780993
  0
LINE
  5
43A
100
AcDbEntity
  8
03__ASM_ALL_CURVES
100
AcDbLine
 62
40
  6
CONTINUOUS
 10
4.1358834182
 20
4.9063930993
 11
4.2221634182
 21
4.9159797659
  0
LINE
  5
43B
100
AcDbEntity
  8
03__ASM_ALL_CURVES
100
AcDbLine
 62
40
  6
CONTINUOUS
 10
4.1358834182
 20
4.9075914326
 11
4.2221634182
 21
4.9147814326
  0
LINE
  5
43C
100
AcDbEntity
  8
03__ASM_ALL_CURVES
100
AcDbLine
 62
40
  6
CONTINUOUS
 10
3.4721634182
 20
4.9147814326
 11
3.4290234182
 21
4.9111864326
  0
LINE
  5
43D
100
AcDbEntity
  8
03__ASM_ALL_CURVES
100
AcDbLine
 62
40
  6
CONTINUOUS
 10
4.1358834182
 20
4.9087897659
 11
4.2221634182
 21
4.9135830993
  0
LINE
  5
43E
100
AcDbEntity
  8
03__ASM_ALL_CURVES
100
AcDbLine
 62
40
  6
CONTINUOUS
 10
3.4721634182
 20
4.9135830993
 11
3.4290234182
 21
4.9111864326
  0
LINE
  5
43F
100
AcDbEntity
  8
03__ASM_ALL_CURVES
100
AcDbLine
 62
40
  6
CONTINUOUS
 10
3.4721634182
 20
4.9123847659
 11
3.4290234182
 21
4.9111864326
  0
LINE
  5
440
100
AcDbEntity
  8
03__ASM_ALL_CURVES
100
AcDbLine
 62
40
  6
CONTINUOUS
 10
4.6382846678
 20
4.9687064326
 11
4.6328921678
 21
4.9687064326
  0
LINE
  5
441
100
AcDbEntity
  8
03__ASM_ALL_CURVES
100
AcDbLine
 62
40
  6
CONTINUOUS
 10
3.7285284182
 20
4.9687064326
 11
3.7123509182
 21
4.9687064326
  0
LINE
  5
442
100
AcDbEntity
  8
03__ASM_ALL_CURVES
100
AcDbLine
 62
40
  6
CONTINUOUS
 10
3.6853884182
 20
4.9687064326
 11
3.6638184182
 21
4.9687064326
  0
LINE
  5
443
100
AcDbEntity
  8
03__ASM_ALL_CURVES
100
AcDbLine
 62
40
  6
CONTINUOUS
 10
4.2877721678
 20
4.9687064326
 11
4.2931646678
 21
4.9687064326
  0
LINE
  5
444
100
AcDbEntity
  8
03__ASM_ALL_CURVES
100
AcDbLine
 62
40
  6
CONTINUOUS
 10
4.3309121678
 20
4.9687064326
 11
4.3363046678
 21
4.9687064326
  0
LINE
  5
445
100
AcDbEntity
  8
03__ASM_ALL_CURVES
100
AcDbLine
 62
40
  6
CONTINUOUS
 10
4.4064071678
 20
4.9687064326
 11
4.4333696678
 21
4.9687064326
  0
LINE
  5
446
100
AcDbEntity
  8
03__ASM_ALL_CURVES
100
AcDbLine
 62
40
  6
CONTINUOUS
 10
4.5466121678
 20
4.9687064326
 11
4.5520046678
 21
4.9687064326
  0
LINE
  5
447
100
AcDbEntity
  8
03__ASM_ALL_CURVES
100
AcDbLine
 62
40
  6
CONTINUOUS
 10
4.7191721678
 20
4.9687064326
 11
4.7245646678
 21
4.9687064326
  0
LINE
  5
448
100
AcDbEntity
  8
03__ASM_ALL_CURVES
100
AcDbLine
 62
40
  6
CONTINUOUS
 10
4.8405034178
 20
4.9687064326
 11
4.8512884178
 21
4.9687064326
  0
LINE
  5
449
100
AcDbEntity
  8
03__ASM_ALL_CURVES
100
AcDbLine
 62
40
  6
CONTINUOUS
 10
4.8836434178
 20
4.9687064326
 11
4.9052134178
 21
4.9687064326
  0
LINE
  5
44A
100
AcDbEntity
  8
03__ASM_ALL_CURVES
100
AcDbLine
 62
40
  6
CONTINUOUS
 10
4.9267834178
 20
4.9687064326
 11
4.9402646678
 21
4.9687064326
  0
LINE
  5
44B
100
AcDbEntity
  8
03__ASM_ALL_CURVES
100
AcDbLine
 62
40
  6
CONTINUOUS
 10
4.1358834182
 20
4.9039964326
 11
4.2221634182
 21
4.9183764326
  0
LINE
  5
44C
100
AcDbEntity
  8
03__ASM_ALL_CURVES
100
AcDbLine
 62
40
  6
CONTINUOUS
 10
3.4290234182
 20
4.9111864326
 11
3.4721634182
 21
4.9183764326
  0
LINE
  5
44D
100
AcDbEntity
  8
03__ASM_ALL_CURVES
100
AcDbLine
 62
40
  6
CONTINUOUS
 10
3.4721634182
 20
4.9171780993
 11
3.4290234182
 21
4.9111864326
  0
LINE
  5
44E
100
AcDbEntity
  8
03__ASM_ALL_CURVES
100
AcDbLine
 62
40
  6
CONTINUOUS
 10
3.4721634182
 20
4.9159797659
 11
3.4290234182
 21
4.9111864326
  0
LINE
  5
44F
100
AcDbEntity
  8
03__ASM_ALL_CURVES
100
AcDbLine
 62
40
  6
CONTINUOUS
 10
6.969045627
 20
3.6685409326
 11
6.9751121895
 21
3.6523634326
  0
LINE
  5
450
100
AcDbEntity
  8
03__ASM_ALL_CURVES
100
AcDbLine
 62
40
  6
CONTINUOUS
 10
6.8770360614
 20
3.6137171826
 11
6.8750138739
 21
3.6218059326
  0
LINE
  5
451
100
AcDbEntity
  8
03__ASM_ALL_CURVES
100
AcDbLine
 62
40
  6
CONTINUOUS
 10
6.8972579364
 20
3.6298946826
 11
6.8992801239
 21
3.6218059326
  0
LINE
  5
452
100
AcDbEntity
  8
03__ASM_ALL_CURVES
100
AcDbLine
 62
40
  6
CONTINUOUS
 10
6.924557502
 20
3.6604521826
 11
6.9225353145
 21
3.6685409326
  0
LINE
  5
453
100
AcDbEntity
  8
03__ASM_ALL_CURVES
100
AcDbLine
 62
40
  6
CONTINUOUS
 10
6.944779377
 20
3.6766296826
 11
6.9468015645
 21
3.6685409326
  0
LINE
  5
454
100
AcDbEntity
  8
03__ASM_ALL_CURVES
100
AcDbLine
 62
40
  6
CONTINUOUS
 10
6.8942246895
 20
3.6523634326
 11
6.8942246895
 21
3.6847184326
  0
LINE
  5
455
100
AcDbEntity
  8
03__ASM_ALL_CURVES
100
AcDbLine
 62
40
  6
CONTINUOUS
 10
6.9104021895
 20
3.679325932
 11
6.9104021895
 21
3.6739334332
  0
LINE
  5
456
100
AcDbEntity
  8
03__ASM_ALL_CURVES
100
AcDbLine
 62
40
  6
CONTINUOUS
 10
6.9114132489
 20
3.6110209328
 11
6.9114132489
 21
3.6379834326
  0
LINE
  5
457
100
AcDbEntity
  8
03__ASM_ALL_CURVES
100
AcDbLine
 62
40
  6
CONTINUOUS
 10
6.9275907489
 20
3.6379834326
 11
6.9275907489
 21
3.6110209328
  0
LINE
  5
458
100
AcDbEntity
  8
03__ASM_ALL_CURVES
100
AcDbLine
 62
40
  6
CONTINUOUS
 10
6.9518569989
 20
3.6379834326
 11
6.9518569989
 21
3.6056284326
  0
LINE
  5
459
100
AcDbEntity
  8
03__ASM_ALL_CURVES
100
AcDbLine
 62
40
  6
CONTINUOUS
 10
6.9589346895
 20
3.6523634326
 11
6.9589346895
 21
3.6847184326
  0
LINE
  5
45A
100
AcDbEntity
  8
03__ASM_ALL_CURVES
100
AcDbLine
 62
40
  6
CONTINUOUS
 10
6.9751121895
 20
3.679325932
 11
6.9751121895
 21
3.6739334332
  0
LINE
  5
45B
100
AcDbEntity
  8
03__ASM_ALL_CURVES
100
AcDbLine
 62
40
  6
CONTINUOUS
 10
6.908380002
 20
3.671237182
 11
6.904335627
 21
3.6685409326
  0
LINE
  5
45C
100
AcDbEntity
  8
03__ASM_ALL_CURVES
100
AcDbLine
 62
40
  6
CONTINUOUS
 10
6.928601877
 20
3.6820221832
 11
6.932646252
 21
3.6847184326
  0
LINE
  5
45D
100
AcDbEntity
  8
03__ASM_ALL_CURVES
100
AcDbLine
 62
40
  6
CONTINUOUS
 10
6.8810804364
 20
3.6352871832
 11
6.8851248114
 21
3.6379834326
  0
LINE
  5
45E
100
AcDbEntity
  8
03__ASM_ALL_CURVES
100
AcDbLine
 62
40
  6
CONTINUOUS
 10
6.940735002
 20
3.6550596827
 11
6.936690627
 21
3.6523634326
  0
LINE
  5
45F
100
AcDbEntity
  8
03__ASM_ALL_CURVES
100
AcDbLine
 62
40
  6
CONTINUOUS
 10
6.973090002
 20
3.671237182
 11
6.969045627
 21
3.6685409326
  0
LINE
  5
460
100
AcDbEntity
  8
03__ASM_ALL_CURVES
100
AcDbLine
 62
40
  6
CONTINUOUS
 10
6.8932135614
 20
3.6083246827
 11
6.8891691864
 21
3.6056284326
  0
LINE
  5
461
100
AcDbEntity
  8
03__ASM_ALL_CURVES
100
AcDbLine
 62
40
  6
CONTINUOUS
 10
7.9674449809
 20
4.2071734326
 11
7.9634006059
 21
4.2098696827
  0
LINE
  5
462
100
AcDbEntity
  8
03__ASM_ALL_CURVES
100
AcDbLine
 62
40
  6
CONTINUOUS
 10
7.9714893559
 20
4.2395284326
 11
7.9755337309
 21
4.2368321832
  0
LINE
  5
463
100
AcDbEntity
  8
03__ASM_ALL_CURVES
100
AcDbLine
 62
40
  6
CONTINUOUS
 10
7.9674449809
 20
4.2539084326
 11
7.9634006059
 21
4.2566046827
  0
LINE
  5
464
100
AcDbEntity
  8
03__ASM_ALL_CURVES
100
AcDbLine
 62
40
  6
CONTINUOUS
 10
6.9761232489
 20
3.6379834326
 11
6.9761232489
 21
3.6056284326
  0
LINE
  5
465
100
AcDbEntity
  8
03__ASM_ALL_CURVES
100
AcDbLine
 62
40
  6
CONTINUOUS
 10
6.9993784395
 20
3.6847184326
 11
6.9993784395
 21
3.6523634326
  0
LINE
  5
466
100
AcDbEntity
  8
03__ASM_ALL_CURVES
100
AcDbLine
 62
40
  6
CONTINUOUS
 10
7.0084782489
 20
3.6056284326
 11
7.0084782489
 21
3.6379834326
  0
LINE
  5
467
100
AcDbEntity
  8
03__ASM_ALL_CURVES
100
AcDbLine
 62
40
  6
CONTINUOUS
 10
7.0398221895
 20
3.679325932
 11
7.0398221895
 21
3.6739334332
  0
LINE
  5
468
100
AcDbEntity
  8
03__ASM_ALL_CURVES
100
AcDbLine
 62
40
  6
CONTINUOUS
 10
7.0489219989
 20
3.6379834326
 11
7.0489219989
 21
3.6056284326
  0
LINE
  5
469
100
AcDbEntity
  8
0
100
AcDbLine
 62
7
  6
CONTINUOUS
 10
7.1310234182
 20
3.9654684326
 11
7.1310234182
 21
4.5279684326
  0
LINE
  5
46A
100
AcDbEntity
  8
03__ASM_ALL_CURVES
100
AcDbLine
 62
40
  6
CONTINUOUS
 10
6.8750138739
 20
3.6218059326
 11
6.8770360614
 21
3.6298946826
  0
LINE
  5
46B
100
AcDbEntity
  8
03__ASM_ALL_CURVES
100
AcDbLine
 62
40
  6
CONTINUOUS
 10
6.8992801239
 20
3.6218059326
 11
6.8972579364
 21
3.6137171826
  0
LINE
  5
46C
100
AcDbEntity
  8
03__ASM_ALL_CURVES
100
AcDbLine
 62
40
  6
CONTINUOUS
 10
6.9225353145
 20
3.6685409326
 11
6.924557502
 21
3.6766296826
  0
LINE
  5
46D
100
AcDbEntity
  8
03__ASM_ALL_CURVES
100
AcDbLine
 62
40
  6
CONTINUOUS
 10
6.9468015645
 20
3.6685409326
 11
6.944779377
 21
3.6604521826
  0
LINE
  5
46E
100
AcDbEntity
  8
03__ASM_ALL_CURVES
100
AcDbLine
 62
40
  6
CONTINUOUS
 10
6.8770360614
 20
3.6298946826
 11
6.8810804364
 21
3.6352871832
  0
LINE
  5
46F
100
AcDbEntity
  8
03__ASM_ALL_CURVES
100
AcDbLine
 62
40
  6
CONTINUOUS
 10
6.9104021895
 20
3.6739334332
 11
6.908380002
 21
3.671237182
  0
LINE
  5
470
100
AcDbEntity
  8
03__ASM_ALL_CURVES
100
AcDbLine
 62
40
  6
CONTINUOUS
 10
6.924557502
 20
3.6766296826
 11
6.928601877
 21
3.6820221832
  0
LINE
  5
471
100
AcDbEntity
  8
03__ASM_ALL_CURVES
100
AcDbLine
 62
40
  6
CONTINUOUS
 10
6.8972579364
 20
3.6137171826
 11
6.8932135614
 21
3.6083246827
  0
LINE
  5
472
100
AcDbEntity
  8
03__ASM_ALL_CURVES
100
AcDbLine
 62
40
  6
CONTINUOUS
 10
6.944779377
 20
3.6604521826
 11
6.940735002
 21
3.6550596827
  0
LINE
  5
473
100
AcDbEntity
  8
03__ASM_ALL_CURVES
100
AcDbLine
 62
40
  6
CONTINUOUS
 10
6.9275907489
 20
3.6110209328
 11
6.9255685614
 21
3.6083246827
  0
LINE
  5
474
100
AcDbEntity
  8
03__ASM_ALL_CURVES
100
AcDbLine
 62
40
  6
CONTINUOUS
 10
6.9751121895
 20
3.6739334332
 11
6.973090002
 21
3.671237182
  0
LINE
  5
475
100
AcDbEntity
  8
03__ASM_ALL_CURVES
100
AcDbLine
 62
40
  6
CONTINUOUS
 10
7.025666877
 20
3.6820221832
 11
7.029711252
 21
3.6847184326
  0
LINE
  5
476
100
AcDbEntity
  8
03__ASM_ALL_CURVES
100
AcDbLine
 62
40
  6
CONTINUOUS
 10
6.9255685614
 20
3.6083246827
 11
6.9215241864
 21
3.6056284326
  0
LINE
  5
477
100
AcDbEntity
  8
03__ASM_ALL_CURVES
100
AcDbLine
 62
40
  6
CONTINUOUS
 10
7.037800002
 20
3.671237182
 11
7.029711252
 21
3.6658446823
  0
LINE
  5
478
100
AcDbEntity
  8
03__ASM_ALL_CURVES
100
AcDbLine
 62
40
  6
CONTINUOUS
 10
7.9431787309
 20
4.272782182
 11
7.9391343559
 21
4.2700859326
  0
LINE
  5
479
100
AcDbEntity
  8
03__ASM_ALL_CURVES
100
AcDbLine
 62
40
  6
CONTINUOUS
 10
7.9634006059
 20
4.2835671832
 11
7.9674449809
 21
4.2862634326
  0
LINE
  5
47A
100
AcDbEntity
  8
03__ASM_ALL_CURVES
100
AcDbLine
 62
40
  6
CONTINUOUS
 10
7.9755337309
 20
4.2566046827
 11
7.9714893559
 21
4.2539084326
  0
LINE
  5
47B
100
AcDbEntity
  8
03__ASM_ALL_CURVES
100
AcDbLine
 62
40
  6
CONTINUOUS
 10
8.0078887309
 20
4.272782182
 11
8.0038443559
 21
4.2700859326
  0
LINE
  5
47C
100
AcDbEntity
  8
03__ASM_ALL_CURVES
100
AcDbLine
 62
40
  6
CONTINUOUS
 10
7.9634006059
 20
4.2368321832
 11
7.9674449809
 21
4.2395284326
  0
LINE
  5
47D
100
AcDbEntity
  8
03__ASM_ALL_CURVES
100
AcDbLine
 62
40
  6
CONTINUOUS
 10
7.9755337309
 20
4.2098696827
 11
7.9714893559
 21
4.2071734326
  0
LINE
  5
47E
100
AcDbEntity
  8
03__ASM_ALL_CURVES
100
AcDbLine
 62
40
  6
CONTINUOUS
 10
8.0968649809
 20
4.2395284326
 11
8.0928206059
 21
4.2368321832
  0
LINE
  5
47F
100
AcDbEntity
  8
03__ASM_ALL_CURVES
100
AcDbLine
 62
40
  6
CONTINUOUS
 10
8.0725987309
 20
4.2098696827
 11
8.0685543559
 21
4.2071734326
  0
LINE
  5
480
100
AcDbEntity
  8
03__ASM_ALL_CURVES
100
AcDbLine
 62
40
  6
CONTINUOUS
 10
7.9391343559
 20
4.2862634326
 11
7.9431787309
 21
4.2835671832
  0
LINE
  5
481
100
AcDbEntity
  8
03__ASM_ALL_CURVES
100
AcDbLine
 62
40
  6
CONTINUOUS
 10
8.0645099809
 20
4.2071734326
 11
8.0604656059
 21
4.2098696827
  0
LINE
  5
482
100
AcDbEntity
  8
03__ASM_ALL_CURVES
100
AcDbLine
 62
40
  6
CONTINUOUS
 10
7.9714893559
 20
4.2862634326
 11
7.9755337309
 21
4.2835671832
  0
LINE
  5
483
100
AcDbEntity
  8
03__ASM_ALL_CURVES
100
AcDbLine
 62
40
  6
CONTINUOUS
 10
8.0968649809
 20
4.2071734326
 11
8.0928206059
 21
4.2098696827
  0
LINE
  5
484
100
AcDbEntity
  8
03__ASM_ALL_CURVES
100
AcDbLine
 62
40
  6
CONTINUOUS
 10
8.0038443559
 20
4.2862634326
 11
8.0078887309
 21
4.2835671832
  0
LINE
  5
485
100
AcDbEntity
  8
03__ASM_ALL_CURVES
100
AcDbLine
 62
40
  6
CONTINUOUS
 10
8.0928206059
 20
4.2287434332
 11
8.1049537309
 21
4.2206546823
  0
LINE
  5
486
100
AcDbEntity
  8
03__ASM_ALL_CURVES
100
AcDbLine
 62
40
  6
CONTINUOUS
 10
8.1049537309
 20
4.2368321832
 11
8.1009093559
 21
4.2395284326
  0
LINE
  5
487
100
AcDbEntity
  8
03__ASM_ALL_CURVES
100
AcDbLine
 62
40
  6
CONTINUOUS
 10
8.1635971684
 20
4.2395284326
 11
8.1676415434
 21
4.2368321832
  0
LINE
  5
488
100
AcDbEntity
  8
0
100
AcDbLine
 62
7
  6
CONTINUOUS
 10
7.1740575617
 20
3.9357184326
 11
7.1740575617
 21
4.5577184326
  0
LINE
  5
489
100
AcDbEntity
  8
0
100
AcDbLine
 62
7
  6
CONTINUOUS
 10
7.2420234182
 20
3.9187189313
 11
7.2420234182
 21
4.5747179339
  0
LINE
  5
48A
100
AcDbEntity
  8
0
100
AcDbLine
 62
7
  6
CONTINUOUS
 10
7.2920234182
 20
3.9187189313
 11
7.2920234182
 21
4.5747179339
  0
LINE
  5
48B
100
AcDbEntity
  8
03__ASM_ALL_CURVES
100
AcDbLine
 62
40
  6
CONTINUOUS
 10
7.025666877
 20
3.6604521826
 11
7.0236446895
 21
3.6523634326
  0
LINE
  5
48C
100
AcDbEntity
  8
03__ASM_ALL_CURVES
100
AcDbLine
 62
40
  6
CONTINUOUS
 10
7.0236446895
 20
3.679325932
 11
7.025666877
 21
3.6820221832
  0
LINE
  5
48D
100
AcDbEntity
  8
03__ASM_ALL_CURVES
100
AcDbLine
 62
40
  6
CONTINUOUS
 10
7.029711252
 20
3.6658446823
 11
7.025666877
 21
3.6604521826
  0
LINE
  5
48E
100
AcDbEntity
  8
03__ASM_ALL_CURVES
100
AcDbLine
 62
40
  6
CONTINUOUS
 10
7.0398221895
 20
3.6739334332
 11
7.037800002
 21
3.671237182
  0
LINE
  5
48F
100
AcDbEntity
  8
0
100
AcDbLine
 62
7
  6
CONTINUOUS
 10
7.5220234182
 20
3.9482184326
 11
7.5095234182
 21
3.9357184326
  0
LINE
  5
490
100
AcDbEntity
  8
03__ASM_ALL_CURVES
100
AcDbLine
 62
40
  6
CONTINUOUS
 10
8.1049537309
 20
4.2098696827
 11
8.1009093559
 21
4.2071734326
  0
LINE
  5
491
100
AcDbEntity
  8
03__ASM_ALL_CURVES
100
AcDbLine
 62
40
  6
CONTINUOUS
 10
8.1676415434
 20
4.2098696827
 11
8.1635971684
 21
4.2071734326
  0
LINE
  5
492
100
AcDbEntity
  8
0
100
AcDbLine
 62
7
  6
CONTINUOUS
 10
7.5220234182
 20
4.5452184326
 11
7.5095234182
 21
4.5577184326
  0
LINE
  5
493
100
AcDbEntity
  8
0
100
AcDbLine
 62
7
  6
CONTINUOUS
 10
7.3620234182
 20
3.9187189313
 11
7.3620234182
 21
4.5747179339
  0
LINE
  5
494
100
AcDbEntity
  8
0
100
AcDbLine
 62
7
  6
CONTINUOUS
 10
7.4120234182
 20
3.9187189313
 11
7.4120234182
 21
4.5747179339
  0
LINE
  5
495
100
AcDbEntity
  8
0
100
AcDbLine
 62
7
  6
CONTINUOUS
 10
7.4395234182
 20
3.9357269095
 11
7.4395234182
 21
4.5577099556
  0
LINE
  5
496
100
AcDbEntity
  8
0
100
AcDbLine
 62
7
  6
CONTINUOUS
 10
7.5095234182
 20
3.9357184326
 11
7.5095234182
 21
4.5577184326
  0
LINE
  5
497
100
AcDbEntity
  8
0
100
AcDbLine
 62
7
  6
CONTINUOUS
 10
7.5220234182
 20
3.9482318449
 11
7.5220234182
 21
4.5452050203
  0
LINE
  5
498
100
AcDbEntity
  8
03__ASM_ALL_CURVES
100
AcDbLine
 62
40
  6
CONTINUOUS
 10
7.9452009184
 20
4.2754784332
 11
7.9431787309
 21
4.272782182
  0
LINE
  5
499
100
AcDbEntity
  8
03__ASM_ALL_CURVES
100
AcDbLine
 62
40
  6
CONTINUOUS
 10
7.9593562309
 20
4.2781746826
 11
7.9634006059
 21
4.2835671832
  0
LINE
  5
49A
100
AcDbEntity
  8
03__ASM_ALL_CURVES
100
AcDbLine
 62
40
  6
CONTINUOUS
 10
7.9795781059
 20
4.2619971826
 11
7.9755337309
 21
4.2566046827
  0
LINE
  5
49B
100
AcDbEntity
  8
03__ASM_ALL_CURVES
100
AcDbLine
 62
40
  6
CONTINUOUS
 10
7.9593562309
 20
4.2314396826
 11
7.9634006059
 21
4.2368321832
  0
LINE
  5
49C
100
AcDbEntity
  8
03__ASM_ALL_CURVES
100
AcDbLine
 62
40
  6
CONTINUOUS
 10
8.0099109184
 20
4.2754784332
 11
8.0078887309
 21
4.272782182
  0
LINE
  5
49D
100
AcDbEntity
  8
03__ASM_ALL_CURVES
100
AcDbLine
 62
40
  6
CONTINUOUS
 10
7.9795781059
 20
4.2152621826
 11
7.9755337309
 21
4.2098696827
  0
LINE
  5
49E
100
AcDbEntity
  8
03__ASM_ALL_CURVES
100
AcDbLine
 62
40
  6
CONTINUOUS
 10
7.9634006059
 20
4.2098696827
 11
7.9593562309
 21
4.2152621826
  0
LINE
  5
49F
100
AcDbEntity
  8
03__ASM_ALL_CURVES
100
AcDbLine
 62
40
  6
CONTINUOUS
 10
7.9755337309
 20
4.2368321832
 11
7.9795781059
 21
4.2314396826
  0
LINE
  5
4A0
100
AcDbEntity
  8
03__ASM_ALL_CURVES
100
AcDbLine
 62
40
  6
CONTINUOUS
 10
7.9634006059
 20
4.2566046827
 11
7.9593562309
 21
4.2619971826
  0
LINE
  5
4A1
100
AcDbEntity
  8
03__ASM_ALL_CURVES
100
AcDbLine
 62
40
  6
CONTINUOUS
 10
7.9431787309
 20
4.2835671832
 11
7.9452009184
 21
4.280870932
  0
LINE
  5
4A2
100
AcDbEntity
  8
03__ASM_ALL_CURVES
100
AcDbLine
 62
40
  6
CONTINUOUS
 10
7.9755337309
 20
4.2835671832
 11
7.9795781059
 21
4.2781746826
  0
LINE
  5
4A3
100
AcDbEntity
  8
03__ASM_ALL_CURVES
100
AcDbLine
 62
40
  6
CONTINUOUS
 10
8.0604656059
 20
4.2098696827
 11
8.0584434184
 21
4.2125659328
  0
LINE
  5
4A4
100
AcDbEntity
  8
03__ASM_ALL_CURVES
100
AcDbLine
 62
40
  6
CONTINUOUS
 10
8.0078887309
 20
4.2835671832
 11
8.0099109184
 21
4.280870932
  0
LINE
  5
4A5
100
AcDbEntity
  8
03__ASM_ALL_CURVES
100
AcDbLine
 62
40
  6
CONTINUOUS
 10
8.0928206059
 20
4.2098696827
 11
8.0887762309
 21
4.2152621826
  0
LINE
  5
4A6
100
AcDbEntity
  8
03__ASM_ALL_CURVES
100
AcDbLine
 62
40
  6
CONTINUOUS
 10
8.0907984184
 20
4.2314396826
 11
8.0928206059
 21
4.2287434332
  0
LINE
  5
4A7
100
AcDbEntity
  8
03__ASM_ALL_CURVES
100
AcDbLine
 62
40
  6
CONTINUOUS
 10
8.1049537309
 20
4.2206546823
 11
8.1069759184
 21
4.2179584329
  0
LINE
  5
4A8
100
AcDbEntity
  8
03__ASM_ALL_CURVES
100
AcDbLine
 62
40
  6
CONTINUOUS
 10
8.1069759184
 20
4.234135932
 11
8.1049537309
 21
4.2368321832
  0
LINE
  5
4A9
100
AcDbEntity
  8
03__ASM_ALL_CURVES
100
AcDbLine
 62
40
  6
CONTINUOUS
 10
8.0746209184
 20
4.2125659328
 11
8.0725987309
 21
4.2098696827
  0
LINE
  5
4AA
100
AcDbEntity
  8
03__ASM_ALL_CURVES
100
AcDbLine
 62
40
  6
CONTINUOUS
 10
8.0928206059
 20
4.2368321832
 11
8.0907984184
 21
4.234135932
  0
LINE
  5
4AB
100
AcDbEntity
  8
03__ASM_ALL_CURVES
100
AcDbLine
 62
40
  6
CONTINUOUS
 10
8.1069759184
 20
4.2125659328
 11
8.1049537309
 21
4.2098696827
  0
LINE
  5
4AC
100
AcDbEntity
  8
03__ASM_ALL_CURVES
100
AcDbLine
 62
40
  6
CONTINUOUS
 10
8.1716859184
 20
4.2152621826
 11
8.1676415434
 21
4.2098696827
  0
LINE
  5
4AD
100
AcDbEntity
  8
03__ASM_ALL_CURVES
100
AcDbLine
 62
40
  6
CONTINUOUS
 10
8.1676415434
 20
4.2368321832
 11
8.1716859184
 21
4.2314396826
  0
LINE
  5
4AE
100
AcDbEntity
  8
03__ASM_ALL_CURVES
100
AcDbLine
 62
40
  6
CONTINUOUS
 10
7.9290234184
 20
4.2395284326
 11
7.9452009184
 21
4.2071734326
  0
LINE
  5
4AF
100
AcDbEntity
  8
03__ASM_ALL_CURVES
100
AcDbLine
 62
40
  6
CONTINUOUS
 10
7.9290234184
 20
4.2071734326
 11
7.9290234184
 21
4.2395284326
  0
LINE
  5
4B0
100
AcDbEntity
  8
03__ASM_ALL_CURVES
100
AcDbLine
 62
40
  6
CONTINUOUS
 10
7.9290234184
 20
4.2539084326
 11
7.9290234184
 21
4.2862634326
  0
LINE
  5
4B1
100
AcDbEntity
  8
03__ASM_ALL_CURVES
100
AcDbLine
 62
40
  6
CONTINUOUS
 10
7.9452009184
 20
4.280870932
 11
7.9452009184
 21
4.2754784332
  0
LINE
  5
4B2
100
AcDbEntity
  8
03__ASM_ALL_CURVES
100
AcDbLine
 62
40
  6
CONTINUOUS
 10
7.9452009184
 20
4.2071734326
 11
7.9452009184
 21
4.2395284326
  0
LINE
  5
4B3
100
AcDbEntity
  8
03__ASM_ALL_CURVES
100
AcDbLine
 62
40
  6
CONTINUOUS
 10
7.9573340434
 20
4.2700859326
 11
7.9593562309
 21
4.2781746826
  0
LINE
  5
4B4
100
AcDbEntity
  8
03__ASM_ALL_CURVES
100
AcDbLine
 62
40
  6
CONTINUOUS
 10
7.9573340434
 20
4.2233509326
 11
7.9593562309
 21
4.2314396826
  0
LINE
  5
4B5
100
AcDbEntity
  8
03__ASM_ALL_CURVES
100
AcDbLine
 62
40
  6
CONTINUOUS
 10
7.9816002934
 20
4.2700859326
 11
7.9795781059
 21
4.2619971826
  0
LINE
  5
4B6
100
AcDbEntity
  8
03__ASM_ALL_CURVES
100
AcDbLine
 62
40
  6
CONTINUOUS
 10
7.9816002934
 20
4.2233509326
 11
7.9795781059
 21
4.2152621826
  0
LINE
  5
4B7
100
AcDbEntity
  8
03__ASM_ALL_CURVES
100
AcDbLine
 62
40
  6
CONTINUOUS
 10
8.0038443559
 20
4.2700859326
 11
8.0099109184
 21
4.2539084326
  0
LINE
  5
4B8
100
AcDbEntity
  8
03__ASM_ALL_CURVES
100
AcDbLine
 62
40
  6
CONTINUOUS
 10
7.9593562309
 20
4.2152621826
 11
7.9573340434
 21
4.2233509326
  0
LINE
  5
4B9
100
AcDbEntity
  8
03__ASM_ALL_CURVES
100
AcDbLine
 62
40
  6
CONTINUOUS
 10
7.9593562309
 20
4.2619971826
 11
7.9573340434
 21
4.2700859326
  0
LINE
  5
4BA
100
AcDbEntity
  8
03__ASM_ALL_CURVES
100
AcDbLine
 62
40
  6
CONTINUOUS
 10
7.9795781059
 20
4.2314396826
 11
7.9816002934
 21
4.2233509326
  0
LINE
  5
4BB
100
AcDbEntity
  8
03__ASM_ALL_CURVES
100
AcDbLine
 62
40
  6
CONTINUOUS
 10
7.9795781059
 20
4.2781746826
 11
7.9816002934
 21
4.2700859326
  0
LINE
  5
4BC
100
AcDbEntity
  8
03__ASM_ALL_CURVES
100
AcDbLine
 62
40
  6
CONTINUOUS
 10
7.9937334184
 20
4.2539084326
 11
7.9937334184
 21
4.2862634326
  0
LINE
  5
4BD
100
AcDbEntity
  8
03__ASM_ALL_CURVES
100
AcDbLine
 62
40
  6
CONTINUOUS
 10
8.0018221684
 20
4.2395284326
 11
8.0018221684
 21
4.2071734326
  0
LINE
  5
4BE
100
AcDbEntity
  8
03__ASM_ALL_CURVES
100
AcDbLine
 62
40
  6
CONTINUOUS
 10
8.0099109184
 20
4.280870932
 11
8.0099109184
 21
4.2754784332
  0
LINE
  5
4BF
100
AcDbEntity
  8
03__ASM_ALL_CURVES
100
AcDbLine
 62
40
  6
CONTINUOUS
 10
8.0341771684
 20
4.2862634326
 11
8.0341771684
 21
4.2539084326
  0
LINE
  5
4C0
100
AcDbEntity
  8
03__ASM_ALL_CURVES
100
AcDbLine
 62
40
  6
CONTINUOUS
 10
8.0584434184
 20
4.2125659328
 11
8.0584434184
 21
4.2395284326
  0
LINE
  5
4C1
100
AcDbEntity
  8
03__ASM_ALL_CURVES
100
AcDbLine
 62
40
  6
CONTINUOUS
 10
8.0665321684
 20
4.2862634326
 11
8.0665321684
 21
4.2539084326
  0
LINE
  5
4C2
100
AcDbEntity
  8
03__ASM_ALL_CURVES
100
AcDbLine
 62
40
  6
CONTINUOUS
 10
8.0746209184
 20
4.2395284326
 11
8.0746209184
 21
4.2125659328
  0
LINE
  5
4C3
100
AcDbEntity
  8
03__ASM_ALL_CURVES
100
AcDbLine
 62
40
  6
CONTINUOUS
 10
8.0907984184
 20
4.234135932
 11
8.0907984184
 21
4.2314396826
  0
LINE
  5
4C4
100
AcDbEntity
  8
03__ASM_ALL_CURVES
100
AcDbLine
 62
40
  6
CONTINUOUS
 10
8.1069759184
 20
4.2179584329
 11
8.1069759184
 21
4.2125659328
  0
LINE
  5
4C5
100
AcDbEntity
  8
03__ASM_ALL_CURVES
100
AcDbLine
 62
40
  6
CONTINUOUS
 10
8.1231534184
 20
4.2071734326
 11
8.1231534184
 21
4.2395284326
  0
LINE
  5
4C6
100
AcDbEntity
  8
03__ASM_ALL_CURVES
100
AcDbLine
 62
40
  6
CONTINUOUS
 10
8.1555084184
 20
4.2071734326
 11
8.1555084184
 21
4.2395284326
  0
LINE
  5
4C7
100
AcDbEntity
  8
03__ASM_ALL_CURVES
100
AcDbLine
 62
40
  6
CONTINUOUS
 10
8.1737081059
 20
4.2233509326
 11
8.1716859184
 21
4.2152621826
  0
LINE
  5
4C8
100
AcDbEntity
  8
03__ASM_ALL_CURVES
100
AcDbLine
 62
40
  6
CONTINUOUS
 10
8.1716859184
 20
4.2314396826
 11
8.1737081059
 21
4.2233509326
  0
ARC
  5
4C9
100
AcDbEntity
  8
0
100
AcDbCircle
 62
7
  6
CONTINUOUS
 10
5.3235234182
 20
3.9207184326
 40
0.046
100
AcDbArc
 50
0.0000393417
 51
90.0
  0
ARC
  5
4CA
100
AcDbEntity
  8
0
100
AcDbCircle
 62
7
  6
CONTINUOUS
 10
5.3235234182
 20
4.5727184326
 40
0.046
100
AcDbArc
 50
270.0
 51
359.9999606583
  0
ARC
  5
4CB
100
AcDbEntity
  8
0
100
AcDbCircle
 62
7
  6
CONTINUOUS
 10
7.1310234182
 20
4.5739684326
 40
0.046
100
AcDbArc
 50
270.0
 51
339.3131053161
  0
ARC
  5
4CC
100
AcDbEntity
  8
0
100
AcDbCircle
 62
7
  6
CONTINUOUS
 10
7.1310234182
 20
3.9194684326
 40
0.046
100
AcDbArc
 50
20.6868946839
 51
90.0
  0
ARC
  5
4CD
100
AcDbEntity
  8
0
100
AcDbCircle
 62
7
  6
CONTINUOUS
 10
6.6405234182
 20
4.5739684326
 40
0.046
100
AcDbArc
 50
180.0000035544
 51
270.0
  0
ARC
  5
4CE
100
AcDbEntity
  8
0
100
AcDbCircle
 62
7
  6
CONTINUOUS
 10
6.6405234182
 20
3.9194684326
 40
0.046
100
AcDbArc
 50
90.0
 51
179.9999964456
  0
ARC
  5
4CF
100
AcDbEntity
  8
0
100
AcDbCircle
 62
7
  6
CONTINUOUS
 10
6.2235234182
 20
4.5739684326
 40
0.046
100
AcDbArc
 50
270.0
 51
359.9999605553
  0
ARC
  5
4D0
100
AcDbEntity
  8
0
100
AcDbCircle
 62
7
  6
CONTINUOUS
 10
6.2235234182
 20
3.9194684326
 40
0.046
100
AcDbArc
 50
0.0000394447
 51
90.0
  0
ARC
  5
4D1
100
AcDbEntity
  8
0
100
AcDbCircle
 62
7
  6
CONTINUOUS
 10
5.7405234182
 20
4.5739684326
 40
0.046
100
AcDbArc
 50
180.0000035544
 51
270.0
  0
ARC
  5
4D2
100
AcDbEntity
  8
0
100
AcDbCircle
 62
7
  6
CONTINUOUS
 10
5.7405234182
 20
3.9194684326
 40
0.046
100
AcDbArc
 50
90.0
 51
179.9999964456
  0
ARC
  5
4D3
100
AcDbEntity
  8
0
100
AcDbCircle
 62
7
  6
CONTINUOUS
 10
4.3585178647
 20
3.8832184326
 40
0.013
100
AcDbArc
 50
29.9999999996
 51
90.0
  0
ARC
  5
4D4
100
AcDbEntity
  8
0
100
AcDbCircle
 62
7
  6
CONTINUOUS
 10
4.3585178647
 20
4.6102184326
 40
0.013
100
AcDbArc
 50
270.0
 51
330.000000003
  0
ARC
  5
4D5
100
AcDbEntity
  8
0
100
AcDbCircle
 62
7
  6
CONTINUOUS
 10
4.1840234182
 20
3.8253316812
 40
0.005
100
AcDbArc
 50
120.0000000123
 51
179.9999999997
  0
ARC
  5
4D6
100
AcDbEntity
  8
0
100
AcDbCircle
 62
7
  6
CONTINUOUS
 10
4.1840234182
 20
4.6681051839
 40
0.005
100
AcDbArc
 50
180.0000000002
 51
239.9999999914
  0
ARC
  5
4D7
100
AcDbEntity
  8
0
100
AcDbCircle
 62
7
  6
CONTINUOUS
 10
4.2037458501
 20
3.8367184326
 40
0.005
100
AcDbArc
 50
90.0
 51
120.0000000158
  0
ARC
  5
4D8
100
AcDbEntity
  8
0
100
AcDbCircle
 62
7
  6
CONTINUOUS
 10
4.2037458501
 20
4.6567184326
 40
0.005
100
AcDbArc
 50
239.9999999852
 51
270.0
  0
ARC
  5
4D9
100
AcDbEntity
  8
0
100
AcDbCircle
 62
7
  6
CONTINUOUS
 10
4.1760234182
 20
3.8222184326
 40
0.003
100
AcDbArc
 50
270.0
 51
360.0
  0
ARC
  5
4DA
100
AcDbEntity
  8
0
100
AcDbCircle
 62
7
  6
CONTINUOUS
 10
4.1760234182
 20
4.6712184326
 40
0.003
100
AcDbArc
 50
0.0
 51
90.0
  0
ARC
  5
4DB
100
AcDbEntity
  8
0
100
AcDbCircle
 62
7
  6
CONTINUOUS
 10
4.1160234182
 20
4.6662184326
 40
0.002
100
AcDbArc
 50
222.3553148142
 51
317.6446851858
  0
ARC
  5
4DC
100
AcDbEntity
  8
0
100
AcDbCircle
 62
7
  6
CONTINUOUS
 10
4.1160234182
 20
3.8272184326
 40
0.002
100
AcDbArc
 50
42.3553148142
 51
137.6446851858
  0
SPLINE
  5
4DD
100
AcDbEntity
  8
0
100
AcDbSpline
 62
7
  6
CONTINUOUS
 70
0
 71
3
 72
15
 73
11
 74
9
 42
0.0000001
 43
0.0000001
 44
0.0000000001
 12
0.0
 22
0.1099409465
 32
0.0
 13
-0.0
 23
-0.1099409465
 33
0.0
 40
0.0
 40
0.0
 40
0.0
 40
0.0
 40
0.125
 40
0.25
 40
0.375
 40
0.5
 40
0.625
 40
0.75
 40
0.875
 40
1.0
 40
1.0
 40
1.0
 40
1.0
 10
7.3620234182
 20
4.5557184326
 30
0.0
 10
7.3620234182
 20
4.5602993054
 30
0.0
 10
7.3602010337
 20
4.5694610509
 30
0.0
 10
7.3524164658
 20
4.5811114802
 30
0.0
 10
7.3407660365
 20
4.5888960481
 30
0.0
 10
7.3270234182
 20
4.5916296248
 30
0.0
 10
7.3132807999
 20
4.5888960481
 30
0.0
 10
7.3016303707
 20
4.5811114802
 30
0.0
 10
7.2938458027
 20
4.5694610509
 30
0.0
 10
7.2920234182
 20
4.5602993054
 30
0.0
 10
7.2920234182
 20
4.5557184326
 30
0.0
 11
7.3620234182
 21
4.5557184326
 31
0.0
 11
7.3593592019
 21
4.5691123527
 31
0.0
 11
7.3517721556
 21
4.5804671699
 31
0.0
 11
7.3404173384
 21
4.5880542162
 31
0.0
 11
7.3270234182
 21
4.5907184326
 31
0.0
 11
7.3136294981
 21
4.5880542162
 31
0.0
 11
7.3022746809
 21
4.5804671699
 31
0.0
 11
7.2946876346
 21
4.5691123527
 31
0.0
 11
7.2920234182
 21
4.5557184326
 31
0.0
  0
SPLINE
  5
4DE
100
AcDbEntity
  8
0
100
AcDbSpline
 62
7
  6
CONTINUOUS
 70
0
 71
3
 72
15
 73
11
 74
9
 42
0.0000001
 43
0.0000001
 44
0.0000000001
 12
0.0
 22
-0.1099409465
 32
0.0
 13
-0.0
 23
0.1099409465
 33
0.0
 40
0.0
 40
0.0
 40
0.0
 40
0.0
 40
0.125
 40
0.25
 40
0.375
 40
0.5
 40
0.625
 40
0.75
 40
0.875
 40
1.0
 40
1.0
 40
1.0
 40
1.0
 10
7.3620234182
 20
3.9377184326
 30
0.0
 10
7.3620234182
 20
3.9331375598
 30
0.0
 10
7.3602010337
 20
3.9239758143
 30
0.0
 10
7.3524164658
 20
3.912325385
 30
0.0
 10
7.3407660365
 20
3.9045408171
 30
0.0
 10
7.3270234182
 20
3.9018072403
 30
0.0
 10
7.3132807999
 20
3.9045408171
 30
0.0
 10
7.3016303707
 20
3.912325385
 30
0.0
 10
7.2938458027
 20
3.9239758143
 30
0.0
 10
7.2920234182
 20
3.9331375598
 30
0.0
 10
7.2920234182
 20
3.9377184326
 30
0.0
 11
7.3620234182
 21
3.9377184326
 31
0.0
 11
7.3593592019
 21
3.9243245125
 31
0.0
 11
7.3517721556
 21
3.9129696953
 31
0.0
 11
7.3404173384
 21
3.905382649
 31
0.0
 11
7.3270234182
 21
3.9027184326
 31
0.0
 11
7.3136294981
 21
3.905382649
 31
0.0
 11
7.3022746809
 21
3.9129696953
 31
0.0
 11
7.2946876346
 21
3.9243245125
 31
0.0
 11
7.2920234182
 21
3.9377184326
 31
0.0
  0
SPLINE
  5
4DF
100
AcDbEntity
  8
0
100
AcDbSpline
 62
7
  6
CONTINUOUS
 70
0
 71
3
 72
15
 73
11
 74
9
 42
0.0000001
 43
0.0000001
 44
0.0000000001
 12
0.0
 22
0.1099409465
 32
0.0
 13
-0.0
 23
-0.1099409465
 33
0.0
 40
0.0
 40
0.0
 40
0.0
 40
0.0
 40
0.125
 40
0.25
 40
0.375
 40
0.5
 40
0.625
 40
0.75
 40
0.875
 40
1.0
 40
1.0
 40
1.0
 40
1.0
 10
6.4520234182
 20
4.5557184326
 30
0.0
 10
6.4520234182
 20
4.5602993054
 30
0.0
 10
6.4502010337
 20
4.5694610509
 30
0.0
 10
6.4424164658
 20
4.5811114802
 30
0.0
 10
6.4307660365
 20
4.5888960481
 30
0.0
 10
6.4170234182
 20
4.5916296248
 30
0.0
 10
6.4032807999
 20
4.5888960481
 30
0.0
 10
6.3916303707
 20
4.5811114802
 30
0.0
 10
6.3838458027
 20
4.5694610509
 30
0.0
 10
6.3820234182
 20
4.5602993054
 30
0.0
 10
6.3820234182
 20
4.5557184326
 30
0.0
 11
6.4520234182
 21
4.5557184326
 31
0.0
 11
6.4493592019
 21
4.5691123527
 31
0.0
 11
6.4417721556
 21
4.5804671699
 31
0.0
 11
6.4304173384
 21
4.5880542162
 31
0.0
 11
6.4170234182
 21
4.5907184326
 31
0.0
 11
6.4036294981
 21
4.5880542162
 31
0.0
 11
6.3922746809
 21
4.5804671699
 31
0.0
 11
6.3846876346
 21
4.5691123527
 31
0.0
 11
6.3820234182
 21
4.5557184326
 31
0.0
  0
SPLINE
  5
4E0
100
AcDbEntity
  8
0
100
AcDbSpline
 62
7
  6
CONTINUOUS
 70
0
 71
3
 72
15
 73
11
 74
9
 42
0.0000001
 43
0.0000001
 44
0.0000000001
 12
0.0
 22
-0.1099409465
 32
0.0
 13
-0.0
 23
0.1099409465
 33
0.0
 40
0.0
 40
0.0
 40
0.0
 40
0.0
 40
0.125
 40
0.25
 40
0.375
 40
0.5
 40
0.625
 40
0.75
 40
0.875
 40
1.0
 40
1.0
 40
1.0
 40
1.0
 10
6.4520234182
 20
3.9377184326
 30
0.0
 10
6.4520234182
 20
3.9331375598
 30
0.0
 10
6.4502010337
 20
3.9239758143
 30
0.0
 10
6.4424164658
 20
3.912325385
 30
0.0
 10
6.4307660365
 20
3.9045408171
 30
0.0
 10
6.4170234182
 20
3.9018072403
 30
0.0
 10
6.4032807999
 20
3.9045408171
 30
0.0
 10
6.3916303707
 20
3.912325385
 30
0.0
 10
6.3838458027
 20
3.9239758143
 30
0.0
 10
6.3820234182
 20
3.9331375598
 30
0.0
 10
6.3820234182
 20
3.9377184326
 30
0.0
 11
6.4520234182
 21
3.9377184326
 31
0.0
 11
6.4493592019
 21
3.9243245125
 31
0.0
 11
6.4417721556
 21
3.9129696953
 31
0.0
 11
6.4304173384
 21
3.905382649
 31
0.0
 11
6.4170234182
 21
3.9027184326
 31
0.0
 11
6.4036294981
 21
3.905382649
 31
0.0
 11
6.3922746809
 21
3.9129696953
 31
0.0
 11
6.3846876346
 21
3.9243245125
 31
0.0
 11
6.3820234182
 21
3.9377184326
 31
0.0
  0
SPLINE
  5
4E1
100
AcDbEntity
  8
0
100
AcDbSpline
 62
7
  6
CONTINUOUS
 70
0
 71
3
 72
15
 73
11
 74
9
 42
0.0000001
 43
0.0000001
 44
0.0000000001
 12
0.0
 22
0.1099409465
 32
0.0
 13
-0.0
 23
-0.1099409465
 33
0.0
 40
0.0
 40
0.0
 40
0.0
 40
0.0
 40
0.125
 40
0.25
 40
0.375
 40
0.5
 40
0.625
 40
0.75
 40
0.875
 40
1.0
 40
1.0
 40
1.0
 40
1.0
 10
5.5520234182
 20
4.5742184326
 30
0.0
 10
5.5520234182
 20
4.5787993054
 30
0.0
 10
5.5502010337
 20
4.5879610509
 30
0.0
 10
5.5424164658
 20
4.5996114802
 30
0.0
 10
5.5307660365
 20
4.6073960481
 30
0.0
 10
5.5170234182
 20
4.6101296248
 30
0.0
 10
5.5032807999
 20
4.6073960481
 30
0.0
 10
5.4916303707
 20
4.5996114802
 30
0.0
 10
5.4838458027
 20
4.5879610509
 30
0.0
 10
5.4820234182
 20
4.5787993054
 30
0.0
 10
5.4820234182
 20
4.5742184326
 30
0.0
 11
5.5520234182
 21
4.5742184326
 31
0.0
 11
5.5493592019
 21
4.5876123527
 31
0.0
 11
5.5417721556
 21
4.5989671699
 31
0.0
 11
5.5304173384
 21
4.6065542162
 31
0.0
 11
5.5170234182
 21
4.6092184326
 31
0.0
 11
5.5036294981
 21
4.6065542162
 31
0.0
 11
5.4922746809
 21
4.5989671699
 31
0.0
 11
5.4846876346
 21
4.5876123527
 31
0.0
 11
5.4820234182
 21
4.5742184326
 31
0.0
  0
SPLINE
  5
4E2
100
AcDbEntity
  8
0
100
AcDbSpline
 62
7
  6
CONTINUOUS
 70
0
 71
3
 72
15
 73
11
 74
9
 42
0.0000001
 43
0.0000001
 44
0.0000000001
 12
0.0
 22
-0.1099409465
 32
0.0
 13
-0.0
 23
0.1099409465
 33
0.0
 40
0.0
 40
0.0
 40
0.0
 40
0.0
 40
0.125
 40
0.25
 40
0.375
 40
0.5
 40
0.625
 40
0.75
 40
0.875
 40
1.0
 40
1.0
 40
1.0
 40
1.0
 10
5.5520234182
 20
3.9192184326
 30
0.0
 10
5.5520234182
 20
3.9146375598
 30
0.0
 10
5.5502010337
 20
3.9054758143
 30
0.0
 10
5.5424164658
 20
3.893825385
 30
0.0
 10
5.5307660365
 20
3.8860408171
 30
0.0
 10
5.5170234182
 20
3.8833072403
 30
0.0
 10
5.5032807999
 20
3.8860408171
 30
0.0
 10
5.4916303707
 20
3.893825385
 30
0.0
 10
5.4838458027
 20
3.9054758143
 30
0.0
 10
5.4820234182
 20
3.9146375598
 30
0.0
 10
5.4820234182
 20
3.9192184326
 30
0.0
 11
5.5520234182
 21
3.9192184326
 31
0.0
 11
5.5493592019
 21
3.9058245125
 31
0.0
 11
5.5417721556
 21
3.8944696953
 31
0.0
 11
5.5304173384
 21
3.886882649
 31
0.0
 11
5.5170234182
 21
3.8842184326
 31
0.0
 11
5.5036294981
 21
3.886882649
 31
0.0
 11
5.4922746809
 21
3.8944696953
 31
0.0
 11
5.4846876346
 21
3.9058245125
 31
0.0
 11
5.4820234182
 21
3.9192184326
 31
0.0
  0
SPLINE
  5
4E3
100
AcDbEntity
  8
0
100
AcDbSpline
 62
7
  6
CONTINUOUS
 70
0
 71
3
 72
15
 73
11
 74
9
 42
0.0000001
 43
0.0000001
 44
0.0000000001
 12
0.0
 22
0.1099409465
 32
0.0
 13
0.0
 23
-0.1099409465
 33
0.0
 40
0.0
 40
0.0
 40
0.0
 40
0.0
 40
0.125
 40
0.25
 40
0.375
 40
0.5
 40
0.625
 40
0.75
 40
0.875
 40
1.0
 40
1.0
 40
1.0
 40
1.0
 10
4.2960234182
 20
4.6322184326
 30
0.0
 10
4.2960234182
 20
4.6367993054
 30
0.0
 10
4.2942010337
 20
4.6459610509
 30
0.0
 10
4.2864164658
 20
4.6576114802
 30
0.0
 10
4.2747660365
 20
4.6653960481
 30
0.0
 10
4.2610234182
 20
4.6681296248
 30
0.0
 10
4.2472807999
 20
4.6653960481
 30
0.0
 10
4.2356303707
 20
4.6576114802
 30
0.0
 10
4.2278458027
 20
4.6459610509
 30
0.0
 10
4.2260234182
 20
4.6367993054
 30
0.0
 10
4.2260234182
 20
4.6322184326
 30
0.0
 11
4.2960234182
 21
4.6322184326
 31
0.0
 11
4.2933592019
 21
4.6456123527
 31
0.0
 11
4.2857721556
 21
4.6569671699
 31
0.0
 11
4.2744173384
 21
4.6645542162
 31
0.0
 11
4.2610234182
 21
4.6672184326
 31
0.0
 11
4.2476294981
 21
4.6645542162
 31
0.0
 11
4.2362746809
 21
4.6569671699
 31
0.0
 11
4.2286876346
 21
4.6456123527
 31
0.0
 11
4.2260234182
 21
4.6322184326
 31
0.0
  0
SPLINE
  5
4E4
100
AcDbEntity
  8
0
100
AcDbSpline
 62
7
  6
CONTINUOUS
 70
0
 71
3
 72
15
 73
11
 74
9
 42
0.0000001
 43
0.0000001
 44
0.0000000001
 12
0.0
 22
-0.1099409465
 32
0.0
 13
0.0
 23
0.1099409465
 33
0.0
 40
0.0
 40
0.0
 40
0.0
 40
0.0
 40
0.125
 40
0.25
 40
0.375
 40
0.5
 40
0.625
 40
0.75
 40
0.875
 40
1.0
 40
1.0
 40
1.0
 40
1.0
 10
4.2960234182
 20
3.8612184326
 30
0.0
 10
4.2960234182
 20
3.8566375598
 30
0.0
 10
4.2942010337
 20
3.8474758143
 30
0.0
 10
4.2864164658
 20
3.835825385
 30
0.0
 10
4.2747660365
 20
3.8280408171
 30
0.0
 10
4.2610234182
 20
3.8253072403
 30
0.0
 10
4.2472807999
 20
3.8280408171
 30
0.0
 10
4.2356303707
 20
3.835825385
 30
0.0
 10
4.2278458027
 20
3.8474758143
 30
0.0
 10
4.2260234182
 20
3.8566375598
 30
0.0
 10
4.2260234182
 20
3.8612184326
 30
0.0
 11
4.2960234182
 21
3.8612184326
 31
0.0
 11
4.2933592019
 21
3.8478245125
 31
0.0
 11
4.2857721556
 21
3.8364696953
 31
0.0
 11
4.2744173384
 21
3.828882649
 31
0.0
 11
4.2610234182
 21
3.8262184326
 31
0.0
 11
4.2476294981
 21
3.828882649
 31
0.0
 11
4.2362746809
 21
3.8364696953
 31
0.0
 11
4.2286876346
 21
3.8478245125
 31
0.0
 11
4.2260234182
 21
3.8612184326
 31
0.0
  0
SPLINE
  5
4E5
100
AcDbEntity
  8
THREAD
100
AcDbSpline
 62
7
  6
CONTINUOUS
 70
0
 71
3
 72
15
 73
11
 74
9
 42
0.0000001
 43
0.0000001
 44
0.0000000001
 12
-0.1103563678
 22
0.4279612204
 32
0.0
 13
0.1103563678
 23
0.4279612204
 33
0.0
 40
0.0
 40
0.0
 40
0.0
 40
0.0
 40
0.1297189924
 40
0.2548338227
 40
0.3778008073
 40
0.5000360058
 40
0.6222676266
 40
0.7452254315
 40
0.8703025816
 40
1.0
 40
1.0
 40
1.0
 40
1.0
 10
3.4630870841
 20
4.0283134876
 30
0.0
 10
3.4583153118
 20
4.046818387
 30
0.0
 10
3.4498325854
 20
4.083411409
 30
0.0
 10
3.4404074483
 20
4.138299217
 30
0.0
 10
3.43465697
 20
4.1925923534
 30
0.0
 10
3.4327171021
 20
4.246733841
 30
0.0
 10
3.434659139
 20
4.3008738915
 30
0.0
 10
3.4404107294
 20
4.3551594231
 30
0.0
 10
3.4498352039
 20
4.410037083
 30
0.0
 10
3.4583161054
 20
4.4466215558
 30
0.0
 10
3.4630870841
 20
4.4651233776
 30
0.0
 11
3.4630870841
 21
4.0283134876
 31
0.0
 11
3.4502300211
 21
4.0841839266
 31
0.0
 11
3.440948185
 21
4.1386951949
 31
0.0
 11
3.4352776329
 21
4.1927451359
 31
0.0
 11
3.4333628026
 21
4.2467343541
 31
0.0
 11
3.4352797672
 21
4.3007219144
 31
0.0
 11
3.4409517771
 21
4.3547676231
 31
0.0
 11
3.4502319013
 21
4.40926229
 31
0.0
 11
3.4630870841
 21
4.4651233776
 31
0.0
  0
SPLINE
  5
4E6
100
AcDbEntity
  8
THREAD
100
AcDbSpline
 62
7
  6
CONTINUOUS
 70
0
 71
3
 72
15
 73
11
 74
9
 42
0.0000001
 43
0.0000001
 44
0.0000000001
 12
0.1843202379
 22
0.4126856942
 32
0.0
 13
-0.1843202379
 23
0.4126856942
 33
0.0
 40
0.0
 40
0.0
 40
0.0
 40
0.0
 40
0.1377942686
 40
0.2640673782
 40
0.3836049145
 40
0.5000649493
 40
0.6165122554
 40
0.736022619
 40
0.8622283762
 40
1.0
 40
1.0
 40
1.0
 40
1.0
 10
3.8985234182
 20
4.0283134876
 30
0.0
 10
3.906989509
 20
4.0472687287
 30
0.0
 10
3.9218210518
 20
4.0842496676
 30
0.0
 10
3.938158167
 20
4.1397859487
 30
0.0
 10
3.9478513365
 20
4.193616688
 30
0.0
 10
3.951072993
 20
4.2467459909
 30
0.0
 10
3.9478448029
 20
4.2998707415
 30
0.0
 10
3.9381492813
 20
4.3536845241
 30
0.0
 10
3.9218148319
 20
4.4092030193
 30
0.0
 10
3.9069881177
 20
4.4461712515
 30
0.0
 10
3.8985234182
 20
4.4651233776
 30
0.0
 11
3.8985234182
 21
4.0283134876
 31
0.0
 11
3.921491892
 21
4.0862033136
 31
0.0
 11
3.9374180769
 21
4.1410087437
 31
0.0
 11
3.9468670743
 21
4.1942043063
 31
0.0
 11
3.9500073833
 21
4.2467478343
 31
0.0
 11
3.946860795
 21
4.2992852232
 31
0.0
 11
3.9374087629
 21
4.3524677729
 31
0.0
 11
3.9214885553
 21
4.4072432389
 31
0.0
 11
3.8985234182
 21
4.4651233776
 31
0.0
  0
SPLINE
  5
4E7
100
AcDbEntity
  8
THREAD
100
AcDbSpline
 62
7
  6
CONTINUOUS
 70
0
 71
3
 72
15
 73
11
 74
9
 42
0.0000001
 43
0.0000001
 44
0.0000000001
 12
-0.1047017673
 22
0.2030163597
 32
0.0
 13
0.1047017673
 23
0.2030163597
 33
0.0
 40
0.0
 40
0.0
 40
0.0
 40
0.0
 40
0.1346257358
 40
0.2606745914
 40
0.3815608613
 40
0.5000347823
 40
0.6185057449
 40
0.7393842591
 40
0.8653963
 40
1.0
 40
1.0
 40
1.0
 40
1.0
 10
3.4630870841
 20
4.5164159601
 30
0.0
 10
3.4583885666
 20
4.525526369
 30
0.0
 10
3.4499996289
 20
4.5435514227
 30
0.0
 10
3.440499502
 20
4.5710697542
 30
0.0
 10
3.4346796587
 20
4.5983587481
 30
0.0
 10
3.4327104601
 20
4.6256261966
 30
0.0
 10
3.4346818564
 20
4.6528928807
 30
0.0
 10
3.4405027841
 20
4.6801779096
 30
0.0
 10
3.4500021783
 20
4.7076910662
 30
0.0
 10
3.4583893357
 20
4.7257119874
 30
0.0
 10
3.4630870841
 20
4.7348209051
 30
0.0
 11
3.4630870841
 21
4.5164159601
 31
0.0
 11
3.4502300211
 21
4.5443511796
 31
0.0
 11
3.440948185
 21
4.5716068138
 31
0.0
 11
3.4352776329
 21
4.5986317842
 31
0.0
 11
3.4333628026
 21
4.6256263934
 31
0.0
 11
3.4352797672
 21
4.6526201735
 31
0.0
 11
3.4409517771
 21
4.6796430279
 31
0.0
 11
3.4502319013
 21
4.7068903613
 31
0.0
 11
3.4630870841
 21
4.7348209051
 31
0.0
  0
SPLINE
  5
4E8
100
AcDbEntity
  8
THREAD
100
AcDbSpline
 62
7
  6
CONTINUOUS
 70
0
 71
3
 72
15
 73
11
 74
9
 42
0.0000001
 43
0.0000001
 44
0.0000000001
 12
0.1643031241
 22
0.1839340856
 32
0.0
 13
-0.1643031241
 23
0.1839340856
 33
0.0
 40
0.0
 40
0.0
 40
0.0
 40
0.0
 40
0.1498215377
 40
0.2783315905
 40
0.3927788038
 40
0.5000592815
 40
0.6073304266
 40
0.7217569014
 40
0.8502022558
 40
1.0
 40
1.0
 40
1.0
 40
1.0
 10
3.8985234182
 20
4.5164159601
 30
0.0
 10
3.9067288005
 20
4.5256017226
 30
0.0
 10
3.92116058
 20
4.5434446812
 30
0.0
 10
3.9377583087
 20
4.5713030953
 30
0.0
 10
3.9477434157
 20
4.5985301693
 30
0.0
 10
3.9511044388
 20
4.625632525
 30
0.0
 10
3.9477366651
 20
4.6527321888
 30
0.0
 10
3.9377495478
 20
4.6799499654
 30
0.0
 10
3.9211548182
 20
4.7077994258
 30
0.0
 10
3.9067274974
 20
4.7256366014
 30
0.0
 10
3.8985234182
 20
4.7348209051
 30
0.0
 11
3.8985234182
 21
4.5164159601
 31
0.0
 11
3.921491892
 21
4.5453608731
 31
0.0
 11
3.9374180769
 21
4.5727635881
 31
0.0
 11
3.9468670743
 21
4.5993613695
 31
0.0
 11
3.9500073833
 21
4.6256331334
 31
0.0
 11
3.946860795
 21
4.6519018279
 31
0.0
 11
3.9374087629
 21
4.6784931027
 31
0.0
 11
3.9214885553
 21
4.7058808357
 31
0.0
 11
3.8985234182
 21
4.7348209051
 31
0.0
  0
SPLINE
  5
4E9
100
AcDbEntity
  8
THREAD
100
AcDbSpline
 62
7
  6
CONTINUOUS
 70
0
 71
3
 72
15
 73
11
 74
9
 42
0.0000001
 43
0.0000001
 44
0.0000000001
 12
-0.1047017673
 22
0.2030163597
 32
0.0
 13
0.1047017673
 23
0.2030163597
 33
0.0
 40
0.0
 40
0.0
 40
0.0
 40
0.0
 40
0.1346257358
 40
0.2606745914
 40
0.3815608613
 40
0.5000347823
 40
0.6185057449
 40
0.7393842591
 40
0.8653963
 40
1.0
 40
1.0
 40
1.0
 40
1.0
 10
3.4630870841
 20
3.7586159601
 30
0.0
 10
3.4583885666
 20
3.767726369
 30
0.0
 10
3.4499996289
 20
3.7857514227
 30
0.0
 10
3.440499502
 20
3.8132697542
 30
0.0
 10
3.4346796587
 20
3.8405587481
 30
0.0
 10
3.4327104601
 20
3.8678261966
 30
0.0
 10
3.4346818564
 20
3.8950928807
 30
0.0
 10
3.4405027841
 20
3.9223779096
 30
0.0
 10
3.4500021783
 20
3.9498910662
 30
0.0
 10
3.4583893357
 20
3.9679119874
 30
0.0
 10
3.4630870841
 20
3.9770209051
 30
0.0
 11
3.4630870841
 21
3.7586159601
 31
0.0
 11
3.4502300211
 21
3.7865511796
 31
0.0
 11
3.440948185
 21
3.8138068138
 31
0.0
 11
3.4352776329
 21
3.8408317842
 31
0.0
 11
3.4333628026
 21
3.8678263934
 31
0.0
 11
3.4352797672
 21
3.8948201735
 31
0.0
 11
3.4409517771
 21
3.9218430279
 31
0.0
 11
3.4502319013
 21
3.9490903613
 31
0.0
 11
3.4630870841
 21
3.9770209051
 31
0.0
  0
SPLINE
  5
4EA
100
AcDbEntity
  8
THREAD
100
AcDbSpline
 62
7
  6
CONTINUOUS
 70
0
 71
3
 72
15
 73
11
 74
9
 42
0.0000001
 43
0.0000001
 44
0.0000000001
 12
0.1643031241
 22
0.1839340856
 32
0.0
 13
-0.1643031241
 23
0.1839340856
 33
0.0
 40
0.0
 40
0.0
 40
0.0
 40
0.0
 40
0.1498215377
 40
0.2783315905
 40
0.3927788038
 40
0.5000592815
 40
0.6073304266
 40
0.7217569014
 40
0.8502022558
 40
1.0
 40
1.0
 40
1.0
 40
1.0
 10
3.8985234182
 20
3.7586159601
 30
0.0
 10
3.9067288005
 20
3.7678017226
 30
0.0
 10
3.92116058
 20
3.7856446812
 30
0.0
 10
3.9377583087
 20
3.8135030953
 30
0.0
 10
3.9477434157
 20
3.8407301693
 30
0.0
 10
3.9511044388
 20
3.867832525
 30
0.0
 10
3.9477366651
 20
3.8949321888
 30
0.0
 10
3.9377495478
 20
3.9221499654
 30
0.0
 10
3.9211548182
 20
3.9499994258
 30
0.0
 10
3.9067274974
 20
3.9678366014
 30
0.0
 10
3.8985234182
 20
3.9770209051
 30
0.0
 11
3.8985234182
 21
3.7586159601
 31
0.0
 11
3.921491892
 21
3.7875608731
 31
0.0
 11
3.9374180769
 21
3.8149635881
 31
0.0
 11
3.9468670743
 21
3.8415613695
 31
0.0
 11
3.9500073833
 21
3.8678331334
 31
0.0
 11
3.946860795
 21
3.8941018279
 31
0.0
 11
3.9374087629
 21
3.9206931027
 31
0.0
 11
3.9214885553
 21
3.9480808357
 31
0.0
 11
3.8985234182
 21
3.9770209051
 31
0.0
  0
SPLINE
  5
4EB
100
AcDbEntity
  8
0
100
AcDbSpline
 62
7
  6
CONTINUOUS
 70
0
 71
3
 72
19
 73
15
 74
13
 42
0.0000001
 43
0.0000001
 44
0.0000000001
 12
0.0
 22
0.1629013085
 32
0.0
 13
0.0
 23
-0.1629013085
 33
0.0
 40
0.0
 40
0.0
 40
0.0
 40
0.0
 40
0.0763785291
 40
0.156767337
 40
0.2402857204
 40
0.3259533602
 40
0.4127415229
 40
0.4999619478
 40
0.5871887585
 40
0.6740185448
 40
0.7597593582
 40
0.8433462285
 40
0.9237577685
 40
1.0
 40
1.0
 40
1.0
 40
1.0
 10
4.9125234182
 20
4.1067184326
 30
0.0
 10
4.9125234182
 20
4.11086582
 30
0.0
 10
4.9138408757
 20
4.1194200483
 30
0.0
 10
4.9193939093
 20
4.1313945245
 30
0.0
 10
4.9281656954
 20
4.1419191514
 30
0.0
 10
4.9395493984
 20
4.1501421222
 30
0.0
 10
4.9527952989
 20
4.1553904697
 30
0.0
 10
4.9670174623
 20
4.1571971644
 30
0.0
 10
4.9812422914
 20
4.1553931923
 30
0.0
 10
4.9944952489
 20
4.1501442184
 30
0.0
 10
5.0058871127
 20
4.1419149371
 30
0.0
 10
5.0146623344
 20
4.1313810959
 30
0.0
 10
5.0202093516
 20
4.1194062916
 30
0.0
 10
5.0215234182
 20
4.110858419
 30
0.0
 10
5.0215234182
 20
4.1067184326
 30
0.0
 11
4.9125234182
 21
4.1067184326
 31
0.0
 11
4.9143544268
 21
4.1190251304
 31
0.0
 11
4.9197961583
 21
4.1309363923
 31
0.0
 11
4.9284746198
 21
4.141414333
 31
0.0
 11
4.9397777611
 21
4.1495991583
 31
0.0
 11
4.9529218363
 21
4.1548062353
 31
0.0
 11
4.9670171813
 21
4.1565944315
 31
0.0
 11
4.981113936
 21
4.1548090845
 31
0.0
 11
4.9942650512
 21
4.1496013684
 31
0.0
 11
5.0055776357
 21
4.1414092599
 31
0.0
 11
5.014260626
 21
4.1309205844
 31
0.0
 11
5.0196988195
 21
4.1190036362
 31
0.0
 11
5.0215234182
 21
4.1067184326
 31
0.0
  0
SPLINE
  5
4EC
100
AcDbEntity
  8
0
100
AcDbSpline
 62
7
  6
CONTINUOUS
 70
0
 71
3
 72
19
 73
15
 74
13
 42
0.0000001
 43
0.0000001
 44
0.0000000001
 12
0.0
 22
-0.1629013085
 32
0.0
 13
-0.0
 23
0.1629013085
 33
0.0
 40
0.0
 40
0.0
 40
0.0
 40
0.0
 40
0.0763785291
 40
0.156767337
 40
0.2402857204
 40
0.3259533602
 40
0.4127415229
 40
0.4999619478
 40
0.5871887585
 40
0.6740185448
 40
0.7597593582
 40
0.8433462285
 40
0.9237577685
 40
1.0
 40
1.0
 40
1.0
 40
1.0
 10
5.0215234182
 20
4.3867184326
 30
0.0
 10
5.0215234182
 20
4.3825710452
 30
0.0
 10
5.0202059607
 20
4.3740168169
 30
0.0
 10
5.0146529272
 20
4.3620423407
 30
0.0
 10
5.0058811411
 20
4.3515177137
 30
0.0
 10
4.994497438
 20
4.343294743
 30
0.0
 10
4.9812515376
 20
4.3380463954
 30
0.0
 10
4.9670293742
 20
4.3362397007
 30
0.0
 10
4.9528045451
 20
4.3380436729
 30
0.0
 10
4.9395515876
 20
4.3432926468
 30
0.0
 10
4.9281597238
 20
4.3515219281
 30
0.0
 10
4.9193845021
 20
4.3620557693
 30
0.0
 10
4.9138374849
 20
4.3740305736
 30
0.0
 10
4.9125234182
 20
4.3825784462
 30
0.0
 10
4.9125234182
 20
4.3867184326
 30
0.0
 11
5.0215234182
 21
4.3867184326
 31
0.0
 11
5.0196924097
 21
4.3744117348
 31
0.0
 11
5.0142506781
 21
4.3625004729
 31
0.0
 11
5.0055722167
 21
4.3520225322
 31
0.0
 11
4.9942690754
 21
4.3438377069
 31
0.0
 11
4.9811250001
 21
4.3386306299
 31
0.0
 11
4.9670296552
 21
4.3368424337
 31
0.0
 11
4.9529329005
 21
4.3386277807
 31
0.0
 11
4.9397817853
 21
4.3438354968
 31
0.0
 11
4.9284692008
 21
4.3520276053
 31
0.0
 11
4.9197862104
 21
4.3625162808
 31
0.0
 11
4.914348017
 21
4.374433229
 31
0.0
 11
4.9125234182
 21
4.3867184326
 31
0.0
  0
SPLINE
  5
4ED
100
AcDbEntity
  8
0
100
AcDbSpline
 62
7
  6
CONTINUOUS
 70
0
 71
3
 72
19
 73
15
 74
13
 42
0.0000001
 43
0.0000001
 44
0.0000000001
 12
-0.1076664989
 22
-0.0209565869
 32
0.0
 13
-0.1076665026
 23
0.020956586
 33
0.0
 40
0.0
 40
0.0
 40
0.0
 40
0.0
 40
0.0168783337
 40
0.0686243586
 40
0.1508582412
 40
0.2541610489
 40
0.3724463116
 40
0.4990285498
 40
0.6256430258
 40
0.7442284283
 40
0.8480948728
 40
0.9312440283
 40
0.9832169322
 40
1.0
 40
1.0
 40
1.0
 40
1.0
 10
5.0215234182
 20
4.5267184326
 30
0.0
 10
5.0209176745
 20
4.5266005285
 30
0.0
 10
5.0184533742
 20
4.5261285603
 30
0.0
 10
5.0130234036
 20
4.5251577862
 30
0.0
 10
5.0044469083
 20
4.5238409675
 30
0.0
 10
4.9934119224
 20
4.5225402915
 30
0.0
 10
4.9807124766
 20
4.5215951959
 30
0.0
 10
4.9671288592
 20
4.5212460021
 30
0.0
 10
4.9535339993
 20
4.521585015
 30
0.0
 10
4.9408011911
 20
4.5225237299
 30
0.0
 10
4.9297008929
 20
4.5238263848
 30
0.0
 10
4.9210624214
 20
4.5251508011
 30
0.0
 10
4.9155947612
 20
4.5261282787
 30
0.0
 10
4.913125743
 20
4.526601194
 30
0.0
 10
4.9125234182
 20
4.5267184326
 30
0.0
 11
5.0215234182
 21
4.5267184326
 31
0.0
 11
5.0197051247
 21
4.5263702021
 31
0.0
 11
5.0141177662
 21
4.5253716716
 31
0.0
 11
5.0052020241
 21
4.5240041263
 31
0.0
 11
4.9939486655
 21
4.5226798773
 31
0.0
 11
4.9810098955
 21
4.5217191081
 31
0.0
 11
4.9671299924
 21
4.5213632238
 31
0.0
 11
4.9532462852
 21
4.5217085404
 31
0.0
 11
4.940274021
 21
4.5226627753
 31
0.0
 11
4.9289585853
 21
4.5239884842
 31
0.0
 11
4.9199433058
 21
4.5253692661
 31
0.0
 11
4.914331443
 21
4.5263721368
 31
0.0
 11
4.9125234182
 21
4.5267184326
 31
0.0
  0
SPLINE
  5
4EE
100
AcDbEntity
  8
0
100
AcDbSpline
 62
7
  6
CONTINUOUS
 70
0
 71
3
 72
19
 73
15
 74
13
 42
0.0000001
 43
0.0000001
 44
0.0000000001
 12
0.0
 22
0.2105038487
 32
0.0
 13
0.0
 23
-0.2105038487
 33
0.0
 40
0.0
 40
0.0
 40
0.0
 40
0.0
 40
0.0759924155
 40
0.1568107565
 40
0.2409133744
 40
0.3268537375
 40
0.4133862433
 40
0.4999737175
 40
0.5865518335
 40
0.673100269
 40
0.7591039937
 40
0.8432710938
 40
0.9240981646
 40
1.0
 40
1.0
 40
1.0
 40
1.0
 10
5.9180234182
 20
4.1060934326
 30
0.0
 10
5.9180234182
 20
4.1114256646
 30
0.0
 10
5.9197253906
 20
4.1224787798
 30
0.0
 10
5.9268469129
 20
4.138018623
 30
0.0
 10
5.9381105076
 20
4.1517887562
 30
0.0
 10
5.9527305259
 20
4.1626091873
 30
0.0
 10
5.9697449365
 20
4.1695447212
 30
0.0
 10
5.9880171319
 20
4.1719376701
 30
0.0
 10
6.0062908054
 20
4.1695477289
 30
0.0
 10
6.023310981
 20
4.1626130021
 30
0.0
 10
6.0379398718
 20
4.1517869455
 30
0.0
 10
6.0492077928
 20
4.1380074475
 30
0.0
 10
6.0563244242
 20
4.1224665341
 30
0.0
 10
6.0580234182
 20
4.1114193088
 30
0.0
 10
6.0580234182
 20
4.1060934326
 30
0.0
 11
5.9180234182
 21
4.1060934326
 31
0.0
 11
5.9203619257
 21
4.1219182758
 31
0.0
 11
5.9273573277
 21
4.1374260788
 31
0.0
 11
5.9385305525
 21
4.1511588133
 31
0.0
 11
5.9530691727
 21
4.1619247197
 31
0.0
 11
5.9699438333
 21
4.168783842
 31
0.0
 11
5.9880178499
 21
4.1711403919
 31
0.0
 11
6.0060903172
 21
4.168787198
 31
0.0
 11
6.0229691746
 21
4.1619294964
 31
0.0
 11
6.0375189607
 21
4.1511562561
 31
0.0
 11
6.0486986692
 21
4.137411298
 31
0.0
 11
6.0556903615
 21
4.1218998066
 31
0.0
 11
6.0580234182
 21
4.1060934326
 31
0.0
  0
SPLINE
  5
4EF
100
AcDbEntity
  8
0
100
AcDbSpline
 62
7
  6
CONTINUOUS
 70
0
 71
3
 72
19
 73
15
 74
13
 42
0.0000001
 43
0.0000001
 44
0.0000000001
 12
0.0
 22
-0.2105038487
 32
0.0
 13
0.0
 23
0.2105038487
 33
0.0
 40
0.0
 40
0.0
 40
0.0
 40
0.0
 40
0.0759924155
 40
0.1568107565
 40
0.2409133744
 40
0.3268537375
 40
0.4133862433
 40
0.4999737175
 40
0.5865518335
 40
0.673100269
 40
0.7591039937
 40
0.8432710938
 40
0.9240981646
 40
1.0
 40
1.0
 40
1.0
 40
1.0
 10
6.0580234182
 20
4.3873434326
 30
0.0
 10
6.0580234182
 20
4.3820112006
 30
0.0
 10
6.0563214458
 20
4.3709580854
 30
0.0
 10
6.0491999236
 20
4.3554182422
 30
0.0
 10
6.0379363288
 20
4.341648109
 30
0.0
 10
6.0233163106
 20
4.3308276779
 30
0.0
 10
6.0063019
 20
4.323892144
 30
0.0
 10
5.9880297046
 20
4.3214991951
 30
0.0
 10
5.969756031
 20
4.3238891363
 30
0.0
 10
5.9527358554
 20
4.330823863
 30
0.0
 10
5.9381069647
 20
4.3416499197
 30
0.0
 10
5.9268390436
 20
4.3554294177
 30
0.0
 10
5.9197224123
 20
4.3709703311
 30
0.0
 10
5.9180234182
 20
4.3820175564
 30
0.0
 10
5.9180234182
 20
4.3873434326
 30
0.0
 11
6.0580234182
 21
4.3873434326
 31
0.0
 11
6.0556849108
 21
4.3715185893
 31
0.0
 11
6.0486895088
 21
4.3560107864
 31
0.0
 11
6.0375162839
 21
4.3422780519
 31
0.0
 11
6.0229776637
 21
4.3315121454
 31
0.0
 11
6.0061030032
 21
4.3246530232
 31
0.0
 11
5.9880289866
 21
4.3222964733
 31
0.0
 11
5.9699565193
 21
4.3246496672
 31
0.0
 11
5.9530776618
 21
4.3315073688
 31
0.0
 11
5.9385278757
 21
4.3422806091
 31
0.0
 11
5.9273481673
 21
4.3560255672
 31
0.0
 11
5.9203564749
 21
4.3715370586
 31
0.0
 11
5.9180234182
 21
4.3873434326
 31
0.0
  0
SPLINE
  5
4F0
100
AcDbEntity
  8
0
100
AcDbSpline
 62
7
  6
CONTINUOUS
 70
0
 71
3
 72
19
 73
15
 74
13
 42
0.0000001
 43
0.0000001
 44
0.0000000001
 12
-0.1372646294
 22
-0.034163764
 32
0.0
 13
-0.1372646351
 23
0.0341637632
 33
0.0
 40
0.0
 40
0.0
 40
0.0
 40
0.0
 40
0.0168855818
 40
0.0689629255
 40
0.1517787787
 40
0.255245651
 40
0.3732567279
 40
0.4993204019
 40
0.6253828527
 40
0.7435750361
 40
0.847446253
 40
0.9309199555
 40
0.9831697618
 40
1.0
 40
1.0
 40
1.0
 40
1.0
 10
6.0580234182
 20
4.5279684326
 30
0.0
 10
6.0572508205
 20
4.5277761409
 30
0.0
 10
6.0540925509
 20
4.5270022807
 30
0.0
 10
6.0471162275
 20
4.5254036931
 30
0.0
 10
6.0360872677
 20
4.5232272881
 30
0.0
 10
6.02189636
 20
4.5210713181
 30
0.0
 10
6.0055749454
 20
4.5195020418
 30
0.0
 10
5.9881197022
 20
4.5189229604
 30
0.0
 10
5.9706555131
 20
4.5194899897
 30
0.0
 10
5.9543056159
 20
4.5210514012
 30
0.0
 10
5.9400556544
 20
4.5232094589
 30
0.0
 10
5.9289690753
 20
4.5253948998
 30
0.0
 10
5.9219571075
 20
4.5270015591
 30
0.0
 10
5.9187934837
 20
4.5277767712
 30
0.0
 10
5.9180234182
 20
4.5279684326
 30
0.0
 11
6.0580234182
 21
4.5279684326
 31
0.0
 11
6.055703524
 21
4.5274000302
 31
0.0
 11
6.0485229246
 21
4.5257556215
 31
0.0
 11
6.0370293413
 21
4.5234911607
 31
0.0
 11
6.0225588345
 21
4.5212985802
 31
0.0
 11
6.0059419106
 21
4.5197067746
 31
0.0
 11
5.9881195755
 21
4.519118087
 31
0.0
 11
5.9702970038
 21
4.5196942342
 31
0.0
 11
5.9536535593
 21
4.5212778063
 31
0.0
 11
5.9391254599
 21
4.5234720646
 31
0.0
 11
5.9275401041
 21
4.5257521112
 31
0.0
 11
5.920335702
 21
4.5274018654
 31
0.0
 11
5.9180234182
 21
4.5279684326
 31
0.0
  0
SPLINE
  5
4F1
100
AcDbEntity
  8
0
100
AcDbSpline
 62
7
  6
CONTINUOUS
 70
0
 71
3
 72
19
 73
15
 74
13
 42
0.0000001
 43
0.0000001
 44
0.0000000001
 12
0.0
 22
0.1628856933
 32
0.0
 13
0.0
 23
-0.1628856933
 33
0.0
 40
0.0
 40
0.0
 40
0.0
 40
0.0
 40
0.0763824499
 40
0.1567649379
 40
0.2402752703
 40
0.3259395526
 40
0.4127317797
 40
0.4999615454
 40
0.5871978788
 40
0.6740318864
 40
0.7597691379
 40
0.8433476942
 40
0.9237529682
 40
1.0
 40
1.0
 40
1.0
 40
1.0
 10
6.9525234182
 20
4.1060934326
 30
0.0
 10
6.9525234182
 20
4.1102406354
 30
0.0
 10
6.9538407008
 20
4.1187939589
 30
0.0
 10
6.9593937931
 20
4.1307664839
 30
0.0
 10
6.9681656872
 20
4.1412881399
 30
0.0
 10
6.9795494955
 20
4.1495079916
 30
0.0
 10
6.9927953868
 20
4.1547539439
 30
0.0
 10
7.007017406
 20
4.1565597416
 30
0.0
 10
7.0212421032
 20
4.1547566933
 30
0.0
 10
7.0344950663
 20
4.1495101333
 30
0.0
 10
7.0458870351
 20
4.1412840027
 30
0.0
 10
7.0546623757
 20
4.1307531728
 30
0.0
 10
7.0602095026
 20
4.1187803029
 30
0.0
 10
7.0615234182
 20
4.1102332828
 30
0.0
 10
7.0615234182
 20
4.1060934326
 30
0.0
 11
6.9525234182
 21
4.1060934326
 31
0.0
 11
6.9543544897
 21
4.1183995609
 31
0.0
 11
6.9597961114
 21
4.130308361
 31
0.0
 11
6.9684743409
 21
4.1407830976
 31
0.0
 11
6.979777346
 21
4.1489648973
 31
0.0
 11
6.9929215147
 21
4.1541698559
 31
0.0
 11
7.0070171158
 21
4.1559573005
 31
0.0
 11
7.0211141593
 21
4.1541727291
 31
0.0
 11
7.0342653991
 21
4.1489671434
 31
0.0
 11
7.0455778344
 21
4.1407781012
 31
0.0
 11
7.054260592
 21
4.1302926856
 31
0.0
 11
7.0596987155
 21
4.1183782076
 31
0.0
 11
7.0615234182
 21
4.1060934326
 31
0.0
  0
SPLINE
  5
4F2
100
AcDbEntity
  8
0
100
AcDbSpline
 62
7
  6
CONTINUOUS
 70
0
 71
3
 72
19
 73
15
 74
13
 42
0.0000001
 43
0.0000001
 44
0.0000000001
 12
0.0
 22
-0.1628856933
 32
0.0
 13
0.0
 23
0.1628856933
 33
0.0
 40
0.0
 40
0.0
 40
0.0
 40
0.0
 40
0.0763824499
 40
0.1567649379
 40
0.2402752703
 40
0.3259395526
 40
0.4127317797
 40
0.4999615454
 40
0.5871978788
 40
0.6740318864
 40
0.7597691379
 40
0.8433476942
 40
0.9237529682
 40
1.0
 40
1.0
 40
1.0
 40
1.0
 10
7.0615234182
 20
4.3873434326
 30
0.0
 10
7.0615234182
 20
4.3831962298
 30
0.0
 10
7.0602061357
 20
4.3746429063
 30
0.0
 10
7.0546530434
 20
4.3626703813
 30
0.0
 10
7.0458811493
 20
4.3521487253
 30
0.0
 10
7.0344973409
 20
4.3439288736
 30
0.0
 10
7.0212514496
 20
4.3386829213
 30
0.0
 10
7.0070294305
 20
4.3368771236
 30
0.0
 10
6.9928047333
 20
4.3386801719
 30
0.0
 10
6.9795517702
 20
4.3439267319
 30
0.0
 10
6.9681598013
 20
4.3521528625
 30
0.0
 10
6.9593844607
 20
4.3626836924
 30
0.0
 10
6.9538373338
 20
4.3746565623
 30
0.0
 10
6.9525234182
 20
4.3832035824
 30
0.0
 10
6.9525234182
 20
4.3873434326
 30
0.0
 11
7.0615234182
 21
4.3873434326
 31
0.0
 11
7.0596923468
 21
4.3750373043
 31
0.0
 11
7.054250725
 21
4.3631285041
 31
0.0
 11
7.0455724956
 21
4.3526537676
 31
0.0
 11
7.0342694905
 21
4.3444719679
 31
0.0
 11
7.0211253218
 21
4.3392670093
 31
0.0
 11
7.0070297207
 21
4.3374795647
 31
0.0
 11
6.9929326772
 21
4.3392641361
 31
0.0
 11
6.9797814373
 21
4.3444697218
 31
0.0
 11
6.968469002
 21
4.352658764
 31
0.0
 11
6.9597862445
 21
4.3631441796
 31
0.0
 11
6.9543481209
 21
4.3750586575
 31
0.0
 11
6.9525234182
 21
4.3873434326
 31
0.0
  0
SPLINE
  5
4F3
100
AcDbEntity
  8
0
100
AcDbSpline
 62
7
  6
CONTINUOUS
 70
0
 71
3
 72
17
 73
13
 74
11
 42
0.0000001
 43
0.0000001
 44
0.0000000001
 12
-0.062238308
 22
0.1465721043
 32
0.0
 13
-0.0622781012
 23
-0.1465658556
 33
0.0
 40
0.0
 40
0.0
 40
0.0
 40
0.0
 40
0.0717133274
 40
0.1733030419
 40
0.2774783697
 40
0.3869596543
 40
0.4988329602
 40
0.6106376549
 40
0.7201553255
 40
0.8244553529
 40
0.9264860025
 40
1.0
 40
1.0
 40
1.0
 40
1.0
 10
6.0542338194
 20
4.3674227221
 30
0.0
 10
6.0527460474
 20
4.3709264466
 30
0.0
 10
6.0481249093
 20
4.3789584467
 30
0.0
 10
6.0373626914
 20
4.389249367
 30
0.0
 10
6.0225172118
 20
4.3971431821
 30
0.0
 10
6.0058377607
 20
4.4017665008
 30
0.0
 10
5.9882182334
 20
4.4033070661
 30
0.0
 10
5.9705915742
 20
4.4018326716
 30
0.0
 10
5.9538880762
 20
4.3972818705
 30
0.0
 10
5.9389726161
 20
4.3894557791
 30
0.0
 10
5.9280529191
 20
4.3791463373
 30
0.0
 10
5.9233425597
 20
4.3710226491
 30
0.0
 10
5.9218164556
 20
4.3674311017
 30
0.0
 11
6.0542338194
 21
4.3674227221
 31
0.0
 11
6.0485618806
 21
4.3772990082
 31
0.0
 11
6.0370463814
 21
4.3885492304
 31
0.0
 11
6.0225564776
 21
4.3964598282
 31
0.0
 11
6.0058710659
 21
4.4012138704
 31
0.0
 11
5.9882137303
 21
4.4028010505
 31
0.0
 11
5.970561219
 21
4.4012831284
 31
0.0
 11
5.953848938
 21
4.3966029943
 31
0.0
 11
5.9392979357
 21
4.3887636034
 31
0.0
 11
5.9276629476
 21
4.3775361384
 31
0.0
 11
5.9218164556
 21
4.3674311017
 31
0.0
  0
SPLINE
  5
4F4
100
AcDbEntity
  8
0
100
AcDbSpline
 62
7
  6
CONTINUOUS
 70
0
 71
3
 72
9
 73
5
 74
3
 42
0.0000001
 43
0.0000001
 44
0.0000000001
 12
-0.0030781478
 22
-0.0097616102
 32
0.0
 13
-0.0055062305
 23
-0.0086135847
 33
0.0
 40
0.0
 40
0.0
 40
0.0
 40
0.0
 40
0.0590405441
 40
1.0
 40
1.0
 40
1.0
 40
1.0
 10
5.0197178398
 20
4.1191299716
 30
0.0
 10
5.0196572613
 20
4.1189378614
 30
0.0
 10
5.018605288
 20
4.1156924453
 30
0.0
 10
5.0171139563
 20
4.1125986005
 30
0.0
 10
5.0153869098
 20
4.1098969225
 30
0.0
 11
5.0197178398
 21
4.1191299716
 31
0.0
 11
5.0195315116
 21
4.1185551675
 31
0.0
 11
5.0153869098
 21
4.1098969225
 31
0.0
  0
SPLINE
  5
4F5
100
AcDbEntity
  8
0
100
AcDbSpline
 62
7
  6
CONTINUOUS
 70
0
 71
3
 72
17
 73
13
 74
11
 42
0.0000001
 43
0.0000001
 44
0.0000000001
 12
-0.0590010213
 22
-0.0922973164
 32
0.0
 13
-0.0638240559
 23
0.0888838453
 33
0.0
 40
0.0
 40
0.0
 40
0.0
 40
0.0
 40
0.0258076098
 40
0.1375254261
 40
0.2449593974
 40
0.3469240281
 40
0.4583497011
 40
0.5739909192
 40
0.6868367741
 40
0.7940911004
 40
0.8976702376
 40
1.0
 40
1.0
 40
1.0
 40
1.0
 10
5.0153869098
 20
4.1098969225
 30
0.0
 10
5.0148793513
 20
4.1091029315
 30
0.0
 10
5.0120256236
 20
4.1049682812
 30
0.0
 10
5.0056119451
 20
4.0986155977
 30
0.0
 10
4.9954626255
 20
4.0926477824
 30
0.0
 10
4.9843840206
 20
4.0887977934
 30
0.0
 10
4.9725111155
 20
4.0868768368
 30
0.0
 10
4.9600882479
 20
4.0869937667
 30
0.0
 10
4.9480145055
 20
4.0892056261
 30
0.0
 10
4.9369448268
 20
4.0934190043
 30
0.0
 10
4.9272702742
 20
4.0996030786
 30
0.0
 10
4.9220430417
 20
4.1050849691
 30
0.0
 10
4.9198660082
 20
4.10811679
 30
0.0
 11
5.0153869098
 21
4.1098969225
 31
0.0
 11
5.0137819999
 21
4.1075711457
 31
0.0
 11
5.0051908967
 21
4.0989230355
 31
0.0
 11
4.995128515
 21
4.0929090627
 31
0.0
 11
4.9846350754
 21
4.0892115576
 31
0.0
 11
4.9726379243
 21
4.0872394823
 31
0.0
 11
4.9600203703
 21
4.0873601763
 31
0.0
 11
4.9479153638
 21
4.0896144301
 31
0.0
 11
4.9369995474
 21
4.0938340463
 31
0.0
 11
4.9275186057
 21
4.0999860036
 31
0.0
 11
4.9198660082
 21
4.10811679
 31
0.0
  0
SPLINE
  5
4F6
100
AcDbEntity
  8
0
100
AcDbSpline
 62
7
  6
CONTINUOUS
 70
0
 71
3
 72
8
 73
4
 74
2
 42
0.0000001
 43
0.0000001
 44
0.0000000001
 12
-0.0012312809
 22
0.0017147294
 32
0.0
 13
-0.0011395169
 23
0.0017779518
 33
0.0
 40
0.0
 40
0.0
 40
0.0
 40
0.0
 40
1.0
 40
1.0
 40
1.0
 40
1.0
 10
4.9198660082
 20
4.10811679
 30
0.0
 10
4.9194555812
 20
4.1086883664
 30
0.0
 10
4.9190601076
 20
4.1092708723
 30
0.0
 10
4.9186802687
 20
4.1098635229
 30
0.0
 11
4.9198660082
 21
4.10811679
 31
0.0
 11
4.9186802687
 21
4.1098635229
 31
0.0
  0
SPLINE
  5
4F7
100
AcDbEntity
  8
0
100
AcDbSpline
 62
7
  6
CONTINUOUS
 70
0
 71
3
 72
9
 73
5
 74
3
 42
0.0000001
 43
0.0000001
 44
0.0000000001
 12
-0.0055570574
 22
0.0086704989
 32
0.0
 13
-0.0030905687
 23
0.0098440478
 33
0.0
 40
0.0
 40
0.0
 40
0.0
 40
0.0
 40
0.9221482363
 40
1.0
 40
1.0
 40
1.0
 40
1.0
 10
4.9186802687
 20
4.1098635229
 30
0.0
 10
4.9169721251
 20
4.1125286847
 30
0.0
 10
4.9154626483
 20
4.1156413305
 30
0.0
 10
4.9143978532
 20
4.1189113215
 30
0.0
 10
4.9143176511
 20
4.1191667803
 30
0.0
 11
4.9186802687
 21
4.1098635229
 31
0.0
 11
4.9145663407
 21
4.118403126
 31
0.0
 11
4.9143176511
 21
4.1191667803
 31
0.0
  0
SPLINE
  5
4F8
100
AcDbEntity
  8
0
100
AcDbSpline
 62
7
  6
CONTINUOUS
 70
0
 71
3
 72
8
 73
4
 74
2
 42
0.0000001
 43
0.0000001
 44
0.0000000001
 12
0.0031144903
 22
0.0097791477
 32
0.0
 13
0.0055496991
 23
0.0086212817
 33
0.0
 40
0.0
 40
0.0
 40
0.0
 40
0.0
 40
1.0
 40
1.0
 40
1.0
 40
1.0
 10
4.9143576562
 20
4.3743978706
 30
0.0
 10
4.9153958197
 20
4.3776575865
 30
0.0
 10
4.9168769787
 20
4.3807718743
 30
0.0
 10
4.9187268784
 20
4.3836456349
 30
0.0
 11
4.9143576562
 21
4.3743978706
 31
0.0
 11
4.9187268784
 21
4.3836456349
 31
0.0
  0
SPLINE
  5
4F9
100
AcDbEntity
  8
0
100
AcDbSpline
 62
7
  6
CONTINUOUS
 70
0
 71
3
 72
8
 73
4
 74
2
 42
0.0000001
 43
0.0000001
 44
0.0000000001
 12
0.0009752661
 22
0.0015150449
 32
0.0
 13
0.0010423821
 23
0.0014689287
 33
0.0
 40
0.0
 40
0.0
 40
0.0
 40
0.0
 40
1.0
 40
1.0
 40
1.0
 40
1.0
 10
4.9187268784
 20
4.3836456349
 30
0.0
 10
4.9190519671
 20
4.3841506498
 30
0.0
 10
4.9193884433
 20
4.3846482368
 30
0.0
 10
4.919735904
 20
4.3851378797
 30
0.0
 11
4.9187268784
 21
4.3836456349
 31
0.0
 11
4.919735904
 21
4.3851378797
 31
0.0
  0
SPLINE
  5
4FA
100
AcDbEntity
  8
0
100
AcDbSpline
 62
7
  6
CONTINUOUS
 70
0
 71
3
 72
15
 73
11
 74
9
 42
0.0000001
 43
0.0000001
 44
0.0000000001
 12
0.0623422937
 22
0.0878529862
 32
0.0
 13
0.0623336094
 23
-0.0878583982
 33
0.0
 40
0.0
 40
0.0
 40
0.0
 40
0.0
 40
0.1158084708
 40
0.2374137628
 40
0.3636402353
 40
0.4966978477
 40
0.6329112137
 40
0.7623663444
 40
0.8842896735
 40
1.0
 40
1.0
 40
1.0
 40
1.0
 10
4.919735904
 20
4.3851378797
 30
0.0
 10
4.9221424926
 20
4.3885292531
 30
0.0
 10
4.9281564184
 20
4.3947004834
 30
0.0
 10
4.9395004585
 20
4.4013455078
 30
0.0
 10
4.952607145
 20
4.4054425331
 30
0.0
 10
4.9667796207
 20
4.4068869386
 30
0.0
 10
4.981082667
 20
4.4055366227
 30
0.0
 10
4.9944383457
 20
4.4014089476
 30
0.0
 10
5.0058910109
 20
4.3947015698
 30
0.0
 10
5.0119089963
 20
4.3885233787
 30
0.0
 10
5.0143132104
 20
4.3851346707
 30
0.0
 11
4.919735904
 21
4.3851378797
 31
0.0
 11
4.9283408834
 21
4.3941137005
 31
0.0
 11
4.9395481306
 21
4.4008125219
 31
0.0
 11
4.9524595744
 21
4.4049324889
 31
0.0
 11
4.9666689882
 21
4.4064126252
 31
0.0
 11
4.9812263619
 21
4.4050064955
 31
0.0
 11
4.9944805779
 21
4.4008205839
 31
0.0
 11
5.0057173975
 21
4.394104681
 31
0.0
 11
5.0143132104
 21
4.3851346707
 31
0.0
  0
SPLINE
  5
4FB
100
AcDbEntity
  8
0
100
AcDbSpline
 62
7
  6
CONTINUOUS
 70
0
 71
3
 72
8
 73
4
 74
2
 42
0.0000001
 43
0.0000001
 44
0.0000000001
 12
0.0010401041
 22
-0.001466013
 32
0.0
 13
0.0009732592
 23
-0.0015119353
 33
0.0
 40
0.0
 40
0.0
 40
0.0
 40
0.0
 40
1.0
 40
1.0
 40
1.0
 40
1.0
 10
5.0143132104
 20
4.3851346707
 30
0.0
 10
5.0146599118
 20
4.3846459997
 30
0.0
 10
5.0149956726
 20
4.3841494187
 30
0.0
 10
5.0153200923
 20
4.3836454402
 30
0.0
 11
5.0143132104
 21
4.3851346707
 31
0.0
 11
5.0153200923
 21
4.3836454402
 31
0.0
  0
SPLINE
  5
4FC
100
AcDbEntity
  8
0
100
AcDbSpline
 62
7
  6
CONTINUOUS
 70
0
 71
3
 72
8
 73
4
 74
2
 42
0.0000001
 43
0.0000001
 44
0.0000000001
 12
0.0055512048
 22
-0.0086236665
 32
0.0
 13
0.0031145147
 23
-0.0097822003
 33
0.0
 40
0.0
 40
0.0
 40
0.0
 40
0.0
 40
1.0
 40
1.0
 40
1.0
 40
1.0
 10
5.0153200923
 20
4.3836454402
 30
0.0
 10
5.0171704939
 20
4.3807708847
 30
0.0
 10
5.0186519414
 20
4.3776556741
 30
0.0
 10
5.019690113
 20
4.3743949407
 30
0.0
 11
5.0153200923
 21
4.3836454402
 31
0.0
 11
5.019690113
 21
4.3743949407
 31
0.0
  0
SPLINE
  5
4FD
100
AcDbEntity
  8
0
100
AcDbSpline
 62
7
  6
CONTINUOUS
 70
0
 71
3
 72
8
 73
4
 74
2
 42
0.0000001
 43
0.0000001
 44
0.0000000001
 12
-0.0032710266
 22
-0.0099677747
 32
0.0
 13
-0.0057956685
 23
-0.0087319697
 33
0.0
 40
0.0
 40
0.0
 40
0.0
 40
0.0
 40
1.0
 40
1.0
 40
1.0
 40
1.0
 10
7.0595875581
 20
4.1187246833
 30
0.0
 10
7.0584972159
 20
4.1154020918
 30
0.0
 10
7.0569464382
 20
4.1122346723
 30
0.0
 10
7.0550145487
 20
4.1093240157
 30
0.0
 11
7.0595875581
 21
4.1187246833
 31
0.0
 11
7.0550145487
 21
4.1093240157
 31
0.0
  0
SPLINE
  5
4FE
100
AcDbEntity
  8
0
100
AcDbSpline
 62
7
  6
CONTINUOUS
 70
0
 71
3
 72
8
 73
4
 74
2
 42
0.0000001
 43
0.0000001
 44
0.0000000001
 12
-0.0006876532
 22
-0.0010360438
 32
0.0
 13
-0.0007194468
 23
-0.001013847
 33
0.0
 40
0.0
 40
0.0
 40
0.0
 40
0.0
 40
1.0
 40
1.0
 40
1.0
 40
1.0
 10
7.0550145487
 20
4.1093240157
 30
0.0
 10
7.054785331
 20
4.1089786678
 30
0.0
 10
7.0545507481
 20
4.1086369345
 30
0.0
 10
7.0543109325
 20
4.1082989855
 30
0.0
 11
7.0550145487
 21
4.1093240157
 31
0.0
 11
7.0543109325
 21
4.1082989855
 31
0.0
  0
SPLINE
  5
4FF
100
AcDbEntity
  8
0
100
AcDbSpline
 62
7
  6
CONTINUOUS
 70
0
 71
3
 72
15
 73
11
 74
9
 42
0.0000001
 43
0.0000001
 44
0.0000000001
 12
-0.0623422937
 22
-0.0878529862
 32
0.0
 13
-0.0623336094
 23
0.0878583982
 33
0.0
 40
0.0
 40
0.0
 40
0.0
 40
0.0
 40
0.1158084708
 40
0.2374137628
 40
0.3636402353
 40
0.4966978477
 40
0.6329112137
 40
0.7623663444
 40
0.8842896735
 40
1.0
 40
1.0
 40
1.0
 40
1.0
 10
7.0543109325
 20
4.1082989855
 30
0.0
 10
7.0519043439
 20
4.1049076121
 30
0.0
 10
7.0458904181
 20
4.0987363818
 30
0.0
 10
7.034546378
 20
4.0920913574
 30
0.0
 10
7.0214396914
 20
4.0879943321
 30
0.0
 10
7.0072672158
 20
4.0865499266
 30
0.0
 10
6.9929641695
 20
4.0879002425
 30
0.0
 10
6.9796084908
 20
4.0920279176
 30
0.0
 10
6.9681558256
 20
4.0987352954
 30
0.0
 10
6.9621378402
 20
4.1049134865
 30
0.0
 10
6.9597336261
 20
4.1083021945
 30
0.0
 11
7.0543109325
 21
4.1082989855
 31
0.0
 11
7.045705953
 21
4.0993231647
 31
0.0
 11
7.0344987059
 21
4.0926243433
 31
0.0
 11
7.0215872621
 21
4.0885043763
 31
0.0
 11
7.0073778483
 21
4.08702424
 31
0.0
 11
6.9928204746
 21
4.0884303697
 31
0.0
 11
6.9795662586
 21
4.0926162813
 31
0.0
 11
6.968329439
 21
4.0993321842
 31
0.0
 11
6.9597336261
 21
4.1083021945
 31
0.0
  0
SPLINE
  5
500
100
AcDbEntity
  8
0
100
AcDbSpline
 62
7
  6
CONTINUOUS
 70
0
 71
3
 72
8
 73
4
 74
2
 42
0.0000001
 43
0.0000001
 44
0.0000000001
 12
-0.000717219
 22
0.0010109107
 32
0.0
 13
-0.0006856117
 23
0.0010329738
 33
0.0
 40
0.0
 40
0.0
 40
0.0
 40
0.0
 40
1.0
 40
1.0
 40
1.0
 40
1.0
 10
6.9597336261
 20
4.1083021945
 30
0.0
 10
6.9594945531
 20
4.1086391647
 30
0.0
 10
6.9592606823
 20
4.1089798962
 30
0.0
 10
6.9590321451
 20
4.1093242208
 30
0.0
 11
6.9597336261
 21
4.1083021945
 31
0.0
 11
6.9590321451
 21
4.1093242208
 31
0.0
  0
SPLINE
  5
501
100
AcDbEntity
  8
0
100
AcDbSpline
 62
7
  6
CONTINUOUS
 70
0
 71
3
 72
8
 73
4
 74
2
 42
0.0000001
 43
0.0000001
 44
0.0000000001
 12
-0.0057970937
 22
0.0087341658
 32
0.0
 13
-0.0032710497
 23
0.0099706127
 33
0.0
 40
0.0
 40
0.0
 40
0.0
 40
0.0
 40
1.0
 40
1.0
 40
1.0
 40
1.0
 10
6.9590321451
 20
4.1093242208
 30
0.0
 10
6.9570997805
 20
4.1122356094
 30
0.0
 10
6.9555487286
 20
4.1154038818
 30
0.0
 10
6.9544583787
 20
4.1187274194
 30
0.0
 11
6.9590321451
 21
4.1093242208
 31
0.0
 11
6.9544583787
 21
4.1187274194
 31
0.0
  0
SPLINE
  5
502
100
AcDbEntity
  8
0
100
AcDbSpline
 62
7
  6
CONTINUOUS
 70
0
 71
3
 72
17
 73
13
 74
11
 42
0.0000001
 43
0.0000001
 44
0.0000000001
 12
0.0622355875
 22
-0.1465760368
 32
0.0
 13
0.062275802
 23
0.1465699407
 33
0.0
 40
0.0
 40
0.0
 40
0.0
 40
0.0
 40
0.0716795778
 40
0.1734067987
 40
0.2775582149
 40
0.3869963509
 40
0.4988043032
 40
0.6105414933
 40
0.7200133565
 40
0.8243165072
 40
0.9264796365
 40
1.0
 40
1.0
 40
1.0
 40
1.0
 10
5.9218125703
 20
4.126015264
 30
0.0
 10
5.9232995772
 20
4.1225130945
 30
0.0
 10
5.9279228244
 20
4.1144757619
 30
0.0
 10
5.9386899276
 20
4.1041824874
 30
0.0
 10
5.9535403138
 20
4.0962899745
 30
0.0
 10
5.9702135536
 20
4.0916700955
 30
0.0
 10
5.9878238987
 20
4.0901303932
 30
0.0
 10
6.0054413607
 20
4.0916023509
 30
0.0
 10
6.0221402238
 20
4.0961482122
 30
0.0
 10
6.0370624576
 20
4.1039717662
 30
0.0
 10
6.0479906032
 20
4.1142845169
 30
0.0
 10
6.0527046452
 20
4.122414925
 30
0.0
 10
6.054230825
 20
4.1260068834
 30
0.0
 11
5.9218125703
 21
4.126015264
 31
0.0
 11
5.9274811502
 21
4.1161429598
 31
0.0
 11
5.9390133102
 21
4.1048783136
 31
0.0
 11
5.9535017302
 21
4.0969724648
 31
0.0
 11
5.9701812804
 21
4.0922219932
 31
0.0
 11
5.9878285366
 21
4.0906358233
 31
0.0
 11
6.0054707662
 21
4.0921511011
 31
0.0
 11
6.022177288
 21
4.0968257052
 31
0.0
 11
6.0367314296
 21
4.1046607576
 31
0.0
 11
6.0483838561
 21
4.1159006834
 31
0.0
 11
6.054230825
 21
4.1260068834
 31
0.0
  0
SPLINE
  5
503
100
AcDbEntity
  8
0
100
AcDbSpline
 62
7
  6
CONTINUOUS
 70
0
 71
3
 72
9
 73
5
 74
3
 42
0.0000001
 43
0.0000001
 44
0.0000000001
 12
0.0032264737
 22
0.0098094104
 32
0.0
 13
0.005675514
 23
0.008612547
 33
0.0
 40
0.0
 40
0.0
 40
0.0
 40
0.0
 40
0.0135695438
 40
1.0
 40
1.0
 40
1.0
 40
1.0
 10
6.954471296
 20
4.374748673
 30
0.0
 10
6.9544858899
 20
4.3747930428
 30
0.0
 10
6.9555674502
 20
4.3780607791
 30
0.0
 10
6.9570963256
 20
4.3811741991
 30
0.0
 10
6.9589624923
 20
4.384006092
 30
0.0
 11
6.954471296
 21
4.374748673
 31
0.0
 11
6.9545153249
 21
4.3748816977
 31
0.0
 11
6.9589624923
 21
4.384006092
 31
0.0
  0
SPLINE
  5
504
100
AcDbEntity
  8
0
100
AcDbSpline
 62
7
  6
CONTINUOUS
 70
0
 71
3
 72
17
 73
13
 74
11
 42
0.0000001
 43
0.0000001
 44
0.0000000001
 12
0.0599658486
 22
0.0909976934
 32
0.0
 13
0.0635002506
 23
-0.0884329014
 33
0.0
 40
0.0
 40
0.0
 40
0.0
 40
0.0
 40
0.0208399334
 40
0.1331274298
 40
0.2411092366
 40
0.3435938131
 40
0.4555876764
 40
0.5718185811
 40
0.6852398683
 40
0.793041114
 40
0.8971484298
 40
1.0
 40
1.0
 40
1.0
 40
1.0
 10
6.9589624923
 20
4.384006092
 30
0.0
 10
6.9593790537
 20
4.3846382206
 30
0.0
 10
6.9621540479
 20
4.3886001557
 30
0.0
 10
6.9684348914
 20
4.3948212674
 30
0.0
 10
6.9785842109
 20
4.4007890828
 30
0.0
 10
6.9896628159
 20
4.4046390718
 30
0.0
 10
7.001535721
 20
4.4065600284
 30
0.0
 10
7.0139585886
 20
4.4064430985
 30
0.0
 10
7.026032331
 20
4.4042312391
 30
0.0
 10
7.0371020097
 20
4.4000178609
 30
0.0
 10
7.0467765623
 20
4.3938337866
 30
0.0
 10
7.0520037947
 20
4.3883518961
 30
0.0
 10
7.0541808282
 20
4.3853200752
 30
0.0
 11
6.9589624923
 21
4.384006092
 31
0.0
 11
6.9602648366
 21
4.3858657195
 31
0.0
 11
6.9688559398
 21
4.3945138297
 31
0.0
 11
6.9789183215
 21
4.4005278024
 31
0.0
 11
6.989411761
 21
4.4042253075
 31
0.0
 11
7.0014089121
 21
4.4061973829
 31
0.0
 11
7.0140264662
 21
4.4060766889
 31
0.0
 11
7.0261314727
 21
4.4038224351
 31
0.0
 11
7.0370472891
 21
4.3996028189
 31
0.0
 11
7.0465282307
 21
4.3934508616
 31
0.0
 11
7.0541808282
 21
4.3853200752
 31
0.0
  0
SPLINE
  5
505
100
AcDbEntity
  8
0
100
AcDbSpline
 62
7
  6
CONTINUOUS
 70
0
 71
3
 72
8
 73
4
 74
2
 42
0.0000001
 43
0.0000001
 44
0.0000000001
 12
0.0009071359
 22
-0.0012633125
 32
0.0
 13
0.0008576195
 23
-0.0012979652
 33
0.0
 40
0.0
 40
0.0
 40
0.0
 40
0.0
 40
1.0
 40
1.0
 40
1.0
 40
1.0
 10
7.0541808282
 20
4.3853200752
 30
0.0
 10
7.0544832069
 20
4.384898971
 30
0.0
 10
7.054777469
 20
4.3844719345
 30
0.0
 10
7.0550633422
 20
4.3840392794
 30
0.0
 11
7.0541808282
 21
4.3853200752
 31
0.0
 11
7.0550633422
 21
4.3840392794
 31
0.0
  0
SPLINE
  5
506
100
AcDbEntity
  8
0
100
AcDbSpline
 62
7
  6
CONTINUOUS
 70
0
 71
3
 72
9
 73
5
 74
3
 42
0.0000001
 43
0.0000001
 44
0.0000000001
 12
0.0057282193
 22
-0.00866938
 32
0.0
 13
0.0032394788
 23
-0.0098926327
 33
0.0
 40
0.0
 40
0.0
 40
0.0
 40
0.0
 40
0.9673690668
 40
1.0
 40
1.0
 40
1.0
 40
1.0
 10
7.0550633422
 20
4.3840392794
 30
0.0
 10
7.0569104429
 20
4.3812437828
 30
0.0
 10
7.0584578151
 20
4.3781115139
 30
0.0
 10
7.0595524134
 20
4.3748190366
 30
0.0
 10
7.0595876491
 20
4.3747114346
 30
0.0
 11
7.0550633422
 21
4.3840392794
 31
0.0
 11
7.0594804957
 21
4.3750337392
 31
0.0
 11
7.0595876491
 21
4.3747114346
 31
0.0
  0
SPLINE
  5
507
100
AcDbEntity
  8
0
100
AcDbSpline
 62
7
  6
CONTINUOUS
 70
0
 71
3
 72
19
 73
15
 74
13
 42
0.0000001
 43
0.0000001
 44
0.0000000001
 12
-0.1076778901
 22
-0.0208656536
 32
0.0
 13
-0.1076778937
 23
0.0208656527
 33
0.0
 40
0.0
 40
0.0
 40
0.0
 40
0.0
 40
0.0168770899
 40
0.0686188923
 40
0.1508483659
 40
0.2541501725
 40
0.3724385199
 40
0.4990262122
 40
0.6256465276
 40
0.7442360826
 40
0.8481025845
 40
0.931248357
 40
0.9832178688
 40
1.0
 40
1.0
 40
1.0
 40
1.0
 10
7.0615234182
 20
4.5279684326
 30
0.0
 10
7.0609176551
 20
4.5278510488
 30
0.0
 10
7.0584533023
 20
4.5273811711
 30
0.0
 10
7.0530232431
 20
4.526414726
 30
0.0
 10
7.0444466979
 20
4.5251038493
 30
0.0
 10
7.0334117515
 20
4.5238091175
 30
0.0
 10
7.0207124634
 20
4.5228683874
 30
0.0
 10
7.0071290951
 20
4.52252081
 30
0.0
 10
6.9935344479
 20
4.522858231
 30
0.0
 10
6.9808017116
 20
4.5237925972
 30
0.0
 10
6.969701343
 20
4.5250892993
 30
0.0
 10
6.9610627151
 20
4.5264077493
 30
0.0
 10
6.9555948853
 20
4.5273808809
 30
0.0
 10
6.9531257731
 20
4.5278517092
 30
0.0
 10
6.9525234182
 20
4.5279684326
 30
0.0
 11
7.0615234182
 21
4.5279684326
 31
0.0
 11
7.059705075
 21
4.5276217424
 31
0.0
 11
7.0541177143
 21
4.5266276772
 31
0.0
 11
7.0452020285
 21
4.5252663078
 31
0.0
 11
7.0339487124
 21
4.5239480918
 31
0.0
 11
7.0210100066
 21
4.5229917342
 31
0.0
 11
7.0071302427
 21
4.5226374858
 31
0.0
 11
6.9932466346
 21
4.5229811921
 31
0.0
 11
6.9802743233
 21
4.5239310344
 31
0.0
 11
6.9689588191
 21
4.525250704
 31
0.0
 11
6.9599434817
 21
4.5266252616
 31
0.0
 11
6.9543315247
 21
4.5276236624
 31
0.0
 11
6.9525234182
 21
4.5279684326
 31
0.0
  0
SPLINE
  5
508
100
AcDbEntity
  8
0
100
AcDbSpline
 62
7
  6
CONTINUOUS
 70
0
 71
3
 72
19
 73
15
 74
13
 42
0.0000001
 43
0.0000001
 44
0.0000000001
 12
0.1076778963
 22
0.0208656552
 32
0.0
 13
0.1076778998
 23
-0.0208656543
 33
0.0
 40
0.0
 40
0.0
 40
0.0
 40
0.0
 40
0.0169005493
 40
0.0687209691
 40
0.1509999367
 40
0.2542767176
 40
0.372498919
 40
0.4990040667
 40
0.6255425352
 40
0.7440721354
 40
0.8479215748
 40
0.9311328745
 40
0.9831912995
 40
1.0
 40
1.0
 40
1.0
 40
1.0
 10
6.9525234182
 20
3.9654684326
 30
0.0
 10
6.9531300234
 20
3.9655859796
 30
0.0
 10
6.9555980444
 20
3.966056546
 30
0.0
 10
6.9610335828
 20
3.9670238399
 30
0.0
 10
6.9696139182
 20
3.968334884
 30
0.0
 10
6.9806474191
 20
3.9696288513
 30
0.0
 10
6.9933404017
 20
3.9705686452
 30
0.0
 10
7.0069153366
 20
3.9709159026
 30
0.0
 10
7.0205017826
 20
3.9705790269
 30
0.0
 10
7.0332287698
 20
3.969645756
 30
0.0
 10
7.0443288065
 20
3.9683498347
 30
0.0
 10
7.0529724757
 20
3.9670311002
 30
0.0
 10
7.0584468476
 20
3.9660569483
 30
0.0
 10
7.0609201097
 20
3.9655853408
 30
0.0
 10
7.0615234182
 20
3.9654684326
 30
0.0
 11
6.9525234182
 21
3.9654684326
 31
0.0
 11
6.9543442906
 21
3.9658155971
 31
0.0
 11
6.9599401638
 21
3.9668110455
 31
0.0
 11
6.9688612807
 21
3.9681728147
 31
0.0
 11
6.9801119412
 21
3.969490115
 31
0.0
 11
6.9930434476
 21
3.970445466
 31
0.0
 11
7.0069141645
 21
3.9707993785
 31
0.0
 11
7.0207888078
 21
3.9704562411
 31
0.0
 11
7.0337546113
 21
3.9695075577
 31
0.0
 11
7.0450683442
 21
3.9681888491
 31
0.0
 11
7.054090863
 21
3.9668137044
 31
0.0
 11
7.0597124474
 21
3.9658137401
 31
0.0
 11
7.0615234182
 21
3.9654684326
 31
0.0
  0
SPLINE
  5
509
100
AcDbEntity
  8
0
100
AcDbSpline
 62
7
  6
CONTINUOUS
 70
0
 71
3
 72
19
 73
15
 74
13
 42
0.0000001
 43
0.0000001
 44
0.0000000001
 12
0.1076665052
 22
0.0209565885
 32
0.0
 13
0.1076665088
 23
-0.0209565876
 33
0.0
 40
0.0
 40
0.0
 40
0.0
 40
0.0
 40
0.0169018089
 40
0.0687264954
 40
0.1510099084
 40
0.2542876848
 40
0.3725067628
 40
0.4990063996
 40
0.6255389734
 40
0.7440643858
 40
0.8479137658
 40
0.9311284884
 40
0.983190349
 40
1.0
 40
1.0
 40
1.0
 40
1.0
 10
4.9125234182
 20
3.9667184326
 30
0.0
 10
4.9131300045
 20
3.9668365007
 30
0.0
 10
4.9155979747
 20
3.9673091611
 30
0.0
 10
4.9210334279
 20
3.9682807883
 30
0.0
 10
4.9296137163
 20
3.9695977755
 30
0.0
 10
4.9406472573
 20
3.9708976832
 30
0.0
 10
4.9533403939
 20
3.9718418376
 30
0.0
 10
4.9669155719
 20
3.9721907096
 30
0.0
 10
4.9805022247
 20
3.971852245
 30
0.0
 10
4.9932292807
 20
3.970914631
 30
0.0
 10
5.0043292479
 20
3.9696127607
 30
0.0
 10
5.0129727641
 20
3.9682880583
 30
0.0
 10
5.0184469697
 20
3.9673095552
 30
0.0
 10
5.0209201394
 20
3.9668358569
 30
0.0
 10
5.0215234182
 20
3.9667184326
 30
0.0
 11
4.9125234182
 21
3.9667184326
 31
0.0
 11
4.9143442424
 21
3.9670671398
 31
0.0
 11
4.9199401177
 21
3.9680670605
 31
0.0
 11
4.9288612951
 21
3.9694350078
 31
0.0
 11
4.9401119982
 21
3.9707583367
 31
0.0
 11
4.9530435646
 21
3.9717180939
 31
0.0
 11
4.9669144141
 21
3.9720736404
 31
0.0
 11
4.9807891501
 21
3.9717288958
 31
0.0
 11
4.993754903
 21
3.9707758257
 31
0.0
 11
5.005068568
 21
3.9694510825
 31
0.0
 11
5.0140910335
 21
3.9680697104
 31
0.0
 11
5.0197125279
 21
3.9670652683
 31
0.0
 11
5.0215234182
 21
3.9667184326
 31
0.0
  0
SPLINE
  5
50A
100
AcDbEntity
  8
0
100
AcDbSpline
 62
7
  6
CONTINUOUS
 70
0
 71
3
 72
19
 73
15
 74
13
 42
0.0000001
 43
0.0000001
 44
0.0000000001
 12
0.1372644053
 22
0.0341637159
 32
0.0
 13
0.1372644787
 23
-0.0341637198
 33
0.0
 40
0.0
 40
0.0
 40
0.0
 40
0.0
 40
0.0172301253
 40
0.0703560875
 40
0.1546274412
 40
0.2596233284
 40
0.3793570936
 40
0.5065698391
 40
0.6334535783
 40
0.7519404971
 40
0.8547658985
 40
0.9339505985
 40
0.9834415658
 40
1.0
 40
1.0
 40
1.0
 40
1.0
 10
5.9180234182
 20
3.9654684326
 30
0.0
 10
5.9188117792
 20
3.9656646476
 30
0.0
 10
5.9220339062
 20
3.9664539008
 30
0.0
 10
5.9291418015
 20
3.9680797833
 30
0.0
 10
5.9403596135
 20
3.9702821138
 30
0.0
 10
5.9547740216
 20
3.972446291
 30
0.0
 10
5.971306568
 20
3.9739916952
 30
0.0
 10
5.9889381111
 20
3.9745154503
 30
0.0
 10
6.0065068347
 20
3.973875038
 30
0.0
 10
6.0228533643
 20
3.9722452865
 30
0.0
 10
6.0368599363
 20
3.9700696569
 30
0.0
 10
6.0475666539
 20
3.9679327506
 30
0.0
 10
6.0542410077
 20
3.9663983769
 30
0.0
 10
6.05726579
 20
3.9656569985
 30
0.0
 10
6.0580234182
 20
3.9654684326
 30
0.0
 11
5.9180234182
 21
3.9654684326
 31
0.0
 11
5.9203906889
 21
3.966048255
 31
0.0
 11
5.9277165131
 21
3.9677229393
 31
0.0
 11
5.9394143408
 21
3.9700156951
 31
0.0
 11
5.9541025507
 21
3.972214903
 31
0.0
 11
5.9709662384
 21
3.9737852725
 31
0.0
 11
5.9889529427
 21
3.9743172092
 31
0.0
 11
6.0068891644
 21
3.9736662785
 31
0.0
 11
6.023567365
 21
3.9720096147
 31
0.0
 11
6.0379408184
 21
3.9697828637
 31
0.0
 11
6.0489256715
 21
3.9675936452
 31
0.0
 11
6.0557485134
 21
3.9660259834
 31
0.0
 11
6.0580234182
 21
3.9654684326
 31
0.0
  0
SPLINE
  5
50B
100
AcDbEntity
  8
0
100
AcDbSpline
 62
7
  6
CONTINUOUS
 70
0
 71
3
 72
19
 73
15
 74
13
 42
0.0000001
 43
0.0000001
 44
0.0000000001
 12
0.0
 22
0.1562133576
 32
0.0
 13
0.0
 23
-0.1562133576
 33
0.0
 40
0.0
 40
0.0
 40
0.0
 40
0.0
 40
0.077006508
 40
0.1547068404
 40
0.2348697095
 40
0.3187832219
 40
0.4060098027
 40
0.4980264245
 40
0.5918909565
 40
0.6810131965
 40
0.765251617
 40
0.8454049021
 40
0.9231073173
 40
1.0
 40
1.0
 40
1.0
 40
1.0
 10
4.9125234182
 20
4.3867184326
 30
0.0
 10
4.9125234182
 20
4.3907282477
 30
0.0
 10
4.9137357452
 20
4.3988438258
 30
0.0
 10
4.9192774174
 20
4.4099596585
 30
0.0
 10
4.9280969637
 20
4.4191845829
 30
0.0
 10
4.9394249458
 20
4.4259975071
 30
0.0
 10
4.9525665715
 20
4.4302357124
 30
0.0
 10
4.966807483
 20
4.4317317262
 30
0.0
 10
4.9811611896
 20
4.4303216536
 30
0.0
 10
4.9945232443
 20
4.4260567604
 30
0.0
 10
5.0059528461
 20
4.4191852757
 30
0.0
 10
5.0147801287
 20
4.4099445472
 30
0.0
 10
5.0203138888
 20
4.3988318153
 30
0.0
 10
5.0215234182
 20
4.3907223206
 30
0.0
 10
5.0215234182
 20
4.3867184326
 30
0.0
 11
4.9125234182
 21
4.3867184326
 31
0.0
 11
4.914334336
 21
4.3986107885
 31
0.0
 11
4.9197120291
 21
4.4094923016
 31
0.0
 11
4.9282969264
 21
4.4186089248
 31
0.0
 11
4.939475623
 21
4.4254548869
 31
0.0
 11
4.9524209844
 21
4.4297074533
 31
0.0
 11
4.966713436
 21
4.4312385264
 31
0.0
 11
4.9813031858
 21
4.4297757708
 31
0.0
 11
4.9945421121
 21
4.4254681888
 31
0.0
 11
5.005764825
 21
4.4185969168
 31
0.0
 11
5.0143449235
 21
4.4094778327
 31
0.0
 11
5.0197178925
 21
4.3985936232
 31
0.0
 11
5.0215234182
 21
4.3867184326
 31
0.0
  0
SPLINE
  5
50C
100
AcDbEntity
  8
0
100
AcDbSpline
 62
7
  6
CONTINUOUS
 70
0
 71
3
 72
19
 73
15
 74
13
 42
0.0000001
 43
0.0000001
 44
0.0000000001
 12
0.0
 22
0.1562278439
 32
0.0
 13
0.0
 23
-0.1562278439
 33
0.0
 40
0.0
 40
0.0
 40
0.0
 40
0.0
 40
0.0770186908
 40
0.1547387417
 40
0.2349233356
 40
0.3188546778
 40
0.4060852562
 40
0.498016534
 40
0.5918276051
 40
0.680943424
 40
0.7651971153
 40
0.8453729958
 40
0.9230948514
 40
1.0
 40
1.0
 40
1.0
 40
1.0
 10
6.9525234182
 20
4.3873434326
 30
0.0
 10
6.9525234182
 20
4.3913542539
 30
0.0
 10
6.9537364207
 20
4.3994722312
 30
0.0
 10
6.9592800258
 20
4.4105914844
 30
0.0
 10
6.9681021204
 20
4.4198198658
 30
0.0
 10
6.9794327318
 20
4.4266352832
 30
0.0
 10
6.9925724339
 20
4.4308730452
 30
0.0
 10
7.0068075537
 20
4.4323685259
 30
0.0
 10
7.0211550498
 20
4.4309591912
 30
0.0
 10
7.0345160367
 20
4.4266941992
 30
0.0
 10
7.0459477123
 20
4.4198205235
 30
0.0
 10
7.05477749
 20
4.4105764239
 30
0.0
 10
7.0603132094
 20
4.3994602354
 30
0.0
 10
7.0615234182
 20
4.3913483411
 30
0.0
 10
7.0615234182
 20
4.3873434326
 30
0.0
 11
6.9525234182
 21
4.3873434326
 31
0.0
 11
6.9543350206
 21
4.3992387378
 31
0.0
 11
6.9597146563
 21
4.4101239828
 31
0.0
 11
6.9683023618
 21
4.4192442186
 31
0.0
 11
6.9794841694
 21
4.4260927618
 31
0.0
 11
6.9924313282
 21
4.4303459068
 31
0.0
 11
7.0067118535
 21
4.43187565
 31
0.0
 11
7.0212946695
 21
4.430413828
 31
0.0
 11
7.0345338041
 21
4.4261059558
 31
0.0
 11
7.0457592828
 21
4.4192322953
 31
0.0
 11
7.0543422966
 21
4.410109513
 31
0.0
 11
7.0597171953
 21
4.3992216138
 31
0.0
 11
7.0615234182
 21
4.3873434326
 31
0.0
  0
SPLINE
  5
50D
100
AcDbEntity
  8
0
100
AcDbSpline
 62
7
  6
CONTINUOUS
 70
0
 71
3
 72
19
 73
15
 74
13
 42
0.0000001
 43
0.0000001
 44
0.0000000001
 12
0.0
 22
-0.199470574
 32
0.0
 13
0.0
 23
0.199470574
 33
0.0
 40
0.0
 40
0.0
 40
0.0
 40
0.0
 40
0.0766712696
 40
0.1538339429
 40
0.2333592093
 40
0.3170149916
 40
0.4045195749
 40
0.4982763746
 40
0.5934167401
 40
0.682836823
 40
0.7667362228
 40
0.8462337757
 40
0.9233729419
 40
1.0
 40
1.0
 40
1.0
 40
1.0
 10
6.0580234182
 20
4.1060934326
 30
0.0
 10
6.0580234182
 20
4.1009955452
 30
0.0
 10
6.0565003229
 20
4.0906881998
 30
0.0
 10
6.0494351484
 20
4.0765919301
 30
0.0
 10
6.0381387779
 20
4.0649700436
 30
0.0
 10
6.0236163374
 20
4.0564488446
 30
0.0
 10
6.0066836799
 20
4.0511453572
 30
0.0
 10
5.9882792161
 20
4.0492772188
 30
0.0
 10
5.9697332952
 20
4.0510497797
 30
0.0
 10
5.9525532996
 20
4.0563767901
 30
0.0
 10
5.9379056715
 20
4.0649691688
 30
0.0
 10
5.9266038325
 20
4.0766037392
 30
0.0
 10
5.9195449101
 20
4.0906957848
 30
0.0
 10
5.9180234182
 20
4.1009984848
 30
0.0
 10
5.9180234182
 20
4.1060934326
 30
0.0
 11
6.0580234182
 21
4.1060934326
 31
0.0
 11
6.0557265926
 21
4.0909732245
 31
0.0
 11
6.0488711374
 21
4.077192563
 31
0.0
 11
6.0379093117
 21
4.0657264574
 31
0.0
 11
6.0235945538
 21
4.0571509555
 31
0.0
 11
6.0069705497
 21
4.0518306941
 31
0.0
 11
5.988369016
 21
4.0498974648
 31
0.0
 11
5.9694816578
 21
4.0517470383
 31
0.0
 11
5.9524794398
 21
4.0571388438
 31
0.0
 11
5.9381224327
 21
4.0657383797
 31
0.0
 11
5.9271678085
 21
4.0772037213
 31
0.0
 11
5.9203175645
 21
4.0909817376
 31
0.0
 11
5.9180234182
 21
4.1060934326
 31
0.0
  0
SPLINE
  5
50E
100
AcDbEntity
  8
0
100
AcDbSpline
 62
7
  6
CONTINUOUS
 70
0
 71
3
 72
19
 73
15
 74
13
 42
0.0000001
 43
0.0000001
 44
0.0000000001
 12
0.0
 22
-0.1562132964
 32
0.0
 13
0.0
 23
0.1562132964
 33
0.0
 40
0.0
 40
0.0
 40
0.0
 40
0.0
 40
0.0770230149
 40
0.1547435659
 40
0.234927534
 40
0.3188621344
 40
0.4060991417
 40
0.4980118293
 40
0.5918177106
 40
0.6809375573
 40
0.7651939788
 40
0.8453693961
 40
0.9230912961
 40
1.0
 40
1.0
 40
1.0
 40
1.0
 10
5.0215234182
 20
4.1067184326
 30
0.0
 10
5.0215234182
 20
4.1027077596
 30
0.0
 10
5.0203105322
 20
4.0945902315
 30
0.0
 10
5.0147662451
 20
4.0834721837
 30
0.0
 10
5.0059427972
 20
4.074246357
 30
0.0
 10
4.9946110349
 20
4.0674343208
 30
0.0
 10
4.9814721369
 20
4.0632000218
 30
0.0
 10
4.9672393045
 20
4.0617059987
 30
0.0
 10
4.9528942066
 20
4.0631138469
 30
0.0
 10
4.9395335645
 20
4.0673755957
 30
0.0
 10
4.9281008826
 20
4.0742458272
 30
0.0
 10
4.9192698168
 20
4.0834873764
 30
0.0
 10
4.9137334886
 20
4.094602332
 30
0.0
 10
4.9125234182
 20
4.1027137119
 30
0.0
 10
4.9125234182
 20
4.1067184326
 30
0.0
 11
5.0215234182
 21
4.1067184326
 31
0.0
 11
5.0197117193
 21
4.0948235921
 31
0.0
 11
5.0143314864
 21
4.0839398164
 31
0.0
 11
5.0057428124
 21
4.0748222294
 31
0.0
 11
4.9945599236
 21
4.0679768155
 31
0.0
 11
4.9816121236
 21
4.0637264714
 31
0.0
 11
4.9673356904
 21
4.0621983488
 31
0.0
 11
4.9527549173
 21
4.0636587388
 31
0.0
 11
4.9395155484
 21
4.0679637338
 31
0.0
 11
4.9282890839
 21
4.0748342532
 31
0.0
 11
4.9197051215
 21
4.083954442
 31
0.0
 11
4.914329701
 21
4.0948408304
 31
0.0
 11
4.9125234182
 21
4.1067184326
 31
0.0
  0
SPLINE
  5
50F
100
AcDbEntity
  8
0
100
AcDbSpline
 62
7
  6
CONTINUOUS
 70
0
 71
3
 72
19
 73
15
 74
13
 42
0.0000001
 43
0.0000001
 44
0.0000000001
 12
0.0
 22
0.1994707165
 32
0.0
 13
-0.0
 23
-0.1994707165
 33
0.0
 40
0.0
 40
0.0
 40
0.0
 40
0.0
 40
0.0766442255
 40
0.1537707905
 40
0.2332568638
 40
0.3168888579
 40
0.4044316747
 40
0.4983335002
 40
0.593551227
 40
0.6829667287
 40
0.7668347268
 40
0.8462938856
 40
0.9233995369
 40
1.0
 40
1.0
 40
1.0
 40
1.0
 10
5.9180234182
 20
4.3873434326
 30
0.0
 10
5.9180234182
 20
4.3924395255
 30
0.0
 10
5.9195453294
 20
4.4027425879
 30
0.0
 10
5.9266046433
 20
4.4168338108
 30
0.0
 10
5.937892667
 20
4.4284543038
 30
0.0
 10
5.9524107784
 20
4.4369796467
 30
0.0
 10
5.9693524592
 20
4.442290677
 30
0.0
 10
5.9877746464
 20
4.4441611168
 30
0.0
 10
6.0063349542
 20
4.4423834505
 30
0.0
 10
6.0235159755
 20
4.4370501372
 30
0.0
 10
6.0381563378
 20
4.4284552594
 30
0.0
 10
6.0494497788
 20
4.4168224307
 30
0.0
 10
6.0565030715
 20
4.402735237
 30
0.0
 10
6.0580234182
 20
4.3924366157
 30
0.0
 10
6.0580234182
 20
4.3873434326
 30
0.0
 11
5.9180234182
 21
4.3873434326
 31
0.0
 11
5.920318608
 21
4.4024584439
 31
0.0
 11
5.9271683527
 21
4.4162339136
 31
0.0
 11
5.9381213662
 21
4.4276976427
 31
0.0
 11
5.9524291461
 21
4.4362755808
 31
0.0
 11
5.969059019
 21
4.4416025637
 31
0.0
 11
5.9876892712
 21
4.4435394414
 31
0.0
 11
6.0065916154
 21
4.4416844313
 31
0.0
 11
6.0235912279
 21
4.4362873937
 31
0.0
 11
6.0379399508
 21
4.4276861957
 31
0.0
 11
6.0488860171
 21
4.416223255
 31
0.0
 11
6.0557308796
 21
4.402450017
 31
0.0
 11
6.0580234182
 21
4.3873434326
 31
0.0
  0
SPLINE
  5
510
100
AcDbEntity
  8
0
100
AcDbSpline
 62
7
  6
CONTINUOUS
 70
0
 71
3
 72
19
 73
15
 74
13
 42
0.0000001
 43
0.0000001
 44
0.0000000001
 12
0.0
 22
-0.1562277826
 32
0.0
 13
-0.0
 23
0.1562277826
 33
0.0
 40
0.0
 40
0.0
 40
0.0
 40
0.0
 40
0.0770351822
 40
0.154775406
 40
0.234980997
 40
0.3189339625
 40
0.4061774243
 40
0.498003506
 40
0.5917548992
 40
0.6808678715
 40
0.7651395089
 40
0.8453375119
 40
0.9230788485
 40
1.0
 40
1.0
 40
1.0
 40
1.0
 10
7.0615234182
 20
4.1060934326
 30
0.0
 10
7.0615234182
 20
4.102081754
 30
0.0
 10
7.0603098573
 20
4.0939618299
 30
0.0
 10
7.0547636428
 20
4.0828403685
 30
0.0
 10
7.0459376367
 20
4.0736110661
 30
0.0
 10
7.0346031105
 20
4.0667964617
 30
0.0
 10
7.0214660258
 20
4.0625626315
 30
0.0
 10
7.0072389739
 20
4.0610692105
 30
0.0
 10
6.9929002356
 20
4.0624763399
 30
0.0
 10
6.9795407424
 20
4.0667381728
 30
0.0
 10
6.9681060111
 20
4.0736105834
 30
0.0
 10
6.9592724537
 20
4.0828555025
 30
0.0
 10
6.9537341677
 20
4.0939739138
 30
0.0
 10
6.9525234182
 20
4.1020876923
 30
0.0
 10
6.9525234182
 20
4.1060934326
 30
0.0
 11
7.0615234182
 21
4.1060934326
 31
0.0
 11
7.0597110353
 21
4.0941956449
 31
0.0
 11
7.0543288646
 21
4.0833081428
 31
0.0
 11
7.0457373966
 21
4.0741869509
 31
0.0
 11
7.034551323
 21
4.0673389154
 31
0.0
 11
7.0216013438
 21
4.0630879251
 31
0.0
 11
7.0073370269
 21
4.0615612241
 31
0.0
 11
6.9927633516
 21
4.0630206989
 31
0.0
 11
6.9795238448
 21
4.0673259716
 31
0.0
 11
6.9682946225
 21
4.074198877
 31
0.0
 11
6.9597077466
 21
4.0833227641
 31
0.0
 11
6.9543303974
 21
4.0942128423
 31
0.0
 11
6.9525234182
 21
4.1060934326
 31
0.0
  0
ENDSEC
  0
SECTION
  2
OBJECTS
  0
DICTIONARY
  5
C
100
AcDbDictionary
280
0
281
1
  3
ACAD_GROUP
350
D
  3
ACAD_MLINESTYLE
350
17
  3
ACAD_LAYOUT
350
1A
  3
ACAD_PLOTSETTINGS
350
19
  3
ACAD_PLOTSTYLENAME
350
E
  0
DICTIONARY
  5
D
102
{ACAD_REACTORS
330
C
102
}
100
AcDbDictionary
280
0
281
1
  0
ACDBDICTIONARYWDFLT
  5
E
102
{ACAD_REACTORS
330
C
102
}
100
AcDbDictionary
281
1
  3
Normal
350
F
100
AcDbDictionaryWithDefault
340
F
  0
DICTIONARY
  5
17
102
{ACAD_REACTORS
330
C
102
}
100
AcDbDictionary
280
0
281
1
  3
Standard
350
18
  0
DICTIONARY
  5
19
102
{ACAD_REACTORS
330
C
102
}
100
AcDbDictionary
281
1
  0
DICTIONARY
  5
1A
102
{ACAD_REACTORS
330
C
102
}
100
AcDbDictionary
281
1
  3
Layout1
350
1E
  3
Model
350
22
  0
ACDBPLACEHOLDER
  5
F
102
{ACAD_REACTORS
330
E
102
}
  0
MLINESTYLE
  5
18
102
{ACAD_REACTORS
330
17
102
}
100
AcDbMlineStyle
  2
STANDARD
 70
0
  3

 62
256
 51
90.0
 52
90.0
 71
2
 49
0.5
 62
256
  6
BYLAYER
 49
-0.5
 62
256
  6
BYLAYER
  0
LAYOUT
  5
1E
102
{ACAD_REACTORS
330
1A
102
}
100
AcDbPlotSettings
  1

  2

  4

  6

 40
0.0
 41
0.0
 42
0.0
 43
0.0
 44
0.0
 45
0.0
 46
0.0
 47
0.0
 48
0.0
 49
0.0
140
0.0
141
0.0
142
1.0
143
1.0
 70
0
 72
0
 73
0
 74
0
  7

 75
0
147
1.0
148
0.0
149
0.0
100
AcDbLayout
  1
Layout1
 70
0
 71
0
 10
0.0
 20
0.0
 11
0.0
 21
0.0
 12
0.0
 22
0.0
 32
0.0
 14
0.0
 24
0.0
 34
0.0
 15
0.0
 25
0.0
 35
0.0
146
0.0
 13
0.0
 23
0.0
 33
0.0
 16
0.0
 26
0.0
 36
0.0
 17
0.0
 27
0.0
 37
0.0
 76
0
330
1B
331
0
345
0
346
0
  0
LAYOUT
  5
22
102
{ACAD_REACTORS
330
1A
102
}
100
AcDbPlotSettings
  1

  2

  4

  6

 40
0.0
 41
0.0
 42
0.0
 43
0.0
 44
0.0
 45
0.0
 46
0.0
 47
0.0
 48
0.0
 49
0.0
140
0.0
141
0.0
142
1.0
143
1.0
 70
0
 72
0
 73
0
 74
0
  7

 75
0
147
1.0
148
0.0
149
0.0
100
AcDbLayout
  1
Model
 70
0
 71
0
 10
0.0
 20
0.0
 11
0.0
 21
0.0
 12
0.0
 22
0.0
 32
0.0
 14
0.0
 24
0.0
 34
0.0
 15
0.0
 25
0.0
 35
0.0
146
0.0
 13
0.0
 23
0.0
 33
0.0
 16
0.0
 26
0.0
 36
0.0
 17
0.0
 27
0.0
 37
0.0
 76
0
330
1F
331
0
345
0
346
0
  0
ENDSEC
  0
EOF
