999
DXF file: FRDA-XAN.dxf
999
Pro/ENGINEER 2006240 by Parametric Technology Corporation
  0
SECTION
  2
HEADER
  9
$ACADVER
  1
AC1015
  9
$DWGCODEPAGE
  3
ANSI_1252
  9
$EXTMAX
 10
11.6929133858
 20
8.2677165354
 30
0.0
  9
$EXTMIN
 10
0.0
 20
0.0
 30
0.0
  9
$LIMMIN
 10
0.0
 20
0.0
  9
$LIMMAX
 10
11.6929133858
 20
8.2677165354
  9
$VIEWCTR
 10
5.8464566929
 20
4.1338582677
  9
$VIEWSIZE
 40
8.2677165354
  9
$CLAYER
  8
0
  9
$LTSCALE
 40
0.6431102362
  9
$CELTYPE
  6
BYLAYER
  9
$DIMSCALE
 40
1.0
  9
$DIMASZ
 40
0.1875
  9
$DIMEXO
 40
0.0730807087
  9
$DIMDLI
 40
0.4443307087
  9
$DIMEXE
 40
0.2104724409
  9
$DIMCEN
 40
0.1052362205
  9
$DIMLFAC
 40
1.0
  9
$DIMBLK
  1
_CLOSED
  9
$DIMTXT
 40
0.15625
  9
$DIMTOL
 70
0
  9
$DIMLIM
 70
0
  9
$DIMTFAC
 40
1.0
  9
$PDMODE
 70
3
  9
$PDSIZE
 40
0.3125
  9
$HANDSEED
  5
539
  9
$MEASUREMENT
 70
0
  9
$INSUNITS
 70
1
  0
ENDSEC
  0
SECTION
  2
CLASSES
  0
CLASS
  1
ACDBDICTIONARYWDFLT
  2
AcDbDictionaryWithDefault
  3
AutoCAD 2000
 90
0
280
0
281
0
  0
CLASS
  1
ACDBPLACEHOLDER
  2
AcDbPlaceHolder
  3
AutoCAD 2000
 90
0
280
0
281
0
  0
CLASS
  1
LAYOUT
  2
AcDbLayout
  3
AutoCAD 2000
 90
0
280
0
281
0
  0
ENDSEC
  0
SECTION
  2
TABLES
  0
TABLE
  2
VPORT
  5
8
100
AcDbSymbolTable
 70
2
  0
VPORT
  5
1F4
100
AcDbSymbolTableRecord
100
AcDbViewportTableRecord
  2
*ACTIVE
 70
0
 10
0.0
 20
0.0
 11
1.0
 21
1.0
 12
5.8464566929
 22
4.1338582677
 13
0.0
 23
0.0
 14
1.0
 24
1.0
 15
0.0
 25
0.0
 16
0.0
 26
0.0
 36
1.0
 17
0.0
 27
0.0
 37
0.0
 40
8.2677165354
 41
1.4142857143
 42
50.0
 43
0.0
 44
0.0
 50
0.0
 51
0.0
 71
0
 72
100
 73
1
 74
1
 75
0
 76
0
 77
0
 78
0
  0
ENDTAB
  0
TABLE
  2
LTYPE
  5
5
100
AcDbSymbolTable
 70
6
  0
LTYPE
  5
14
100
AcDbSymbolTableRecord
100
AcDbLinetypeTableRecord
  2
BYBLOCK
 70
0
  3

 72
65
 73
0
 40
0.0
  0
LTYPE
  5
15
100
AcDbSymbolTableRecord
100
AcDbLinetypeTableRecord
  2
BYLAYER
 70
0
  3

 72
65
 73
0
 40
0.0
  0
LTYPE
  5
16
100
AcDbSymbolTableRecord
100
AcDbLinetypeTableRecord
  2
CONTINUOUS
 70
64
  3
Solid line
 72
65
 73
0
 40
0.0
  0
LTYPE
  5
1F5
100
AcDbSymbolTableRecord
100
AcDbLinetypeTableRecord
  2
CENTER
 70
64
  3
____ _ ____ _ ____ _ ____ _ ____ _ ____ _ ____
 72
65
 73
4
 40
0.6
 49
0.375
 74
0
 49
-0.075
 74
0
 49
0.075
 74
0
 49
-0.075
 74
0
  0
LTYPE
  5
1F6
100
AcDbSymbolTableRecord
100
AcDbLinetypeTableRecord
  2
HIDDEN
 70
64
  3
- - - - - - - - - - - - - - - - - - - -
 72
65
 73
2
 40
0.2
 49
0.1
 74
0
 49
-0.1
 74
0
  0
LTYPE
  5
1F7
100
AcDbSymbolTableRecord
100
AcDbLinetypeTableRecord
  2
PHANTOM
 70
64
  3
_____ _ _ _____ _ _ _____ _ _ _____
 72
65
 73
6
 40
0.8
 49
0.45
 74
0
 49
-0.05
 74
0
 49
0.1
 74
0
 49
-0.05
 74
0
 49
0.1
 74
0
 49
-0.05
 74
0
  0
LTYPE
  5
1F8
100
AcDbSymbolTableRecord
100
AcDbLinetypeTableRecord
  2
DOT
 70
64
  3
. . . . . . . . . . . . . . . . . . . .
 72
65
 73
2
 40
0.2
 49
0.1
 74
0
 49
-0.1
 74
0
  0
LTYPE
  5
1F9
100
AcDbSymbolTableRecord
100
AcDbLinetypeTableRecord
  2
DASHED
 70
64
  3
- - - - - - - - - - - - - - - - - - - -
 72
65
 73
2
 40
0.2
 49
0.1
 74
0
 49
-0.1
 74
0
  0
ENDTAB
  0
TABLE
  2
LAYER
  5
2
100
AcDbSymbolTable
 70
36
  0
LAYER
  5
10
100
AcDbSymbolTableRecord
100
AcDbLayerTableRecord
  2
0
 70
0
 62
7
  6
CONTINUOUS
370
-3
390
F
  0
LAYER
  5
1FA
100
AcDbSymbolTableRecord
100
AcDbLayerTableRecord
  2
DEFAULT_1
 70
0
 62
7
  6
CENTER
370
-3
390
F
  0
LAYER
  5
1FB
100
AcDbSymbolTableRecord
100
AcDbLayerTableRecord
  2
DEFAULT_2
 70
0
 62
8
  6
HIDDEN
370
-3
390
F
  0
LAYER
  5
1FC
100
AcDbSymbolTableRecord
100
AcDbLayerTableRecord
  2
DEFAULT_3
 70
0
 62
7
  6
PHANTOM
370
-3
390
F
  0
LAYER
  5
1FD
100
AcDbSymbolTableRecord
100
AcDbLayerTableRecord
  2
_BLACK_HOLE
 70
0
 62
7
  6
CONTINUOUS
370
-3
390
F
  0
LAYER
  5
1FE
100
AcDbSymbolTableRecord
100
AcDbLayerTableRecord
  2
01_ALL_DTM_PLN
 70
0
 62
7
  6
CONTINUOUS
370
-3
390
F
  0
LAYER
  5
1FF
100
AcDbSymbolTableRecord
100
AcDbLayerTableRecord
  2
01__ASM_ALL_DTM_PLN
 70
0
 62
7
  6
CONTINUOUS
370
-3
390
F
  0
LAYER
  5
200
100
AcDbSymbolTableRecord
100
AcDbLayerTableRecord
  2
01__ASM_DEF_DTM_PLN
 70
0
 62
7
  6
CONTINUOUS
370
-3
390
F
  0
LAYER
  5
201
100
AcDbSymbolTableRecord
100
AcDbLayerTableRecord
  2
01___PRT_ALL_DTM_PLN
 70
0
 62
7
  6
CONTINUOUS
370
-3
390
F
  0
LAYER
  5
202
100
AcDbSymbolTableRecord
100
AcDbLayerTableRecord
  2
01___PRT_DEF_DTM_PLN
 70
0
 62
7
  6
CONTINUOUS
370
-3
390
F
  0
LAYER
  5
203
100
AcDbSymbolTableRecord
100
AcDbLayerTableRecord
  2
02_ALL_AXES
 70
0
 62
7
  6
CONTINUOUS
370
-3
390
F
  0
LAYER
  5
204
100
AcDbSymbolTableRecord
100
AcDbLayerTableRecord
  2
02__ASM_ALL_AXES
 70
0
 62
7
  6
CONTINUOUS
370
-3
390
F
  0
LAYER
  5
205
100
AcDbSymbolTableRecord
100
AcDbLayerTableRecord
  2
02___PRT_ALL_AXES
 70
0
 62
7
  6
CONTINUOUS
370
-3
390
F
  0
LAYER
  5
206
100
AcDbSymbolTableRecord
100
AcDbLayerTableRecord
  2
03_ALL_CURVES
 70
0
 62
7
  6
CONTINUOUS
370
-3
390
F
  0
LAYER
  5
207
100
AcDbSymbolTableRecord
100
AcDbLayerTableRecord
  2
03__ASM_ALL_CURVES
 70
0
 62
7
  6
CONTINUOUS
370
-3
390
F
  0
LAYER
  5
208
100
AcDbSymbolTableRecord
100
AcDbLayerTableRecord
  2
03___PRT_ALL_CURVES
 70
0
 62
7
  6
CONTINUOUS
370
-3
390
F
  0
LAYER
  5
209
100
AcDbSymbolTableRecord
100
AcDbLayerTableRecord
  2
04_ALL_DTM_PNT
 70
0
 62
7
  6
CONTINUOUS
370
-3
390
F
  0
LAYER
  5
20A
100
AcDbSymbolTableRecord
100
AcDbLayerTableRecord
  2
04__ASM_ALL_DTM_PNT
 70
0
 62
7
  6
CONTINUOUS
370
-3
390
F
  0
LAYER
  5
20B
100
AcDbSymbolTableRecord
100
AcDbLayerTableRecord
  2
04___PRT_ALL_DTM_PNT
 70
0
 62
7
  6
CONTINUOUS
370
-3
390
F
  0
LAYER
  5
20C
100
AcDbSymbolTableRecord
100
AcDbLayerTableRecord
  2
05_ALL_DTM_CSYS
 70
0
 62
7
  6
CONTINUOUS
370
-3
390
F
  0
LAYER
  5
20D
100
AcDbSymbolTableRecord
100
AcDbLayerTableRecord
  2
05__ASM_ALL_DTM_CSYS
 70
0
 62
7
  6
CONTINUOUS
370
-3
390
F
  0
LAYER
  5
20E
100
AcDbSymbolTableRecord
100
AcDbLayerTableRecord
  2
05__ASM_DEF_DTM_CSYS
 70
0
 62
7
  6
CONTINUOUS
370
-3
390
F
  0
LAYER
  5
20F
100
AcDbSymbolTableRecord
100
AcDbLayerTableRecord
  2
05___PRT_ALL_DTM_CSYS
 70
0
 62
7
  6
CONTINUOUS
370
-3
390
F
  0
LAYER
  5
210
100
AcDbSymbolTableRecord
100
AcDbLayerTableRecord
  2
05___PRT_DEF_DTM_CSYS
 70
0
 62
7
  6
CONTINUOUS
370
-3
390
F
  0
LAYER
  5
211
100
AcDbSymbolTableRecord
100
AcDbLayerTableRecord
  2
06_ALL_SURFS
 70
0
 62
7
  6
CONTINUOUS
370
-3
390
F
  0
LAYER
  5
212
100
AcDbSymbolTableRecord
100
AcDbLayerTableRecord
  2
06__ASM_ALL_SURFS
 70
0
 62
7
  6
CONTINUOUS
370
-3
390
F
  0
LAYER
  5
213
100
AcDbSymbolTableRecord
100
AcDbLayerTableRecord
  2
06___PRT_ALL_SURFS
 70
0
 62
7
  6
CONTINUOUS
370
-3
390
F
  0
LAYER
  5
214
100
AcDbSymbolTableRecord
100
AcDbLayerTableRecord
  2
07__ASM_ALL_SKELETONS
 70
0
 62
7
  6
CONTINUOUS
370
-3
390
F
  0
LAYER
  5
215
100
AcDbSymbolTableRecord
100
AcDbLayerTableRecord
  2
125-021_FEATURES
 70
0
 62
7
  6
CONTINUOUS
370
-3
390
F
  0
LAYER
  5
216
100
AcDbSymbolTableRecord
100
AcDbLayerTableRecord
  2
125-021_REF_GEOMETRY
 70
0
 62
7
  6
CONTINUOUS
370
-3
390
F
  0
LAYER
  5
217
100
AcDbSymbolTableRecord
100
AcDbLayerTableRecord
  2
125-089_FEATURES
 70
0
 62
7
  6
CONTINUOUS
370
-3
390
F
  0
LAYER
  5
218
100
AcDbSymbolTableRecord
100
AcDbLayerTableRecord
  2
125-089_REF_GEOMETRY
 70
0
 62
7
  6
CONTINUOUS
370
-3
390
F
  0
LAYER
  5
219
100
AcDbSymbolTableRecord
100
AcDbLayerTableRecord
  2
125-094_FEATURES
 70
0
 62
7
  6
CONTINUOUS
370
-3
390
F
  0
LAYER
  5
21A
100
AcDbSymbolTableRecord
100
AcDbLayerTableRecord
  2
125-094_REF_GEOMETRY
 70
0
 62
7
  6
CONTINUOUS
370
-3
390
F
  0
LAYER
  5
21B
100
AcDbSymbolTableRecord
100
AcDbLayerTableRecord
  2
127-310_FEATURES
 70
0
 62
7
  6
CONTINUOUS
370
-3
390
F
  0
LAYER
  5
21C
100
AcDbSymbolTableRecord
100
AcDbLayerTableRecord
  2
127-310_REF_GEOMETRY
 70
0
 62
7
  6
CONTINUOUS
370
-3
390
F
  0
LAYER
  5
21D
100
AcDbSymbolTableRecord
100
AcDbLayerTableRecord
  2
127-311_FEATURES
 70
0
 62
7
  6
CONTINUOUS
370
-3
390
F
  0
LAYER
  5
21E
100
AcDbSymbolTableRecord
100
AcDbLayerTableRecord
  2
127-311_REF_GEOMETRY
 70
0
 62
7
  6
CONTINUOUS
370
-3
390
F
  0
LAYER
  5
21F
100
AcDbSymbolTableRecord
100
AcDbLayerTableRecord
  2
127-312_FEATURES
 70
0
 62
7
  6
CONTINUOUS
370
-3
390
F
  0
LAYER
  5
220
100
AcDbSymbolTableRecord
100
AcDbLayerTableRecord
  2
127-312_REF_GEOMETRY
 70
0
 62
7
  6
CONTINUOUS
370
-3
390
F
  0
LAYER
  5
221
100
AcDbSymbolTableRecord
100
AcDbLayerTableRecord
  2
ALL_DATUM_FEAT
 70
0
 62
7
  6
CONTINUOUS
370
-3
390
F
  0
LAYER
  5
222
100
AcDbSymbolTableRecord
100
AcDbLayerTableRecord
  2
AXIS
 70
0
 62
7
  6
CONTINUOUS
370
-3
390
F
  0
LAYER
  5
223
100
AcDbSymbolTableRecord
100
AcDbLayerTableRecord
  2
COPY_GEO_FET
 70
0
 62
7
  6
CONTINUOUS
370
-3
390
F
  0
LAYER
  5
224
100
AcDbSymbolTableRecord
100
AcDbLayerTableRecord
  2
COSMETIC
 70
0
 62
7
  6
CONTINUOUS
370
-3
390
F
  0
LAYER
  5
225
100
AcDbSymbolTableRecord
100
AcDbLayerTableRecord
  2
CSYS
 70
0
 62
7
  6
CONTINUOUS
370
-3
390
F
  0
LAYER
  5
226
100
AcDbSymbolTableRecord
100
AcDbLayerTableRecord
  2
CURVES
 70
0
 62
7
  6
CONTINUOUS
370
-3
390
F
  0
LAYER
  5
227
100
AcDbSymbolTableRecord
100
AcDbLayerTableRecord
  2
CUT_REF_SURF
 70
0
 62
7
  6
CONTINUOUS
370
-3
390
F
  0
LAYER
  5
228
100
AcDbSymbolTableRecord
100
AcDbLayerTableRecord
  2
DATUM
 70
0
 62
7
  6
CONTINUOUS
370
-3
390
F
  0
LAYER
  5
229
100
AcDbSymbolTableRecord
100
AcDbLayerTableRecord
  2
DATUMCURVES
 70
0
 62
7
  6
CONTINUOUS
370
-3
390
F
  0
LAYER
  5
22A
100
AcDbSymbolTableRecord
100
AcDbLayerTableRecord
  2
DATUM_PLANES
 70
0
 62
7
  6
CONTINUOUS
370
-3
390
F
  0
LAYER
  5
22B
100
AcDbSymbolTableRecord
100
AcDbLayerTableRecord
  2
DIMENSIONS
 70
0
 62
7
  6
CONTINUOUS
370
-3
390
F
  0
LAYER
  5
22C
100
AcDbSymbolTableRecord
100
AcDbLayerTableRecord
  2
DIMS
 70
0
 62
7
  6
CONTINUOUS
370
-3
390
F
  0
LAYER
  5
22D
100
AcDbSymbolTableRecord
100
AcDbLayerTableRecord
  2
DRAWINGNOTES
 70
0
 62
7
  6
CONTINUOUS
370
-3
390
F
  0
LAYER
  5
22E
100
AcDbSymbolTableRecord
100
AcDbLayerTableRecord
  2
DTM
 70
0
 62
7
  6
CONTINUOUS
370
-3
390
F
  0
LAYER
  5
22F
100
AcDbSymbolTableRecord
100
AcDbLayerTableRecord
  2
DTM230
 70
0
 62
7
  6
CONTINUOUS
370
-3
390
F
  0
LAYER
  5
230
100
AcDbSymbolTableRecord
100
AcDbLayerTableRecord
  2
DTM_500001
 70
0
 62
7
  6
CONTINUOUS
370
-3
390
F
  0
LAYER
  5
231
100
AcDbSymbolTableRecord
100
AcDbLayerTableRecord
  2
DTM_500002
 70
0
 62
7
  6
CONTINUOUS
370
-3
390
F
  0
LAYER
  5
232
100
AcDbSymbolTableRecord
100
AcDbLayerTableRecord
  2
DTM_515002
 70
0
 62
7
  6
CONTINUOUS
370
-3
390
F
  0
LAYER
  5
233
100
AcDbSymbolTableRecord
100
AcDbLayerTableRecord
  2
DTM_SPRING_RH
 70
0
 62
7
  6
CONTINUOUS
370
-3
390
F
  0
LAYER
  5
234
100
AcDbSymbolTableRecord
100
AcDbLayerTableRecord
  2
DTM_SP_RH_CONSTR
 70
0
 62
7
  6
CONTINUOUS
370
-3
390
F
  0
LAYER
  5
235
100
AcDbSymbolTableRecord
100
AcDbLayerTableRecord
  2
GEOMETRICTOLERANCES
 70
0
 62
7
  6
CONTINUOUS
370
-3
390
F
  0
LAYER
  5
236
100
AcDbSymbolTableRecord
100
AcDbLayerTableRecord
  2
PARAMETERDIMENSIONS
 70
0
 62
7
  6
CONTINUOUS
370
-3
390
F
  0
LAYER
  5
237
100
AcDbSymbolTableRecord
100
AcDbLayerTableRecord
  2
PLANE
 70
0
 62
7
  6
CONTINUOUS
370
-3
390
F
  0
LAYER
  5
238
100
AcDbSymbolTableRecord
100
AcDbLayerTableRecord
  2
S-151_METRIC_ORING_BOSS_PORT
 70
0
 62
7
  6
CONTINUOUS
370
-3
390
F
  0
LAYER
  5
239
100
AcDbSymbolTableRecord
100
AcDbLayerTableRecord
  2
S-164_NPTF_PORT
 70
0
 62
7
  6
CONTINUOUS
370
-3
390
F
  0
LAYER
  5
23A
100
AcDbSymbolTableRecord
100
AcDbLayerTableRecord
  2
S-186_BSPP_PORT
 70
0
 62
7
  6
CONTINUOUS
370
-3
390
F
  0
LAYER
  5
23B
100
AcDbSymbolTableRecord
100
AcDbLayerTableRecord
  2
SUN_STD_SAE-4_PORT
 70
0
 62
7
  6
CONTINUOUS
370
-3
390
F
  0
LAYER
  5
23C
100
AcDbSymbolTableRecord
100
AcDbLayerTableRecord
  2
SURFACES
 70
0
 62
7
  6
CONTINUOUS
370
-3
390
F
  0
LAYER
  5
23D
100
AcDbSymbolTableRecord
100
AcDbLayerTableRecord
  2
T-8A_CAVITY
 70
0
 62
7
  6
CONTINUOUS
370
-3
390
F
  0
LAYER
  5
23E
100
AcDbSymbolTableRecord
100
AcDbLayerTableRecord
  2
T-8A_CAVITY-INCOMPLETE
 70
0
 62
7
  6
CONTINUOUS
370
-3
390
F
  0
LAYER
  5
23F
100
AcDbSymbolTableRecord
100
AcDbLayerTableRecord
  2
T-8A_CAVITY-INCOMPLETE_REF_GEOM
 70
0
 62
7
  6
CONTINUOUS
370
-3
390
F
  0
LAYER
  5
240
100
AcDbSymbolTableRecord
100
AcDbLayerTableRecord
  2
T-8A_CAVITY_REF_GEOMETRY
 70
0
 62
7
  6
CONTINUOUS
370
-3
390
F
  0
LAYER
  5
241
100
AcDbSymbolTableRecord
100
AcDbLayerTableRecord
  2
TEXT
 70
0
 62
7
  6
CONTINUOUS
370
-3
390
F
  0
LAYER
  5
242
100
AcDbSymbolTableRecord
100
AcDbLayerTableRecord
  2
THREAD
 70
0
 62
7
  6
CONTINUOUS
370
-3
390
F
  0
ENDTAB
  0
TABLE
  2
STYLE
  5
3
100
AcDbSymbolTable
 70
1
  0
STYLE
  5
11
100
AcDbSymbolTableRecord
100
AcDbTextStyleTableRecord
  2
STANDARD
 70
0
 40
0.0
 41
0.8
 50
0.0
 71
0
 42
0.2
  3
txt
  4

  0
ENDTAB
  0
TABLE
  2
VIEW
  5
6
100
AcDbSymbolTable
 70
0
  0
ENDTAB
  0
TABLE
  2
UCS
  5
7
100
AcDbSymbolTable
 70
0
  0
ENDTAB
  0
TABLE
  2
APPID
  5
9
100
AcDbSymbolTable
 70
1
  0
APPID
  5
243
100
AcDbSymbolTableRecord
100
AcDbRegAppTableRecord
  2
ACAD
 70
0
  0
ENDTAB
  0
TABLE
  2
BLOCK_RECORD
  5
1
100
AcDbSymbolTable
 70
0
  0
BLOCK_RECORD
  5
1F
100
AcDbSymbolTableRecord
100
AcDbBlockTableRecord
  2
*MODEL_SPACE
  0
BLOCK_RECORD
  5
1B
100
AcDbSymbolTableRecord
100
AcDbBlockTableRecord
  2
*PAPER_SPACE
  0
ENDTAB
  0
TABLE
  2
DIMSTYLE
  5
A
100
AcDbSymbolTable
 70
1
100
AcDbDimStyleTable
 71
0
  0
DIMSTYLE
105
244
100
AcDbSymbolTableRecord
100
AcDbDimStyleTableRecord
  2
STANDARD
 70
0
  3

  4

 40
1.0
 41
0.1875
 42
0.0625
 43
0.38
 44
0.18
 45
0.0
 46
0.0
 47
0.01
 48
0.01
140
0.15625
141
0.09
142
0.0
143
25.4
144
1.0
145
0.0
146
1.0
147
0.09
 71
0.0
 72
0.0
 73
1
 74
1
 75
0
 76
0
 77
0
 78
4
170
0
171
2
172
0
173
0
174
0
175
0
176
0
177
0
178
0
270
2
271
2
272
2
273
2
274
2
275
0
280
0
281
0
282
0
283
1
284
4
285
0
286
0
287
3
288
0
340
11
  0
ENDTAB
  0
ENDSEC
  0
SECTION
  2
BLOCKS
  0
BLOCK
  5
20
100
AcDbEntity
  8
0
100
AcDbBlockBegin
  2
*MODEL_SPACE
 70
0
 10
0.0
 20
0.0
 30
0.0
  3
*MODEL_SPACE
  1

  0
ENDBLK
  5
21
100
AcDbEntity
  8
0
100
AcDbBlockEnd
  0
BLOCK
  5
1C
100
AcDbEntity
  8
0
100
AcDbBlockBegin
  2
*PAPER_SPACE
 70
0
 10
0.0
 20
0.0
 30
0.0
  3
*PAPER_SPACE
  1

  0
ENDBLK
  5
1D
100
AcDbEntity
  8
0
100
AcDbBlockEnd
  0
ENDSEC
  0
SECTION
  2
ENTITIES
  0
LINE
  5
245
100
AcDbEntity
  8
0
100
AcDbLine
 62
7
  6
CONTINUOUS
 10
3.7055161526
 20
3.7115429326
 11
3.7055161526
 21
4.8215429326
  0
LINE
  5
246
100
AcDbEntity
  8
03__ASM_ALL_CURVES
100
AcDbLine
 62
40
  6
CONTINUOUS
 10
3.7055161526
 20
4.8215429326
 11
3.7055161526
 21
5.1196669326
  0
LINE
  5
247
100
AcDbEntity
  8
0
100
AcDbLine
 62
7
  6
CONTINUOUS
 10
3.7511268239
 20
3.6325429326
 11
3.7511268239
 21
3.6331576231
  0
LINE
  5
248
100
AcDbEntity
  8
0
100
AcDbLine
 62
7
  6
CONTINUOUS
 10
3.7511268239
 20
3.9256782421
 11
3.7511268239
 21
3.9740223137
  0
LINE
  5
249
100
AcDbEntity
  8
0
100
AcDbLine
 62
7
  6
CONTINUOUS
 10
3.7511268239
 20
4.5590635515
 11
3.7511268239
 21
4.6074076231
  0
LINE
  5
24A
100
AcDbEntity
  8
0
100
AcDbLine
 62
7
  6
CONTINUOUS
 10
3.7511268239
 20
4.8999282421
 11
3.7511268239
 21
4.9005429326
  0
LINE
  5
24B
100
AcDbEntity
  8
03__ASM_ALL_CURVES
100
AcDbLine
 62
40
  6
CONTINUOUS
 10
3.7880161526
 20
5.1059169326
 11
3.7880161526
 21
5.0784169326
  0
LINE
  5
24C
100
AcDbEntity
  8
0
100
AcDbLine
 62
7
  6
CONTINUOUS
 10
3.7508606551
 20
4.9000819147
 11
3.7055161526
 21
4.8215429326
  0
LINE
  5
24D
100
AcDbEntity
  8
0
100
AcDbLine
 62
7
  6
CONTINUOUS
 10
3.7508606551
 20
3.6330039505
 11
3.7055161526
 21
3.7115429326
  0
LINE
  5
24E
100
AcDbEntity
  8
03__ASM_ALL_CURVES
100
AcDbLine
 62
40
  6
CONTINUOUS
 10
4.2039536526
 20
5.1712294326
 11
4.1996567776
 21
5.1655002673
  0
LINE
  5
24F
100
AcDbEntity
  8
03__ASM_ALL_CURVES
100
AcDbLine
 62
40
  6
CONTINUOUS
 10
4.0492661526
 20
5.1884169326
 11
4.0492661526
 21
5.1196669326
  0
LINE
  5
250
100
AcDbEntity
  8
03__ASM_ALL_CURVES
100
AcDbLine
 62
40
  6
CONTINUOUS
 10
4.1137192776
 20
5.1196669326
 11
4.1137192776
 21
5.1253960994
  0
LINE
  5
251
100
AcDbEntity
  8
03__ASM_ALL_CURVES
100
AcDbLine
 62
40
  6
CONTINUOUS
 10
4.2598130276
 20
5.1483127652
 11
4.2641099026
 21
5.1655002673
  0
LINE
  5
252
100
AcDbEntity
  8
03__ASM_ALL_CURVES
100
AcDbLine
 62
40
  6
CONTINUOUS
 10
4.3199692776
 20
5.1769585979
 11
4.3156724026
 21
5.1597710979
  0
LINE
  5
253
100
AcDbEntity
  8
03__ASM_ALL_CURVES
100
AcDbLine
 62
40
  6
CONTINUOUS
 10
4.2641099026
 20
5.1655002673
 11
4.2727036526
 21
5.1884169326
  0
LINE
  5
254
100
AcDbEntity
  8
03__ASM_ALL_CURVES
100
AcDbLine
 62
40
  6
CONTINUOUS
 10
4.2082505276
 20
5.1368544326
 11
4.1996567776
 21
5.1253960994
  0
LINE
  5
255
100
AcDbEntity
  8
03__ASM_ALL_CURVES
100
AcDbLine
 62
40
  6
CONTINUOUS
 10
4.3285630276
 20
5.1884169326
 11
4.3199692776
 21
5.1769585979
  0
LINE
  5
256
100
AcDbEntity
  8
03__ASM_ALL_CURVES
100
AcDbLine
 62
40
  6
CONTINUOUS
 10
4.2039536526
 20
5.1769585979
 11
4.2039536526
 21
5.1712294326
  0
LINE
  5
257
100
AcDbEntity
  8
03__ASM_ALL_CURVES
100
AcDbLine
 62
40
  6
CONTINUOUS
 10
4.2082505276
 20
5.1425835999
 11
4.2082505276
 21
5.1368544326
  0
LINE
  5
258
100
AcDbEntity
  8
0
100
AcDbLine
 62
7
  6
CONTINUOUS
 10
4.2130905268
 20
3.6325429326
 11
4.2130905268
 21
3.6331576231
  0
LINE
  5
259
100
AcDbEntity
  8
0
100
AcDbLine
 62
7
  6
CONTINUOUS
 10
4.2130905268
 20
3.9256782421
 11
4.2130905268
 21
3.9740223137
  0
LINE
  5
25A
100
AcDbEntity
  8
0
100
AcDbLine
 62
7
  6
CONTINUOUS
 10
4.2130905268
 20
4.5590635515
 11
4.2130905268
 21
4.6074076231
  0
LINE
  5
25B
100
AcDbEntity
  8
0
100
AcDbLine
 62
7
  6
CONTINUOUS
 10
4.2130905268
 20
4.8999282421
 11
4.2130905268
 21
4.9005429326
  0
LINE
  5
25C
100
AcDbEntity
  8
0
100
AcDbLine
 62
7
  6
CONTINUOUS
 10
4.2685161526
 20
3.7285429326
 11
4.2685161526
 21
4.8045429326
  0
LINE
  5
25D
100
AcDbEntity
  8
03__ASM_ALL_CURVES
100
AcDbLine
 62
40
  6
CONTINUOUS
 10
4.2555161526
 20
5.1196669326
 11
4.2598130276
 21
5.1483127652
  0
LINE
  5
25E
100
AcDbEntity
  8
03__ASM_ALL_CURVES
100
AcDbLine
 62
40
  6
CONTINUOUS
 10
4.4746567776
 20
5.1884169326
 11
4.4445786526
 21
5.1368544326
  0
LINE
  5
25F
100
AcDbEntity
  8
03__ASM_ALL_CURVES
100
AcDbLine
 62
40
  6
CONTINUOUS
 10
4.4102036526
 20
5.1712294326
 11
4.4059067776
 21
5.1655002673
  0
LINE
  5
260
100
AcDbEntity
  8
03__ASM_ALL_CURVES
100
AcDbLine
 62
40
  6
CONTINUOUS
 10
4.4145005276
 20
5.1368544326
 11
4.4059067776
 21
5.1253960994
  0
LINE
  5
261
100
AcDbEntity
  8
03__ASM_ALL_CURVES
100
AcDbLine
 62
40
  6
CONTINUOUS
 10
4.1738755276
 20
5.1826877673
 11
4.1824692776
 21
5.1884169326
  0
LINE
  5
262
100
AcDbEntity
  8
03__ASM_ALL_CURVES
100
AcDbLine
 62
40
  6
CONTINUOUS
 10
4.1996567776
 20
5.1655002673
 11
4.1910630276
 21
5.1597710979
  0
LINE
  5
263
100
AcDbEntity
  8
03__ASM_ALL_CURVES
100
AcDbLine
 62
40
  6
CONTINUOUS
 10
4.1996567776
 20
5.1253960994
 11
4.1910630276
 21
5.1196669326
  0
LINE
  5
264
100
AcDbEntity
  8
03__ASM_ALL_CURVES
100
AcDbLine
 62
40
  6
CONTINUOUS
 10
4.3801255276
 20
5.1826877673
 11
4.3887192776
 21
5.1884169326
  0
LINE
  5
265
100
AcDbEntity
  8
03__ASM_ALL_CURVES
100
AcDbLine
 62
40
  6
CONTINUOUS
 10
4.4059067776
 20
5.1655002673
 11
4.3973130276
 21
5.1597710979
  0
LINE
  5
266
100
AcDbEntity
  8
03__ASM_ALL_CURVES
100
AcDbLine
 62
40
  6
CONTINUOUS
 10
4.5075864624
 20
3.4331835586
 11
4.5108091186
 21
3.4288866816
  0
LINE
  5
267
100
AcDbEntity
  8
03__ASM_ALL_CURVES
100
AcDbLine
 62
40
  6
CONTINUOUS
 10
4.5591489624
 20
3.4331835586
 11
4.5623716186
 21
3.4288866816
  0
LINE
  5
268
100
AcDbEntity
  8
03__ASM_ALL_CURVES
100
AcDbLine
 62
40
  6
CONTINUOUS
 10
4.3156724026
 20
5.1597710979
 11
4.3156724026
 21
5.1483127652
  0
LINE
  5
269
100
AcDbEntity
  8
03__ASM_ALL_CURVES
100
AcDbLine
 62
40
  6
CONTINUOUS
 10
4.4102036526
 20
5.1769585979
 11
4.4102036526
 21
5.1712294326
  0
LINE
  5
26A
100
AcDbEntity
  8
03__ASM_ALL_CURVES
100
AcDbLine
 62
40
  6
CONTINUOUS
 10
4.4145005276
 20
5.1425835999
 11
4.4145005276
 21
5.1368544326
  0
LINE
  5
26B
100
AcDbEntity
  8
03__ASM_ALL_CURVES
100
AcDbLine
 62
40
  6
CONTINUOUS
 10
4.6035630276
 20
5.1483127652
 11
4.6078599026
 21
5.1655002673
  0
LINE
  5
26C
100
AcDbEntity
  8
03__ASM_ALL_CURVES
100
AcDbLine
 62
40
  6
CONTINUOUS
 10
4.6078599026
 20
5.1655002673
 11
4.6164536526
 21
5.1884169326
  0
LINE
  5
26D
100
AcDbEntity
  8
03__ASM_ALL_CURVES
100
AcDbLine
 62
40
  6
CONTINUOUS
 10
4.6508286526
 20
5.1655002673
 11
4.6551255276
 21
5.1769585979
  0
LINE
  5
26E
100
AcDbEntity
  8
03__ASM_ALL_CURVES
100
AcDbLine
 62
40
  6
CONTINUOUS
 10
4.6852036526
 20
5.1655002673
 11
4.6809067776
 21
5.1540419326
  0
LINE
  5
26F
100
AcDbEntity
  8
03__ASM_ALL_CURVES
100
AcDbLine
 62
40
  6
CONTINUOUS
 10
4.6551255276
 20
5.1769585979
 11
4.6594224026
 21
5.1826877673
  0
LINE
  5
270
100
AcDbEntity
  8
03__ASM_ALL_CURVES
100
AcDbLine
 62
40
  6
CONTINUOUS
 10
4.6809067776
 20
5.1311252663
 11
4.6766099026
 21
5.1253960994
  0
LINE
  5
271
100
AcDbEntity
  8
03__ASM_ALL_CURVES
100
AcDbLine
 62
40
  6
CONTINUOUS
 10
4.7410630276
 20
5.1311252663
 11
4.7324692776
 21
5.1196669326
  0
LINE
  5
272
100
AcDbEntity
  8
03__ASM_ALL_CURVES
100
AcDbLine
 62
40
  6
CONTINUOUS
 10
4.4059067776
 20
5.1253960994
 11
4.3973130276
 21
5.1196669326
  0
LINE
  5
273
100
AcDbEntity
  8
03__ASM_ALL_CURVES
100
AcDbLine
 62
40
  6
CONTINUOUS
 10
4.6594224026
 20
5.1826877673
 11
4.6680161526
 21
5.1884169326
  0
LINE
  5
274
100
AcDbEntity
  8
03__ASM_ALL_CURVES
100
AcDbLine
 62
40
  6
CONTINUOUS
 10
4.5011411499
 20
3.4374804326
 11
4.5075864624
 21
3.4331835586
  0
LINE
  5
275
100
AcDbEntity
  8
03__ASM_ALL_CURVES
100
AcDbLine
 62
40
  6
CONTINUOUS
 10
4.5527036499
 20
3.4374804326
 11
4.5591489624
 21
3.4331835586
  0
LINE
  5
276
100
AcDbEntity
  8
03__ASM_ALL_CURVES
100
AcDbLine
 62
40
  6
CONTINUOUS
 10
4.6493833374
 20
3.3859179326
 11
4.6429380249
 21
3.3902148077
  0
LINE
  5
277
100
AcDbEntity
  8
03__ASM_ALL_CURVES
100
AcDbLine
 62
40
  6
CONTINUOUS
 10
4.6429380249
 20
3.3902148077
 11
4.6364927124
 21
3.3988085576
  0
LINE
  5
278
100
AcDbEntity
  8
03__ASM_ALL_CURVES
100
AcDbLine
 62
40
  6
CONTINUOUS
 10
4.6622739624
 20
3.4331835586
 11
4.6687192749
 21
3.4245898076
  0
LINE
  5
279
100
AcDbEntity
  8
03__ASM_ALL_CURVES
100
AcDbLine
 62
40
  6
CONTINUOUS
 10
4.7138364624
 20
3.4331835586
 11
4.7170591186
 21
3.4288866816
  0
LINE
  5
27A
100
AcDbEntity
  8
03__ASM_ALL_CURVES
100
AcDbLine
 62
40
  6
CONTINUOUS
 10
4.5527036499
 20
3.4116991826
 11
4.5623716186
 21
3.3859179326
  0
LINE
  5
27B
100
AcDbEntity
  8
0
100
AcDbLine
 62
7
  6
CONTINUOUS
 10
4.4555161526
 20
3.7285429326
 11
4.4555161526
 21
4.8045429326
  0
LINE
  5
27C
100
AcDbEntity
  8
03__ASM_ALL_CURVES
100
AcDbLine
 62
40
  6
CONTINUOUS
 10
4.4746567776
 20
5.1196669326
 11
4.4746567776
 21
5.1884169326
  0
LINE
  5
27D
100
AcDbEntity
  8
03__ASM_ALL_CURVES
100
AcDbLine
 62
40
  6
CONTINUOUS
 10
4.4850278686
 20
3.3859179326
 11
4.4850278686
 21
3.4374804326
  0
LINE
  5
27E
100
AcDbEntity
  8
0
100
AcDbLine
 62
7
  6
CONTINUOUS
 10
4.5055161526
 20
3.7300429326
 11
4.5055161526
 21
4.8030429326
  0
LINE
  5
27F
100
AcDbEntity
  8
03__ASM_ALL_CURVES
100
AcDbLine
 62
40
  6
CONTINUOUS
 10
4.5108091186
 20
3.4288866816
 11
4.5108091186
 21
3.4202929336
  0
LINE
  5
280
100
AcDbEntity
  8
03__ASM_ALL_CURVES
100
AcDbLine
 62
40
  6
CONTINUOUS
 10
4.5262192776
 20
5.1196669326
 11
4.5262192776
 21
5.1253960994
  0
LINE
  5
281
100
AcDbEntity
  8
03__ASM_ALL_CURVES
100
AcDbLine
 62
40
  6
CONTINUOUS
 10
4.5365903686
 20
3.3859179326
 11
4.5365903686
 21
3.4374804326
  0
LINE
  5
282
100
AcDbEntity
  8
03__ASM_ALL_CURVES
100
AcDbLine
 62
40
  6
CONTINUOUS
 10
4.5623716186
 20
3.4288866816
 11
4.5623716186
 21
3.4202929336
  0
LINE
  5
283
100
AcDbEntity
  8
0
100
AcDbLine
 62
7
  6
CONTINUOUS
 10
4.5755161526
 20
4.7840429326
 11
4.5755161526
 21
3.7490429326
  0
LINE
  5
284
100
AcDbEntity
  8
0
100
AcDbLine
 62
7
  6
CONTINUOUS
 10
4.5965161526
 20
3.7287929326
 11
4.5965161526
 21
4.8042929326
  0
LINE
  5
285
100
AcDbEntity
  8
03__ASM_ALL_CURVES
100
AcDbLine
 62
40
  6
CONTINUOUS
 10
4.6010434936
 20
3.4374804326
 11
4.6010434936
 21
3.3859179326
  0
LINE
  5
286
100
AcDbEntity
  8
03__ASM_ALL_CURVES
100
AcDbLine
 62
40
  6
CONTINUOUS
 10
4.5992661526
 20
5.1196669326
 11
4.6035630276
 21
5.1483127652
  0
LINE
  5
287
100
AcDbEntity
  8
03__ASM_ALL_CURVES
100
AcDbLine
 62
40
  6
CONTINUOUS
 10
4.7453599026
 20
5.1483127652
 11
4.7410630276
 21
5.1311252663
  0
LINE
  5
288
100
AcDbEntity
  8
03__ASM_ALL_CURVES
100
AcDbLine
 62
40
  6
CONTINUOUS
 10
4.6852036526
 20
5.1425835999
 11
4.6809067776
 21
5.1311252663
  0
LINE
  5
289
100
AcDbEntity
  8
03__ASM_ALL_CURVES
100
AcDbLine
 62
40
  6
CONTINUOUS
 10
4.6766099026
 20
5.1253960994
 11
4.6680161526
 21
5.1196669326
  0
LINE
  5
28A
100
AcDbEntity
  8
03__ASM_ALL_CURVES
100
AcDbLine
 62
40
  6
CONTINUOUS
 10
4.6809067776
 20
5.1540419326
 11
4.6680161526
 21
5.1483127652
  0
LINE
  5
28B
100
AcDbEntity
  8
03__ASM_ALL_CURVES
100
AcDbLine
 62
40
  6
CONTINUOUS
 10
4.6558286499
 20
3.4374804326
 11
4.6622739624
 21
3.4331835586
  0
LINE
  5
28C
100
AcDbEntity
  8
03__ASM_ALL_CURVES
100
AcDbLine
 62
40
  6
CONTINUOUS
 10
4.7073911499
 20
3.4374804326
 11
4.7138364624
 21
3.4331835586
  0
LINE
  5
28D
100
AcDbEntity
  8
03__ASM_ALL_CURVES
100
AcDbLine
 62
40
  6
CONTINUOUS
 10
4.7541196686
 20
3.4649804326
 11
4.7476743561
 21
3.4692773077
  0
LINE
  5
28E
100
AcDbEntity
  8
03__ASM_ALL_CURVES
100
AcDbLine
 62
40
  6
CONTINUOUS
 10
4.7090024811
 20
3.5165429326
 11
4.7154477936
 21
3.5122460586
  0
LINE
  5
28F
100
AcDbEntity
  8
03__ASM_ALL_CURVES
100
AcDbLine
 62
40
  6
CONTINUOUS
 10
4.7605649811
 20
3.5165429326
 11
4.7670102936
 21
3.5122460586
  0
LINE
  5
290
100
AcDbEntity
  8
03__ASM_ALL_CURVES
100
AcDbLine
 62
40
  6
CONTINUOUS
 10
4.7154477936
 20
3.5122460586
 11
4.7186704499
 21
3.5079491816
  0
LINE
  5
291
100
AcDbEntity
  8
03__ASM_ALL_CURVES
100
AcDbLine
 62
40
  6
CONTINUOUS
 10
4.7476743561
 20
3.4692773077
 11
4.7412290436
 21
3.4778710576
  0
LINE
  5
292
100
AcDbEntity
  8
03__ASM_ALL_CURVES
100
AcDbLine
 62
40
  6
CONTINUOUS
 10
4.7670102936
 20
3.5122460586
 11
4.7734556061
 21
3.5036523076
  0
LINE
  5
293
100
AcDbEntity
  8
03__ASM_ALL_CURVES
100
AcDbLine
 62
40
  6
CONTINUOUS
 10
4.8185727936
 20
3.5122460586
 11
4.8217954499
 21
3.5079491816
  0
LINE
  5
294
100
AcDbEntity
  8
03__ASM_ALL_CURVES
100
AcDbLine
 62
40
  6
CONTINUOUS
 10
4.9023618561
 20
3.4692773077
 11
4.8991391999
 21
3.4735741829
  0
LINE
  5
295
100
AcDbEntity
  8
03__ASM_ALL_CURVES
100
AcDbLine
 62
40
  6
CONTINUOUS
 10
4.8459653686
 20
3.4374804326
 11
4.8588559936
 21
3.4116991826
  0
LINE
  5
296
100
AcDbEntity
  8
03__ASM_ALL_CURVES
100
AcDbLine
 62
40
  6
CONTINUOUS
 10
4.7073911499
 20
3.4116991826
 11
4.7170591186
 21
3.3859179326
  0
LINE
  5
297
100
AcDbEntity
  8
03__ASM_ALL_CURVES
100
AcDbLine
 62
40
  6
CONTINUOUS
 10
4.8121274811
 20
3.4907616826
 11
4.8217954499
 21
3.4649804326
  0
LINE
  5
298
100
AcDbEntity
  8
03__ASM_ALL_CURVES
100
AcDbLine
 62
40
  6
CONTINUOUS
 10
4.6364927124
 20
3.3988085576
 11
4.6332700561
 21
3.4116991826
  0
LINE
  5
299
100
AcDbEntity
  8
03__ASM_ALL_CURVES
100
AcDbLine
 62
40
  6
CONTINUOUS
 10
4.6687192749
 20
3.4245898076
 11
4.6719419311
 21
3.4116991826
  0
LINE
  5
29A
100
AcDbEntity
  8
03__ASM_ALL_CURVES
100
AcDbLine
 62
40
  6
CONTINUOUS
 10
4.3156724026
 20
5.1483127652
 11
4.3199692776
 21
5.1311252663
  0
LINE
  5
29B
100
AcDbEntity
  8
03__ASM_ALL_CURVES
100
AcDbLine
 62
40
  6
CONTINUOUS
 10
4.7412290436
 20
3.4778710576
 11
4.7380063874
 21
3.4907616826
  0
LINE
  5
29C
100
AcDbEntity
  8
0
100
AcDbLine
 62
7
  6
CONTINUOUS
 10
4.6415161526
 20
3.7287929326
 11
4.6415161526
 21
4.8042929326
  0
LINE
  5
29D
100
AcDbEntity
  8
0
100
AcDbLine
 62
7
  6
CONTINUOUS
 10
4.6628851007
 20
3.8085429326
 11
4.6628851007
 21
4.7245429326
  0
LINE
  5
29E
100
AcDbEntity
  8
03__ASM_ALL_CURVES
100
AcDbLine
 62
40
  6
CONTINUOUS
 10
4.6852036526
 20
5.1655002673
 11
4.6852036526
 21
5.1425835999
  0
LINE
  5
29F
100
AcDbEntity
  8
03__ASM_ALL_CURVES
100
AcDbLine
 62
40
  6
CONTINUOUS
 10
4.6912778686
 20
3.3859179326
 11
4.6912778686
 21
3.4374804326
  0
LINE
  5
2A0
100
AcDbEntity
  8
03__ASM_ALL_CURVES
100
AcDbLine
 62
40
  6
CONTINUOUS
 10
4.6928891999
 20
3.4649804326
 11
4.6928891999
 21
3.5165429326
  0
LINE
  5
2A1
100
AcDbEntity
  8
03__ASM_ALL_CURVES
100
AcDbLine
 62
40
  6
CONTINUOUS
 10
4.7170591186
 20
3.4288866816
 11
4.7170591186
 21
3.4202929336
  0
LINE
  5
2A2
100
AcDbEntity
  8
03__ASM_ALL_CURVES
100
AcDbLine
 62
40
  6
CONTINUOUS
 10
4.7186704499
 20
3.5079491816
 11
4.7186704499
 21
3.4993554336
  0
LINE
  5
2A3
100
AcDbEntity
  8
03__ASM_ALL_CURVES
100
AcDbLine
 62
40
  6
CONTINUOUS
 10
4.7453599026
 20
5.1597710979
 11
4.7453599026
 21
5.1483127652
  0
LINE
  5
2A4
100
AcDbEntity
  8
03__ASM_ALL_CURVES
100
AcDbLine
 62
40
  6
CONTINUOUS
 10
4.7557309936
 20
3.4374804326
 11
4.7557309936
 21
3.3859179326
  0
LINE
  5
2A5
100
AcDbEntity
  8
0
100
AcDbLine
 62
7
  6
CONTINUOUS
 10
4.2685161526
 20
3.7285429326
 11
4.2133566956
 21
3.6330039505
  0
LINE
  5
2A6
100
AcDbEntity
  8
03__ASM_ALL_CURVES
100
AcDbLine
 62
40
  6
CONTINUOUS
 10
4.8121274811
 20
3.5165429326
 11
4.8185727936
 21
3.5122460586
  0
LINE
  5
2A7
100
AcDbEntity
  8
03__ASM_ALL_CURVES
100
AcDbLine
 62
40
  6
CONTINUOUS
 10
4.9088071686
 20
3.4649804326
 11
4.9023618561
 21
3.4692773077
  0
LINE
  5
2A8
100
AcDbEntity
  8
03__ASM_ALL_CURVES
100
AcDbLine
 62
40
  6
CONTINUOUS
 10
5.0618833374
 20
3.3859179326
 11
5.0554380249
 21
3.3902148077
  0
LINE
  5
2A9
100
AcDbEntity
  8
03__ASM_ALL_CURVES
100
AcDbLine
 62
40
  6
CONTINUOUS
 10
4.9152524811
 20
3.4950585566
 11
4.9216977936
 21
3.4907616826
  0
LINE
  5
2AA
100
AcDbEntity
  8
03__ASM_ALL_CURVES
100
AcDbLine
 62
40
  6
CONTINUOUS
 10
4.9152524811
 20
3.5165429326
 11
4.9216977936
 21
3.5122460586
  0
LINE
  5
2AB
100
AcDbEntity
  8
03__ASM_ALL_CURVES
100
AcDbLine
 62
40
  6
CONTINUOUS
 10
5.0683286499
 20
3.4374804326
 11
5.0747739624
 21
3.4331835586
  0
LINE
  5
2AC
100
AcDbEntity
  8
03__ASM_ALL_CURVES
100
AcDbLine
 62
40
  6
CONTINUOUS
 10
4.9216977936
 20
3.4907616826
 11
4.9281431061
 21
3.4821679331
  0
LINE
  5
2AD
100
AcDbEntity
  8
03__ASM_ALL_CURVES
100
AcDbLine
 62
40
  6
CONTINUOUS
 10
4.9216977936
 20
3.5122460586
 11
4.9249204499
 21
3.5079491816
  0
LINE
  5
2AE
100
AcDbEntity
  8
03__ASM_ALL_CURVES
100
AcDbLine
 62
40
  6
CONTINUOUS
 10
5.0554380249
 20
3.3902148077
 11
5.0489927124
 21
3.3988085576
  0
LINE
  5
2AF
100
AcDbEntity
  8
03__ASM_ALL_CURVES
100
AcDbLine
 62
40
  6
CONTINUOUS
 10
5.0747739624
 20
3.4331835586
 11
5.0812192749
 21
3.4245898076
  0
LINE
  5
2B0
100
AcDbEntity
  8
0
100
AcDbLine
 62
7
  6
CONTINUOUS
 10
4.2685161526
 20
4.8045429326
 11
4.2133566956
 21
4.9000819147
  0
LINE
  5
2B1
100
AcDbEntity
  8
03__ASM_ALL_CURVES
100
AcDbLine
 62
40
  6
CONTINUOUS
 10
4.7734556061
 20
3.5036523076
 11
4.7766782624
 21
3.4907616826
  0
LINE
  5
2B2
100
AcDbEntity
  8
0
100
AcDbLine
 62
7
  6
CONTINUOUS
 10
4.7685161526
 20
4.2093626069
 11
4.7685161526
 21
4.3237319755
  0
LINE
  5
2B3
100
AcDbEntity
  8
03__ASM_ALL_CURVES
100
AcDbLine
 62
40
  6
CONTINUOUS
 10
4.7960141999
 20
3.4649804326
 11
4.7960141999
 21
3.5165429326
  0
LINE
  5
2B4
100
AcDbEntity
  8
03__ASM_ALL_CURVES
100
AcDbLine
 62
40
  6
CONTINUOUS
 10
4.8072934936
 20
3.4374804326
 11
4.8072934936
 21
3.3859179326
  0
LINE
  5
2B5
100
AcDbEntity
  8
03__ASM_ALL_CURVES
100
AcDbLine
 62
40
  6
CONTINUOUS
 10
4.8217954499
 20
3.5079491816
 11
4.8217954499
 21
3.4993554336
  0
LINE
  5
2B6
100
AcDbEntity
  8
03__ASM_ALL_CURVES
100
AcDbLine
 62
40
  6
CONTINUOUS
 10
4.8588559936
 20
3.4116991826
 11
4.8588559936
 21
3.3859179326
  0
LINE
  5
2B7
100
AcDbEntity
  8
03__ASM_ALL_CURVES
100
AcDbLine
 62
40
  6
CONTINUOUS
 10
4.8604673249
 20
3.5165429326
 11
4.8604673249
 21
3.4649804326
  0
LINE
  5
2B8
100
AcDbEntity
  8
03__ASM_ALL_CURVES
100
AcDbLine
 62
40
  6
CONTINUOUS
 10
4.6332700561
 20
3.4116991826
 11
4.6364927124
 21
3.4245898076
  0
LINE
  5
2B9
100
AcDbEntity
  8
0
100
AcDbLine
 62
7
  6
CONTINUOUS
 10
4.6628851007
 20
3.8085429326
 11
4.6415161526
 21
3.7287929326
  0
LINE
  5
2BA
100
AcDbEntity
  8
0
100
AcDbLine
 62
7
  6
CONTINUOUS
 10
5.0155161526
 20
4.8045429326
 11
4.9940802173
 21
4.7245429326
  0
LINE
  5
2BB
100
AcDbEntity
  8
03__ASM_ALL_CURVES
100
AcDbLine
 62
40
  6
CONTINUOUS
 10
5.2549692773
 20
5.1712294326
 11
5.2635630273
 21
5.1826877673
  0
LINE
  5
2BC
100
AcDbEntity
  8
03__ASM_ALL_CURVES
100
AcDbLine
 62
40
  6
CONTINUOUS
 10
5.2979380273
 20
5.1368544326
 11
5.2893442773
 21
5.1253960994
  0
LINE
  5
2BD
100
AcDbEntity
  8
03__ASM_ALL_CURVES
100
AcDbLine
 62
40
  6
CONTINUOUS
 10
5.3237192773
 20
5.1712294326
 11
5.3323130273
 21
5.1826877673
  0
LINE
  5
2BE
100
AcDbEntity
  8
03__ASM_ALL_CURVES
100
AcDbLine
 62
40
  6
CONTINUOUS
 10
5.2635630273
 20
5.1826877673
 11
5.2721567773
 21
5.1884169326
  0
LINE
  5
2BF
100
AcDbEntity
  8
03__ASM_ALL_CURVES
100
AcDbLine
 62
40
  6
CONTINUOUS
 10
5.3323130273
 20
5.1826877673
 11
5.3409067773
 21
5.1884169326
  0
LINE
  5
2C0
100
AcDbEntity
  8
03__ASM_ALL_CURVES
100
AcDbLine
 62
40
  6
CONTINUOUS
 10
5.2893442773
 20
5.1253960994
 11
5.2807505273
 21
5.1196669326
  0
LINE
  5
2C1
100
AcDbEntity
  8
03__ASM_ALL_CURVES
100
AcDbLine
 62
40
  6
CONTINUOUS
 10
5.3580942773
 20
5.1253960994
 11
5.3495005273
 21
5.1196669326
  0
LINE
  5
2C2
100
AcDbEntity
  8
03__ASM_ALL_CURVES
100
AcDbLine
 62
40
  6
CONTINUOUS
 10
6.0883774573
 20
3.3859179326
 11
6.0819321448
 21
3.3859179326
  0
LINE
  5
2C3
100
AcDbEntity
  8
03__ASM_ALL_CURVES
100
AcDbLine
 62
40
  6
CONTINUOUS
 10
5.8821274573
 20
3.3859179326
 11
5.8756821448
 21
3.3859179326
  0
LINE
  5
2C4
100
AcDbEntity
  8
03__ASM_ALL_CURVES
100
AcDbLine
 62
40
  6
CONTINUOUS
 10
5.8305649573
 20
3.3859179326
 11
5.8241196448
 21
3.3859179326
  0
LINE
  5
2C5
100
AcDbEntity
  8
03__ASM_ALL_CURVES
100
AcDbLine
 62
40
  6
CONTINUOUS
 10
5.0683286499
 20
3.3859179326
 11
5.0618833374
 21
3.3859179326
  0
LINE
  5
2C6
100
AcDbEntity
  8
03__ASM_ALL_CURVES
100
AcDbLine
 62
40
  6
CONTINUOUS
 10
4.6558286499
 20
3.3859179326
 11
4.6493833374
 21
3.3859179326
  0
LINE
  5
2C7
100
AcDbEntity
  8
03__ASM_ALL_CURVES
100
AcDbLine
 62
40
  6
CONTINUOUS
 10
5.0006528686
 20
3.3859179326
 11
5.0264341186
 21
3.3859179326
  0
LINE
  5
2C8
100
AcDbEntity
  8
03__ASM_ALL_CURVES
100
AcDbLine
 62
40
  6
CONTINUOUS
 10
5.6049790198
 20
3.3859179326
 11
5.6275376136
 21
3.3859179326
  0
LINE
  5
2C9
100
AcDbEntity
  8
03__ASM_ALL_CURVES
100
AcDbLine
 62
40
  6
CONTINUOUS
 10
6.0207016761
 20
3.3859179326
 11
6.0464829261
 21
3.3859179326
  0
LINE
  5
2CA
100
AcDbEntity
  8
0
100
AcDbLine
 62
7
  6
CONTINUOUS
 10
4.6628851007
 20
4.7245429326
 11
4.6415161526
 21
4.8042929326
  0
LINE
  5
2CB
100
AcDbEntity
  8
0
100
AcDbLine
 62
7
  6
CONTINUOUS
 10
5.0155161526
 20
3.7285429326
 11
4.9940802173
 21
3.8085429326
  0
LINE
  5
2CC
100
AcDbEntity
  8
03__ASM_ALL_CURVES
100
AcDbLine
 62
40
  6
CONTINUOUS
 10
5.0489927124
 20
3.3988085576
 11
5.0457700561
 21
3.4116991826
  0
LINE
  5
2CD
100
AcDbEntity
  8
03__ASM_ALL_CURVES
100
AcDbLine
 62
40
  6
CONTINUOUS
 10
5.0812192749
 20
3.4245898076
 11
5.0844419311
 21
3.4116991826
  0
LINE
  5
2CE
100
AcDbEntity
  8
03__ASM_ALL_CURVES
100
AcDbLine
 62
40
  6
CONTINUOUS
 10
4.9249204499
 20
3.5079491816
 11
4.9249204499
 21
3.5036523076
  0
LINE
  5
2CF
100
AcDbEntity
  8
03__ASM_ALL_CURVES
100
AcDbLine
 62
40
  6
CONTINUOUS
 10
4.9281431061
 20
3.4821679331
 11
4.9281431061
 21
3.4778710576
  0
LINE
  5
2D0
100
AcDbEntity
  8
03__ASM_ALL_CURVES
100
AcDbLine
 62
40
  6
CONTINUOUS
 10
4.9490903686
 20
3.3859179326
 11
4.9490903686
 21
3.4374804326
  0
LINE
  5
2D1
100
AcDbEntity
  8
0
100
AcDbLine
 62
7
  6
CONTINUOUS
 10
4.9940802173
 20
3.8085429326
 11
4.9940802173
 21
4.7245429326
  0
LINE
  5
2D2
100
AcDbEntity
  8
03__ASM_ALL_CURVES
100
AcDbLine
 62
40
  6
CONTINUOUS
 10
4.9980161526
 20
5.1059169326
 11
4.9980161526
 21
5.0784169326
  0
LINE
  5
2D3
100
AcDbEntity
  8
03__ASM_ALL_CURVES
100
AcDbLine
 62
40
  6
CONTINUOUS
 10
5.0006528686
 20
3.4374804326
 11
5.0006528686
 21
3.3859179326
  0
LINE
  5
2D4
100
AcDbEntity
  8
0
100
AcDbLine
 62
7
  6
CONTINUOUS
 10
5.0155161526
 20
3.7285429326
 11
5.0155161526
 21
4.8045429326
  0
LINE
  5
2D5
100
AcDbEntity
  8
03__ASM_ALL_CURVES
100
AcDbLine
 62
40
  6
CONTINUOUS
 10
4.6719419311
 20
3.4116991826
 11
4.6687192749
 21
3.3988085576
  0
LINE
  5
2D6
100
AcDbEntity
  8
03__ASM_ALL_CURVES
100
AcDbLine
 62
40
  6
CONTINUOUS
 10
4.7380063874
 20
3.4907616826
 11
4.7412290436
 21
3.5036523076
  0
LINE
  5
2D7
100
AcDbEntity
  8
03__ASM_ALL_CURVES
100
AcDbLine
 62
40
  6
CONTINUOUS
 10
4.7766782624
 20
3.4907616826
 11
4.7734556061
 21
3.4778710576
  0
LINE
  5
2D8
100
AcDbEntity
  8
03__ASM_ALL_CURVES
100
AcDbLine
 62
40
  6
CONTINUOUS
 10
5.2506724023
 20
5.1540419326
 11
5.2549692773
 21
5.1712294326
  0
LINE
  5
2D9
100
AcDbEntity
  8
03__ASM_ALL_CURVES
100
AcDbLine
 62
40
  6
CONTINUOUS
 10
5.3623911523
 20
5.1311252663
 11
5.3580942773
 21
5.1253960994
  0
LINE
  5
2DA
100
AcDbEntity
  8
03__ASM_ALL_CURVES
100
AcDbLine
 62
40
  6
CONTINUOUS
 10
5.6760630273
 20
5.1826877673
 11
5.6846567773
 21
5.1884169326
  0
LINE
  5
2DB
100
AcDbEntity
  8
03__ASM_ALL_CURVES
100
AcDbLine
 62
40
  6
CONTINUOUS
 10
5.7018442773
 20
5.1253960994
 11
5.6932505273
 21
5.1196669326
  0
LINE
  5
2DC
100
AcDbEntity
  8
03__ASM_ALL_CURVES
100
AcDbLine
 62
40
  6
CONTINUOUS
 10
5.7661118323
 20
3.4031054331
 11
5.7854477698
 21
3.4031054331
  0
LINE
  5
2DD
100
AcDbEntity
  8
03__ASM_ALL_CURVES
100
AcDbLine
 62
40
  6
CONTINUOUS
 10
5.7274399573
 20
3.4116991826
 11
5.7113266761
 21
3.4116991826
  0
LINE
  5
2DE
100
AcDbEntity
  8
03__ASM_ALL_CURVES
100
AcDbLine
 62
40
  6
CONTINUOUS
 10
4.7073911499
 20
3.4116991826
 11
4.6912778686
 21
3.4116991826
  0
LINE
  5
2DF
100
AcDbEntity
  8
03__ASM_ALL_CURVES
100
AcDbLine
 62
40
  6
CONTINUOUS
 10
4.5527036499
 20
3.4116991826
 11
4.5365903686
 21
3.4116991826
  0
LINE
  5
2E0
100
AcDbEntity
  8
03__ASM_ALL_CURVES
100
AcDbLine
 62
40
  6
CONTINUOUS
 10
4.5011411499
 20
3.4116991826
 11
4.4850278686
 21
3.4116991826
  0
LINE
  5
2E1
100
AcDbEntity
  8
03__ASM_ALL_CURVES
100
AcDbLine
 62
40
  6
CONTINUOUS
 10
4.9490903686
 20
3.4116991826
 11
4.9652036499
 21
3.4116991826
  0
LINE
  5
2E2
100
AcDbEntity
  8
03__ASM_ALL_CURVES
100
AcDbLine
 62
40
  6
CONTINUOUS
 10
5.9691391761
 20
3.4116991826
 11
5.9852524573
 21
3.4116991826
  0
LINE
  5
2E3
100
AcDbEntity
  8
03__ASM_ALL_CURVES
100
AcDbLine
 62
40
  6
CONTINUOUS
 10
5.6049790198
 20
3.4159960566
 11
5.6275376136
 21
3.4159960566
  0
LINE
  5
2E4
100
AcDbEntity
  8
03__ASM_ALL_CURVES
100
AcDbLine
 62
40
  6
CONTINUOUS
 10
5.8821274573
 20
3.4374804326
 11
5.8756821448
 21
3.4374804326
  0
LINE
  5
2E5
100
AcDbEntity
  8
03__ASM_ALL_CURVES
100
AcDbLine
 62
40
  6
CONTINUOUS
 10
5.8305649573
 20
3.4374804326
 11
5.8241196448
 21
3.4374804326
  0
LINE
  5
2E6
100
AcDbEntity
  8
03__ASM_ALL_CURVES
100
AcDbLine
 62
40
  6
CONTINUOUS
 10
5.6275376136
 20
3.4374804326
 11
5.6049790198
 21
3.4374804326
  0
LINE
  5
2E7
100
AcDbEntity
  8
03__ASM_ALL_CURVES
100
AcDbLine
 62
40
  6
CONTINUOUS
 10
4.4850278686
 20
3.4374804326
 11
4.5011411499
 21
3.4374804326
  0
LINE
  5
2E8
100
AcDbEntity
  8
03__ASM_ALL_CURVES
100
AcDbLine
 62
40
  6
CONTINUOUS
 10
4.5365903686
 20
3.4374804326
 11
4.5527036499
 21
3.4374804326
  0
LINE
  5
2E9
100
AcDbEntity
  8
03__ASM_ALL_CURVES
100
AcDbLine
 62
40
  6
CONTINUOUS
 10
4.6493833374
 20
3.4374804326
 11
4.6558286499
 21
3.4374804326
  0
LINE
  5
2EA
100
AcDbEntity
  8
03__ASM_ALL_CURVES
100
AcDbLine
 62
40
  6
CONTINUOUS
 10
4.6912778686
 20
3.4374804326
 11
4.7073911499
 21
3.4374804326
  0
LINE
  5
2EB
100
AcDbEntity
  8
03__ASM_ALL_CURVES
100
AcDbLine
 62
40
  6
CONTINUOUS
 10
4.7911802124
 20
3.4374804326
 11
4.8234067749
 21
3.4374804326
  0
LINE
  5
2EC
100
AcDbEntity
  8
03__ASM_ALL_CURVES
100
AcDbLine
 62
40
  6
CONTINUOUS
 10
4.9490903686
 20
3.4374804326
 11
4.9748716186
 21
3.4374804326
  0
LINE
  5
2ED
100
AcDbEntity
  8
03__ASM_ALL_CURVES
100
AcDbLine
 62
40
  6
CONTINUOUS
 10
5.0618833374
 20
3.4374804326
 11
5.0683286499
 21
3.4374804326
  0
LINE
  5
2EE
100
AcDbEntity
  8
03__ASM_ALL_CURVES
100
AcDbLine
 62
40
  6
CONTINUOUS
 10
5.7113266761
 20
3.4374804326
 11
5.7274399573
 21
3.4374804326
  0
LINE
  5
2EF
100
AcDbEntity
  8
03__ASM_ALL_CURVES
100
AcDbLine
 62
40
  6
CONTINUOUS
 10
5.9691391761
 20
3.4374804326
 11
5.9949204261
 21
3.4374804326
  0
LINE
  5
2F0
100
AcDbEntity
  8
03__ASM_ALL_CURVES
100
AcDbLine
 62
40
  6
CONTINUOUS
 10
6.0819321448
 20
3.4374804326
 11
6.0883774573
 21
3.4374804326
  0
LINE
  5
2F1
100
AcDbEntity
  8
03__ASM_ALL_CURVES
100
AcDbLine
 62
40
  6
CONTINUOUS
 10
5.832176321
 20
3.4649804326
 11
5.8257310085
 21
3.4649804326
  0
LINE
  5
2F2
100
AcDbEntity
  8
03__ASM_ALL_CURVES
100
AcDbLine
 62
40
  6
CONTINUOUS
 10
4.9152524811
 20
3.4649804326
 11
4.9088071686
 21
3.4649804326
  0
LINE
  5
2F3
100
AcDbEntity
  8
03__ASM_ALL_CURVES
100
AcDbLine
 62
40
  6
CONTINUOUS
 10
4.7605649811
 20
3.4649804326
 11
4.7541196686
 21
3.4649804326
  0
LINE
  5
2F4
100
AcDbEntity
  8
03__ASM_ALL_CURVES
100
AcDbLine
 62
40
  6
CONTINUOUS
 10
5.9707505398
 20
3.4649804326
 11
5.9965317898
 21
3.4649804326
  0
LINE
  5
2F5
100
AcDbEntity
  8
03__ASM_ALL_CURVES
100
AcDbLine
 62
40
  6
CONTINUOUS
 10
5.883738821
 20
3.4907616826
 11
5.8676255398
 21
3.4907616826
  0
LINE
  5
2F6
100
AcDbEntity
  8
03__ASM_ALL_CURVES
100
AcDbLine
 62
40
  6
CONTINUOUS
 10
5.780613821
 20
3.4907616826
 11
5.7645005398
 21
3.4907616826
  0
LINE
  5
2F7
100
AcDbEntity
  8
03__ASM_ALL_CURVES
100
AcDbLine
 62
40
  6
CONTINUOUS
 10
4.8121274811
 20
3.4907616826
 11
4.7960141999
 21
3.4907616826
  0
LINE
  5
2F8
100
AcDbEntity
  8
03__ASM_ALL_CURVES
100
AcDbLine
 62
40
  6
CONTINUOUS
 10
4.7090024811
 20
3.4907616826
 11
4.6928891999
 21
3.4907616826
  0
LINE
  5
2F9
100
AcDbEntity
  8
03__ASM_ALL_CURVES
100
AcDbLine
 62
40
  6
CONTINUOUS
 10
4.9088071686
 20
3.4950585566
 11
4.9152524811
 21
3.4950585566
  0
LINE
  5
2FA
100
AcDbEntity
  8
03__ASM_ALL_CURVES
100
AcDbLine
 62
40
  6
CONTINUOUS
 10
4.6928891999
 20
3.5165429326
 11
4.7090024811
 21
3.5165429326
  0
LINE
  5
2FB
100
AcDbEntity
  8
03__ASM_ALL_CURVES
100
AcDbLine
 62
40
  6
CONTINUOUS
 10
4.7541196686
 20
3.5165429326
 11
4.7605649811
 21
3.5165429326
  0
LINE
  5
2FC
100
AcDbEntity
  8
03__ASM_ALL_CURVES
100
AcDbLine
 62
40
  6
CONTINUOUS
 10
4.7960141999
 20
3.5165429326
 11
4.8121274811
 21
3.5165429326
  0
LINE
  5
2FD
100
AcDbEntity
  8
03__ASM_ALL_CURVES
100
AcDbLine
 62
40
  6
CONTINUOUS
 10
4.8443540436
 20
3.5165429326
 11
4.8765806061
 21
3.5165429326
  0
LINE
  5
2FE
100
AcDbEntity
  8
03__ASM_ALL_CURVES
100
AcDbLine
 62
40
  6
CONTINUOUS
 10
4.9088071686
 20
3.5165429326
 11
4.9152524811
 21
3.5165429326
  0
LINE
  5
2FF
100
AcDbEntity
  8
03__ASM_ALL_CURVES
100
AcDbLine
 62
40
  6
CONTINUOUS
 10
5.7645005398
 20
3.5165429326
 11
5.780613821
 21
3.5165429326
  0
LINE
  5
300
100
AcDbEntity
  8
03__ASM_ALL_CURVES
100
AcDbLine
 62
40
  6
CONTINUOUS
 10
5.8257310085
 20
3.5165429326
 11
5.832176321
 21
3.5165429326
  0
LINE
  5
301
100
AcDbEntity
  8
03__ASM_ALL_CURVES
100
AcDbLine
 62
40
  6
CONTINUOUS
 10
5.8676255398
 20
3.5165429326
 11
5.883738821
 21
3.5165429326
  0
LINE
  5
302
100
AcDbEntity
  8
03__ASM_ALL_CURVES
100
AcDbLine
 62
40
  6
CONTINUOUS
 10
5.9159653835
 20
3.5165429326
 11
5.948191946
 21
3.5165429326
  0
LINE
  5
303
100
AcDbEntity
  8
03__ASM_ALL_CURVES
100
AcDbLine
 62
40
  6
CONTINUOUS
 10
5.9804185085
 20
3.5165429326
 11
5.986863821
 21
3.5165429326
  0
LINE
  5
304
100
AcDbEntity
  8
03__ASM_ALL_CURVES
100
AcDbLine
 62
40
  6
CONTINUOUS
 10
5.7274399573
 20
3.4374804326
 11
5.7338852698
 21
3.4331835586
  0
LINE
  5
305
100
AcDbEntity
  8
03__ASM_ALL_CURVES
100
AcDbLine
 62
40
  6
CONTINUOUS
 10
4.1137192776
 20
5.1253960994
 11
4.1180161526
 21
5.1196669326
  0
LINE
  5
306
100
AcDbEntity
  8
03__ASM_ALL_CURVES
100
AcDbLine
 62
40
  6
CONTINUOUS
 10
4.1738755276
 20
5.1253960994
 11
4.1695786526
 21
5.1311252663
  0
LINE
  5
307
100
AcDbEntity
  8
03__ASM_ALL_CURVES
100
AcDbLine
 62
40
  6
CONTINUOUS
 10
4.1996567776
 20
5.1540419326
 11
4.2082505276
 21
5.1425835999
  0
LINE
  5
308
100
AcDbEntity
  8
03__ASM_ALL_CURVES
100
AcDbLine
 62
40
  6
CONTINUOUS
 10
4.1996567776
 20
5.1826877673
 11
4.2039536526
 21
5.1769585979
  0
LINE
  5
309
100
AcDbEntity
  8
03__ASM_ALL_CURVES
100
AcDbLine
 62
40
  6
CONTINUOUS
 10
4.6551255276
 20
5.1540419326
 11
4.6508286526
 21
5.1655002673
  0
LINE
  5
30A
100
AcDbEntity
  8
03__ASM_ALL_CURVES
100
AcDbLine
 62
40
  6
CONTINUOUS
 10
4.7410630276
 20
5.1769585979
 11
4.7453599026
 21
5.1597710979
  0
LINE
  5
30B
100
AcDbEntity
  8
03__ASM_ALL_CURVES
100
AcDbLine
 62
40
  6
CONTINUOUS
 10
5.0973325561
 20
3.4374804326
 11
5.1070005249
 21
3.3859179326
  0
LINE
  5
30C
100
AcDbEntity
  8
03__ASM_ALL_CURVES
100
AcDbLine
 62
40
  6
CONTINUOUS
 10
5.1166684936
 20
3.4374804326
 11
5.1263364624
 21
3.3859179326
  0
LINE
  5
30D
100
AcDbEntity
  8
0
100
AcDbLine
 62
7
  6
CONTINUOUS
 10
5.0805161526
 20
3.7285429326
 11
5.0805161526
 21
4.8045429326
  0
LINE
  5
30E
100
AcDbEntity
  8
03__ASM_ALL_CURVES
100
AcDbLine
 62
40
  6
CONTINUOUS
 10
5.0805161526
 20
4.8182929326
 11
5.0805161526
 21
5.1196669326
  0
LINE
  5
30F
100
AcDbEntity
  8
THREAD
100
AcDbLine
 62
7
  6
CONTINUOUS
 10
5.0961046099
 20
3.7520429326
 11
5.0961046099
 21
4.7810429326
  0
LINE
  5
310
100
AcDbEntity
  8
THREAD
100
AcDbLine
 62
7
  6
CONTINUOUS
 10
5.1275161526
 20
3.7520429326
 11
5.1275161526
 21
4.7810429326
  0
LINE
  5
311
100
AcDbEntity
  8
03__ASM_ALL_CURVES
100
AcDbLine
 62
40
  6
CONTINUOUS
 10
5.1630161526
 20
5.1059169326
 11
5.1630161526
 21
5.0784169326
  0
LINE
  5
312
100
AcDbEntity
  8
03__ASM_ALL_CURVES
100
AcDbLine
 62
40
  6
CONTINUOUS
 10
5.1905161523
 20
5.1884169326
 11
5.1905161523
 21
5.1196669326
  0
LINE
  5
313
100
AcDbEntity
  8
0
100
AcDbLine
 62
7
  6
CONTINUOUS
 10
5.1975161526
 20
3.7545429326
 11
5.1975161526
 21
4.7785429326
  0
LINE
  5
314
100
AcDbEntity
  8
03__ASM_ALL_CURVES
100
AcDbLine
 62
40
  6
CONTINUOUS
 10
5.3022349023
 20
5.1540419326
 11
5.2979380273
 21
5.1368544326
  0
LINE
  5
315
100
AcDbEntity
  8
03__ASM_ALL_CURVES
100
AcDbLine
 62
40
  6
CONTINUOUS
 10
5.3194224023
 20
5.1540419326
 11
5.3237192773
 21
5.1712294326
  0
LINE
  5
316
100
AcDbEntity
  8
03__ASM_ALL_CURVES
100
AcDbLine
 62
40
  6
CONTINUOUS
 10
5.3924692773
 20
5.1196669326
 11
5.4139536523
 21
5.1884169326
  0
LINE
  5
317
100
AcDbEntity
  8
THREAD
100
AcDbLine
 62
7
  6
CONTINUOUS
 10
5.2904554629
 20
4.7625429326
 11
5.2721245918
 21
4.7307929326
  0
LINE
  5
318
100
AcDbEntity
  8
03__ASM_ALL_CURVES
100
AcDbLine
 62
40
  6
CONTINUOUS
 10
5.6674692773
 20
5.1712294326
 11
5.6760630273
 21
5.1826877673
  0
LINE
  5
319
100
AcDbEntity
  8
03__ASM_ALL_CURVES
100
AcDbLine
 62
40
  6
CONTINUOUS
 10
5.8221567773
 20
5.1884169326
 11
5.8135630273
 21
5.1826877673
  0
LINE
  5
31A
100
AcDbEntity
  8
03__ASM_ALL_CURVES
100
AcDbLine
 62
40
  6
CONTINUOUS
 10
5.8393442773
 20
5.1253960994
 11
5.8307505273
 21
5.1196669326
  0
LINE
  5
31B
100
AcDbEntity
  8
03__ASM_ALL_CURVES
100
AcDbLine
 62
40
  6
CONTINUOUS
 10
5.9510630273
 20
5.1826877673
 11
5.9596567773
 21
5.1884169326
  0
LINE
  5
31C
100
AcDbEntity
  8
03__ASM_ALL_CURVES
100
AcDbLine
 62
40
  6
CONTINUOUS
 10
5.9768442773
 20
5.1253960994
 11
5.9682505273
 21
5.1196669326
  0
LINE
  5
31D
100
AcDbEntity
  8
0
100
AcDbLine
 62
7
  6
CONTINUOUS
 10
4.2130905268
 20
3.6325429326
 11
3.7511268239
 21
3.6325429326
  0
LINE
  5
31E
100
AcDbEntity
  8
0
100
AcDbLine
 62
7
  6
CONTINUOUS
 10
4.2130905268
 20
3.6331576231
 11
3.7511268239
 21
3.6331576231
  0
LINE
  5
31F
100
AcDbEntity
  8
03__ASM_ALL_CURVES
100
AcDbLine
 62
40
  6
CONTINUOUS
 10
5.8241196448
 20
3.3859179326
 11
5.8176743323
 21
3.3902148077
  0
LINE
  5
320
100
AcDbEntity
  8
03__ASM_ALL_CURVES
100
AcDbLine
 62
40
  6
CONTINUOUS
 10
5.8176743323
 20
3.4202929336
 11
5.8370102698
 21
3.4074023071
  0
LINE
  5
321
100
AcDbEntity
  8
03__ASM_ALL_CURVES
100
AcDbLine
 62
40
  6
CONTINUOUS
 10
5.8756821448
 20
3.3859179326
 11
5.8692368323
 21
3.3902148077
  0
LINE
  5
322
100
AcDbEntity
  8
03__ASM_ALL_CURVES
100
AcDbLine
 62
40
  6
CONTINUOUS
 10
5.8370102698
 20
3.4331835586
 11
5.8305649573
 21
3.4374804326
  0
LINE
  5
323
100
AcDbEntity
  8
03__ASM_ALL_CURVES
100
AcDbLine
 62
40
  6
CONTINUOUS
 10
5.8692368323
 20
3.4202929336
 11
5.8885727698
 21
3.4074023071
  0
LINE
  5
324
100
AcDbEntity
  8
03__ASM_ALL_CURVES
100
AcDbLine
 62
40
  6
CONTINUOUS
 10
5.8257310085
 20
3.4649804326
 11
5.819285696
 21
3.4692773077
  0
LINE
  5
325
100
AcDbEntity
  8
03__ASM_ALL_CURVES
100
AcDbLine
 62
40
  6
CONTINUOUS
 10
5.8885727698
 20
3.4331835586
 11
5.8821274573
 21
3.4374804326
  0
LINE
  5
326
100
AcDbEntity
  8
03__ASM_ALL_CURVES
100
AcDbLine
 62
40
  6
CONTINUOUS
 10
5.780613821
 20
3.5165429326
 11
5.7870591335
 21
3.5122460586
  0
LINE
  5
327
100
AcDbEntity
  8
03__ASM_ALL_CURVES
100
AcDbLine
 62
40
  6
CONTINUOUS
 10
5.832176321
 20
3.5165429326
 11
5.8386216335
 21
3.5122460586
  0
LINE
  5
328
100
AcDbEntity
  8
03__ASM_ALL_CURVES
100
AcDbLine
 62
40
  6
CONTINUOUS
 10
5.883738821
 20
3.5165429326
 11
5.8901841335
 21
3.5122460586
  0
LINE
  5
329
100
AcDbEntity
  8
03__ASM_ALL_CURVES
100
AcDbLine
 62
40
  6
CONTINUOUS
 10
6.0819321448
 20
3.3859179326
 11
6.0754868323
 21
3.3902148077
  0
LINE
  5
32A
100
AcDbEntity
  8
03__ASM_ALL_CURVES
100
AcDbLine
 62
40
  6
CONTINUOUS
 10
4.3199692776
 20
5.1311252663
 11
4.3285630276
 21
5.1196669326
  0
LINE
  5
32B
100
AcDbEntity
  8
03__ASM_ALL_CURVES
100
AcDbLine
 62
40
  6
CONTINUOUS
 10
5.6339829261
 20
3.4074023071
 11
5.6275376136
 21
3.4159960566
  0
LINE
  5
32C
100
AcDbEntity
  8
03__ASM_ALL_CURVES
100
AcDbLine
 62
40
  6
CONTINUOUS
 10
5.6307602698
 20
3.4331835586
 11
5.6275376136
 21
3.4374804326
  0
LINE
  5
32D
100
AcDbEntity
  8
03__ASM_ALL_CURVES
100
AcDbLine
 62
40
  6
CONTINUOUS
 10
4.3801255276
 20
5.1253960994
 11
4.3758286526
 21
5.1311252663
  0
LINE
  5
32E
100
AcDbEntity
  8
03__ASM_ALL_CURVES
100
AcDbLine
 62
40
  6
CONTINUOUS
 10
4.4059067776
 20
5.1540419326
 11
4.4145005276
 21
5.1425835999
  0
LINE
  5
32F
100
AcDbEntity
  8
THREAD
100
AcDbLine
 62
7
  6
CONTINUOUS
 10
5.2904554629
 20
3.7705429326
 11
5.2721245918
 21
3.8022929326
  0
LINE
  5
330
100
AcDbEntity
  8
03__ASM_ALL_CURVES
100
AcDbLine
 62
40
  6
CONTINUOUS
 10
4.6809067776
 20
5.1769585979
 11
4.6852036526
 21
5.1655002673
  0
LINE
  5
331
100
AcDbEntity
  8
0
100
AcDbLine
 62
7
  6
CONTINUOUS
 10
5.2475161526
 20
3.7545429326
 11
5.2475161526
 21
4.7785429326
  0
LINE
  5
332
100
AcDbEntity
  8
THREAD
100
AcDbLine
 62
7
  6
CONTINUOUS
 10
5.2612992743
 20
3.8085429326
 11
5.2612992743
 21
4.7245429326
  0
LINE
  5
333
100
AcDbEntity
  8
THREAD
100
AcDbLine
 62
7
  6
CONTINUOUS
 10
5.2721245918
 20
3.8022929326
 11
5.2721245918
 21
4.7307929326
  0
LINE
  5
334
100
AcDbEntity
  8
THREAD
100
AcDbLine
 62
7
  6
CONTINUOUS
 10
5.2904554629
 20
3.7705429326
 11
5.2904554629
 21
4.7625429326
  0
LINE
  5
335
100
AcDbEntity
  8
03__ASM_ALL_CURVES
100
AcDbLine
 62
40
  6
CONTINUOUS
 10
5.1070005249
 20
3.3859179326
 11
5.1166684936
 21
3.4374804326
  0
LINE
  5
336
100
AcDbEntity
  8
03__ASM_ALL_CURVES
100
AcDbLine
 62
40
  6
CONTINUOUS
 10
5.1263364624
 20
3.3859179326
 11
5.1360044311
 21
3.4374804326
  0
LINE
  5
337
100
AcDbEntity
  8
03__ASM_ALL_CURVES
100
AcDbLine
 62
40
  6
CONTINUOUS
 10
5.0457700561
 20
3.4116991826
 11
5.0489927124
 21
3.4245898076
  0
LINE
  5
338
100
AcDbEntity
  8
03__ASM_ALL_CURVES
100
AcDbLine
 62
40
  6
CONTINUOUS
 10
5.0844419311
 20
3.4116991826
 11
5.0812192749
 21
3.3988085576
  0
LINE
  5
339
100
AcDbEntity
  8
03__ASM_ALL_CURVES
100
AcDbLine
 62
40
  6
CONTINUOUS
 10
4.8588559936
 20
3.4116991826
 11
4.8717466186
 21
3.4374804326
  0
LINE
  5
33A
100
AcDbEntity
  8
03__ASM_ALL_CURVES
100
AcDbLine
 62
40
  6
CONTINUOUS
 10
5.7061411523
 20
5.1311252663
 11
5.7018442773
 21
5.1253960994
  0
LINE
  5
33B
100
AcDbEntity
  8
03__ASM_ALL_CURVES
100
AcDbLine
 62
40
  6
CONTINUOUS
 10
5.8135630273
 20
5.1826877673
 11
5.8092661523
 21
5.1769585979
  0
LINE
  5
33C
100
AcDbEntity
  8
03__ASM_ALL_CURVES
100
AcDbLine
 62
40
  6
CONTINUOUS
 10
4.5108091186
 20
3.4202929336
 11
4.5075864624
 21
3.4159960566
  0
LINE
  5
33D
100
AcDbEntity
  8
03__ASM_ALL_CURVES
100
AcDbLine
 62
40
  6
CONTINUOUS
 10
5.8436411523
 20
5.1311252663
 11
5.8393442773
 21
5.1253960994
  0
LINE
  5
33E
100
AcDbEntity
  8
03__ASM_ALL_CURVES
100
AcDbLine
 62
40
  6
CONTINUOUS
 10
4.5623716186
 20
3.4202929336
 11
4.5591489624
 21
3.4159960566
  0
LINE
  5
33F
100
AcDbEntity
  8
03__ASM_ALL_CURVES
100
AcDbLine
 62
40
  6
CONTINUOUS
 10
6.0455942773
 20
5.1253960994
 11
6.0370005273
 21
5.1196669326
  0
LINE
  5
340
100
AcDbEntity
  8
03__ASM_ALL_CURVES
100
AcDbLine
 62
40
  6
CONTINUOUS
 10
6.1787974023
 20
5.1253960994
 11
6.1702036523
 21
5.1196669326
  0
LINE
  5
341
100
AcDbEntity
  8
03__ASM_ALL_CURVES
100
AcDbLine
 62
40
  6
CONTINUOUS
 10
6.3205942773
 20
5.1597710979
 11
6.3120005273
 21
5.1540419326
  0
LINE
  5
342
100
AcDbEntity
  8
0
100
AcDbLine
 62
7
  6
CONTINUOUS
 10
5.0805161526
 20
3.7285429326
 11
5.0155161526
 21
3.7285429326
  0
LINE
  5
343
100
AcDbEntity
  8
0
100
AcDbLine
 62
7
  6
CONTINUOUS
 10
4.4555161526
 20
3.7285429326
 11
4.2685161526
 21
3.7285429326
  0
LINE
  5
344
100
AcDbEntity
  8
0
100
AcDbLine
 62
7
  6
CONTINUOUS
 10
4.6415161526
 20
3.7287929326
 11
4.5965161526
 21
3.7287929326
  0
LINE
  5
345
100
AcDbEntity
  8
0
100
AcDbLine
 62
7
  6
CONTINUOUS
 10
4.4555161526
 20
3.7300429326
 11
4.5055161526
 21
3.7300429326
  0
LINE
  5
346
100
AcDbEntity
  8
THREAD
100
AcDbLine
 62
7
  6
CONTINUOUS
 10
5.1275161526
 20
3.7520429326
 11
5.0961046099
 21
3.7520429326
  0
LINE
  5
347
100
AcDbEntity
  8
0
100
AcDbLine
 62
7
  6
CONTINUOUS
 10
5.1975161526
 20
3.7545429326
 11
5.2475161526
 21
3.7545429326
  0
LINE
  5
348
100
AcDbEntity
  8
THREAD
100
AcDbLine
 62
7
  6
CONTINUOUS
 10
5.5615161526
 20
3.7705429326
 11
5.2904554629
 21
3.7705429326
  0
LINE
  5
349
100
AcDbEntity
  8
0
100
AcDbLine
 62
7
  6
CONTINUOUS
 10
4.5965161526
 20
3.7840429326
 11
4.5755161526
 21
3.7840429326
  0
LINE
  5
34A
100
AcDbEntity
  8
THREAD
100
AcDbLine
 62
7
  6
CONTINUOUS
 10
5.2612992743
 20
3.8085429326
 11
5.2475161526
 21
3.8085429326
  0
LINE
  5
34B
100
AcDbEntity
  8
0
100
AcDbLine
 62
7
  6
CONTINUOUS
 10
4.9940802173
 20
3.8085429326
 11
4.9710161526
 21
3.8085429326
  0
LINE
  5
34C
100
AcDbEntity
  8
0
100
AcDbLine
 62
7
  6
CONTINUOUS
 10
4.7520161526
 20
3.8085429326
 11
4.6628851007
 21
3.8085429326
  0
LINE
  5
34D
100
AcDbEntity
  8
THREAD
100
AcDbLine
 62
7
  6
CONTINUOUS
 10
5.6895161526
 20
3.8145429326
 11
5.6055161526
 21
3.8145429326
  0
LINE
  5
34E
100
AcDbEntity
  8
0
100
AcDbLine
 62
7
  6
CONTINUOUS
 10
6.1345161526
 20
3.8300429326
 11
6.2005161526
 21
3.8300429326
  0
LINE
  5
34F
100
AcDbEntity
  8
0
100
AcDbLine
 62
7
  6
CONTINUOUS
 10
6.3985161526
 20
3.8300429326
 11
6.4395161526
 21
3.8300429326
  0
LINE
  5
350
100
AcDbEntity
  8
0
100
AcDbLine
 62
7
  6
CONTINUOUS
 10
6.2005161526
 20
3.8305429326
 11
6.2505161526
 21
3.8305429326
  0
LINE
  5
351
100
AcDbEntity
  8
0
100
AcDbLine
 62
7
  6
CONTINUOUS
 10
6.3205161526
 20
3.8305429326
 11
6.3705161526
 21
3.8305429326
  0
LINE
  5
352
100
AcDbEntity
  8
03__ASM_ALL_CURVES
100
AcDbLine
 62
40
  6
CONTINUOUS
 10
6.0883774573
 20
3.4374804326
 11
6.0948227698
 21
3.4331835586
  0
LINE
  5
353
100
AcDbEntity
  8
03__ASM_ALL_CURVES
100
AcDbLine
 62
40
  6
CONTINUOUS
 10
5.986863821
 20
3.5165429326
 11
5.9933091335
 21
3.5122460586
  0
LINE
  5
354
100
AcDbEntity
  8
03__ASM_ALL_CURVES
100
AcDbLine
 62
40
  6
CONTINUOUS
 10
4.4059067776
 20
5.1826877673
 11
4.4102036526
 21
5.1769585979
  0
LINE
  5
355
100
AcDbEntity
  8
03__ASM_ALL_CURVES
100
AcDbLine
 62
40
  6
CONTINUOUS
 10
5.7338852698
 20
3.4331835586
 11
5.7371079261
 21
3.4288866816
  0
LINE
  5
356
100
AcDbEntity
  8
03__ASM_ALL_CURVES
100
AcDbLine
 62
40
  6
CONTINUOUS
 10
5.8176743323
 20
3.3902148077
 11
5.8112290198
 21
3.3988085576
  0
LINE
  5
357
100
AcDbEntity
  8
03__ASM_ALL_CURVES
100
AcDbLine
 62
40
  6
CONTINUOUS
 10
4.5262192776
 20
5.1253960994
 11
4.5305161526
 21
5.1196669326
  0
LINE
  5
358
100
AcDbEntity
  8
03__ASM_ALL_CURVES
100
AcDbLine
 62
40
  6
CONTINUOUS
 10
5.8144516761
 20
3.4245898076
 11
5.8176743323
 21
3.4202929336
  0
LINE
  5
359
100
AcDbEntity
  8
03__ASM_ALL_CURVES
100
AcDbLine
 62
40
  6
CONTINUOUS
 10
5.8370102698
 20
3.4074023071
 11
5.8402329261
 21
3.4031054331
  0
LINE
  5
35A
100
AcDbEntity
  8
03__ASM_ALL_CURVES
100
AcDbLine
 62
40
  6
CONTINUOUS
 10
5.8692368323
 20
3.3902148077
 11
5.8627915198
 21
3.3988085576
  0
LINE
  5
35B
100
AcDbEntity
  8
03__ASM_ALL_CURVES
100
AcDbLine
 62
40
  6
CONTINUOUS
 10
5.8402329261
 20
3.4288866816
 11
5.8370102698
 21
3.4331835586
  0
LINE
  5
35C
100
AcDbEntity
  8
03__ASM_ALL_CURVES
100
AcDbLine
 62
40
  6
CONTINUOUS
 10
5.819285696
 20
3.4692773077
 11
5.8128403835
 21
3.4778710576
  0
LINE
  5
35D
100
AcDbEntity
  8
03__ASM_ALL_CURVES
100
AcDbLine
 62
40
  6
CONTINUOUS
 10
5.7870591335
 20
3.5122460586
 11
5.7902817898
 21
3.5079491816
  0
LINE
  5
35E
100
AcDbEntity
  8
03__ASM_ALL_CURVES
100
AcDbLine
 62
40
  6
CONTINUOUS
 10
5.8660141761
 20
3.4245898076
 11
5.8692368323
 21
3.4202929336
  0
LINE
  5
35F
100
AcDbEntity
  8
03__ASM_ALL_CURVES
100
AcDbLine
 62
40
  6
CONTINUOUS
 10
5.8885727698
 20
3.4074023071
 11
5.8917954261
 21
3.4031054331
  0
LINE
  5
360
100
AcDbEntity
  8
03__ASM_ALL_CURVES
100
AcDbLine
 62
40
  6
CONTINUOUS
 10
5.8917954261
 20
3.4288866816
 11
5.8885727698
 21
3.4331835586
  0
LINE
  5
361
100
AcDbEntity
  8
03__ASM_ALL_CURVES
100
AcDbLine
 62
40
  6
CONTINUOUS
 10
5.6597641761
 20
3.4374804326
 11
5.6726548011
 21
3.4116991826
  0
LINE
  5
362
100
AcDbEntity
  8
03__ASM_ALL_CURVES
100
AcDbLine
 62
40
  6
CONTINUOUS
 10
5.4827036523
 20
5.1884169326
 11
5.4827036523
 21
5.1196669326
  0
LINE
  5
363
100
AcDbEntity
  8
03__ASM_ALL_CURVES
100
AcDbLine
 62
40
  6
CONTINUOUS
 10
5.6631724023
 20
5.1540419326
 11
5.6674692773
 21
5.1712294326
  0
LINE
  5
364
100
AcDbEntity
  8
03__ASM_ALL_CURVES
100
AcDbLine
 62
40
  6
CONTINUOUS
 10
5.9424692773
 20
5.1712294326
 11
5.9510630273
 21
5.1826877673
  0
LINE
  5
365
100
AcDbEntity
  8
03__ASM_ALL_CURVES
100
AcDbLine
 62
40
  6
CONTINUOUS
 10
4.6364927124
 20
3.4245898076
 11
4.6429380249
 21
3.4331835586
  0
LINE
  5
366
100
AcDbEntity
  8
03__ASM_ALL_CURVES
100
AcDbLine
 62
40
  6
CONTINUOUS
 10
4.7186704499
 20
3.4993554336
 11
4.7154477936
 21
3.4950585566
  0
LINE
  5
367
100
AcDbEntity
  8
03__ASM_ALL_CURVES
100
AcDbLine
 62
40
  6
CONTINUOUS
 10
4.7412290436
 20
3.5036523076
 11
4.7476743561
 21
3.5122460586
  0
LINE
  5
368
100
AcDbEntity
  8
03__ASM_ALL_CURVES
100
AcDbLine
 62
40
  6
CONTINUOUS
 10
4.6687192749
 20
3.3988085576
 11
4.6622739624
 21
3.3902148077
  0
LINE
  5
369
100
AcDbEntity
  8
03__ASM_ALL_CURVES
100
AcDbLine
 62
40
  6
CONTINUOUS
 10
5.9854380273
 20
5.1368544326
 11
5.9768442773
 21
5.1253960994
  0
LINE
  5
36A
100
AcDbEntity
  8
03__ASM_ALL_CURVES
100
AcDbLine
 62
40
  6
CONTINUOUS
 10
4.7170591186
 20
3.4202929336
 11
4.7138364624
 21
3.4159960566
  0
LINE
  5
36B
100
AcDbEntity
  8
03__ASM_ALL_CURVES
100
AcDbLine
 62
40
  6
CONTINUOUS
 10
4.7734556061
 20
3.4778710576
 11
4.7670102936
 21
3.4692773077
  0
LINE
  5
36C
100
AcDbEntity
  8
03__ASM_ALL_CURVES
100
AcDbLine
 62
40
  6
CONTINUOUS
 10
4.8217954499
 20
3.4993554336
 11
4.8185727936
 21
3.4950585566
  0
LINE
  5
36D
100
AcDbEntity
  8
03__ASM_ALL_CURVES
100
AcDbLine
 62
40
  6
CONTINUOUS
 10
6.0498911523
 20
5.1311252663
 11
6.0455942773
 21
5.1253960994
  0
LINE
  5
36E
100
AcDbEntity
  8
0
100
AcDbLine
 62
7
  6
CONTINUOUS
 10
6.3985161526
 20
3.8845429326
 11
6.3705161526
 21
3.8845429326
  0
LINE
  5
36F
100
AcDbEntity
  8
0
100
AcDbLine
 62
7
  6
CONTINUOUS
 10
6.1345161526
 20
3.8925429326
 11
5.9865161526
 21
3.8925429326
  0
LINE
  5
370
100
AcDbEntity
  8
0
100
AcDbLine
 62
7
  6
CONTINUOUS
 10
5.8305161526
 20
3.8925429326
 11
5.7055161526
 21
3.8925429326
  0
LINE
  5
371
100
AcDbEntity
  8
0
100
AcDbLine
 62
7
  6
CONTINUOUS
 10
4.2130905268
 20
3.9256782421
 11
3.7511268239
 21
3.9256782421
  0
LINE
  5
372
100
AcDbEntity
  8
0
100
AcDbLine
 62
7
  6
CONTINUOUS
 10
4.2130905268
 20
3.9740223137
 11
3.7511268239
 21
3.9740223137
  0
LINE
  5
373
100
AcDbEntity
  8
03__ASM_ALL_CURVES
100
AcDbLine
 62
40
  6
CONTINUOUS
 10
5.8386216335
 20
3.5122460586
 11
5.845066946
 21
3.5036523076
  0
LINE
  5
374
100
AcDbEntity
  8
03__ASM_ALL_CURVES
100
AcDbLine
 62
40
  6
CONTINUOUS
 10
4.6594224026
 20
5.1253960994
 11
4.6551255276
 21
5.1311252663
  0
LINE
  5
375
100
AcDbEntity
  8
03__ASM_ALL_CURVES
100
AcDbLine
 62
40
  6
CONTINUOUS
 10
5.8901841335
 20
3.5122460586
 11
5.8934067898
 21
3.5079491816
  0
LINE
  5
376
100
AcDbEntity
  8
03__ASM_ALL_CURVES
100
AcDbLine
 62
40
  6
CONTINUOUS
 10
4.6766099026
 20
5.1826877673
 11
4.6809067776
 21
5.1769585979
  0
LINE
  5
377
100
AcDbEntity
  8
03__ASM_ALL_CURVES
100
AcDbLine
 62
40
  6
CONTINUOUS
 10
6.0754868323
 20
3.3902148077
 11
6.0690415198
 21
3.3988085576
  0
LINE
  5
378
100
AcDbEntity
  8
03__ASM_ALL_CURVES
100
AcDbLine
 62
40
  6
CONTINUOUS
 10
4.7324692776
 20
5.1884169326
 11
4.7410630276
 21
5.1769585979
  0
LINE
  5
379
100
AcDbEntity
  8
03__ASM_ALL_CURVES
100
AcDbLine
 62
40
  6
CONTINUOUS
 10
5.9933091335
 20
3.5122460586
 11
5.9965317898
 21
3.5079491816
  0
LINE
  5
37A
100
AcDbEntity
  8
03__ASM_ALL_CURVES
100
AcDbLine
 62
40
  6
CONTINUOUS
 10
5.2549692773
 20
5.1368544326
 11
5.2506724023
 21
5.1540419326
  0
LINE
  5
37B
100
AcDbEntity
  8
03__ASM_ALL_CURVES
100
AcDbLine
 62
40
  6
CONTINUOUS
 10
5.5514536523
 20
5.1884169326
 11
5.5514536523
 21
5.1196669326
  0
LINE
  5
37C
100
AcDbEntity
  8
THREAD
100
AcDbLine
 62
7
  6
CONTINUOUS
 10
5.5615161526
 20
3.7705429326
 11
5.5615161526
 21
4.7625429326
  0
LINE
  5
37D
100
AcDbEntity
  8
03__ASM_ALL_CURVES
100
AcDbLine
 62
40
  6
CONTINUOUS
 10
5.6030161523
 20
5.1196669326
 11
5.6030161523
 21
5.1884169326
  0
LINE
  5
37E
100
AcDbEntity
  8
03__ASM_ALL_CURVES
100
AcDbLine
 62
40
  6
CONTINUOUS
 10
5.6049790198
 20
3.4374804326
 11
5.6049790198
 21
3.3859179326
  0
LINE
  5
37F
100
AcDbEntity
  8
THREAD
100
AcDbLine
 62
7
  6
CONTINUOUS
 10
5.6055161526
 20
3.8145429326
 11
5.6055161526
 21
4.7185429326
  0
LINE
  5
380
100
AcDbEntity
  8
03__ASM_ALL_CURVES
100
AcDbLine
 62
40
  6
CONTINUOUS
 10
5.6307602698
 20
3.4202929336
 11
5.6307602698
 21
3.4331835586
  0
LINE
  5
381
100
AcDbEntity
  8
03__ASM_ALL_CURVES
100
AcDbLine
 62
40
  6
CONTINUOUS
 10
5.6339829261
 20
3.3945116829
 11
5.6339829261
 21
3.4074023071
  0
LINE
  5
382
100
AcDbEntity
  8
03__ASM_ALL_CURVES
100
AcDbLine
 62
40
  6
CONTINUOUS
 10
5.6373911523
 20
5.1196669326
 11
5.6373911523
 21
5.1884169326
  0
LINE
  5
383
100
AcDbEntity
  8
03__ASM_ALL_CURVES
100
AcDbLine
 62
40
  6
CONTINUOUS
 10
4.9249204499
 20
3.5036523076
 11
4.9216977936
 21
3.4993554336
  0
LINE
  5
384
100
AcDbEntity
  8
03__ASM_ALL_CURVES
100
AcDbLine
 62
40
  6
CONTINUOUS
 10
4.9281431061
 20
3.4778710576
 11
4.9216977936
 21
3.4692773077
  0
LINE
  5
385
100
AcDbEntity
  8
03__ASM_ALL_CURVES
100
AcDbLine
 62
40
  6
CONTINUOUS
 10
6.1873911523
 20
5.1368544326
 11
6.1787974023
 21
5.1253960994
  0
LINE
  5
386
100
AcDbEntity
  8
03__ASM_ALL_CURVES
100
AcDbLine
 62
40
  6
CONTINUOUS
 10
4.1824692776
 20
5.1196669326
 11
4.1738755276
 21
5.1253960994
  0
LINE
  5
387
100
AcDbEntity
  8
03__ASM_ALL_CURVES
100
AcDbLine
 62
40
  6
CONTINUOUS
 10
4.1910630276
 20
5.1597710979
 11
4.1996567776
 21
5.1540419326
  0
LINE
  5
388
100
AcDbEntity
  8
03__ASM_ALL_CURVES
100
AcDbLine
 62
40
  6
CONTINUOUS
 10
4.1910630276
 20
5.1884169326
 11
4.1996567776
 21
5.1826877673
  0
LINE
  5
389
100
AcDbEntity
  8
03__ASM_ALL_CURVES
100
AcDbLine
 62
40
  6
CONTINUOUS
 10
6.0948227698
 20
3.4331835586
 11
6.1012680823
 21
3.4245898076
  0
LINE
  5
38A
100
AcDbEntity
  8
03__ASM_ALL_CURVES
100
AcDbLine
 62
40
  6
CONTINUOUS
 10
5.883738821
 20
3.4907616826
 11
5.8934067898
 21
3.4649804326
  0
LINE
  5
38B
100
AcDbEntity
  8
03__ASM_ALL_CURVES
100
AcDbLine
 62
40
  6
CONTINUOUS
 10
5.7757798011
 20
3.4374804326
 11
5.7918930823
 21
3.3859179326
  0
LINE
  5
38C
100
AcDbEntity
  8
03__ASM_ALL_CURVES
100
AcDbLine
 62
40
  6
CONTINUOUS
 10
5.2979380273
 20
5.1712294326
 11
5.3022349023
 21
5.1540419326
  0
LINE
  5
38D
100
AcDbEntity
  8
03__ASM_ALL_CURVES
100
AcDbLine
 62
40
  6
CONTINUOUS
 10
5.3237192773
 20
5.1368544326
 11
5.3194224023
 21
5.1540419326
  0
LINE
  5
38E
100
AcDbEntity
  8
03__ASM_ALL_CURVES
100
AcDbLine
 62
40
  6
CONTINUOUS
 10
5.8128403835
 20
3.4778710576
 11
5.8096177273
 21
3.4907616826
  0
LINE
  5
38F
100
AcDbEntity
  8
03__ASM_ALL_CURVES
100
AcDbLine
 62
40
  6
CONTINUOUS
 10
5.845066946
 20
3.5036523076
 11
5.8482896023
 21
3.4907616826
  0
LINE
  5
390
100
AcDbEntity
  8
03__ASM_ALL_CURVES
100
AcDbLine
 62
40
  6
CONTINUOUS
 10
5.6726548011
 20
3.4116991826
 11
5.6726548011
 21
3.3859179326
  0
LINE
  5
391
100
AcDbEntity
  8
0
100
AcDbLine
 62
7
  6
CONTINUOUS
 10
5.6895161526
 20
3.8145429326
 11
5.6895161526
 21
4.7185429326
  0
LINE
  5
392
100
AcDbEntity
  8
0
100
AcDbLine
 62
7
  6
CONTINUOUS
 10
5.7055161526
 20
3.8305429326
 11
5.7055161526
 21
4.7025429326
  0
LINE
  5
393
100
AcDbEntity
  8
03__ASM_ALL_CURVES
100
AcDbLine
 62
40
  6
CONTINUOUS
 10
5.7061411523
 20
5.1540419326
 11
5.7061411523
 21
5.1311252663
  0
LINE
  5
394
100
AcDbEntity
  8
03__ASM_ALL_CURVES
100
AcDbLine
 62
40
  6
CONTINUOUS
 10
5.7113266761
 20
3.3859179326
 11
5.7113266761
 21
3.4374804326
  0
LINE
  5
395
100
AcDbEntity
  8
03__ASM_ALL_CURVES
100
AcDbLine
 62
40
  6
CONTINUOUS
 10
5.7371079261
 20
3.4288866816
 11
5.7371079261
 21
3.4202929336
  0
LINE
  5
396
100
AcDbEntity
  8
03__ASM_ALL_CURVES
100
AcDbLine
 62
40
  6
CONTINUOUS
 10
5.7645005398
 20
3.4649804326
 11
5.7645005398
 21
3.5165429326
  0
LINE
  5
397
100
AcDbEntity
  8
03__ASM_ALL_CURVES
100
AcDbLine
 62
40
  6
CONTINUOUS
 10
5.7902817898
 20
3.5079491816
 11
5.7902817898
 21
3.4993554336
  0
LINE
  5
398
100
AcDbEntity
  8
03__ASM_ALL_CURVES
100
AcDbLine
 62
40
  6
CONTINUOUS
 10
5.8092661523
 20
5.1769585979
 11
5.8092661523
 21
5.1712294326
  0
LINE
  5
399
100
AcDbEntity
  8
03__ASM_ALL_CURVES
100
AcDbLine
 62
40
  6
CONTINUOUS
 10
5.8144516761
 20
3.4288866816
 11
5.8144516761
 21
3.4245898076
  0
LINE
  5
39A
100
AcDbEntity
  8
03__ASM_ALL_CURVES
100
AcDbLine
 62
40
  6
CONTINUOUS
 10
5.9381724023
 20
5.1540419326
 11
5.9424692773
 21
5.1712294326
  0
LINE
  5
39B
100
AcDbEntity
  8
03__ASM_ALL_CURVES
100
AcDbLine
 62
40
  6
CONTINUOUS
 10
5.9897349023
 20
5.1540419326
 11
5.9854380273
 21
5.1368544326
  0
LINE
  5
39C
100
AcDbEntity
  8
03__ASM_ALL_CURVES
100
AcDbLine
 62
40
  6
CONTINUOUS
 10
6.3248911523
 20
5.1655002673
 11
6.3205942773
 21
5.1597710979
  0
LINE
  5
39D
100
AcDbEntity
  8
03__ASM_ALL_CURVES
100
AcDbLine
 62
40
  6
CONTINUOUS
 10
5.0489927124
 20
3.4245898076
 11
5.0554380249
 21
3.4331835586
  0
LINE
  5
39E
100
AcDbEntity
  8
03__ASM_ALL_CURVES
100
AcDbLine
 62
40
  6
CONTINUOUS
 10
5.0812192749
 20
3.3988085576
 11
5.0747739624
 21
3.3902148077
  0
LINE
  5
39F
100
AcDbEntity
  8
03__ASM_ALL_CURVES
100
AcDbLine
 62
40
  6
CONTINUOUS
 10
4.5075864624
 20
3.4159960566
 11
4.5011411499
 21
3.4116991826
  0
LINE
  5
3A0
100
AcDbEntity
  8
03__ASM_ALL_CURVES
100
AcDbLine
 62
40
  6
CONTINUOUS
 10
7.8424302152
 20
4.2012304326
 11
7.8166489652
 21
4.2012304326
  0
LINE
  5
3A1
100
AcDbEntity
  8
03__ASM_ALL_CURVES
100
AcDbLine
 62
40
  6
CONTINUOUS
 10
7.5233872465
 20
4.2012304326
 11
7.516941934
 21
4.2012304326
  0
LINE
  5
3A2
100
AcDbEntity
  8
03__ASM_ALL_CURVES
100
AcDbLine
 62
40
  6
CONTINUOUS
 10
7.3139145902
 20
4.2012304326
 11
7.3010239652
 21
4.2012304326
  0
LINE
  5
3A3
100
AcDbEntity
  8
03__ASM_ALL_CURVES
100
AcDbLine
 62
40
  6
CONTINUOUS
 10
7.2752427152
 20
4.2012304326
 11
7.2494614652
 21
4.2012304326
  0
LINE
  5
3A4
100
AcDbEntity
  8
03__ASM_ALL_CURVES
100
AcDbLine
 62
40
  6
CONTINUOUS
 10
7.1108872465
 20
4.2012304326
 11
7.104441934
 21
4.2012304326
  0
LINE
  5
3A5
100
AcDbEntity
  8
03__ASM_ALL_CURVES
100
AcDbLine
 62
40
  6
CONTINUOUS
 10
6.9046372465
 20
4.2012304326
 11
6.898191934
 21
4.2012304326
  0
LINE
  5
3A6
100
AcDbEntity
  8
03__ASM_ALL_CURVES
100
AcDbLine
 62
40
  6
CONTINUOUS
 10
6.8530747465
 20
4.2012304326
 11
6.846629434
 21
4.2012304326
  0
LINE
  5
3A7
100
AcDbEntity
  8
03__ASM_ALL_CURVES
100
AcDbLine
 62
40
  6
CONTINUOUS
 10
7.1463364652
 20
4.2012304326
 11
7.1721177152
 21
4.2012304326
  0
LINE
  5
3A8
100
AcDbEntity
  8
03__ASM_ALL_CURVES
100
AcDbLine
 62
40
  6
CONTINUOUS
 10
7.1978989652
 20
4.2012304326
 11
7.2236802152
 21
4.2012304326
  0
LINE
  5
3A9
100
AcDbEntity
  8
03__ASM_ALL_CURVES
100
AcDbLine
 62
40
  6
CONTINUOUS
 10
7.4557114652
 20
4.2012304326
 11
7.4814927152
 21
4.2012304326
  0
LINE
  5
3AA
100
AcDbEntity
  8
03__ASM_ALL_CURVES
100
AcDbLine
 62
40
  6
CONTINUOUS
 10
7.7650864652
 20
4.2012304326
 11
7.7908677152
 21
4.2012304326
  0
LINE
  5
3AB
100
AcDbEntity
  8
03__ASM_ALL_CURVES
100
AcDbLine
 62
40
  6
CONTINUOUS
 10
7.0593247465
 20
4.2270116826
 11
7.0432114652
 21
4.2270116826
  0
LINE
  5
3AC
100
AcDbEntity
  8
03__ASM_ALL_CURVES
100
AcDbLine
 62
40
  6
CONTINUOUS
 10
7.2494614652
 20
4.2270116826
 11
7.2655747465
 21
4.2270116826
  0
LINE
  5
3AD
100
AcDbEntity
  8
03__ASM_ALL_CURVES
100
AcDbLine
 62
40
  6
CONTINUOUS
 10
7.4041489652
 20
4.2270116826
 11
7.4202622465
 21
4.2270116826
  0
LINE
  5
3AE
100
AcDbEntity
  8
03__ASM_ALL_CURVES
100
AcDbLine
 62
40
  6
CONTINUOUS
 10
7.8166489652
 20
4.2270116826
 11
7.8327622465
 21
4.2270116826
  0
LINE
  5
3AF
100
AcDbEntity
  8
03__ASM_ALL_CURVES
100
AcDbLine
 62
40
  6
CONTINUOUS
 10
6.846629434
 20
4.2527929326
 11
6.8530747465
 21
4.2527929326
  0
LINE
  5
3B0
100
AcDbEntity
  8
03__ASM_ALL_CURVES
100
AcDbLine
 62
40
  6
CONTINUOUS
 10
6.898191934
 20
4.2527929326
 11
6.9046372465
 21
4.2527929326
  0
LINE
  5
3B1
100
AcDbEntity
  8
03__ASM_ALL_CURVES
100
AcDbLine
 62
40
  6
CONTINUOUS
 10
6.988426309
 20
4.2527929326
 11
7.0206528715
 21
4.2527929326
  0
LINE
  5
3B2
100
AcDbEntity
  8
03__ASM_ALL_CURVES
100
AcDbLine
 62
40
  6
CONTINUOUS
 10
7.0432114652
 20
4.2527929326
 11
7.0593247465
 21
4.2527929326
  0
LINE
  5
3B3
100
AcDbEntity
  8
03__ASM_ALL_CURVES
100
AcDbLine
 62
40
  6
CONTINUOUS
 10
7.104441934
 20
4.2527929326
 11
7.1108872465
 21
4.2527929326
  0
LINE
  5
3B4
100
AcDbEntity
  8
03__ASM_ALL_CURVES
100
AcDbLine
 62
40
  6
CONTINUOUS
 10
7.2494614652
 20
4.2527929326
 11
7.2752427152
 21
4.2527929326
  0
LINE
  5
3B5
100
AcDbEntity
  8
03__ASM_ALL_CURVES
100
AcDbLine
 62
40
  6
CONTINUOUS
 10
7.3010239652
 20
4.2527929326
 11
7.3139145902
 21
4.2527929326
  0
LINE
  5
3B6
100
AcDbEntity
  8
03__ASM_ALL_CURVES
100
AcDbLine
 62
40
  6
CONTINUOUS
 10
7.4041489652
 20
4.2527929326
 11
7.4299302152
 21
4.2527929326
  0
LINE
  5
3B7
100
AcDbEntity
  8
03__ASM_ALL_CURVES
100
AcDbLine
 62
40
  6
CONTINUOUS
 10
7.516941934
 20
4.2527929326
 11
7.5233872465
 21
4.2527929326
  0
LINE
  5
3B8
100
AcDbEntity
  8
03__ASM_ALL_CURVES
100
AcDbLine
 62
40
  6
CONTINUOUS
 10
7.8166489652
 20
4.2527929326
 11
7.8424302152
 21
4.2527929326
  0
LINE
  5
3B9
100
AcDbEntity
  8
03__ASM_ALL_CURVES
100
AcDbLine
 62
40
  6
CONTINUOUS
 10
7.864988809
 20
4.2527929326
 11
7.8972153715
 21
4.2527929326
  0
LINE
  5
3BA
100
AcDbEntity
  8
03__ASM_ALL_CURVES
100
AcDbLine
 62
40
  6
CONTINUOUS
 10
6.8981919341
 20
4.2802929326
 11
6.8917466216
 21
4.2802929326
  0
LINE
  5
3BB
100
AcDbEntity
  8
03__ASM_ALL_CURVES
100
AcDbLine
 62
40
  6
CONTINUOUS
 10
6.9497544341
 20
4.3060741826
 11
6.9336411528
 21
4.3060741826
  0
LINE
  5
3BC
100
AcDbEntity
  8
03__ASM_ALL_CURVES
100
AcDbLine
 62
40
  6
CONTINUOUS
 10
6.8466294341
 20
4.3060741826
 11
6.8305161528
 21
4.3060741826
  0
LINE
  5
3BD
100
AcDbEntity
  8
03__ASM_ALL_CURVES
100
AcDbLine
 62
40
  6
CONTINUOUS
 10
4.3887192776
 20
5.1196669326
 11
4.3801255276
 21
5.1253960994
  0
LINE
  5
3BE
100
AcDbEntity
  8
03__ASM_ALL_CURVES
100
AcDbLine
 62
40
  6
CONTINUOUS
 10
4.3973130276
 20
5.1597710979
 11
4.4059067776
 21
5.1540419326
  0
LINE
  5
3BF
100
AcDbEntity
  8
03__ASM_ALL_CURVES
100
AcDbLine
 62
40
  6
CONTINUOUS
 10
4.3973130276
 20
5.1884169326
 11
4.4059067776
 21
5.1826877673
  0
LINE
  5
3C0
100
AcDbEntity
  8
03__ASM_ALL_CURVES
100
AcDbLine
 62
40
  6
CONTINUOUS
 10
5.4139536523
 20
5.1884169326
 11
5.4354380273
 21
5.1196669326
  0
LINE
  5
3C1
100
AcDbEntity
  8
03__ASM_ALL_CURVES
100
AcDbLine
 62
40
  6
CONTINUOUS
 10
5.8402329261
 20
3.4031054331
 11
5.8402329261
 21
3.3945116829
  0
LINE
  5
3C2
100
AcDbEntity
  8
03__ASM_ALL_CURVES
100
AcDbLine
 62
40
  6
CONTINUOUS
 10
5.8436411523
 20
5.1425835999
 11
5.8436411523
 21
5.1311252663
  0
LINE
  5
3C3
100
AcDbEntity
  8
03__ASM_ALL_CURVES
100
AcDbLine
 62
40
  6
CONTINUOUS
 10
5.8660141761
 20
3.4288866816
 11
5.8660141761
 21
3.4245898076
  0
LINE
  5
3C4
100
AcDbEntity
  8
03__ASM_ALL_CURVES
100
AcDbLine
 62
40
  6
CONTINUOUS
 10
5.8676255398
 20
3.4649804326
 11
5.8676255398
 21
3.5165429326
  0
LINE
  5
3C5
100
AcDbEntity
  8
0
100
AcDbLine
 62
7
  6
CONTINUOUS
 10
5.8735161526
 20
4.0468177974
 11
5.8735161526
 21
4.0558867834
  0
LINE
  5
3C6
100
AcDbEntity
  8
0
100
AcDbLine
 62
7
  6
CONTINUOUS
 10
5.8735161526
 20
4.1972491792
 11
5.8735161526
 21
4.3358870658
  0
LINE
  5
3C7
100
AcDbEntity
  8
0
100
AcDbLine
 62
7
  6
CONTINUOUS
 10
5.8735161526
 20
4.4771989075
 11
5.8735161526
 21
4.4862985881
  0
LINE
  5
3C8
100
AcDbEntity
  8
03__ASM_ALL_CURVES
100
AcDbLine
 62
40
  6
CONTINUOUS
 10
5.8780161523
 20
5.1884169326
 11
5.8780161523
 21
5.1196669326
  0
LINE
  5
3C9
100
AcDbEntity
  8
0
100
AcDbLine
 62
7
  6
CONTINUOUS
 10
5.8805161526
 20
4.4878441443
 11
5.8805161526
 21
4.4749650979
  0
LINE
  5
3CA
100
AcDbEntity
  8
0
100
AcDbLine
 62
7
  6
CONTINUOUS
 10
5.8805161526
 20
4.0451797532
 11
5.8805161526
 21
4.0581207172
  0
LINE
  5
3CB
100
AcDbEntity
  8
0
100
AcDbLine
 62
7
  6
CONTINUOUS
 10
5.8805161526
 20
4.1940397702
 11
5.8805161526
 21
4.3389739516
  0
LINE
  5
3CC
100
AcDbEntity
  8
0
100
AcDbLine
 62
7
  6
CONTINUOUS
 10
5.8905161526
 20
4.4894462693
 11
5.8905161526
 21
4.4718860752
  0
LINE
  5
3CD
100
AcDbEntity
  8
0
100
AcDbLine
 62
7
  6
CONTINUOUS
 10
5.8905161526
 20
4.0436653152
 11
5.8905161526
 21
4.0611996805
  0
LINE
  5
3CE
100
AcDbEntity
  8
0
100
AcDbLine
 62
7
  6
CONTINUOUS
 10
5.8905161526
 20
4.1910894514
 11
5.8905161526
 21
4.342024574
  0
LINE
  5
3CF
100
AcDbEntity
  8
03__ASM_ALL_CURVES
100
AcDbLine
 62
40
  6
CONTINUOUS
 10
5.8917954261
 20
3.4031054331
 11
5.8917954261
 21
3.3945116829
  0
LINE
  5
3D0
100
AcDbEntity
  8
03__ASM_ALL_CURVES
100
AcDbLine
 62
40
  6
CONTINUOUS
 10
5.8934067898
 20
3.5079491816
 11
5.8934067898
 21
3.4993554336
  0
LINE
  5
3D1
100
AcDbEntity
  8
0
100
AcDbLine
 62
7
  6
CONTINUOUS
 10
5.8975161526
 20
4.0430725969
 11
5.8975161526
 21
4.0619210579
  0
LINE
  5
3D2
100
AcDbEntity
  8
0
100
AcDbLine
 62
7
  6
CONTINUOUS
 10
5.8975161526
 20
4.1895271321
 11
5.8975161526
 21
4.3434777441
  0
LINE
  5
3D3
100
AcDbEntity
  8
0
100
AcDbLine
 62
7
  6
CONTINUOUS
 10
5.8975161526
 20
4.4711647404
 11
5.8975161526
 21
4.4899853247
  0
LINE
  5
3D4
100
AcDbEntity
  8
03__ASM_ALL_CURVES
100
AcDbLine
 62
40
  6
CONTINUOUS
 10
5.9123911523
 20
5.1884169326
 11
5.9123911523
 21
5.1196669326
  0
LINE
  5
3D5
100
AcDbEntity
  8
03__ASM_ALL_CURVES
100
AcDbLine
 62
40
  6
CONTINUOUS
 10
5.9320786648
 20
3.5165429326
 11
5.9320786648
 21
3.4649804326
  0
LINE
  5
3D6
100
AcDbEntity
  8
0
100
AcDbLine
 62
7
  6
CONTINUOUS
 10
5.9635161526
 20
4.211715113
 11
5.9635161526
 21
4.3214435166
  0
LINE
  5
3D7
100
AcDbEntity
  8
03__ASM_ALL_CURVES
100
AcDbLine
 62
40
  6
CONTINUOUS
 10
5.9691391761
 20
3.3859179326
 11
5.9691391761
 21
3.4374804326
  0
LINE
  5
3D8
100
AcDbEntity
  8
0
100
AcDbLine
 62
7
  6
CONTINUOUS
 10
5.9705161526
 20
4.2194412181
 11
5.9705161526
 21
4.313574374
  0
LINE
  5
3D9
100
AcDbEntity
  8
03__ASM_ALL_CURVES
100
AcDbLine
 62
40
  6
CONTINUOUS
 10
6.1916880273
 20
5.1540419326
 11
6.1873911523
 21
5.1368544326
  0
LINE
  5
3DA
100
AcDbEntity
  8
03__ASM_ALL_CURVES
100
AcDbLine
 62
40
  6
CONTINUOUS
 10
4.5591489624
 20
3.4159960566
 11
4.5527036499
 21
3.4116991826
  0
LINE
  5
3DB
100
AcDbEntity
  8
03__ASM_ALL_CURVES
100
AcDbLine
 62
40
  6
CONTINUOUS
 10
4.7154477936
 20
3.4950585566
 11
4.7090024811
 21
3.4907616826
  0
LINE
  5
3DC
100
AcDbEntity
  8
03__ASM_ALL_CURVES
100
AcDbLine
 62
40
  6
CONTINUOUS
 10
4.7476743561
 20
3.5122460586
 11
4.7541196686
 21
3.5165429326
  0
LINE
  5
3DD
100
AcDbEntity
  8
03__ASM_ALL_CURVES
100
AcDbLine
 62
40
  6
CONTINUOUS
 10
4.6429380249
 20
3.4331835586
 11
4.6493833374
 21
3.4374804326
  0
LINE
  5
3DE
100
AcDbEntity
  8
03__ASM_ALL_CURVES
100
AcDbLine
 62
40
  6
CONTINUOUS
 10
4.7670102936
 20
3.4692773077
 11
4.7605649811
 21
3.4649804326
  0
LINE
  5
3DF
100
AcDbEntity
  8
03__ASM_ALL_CURVES
100
AcDbLine
 62
40
  6
CONTINUOUS
 10
4.8185727936
 20
3.4950585566
 11
4.8121274811
 21
3.4907616826
  0
LINE
  5
3E0
100
AcDbEntity
  8
03__ASM_ALL_CURVES
100
AcDbLine
 62
40
  6
CONTINUOUS
 10
4.6622739624
 20
3.3902148077
 11
4.6558286499
 21
3.3859179326
  0
LINE
  5
3E1
100
AcDbEntity
  8
03__ASM_ALL_CURVES
100
AcDbLine
 62
40
  6
CONTINUOUS
 10
4.7138364624
 20
3.4159960566
 11
4.7073911499
 21
3.4116991826
  0
LINE
  5
3E2
100
AcDbEntity
  8
03__ASM_ALL_CURVES
100
AcDbLine
 62
40
  6
CONTINUOUS
 10
4.9023618561
 20
3.5122460586
 11
4.9088071686
 21
3.5165429326
  0
LINE
  5
3E3
100
AcDbEntity
  8
03__ASM_ALL_CURVES
100
AcDbLine
 62
40
  6
CONTINUOUS
 10
4.9216977936
 20
3.4993554336
 11
4.9152524811
 21
3.4950585566
  0
LINE
  5
3E4
100
AcDbEntity
  8
THREAD
100
AcDbLine
 62
7
  6
CONTINUOUS
 10
5.0961046099
 20
3.7520429326
 11
5.0805161526
 21
3.7430429326
  0
LINE
  5
3E5
100
AcDbEntity
  8
03__ASM_ALL_CURVES
100
AcDbLine
 62
40
  6
CONTINUOUS
 10
6.8305161528
 20
4.3318554326
 11
6.8466294341
 21
4.3318554326
  0
LINE
  5
3E6
100
AcDbEntity
  8
03__ASM_ALL_CURVES
100
AcDbLine
 62
40
  6
CONTINUOUS
 10
6.8917466216
 20
4.3318554326
 11
6.8981919341
 21
4.3318554326
  0
LINE
  5
3E7
100
AcDbEntity
  8
03__ASM_ALL_CURVES
100
AcDbLine
 62
40
  6
CONTINUOUS
 10
6.9336411528
 20
4.3318554326
 11
6.9497544341
 21
4.3318554326
  0
LINE
  5
3E8
100
AcDbEntity
  8
03__ASM_ALL_CURVES
100
AcDbLine
 62
40
  6
CONTINUOUS
 10
6.9819809966
 20
4.3318554326
 11
7.0142075591
 21
4.3318554326
  0
LINE
  5
3E9
100
AcDbEntity
  8
THREAD
100
AcDbLine
 62
7
  6
CONTINUOUS
 10
5.0961046099
 20
4.7810429326
 11
5.0805161526
 21
4.7900429326
  0
LINE
  5
3EA
100
AcDbEntity
  8
03__ASM_ALL_CURVES
100
AcDbLine
 62
40
  6
CONTINUOUS
 10
4.6680161526
 20
5.1196669326
 11
4.6594224026
 21
5.1253960994
  0
LINE
  5
3EB
100
AcDbEntity
  8
03__ASM_ALL_CURVES
100
AcDbLine
 62
40
  6
CONTINUOUS
 10
4.6680161526
 20
5.1884169326
 11
4.6766099026
 21
5.1826877673
  0
LINE
  5
3EC
100
AcDbEntity
  8
THREAD
100
AcDbLine
 62
7
  6
CONTINUOUS
 10
5.6055161526
 20
4.7185429326
 11
5.5615161526
 21
4.7625429326
  0
LINE
  5
3ED
100
AcDbEntity
  8
03__ASM_ALL_CURVES
100
AcDbLine
 62
40
  6
CONTINUOUS
 10
5.2635630273
 20
5.1253960994
 11
5.2549692773
 21
5.1368544326
  0
LINE
  5
3EE
100
AcDbEntity
  8
03__ASM_ALL_CURVES
100
AcDbLine
 62
40
  6
CONTINUOUS
 10
5.3323130273
 20
5.1253960994
 11
5.3237192773
 21
5.1368544326
  0
LINE
  5
3EF
100
AcDbEntity
  8
03__ASM_ALL_CURVES
100
AcDbLine
 62
40
  6
CONTINUOUS
 10
5.2893442773
 20
5.1826877673
 11
5.2979380273
 21
5.1712294326
  0
LINE
  5
3F0
100
AcDbEntity
  8
03__ASM_ALL_CURVES
100
AcDbLine
 62
40
  6
CONTINUOUS
 10
6.0690415198
 20
3.3988085576
 11
6.0658188636
 21
3.4116991826
  0
LINE
  5
3F1
100
AcDbEntity
  8
03__ASM_ALL_CURVES
100
AcDbLine
 62
40
  6
CONTINUOUS
 10
5.6674692773
 20
5.1368544326
 11
5.6631724023
 21
5.1540419326
  0
LINE
  5
3F2
100
AcDbEntity
  8
03__ASM_ALL_CURVES
100
AcDbLine
 62
40
  6
CONTINUOUS
 10
6.1012680823
 20
3.4245898076
 11
6.1044907386
 21
3.4116991826
  0
LINE
  5
3F3
100
AcDbEntity
  8
03__ASM_ALL_CURVES
100
AcDbLine
 62
40
  6
CONTINUOUS
 10
6.1173813636
 20
3.4374804326
 11
6.1270493323
 21
3.3859179326
  0
LINE
  5
3F4
100
AcDbEntity
  8
0
100
AcDbLine
 62
7
  6
CONTINUOUS
 10
5.9805161526
 20
4.2371468137
 11
5.9805161526
 21
4.2960458193
  0
LINE
  5
3F5
100
AcDbEntity
  8
03__ASM_ALL_CURVES
100
AcDbLine
 62
40
  6
CONTINUOUS
 10
5.9965317898
 20
3.5079491816
 11
5.9965317898
 21
3.4993554336
  0
LINE
  5
3F6
100
AcDbEntity
  8
03__ASM_ALL_CURVES
100
AcDbLine
 62
40
  6
CONTINUOUS
 10
6.0155161523
 20
5.1311252663
 11
6.0155161523
 21
5.1884169326
  0
LINE
  5
3F7
100
AcDbEntity
  8
03__ASM_ALL_CURVES
100
AcDbLine
 62
40
  6
CONTINUOUS
 10
6.0207016761
 20
3.4374804326
 11
6.0207016761
 21
3.3859179326
  0
LINE
  5
3F8
100
AcDbEntity
  8
03__ASM_ALL_CURVES
100
AcDbLine
 62
40
  6
CONTINUOUS
 10
6.0498911523
 20
5.1884169326
 11
6.0498911523
 21
5.1311252663
  0
LINE
  5
3F9
100
AcDbEntity
  8
03__ASM_ALL_CURVES
100
AcDbLine
 62
40
  6
CONTINUOUS
 10
6.0842661523
 20
5.1884169326
 11
6.0842661523
 21
5.1196669326
  0
LINE
  5
3FA
100
AcDbEntity
  8
03__ASM_ALL_CURVES
100
AcDbLine
 62
40
  6
CONTINUOUS
 10
5.8096177273
 20
3.4907616826
 11
5.8128403835
 21
3.5036523076
  0
LINE
  5
3FB
100
AcDbEntity
  8
03__ASM_ALL_CURVES
100
AcDbLine
 62
40
  6
CONTINUOUS
 10
5.8482896023
 20
3.4907616826
 11
5.845066946
 21
3.4778710576
  0
LINE
  5
3FC
100
AcDbEntity
  8
03__ASM_ALL_CURVES
100
AcDbLine
 62
40
  6
CONTINUOUS
 10
5.7596665198
 20
3.3859179326
 11
5.7757798011
 21
3.4374804326
  0
LINE
  5
3FD
100
AcDbEntity
  8
03__ASM_ALL_CURVES
100
AcDbLine
 62
40
  6
CONTINUOUS
 10
5.6726548011
 20
3.4116991826
 11
5.6855454261
 21
3.4374804326
  0
LINE
  5
3FE
100
AcDbEntity
  8
THREAD
100
AcDbLine
 62
7
  6
CONTINUOUS
 10
5.6055161526
 20
3.8145429326
 11
5.5615161526
 21
3.7705429326
  0
LINE
  5
3FF
100
AcDbEntity
  8
0
100
AcDbLine
 62
7
  6
CONTINUOUS
 10
5.7055161526
 20
3.8305429326
 11
5.6895161526
 21
3.8145429326
  0
LINE
  5
400
100
AcDbEntity
  8
03__ASM_ALL_CURVES
100
AcDbLine
 62
40
  6
CONTINUOUS
 10
4.9216977936
 20
3.4692773077
 11
4.9152524811
 21
3.4649804326
  0
LINE
  5
401
100
AcDbEntity
  8
03__ASM_ALL_CURVES
100
AcDbLine
 62
40
  6
CONTINUOUS
 10
5.0554380249
 20
3.4331835586
 11
5.0618833374
 21
3.4374804326
  0
LINE
  5
402
100
AcDbEntity
  8
0
100
AcDbLine
 62
7
  6
CONTINUOUS
 10
4.2130905268
 20
4.5590635515
 11
3.7511268239
 21
4.5590635515
  0
LINE
  5
403
100
AcDbEntity
  8
0
100
AcDbLine
 62
7
  6
CONTINUOUS
 10
4.2130905268
 20
4.6074076231
 11
3.7511268239
 21
4.6074076231
  0
LINE
  5
404
100
AcDbEntity
  8
0
100
AcDbLine
 62
7
  6
CONTINUOUS
 10
5.7055161526
 20
4.7025429326
 11
5.6895161526
 21
4.7185429326
  0
LINE
  5
405
100
AcDbEntity
  8
03__ASM_ALL_CURVES
100
AcDbLine
 62
40
  6
CONTINUOUS
 10
5.3580942773
 20
5.1826877673
 11
5.3623911523
 21
5.1769585979
  0
LINE
  5
406
100
AcDbEntity
  8
03__ASM_ALL_CURVES
100
AcDbLine
 62
40
  6
CONTINUOUS
 10
5.6030161523
 20
5.1884169326
 11
5.6373911523
 21
5.1196669326
  0
LINE
  5
407
100
AcDbEntity
  8
03__ASM_ALL_CURVES
100
AcDbLine
 62
40
  6
CONTINUOUS
 10
6.1367173011
 20
3.4374804326
 11
6.1463852698
 21
3.3859179326
  0
LINE
  5
408
100
AcDbEntity
  8
0
100
AcDbLine
 62
7
  6
CONTINUOUS
 10
6.1345161526
 20
4.7030429326
 11
6.1345161526
 21
3.8300429326
  0
LINE
  5
409
100
AcDbEntity
  8
03__ASM_ALL_CURVES
100
AcDbLine
 62
40
  6
CONTINUOUS
 10
6.1530161523
 20
5.1196669326
 11
6.1530161523
 21
5.1884169326
  0
LINE
  5
40A
100
AcDbEntity
  8
0
100
AcDbLine
 62
7
  6
CONTINUOUS
 10
6.2005161526
 20
4.7030429326
 11
6.2005161526
 21
3.8300429326
  0
LINE
  5
40B
100
AcDbEntity
  8
03__ASM_ALL_CURVES
100
AcDbLine
 62
40
  6
CONTINUOUS
 10
6.2217661523
 20
5.1196669326
 11
6.2217661523
 21
5.1884169326
  0
LINE
  5
40C
100
AcDbEntity
  8
0
100
AcDbLine
 62
7
  6
CONTINUOUS
 10
6.2505161526
 20
3.8305435955
 11
6.2505161526
 21
4.7025422697
  0
LINE
  5
40D
100
AcDbEntity
  8
03__ASM_ALL_CURVES
100
AcDbLine
 62
40
  6
CONTINUOUS
 10
5.973973196
 20
3.4778710576
 11
5.9707505398
 21
3.4649804326
  0
LINE
  5
40E
100
AcDbEntity
  8
03__ASM_ALL_CURVES
100
AcDbLine
 62
40
  6
CONTINUOUS
 10
6.0658188636
 20
3.4116991826
 11
6.0690415198
 21
3.4245898076
  0
LINE
  5
40F
100
AcDbEntity
  8
03__ASM_ALL_CURVES
100
AcDbLine
 62
40
  6
CONTINUOUS
 10
5.6275376136
 20
3.4159960566
 11
5.6307602698
 21
3.4202929336
  0
LINE
  5
410
100
AcDbEntity
  8
03__ASM_ALL_CURVES
100
AcDbLine
 62
40
  6
CONTINUOUS
 10
5.6275376136
 20
3.3859179326
 11
5.6339829261
 21
3.3945116829
  0
LINE
  5
411
100
AcDbEntity
  8
03__ASM_ALL_CURVES
100
AcDbLine
 62
40
  6
CONTINUOUS
 10
5.7902817898
 20
3.4993554336
 11
5.7870591335
 21
3.4950585566
  0
LINE
  5
412
100
AcDbEntity
  8
03__ASM_ALL_CURVES
100
AcDbLine
 62
40
  6
CONTINUOUS
 10
5.7371079261
 20
3.4202929336
 11
5.7338852698
 21
3.4159960566
  0
LINE
  5
413
100
AcDbEntity
  8
03__ASM_ALL_CURVES
100
AcDbLine
 62
40
  6
CONTINUOUS
 10
5.0747739624
 20
3.3902148077
 11
5.0683286499
 21
3.3859179326
  0
LINE
  5
414
100
AcDbEntity
  8
0
100
AcDbLine
 62
7
  6
CONTINUOUS
 10
6.1345161526
 20
4.6405429326
 11
5.9865161526
 21
4.6405429326
  0
LINE
  5
415
100
AcDbEntity
  8
0
100
AcDbLine
 62
7
  6
CONTINUOUS
 10
5.8305161526
 20
4.6405429326
 11
5.7055161526
 21
4.6405429326
  0
LINE
  5
416
100
AcDbEntity
  8
0
100
AcDbLine
 62
7
  6
CONTINUOUS
 10
6.3985161526
 20
4.6485429326
 11
6.3705161526
 21
4.6485429326
  0
LINE
  5
417
100
AcDbEntity
  8
0
100
AcDbLine
 62
7
  6
CONTINUOUS
 10
6.2005161526
 20
4.7025429326
 11
6.2505161526
 21
4.7025429326
  0
LINE
  5
418
100
AcDbEntity
  8
0
100
AcDbLine
 62
7
  6
CONTINUOUS
 10
6.3205161526
 20
4.7025429326
 11
6.3705161526
 21
4.7025429326
  0
LINE
  5
419
100
AcDbEntity
  8
0
100
AcDbLine
 62
7
  6
CONTINUOUS
 10
6.1345161526
 20
4.7030429326
 11
6.2005161526
 21
4.7030429326
  0
LINE
  5
41A
100
AcDbEntity
  8
0
100
AcDbLine
 62
7
  6
CONTINUOUS
 10
6.3985161526
 20
4.7030429326
 11
6.4395161526
 21
4.7030429326
  0
LINE
  5
41B
100
AcDbEntity
  8
THREAD
100
AcDbLine
 62
7
  6
CONTINUOUS
 10
5.6895161526
 20
4.7185429326
 11
5.6055161526
 21
4.7185429326
  0
LINE
  5
41C
100
AcDbEntity
  8
THREAD
100
AcDbLine
 62
7
  6
CONTINUOUS
 10
5.2612992743
 20
4.7245429326
 11
5.2475161526
 21
4.7245429326
  0
LINE
  5
41D
100
AcDbEntity
  8
0
100
AcDbLine
 62
7
  6
CONTINUOUS
 10
4.9940802173
 20
4.7245429326
 11
4.9710161526
 21
4.7245429326
  0
LINE
  5
41E
100
AcDbEntity
  8
0
100
AcDbLine
 62
7
  6
CONTINUOUS
 10
4.7520161526
 20
4.7245429326
 11
4.6628851007
 21
4.7245429326
  0
LINE
  5
41F
100
AcDbEntity
  8
0
100
AcDbLine
 62
7
  6
CONTINUOUS
 10
4.5965161526
 20
4.7490429326
 11
4.5755161526
 21
4.7490429326
  0
LINE
  5
420
100
AcDbEntity
  8
THREAD
100
AcDbLine
 62
7
  6
CONTINUOUS
 10
5.5615161526
 20
4.7625429326
 11
5.2904554629
 21
4.7625429326
  0
LINE
  5
421
100
AcDbEntity
  8
03__ASM_ALL_CURVES
100
AcDbLine
 62
40
  6
CONTINUOUS
 10
3.7880161526
 20
5.0784169326
 11
3.7055161526
 21
5.0921669326
  0
LINE
  5
422
100
AcDbEntity
  8
03__ASM_ALL_CURVES
100
AcDbLine
 62
40
  6
CONTINUOUS
 10
4.6680161526
 20
5.1483127652
 11
4.6551255276
 21
5.1540419326
  0
LINE
  5
423
100
AcDbEntity
  8
03__ASM_ALL_CURVES
100
AcDbLine
 62
40
  6
CONTINUOUS
 10
5.2721567773
 20
5.1196669326
 11
5.2635630273
 21
5.1253960994
  0
LINE
  5
424
100
AcDbEntity
  8
03__ASM_ALL_CURVES
100
AcDbLine
 62
40
  6
CONTINUOUS
 10
5.3409067773
 20
5.1196669326
 11
5.3323130273
 21
5.1253960994
  0
LINE
  5
425
100
AcDbEntity
  8
03__ASM_ALL_CURVES
100
AcDbLine
 62
40
  6
CONTINUOUS
 10
5.2807505273
 20
5.1884169326
 11
5.2893442773
 21
5.1826877673
  0
LINE
  5
426
100
AcDbEntity
  8
03__ASM_ALL_CURVES
100
AcDbLine
 62
40
  6
CONTINUOUS
 10
5.6760630273
 20
5.1253960994
 11
5.6674692773
 21
5.1368544326
  0
LINE
  5
427
100
AcDbEntity
  8
03__ASM_ALL_CURVES
100
AcDbLine
 62
40
  6
CONTINUOUS
 10
5.7018442773
 20
5.1826877673
 11
5.7061411523
 21
5.1769585979
  0
LINE
  5
428
100
AcDbEntity
  8
03__ASM_ALL_CURVES
100
AcDbLine
 62
40
  6
CONTINUOUS
 10
5.9424692773
 20
5.1368544326
 11
5.9381724023
 21
5.1540419326
  0
LINE
  5
429
100
AcDbEntity
  8
03__ASM_ALL_CURVES
100
AcDbLine
 62
40
  6
CONTINUOUS
 10
5.9854380273
 20
5.1712294326
 11
5.9897349023
 21
5.1540419326
  0
LINE
  5
42A
100
AcDbEntity
  8
03__ASM_ALL_CURVES
100
AcDbLine
 62
40
  6
CONTINUOUS
 10
6.2905161523
 20
5.1196669326
 11
6.2905161523
 21
5.1884169326
  0
LINE
  5
42B
100
AcDbEntity
  8
0
100
AcDbLine
 62
7
  6
CONTINUOUS
 10
6.3205161526
 20
3.8305435955
 11
6.3205161526
 21
4.7025422697
  0
LINE
  5
42C
100
AcDbEntity
  8
03__ASM_ALL_CURVES
100
AcDbLine
 62
40
  6
CONTINUOUS
 10
6.3248911523
 20
5.1769585979
 11
6.3248911523
 21
5.1655002673
  0
LINE
  5
42D
100
AcDbEntity
  8
0
100
AcDbLine
 62
7
  6
CONTINUOUS
 10
6.3705161526
 20
3.8305435955
 11
6.3705161526
 21
4.7025422697
  0
LINE
  5
42E
100
AcDbEntity
  8
0
100
AcDbLine
 62
7
  6
CONTINUOUS
 10
6.3985161526
 20
3.830050562
 11
6.3985161526
 21
4.7030353032
  0
LINE
  5
42F
100
AcDbEntity
  8
03__ASM_ALL_CURVES
100
AcDbLine
 62
40
  6
CONTINUOUS
 10
6.1270493323
 20
3.3859179326
 11
6.1367173011
 21
3.4374804326
  0
LINE
  5
430
100
AcDbEntity
  8
03__ASM_ALL_CURVES
100
AcDbLine
 62
40
  6
CONTINUOUS
 10
6.1463852698
 20
3.3859179326
 11
6.1560532386
 21
3.4374804326
  0
LINE
  5
431
100
AcDbEntity
  8
03__ASM_ALL_CURVES
100
AcDbLine
 62
40
  6
CONTINUOUS
 10
6.1044907386
 20
3.4116991826
 11
6.1012680823
 21
3.3988085576
  0
LINE
  5
432
100
AcDbEntity
  8
03__ASM_ALL_CURVES
100
AcDbLine
 62
40
  6
CONTINUOUS
 10
5.8128403835
 20
3.5036523076
 11
5.819285696
 21
3.5122460586
  0
LINE
  5
433
100
AcDbEntity
  8
03__ASM_ALL_CURVES
100
AcDbLine
 62
40
  6
CONTINUOUS
 10
5.845066946
 20
3.4778710576
 11
5.8386216335
 21
3.4692773077
  0
LINE
  5
434
100
AcDbEntity
  8
03__ASM_ALL_CURVES
100
AcDbLine
 62
40
  6
CONTINUOUS
 10
5.8176743323
 20
3.4331835586
 11
5.8144516761
 21
3.4288866816
  0
LINE
  5
435
100
AcDbEntity
  8
03__ASM_ALL_CURVES
100
AcDbLine
 62
40
  6
CONTINUOUS
 10
5.8934067898
 20
3.4993554336
 11
5.8901841335
 21
3.4950585566
  0
LINE
  5
436
100
AcDbEntity
  8
03__ASM_ALL_CURVES
100
AcDbLine
 62
40
  6
CONTINUOUS
 10
5.8692368323
 20
3.4331835586
 11
5.8660141761
 21
3.4288866816
  0
LINE
  5
437
100
AcDbEntity
  8
03__ASM_ALL_CURVES
100
AcDbLine
 62
40
  6
CONTINUOUS
 10
5.8402329261
 20
3.3945116829
 11
5.8370102698
 21
3.3902148077
  0
LINE
  5
438
100
AcDbEntity
  8
03__ASM_ALL_CURVES
100
AcDbLine
 62
40
  6
CONTINUOUS
 10
5.9707505398
 20
3.5079491816
 11
5.973973196
 21
3.5122460586
  0
LINE
  5
439
100
AcDbEntity
  8
03__ASM_ALL_CURVES
100
AcDbLine
 62
40
  6
CONTINUOUS
 10
5.8917954261
 20
3.3945116829
 11
5.8885727698
 21
3.3902148077
  0
LINE
  5
43A
100
AcDbEntity
  8
03__ASM_ALL_CURVES
100
AcDbLine
 62
40
  6
CONTINUOUS
 10
5.9804185085
 20
3.4864648071
 11
5.973973196
 21
3.4778710576
  0
LINE
  5
43B
100
AcDbEntity
  8
03__ASM_ALL_CURVES
100
AcDbLine
 62
40
  6
CONTINUOUS
 10
6.8530747466
 20
4.3103710566
 11
6.8466294341
 21
4.3060741826
  0
LINE
  5
43C
100
AcDbEntity
  8
03__ASM_ALL_CURVES
100
AcDbLine
 62
40
  6
CONTINUOUS
 10
6.8853013091
 20
4.3275585586
 11
6.8917466216
 21
4.3318554326
  0
LINE
  5
43D
100
AcDbEntity
  8
03__ASM_ALL_CURVES
100
AcDbLine
 62
40
  6
CONTINUOUS
 10
6.8401841215
 20
4.2484960586
 11
6.846629434
 21
4.2527929326
  0
LINE
  5
43E
100
AcDbEntity
  8
03__ASM_ALL_CURVES
100
AcDbLine
 62
40
  6
CONTINUOUS
 10
6.9046372466
 20
4.2845898077
 11
6.8981919341
 21
4.2802929326
  0
LINE
  5
43F
100
AcDbEntity
  8
03__ASM_ALL_CURVES
100
AcDbLine
 62
40
  6
CONTINUOUS
 10
6.9561997466
 20
4.3103710566
 11
6.9497544341
 21
4.3060741826
  0
LINE
  5
440
100
AcDbEntity
  8
0
100
AcDbLine
 62
7
  6
CONTINUOUS
 10
5.1975161526
 20
4.7785429326
 11
5.2475161526
 21
4.7785429326
  0
LINE
  5
441
100
AcDbEntity
  8
THREAD
100
AcDbLine
 62
7
  6
CONTINUOUS
 10
5.1275161526
 20
4.7810429326
 11
5.0961046099
 21
4.7810429326
  0
LINE
  5
442
100
AcDbEntity
  8
0
100
AcDbLine
 62
7
  6
CONTINUOUS
 10
4.4555161526
 20
4.8030429326
 11
4.5055161526
 21
4.8030429326
  0
LINE
  5
443
100
AcDbEntity
  8
0
100
AcDbLine
 62
7
  6
CONTINUOUS
 10
4.6415161526
 20
4.8042929326
 11
4.5965161526
 21
4.8042929326
  0
LINE
  5
444
100
AcDbEntity
  8
0
100
AcDbLine
 62
7
  6
CONTINUOUS
 10
5.0805161526
 20
4.8045429326
 11
5.0155161526
 21
4.8045429326
  0
LINE
  5
445
100
AcDbEntity
  8
0
100
AcDbLine
 62
7
  6
CONTINUOUS
 10
4.4555161526
 20
4.8045429326
 11
4.2685161526
 21
4.8045429326
  0
LINE
  5
446
100
AcDbEntity
  8
0
100
AcDbLine
 62
7
  6
CONTINUOUS
 10
4.2130905268
 20
4.8999282421
 11
3.7511268239
 21
4.8999282421
  0
LINE
  5
447
100
AcDbEntity
  8
0
100
AcDbLine
 62
7
  6
CONTINUOUS
 10
4.2130905268
 20
4.9005429326
 11
3.7511268239
 21
4.9005429326
  0
LINE
  5
448
100
AcDbEntity
  8
03__ASM_ALL_CURVES
100
AcDbLine
 62
40
  6
CONTINUOUS
 10
3.7880161526
 20
5.0852919326
 11
3.7055161526
 21
5.0921669326
  0
LINE
  5
449
100
AcDbEntity
  8
03__ASM_ALL_CURVES
100
AcDbLine
 62
40
  6
CONTINUOUS
 10
3.7880161526
 20
5.0830002659
 11
3.7055161526
 21
5.0921669326
  0
LINE
  5
44A
100
AcDbEntity
  8
03__ASM_ALL_CURVES
100
AcDbLine
 62
40
  6
CONTINUOUS
 10
3.7880161526
 20
5.0807085993
 11
3.7055161526
 21
5.0921669326
  0
LINE
  5
44B
100
AcDbEntity
  8
03__ASM_ALL_CURVES
100
AcDbLine
 62
40
  6
CONTINUOUS
 10
5.3495005273
 20
5.1884169326
 11
5.3580942773
 21
5.1826877673
  0
LINE
  5
44C
100
AcDbEntity
  8
03__ASM_ALL_CURVES
100
AcDbLine
 62
40
  6
CONTINUOUS
 10
6.846629434
 20
4.2012304326
 11
6.8401841215
 21
4.2055273077
  0
LINE
  5
44D
100
AcDbEntity
  8
03__ASM_ALL_CURVES
100
AcDbLine
 62
40
  6
CONTINUOUS
 10
6.898191934
 20
4.2012304326
 11
6.8917466215
 21
4.2055273077
  0
LINE
  5
44E
100
AcDbEntity
  8
03__ASM_ALL_CURVES
100
AcDbLine
 62
40
  6
CONTINUOUS
 10
6.8530747465
 20
4.2527929326
 11
6.859520059
 21
4.2484960586
  0
LINE
  5
44F
100
AcDbEntity
  8
03__ASM_ALL_CURVES
100
AcDbLine
 62
40
  6
CONTINUOUS
 10
6.9046372465
 20
4.2527929326
 11
6.911082559
 21
4.2484960586
  0
LINE
  5
450
100
AcDbEntity
  8
03__ASM_ALL_CURVES
100
AcDbLine
 62
40
  6
CONTINUOUS
 10
6.8917466216
 20
4.2802929326
 11
6.8853013091
 21
4.2845898077
  0
LINE
  5
451
100
AcDbEntity
  8
03__ASM_ALL_CURVES
100
AcDbLine
 62
40
  6
CONTINUOUS
 10
6.8466294341
 20
4.3318554326
 11
6.8530747466
 21
4.3275585586
  0
LINE
  5
452
100
AcDbEntity
  8
03__ASM_ALL_CURVES
100
AcDbLine
 62
40
  6
CONTINUOUS
 10
5.6846567773
 20
5.1196669326
 11
5.6760630273
 21
5.1253960994
  0
LINE
  5
453
100
AcDbEntity
  8
03__ASM_ALL_CURVES
100
AcDbLine
 62
40
  6
CONTINUOUS
 10
5.8135630273
 20
5.1253960994
 11
5.8049692773
 21
5.1368544326
  0
LINE
  5
454
100
AcDbEntity
  8
03__ASM_ALL_CURVES
100
AcDbLine
 62
40
  6
CONTINUOUS
 10
5.8092661523
 20
5.1712294326
 11
5.8135630273
 21
5.1655002673
  0
LINE
  5
455
100
AcDbEntity
  8
03__ASM_ALL_CURVES
100
AcDbLine
 62
40
  6
CONTINUOUS
 10
5.8393442773
 20
5.1483127652
 11
5.8436411523
 21
5.1425835999
  0
LINE
  5
456
100
AcDbEntity
  8
03__ASM_ALL_CURVES
100
AcDbLine
 62
40
  6
CONTINUOUS
 10
5.8436411523
 20
5.1769585979
 11
5.8393442773
 21
5.1826877673
  0
LINE
  5
457
100
AcDbEntity
  8
03__ASM_ALL_CURVES
100
AcDbLine
 62
40
  6
CONTINUOUS
 10
5.9510630273
 20
5.1253960994
 11
5.9424692773
 21
5.1368544326
  0
LINE
  5
458
100
AcDbEntity
  8
03__ASM_ALL_CURVES
100
AcDbLine
 62
40
  6
CONTINUOUS
 10
6.1873911523
 20
5.1712294326
 11
6.1916880273
 21
5.1540419326
  0
LINE
  5
459
100
AcDbEntity
  8
0
100
AcDbLine
 62
7
  6
CONTINUOUS
 10
6.4395161526
 20
3.8300429326
 11
6.4395161526
 21
4.7030429326
  0
LINE
  5
45A
100
AcDbEntity
  8
0
100
AcDbLine
 62
7
  6
CONTINUOUS
 10
6.4555161526
 20
3.8460429326
 11
6.4555161526
 21
4.6870429326
  0
LINE
  5
45B
100
AcDbEntity
  8
03__ASM_ALL_CURVES
100
AcDbLine
 62
40
  6
CONTINUOUS
 10
5.9965317898
 20
3.4993554336
 11
5.9933091335
 21
3.4950585566
  0
LINE
  5
45C
100
AcDbEntity
  8
03__ASM_ALL_CURVES
100
AcDbLine
 62
40
  6
CONTINUOUS
 10
6.0690415198
 20
3.4245898076
 11
6.0754868323
 21
3.4331835586
  0
LINE
  5
45D
100
AcDbEntity
  8
03__ASM_ALL_CURVES
100
AcDbLine
 62
40
  6
CONTINUOUS
 10
6.1012680823
 20
3.3988085576
 11
6.0948227698
 21
3.3902148077
  0
LINE
  5
45E
100
AcDbEntity
  8
0
100
AcDbLine
 62
7
  6
CONTINUOUS
 10
6.4395161526
 20
3.8300429326
 11
6.4555161526
 21
3.8460429326
  0
LINE
  5
45F
100
AcDbEntity
  8
03__ASM_ALL_CURVES
100
AcDbLine
 62
40
  6
CONTINUOUS
 10
6.8917466215
 20
4.2484960586
 11
6.898191934
 21
4.2527929326
  0
LINE
  5
460
100
AcDbEntity
  8
03__ASM_ALL_CURVES
100
AcDbLine
 62
40
  6
CONTINUOUS
 10
5.7870591335
 20
3.4950585566
 11
5.780613821
 21
3.4907616826
  0
LINE
  5
461
100
AcDbEntity
  8
03__ASM_ALL_CURVES
100
AcDbLine
 62
40
  6
CONTINUOUS
 10
5.819285696
 20
3.5122460586
 11
5.8257310085
 21
3.5165429326
  0
LINE
  5
462
100
AcDbEntity
  8
03__ASM_ALL_CURVES
100
AcDbLine
 62
40
  6
CONTINUOUS
 10
6.859520059
 20
4.2055273077
 11
6.8530747465
 21
4.2012304326
  0
LINE
  5
463
100
AcDbEntity
  8
03__ASM_ALL_CURVES
100
AcDbLine
 62
40
  6
CONTINUOUS
 10
6.911082559
 20
4.2055273077
 11
6.9046372465
 21
4.2012304326
  0
LINE
  5
464
100
AcDbEntity
  8
03__ASM_ALL_CURVES
100
AcDbLine
 62
40
  6
CONTINUOUS
 10
5.7338852698
 20
3.4159960566
 11
5.7274399573
 21
3.4116991826
  0
LINE
  5
465
100
AcDbEntity
  8
03__ASM_ALL_CURVES
100
AcDbLine
 62
40
  6
CONTINUOUS
 10
5.8386216335
 20
3.4692773077
 11
5.832176321
 21
3.4649804326
  0
LINE
  5
466
100
AcDbEntity
  8
03__ASM_ALL_CURVES
100
AcDbLine
 62
40
  6
CONTINUOUS
 10
5.8901841335
 20
3.4950585566
 11
5.883738821
 21
3.4907616826
  0
LINE
  5
467
100
AcDbEntity
  8
03__ASM_ALL_CURVES
100
AcDbLine
 62
40
  6
CONTINUOUS
 10
5.8241196448
 20
3.4374804326
 11
5.8176743323
 21
3.4331835586
  0
LINE
  5
468
100
AcDbEntity
  8
03__ASM_ALL_CURVES
100
AcDbLine
 62
40
  6
CONTINUOUS
 10
5.973973196
 20
3.5122460586
 11
5.9804185085
 21
3.5165429326
  0
LINE
  5
469
100
AcDbEntity
  8
03__ASM_ALL_CURVES
100
AcDbLine
 62
40
  6
CONTINUOUS
 10
7.065770059
 20
4.2313085566
 11
7.0593247465
 21
4.2270116826
  0
LINE
  5
46A
100
AcDbEntity
  8
03__ASM_ALL_CURVES
100
AcDbLine
 62
40
  6
CONTINUOUS
 10
5.8756821448
 20
3.4374804326
 11
5.8692368323
 21
3.4331835586
  0
LINE
  5
46B
100
AcDbEntity
  8
03__ASM_ALL_CURVES
100
AcDbLine
 62
40
  6
CONTINUOUS
 10
7.0979966215
 20
4.2484960586
 11
7.104441934
 21
4.2527929326
  0
LINE
  5
46C
100
AcDbEntity
  8
03__ASM_ALL_CURVES
100
AcDbLine
 62
40
  6
CONTINUOUS
 10
5.9933091335
 20
3.4950585566
 11
5.9804185085
 21
3.4864648071
  0
LINE
  5
46D
100
AcDbEntity
  8
03__ASM_ALL_CURVES
100
AcDbLine
 62
40
  6
CONTINUOUS
 10
5.8370102698
 20
3.3902148077
 11
5.8305649573
 21
3.3859179326
  0
LINE
  5
46E
100
AcDbEntity
  8
03__ASM_ALL_CURVES
100
AcDbLine
 62
40
  6
CONTINUOUS
 10
3.7880161526
 20
5.0898752659
 11
3.7055161526
 21
5.0921669326
  0
LINE
  5
46F
100
AcDbEntity
  8
03__ASM_ALL_CURVES
100
AcDbLine
 62
40
  6
CONTINUOUS
 10
3.7880161526
 20
5.0875835993
 11
3.7055161526
 21
5.0921669326
  0
LINE
  5
470
100
AcDbEntity
  8
03__ASM_ALL_CURVES
100
AcDbLine
 62
40
  6
CONTINUOUS
 10
4.9980161526
 20
5.0967502659
 11
5.1630161526
 21
5.0875835993
  0
LINE
  5
471
100
AcDbEntity
  8
03__ASM_ALL_CURVES
100
AcDbLine
 62
40
  6
CONTINUOUS
 10
4.9980161526
 20
5.0990419326
 11
5.1630161526
 21
5.0852919326
  0
LINE
  5
472
100
AcDbEntity
  8
03__ASM_ALL_CURVES
100
AcDbLine
 62
40
  6
CONTINUOUS
 10
4.9980161526
 20
5.1013335993
 11
5.1630161526
 21
5.0830002659
  0
LINE
  5
473
100
AcDbEntity
  8
03__ASM_ALL_CURVES
100
AcDbLine
 62
40
  6
CONTINUOUS
 10
4.9980161526
 20
5.1036252659
 11
5.1630161526
 21
5.0807085993
  0
LINE
  5
474
100
AcDbEntity
  8
03__ASM_ALL_CURVES
100
AcDbLine
 62
40
  6
CONTINUOUS
 10
5.1630161526
 20
5.0784169326
 11
4.9980161526
 21
5.1059169326
  0
LINE
  5
475
100
AcDbEntity
  8
03__ASM_ALL_CURVES
100
AcDbLine
 62
40
  6
CONTINUOUS
 10
6.8981919341
 20
4.3318554326
 11
6.9046372466
 21
4.3275585586
  0
LINE
  5
476
100
AcDbEntity
  8
03__ASM_ALL_CURVES
100
AcDbLine
 62
40
  6
CONTINUOUS
 10
7.104441934
 20
4.2012304326
 11
7.0979966215
 21
4.2055273077
  0
LINE
  5
477
100
AcDbEntity
  8
03__ASM_ALL_CURVES
100
AcDbLine
 62
40
  6
CONTINUOUS
 10
7.0593247465
 20
4.2527929326
 11
7.065770059
 21
4.2484960586
  0
LINE
  5
478
100
AcDbEntity
  8
03__ASM_ALL_CURVES
100
AcDbLine
 62
40
  6
CONTINUOUS
 10
6.9497544341
 20
4.3318554326
 11
6.9561997466
 21
4.3275585586
  0
LINE
  5
479
100
AcDbEntity
  8
03__ASM_ALL_CURVES
100
AcDbLine
 62
40
  6
CONTINUOUS
 10
5.6932505273
 20
5.1884169326
 11
5.7018442773
 21
5.1826877673
  0
LINE
  5
47A
100
AcDbEntity
  8
03__ASM_ALL_CURVES
100
AcDbLine
 62
40
  6
CONTINUOUS
 10
7.1108872465
 20
4.2527929326
 11
7.117332559
 21
4.2484960586
  0
LINE
  5
47B
100
AcDbEntity
  8
03__ASM_ALL_CURVES
100
AcDbLine
 62
40
  6
CONTINUOUS
 10
5.8221567773
 20
5.1196669326
 11
5.8135630273
 21
5.1253960994
  0
LINE
  5
47C
100
AcDbEntity
  8
03__ASM_ALL_CURVES
100
AcDbLine
 62
40
  6
CONTINUOUS
 10
5.8135630273
 20
5.1655002673
 11
5.8393442773
 21
5.1483127652
  0
LINE
  5
47D
100
AcDbEntity
  8
03__ASM_ALL_CURVES
100
AcDbLine
 62
40
  6
CONTINUOUS
 10
5.8393442773
 20
5.1826877673
 11
5.8307505273
 21
5.1884169326
  0
LINE
  5
47E
100
AcDbEntity
  8
03__ASM_ALL_CURVES
100
AcDbLine
 62
40
  6
CONTINUOUS
 10
5.9596567773
 20
5.1196669326
 11
5.9510630273
 21
5.1253960994
  0
LINE
  5
47F
100
AcDbEntity
  8
0
100
AcDbLine
 62
7
  6
CONTINUOUS
 10
6.4395161526
 20
4.7030429326
 11
6.4555161526
 21
4.6870429326
  0
LINE
  5
480
100
AcDbEntity
  8
03__ASM_ALL_CURVES
100
AcDbLine
 62
40
  6
CONTINUOUS
 10
6.0198130273
 20
5.1253960994
 11
6.0155161523
 21
5.1311252663
  0
LINE
  5
481
100
AcDbEntity
  8
03__ASM_ALL_CURVES
100
AcDbLine
 62
40
  6
CONTINUOUS
 10
5.9768442773
 20
5.1826877673
 11
5.9854380273
 21
5.1712294326
  0
LINE
  5
482
100
AcDbEntity
  8
03__ASM_ALL_CURVES
100
AcDbLine
 62
40
  6
CONTINUOUS
 10
6.8562974028
 20
4.3146679336
 11
6.8530747466
 21
4.3103710566
  0
LINE
  5
483
100
AcDbEntity
  8
03__ASM_ALL_CURVES
100
AcDbLine
 62
40
  6
CONTINUOUS
 10
6.8788559966
 20
4.3189648076
 11
6.8853013091
 21
4.3275585586
  0
LINE
  5
484
100
AcDbEntity
  8
03__ASM_ALL_CURVES
100
AcDbLine
 62
40
  6
CONTINUOUS
 10
6.833738809
 20
4.2399023076
 11
6.8401841215
 21
4.2484960586
  0
LINE
  5
485
100
AcDbEntity
  8
03__ASM_ALL_CURVES
100
AcDbLine
 62
40
  6
CONTINUOUS
 10
6.9110825591
 20
4.2931835576
 11
6.9046372466
 21
4.2845898077
  0
LINE
  5
486
100
AcDbEntity
  8
03__ASM_ALL_CURVES
100
AcDbLine
 62
40
  6
CONTINUOUS
 10
6.8627427152
 20
4.2098241829
 11
6.859520059
 21
4.2055273077
  0
LINE
  5
487
100
AcDbEntity
  8
03__ASM_ALL_CURVES
100
AcDbLine
 62
40
  6
CONTINUOUS
 10
6.885301309
 20
4.2399023076
 11
6.8917466215
 21
4.2484960586
  0
LINE
  5
488
100
AcDbEntity
  8
03__ASM_ALL_CURVES
100
AcDbLine
 62
40
  6
CONTINUOUS
 10
6.9594224028
 20
4.3146679336
 11
6.9561997466
 21
4.3103710566
  0
LINE
  5
489
100
AcDbEntity
  8
03__ASM_ALL_CURVES
100
AcDbLine
 62
40
  6
CONTINUOUS
 10
5.8885727698
 20
3.3902148077
 11
5.8821274573
 21
3.3859179326
  0
LINE
  5
48A
100
AcDbEntity
  8
03__ASM_ALL_CURVES
100
AcDbLine
 62
40
  6
CONTINUOUS
 10
7.117332559
 20
4.2055273077
 11
7.1108872465
 21
4.2012304326
  0
LINE
  5
48B
100
AcDbEntity
  8
03__ASM_ALL_CURVES
100
AcDbLine
 62
40
  6
CONTINUOUS
 10
6.0754868323
 20
3.4331835586
 11
6.0819321448
 21
3.4374804326
  0
LINE
  5
48C
100
AcDbEntity
  8
03__ASM_ALL_CURVES
100
AcDbLine
 62
40
  6
CONTINUOUS
 10
6.0948227698
 20
3.3902148077
 11
6.0883774573
 21
3.3859179326
  0
LINE
  5
48D
100
AcDbEntity
  8
03__ASM_ALL_CURVES
100
AcDbLine
 62
40
  6
CONTINUOUS
 10
7.3203599027
 20
4.2055273077
 11
7.3139145902
 21
4.2012304326
  0
LINE
  5
48E
100
AcDbEntity
  8
03__ASM_ALL_CURVES
100
AcDbLine
 62
40
  6
CONTINUOUS
 10
4.9980161526
 20
5.0784169326
 11
5.1630161526
 21
5.1059169326
  0
LINE
  5
48F
100
AcDbEntity
  8
03__ASM_ALL_CURVES
100
AcDbLine
 62
40
  6
CONTINUOUS
 10
4.9980161526
 20
5.0807085993
 11
5.1630161526
 21
5.1036252659
  0
LINE
  5
490
100
AcDbEntity
  8
03__ASM_ALL_CURVES
100
AcDbLine
 62
40
  6
CONTINUOUS
 10
4.9980161526
 20
5.0830002659
 11
5.1630161526
 21
5.1013335993
  0
LINE
  5
491
100
AcDbEntity
  8
03__ASM_ALL_CURVES
100
AcDbLine
 62
40
  6
CONTINUOUS
 10
4.9980161526
 20
5.0852919326
 11
5.1630161526
 21
5.0990419326
  0
LINE
  5
492
100
AcDbEntity
  8
03__ASM_ALL_CURVES
100
AcDbLine
 62
40
  6
CONTINUOUS
 10
4.9980161526
 20
5.0875835993
 11
5.1630161526
 21
5.0967502659
  0
LINE
  5
493
100
AcDbEntity
  8
03__ASM_ALL_CURVES
100
AcDbLine
 62
40
  6
CONTINUOUS
 10
3.7880161526
 20
5.0967502659
 11
3.7055161526
 21
5.0921669326
  0
LINE
  5
494
100
AcDbEntity
  8
03__ASM_ALL_CURVES
100
AcDbLine
 62
40
  6
CONTINUOUS
 10
4.9980161526
 20
5.0898752659
 11
5.1630161526
 21
5.0944585993
  0
LINE
  5
495
100
AcDbEntity
  8
03__ASM_ALL_CURVES
100
AcDbLine
 62
40
  6
CONTINUOUS
 10
3.7880161526
 20
5.0944585993
 11
3.7055161526
 21
5.0921669326
  0
LINE
  5
496
100
AcDbEntity
  8
03__ASM_ALL_CURVES
100
AcDbLine
 62
40
  6
CONTINUOUS
 10
3.7055161526
 20
5.0921669326
 11
6.4005161526
 21
5.0921669326
  0
LINE
  5
497
100
AcDbEntity
  8
03__ASM_ALL_CURVES
100
AcDbLine
 62
40
  6
CONTINUOUS
 10
6.2561411523
 20
5.1196669326
 11
6.2217661523
 21
5.1196669326
  0
LINE
  5
498
100
AcDbEntity
  8
03__ASM_ALL_CURVES
100
AcDbLine
 62
40
  6
CONTINUOUS
 10
6.1702036523
 20
5.1196669326
 11
6.1530161523
 21
5.1196669326
  0
LINE
  5
499
100
AcDbEntity
  8
03__ASM_ALL_CURVES
100
AcDbLine
 62
40
  6
CONTINUOUS
 10
6.0370005273
 20
5.1196669326
 11
6.0284067773
 21
5.1196669326
  0
LINE
  5
49A
100
AcDbEntity
  8
03__ASM_ALL_CURVES
100
AcDbLine
 62
40
  6
CONTINUOUS
 10
5.9682505273
 20
5.1196669326
 11
5.9596567773
 21
5.1196669326
  0
LINE
  5
49B
100
AcDbEntity
  8
03__ASM_ALL_CURVES
100
AcDbLine
 62
40
  6
CONTINUOUS
 10
5.8307505273
 20
5.1196669326
 11
5.8221567773
 21
5.1196669326
  0
LINE
  5
49C
100
AcDbEntity
  8
03__ASM_ALL_CURVES
100
AcDbLine
 62
40
  6
CONTINUOUS
 10
5.6932505273
 20
5.1196669326
 11
5.6846567773
 21
5.1196669326
  0
LINE
  5
49D
100
AcDbEntity
  8
03__ASM_ALL_CURVES
100
AcDbLine
 62
40
  6
CONTINUOUS
 10
5.3495005273
 20
5.1196669326
 11
5.3409067773
 21
5.1196669326
  0
LINE
  5
49E
100
AcDbEntity
  8
03__ASM_ALL_CURVES
100
AcDbLine
 62
40
  6
CONTINUOUS
 10
5.2807505273
 20
5.1196669326
 11
5.2721567773
 21
5.1196669326
  0
LINE
  5
49F
100
AcDbEntity
  8
03__ASM_ALL_CURVES
100
AcDbLine
 62
40
  6
CONTINUOUS
 10
4.5305161526
 20
5.1196669326
 11
4.5262192776
 21
5.1196669326
  0
LINE
  5
4A0
100
AcDbEntity
  8
03__ASM_ALL_CURVES
100
AcDbLine
 62
40
  6
CONTINUOUS
 10
4.3973130276
 20
5.1196669326
 11
4.3887192776
 21
5.1196669326
  0
LINE
  5
4A1
100
AcDbEntity
  8
03__ASM_ALL_CURVES
100
AcDbLine
 62
40
  6
CONTINUOUS
 10
4.1910630276
 20
5.1196669326
 11
4.1824692776
 21
5.1196669326
  0
LINE
  5
4A2
100
AcDbEntity
  8
03__ASM_ALL_CURVES
100
AcDbLine
 62
40
  6
CONTINUOUS
 10
4.1180161526
 20
5.1196669326
 11
4.1137192776
 21
5.1196669326
  0
LINE
  5
4A3
100
AcDbEntity
  8
03__ASM_ALL_CURVES
100
AcDbLine
 62
40
  6
CONTINUOUS
 10
5.1905161523
 20
5.1196669326
 11
5.2248911523
 21
5.1196669326
  0
LINE
  5
4A4
100
AcDbEntity
  8
03__ASM_ALL_CURVES
100
AcDbLine
 62
40
  6
CONTINUOUS
 10
6.0842661523
 20
5.1196669326
 11
6.1186411523
 21
5.1196669326
  0
LINE
  5
4A5
100
AcDbEntity
  8
03__ASM_ALL_CURVES
100
AcDbLine
 62
40
  6
CONTINUOUS
 10
4.4445786526
 20
5.1368544326
 11
4.4832505276
 21
5.1368544326
  0
LINE
  5
4A6
100
AcDbEntity
  8
03__ASM_ALL_CURVES
100
AcDbLine
 62
40
  6
CONTINUOUS
 10
5.4010630273
 20
5.1425835999
 11
5.4268442773
 21
5.1425835999
  0
LINE
  5
4A7
100
AcDbEntity
  8
03__ASM_ALL_CURVES
100
AcDbLine
 62
40
  6
CONTINUOUS
 10
6.3120005273
 20
5.1540419326
 11
6.2905161523
 21
5.1540419326
  0
LINE
  5
4A8
100
AcDbEntity
  8
03__ASM_ALL_CURVES
100
AcDbLine
 62
40
  6
CONTINUOUS
 10
5.6889536523
 20
5.1540419326
 11
5.7061411523
 21
5.1540419326
  0
LINE
  5
4A9
100
AcDbEntity
  8
03__ASM_ALL_CURVES
100
AcDbLine
 62
40
  6
CONTINUOUS
 10
5.8780161523
 20
5.1540419326
 11
5.9123911523
 21
5.1540419326
  0
LINE
  5
4AA
100
AcDbEntity
  8
03__ASM_ALL_CURVES
100
AcDbLine
 62
40
  6
CONTINUOUS
 10
6.2217661523
 20
5.1540419326
 11
6.2432505273
 21
5.1540419326
  0
LINE
  5
4AB
100
AcDbEntity
  8
03__ASM_ALL_CURVES
100
AcDbLine
 62
40
  6
CONTINUOUS
 10
4.1824692776
 20
5.1597710979
 11
4.1910630276
 21
5.1597710979
  0
LINE
  5
4AC
100
AcDbEntity
  8
03__ASM_ALL_CURVES
100
AcDbLine
 62
40
  6
CONTINUOUS
 10
4.3887192776
 20
5.1597710979
 11
4.3973130276
 21
5.1597710979
  0
LINE
  5
4AD
100
AcDbEntity
  8
03__ASM_ALL_CURVES
100
AcDbLine
 62
40
  6
CONTINUOUS
 10
5.8307505273
 20
5.1884169326
 11
5.8221567773
 21
5.1884169326
  0
LINE
  5
4AE
100
AcDbEntity
  8
03__ASM_ALL_CURVES
100
AcDbLine
 62
40
  6
CONTINUOUS
 10
4.6164536526
 20
5.1884169326
 11
4.5820786526
 21
5.1884169326
  0
LINE
  5
4AF
100
AcDbEntity
  8
03__ASM_ALL_CURVES
100
AcDbLine
 62
40
  6
CONTINUOUS
 10
4.2727036526
 20
5.1884169326
 11
4.2383286526
 21
5.1884169326
  0
LINE
  5
4B0
100
AcDbEntity
  8
03__ASM_ALL_CURVES
100
AcDbLine
 62
40
  6
CONTINUOUS
 10
4.1824692776
 20
5.1884169326
 11
4.1910630276
 21
5.1884169326
  0
LINE
  5
4B1
100
AcDbEntity
  8
03__ASM_ALL_CURVES
100
AcDbLine
 62
40
  6
CONTINUOUS
 10
4.3887192776
 20
5.1884169326
 11
4.3973130276
 21
5.1884169326
  0
LINE
  5
4B2
100
AcDbEntity
  8
03__ASM_ALL_CURVES
100
AcDbLine
 62
40
  6
CONTINUOUS
 10
5.2721567773
 20
5.1884169326
 11
5.2807505273
 21
5.1884169326
  0
LINE
  5
4B3
100
AcDbEntity
  8
03__ASM_ALL_CURVES
100
AcDbLine
 62
40
  6
CONTINUOUS
 10
5.3409067773
 20
5.1884169326
 11
5.3495005273
 21
5.1884169326
  0
LINE
  5
4B4
100
AcDbEntity
  8
03__ASM_ALL_CURVES
100
AcDbLine
 62
40
  6
CONTINUOUS
 10
5.4612192773
 20
5.1884169326
 11
5.5041880273
 21
5.1884169326
  0
LINE
  5
4B5
100
AcDbEntity
  8
03__ASM_ALL_CURVES
100
AcDbLine
 62
40
  6
CONTINUOUS
 10
5.6846567773
 20
5.1884169326
 11
5.6932505273
 21
5.1884169326
  0
LINE
  5
4B6
100
AcDbEntity
  8
03__ASM_ALL_CURVES
100
AcDbLine
 62
40
  6
CONTINUOUS
 10
5.9596567773
 20
5.1884169326
 11
5.9682505273
 21
5.1884169326
  0
LINE
  5
4B7
100
AcDbEntity
  8
03__ASM_ALL_CURVES
100
AcDbLine
 62
40
  6
CONTINUOUS
 10
6.1530161523
 20
5.1884169326
 11
6.1702036523
 21
5.1884169326
  0
LINE
  5
4B8
100
AcDbEntity
  8
03__ASM_ALL_CURVES
100
AcDbLine
 62
40
  6
CONTINUOUS
 10
6.2217661523
 20
5.1884169326
 11
6.2561411523
 21
5.1884169326
  0
LINE
  5
4B9
100
AcDbEntity
  8
03__ASM_ALL_CURVES
100
AcDbLine
 62
40
  6
CONTINUOUS
 10
6.2905161523
 20
5.1884169326
 11
6.3120005273
 21
5.1884169326
  0
LINE
  5
4BA
100
AcDbEntity
  8
03__ASM_ALL_CURVES
100
AcDbLine
 62
40
  6
CONTINUOUS
 10
4.9980161526
 20
5.0944585993
 11
5.1630161526
 21
5.0898752659
  0
LINE
  5
4BB
100
AcDbEntity
  8
03__ASM_ALL_CURVES
100
AcDbLine
 62
40
  6
CONTINUOUS
 10
7.3139145902
 20
4.2527929326
 11
7.3203599027
 21
4.2484960586
  0
LINE
  5
4BC
100
AcDbEntity
  8
03__ASM_ALL_CURVES
100
AcDbLine
 62
40
  6
CONTINUOUS
 10
6.0284067773
 20
5.1196669326
 11
6.0198130273
 21
5.1253960994
  0
LINE
  5
4BD
100
AcDbEntity
  8
03__ASM_ALL_CURVES
100
AcDbLine
 62
40
  6
CONTINUOUS
 10
5.9682505273
 20
5.1884169326
 11
5.9768442773
 21
5.1826877673
  0
LINE
  5
4BE
100
AcDbEntity
  8
03__ASM_ALL_CURVES
100
AcDbLine
 62
40
  6
CONTINUOUS
 10
7.516941934
 20
4.2012304326
 11
7.5104966215
 21
4.2055273077
  0
LINE
  5
4BF
100
AcDbEntity
  8
03__ASM_ALL_CURVES
100
AcDbLine
 62
40
  6
CONTINUOUS
 10
7.5233872465
 20
4.2527929326
 11
7.529832559
 21
4.2484960586
  0
LINE
  5
4C0
100
AcDbEntity
  8
03__ASM_ALL_CURVES
100
AcDbLine
 62
40
  6
CONTINUOUS
 10
6.8401841215
 20
4.2055273077
 11
6.833738809
 21
4.2141210576
  0
LINE
  5
4C1
100
AcDbEntity
  8
03__ASM_ALL_CURVES
100
AcDbLine
 62
40
  6
CONTINUOUS
 10
6.8917466215
 20
4.2055273077
 11
6.885301309
 21
4.2141210576
  0
LINE
  5
4C2
100
AcDbEntity
  8
03__ASM_ALL_CURVES
100
AcDbLine
 62
40
  6
CONTINUOUS
 10
6.859520059
 20
4.2484960586
 11
6.8627427152
 21
4.2441991816
  0
LINE
  5
4C3
100
AcDbEntity
  8
03__ASM_ALL_CURVES
100
AcDbLine
 62
40
  6
CONTINUOUS
 10
6.1787974023
 20
5.1826877673
 11
6.1873911523
 21
5.1712294326
  0
LINE
  5
4C4
100
AcDbEntity
  8
03__ASM_ALL_CURVES
100
AcDbLine
 62
40
  6
CONTINUOUS
 10
6.911082559
 20
4.2484960586
 11
6.9175278715
 21
4.2399023076
  0
LINE
  5
4C5
100
AcDbEntity
  8
03__ASM_ALL_CURVES
100
AcDbLine
 62
40
  6
CONTINUOUS
 10
6.8853013091
 20
4.2845898077
 11
6.8788559966
 21
4.2931835576
  0
LINE
  5
4C6
100
AcDbEntity
  8
03__ASM_ALL_CURVES
100
AcDbLine
 62
40
  6
CONTINUOUS
 10
6.8530747466
 20
4.3275585586
 11
6.8562974028
 21
4.3232616816
  0
LINE
  5
4C7
100
AcDbEntity
  8
03__ASM_ALL_CURVES
100
AcDbLine
 62
40
  6
CONTINUOUS
 10
6.9046372466
 20
4.3275585586
 11
6.9110825591
 21
4.3189648076
  0
LINE
  5
4C8
100
AcDbEntity
  8
03__ASM_ALL_CURVES
100
AcDbLine
 62
40
  6
CONTINUOUS
 10
6.3120005273
 20
5.1540419326
 11
6.3248911523
 21
5.1196669326
  0
LINE
  5
4C9
100
AcDbEntity
  8
03__ASM_ALL_CURVES
100
AcDbLine
 62
40
  6
CONTINUOUS
 10
6.8305161528
 20
4.2802929326
 11
6.8305161528
 21
4.3318554326
  0
LINE
  5
4CA
100
AcDbEntity
  8
03__ASM_ALL_CURVES
100
AcDbLine
 62
40
  6
CONTINUOUS
 10
6.8562974028
 20
4.3232616816
 11
6.8562974028
 21
4.3146679336
  0
LINE
  5
4CB
100
AcDbEntity
  8
03__ASM_ALL_CURVES
100
AcDbLine
 62
40
  6
CONTINUOUS
 10
6.8305161527
 20
4.2270116826
 11
6.833738809
 21
4.2399023076
  0
LINE
  5
4CC
100
AcDbEntity
  8
03__ASM_ALL_CURVES
100
AcDbLine
 62
40
  6
CONTINUOUS
 10
6.8756333403
 20
4.3060741826
 11
6.8788559966
 21
4.3189648076
  0
LINE
  5
4CD
100
AcDbEntity
  8
03__ASM_ALL_CURVES
100
AcDbLine
 62
40
  6
CONTINUOUS
 10
6.8820786527
 20
4.2270116826
 11
6.885301309
 21
4.2399023076
  0
LINE
  5
4CE
100
AcDbEntity
  8
03__ASM_ALL_CURVES
100
AcDbLine
 62
40
  6
CONTINUOUS
 10
6.9143052153
 20
4.3060741826
 11
6.9110825591
 21
4.2931835576
  0
LINE
  5
4CF
100
AcDbEntity
  8
03__ASM_ALL_CURVES
100
AcDbLine
 62
40
  6
CONTINUOUS
 10
6.9175278715
 20
4.2141210576
 11
6.911082559
 21
4.2055273077
  0
LINE
  5
4D0
100
AcDbEntity
  8
03__ASM_ALL_CURVES
100
AcDbLine
 62
40
  6
CONTINUOUS
 10
7.0689927152
 20
4.2356054336
 11
7.065770059
 21
4.2313085566
  0
LINE
  5
4D1
100
AcDbEntity
  8
03__ASM_ALL_CURVES
100
AcDbLine
 62
40
  6
CONTINUOUS
 10
7.091551309
 20
4.2399023076
 11
7.0979966215
 21
4.2484960586
  0
LINE
  5
4D2
100
AcDbEntity
  8
03__ASM_ALL_CURVES
100
AcDbLine
 62
40
  6
CONTINUOUS
 10
7.5104966215
 20
4.2484960586
 11
7.516941934
 21
4.2527929326
  0
LINE
  5
4D3
100
AcDbEntity
  8
03__ASM_ALL_CURVES
100
AcDbLine
 62
40
  6
CONTINUOUS
 10
7.529832559
 20
4.2055273077
 11
7.5233872465
 21
4.2012304326
  0
LINE
  5
4D4
100
AcDbEntity
  8
03__ASM_ALL_CURVES
100
AcDbLine
 62
40
  6
CONTINUOUS
 10
3.7880161526
 20
5.1013335993
 11
3.7055161526
 21
5.0921669326
  0
LINE
  5
4D5
100
AcDbEntity
  8
03__ASM_ALL_CURVES
100
AcDbLine
 62
40
  6
CONTINUOUS
 10
3.7880161526
 20
5.0990419326
 11
3.7055161526
 21
5.0921669326
  0
LINE
  5
4D6
100
AcDbEntity
  8
03__ASM_ALL_CURVES
100
AcDbLine
 62
40
  6
CONTINUOUS
 10
6.1702036523
 20
5.1884169326
 11
6.1787974023
 21
5.1826877673
  0
LINE
  5
4D7
100
AcDbEntity
  8
03__ASM_ALL_CURVES
100
AcDbLine
 62
40
  6
CONTINUOUS
 10
6.3120005273
 20
5.1884169326
 11
6.3205942773
 21
5.1826877673
  0
LINE
  5
4D8
100
AcDbEntity
  8
03__ASM_ALL_CURVES
100
AcDbLine
 62
40
  6
CONTINUOUS
 10
6.9561997466
 20
4.3275585586
 11
6.9594224028
 21
4.3232616816
  0
LINE
  5
4D9
100
AcDbEntity
  8
03__ASM_ALL_CURVES
100
AcDbLine
 62
40
  6
CONTINUOUS
 10
6.3205942773
 20
5.1826877673
 11
6.3248911523
 21
5.1769585979
  0
LINE
  5
4DA
100
AcDbEntity
  8
03__ASM_ALL_CURVES
100
AcDbLine
 62
40
  6
CONTINUOUS
 10
7.0979966215
 20
4.2055273077
 11
7.091551309
 21
4.2141210576
  0
LINE
  5
4DB
100
AcDbEntity
  8
03__ASM_ALL_CURVES
100
AcDbLine
 62
40
  6
CONTINUOUS
 10
7.065770059
 20
4.2484960586
 11
7.0689927152
 21
4.2441991816
  0
LINE
  5
4DC
100
AcDbEntity
  8
03__ASM_ALL_CURVES
100
AcDbLine
 62
40
  6
CONTINUOUS
 10
7.117332559
 20
4.2484960586
 11
7.1237778715
 21
4.2399023076
  0
LINE
  5
4DD
100
AcDbEntity
  8
03__ASM_ALL_CURVES
100
AcDbLine
 62
40
  6
CONTINUOUS
 10
6.9400864652
 20
4.2527929326
 11
6.9658677152
 21
4.2012304326
  0
LINE
  5
4DE
100
AcDbEntity
  8
03__ASM_ALL_CURVES
100
AcDbLine
 62
40
  6
CONTINUOUS
 10
6.9497544341
 20
4.3060741826
 11
6.9594224028
 21
4.2802929326
  0
LINE
  5
4DF
100
AcDbEntity
  8
03__ASM_ALL_CURVES
100
AcDbLine
 62
40
  6
CONTINUOUS
 10
6.833738809
 20
4.2141210576
 11
6.8305161527
 21
4.2270116826
  0
LINE
  5
4E0
100
AcDbEntity
  8
03__ASM_ALL_CURVES
100
AcDbLine
 62
40
  6
CONTINUOUS
 10
6.885301309
 20
4.2141210576
 11
6.8820786527
 21
4.2270116826
  0
LINE
  5
4E1
100
AcDbEntity
  8
03__ASM_ALL_CURVES
100
AcDbLine
 62
40
  6
CONTINUOUS
 10
6.8788559966
 20
4.2931835576
 11
6.8756333403
 21
4.3060741826
  0
LINE
  5
4E2
100
AcDbEntity
  8
03__ASM_ALL_CURVES
100
AcDbLine
 62
40
  6
CONTINUOUS
 10
6.9175278715
 20
4.2399023076
 11
6.9207505277
 21
4.2270116826
  0
LINE
  5
4E3
100
AcDbEntity
  8
03__ASM_ALL_CURVES
100
AcDbLine
 62
40
  6
CONTINUOUS
 10
6.9110825591
 20
4.3189648076
 11
6.9143052153
 21
4.3060741826
  0
LINE
  5
4E4
100
AcDbEntity
  8
03__ASM_ALL_CURVES
100
AcDbLine
 62
40
  6
CONTINUOUS
 10
6.9336411528
 20
4.2802929326
 11
6.9336411528
 21
4.3318554326
  0
LINE
  5
4E5
100
AcDbEntity
  8
03__ASM_ALL_CURVES
100
AcDbLine
 62
40
  6
CONTINUOUS
 10
6.9400864652
 20
4.2012304326
 11
6.9400864652
 21
4.2527929326
  0
LINE
  5
4E6
100
AcDbEntity
  8
03__ASM_ALL_CURVES
100
AcDbLine
 62
40
  6
CONTINUOUS
 10
6.9594224028
 20
4.3232616816
 11
6.9594224028
 21
4.3146679336
  0
LINE
  5
4E7
100
AcDbEntity
  8
03__ASM_ALL_CURVES
100
AcDbLine
 62
40
  6
CONTINUOUS
 10
6.9658677152
 20
4.2012304326
 11
6.9658677152
 21
4.2527929326
  0
LINE
  5
4E8
100
AcDbEntity
  8
03__ASM_ALL_CURVES
100
AcDbLine
 62
40
  6
CONTINUOUS
 10
6.9980942778
 20
4.3318554326
 11
6.9980942778
 21
4.2802929326
  0
LINE
  5
4E9
100
AcDbEntity
  8
03__ASM_ALL_CURVES
100
AcDbLine
 62
40
  6
CONTINUOUS
 10
7.0045395902
 20
4.2527929326
 11
7.0045395902
 21
4.2012304326
  0
LINE
  5
4EA
100
AcDbEntity
  8
03__ASM_ALL_CURVES
100
AcDbLine
 62
40
  6
CONTINUOUS
 10
6.9207505277
 20
4.2270116826
 11
6.9175278715
 21
4.2141210576
  0
LINE
  5
4EB
100
AcDbEntity
  8
03__ASM_ALL_CURVES
100
AcDbLine
 62
40
  6
CONTINUOUS
 10
7.1237778715
 20
4.2141210576
 11
7.117332559
 21
4.2055273077
  0
LINE
  5
4EC
100
AcDbEntity
  8
03__ASM_ALL_CURVES
100
AcDbLine
 62
40
  6
CONTINUOUS
 10
3.7055161526
 20
5.0921669326
 11
3.7880161526
 21
5.1059169326
  0
LINE
  5
4ED
100
AcDbEntity
  8
03__ASM_ALL_CURVES
100
AcDbLine
 62
40
  6
CONTINUOUS
 10
3.7880161526
 20
5.1036252659
 11
3.7055161526
 21
5.0921669326
  0
LINE
  5
4EE
100
AcDbEntity
  8
03__ASM_ALL_CURVES
100
AcDbLine
 62
40
  6
CONTINUOUS
 10
7.3203599027
 20
4.2484960586
 11
7.3268052152
 21
4.2399023076
  0
LINE
  5
4EF
100
AcDbEntity
  8
03__ASM_ALL_CURVES
100
AcDbLine
 62
40
  6
CONTINUOUS
 10
7.0593247465
 20
4.2270116826
 11
7.0689927152
 21
4.2012304326
  0
LINE
  5
4F0
100
AcDbEntity
  8
03__ASM_ALL_CURVES
100
AcDbLine
 62
40
  6
CONTINUOUS
 10
7.091551309
 20
4.2141210576
 11
7.0883286527
 21
4.2270116826
  0
LINE
  5
4F1
100
AcDbEntity
  8
03__ASM_ALL_CURVES
100
AcDbLine
 62
40
  6
CONTINUOUS
 10
7.0432114652
 20
4.2012304326
 11
7.0432114652
 21
4.2527929326
  0
LINE
  5
4F2
100
AcDbEntity
  8
03__ASM_ALL_CURVES
100
AcDbLine
 62
40
  6
CONTINUOUS
 10
7.0496567778
 20
4.3318554326
 11
7.0496567778
 21
4.2802929326
  0
LINE
  5
4F3
100
AcDbEntity
  8
03__ASM_ALL_CURVES
100
AcDbLine
 62
40
  6
CONTINUOUS
 10
7.0689927152
 20
4.2441991816
 11
7.0689927152
 21
4.2356054336
  0
LINE
  5
4F4
100
AcDbEntity
  8
03__ASM_ALL_CURVES
100
AcDbLine
 62
40
  6
CONTINUOUS
 10
7.1463364652
 20
4.2527929326
 11
7.1463364652
 21
4.2012304326
  0
LINE
  5
4F5
100
AcDbEntity
  8
03__ASM_ALL_CURVES
100
AcDbLine
 62
40
  6
CONTINUOUS
 10
7.0883286527
 20
4.2270116826
 11
7.091551309
 21
4.2399023076
  0
LINE
  5
4F6
100
AcDbEntity
  8
03__ASM_ALL_CURVES
100
AcDbLine
 62
40
  6
CONTINUOUS
 10
7.1270005277
 20
4.2270116826
 11
7.1237778715
 21
4.2141210576
  0
LINE
  5
4F7
100
AcDbEntity
  8
03__ASM_ALL_CURVES
100
AcDbLine
 62
40
  6
CONTINUOUS
 10
7.3268052152
 20
4.2141210576
 11
7.3203599027
 21
4.2055273077
  0
LINE
  5
4F8
100
AcDbEntity
  8
03__ASM_ALL_CURVES
100
AcDbLine
 62
40
  6
CONTINUOUS
 10
7.5104966215
 20
4.2055273077
 11
7.504051309
 21
4.2141210576
  0
LINE
  5
4F9
100
AcDbEntity
  8
03__ASM_ALL_CURVES
100
AcDbLine
 62
40
  6
CONTINUOUS
 10
7.529832559
 20
4.2484960586
 11
7.5362778715
 21
4.2399023076
  0
LINE
  5
4FA
100
AcDbEntity
  8
03__ASM_ALL_CURVES
100
AcDbLine
 62
40
  6
CONTINUOUS
 10
7.1237778715
 20
4.2399023076
 11
7.1270005277
 21
4.2270116826
  0
LINE
  5
4FB
100
AcDbEntity
  8
03__ASM_ALL_CURVES
100
AcDbLine
 62
40
  6
CONTINUOUS
 10
7.1978989652
 20
4.2527929326
 11
7.1978989652
 21
4.2012304326
  0
LINE
  5
4FC
100
AcDbEntity
  8
03__ASM_ALL_CURVES
100
AcDbLine
 62
40
  6
CONTINUOUS
 10
7.2494614652
 20
4.2012304326
 11
7.2494614652
 21
4.2527929326
  0
LINE
  5
4FD
100
AcDbEntity
  8
03__ASM_ALL_CURVES
100
AcDbLine
 62
40
  6
CONTINUOUS
 10
7.3010239652
 20
4.2012304326
 11
7.3010239652
 21
4.2527929326
  0
LINE
  5
4FE
100
AcDbEntity
  8
03__ASM_ALL_CURVES
100
AcDbLine
 62
40
  6
CONTINUOUS
 10
7.3300278715
 20
4.2270116826
 11
7.3268052152
 21
4.2141210576
  0
LINE
  5
4FF
100
AcDbEntity
  8
03__ASM_ALL_CURVES
100
AcDbLine
 62
40
  6
CONTINUOUS
 10
7.504051309
 20
4.2399023076
 11
7.5104966215
 21
4.2484960586
  0
LINE
  5
500
100
AcDbEntity
  8
03__ASM_ALL_CURVES
100
AcDbLine
 62
40
  6
CONTINUOUS
 10
7.5362778715
 20
4.2141210576
 11
7.529832559
 21
4.2055273077
  0
LINE
  5
501
100
AcDbEntity
  8
03__ASM_ALL_CURVES
100
AcDbLine
 62
40
  6
CONTINUOUS
 10
7.3268052152
 20
4.2399023076
 11
7.3300278715
 21
4.2270116826
  0
LINE
  5
502
100
AcDbEntity
  8
03__ASM_ALL_CURVES
100
AcDbLine
 62
40
  6
CONTINUOUS
 10
7.4041489652
 20
4.2012304326
 11
7.4041489652
 21
4.2527929326
  0
LINE
  5
503
100
AcDbEntity
  8
03__ASM_ALL_CURVES
100
AcDbLine
 62
40
  6
CONTINUOUS
 10
7.4557114652
 20
4.2527929326
 11
7.4557114652
 21
4.2012304326
  0
LINE
  5
504
100
AcDbEntity
  8
03__ASM_ALL_CURVES
100
AcDbLine
 62
40
  6
CONTINUOUS
 10
7.5008286527
 20
4.2270116826
 11
7.504051309
 21
4.2399023076
  0
LINE
  5
505
100
AcDbEntity
  8
03__ASM_ALL_CURVES
100
AcDbLine
 62
40
  6
CONTINUOUS
 10
7.504051309
 20
4.2141210576
 11
7.5008286527
 21
4.2270116826
  0
LINE
  5
506
100
AcDbEntity
  8
03__ASM_ALL_CURVES
100
AcDbLine
 62
40
  6
CONTINUOUS
 10
7.5362778715
 20
4.2399023076
 11
7.5395005277
 21
4.2270116826
  0
LINE
  5
507
100
AcDbEntity
  8
03__ASM_ALL_CURVES
100
AcDbLine
 62
40
  6
CONTINUOUS
 10
7.5620591215
 20
4.2012304326
 11
7.5717270902
 21
4.2527929326
  0
LINE
  5
508
100
AcDbEntity
  8
03__ASM_ALL_CURVES
100
AcDbLine
 62
40
  6
CONTINUOUS
 10
7.581395059
 20
4.2012304326
 11
7.5910630277
 21
4.2527929326
  0
LINE
  5
509
100
AcDbEntity
  8
03__ASM_ALL_CURVES
100
AcDbLine
 62
40
  6
CONTINUOUS
 10
7.5395005277
 20
4.2270116826
 11
7.5362778715
 21
4.2141210576
  0
LINE
  5
50A
100
AcDbEntity
  8
03__ASM_ALL_CURVES
100
AcDbLine
 62
40
  6
CONTINUOUS
 10
7.7135239652
 20
4.2527929326
 11
7.7393052152
 21
4.2012304326
  0
LINE
  5
50B
100
AcDbEntity
  8
03__ASM_ALL_CURVES
100
AcDbLine
 62
40
  6
CONTINUOUS
 10
7.5523911527
 20
4.2527929326
 11
7.5620591215
 21
4.2012304326
  0
LINE
  5
50C
100
AcDbEntity
  8
03__ASM_ALL_CURVES
100
AcDbLine
 62
40
  6
CONTINUOUS
 10
7.5717270902
 20
4.2527929326
 11
7.581395059
 21
4.2012304326
  0
LINE
  5
50D
100
AcDbEntity
  8
03__ASM_ALL_CURVES
100
AcDbLine
 62
40
  6
CONTINUOUS
 10
7.6748520902
 20
4.2527929326
 11
7.6748520902
 21
4.2012304326
  0
LINE
  5
50E
100
AcDbEntity
  8
03__ASM_ALL_CURVES
100
AcDbLine
 62
40
  6
CONTINUOUS
 10
7.7135239652
 20
4.2012304326
 11
7.7135239652
 21
4.2527929326
  0
LINE
  5
50F
100
AcDbEntity
  8
03__ASM_ALL_CURVES
100
AcDbLine
 62
40
  6
CONTINUOUS
 10
7.7393052152
 20
4.2012304326
 11
7.7393052152
 21
4.2527929326
  0
LINE
  5
510
100
AcDbEntity
  8
03__ASM_ALL_CURVES
100
AcDbLine
 62
40
  6
CONTINUOUS
 10
7.7650864652
 20
4.2527929326
 11
7.7650864652
 21
4.2012304326
  0
LINE
  5
511
100
AcDbEntity
  8
03__ASM_ALL_CURVES
100
AcDbLine
 62
40
  6
CONTINUOUS
 10
7.8166489652
 20
4.2012304326
 11
7.8166489652
 21
4.2527929326
  0
LINE
  5
512
100
AcDbEntity
  8
03__ASM_ALL_CURVES
100
AcDbLine
 62
40
  6
CONTINUOUS
 10
7.8811020902
 20
4.2527929326
 11
7.8811020902
 21
4.2012304326
  0
CIRCLE
  5
513
100
AcDbEntity
  8
127-312_FEATURES
100
AcDbCircle
 62
7
  6
CONTINUOUS
 10
4.8615161526
 20
4.2665429326
 40
0.1095
  0
CIRCLE
  5
514
100
AcDbEntity
  8
0
100
AcDbCircle
 62
7
  6
CONTINUOUS
 10
5.9085161526
 20
4.2665429326
 40
0.078
  0
ARC
  5
515
100
AcDbEntity
  8
THREAD
100
AcDbCircle
 62
7
  6
CONTINUOUS
 10
5.2612992743
 20
3.7960429326
 40
0.0125
100
AcDbArc
 50
29.9999999998
 51
90.0
  0
ARC
  5
516
100
AcDbEntity
  8
THREAD
100
AcDbCircle
 62
7
  6
CONTINUOUS
 10
5.2612992743
 20
4.7370429326
 40
0.0125
100
AcDbArc
 50
270.0
 51
330.0000000054
  0
SPLINE
  5
517
100
AcDbEntity
  8
0
100
AcDbSpline
 62
7
  6
CONTINUOUS
 70
0
 71
3
 72
15
 73
11
 74
9
 42
0.0000001
 43
0.0000001
 44
0.0000000001
 12
0.0
 22
0.1099409465
 32
0.0
 13
0.0
 23
-0.1099409465
 33
0.0
 40
0.0
 40
0.0
 40
0.0
 40
0.0
 40
0.125
 40
0.25
 40
0.375
 40
0.5
 40
0.625
 40
0.75
 40
0.875
 40
1.0
 40
1.0
 40
1.0
 40
1.0
 10
6.3205161526
 20
4.6835429326
 30
0.0
 10
6.3205161526
 20
4.6881238054
 30
0.0
 10
6.3186937682
 20
4.6972855509
 30
0.0
 10
6.3109092002
 20
4.7089359802
 30
0.0
 10
6.299258771
 20
4.7167205481
 30
0.0
 10
6.2855161526
 20
4.7194541248
 30
0.0
 10
6.2717735343
 20
4.7167205481
 30
0.0
 10
6.2601231051
 20
4.7089359802
 30
0.0
 10
6.2523385371
 20
4.6972855509
 30
0.0
 10
6.2505161526
 20
4.6881238054
 30
0.0
 10
6.2505161526
 20
4.6835429326
 30
0.0
 11
6.3205161526
 21
4.6835429326
 31
0.0
 11
6.3178519363
 21
4.6969368527
 31
0.0
 11
6.31026489
 21
4.7082916699
 31
0.0
 11
6.2989100728
 21
4.7158787162
 31
0.0
 11
6.2855161526
 21
4.7185429326
 31
0.0
 11
6.2721222325
 21
4.7158787162
 31
0.0
 11
6.2607674153
 21
4.7082916699
 31
0.0
 11
6.253180369
 21
4.6969368527
 31
0.0
 11
6.2505161526
 21
4.6835429326
 31
0.0
  0
SPLINE
  5
518
100
AcDbEntity
  8
0
100
AcDbSpline
 62
7
  6
CONTINUOUS
 70
0
 71
3
 72
15
 73
11
 74
9
 42
0.0000001
 43
0.0000001
 44
0.0000000001
 12
0.0
 22
-0.1099409465
 32
0.0
 13
0.0
 23
0.1099409465
 33
0.0
 40
0.0
 40
0.0
 40
0.0
 40
0.0
 40
0.125
 40
0.25
 40
0.375
 40
0.5
 40
0.625
 40
0.75
 40
0.875
 40
1.0
 40
1.0
 40
1.0
 40
1.0
 10
6.3205161526
 20
3.8495429326
 30
0.0
 10
6.3205161526
 20
3.8449620598
 30
0.0
 10
6.3186937682
 20
3.8358003143
 30
0.0
 10
6.3109092002
 20
3.824149885
 30
0.0
 10
6.299258771
 20
3.8163653171
 30
0.0
 10
6.2855161526
 20
3.8136317403
 30
0.0
 10
6.2717735343
 20
3.8163653171
 30
0.0
 10
6.2601231051
 20
3.824149885
 30
0.0
 10
6.2523385371
 20
3.8358003143
 30
0.0
 10
6.2505161526
 20
3.8449620598
 30
0.0
 10
6.2505161526
 20
3.8495429326
 30
0.0
 11
6.3205161526
 21
3.8495429326
 31
0.0
 11
6.3178519363
 21
3.8361490125
 31
0.0
 11
6.31026489
 21
3.8247941953
 31
0.0
 11
6.2989100728
 21
3.817207149
 31
0.0
 11
6.2855161526
 21
3.8145429326
 31
0.0
 11
6.2721222325
 21
3.817207149
 31
0.0
 11
6.2607674153
 21
3.8247941953
 31
0.0
 11
6.253180369
 21
3.8361490125
 31
0.0
 11
6.2505161526
 21
3.8495429326
 31
0.0
  0
SPLINE
  5
519
100
AcDbEntity
  8
0
100
AcDbSpline
 62
7
  6
CONTINUOUS
 70
0
 71
3
 72
14
 73
10
 74
8
 42
0.0000001
 43
0.0000001
 44
0.0000000001
 12
0.0
 22
0.0916172274
 32
0.0
 13
-0.045846371
 23
-0.079336773
 33
0.0
 40
0.0
 40
0.0
 40
0.0
 40
0.0
 40
0.1500003733
 40
0.3000007465
 40
0.4500011198
 40
0.6000014931
 40
0.7500018663
 40
0.9000022396
 40
1.0
 40
1.0
 40
1.0
 40
1.0
 10
5.1975161526
 20
4.7595429326
 30
0.0
 10
5.1975161526
 20
4.7641238054
 30
0.0
 10
5.1956937682
 20
4.7732855509
 30
0.0
 10
5.1879092002
 20
4.7849359802
 30
0.0
 10
5.176258771
 20
4.7927205481
 30
0.0
 10
5.1625161526
 20
4.7954541248
 30
0.0
 10
5.1487735343
 20
4.7927205481
 30
0.0
 10
5.1384176617
 20
4.7858009752
 30
0.0
 10
5.1337349804
 20
4.7796865433
 30
0.0
 10
5.1322068022
 20
4.7770420434
 30
0.0
 11
5.1975161526
 21
4.7595429326
 31
0.0
 11
5.1948519363
 21
4.7729368527
 31
0.0
 11
5.18726489
 21
4.7842916699
 31
0.0
 11
5.1759100728
 21
4.7918787162
 31
0.0
 11
5.1625161526
 21
4.7945429326
 31
0.0
 11
5.1491222325
 21
4.7918787162
 31
0.0
 11
5.1377674153
 21
4.7842916699
 31
0.0
 11
5.1322068022
 21
4.7770420434
 31
0.0
  0
SPLINE
  5
51A
100
AcDbEntity
  8
0
100
AcDbSpline
 62
7
  6
CONTINUOUS
 70
0
 71
3
 72
9
 73
5
 74
3
 42
0.0000001
 43
0.0000001
 44
0.0000000001
 12
-0.0091694111
 22
-0.0158675915
 32
0.0
 13
0.0
 23
-0.0183237191
 33
0.0
 40
0.0
 40
0.0
 40
0.0
 40
0.0
 40
0.2500093315
 40
1.0
 40
1.0
 40
1.0
 40
1.0
 10
5.1322068022
 20
4.7770420434
 30
0.0
 10
5.1314426561
 20
4.7757196948
 30
0.0
 10
5.1287310908
 20
4.7702317117
 30
0.0
 10
5.1275161526
 20
4.7641238054
 30
0.0
 10
5.1275161526
 20
4.7595429326
 30
0.0
 11
5.1322068022
 21
4.7770420434
 31
0.0
 11
5.130180369
 21
4.7729368527
 31
0.0
 11
5.1275161526
 21
4.7595429326
 31
0.0
  0
SPLINE
  5
51B
100
AcDbEntity
  8
0
100
AcDbSpline
 62
7
  6
CONTINUOUS
 70
0
 71
3
 72
14
 73
10
 74
8
 42
0.0000001
 43
0.0000001
 44
0.0000000001
 12
0.0
 22
-0.0916172274
 32
0.0
 13
-0.045846371
 23
0.079336773
 33
0.0
 40
0.0
 40
0.0
 40
0.0
 40
0.0
 40
0.1500003733
 40
0.3000007465
 40
0.4500011198
 40
0.6000014931
 40
0.7500018663
 40
0.9000022396
 40
1.0
 40
1.0
 40
1.0
 40
1.0
 10
5.1975161526
 20
3.7735429326
 30
0.0
 10
5.1975161526
 20
3.7689620598
 30
0.0
 10
5.1956937682
 20
3.7598003143
 30
0.0
 10
5.1879092002
 20
3.748149885
 30
0.0
 10
5.176258771
 20
3.7403653171
 30
0.0
 10
5.1625161526
 20
3.7376317403
 30
0.0
 10
5.1487735343
 20
3.7403653171
 30
0.0
 10
5.1384176617
 20
3.74728489
 30
0.0
 10
5.1337349804
 20
3.7533993219
 30
0.0
 10
5.1322068022
 20
3.7560438218
 30
0.0
 11
5.1975161526
 21
3.7735429326
 31
0.0
 11
5.1948519363
 21
3.7601490125
 31
0.0
 11
5.18726489
 21
3.7487941953
 31
0.0
 11
5.1759100728
 21
3.741207149
 31
0.0
 11
5.1625161526
 21
3.7385429326
 31
0.0
 11
5.1491222325
 21
3.741207149
 31
0.0
 11
5.1377674153
 21
3.7487941953
 31
0.0
 11
5.1322068022
 21
3.7560438218
 31
0.0
  0
SPLINE
  5
51C
100
AcDbEntity
  8
0
100
AcDbSpline
 62
7
  6
CONTINUOUS
 70
0
 71
3
 72
9
 73
5
 74
3
 42
0.0000001
 43
0.0000001
 44
0.0000000001
 12
-0.0091694111
 22
0.0158675915
 32
0.0
 13
0.0
 23
0.0183237191
 33
0.0
 40
0.0
 40
0.0
 40
0.0
 40
0.0
 40
0.2500093315
 40
1.0
 40
1.0
 40
1.0
 40
1.0
 10
5.1322068022
 20
3.7560438218
 30
0.0
 10
5.1314426561
 20
3.7573661704
 30
0.0
 10
5.1287310908
 20
3.7628541535
 30
0.0
 10
5.1275161526
 20
3.7689620598
 30
0.0
 10
5.1275161526
 20
3.7735429326
 30
0.0
 11
5.1322068022
 21
3.7560438218
 31
0.0
 11
5.130180369
 21
3.7601490125
 31
0.0
 11
5.1275161526
 21
3.7735429326
 31
0.0
  0
SPLINE
  5
51D
100
AcDbEntity
  8
0
100
AcDbSpline
 62
7
  6
CONTINUOUS
 70
0
 71
3
 72
15
 73
11
 74
9
 42
0.0000001
 43
0.0000001
 44
0.0000000001
 12
0.0
 22
0.1099409465
 32
0.0
 13
-0.0
 23
-0.1099409465
 33
0.0
 40
0.0
 40
0.0
 40
0.0
 40
0.0
 40
0.125
 40
0.25
 40
0.375
 40
0.5
 40
0.625
 40
0.75
 40
0.875
 40
1.0
 40
1.0
 40
1.0
 40
1.0
 10
4.5755161526
 20
4.7840429326
 30
0.0
 10
4.5755161526
 20
4.7886238054
 30
0.0
 10
4.5736937682
 20
4.7977855509
 30
0.0
 10
4.5659092002
 20
4.8094359802
 30
0.0
 10
4.554258771
 20
4.8172205481
 30
0.0
 10
4.5405161526
 20
4.8199541248
 30
0.0
 10
4.5267735343
 20
4.8172205481
 30
0.0
 10
4.5151231051
 20
4.8094359802
 30
0.0
 10
4.5073385371
 20
4.7977855509
 30
0.0
 10
4.5055161526
 20
4.7886238054
 30
0.0
 10
4.5055161526
 20
4.7840429326
 30
0.0
 11
4.5755161526
 21
4.7840429326
 31
0.0
 11
4.5728519363
 21
4.7974368527
 31
0.0
 11
4.56526489
 21
4.8087916699
 31
0.0
 11
4.5539100728
 21
4.8163787162
 31
0.0
 11
4.5405161526
 21
4.8190429326
 31
0.0
 11
4.5271222325
 21
4.8163787162
 31
0.0
 11
4.5157674153
 21
4.8087916699
 31
0.0
 11
4.508180369
 21
4.7974368527
 31
0.0
 11
4.5055161526
 21
4.7840429326
 31
0.0
  0
SPLINE
  5
51E
100
AcDbEntity
  8
0
100
AcDbSpline
 62
7
  6
CONTINUOUS
 70
0
 71
3
 72
15
 73
11
 74
9
 42
0.0000001
 43
0.0000001
 44
0.0000000001
 12
0.0
 22
-0.1099409465
 32
0.0
 13
-0.0
 23
0.1099409465
 33
0.0
 40
0.0
 40
0.0
 40
0.0
 40
0.0
 40
0.125
 40
0.25
 40
0.375
 40
0.5
 40
0.625
 40
0.75
 40
0.875
 40
1.0
 40
1.0
 40
1.0
 40
1.0
 10
4.5755161526
 20
3.7490429326
 30
0.0
 10
4.5755161526
 20
3.7444620598
 30
0.0
 10
4.5736937682
 20
3.7353003143
 30
0.0
 10
4.5659092002
 20
3.723649885
 30
0.0
 10
4.554258771
 20
3.7158653171
 30
0.0
 10
4.5405161526
 20
3.7131317403
 30
0.0
 10
4.5267735343
 20
3.7158653171
 30
0.0
 10
4.5151231051
 20
3.723649885
 30
0.0
 10
4.5073385371
 20
3.7353003143
 30
0.0
 10
4.5055161526
 20
3.7444620598
 30
0.0
 10
4.5055161526
 20
3.7490429326
 30
0.0
 11
4.5755161526
 21
3.7490429326
 31
0.0
 11
4.5728519363
 21
3.7356490125
 31
0.0
 11
4.56526489
 21
3.7242941953
 31
0.0
 11
4.5539100728
 21
3.716707149
 31
0.0
 11
4.5405161526
 21
3.7140429326
 31
0.0
 11
4.5271222325
 21
3.716707149
 31
0.0
 11
4.5157674153
 21
3.7242941953
 31
0.0
 11
4.508180369
 21
3.7356490125
 31
0.0
 11
4.5055161526
 21
3.7490429326
 31
0.0
  0
SPLINE
  5
51F
100
AcDbEntity
  8
0
100
AcDbSpline
 62
7
  6
CONTINUOUS
 70
0
 71
3
 72
14
 73
10
 74
8
 42
0.0000001
 43
0.0000001
 44
0.0000000001
 12
-0.1085118701
 22
0.0
 32
0.0
 13
-0.0000340041
 23
-0.1090536841
 33
0.0
 40
0.0
 40
0.0
 40
0.0
 40
0.0
 40
0.1715768663
 40
0.341607352
 40
0.5070332819
 40
0.6635337578
 40
0.8075580357
 40
0.93849004
 40
1.0
 40
1.0
 40
1.0
 40
1.0
 10
5.9085161526
 20
4.063054651
 30
0.0
 10
5.9023101104
 20
4.063054651
 30
0.0
 10
5.889916305
 20
4.0617820409
 30
0.0
 10
5.8723203385
 20
4.056185335
 30
0.0
 10
5.8567238333
 20
4.0473425214
 30
0.0
 10
5.8440826713
 20
4.0359828787
 30
0.0
 10
5.8351374314
 20
4.0229950657
 30
0.0
 10
5.8311170552
 20
4.0113203413
 30
0.0
 10
5.8305204479
 20
4.0043207937
 30
0.0
 10
5.8305197507
 20
4.0020848311
 30
0.0
 11
5.9085161526
 21
4.063054651
 31
0.0
 11
5.8899961087
 21
4.0611460879
 31
0.0
 11
5.8724191567
 21
4.0555366953
 31
0.0
 11
5.8568296169
 21
4.0466376473
 31
0.0
 11
5.8442655568
 21
4.035212319
 31
0.0
 11
5.8355286546
 21
4.0222542455
 31
0.0
 11
5.8310758005
 21
4.0087623899
 31
0.0
 11
5.8305197507
 21
4.0020848311
 31
0.0
  0
SPLINE
  5
520
100
AcDbEntity
  8
0
100
AcDbSpline
 62
7
  6
CONTINUOUS
 70
0
 71
3
 72
14
 73
10
 74
8
 42
0.0000001
 43
0.0000001
 44
0.0000000001
 12
0.1085118852
 22
0.0
 32
0.0
 13
0.000033958
 23
0.1090537098
 33
0.0
 40
0.0
 40
0.0
 40
0.0
 40
0.0
 40
0.1715751794
 40
0.3416037877
 40
0.5070273994
 40
0.6635274485
 40
0.807554545
 40
0.9384893611
 40
1.0
 40
1.0
 40
1.0
 40
1.0
 10
5.9085161526
 20
4.4700312142
 30
0.0
 10
5.9147221347
 20
4.4700312142
 30
0.0
 10
5.9271158118
 20
4.4713037987
 30
0.0
 10
5.9447115916
 20
4.4769003844
 30
0.0
 10
5.9603080008
 20
4.4857430217
 30
0.0
 10
5.9729492619
 20
4.4971025571
 30
0.0
 10
5.9818947255
 20
4.5100904542
 30
0.0
 10
5.9859152363
 20
4.5217653862
 30
0.0
 10
5.9865118581
 20
4.5287650631
 30
0.0
 10
5.9865125543
 20
4.5310010509
 30
0.0
 11
5.9085161526
 21
4.4700312142
 31
0.0
 11
5.927036019
 21
4.4719397402
 31
0.0
 11
5.9446127972
 21
4.4775490158
 31
0.0
 11
5.9602021747
 21
4.4864478457
 31
0.0
 11
5.9727663029
 21
4.4978730339
 31
0.0
 11
5.9815034865
 21
4.5108312891
 31
0.0
 11
5.9859564951
 21
4.524323417
 31
0.0
 11
5.9865125543
 21
4.5310010509
 31
0.0
  0
SPLINE
  5
521
100
AcDbEntity
  8
0
100
AcDbSpline
 62
7
  6
CONTINUOUS
 70
0
 71
3
 72
14
 73
10
 74
8
 42
0.0000001
 43
0.0000001
 44
0.0000000001
 12
0.0000337781
 22
-0.1090538087
 32
0.0
 13
0.1085119429
 23
0.0
 33
0.0
 40
0.0
 40
0.0
 40
0.0
 40
0.0
 40
0.0615124291
 40
0.1924583293
 40
0.3364950367
 40
0.4929921746
 40
0.658409111
 40
0.8284332507
 40
1.0
 40
1.0
 40
1.0
 40
1.0
 10
5.830519752
 20
4.5310011152
 30
0.0
 10
5.8305204445
 20
4.5287650603
 30
0.0
 10
5.8311171124
 20
4.5217649069
 30
0.0
 10
5.8351381026
 20
4.5100892305
 30
0.0
 10
5.8440843506
 20
4.49710106
 30
0.0
 10
5.8567259443
 20
4.4857419003
 30
0.0
 10
5.8723220847
 20
4.476899834
 30
0.0
 10
5.8899172607
 20
4.4713036886
 30
0.0
 10
5.9023104722
 20
4.4700312142
 30
0.0
 10
5.9085161526
 20
4.4700312142
 30
0.0
 11
5.830519752
 21
4.5310011152
 31
0.0
 11
5.8310758328
 21
4.5243232814
 31
0.0
 11
5.8355294234
 21
4.510830071
 31
0.0
 11
5.844267589
 21
4.49787121
 31
0.0
 11
5.8568318367
 21
4.4864466095
 31
0.0
 11
5.8724207787
 21
4.4775484585
 31
0.0
 11
5.8899971768
 21
4.4719395545
 31
0.0
 11
5.9085161526
 21
4.4700312142
 31
0.0
  0
SPLINE
  5
522
100
AcDbEntity
  8
0
100
AcDbSpline
 62
7
  6
CONTINUOUS
 70
0
 71
3
 72
11
 73
7
 74
5
 42
0.0000001
 43
0.0000001
 44
0.0000000001
 12
-0.043579131
 22
0.0164923701
 32
0.0
 13
-0.04653686
 23
0.0
 33
0.0
 40
0.0
 40
0.0
 40
0.0
 40
0.0
 40
0.0384656706
 40
0.3421954583
 40
0.6660226548
 40
1.0
 40
1.0
 40
1.0
 40
1.0
 10
5.9542421193
 20
4.4831393549
 30
0.0
 10
5.9536833525
 20
4.4833508182
 30
0.0
 10
5.9486931976
 20
4.4851802694
 30
0.0
 10
5.9386910032
 20
4.4878838352
 30
0.0
 10
5.9239081482
 20
4.4900640692
 30
0.0
 10
5.913696905
 20
4.4905425161
 30
0.0
 10
5.9085161526
 20
4.4905425161
 30
0.0
 11
5.9542421193
 21
4.4831393549
 31
0.0
 11
5.9525596
 21
4.4837565453
 31
0.0
 11
5.9389404254
 21
4.4875388547
 31
0.0
 11
5.9240404489
 21
4.4897955366
 31
0.0
 11
5.9085161526
 21
4.4905425161
 31
0.0
  0
SPLINE
  5
523
100
AcDbEntity
  8
0
100
AcDbSpline
 62
7
  6
CONTINUOUS
 70
0
 71
3
 72
9
 73
5
 74
3
 42
0.0000001
 43
0.0000001
 44
0.0000000001
 12
0.0104685629
 22
-0.0039617681
 32
0.0
 13
0.0108461922
 23
-0.0027423714
 33
0.0
 40
0.0
 40
0.0
 40
0.0
 40
0.0
 40
0.1603679725
 40
1.0
 40
1.0
 40
1.0
 40
1.0
 10
5.8627903316
 20
4.0499464546
 30
0.0
 10
5.863349939
 20
4.0497346744
 30
0.0
 10
5.8668530257
 20
4.0484504705
 30
0.0
 10
5.8704294625
 20
4.0473832752
 30
0.0
 10
5.873465066
 20
4.0466157476
 30
0.0
 11
5.8627903316
 21
4.0499464546
 31
0.0
 11
5.8644753912
 21
4.049328365
 31
0.0
 11
5.873465066
 21
4.0466157476
 31
0.0
  0
SPLINE
  5
524
100
AcDbEntity
  8
0
100
AcDbSpline
 62
7
  6
CONTINUOUS
 70
0
 71
3
 72
10
 73
6
 74
4
 42
0.0000001
 43
0.0000001
 44
0.0000000001
 12
0.0236173289
 22
-0.0059714493
 32
0.0
 13
0.0242982162
 23
-0.0016608952
 33
0.0
 40
0.0
 40
0.0
 40
0.0
 40
0.0
 40
0.1950324303
 40
0.8140797733
 40
1.0
 40
1.0
 40
1.0
 40
1.0
 10
5.873465066
 20
4.0466157476
 30
0.0
 10
5.8750004477
 20
4.0462275388
 30
0.0
 10
5.8814441757
 20
4.0447443685
 30
0.0
 10
5.8894860226
 20
4.0435584115
 30
0.0
 10
5.8959995987
 20
4.0430188355
 30
0.0
 10
5.897505442
 20
4.0429159041
 30
0.0
 11
5.873465066
 21
4.0466157476
 31
0.0
 11
5.8780938588
 21
4.0455465946
 31
0.0
 11
5.8929929099
 21
4.0432902256
 31
0.0
 11
5.897505442
 21
4.0429159041
 31
0.0
  0
SPLINE
  5
525
100
AcDbEntity
  8
0
100
AcDbSpline
 62
7
  6
CONTINUOUS
 70
0
 71
3
 72
8
 73
4
 74
2
 42
0.0000001
 43
0.0000001
 44
0.0000000001
 12
0.0109956249
 22
-0.0007516017
 32
0.0
 13
0.011015503
 23
0.0
 33
0.0
 40
0.0
 40
0.0
 40
0.0
 40
0.0
 40
1.0
 40
1.0
 40
1.0
 40
1.0
 10
5.897505442
 20
4.0429159041
 30
0.0
 10
5.9011706503
 20
4.0426653702
 30
0.0
 10
5.9048443183
 20
4.0425433491
 30
0.0
 10
5.9085161526
 20
4.0425433491
 30
0.0
 11
5.897505442
 21
4.0429159041
 31
0.0
 11
5.9085161526
 21
4.0425433491
 31
0.0
  0
SPLINE
  5
526
100
AcDbEntity
  8
0
100
AcDbSpline
 62
7
  6
CONTINUOUS
 70
0
 71
3
 72
14
 73
10
 74
8
 42
0.0000001
 43
0.0000001
 44
0.0000000001
 12
-0.000033825
 22
0.1090537824
 32
0.0
 13
-0.1085119279
 23
0.0
 33
0.0
 40
0.0
 40
0.0
 40
0.0
 40
0.0
 40
0.0615119152
 40
0.192455045
 40
0.3364892945
 40
0.4929861135
 40
0.6584056127
 40
0.8284316284
 40
1.0
 40
1.0
 40
1.0
 40
1.0
 10
5.9865125536
 20
4.0020847668
 30
0.0
 10
5.9865118601
 20
4.0043208025
 30
0.0
 10
5.9859152044
 20
4.0113208341
 30
0.0
 10
5.9818943372
 20
4.0229963209
 30
0.0
 10
5.9729483102
 20
4.0359843913
 30
0.0
 10
5.9603068181
 20
4.0473436506
 30
0.0
 10
5.9447105976
 20
4.0561858855
 30
0.0
 10
5.9271152283
 20
4.0617821518
 30
0.0
 10
5.9147218909
 20
4.063054651
 30
0.0
 10
5.9085161526
 20
4.063054651
 30
0.0
 11
5.9865125536
 21
4.0020847668
 31
0.0
 11
5.9859564792
 21
4.0087625433
 31
0.0
 11
5.981503036
 21
4.0222554837
 31
0.0
 11
5.9727651213
 21
4.0352141896
 31
0.0
 11
5.960200998
 21
4.0466388721
 31
0.0
 11
5.9446118714
 21
4.0555372555
 31
0.0
 11
5.9270352991
 21
4.0611462751
 31
0.0
 11
5.9085161526
 21
4.063054651
 31
0.0
  0
SPLINE
  5
527
100
AcDbEntity
  8
0
100
AcDbSpline
 62
7
  6
CONTINUOUS
 70
0
 71
3
 72
22
 73
18
 74
16
 42
0.0000001
 43
0.0000001
 44
0.0000000001
 12
0.1538254178
 22
0.0320812678
 32
0.0
 13
0.1538254178
 23
-0.0320812676
 33
0.0
 40
0.0
 40
0.0
 40
0.0
 40
0.0
 40
0.0110671742
 40
0.0437507045
 40
0.0964532505
 40
0.1664062976
 40
0.2509986095
 40
0.3459538765
 40
0.4481201715
 40
0.5520569277
 40
0.6542454463
 40
0.7492441615
 40
0.8338037691
 40
0.9037172503
 40
0.9563282066
 40
0.9889596558
 40
1.0
 40
1.0
 40
1.0
 40
1.0
 10
5.8305161526
 20
3.8925429326
 30
0.0
 10
5.8310836235
 20
3.8926612823
 30
0.0
 10
5.833327927
 20
3.8931244617
 30
0.0
 10
5.8382841515
 20
3.8941045523
 30
0.0
 10
5.8462914305
 20
3.8955516627
 30
0.0
 10
5.8570186228
 20
3.8972237753
 30
0.0
 10
5.8699903898
 20
3.8988320678
 30
0.0
 10
5.8846954417
 20
3.9001004921
 30
0.0
 10
5.9004540389
 20
3.9007976972
 30
0.0
 10
5.916607262
 20
3.9007970818
 30
0.0
 10
5.9323692424
 20
3.9000984554
 30
0.0
 10
5.9470759008
 20
3.8988285135
 30
0.0
 10
5.960046017
 20
3.8972192024
 30
0.0
 10
5.9707645995
 20
3.8955475982
 30
0.0
 10
5.978762361
 20
3.8941018083
 30
0.0
 10
5.9837098043
 20
3.8931233507
 30
0.0
 10
5.9859500575
 20
3.8926609953
 30
0.0
 10
5.9865161526
 20
3.8925429326
 30
0.0
 11
5.8305161526
 21
3.8925429326
 31
0.0
 11
5.8322193053
 21
3.8928944227
 31
0.0
 11
5.8372575108
 21
3.8938905557
 31
0.0
 11
5.8454070434
 21
3.8953627073
 31
0.0
 11
5.8562681971
 21
3.897054301
 31
0.0
 11
5.8694598848
 21
3.8986878089
 31
0.0
 11
5.8843256903
 21
3.8999680037
 31
0.0
 11
5.9003639957
 21
3.9006762114
 31
0.0
 11
5.9166961317
 21
3.9006755904
 31
0.0
 11
5.9327378688
 21
3.89996594
 31
0.0
 11
5.9476103574
 21
3.8986837791
 31
0.0
 11
5.9607967934
 21
3.8970496777
 31
0.0
 11
5.9716516753
 21
3.8953582155
 31
0.0
 11
5.9797869736
 21
3.8938882266
 31
0.0
 11
5.9848171308
 21
3.8928935792
 31
0.0
 11
5.9865161526
 21
3.8925429326
 31
0.0
  0
SPLINE
  5
528
100
AcDbEntity
  8
0
100
AcDbSpline
 62
7
  6
CONTINUOUS
 70
0
 71
3
 72
22
 73
18
 74
16
 42
0.0000001
 43
0.0000001
 44
0.0000000001
 12
-0.1538254178
 22
-0.0320812678
 32
0.0
 13
-0.1538254178
 23
0.0320812676
 33
0.0
 40
0.0
 40
0.0
 40
0.0
 40
0.0
 40
0.0110671742
 40
0.0437507045
 40
0.0964532505
 40
0.1664062976
 40
0.2509986095
 40
0.3459538765
 40
0.4481201715
 40
0.5520569277
 40
0.6542454463
 40
0.7492441615
 40
0.8338037691
 40
0.9037172503
 40
0.9563282066
 40
0.9889596558
 40
1.0
 40
1.0
 40
1.0
 40
1.0
 10
5.9865161526
 20
4.6405429326
 30
0.0
 10
5.9859486817
 20
4.6404245829
 30
0.0
 10
5.9837043783
 20
4.6399614035
 30
0.0
 10
5.9787481538
 20
4.6389813129
 30
0.0
 10
5.9707408748
 20
4.6375342025
 30
0.0
 10
5.9600136825
 20
4.6358620899
 30
0.0
 10
5.9470419155
 20
4.6342537974
 30
0.0
 10
5.9323368636
 20
4.6329853731
 30
0.0
 10
5.9165782664
 20
4.632288168
 30
0.0
 10
5.9004250433
 20
4.6322887834
 30
0.0
 10
5.8846630629
 20
4.6329874097
 30
0.0
 10
5.8699564045
 20
4.6342573517
 30
0.0
 10
5.8569862883
 20
4.6358666628
 30
0.0
 10
5.8462677058
 20
4.637538267
 30
0.0
 10
5.8382699443
 20
4.6389840569
 30
0.0
 10
5.833322501
 20
4.6399625145
 30
0.0
 10
5.8310822478
 20
4.6404248699
 30
0.0
 10
5.8305161526
 20
4.6405429326
 30
0.0
 11
5.9865161526
 21
4.6405429326
 31
0.0
 11
5.984813
 21
4.6401914425
 31
0.0
 11
5.9797747945
 21
4.6391953095
 31
0.0
 11
5.9716252619
 21
4.6377231579
 31
0.0
 11
5.9607641082
 21
4.6360315642
 31
0.0
 11
5.9475724205
 21
4.6343980563
 31
0.0
 11
5.932706615
 21
4.6331178615
 31
0.0
 11
5.9166683096
 21
4.6324096538
 31
0.0
 11
5.9003361736
 21
4.6324102748
 31
0.0
 11
5.8842944365
 21
4.6331199252
 31
0.0
 11
5.8694219479
 21
4.6344020861
 31
0.0
 11
5.8562355119
 21
4.6360361875
 31
0.0
 11
5.8453806299
 21
4.6377276497
 31
0.0
 11
5.8372453316
 21
4.6391976386
 31
0.0
 11
5.8322151745
 21
4.6401922859
 31
0.0
 11
5.8305161526
 21
4.6405429326
 31
0.0
  0
SPLINE
  5
529
100
AcDbEntity
  8
0
100
AcDbSpline
 62
7
  6
CONTINUOUS
 70
0
 71
3
 72
8
 73
4
 74
2
 42
0.0000001
 43
0.0000001
 44
0.0000000001
 12
-0.0110171377
 22
0.0
 32
0.0
 13
-0.010997757
 23
-0.0007519406
 33
0.0
 40
0.0
 40
0.0
 40
0.0
 40
0.0
 40
1.0
 40
1.0
 40
1.0
 40
1.0
 10
5.9085161526
 20
4.4905425161
 30
0.0
 10
5.9048437734
 20
4.4905425161
 30
0.0
 10
5.9011694475
 20
4.4904206095
 30
0.0
 10
5.8975035285
 20
4.4901699627
 30
0.0
 11
5.9085161526
 21
4.4905425161
 31
0.0
 11
5.8975035285
 21
4.4901699627
 31
0.0
  0
SPLINE
  5
52A
100
AcDbEntity
  8
0
100
AcDbSpline
 62
7
  6
CONTINUOUS
 70
0
 71
3
 72
10
 73
6
 74
4
 42
0.0000001
 43
0.0000001
 44
0.0000000001
 12
-0.0242884809
 22
-0.0016606563
 32
0.0
 13
-0.0236112246
 23
-0.0059661001
 33
0.0
 40
0.0
 40
0.0
 40
0.0
 40
0.0
 40
0.2186462599
 40
0.8671568614
 40
1.0
 40
1.0
 40
1.0
 40
1.0
 10
5.8975035285
 20
4.4901699627
 30
0.0
 10
5.8957333334
 20
4.4900489306
 30
0.0
 10
5.8887204668
 20
4.4894498594
 30
0.0
 10
5.8806899745
 20
4.4882005491
 30
0.0
 10
5.8745179158
 20
4.4867359821
 30
0.0
 10
5.8734723861
 20
4.486471797
 30
0.0
 11
5.8975035285
 21
4.4901699627
 31
0.0
 11
5.8921999895
 21
4.489716041
 31
0.0
 11
5.8766195868
 21
4.4872198657
 31
0.0
 11
5.8734723861
 21
4.486471797
 31
0.0
  0
SPLINE
  5
52B
100
AcDbEntity
  8
0
100
AcDbSpline
 62
7
  6
CONTINUOUS
 70
0
 71
3
 72
8
 73
4
 74
2
 42
0.0000001
 43
0.0000001
 44
0.0000000001
 12
-0.0109436535
 22
-0.0027652497
 32
0.0
 13
-0.0105551826
 23
-0.0040102088
 33
0.0
 40
0.0
 40
0.0
 40
0.0
 40
0.0
 40
1.0
 40
1.0
 40
1.0
 40
1.0
 10
5.8734723861
 20
4.486471797
 30
0.0
 10
5.8698245016
 20
4.4855500471
 30
0.0
 10
5.8662231553
 20
4.4844434524
 30
0.0
 10
5.8627047611
 20
4.4831067162
 30
0.0
 11
5.8734723861
 21
4.486471797
 31
0.0
 11
5.8627047611
 21
4.4831067162
 31
0.0
  0
SPLINE
  5
52C
100
AcDbEntity
  8
0
100
AcDbSpline
 62
7
  6
CONTINUOUS
 70
0
 71
3
 72
11
 73
7
 74
5
 42
0.0000001
 43
0.0000001
 44
0.0000000001
 12
0.0465349409
 22
0.0
 32
0.0
 13
0.0435777007
 23
0.0164905844
 33
0.0
 40
0.0
 40
0.0
 40
0.0
 40
0.0
 40
0.3336517371
 40
0.6571467362
 40
0.9606222485
 40
1.0
 40
1.0
 40
1.0
 40
1.0
 10
5.9085161526
 20
4.0425433491
 30
0.0
 10
5.9136916406
 20
4.0425433491
 30
0.0
 10
5.9238922362
 20
4.0430208231
 30
0.0
 10
5.9386607427
 20
4.0451964889
 30
0.0
 10
5.9486682332
 20
4.0478978178
 30
0.0
 10
5.9536682863
 20
4.0497293517
 30
0.0
 10
5.9542402836
 20
4.0499458057
 30
0.0
 11
5.9085161526
 21
4.0425433491
 31
0.0
 11
5.9240247114
 21
4.0432887914
 31
0.0
 11
5.938909185
 21
4.0455404491
 31
0.0
 11
5.9525177771
 21
4.0493144628
 31
0.0
 11
5.9542402836
 21
4.0499458057
 31
0.0
  0
SPLINE
  5
52D
100
AcDbEntity
  8
0
100
AcDbSpline
 62
7
  6
CONTINUOUS
 70
0
 71
3
 72
14
 73
10
 74
8
 42
0.0000001
 43
0.0000001
 44
0.0000000001
 12
0.1019147199
 22
0.0
 32
0.0
 13
-0.0000317686
 23
0.1024236313
 33
0.0
 40
0.0
 40
0.0
 40
0.0
 40
0.0
 40
0.1821521891
 40
0.3585163812
 40
0.5234218272
 40
0.6730875717
 40
0.8084332404
 40
0.9360547239
 40
1.0
 40
1.0
 40
1.0
 40
1.0
 10
5.9085161526
 20
3.9527459931
 30
0.0
 10
5.9147041491
 20
3.9527459931
 30
0.0
 10
5.9269002877
 20
3.9535434522
 30
0.0
 10
5.9443729983
 20
3.9571729308
 30
0.0
 10
5.9600034125
 20
3.963266362
 30
0.0
 10
5.9728571826
 20
3.9718188791
 30
0.0
 10
5.9820474876
 20
3.9827166666
 30
0.0
 10
5.9859726336
 20
3.9933649716
 30
0.0
 10
5.9865132308
 20
3.9999015977
 30
0.0
 10
5.9865125536
 20
4.0020847668
 30
0.0
 11
5.9085161526
 21
3.9527459931
 31
0.0
 11
5.9270382654
 21
3.9539922025
 31
0.0
 11
5.9446148158
 21
3.9577516451
 31
0.0
 11
5.9602060345
 21
3.9640258271
 31
0.0
 11
5.9727714082
 21
3.9726727768
 31
0.0
 11
5.9815044133
 21
3.9833499122
 31
0.0
 11
5.9859562779
 21
3.9955708019
 31
0.0
 11
5.9865125536
 21
4.0020847668
 31
0.0
  0
SPLINE
  5
52E
100
AcDbEntity
  8
0
100
AcDbSpline
 62
7
  6
CONTINUOUS
 70
0
 71
3
 72
14
 73
10
 74
8
 42
0.0000001
 43
0.0000001
 44
0.0000000001
 12
0.0000318935
 22
0.102423651
 32
0.0
 13
-0.1019147673
 23
0.0
 33
0.0
 40
0.0
 40
0.0
 40
0.0
 40
0.0
 40
0.0639434222
 40
0.1915648602
 40
0.3269101533
 40
0.4765761094
 40
0.641481986
 40
0.817846707
 40
1.0
 40
1.0
 40
1.0
 40
1.0
 10
5.9865125543
 20
4.5310010509
 30
0.0
 10
5.9865132341
 20
4.5331841571
 30
0.0
 10
5.9859726654
 20
4.5397207209
 30
0.0
 10
5.9820476146
 20
4.5503689834
 30
0.0
 10
5.9728573716
 20
4.5612668242
 30
0.0
 10
5.9600036195
 20
4.5698194029
 30
0.0
 10
5.9443731733
 20
4.5759128875
 30
0.0
 10
5.9269003896
 20
4.5795424039
 30
0.0
 10
5.9147041895
 20
4.5803398721
 30
0.0
 10
5.9085161526
 20
4.5803398721
 30
0.0
 11
5.9865125543
 21
4.5310010509
 31
0.0
 11
5.9859563184
 21
4.5375148314
 31
0.0
 11
5.9815045299
 21
4.5497357503
 31
0.0
 11
5.9727716051
 21
4.5604129102
 31
0.0
 11
5.9602062434
 21
4.569059928
 31
0.0
 11
5.944614992
 21
4.5753341673
 31
0.0
 11
5.9270383857
 21
4.5790936462
 31
0.0
 11
5.9085161526
 21
4.5803398721
 31
0.0
  0
SPLINE
  5
52F
100
AcDbEntity
  8
0
100
AcDbSpline
 62
7
  6
CONTINUOUS
 70
0
 71
3
 72
14
 73
10
 74
8
 42
0.0000001
 43
0.0000001
 44
0.0000000001
 12
-0.1019147034
 22
0.0
 32
0.0
 13
0.0000317245
 23
-0.1024236251
 33
0.0
 40
0.0
 40
0.0
 40
0.0
 40
0.0
 40
0.182152011
 40
0.3585160738
 40
0.5234214205
 40
0.6730871351
 40
0.8084327239
 40
0.9360540643
 40
1.0
 40
1.0
 40
1.0
 40
1.0
 10
5.9085161526
 20
4.5803398721
 30
0.0
 10
5.9023281633
 20
4.5803398721
 30
0.0
 10
5.8901320371
 20
4.5795424147
 30
0.0
 10
5.8726593423
 20
4.5759129437
 30
0.0
 10
5.8570289362
 20
4.5698195242
 30
0.0
 10
5.8441751674
 20
4.5612670235
 30
0.0
 10
5.8349848552
 20
4.5503692578
 30
0.0
 10
5.8310596825
 20
4.5397209495
 30
0.0
 10
5.8305190757
 20
4.5331843067
 30
0.0
 10
5.830519752
 20
4.5310011152
 30
0.0
 11
5.9085161526
 21
4.5803398721
 31
0.0
 11
5.8899940609
 21
4.5790936656
 31
0.0
 11
5.8724175253
 21
4.5753342308
 31
0.0
 11
5.8568263153
 21
4.5690600615
 31
0.0
 11
5.8442609386
 21
4.560413126
 31
0.0
 11
5.8355279252
 21
4.5497360107
 31
0.0
 11
5.8310760418
 21
4.5375151457
 31
0.0
 11
5.830519752
 21
4.5310011152
 31
0.0
  0
SPLINE
  5
530
100
AcDbEntity
  8
0
100
AcDbSpline
 62
7
  6
CONTINUOUS
 70
0
 71
3
 72
14
 73
10
 74
8
 42
0.0000001
 43
0.0000001
 44
0.0000000001
 12
-0.0000319368
 22
-0.1024236578
 32
0.0
 13
0.1019147839
 23
-0.0
 33
0.0
 40
0.0
 40
0.0
 40
0.0
 40
0.0
 40
0.0639429372
 40
0.1915644761
 40
0.3269098347
 40
0.4765758151
 40
0.6414817638
 40
0.8178465804
 40
1.0
 40
1.0
 40
1.0
 40
1.0
 10
5.8305197507
 20
4.0020848311
 30
0.0
 10
5.83051907
 20
3.9999017412
 30
0.0
 10
5.8310596309
 20
3.9933651896
 30
0.0
 10
5.8349846611
 20
3.9827169285
 30
0.0
 10
5.8441748985
 20
3.9718190704
 30
0.0
 10
5.8570286521
 20
3.9632664785
 30
0.0
 10
5.872659105
 20
3.9571729848
 30
0.0
 10
5.8901319008
 20
3.9535434626
 30
0.0
 10
5.9023281105
 20
3.9527459931
 30
0.0
 10
5.9085161526
 20
3.9527459931
 30
0.0
 11
5.8305197507
 21
4.0020848311
 31
0.0
 11
5.8310759756
 21
3.9955710985
 31
0.0
 11
5.8355277489
 21
3.9833501608
 31
0.0
 11
5.8442606677
 21
3.9726729844
 31
0.0
 11
5.8568260275
 21
3.9640259553
 31
0.0
 11
5.8724172858
 21
3.9577517061
 31
0.0
 11
5.8899939037
 21
3.9539922211
 31
0.0
 11
5.9085161526
 21
3.9527459931
 31
0.0
  0
SPLINE
  5
531
100
AcDbEntity
  8
127-312_FEATURES
100
AcDbSpline
 62
7
  6
CONTINUOUS
 70
0
 71
3
 72
23
 73
19
 74
17
 42
0.0000001
 43
0.0000001
 44
0.0000000001
 12
-0.2150432228
 22
-0.0514132057
 32
0.0
 13
-0.215043211
 23
0.0514132057
 33
0.0
 40
0.0
 40
0.0
 40
0.0
 40
0.0
 40
0.0096275831
 40
0.0381370049
 40
0.0841461054
 40
0.1455755513
 40
0.2201251017
 40
0.3053921771
 40
0.3988299065
 40
0.4964832393
 40
0.5941226985
 40
0.687983076
 40
0.7746404151
 40
0.8508782924
 40
0.9138043546
 40
0.9608997796
 40
0.9901182206
 40
1.0
 40
1.0
 40
1.0
 40
1.0
 10
4.9710161526
 20
4.7245429326
 30
0.0
 10
4.9703260371
 20
4.7243779376
 30
0.0
 10
4.9675910136
 20
4.7237298659
 30
0.0
 10
4.9615449906
 20
4.7223484462
 30
0.0
 10
4.9517421047
 20
4.7202728503
 30
0.0
 10
4.9385565372
 20
4.7178053904
 30
0.0
 10
4.9224403711
 20
4.7153024885
 30
0.0
 10
4.9038965988
 20
4.7131321695
 30
0.0
 10
4.8835761462
 20
4.7116408695
 30
0.0
 10
4.8622951565
 20
4.7110862528
 30
0.0
 10
4.8409811996
 20
4.7115670678
 30
0.0
 10
4.8205234672
 20
4.7129995253
 30
0.0
 10
4.8017169728
 20
4.7151466348
 30
0.0
 10
4.785262226
 20
4.7176679604
 30
0.0
 10
4.7717639613
 20
4.7201764991
 30
0.0
 10
4.7617222836
 20
4.7222958165
 30
0.0
 10
4.7555286262
 20
4.7237092905
 30
0.0
 10
4.7527244892
 20
4.7243735813
 30
0.0
 10
4.7520161526
 20
4.7245429326
 30
0.0
 11
4.9710161526
 21
4.7245429326
 31
0.0
 11
4.9689448087
 21
4.7240521305
 31
0.0
 11
4.9627995748
 21
4.7226482731
 31
0.0
 11
4.9528472263
 21
4.7205419579
 31
0.0
 11
4.9394963093
 21
4.7180455957
 31
0.0
 11
4.9232078779
 21
4.7155191223
 31
0.0
 11
4.9044823599
 21
4.7133312997
 31
0.0
 11
4.8838780781
 21
4.7118224018
 31
0.0
 11
4.8622938273
 21
4.7112612196
 31
0.0
 11
4.8407108149
 21
4.7117469443
 31
0.0
 11
4.8200083778
 21
4.713193406
 31
0.0
 11
4.8009713203
 21
4.7153629708
 31
0.0
 11
4.7843087822
 21
4.7179127677
 31
0.0
 11
4.7706293959
 21
4.7204527833
 31
0.0
 11
4.7604406495
 21
4.7226021473
 31
0.0
 11
4.754142213
 21
4.7240392855
 31
0.0
 11
4.7520161526
 21
4.7245429326
 31
0.0
  0
SPLINE
  5
532
100
AcDbEntity
  8
127-312_FEATURES
100
AcDbSpline
 62
7
  6
CONTINUOUS
 70
0
 71
3
 72
23
 73
19
 74
17
 42
0.0000001
 43
0.0000001
 44
0.0000000001
 12
0.2150432324
 22
0.0514132083
 32
0.0
 13
0.2150432227
 23
-0.0514132084
 33
0.0
 40
0.0
 40
0.0
 40
0.0
 40
0.0
 40
0.0096550373
 40
0.0382407912
 40
0.0843667537
 40
0.1459717666
 40
0.2207310726
 40
0.3061613832
 40
0.3995955407
 40
0.4971473082
 40
0.5946821121
 40
0.6884444834
 40
0.7749891965
 40
0.8511162612
 40
0.9139447163
 40
0.9609651146
 40
0.9901351271
 40
1.0
 40
1.0
 40
1.0
 40
1.0
 10
4.7520161526
 20
3.8085429326
 30
0.0
 10
4.7527082361
 20
3.8087083981
 30
0.0
 10
4.7554507067
 20
3.8093582178
 30
0.0
 10
4.7615126232
 20
3.8107430918
 30
0.0
 10
4.7713422494
 20
3.8128236288
 30
0.0
 10
4.7845645526
 20
3.8152960815
 30
0.0
 10
4.8007212771
 20
3.8178014574
 30
0.0
 10
4.8192928353
 20
3.8199688534
 30
0.0
 10
4.8396181218
 20
3.8214528219
 30
0.0
 10
4.8608838281
 20
3.8219994757
 30
0.0
 10
4.8821751952
 20
3.821512691
 30
0.0
 10
4.902609365
 20
3.8200767449
 30
0.0
 10
4.9213918845
 20
3.8179286901
 30
0.0
 10
4.9378228863
 20
3.8154087221
 30
0.0
 10
4.9513003928
 20
3.8129028633
 30
0.0
 10
4.9613260319
 20
3.8107864647
 30
0.0
 10
4.9675095787
 20
3.8093751849
 30
0.0
 10
4.970309028
 20
3.8087119942
 30
0.0
 10
4.9710161526
 20
3.8085429326
 30
0.0
 11
4.7520161526
 21
3.8085429326
 31
0.0
 11
4.7540934062
 21
3.8090351223
 31
0.0
 11
4.7602551333
 21
3.8104425664
 31
0.0
 11
4.7702329101
 21
3.812553527
 31
0.0
 11
4.7836223311
 21
3.8150551726
 31
0.0
 11
4.7999571805
 21
3.8175849646
 31
0.0
 11
4.8187192661
 21
3.8197708168
 31
0.0
 11
4.8393233262
 21
3.8212719235
 31
0.0
 11
4.8608853266
 21
3.8218248782
 31
0.0
 11
4.8824450579
 21
3.8213331292
 31
0.0
 11
4.9031255173
 21
3.8198830069
 31
0.0
 11
4.9221374137
 21
3.8177125779
 31
0.0
 11
4.9387753869
 21
3.8151642232
 31
0.0
 11
4.9524333399
 21
3.8126269878
 31
0.0
 11
4.9626057591
 21
3.810480592
 31
0.0
 11
4.9688937314
 21
3.8090457256
 31
0.0
 11
4.9710161526
 21
3.8085429326
 31
0.0
  0
SPLINE
  5
533
100
AcDbEntity
  8
0
100
AcDbSpline
 62
7
  6
CONTINUOUS
 70
0
 71
3
 72
15
 73
11
 74
9
 42
0.0000001
 43
0.0000001
 44
0.0000000001
 12
-0.144303637
 22
0.2708573861
 32
0.0
 13
0.144303637
 23
0.2708573861
 33
0.0
 40
0.0
 40
0.0
 40
0.0
 40
0.0
 40
0.1355060615
 40
0.2616268072
 40
0.3821382325
 40
0.5000411188
 40
0.6179405518
 40
0.7384429083
 40
0.8645194725
 40
1.0
 40
1.0
 40
1.0
 40
1.0
 10
3.7511268239
 20
3.6331576231
 30
0.0
 10
3.7446088181
 20
3.6453918957
 30
0.0
 10
3.7329755531
 20
3.6695468765
 30
0.0
 10
3.7197675708
 20
3.7064293053
 30
0.0
 10
3.7116711009
 20
3.7429484418
 30
0.0
 10
3.7089287056
 20
3.7794302743
 30
0.0
 10
3.7116747354
 20
3.815910879
 30
0.0
 10
3.7197729649
 20
3.8524236251
 30
0.0
 10
3.7329797061
 20
3.8892978308
 30
0.0
 10
3.7446100463
 20
3.9134462749
 30
0.0
 10
3.7511268239
 20
3.9256782421
 30
0.0
 11
3.7511268239
 21
3.6331576231
 31
0.0
 11
3.7332531736
 21
3.670707444
 31
0.0
 11
3.7203703931
 21
3.7072070091
 31
0.0
 11
3.7124972737
 21
3.7433441916
 31
0.0
 11
3.7098367536
 21
3.7794305784
 31
0.0
 11
3.712500796
 21
3.8155156426
 31
0.0
 11
3.7203763091
 21
3.8516494549
 31
0.0
 11
3.7332561893
 21
3.8881356646
 31
0.0
 11
3.7511268239
 21
3.9256782421
 31
0.0
  0
SPLINE
  5
534
100
AcDbEntity
  8
0
100
AcDbSpline
 62
7
  6
CONTINUOUS
 70
0
 71
3
 72
15
 73
11
 74
9
 42
0.0000001
 43
0.0000001
 44
0.0000000001
 12
0.144303637
 22
0.2708573861
 32
0.0
 13
-0.144303637
 23
0.2708573861
 33
0.0
 40
0.0
 40
0.0
 40
0.0
 40
0.0
 40
0.1355060615
 40
0.2616268072
 40
0.3821382325
 40
0.5000411188
 40
0.6179405518
 40
0.7384429083
 40
0.8645194725
 40
1.0
 40
1.0
 40
1.0
 40
1.0
 10
4.2130905268
 20
3.6331576231
 30
0.0
 10
4.2196085326
 20
3.6453918957
 30
0.0
 10
4.2312417976
 20
3.6695468765
 30
0.0
 10
4.2444497799
 20
3.7064293053
 30
0.0
 10
4.2525462499
 20
3.7429484418
 30
0.0
 10
4.2552886451
 20
3.7794302743
 30
0.0
 10
4.2525426153
 20
3.815910879
 30
0.0
 10
4.2444443858
 20
3.8524236251
 30
0.0
 10
4.2312376446
 20
3.8892978308
 30
0.0
 10
4.2196073044
 20
3.9134462749
 30
0.0
 10
4.2130905268
 20
3.9256782421
 30
0.0
 11
4.2130905268
 21
3.6331576231
 31
0.0
 11
4.2309641771
 21
3.670707444
 31
0.0
 11
4.2438469576
 21
3.7072070091
 31
0.0
 11
4.251720077
 21
3.7433441916
 31
0.0
 11
4.2543805971
 21
3.7794305784
 31
0.0
 11
4.2517165547
 21
3.8155156426
 31
0.0
 11
4.2438410416
 21
3.8516494549
 31
0.0
 11
4.2309611615
 21
3.8881356646
 31
0.0
 11
4.2130905268
 21
3.9256782421
 31
0.0
  0
SPLINE
  5
535
100
AcDbEntity
  8
0
100
AcDbSpline
 62
7
  6
CONTINUOUS
 70
0
 71
3
 72
15
 73
11
 74
9
 42
0.0000001
 43
0.0000001
 44
0.0000000001
 12
-0.1524995809
 22
0.5724822844
 32
0.0
 13
0.1524995809
 23
0.5724822844
 33
0.0
 40
0.0
 40
0.0
 40
0.0
 40
0.0
 40
0.1303027146
 40
0.2554233163
 40
0.3781382012
 40
0.500042666
 40
0.6219428883
 40
0.7446469008
 40
0.8697222521
 40
1.0
 40
1.0
 40
1.0
 40
1.0
 10
3.7511268239
 20
3.9740223137
 30
0.0
 10
3.7445031208
 20
3.9988876456
 30
0.0
 10
3.732731329
 20
4.0479667702
 30
0.0
 10
3.7196310909
 20
4.1215323902
 30
0.0
 10
3.7116370114
 20
4.19417048
 30
0.0
 10
3.7089387017
 20
4.2665674103
 30
0.0
 10
3.7116405949
 20
4.3389620478
 30
0.0
 10
3.7196364854
 20
4.4115879188
 30
0.0
 10
3.7327356035
 20
4.4851374168
 30
0.0
 10
3.7445043899
 20
4.534202984
 30
0.0
 10
3.7511268239
 20
4.5590635515
 30
0.0
 11
3.7511268239
 21
3.9740223137
 31
0.0
 11
3.7332531736
 21
4.0491219554
 31
0.0
 11
3.7203703931
 21
4.1221210856
 31
0.0
 11
3.7124972737
 21
4.1943954505
 31
0.0
 11
3.7098367536
 21
4.2665682241
 31
0.0
 11
3.712500796
 21
4.3387383526
 31
0.0
 11
3.7203763091
 21
4.4110059773
 31
0.0
 11
3.7332561893
 21
4.4839783966
 31
0.0
 11
3.7511268239
 21
4.5590635515
 31
0.0
  0
SPLINE
  5
536
100
AcDbEntity
  8
0
100
AcDbSpline
 62
7
  6
CONTINUOUS
 70
0
 71
3
 72
15
 73
11
 74
9
 42
0.0000001
 43
0.0000001
 44
0.0000000001
 12
0.1524995809
 22
0.5724822844
 32
0.0
 13
-0.1524995809
 23
0.5724822844
 33
0.0
 40
0.0
 40
0.0
 40
0.0
 40
0.0
 40
0.1303027146
 40
0.2554233163
 40
0.3781382012
 40
0.500042666
 40
0.6219428883
 40
0.7446469008
 40
0.8697222521
 40
1.0
 40
1.0
 40
1.0
 40
1.0
 10
4.2130905268
 20
3.9740223137
 30
0.0
 10
4.2197142299
 20
3.9988876456
 30
0.0
 10
4.2314860217
 20
4.0479667702
 30
0.0
 10
4.2445862598
 20
4.1215323902
 30
0.0
 10
4.2525803393
 20
4.19417048
 30
0.0
 10
4.255278649
 20
4.2665674103
 30
0.0
 10
4.2525767558
 20
4.3389620478
 30
0.0
 10
4.2445808654
 20
4.4115879188
 30
0.0
 10
4.2314817472
 20
4.4851374168
 30
0.0
 10
4.2197129608
 20
4.534202984
 30
0.0
 10
4.2130905268
 20
4.5590635515
 30
0.0
 11
4.2130905268
 21
3.9740223137
 31
0.0
 11
4.2309641771
 21
4.0491219554
 31
0.0
 11
4.2438469576
 21
4.1221210856
 31
0.0
 11
4.251720077
 21
4.1943954505
 31
0.0
 11
4.2543805971
 21
4.2665682241
 31
0.0
 11
4.2517165547
 21
4.3387383526
 31
0.0
 11
4.2438410416
 21
4.4110059773
 31
0.0
 11
4.2309611615
 21
4.4839783966
 31
0.0
 11
4.2130905268
 21
4.5590635515
 31
0.0
  0
SPLINE
  5
537
100
AcDbEntity
  8
0
100
AcDbSpline
 62
7
  6
CONTINUOUS
 70
0
 71
3
 72
15
 73
11
 74
9
 42
0.0000001
 43
0.0000001
 44
0.0000000001
 12
-0.144303637
 22
0.2708573861
 32
0.0
 13
0.144303637
 23
0.2708573861
 33
0.0
 40
0.0
 40
0.0
 40
0.0
 40
0.0
 40
0.1355060615
 40
0.2616268072
 40
0.3821382325
 40
0.5000411188
 40
0.6179405518
 40
0.7384429083
 40
0.8645194725
 40
1.0
 40
1.0
 40
1.0
 40
1.0
 10
3.7511268239
 20
4.6074076231
 30
0.0
 10
3.7446088181
 20
4.6196418957
 30
0.0
 10
3.7329755531
 20
4.6437968765
 30
0.0
 10
3.7197675708
 20
4.6806793053
 30
0.0
 10
3.7116711009
 20
4.7171984418
 30
0.0
 10
3.7089287056
 20
4.7536802743
 30
0.0
 10
3.7116747354
 20
4.790160879
 30
0.0
 10
3.7197729649
 20
4.8266736251
 30
0.0
 10
3.7329797061
 20
4.8635478308
 30
0.0
 10
3.7446100463
 20
4.8876962749
 30
0.0
 10
3.7511268239
 20
4.8999282421
 30
0.0
 11
3.7511268239
 21
4.6074076231
 31
0.0
 11
3.7332531736
 21
4.644957444
 31
0.0
 11
3.7203703931
 21
4.6814570091
 31
0.0
 11
3.7124972737
 21
4.7175941916
 31
0.0
 11
3.7098367536
 21
4.7536805784
 31
0.0
 11
3.712500796
 21
4.7897656426
 31
0.0
 11
3.7203763091
 21
4.8258994549
 31
0.0
 11
3.7332561893
 21
4.8623856646
 31
0.0
 11
3.7511268239
 21
4.8999282421
 31
0.0
  0
SPLINE
  5
538
100
AcDbEntity
  8
0
100
AcDbSpline
 62
7
  6
CONTINUOUS
 70
0
 71
3
 72
15
 73
11
 74
9
 42
0.0000001
 43
0.0000001
 44
0.0000000001
 12
0.144303637
 22
0.2708573861
 32
0.0
 13
-0.144303637
 23
0.2708573861
 33
0.0
 40
0.0
 40
0.0
 40
0.0
 40
0.0
 40
0.1355060615
 40
0.2616268072
 40
0.3821382325
 40
0.5000411188
 40
0.6179405518
 40
0.7384429083
 40
0.8645194725
 40
1.0
 40
1.0
 40
1.0
 40
1.0
 10
4.2130905268
 20
4.6074076231
 30
0.0
 10
4.2196085326
 20
4.6196418957
 30
0.0
 10
4.2312417976
 20
4.6437968765
 30
0.0
 10
4.2444497799
 20
4.6806793053
 30
0.0
 10
4.2525462499
 20
4.7171984418
 30
0.0
 10
4.2552886451
 20
4.7536802743
 30
0.0
 10
4.2525426153
 20
4.790160879
 30
0.0
 10
4.2444443858
 20
4.8266736251
 30
0.0
 10
4.2312376446
 20
4.8635478308
 30
0.0
 10
4.2196073044
 20
4.8876962749
 30
0.0
 10
4.2130905268
 20
4.8999282421
 30
0.0
 11
4.2130905268
 21
4.6074076231
 31
0.0
 11
4.2309641771
 21
4.644957444
 31
0.0
 11
4.2438469576
 21
4.6814570091
 31
0.0
 11
4.251720077
 21
4.7175941916
 31
0.0
 11
4.2543805971
 21
4.7536805784
 31
0.0
 11
4.2517165547
 21
4.7897656426
 31
0.0
 11
4.2438410416
 21
4.8258994549
 31
0.0
 11
4.2309611615
 21
4.8623856646
 31
0.0
 11
4.2130905268
 21
4.8999282421
 31
0.0
  0
ENDSEC
  0
SECTION
  2
OBJECTS
  0
DICTIONARY
  5
C
100
AcDbDictionary
280
0
281
1
  3
ACAD_GROUP
350
D
  3
ACAD_MLINESTYLE
350
17
  3
ACAD_LAYOUT
350
1A
  3
ACAD_PLOTSETTINGS
350
19
  3
ACAD_PLOTSTYLENAME
350
E
  0
DICTIONARY
  5
D
102
{ACAD_REACTORS
330
C
102
}
100
AcDbDictionary
280
0
281
1
  0
ACDBDICTIONARYWDFLT
  5
E
102
{ACAD_REACTORS
330
C
102
}
100
AcDbDictionary
281
1
  3
Normal
350
F
100
AcDbDictionaryWithDefault
340
F
  0
DICTIONARY
  5
17
102
{ACAD_REACTORS
330
C
102
}
100
AcDbDictionary
280
0
281
1
  3
Standard
350
18
  0
DICTIONARY
  5
19
102
{ACAD_REACTORS
330
C
102
}
100
AcDbDictionary
281
1
  0
DICTIONARY
  5
1A
102
{ACAD_REACTORS
330
C
102
}
100
AcDbDictionary
281
1
  3
Layout1
350
1E
  3
Model
350
22
  0
ACDBPLACEHOLDER
  5
F
102
{ACAD_REACTORS
330
E
102
}
  0
MLINESTYLE
  5
18
102
{ACAD_REACTORS
330
17
102
}
100
AcDbMlineStyle
  2
STANDARD
 70
0
  3

 62
256
 51
90.0
 52
90.0
 71
2
 49
0.5
 62
256
  6
BYLAYER
 49
-0.5
 62
256
  6
BYLAYER
  0
LAYOUT
  5
1E
102
{ACAD_REACTORS
330
1A
102
}
100
AcDbPlotSettings
  1

  2

  4

  6

 40
0.0
 41
0.0
 42
0.0
 43
0.0
 44
0.0
 45
0.0
 46
0.0
 47
0.0
 48
0.0
 49
0.0
140
0.0
141
0.0
142
1.0
143
1.0
 70
0
 72
0
 73
0
 74
0
  7

 75
0
147
1.0
148
0.0
149
0.0
100
AcDbLayout
  1
Layout1
 70
0
 71
0
 10
0.0
 20
0.0
 11
0.0
 21
0.0
 12
0.0
 22
0.0
 32
0.0
 14
0.0
 24
0.0
 34
0.0
 15
0.0
 25
0.0
 35
0.0
146
0.0
 13
0.0
 23
0.0
 33
0.0
 16
0.0
 26
0.0
 36
0.0
 17
0.0
 27
0.0
 37
0.0
 76
0
330
1B
331
0
345
0
346
0
  0
LAYOUT
  5
22
102
{ACAD_REACTORS
330
1A
102
}
100
AcDbPlotSettings
  1

  2

  4

  6

 40
0.0
 41
0.0
 42
0.0
 43
0.0
 44
0.0
 45
0.0
 46
0.0
 47
0.0
 48
0.0
 49
0.0
140
0.0
141
0.0
142
1.0
143
1.0
 70
0
 72
0
 73
0
 74
0
  7

 75
0
147
1.0
148
0.0
149
0.0
100
AcDbLayout
  1
Model
 70
0
 71
0
 10
0.0
 20
0.0
 11
0.0
 21
0.0
 12
0.0
 22
0.0
 32
0.0
 14
0.0
 24
0.0
 34
0.0
 15
0.0
 25
0.0
 35
0.0
146
0.0
 13
0.0
 23
0.0
 33
0.0
 16
0.0
 26
0.0
 36
0.0
 17
0.0
 27
0.0
 37
0.0
 76
0
330
1F
331
0
345
0
346
0
  0
ENDSEC
  0
EOF
