999
DXF file: FRDA-LAN.dxf
999
Pro/ENGINEER 2006240 by Parametric Technology Corporation
  0
SECTION
  2
HEADER
  9
$ACADVER
  1
AC1015
  9
$DWGCODEPAGE
  3
ANSI_1252
  9
$EXTMAX
 10
11.6929133858
 20
8.2677165354
 30
0.0
  9
$EXTMIN
 10
0.0
 20
0.0
 30
0.0
  9
$LIMMIN
 10
0.0
 20
0.0
  9
$LIMMAX
 10
11.6929133858
 20
8.2677165354
  9
$VIEWCTR
 10
5.8464566929
 20
4.1338582677
  9
$VIEWSIZE
 40
8.2677165354
  9
$CLAYER
  8
0
  9
$LTSCALE
 40
0.6431102362
  9
$CELTYPE
  6
BYLAYER
  9
$DIMSCALE
 40
1.0
  9
$DIMASZ
 40
0.1875
  9
$DIMEXO
 40
0.0730807087
  9
$DIMDLI
 40
0.4443307087
  9
$DIMEXE
 40
0.2104724409
  9
$DIMCEN
 40
0.1052362205
  9
$DIMLFAC
 40
1.0
  9
$DIMBLK
  1
_CLOSED
  9
$DIMTXT
 40
0.15625
  9
$DIMTOL
 70
0
  9
$DIMLIM
 70
0
  9
$DIMTFAC
 40
1.0
  9
$PDMODE
 70
3
  9
$PDSIZE
 40
0.3125
  9
$HANDSEED
  5
57C
  9
$MEASUREMENT
 70
0
  9
$INSUNITS
 70
1
  0
ENDSEC
  0
SECTION
  2
CLASSES
  0
CLASS
  1
ACDBDICTIONARYWDFLT
  2
AcDbDictionaryWithDefault
  3
AutoCAD 2000
 90
0
280
0
281
0
  0
CLASS
  1
ACDBPLACEHOLDER
  2
AcDbPlaceHolder
  3
AutoCAD 2000
 90
0
280
0
281
0
  0
CLASS
  1
LAYOUT
  2
AcDbLayout
  3
AutoCAD 2000
 90
0
280
0
281
0
  0
ENDSEC
  0
SECTION
  2
TABLES
  0
TABLE
  2
VPORT
  5
8
100
AcDbSymbolTable
 70
2
  0
VPORT
  5
1F4
100
AcDbSymbolTableRecord
100
AcDbViewportTableRecord
  2
*ACTIVE
 70
0
 10
0.0
 20
0.0
 11
1.0
 21
1.0
 12
5.8464566929
 22
4.1338582677
 13
0.0
 23
0.0
 14
1.0
 24
1.0
 15
0.0
 25
0.0
 16
0.0
 26
0.0
 36
1.0
 17
0.0
 27
0.0
 37
0.0
 40
8.2677165354
 41
1.4142857143
 42
50.0
 43
0.0
 44
0.0
 50
0.0
 51
0.0
 71
0
 72
100
 73
1
 74
1
 75
0
 76
0
 77
0
 78
0
  0
ENDTAB
  0
TABLE
  2
LTYPE
  5
5
100
AcDbSymbolTable
 70
6
  0
LTYPE
  5
14
100
AcDbSymbolTableRecord
100
AcDbLinetypeTableRecord
  2
BYBLOCK
 70
0
  3

 72
65
 73
0
 40
0.0
  0
LTYPE
  5
15
100
AcDbSymbolTableRecord
100
AcDbLinetypeTableRecord
  2
BYLAYER
 70
0
  3

 72
65
 73
0
 40
0.0
  0
LTYPE
  5
16
100
AcDbSymbolTableRecord
100
AcDbLinetypeTableRecord
  2
CONTINUOUS
 70
64
  3
Solid line
 72
65
 73
0
 40
0.0
  0
LTYPE
  5
1F5
100
AcDbSymbolTableRecord
100
AcDbLinetypeTableRecord
  2
CENTER
 70
64
  3
____ _ ____ _ ____ _ ____ _ ____ _ ____ _ ____
 72
65
 73
4
 40
0.6
 49
0.375
 74
0
 49
-0.075
 74
0
 49
0.075
 74
0
 49
-0.075
 74
0
  0
LTYPE
  5
1F6
100
AcDbSymbolTableRecord
100
AcDbLinetypeTableRecord
  2
HIDDEN
 70
64
  3
- - - - - - - - - - - - - - - - - - - -
 72
65
 73
2
 40
0.2
 49
0.1
 74
0
 49
-0.1
 74
0
  0
LTYPE
  5
1F7
100
AcDbSymbolTableRecord
100
AcDbLinetypeTableRecord
  2
PHANTOM
 70
64
  3
_____ _ _ _____ _ _ _____ _ _ _____
 72
65
 73
6
 40
0.8
 49
0.45
 74
0
 49
-0.05
 74
0
 49
0.1
 74
0
 49
-0.05
 74
0
 49
0.1
 74
0
 49
-0.05
 74
0
  0
LTYPE
  5
1F8
100
AcDbSymbolTableRecord
100
AcDbLinetypeTableRecord
  2
DOT
 70
64
  3
. . . . . . . . . . . . . . . . . . . .
 72
65
 73
2
 40
0.2
 49
0.1
 74
0
 49
-0.1
 74
0
  0
LTYPE
  5
1F9
100
AcDbSymbolTableRecord
100
AcDbLinetypeTableRecord
  2
DASHED
 70
64
  3
- - - - - - - - - - - - - - - - - - - -
 72
65
 73
2
 40
0.2
 49
0.1
 74
0
 49
-0.1
 74
0
  0
ENDTAB
  0
TABLE
  2
LAYER
  5
2
100
AcDbSymbolTable
 70
36
  0
LAYER
  5
10
100
AcDbSymbolTableRecord
100
AcDbLayerTableRecord
  2
0
 70
0
 62
7
  6
CONTINUOUS
370
-3
390
F
  0
LAYER
  5
1FA
100
AcDbSymbolTableRecord
100
AcDbLayerTableRecord
  2
DEFAULT_1
 70
0
 62
7
  6
CENTER
370
-3
390
F
  0
LAYER
  5
1FB
100
AcDbSymbolTableRecord
100
AcDbLayerTableRecord
  2
DEFAULT_2
 70
0
 62
8
  6
HIDDEN
370
-3
390
F
  0
LAYER
  5
1FC
100
AcDbSymbolTableRecord
100
AcDbLayerTableRecord
  2
DEFAULT_3
 70
0
 62
7
  6
PHANTOM
370
-3
390
F
  0
LAYER
  5
1FD
100
AcDbSymbolTableRecord
100
AcDbLayerTableRecord
  2
_BLACK_HOLE
 70
0
 62
7
  6
CONTINUOUS
370
-3
390
F
  0
LAYER
  5
1FE
100
AcDbSymbolTableRecord
100
AcDbLayerTableRecord
  2
01_ALL_DTM_PLN
 70
0
 62
7
  6
CONTINUOUS
370
-3
390
F
  0
LAYER
  5
1FF
100
AcDbSymbolTableRecord
100
AcDbLayerTableRecord
  2
01__ASM_ALL_DTM_PLN
 70
0
 62
7
  6
CONTINUOUS
370
-3
390
F
  0
LAYER
  5
200
100
AcDbSymbolTableRecord
100
AcDbLayerTableRecord
  2
01__ASM_DEF_DTM_PLN
 70
0
 62
7
  6
CONTINUOUS
370
-3
390
F
  0
LAYER
  5
201
100
AcDbSymbolTableRecord
100
AcDbLayerTableRecord
  2
01___PRT_ALL_DTM_PLN
 70
0
 62
7
  6
CONTINUOUS
370
-3
390
F
  0
LAYER
  5
202
100
AcDbSymbolTableRecord
100
AcDbLayerTableRecord
  2
01___PRT_DEF_DTM_PLN
 70
0
 62
7
  6
CONTINUOUS
370
-3
390
F
  0
LAYER
  5
203
100
AcDbSymbolTableRecord
100
AcDbLayerTableRecord
  2
02_ALL_AXES
 70
0
 62
7
  6
CONTINUOUS
370
-3
390
F
  0
LAYER
  5
204
100
AcDbSymbolTableRecord
100
AcDbLayerTableRecord
  2
02__ASM_ALL_AXES
 70
0
 62
7
  6
CONTINUOUS
370
-3
390
F
  0
LAYER
  5
205
100
AcDbSymbolTableRecord
100
AcDbLayerTableRecord
  2
02___PRT_ALL_AXES
 70
0
 62
7
  6
CONTINUOUS
370
-3
390
F
  0
LAYER
  5
206
100
AcDbSymbolTableRecord
100
AcDbLayerTableRecord
  2
03_ALL_CURVES
 70
0
 62
7
  6
CONTINUOUS
370
-3
390
F
  0
LAYER
  5
207
100
AcDbSymbolTableRecord
100
AcDbLayerTableRecord
  2
03__ASM_ALL_CURVES
 70
0
 62
7
  6
CONTINUOUS
370
-3
390
F
  0
LAYER
  5
208
100
AcDbSymbolTableRecord
100
AcDbLayerTableRecord
  2
03___PRT_ALL_CURVES
 70
0
 62
7
  6
CONTINUOUS
370
-3
390
F
  0
LAYER
  5
209
100
AcDbSymbolTableRecord
100
AcDbLayerTableRecord
  2
04_ALL_DTM_PNT
 70
0
 62
7
  6
CONTINUOUS
370
-3
390
F
  0
LAYER
  5
20A
100
AcDbSymbolTableRecord
100
AcDbLayerTableRecord
  2
04__ASM_ALL_DTM_PNT
 70
0
 62
7
  6
CONTINUOUS
370
-3
390
F
  0
LAYER
  5
20B
100
AcDbSymbolTableRecord
100
AcDbLayerTableRecord
  2
04___PRT_ALL_DTM_PNT
 70
0
 62
7
  6
CONTINUOUS
370
-3
390
F
  0
LAYER
  5
20C
100
AcDbSymbolTableRecord
100
AcDbLayerTableRecord
  2
05_ALL_DTM_CSYS
 70
0
 62
7
  6
CONTINUOUS
370
-3
390
F
  0
LAYER
  5
20D
100
AcDbSymbolTableRecord
100
AcDbLayerTableRecord
  2
05__ASM_ALL_DTM_CSYS
 70
0
 62
7
  6
CONTINUOUS
370
-3
390
F
  0
LAYER
  5
20E
100
AcDbSymbolTableRecord
100
AcDbLayerTableRecord
  2
05__ASM_DEF_DTM_CSYS
 70
0
 62
7
  6
CONTINUOUS
370
-3
390
F
  0
LAYER
  5
20F
100
AcDbSymbolTableRecord
100
AcDbLayerTableRecord
  2
05___PRT_ALL_DTM_CSYS
 70
0
 62
7
  6
CONTINUOUS
370
-3
390
F
  0
LAYER
  5
210
100
AcDbSymbolTableRecord
100
AcDbLayerTableRecord
  2
05___PRT_DEF_DTM_CSYS
 70
0
 62
7
  6
CONTINUOUS
370
-3
390
F
  0
LAYER
  5
211
100
AcDbSymbolTableRecord
100
AcDbLayerTableRecord
  2
06_ALL_SURFS
 70
0
 62
7
  6
CONTINUOUS
370
-3
390
F
  0
LAYER
  5
212
100
AcDbSymbolTableRecord
100
AcDbLayerTableRecord
  2
06__ASM_ALL_SURFS
 70
0
 62
7
  6
CONTINUOUS
370
-3
390
F
  0
LAYER
  5
213
100
AcDbSymbolTableRecord
100
AcDbLayerTableRecord
  2
06___PRT_ALL_SURFS
 70
0
 62
7
  6
CONTINUOUS
370
-3
390
F
  0
LAYER
  5
214
100
AcDbSymbolTableRecord
100
AcDbLayerTableRecord
  2
07__ASM_ALL_SKELETONS
 70
0
 62
7
  6
CONTINUOUS
370
-3
390
F
  0
LAYER
  5
215
100
AcDbSymbolTableRecord
100
AcDbLayerTableRecord
  2
127-001_FEATURES
 70
0
 62
7
  6
CONTINUOUS
370
-3
390
F
  0
LAYER
  5
216
100
AcDbSymbolTableRecord
100
AcDbLayerTableRecord
  2
127-001_REF_GEOMETRY
 70
0
 62
7
  6
CONTINUOUS
370
-3
390
F
  0
LAYER
  5
217
100
AcDbSymbolTableRecord
100
AcDbLayerTableRecord
  2
127-004_FEATURES
 70
0
 62
7
  6
CONTINUOUS
370
-3
390
F
  0
LAYER
  5
218
100
AcDbSymbolTableRecord
100
AcDbLayerTableRecord
  2
127-004_REF_GEOMETRY
 70
0
 62
7
  6
CONTINUOUS
370
-3
390
F
  0
LAYER
  5
219
100
AcDbSymbolTableRecord
100
AcDbLayerTableRecord
  2
127-008_FEATURES
 70
0
 62
7
  6
CONTINUOUS
370
-3
390
F
  0
LAYER
  5
21A
100
AcDbSymbolTableRecord
100
AcDbLayerTableRecord
  2
127-008_REF_GEOMETRY
 70
0
 62
7
  6
CONTINUOUS
370
-3
390
F
  0
LAYER
  5
21B
100
AcDbSymbolTableRecord
100
AcDbLayerTableRecord
  2
127-410_FEATURES
 70
0
 62
7
  6
CONTINUOUS
370
-3
390
F
  0
LAYER
  5
21C
100
AcDbSymbolTableRecord
100
AcDbLayerTableRecord
  2
127-410_REF_GEOMETRY
 70
0
 62
7
  6
CONTINUOUS
370
-3
390
F
  0
LAYER
  5
21D
100
AcDbSymbolTableRecord
100
AcDbLayerTableRecord
  2
127-411_FEATURES
 70
0
 62
7
  6
CONTINUOUS
370
-3
390
F
  0
LAYER
  5
21E
100
AcDbSymbolTableRecord
100
AcDbLayerTableRecord
  2
127-411_REF_GEOMETRY
 70
0
 62
7
  6
CONTINUOUS
370
-3
390
F
  0
LAYER
  5
21F
100
AcDbSymbolTableRecord
100
AcDbLayerTableRecord
  2
127-412_FEATURES
 70
0
 62
7
  6
CONTINUOUS
370
-3
390
F
  0
LAYER
  5
220
100
AcDbSymbolTableRecord
100
AcDbLayerTableRecord
  2
127-412_REF_GEOMETRY
 70
0
 62
7
  6
CONTINUOUS
370
-3
390
F
  0
LAYER
  5
221
100
AcDbSymbolTableRecord
100
AcDbLayerTableRecord
  2
127-413_FEATURES
 70
0
 62
7
  6
CONTINUOUS
370
-3
390
F
  0
LAYER
  5
222
100
AcDbSymbolTableRecord
100
AcDbLayerTableRecord
  2
127-413_REF_GEOMETRY
 70
0
 62
7
  6
CONTINUOUS
370
-3
390
F
  0
LAYER
  5
223
100
AcDbSymbolTableRecord
100
AcDbLayerTableRecord
  2
127-414_FEATURES
 70
0
 62
7
  6
CONTINUOUS
370
-3
390
F
  0
LAYER
  5
224
100
AcDbSymbolTableRecord
100
AcDbLayerTableRecord
  2
127-414_REF_GEOMETRY
 70
0
 62
7
  6
CONTINUOUS
370
-3
390
F
  0
LAYER
  5
225
100
AcDbSymbolTableRecord
100
AcDbLayerTableRecord
  2
127-415_FEATURES
 70
0
 62
7
  6
CONTINUOUS
370
-3
390
F
  0
LAYER
  5
226
100
AcDbSymbolTableRecord
100
AcDbLayerTableRecord
  2
127-415_REF_GEOMETRY
 70
0
 62
7
  6
CONTINUOUS
370
-3
390
F
  0
LAYER
  5
227
100
AcDbSymbolTableRecord
100
AcDbLayerTableRecord
  2
127-416_FEATURES
 70
0
 62
7
  6
CONTINUOUS
370
-3
390
F
  0
LAYER
  5
228
100
AcDbSymbolTableRecord
100
AcDbLayerTableRecord
  2
127-416_REF_GEOMETRY
 70
0
 62
7
  6
CONTINUOUS
370
-3
390
F
  0
LAYER
  5
229
100
AcDbSymbolTableRecord
100
AcDbLayerTableRecord
  2
250-NPTF_PORT
 70
0
 62
7
  6
CONTINUOUS
370
-3
390
F
  0
LAYER
  5
22A
100
AcDbSymbolTableRecord
100
AcDbLayerTableRecord
  2
ALL_DATUM_FEAT
 70
0
 62
7
  6
CONTINUOUS
370
-3
390
F
  0
LAYER
  5
22B
100
AcDbSymbolTableRecord
100
AcDbLayerTableRecord
  2
AXIS
 70
0
 62
7
  6
CONTINUOUS
370
-3
390
F
  0
LAYER
  5
22C
100
AcDbSymbolTableRecord
100
AcDbLayerTableRecord
  2
COPY_GEO_FET
 70
0
 62
7
  6
CONTINUOUS
370
-3
390
F
  0
LAYER
  5
22D
100
AcDbSymbolTableRecord
100
AcDbLayerTableRecord
  2
COSMETIC
 70
0
 62
7
  6
CONTINUOUS
370
-3
390
F
  0
LAYER
  5
22E
100
AcDbSymbolTableRecord
100
AcDbLayerTableRecord
  2
CSYS
 70
0
 62
7
  6
CONTINUOUS
370
-3
390
F
  0
LAYER
  5
22F
100
AcDbSymbolTableRecord
100
AcDbLayerTableRecord
  2
CURVES
 70
0
 62
7
  6
CONTINUOUS
370
-3
390
F
  0
LAYER
  5
230
100
AcDbSymbolTableRecord
100
AcDbLayerTableRecord
  2
CUT_REF_SURF
 70
0
 62
7
  6
CONTINUOUS
370
-3
390
F
  0
LAYER
  5
231
100
AcDbSymbolTableRecord
100
AcDbLayerTableRecord
  2
DATUM
 70
0
 62
7
  6
CONTINUOUS
370
-3
390
F
  0
LAYER
  5
232
100
AcDbSymbolTableRecord
100
AcDbLayerTableRecord
  2
DATUMCURVES
 70
0
 62
7
  6
CONTINUOUS
370
-3
390
F
  0
LAYER
  5
233
100
AcDbSymbolTableRecord
100
AcDbLayerTableRecord
  2
DATUM_PLANES
 70
0
 62
7
  6
CONTINUOUS
370
-3
390
F
  0
LAYER
  5
234
100
AcDbSymbolTableRecord
100
AcDbLayerTableRecord
  2
DIMENSIONS
 70
0
 62
7
  6
CONTINUOUS
370
-3
390
F
  0
LAYER
  5
235
100
AcDbSymbolTableRecord
100
AcDbLayerTableRecord
  2
DIMS
 70
0
 62
7
  6
CONTINUOUS
370
-3
390
F
  0
LAYER
  5
236
100
AcDbSymbolTableRecord
100
AcDbLayerTableRecord
  2
DRAWINGNOTES
 70
0
 62
7
  6
CONTINUOUS
370
-3
390
F
  0
LAYER
  5
237
100
AcDbSymbolTableRecord
100
AcDbLayerTableRecord
  2
DTM
 70
0
 62
7
  6
CONTINUOUS
370
-3
390
F
  0
LAYER
  5
238
100
AcDbSymbolTableRecord
100
AcDbLayerTableRecord
  2
DTM230
 70
0
 62
7
  6
CONTINUOUS
370
-3
390
F
  0
LAYER
  5
239
100
AcDbSymbolTableRecord
100
AcDbLayerTableRecord
  2
DTM325
 70
0
 62
7
  6
CONTINUOUS
370
-3
390
F
  0
LAYER
  5
23A
100
AcDbSymbolTableRecord
100
AcDbLayerTableRecord
  2
DTM_500001
 70
0
 62
7
  6
CONTINUOUS
370
-3
390
F
  0
LAYER
  5
23B
100
AcDbSymbolTableRecord
100
AcDbLayerTableRecord
  2
DTM_500002
 70
0
 62
7
  6
CONTINUOUS
370
-3
390
F
  0
LAYER
  5
23C
100
AcDbSymbolTableRecord
100
AcDbLayerTableRecord
  2
DTM_515002
 70
0
 62
7
  6
CONTINUOUS
370
-3
390
F
  0
LAYER
  5
23D
100
AcDbSymbolTableRecord
100
AcDbLayerTableRecord
  2
DTM_525001
 70
0
 62
7
  6
CONTINUOUS
370
-3
390
F
  0
LAYER
  5
23E
100
AcDbSymbolTableRecord
100
AcDbLayerTableRecord
  2
DTM_SPRING_RH
 70
0
 62
7
  6
CONTINUOUS
370
-3
390
F
  0
LAYER
  5
23F
100
AcDbSymbolTableRecord
100
AcDbLayerTableRecord
  2
DTM_SP_RH_CONSTR
 70
0
 62
7
  6
CONTINUOUS
370
-3
390
F
  0
LAYER
  5
240
100
AcDbSymbolTableRecord
100
AcDbLayerTableRecord
  2
GEOMETRICTOLERANCES
 70
0
 62
7
  6
CONTINUOUS
370
-3
390
F
  0
LAYER
  5
241
100
AcDbSymbolTableRecord
100
AcDbLayerTableRecord
  2
LAY0001
 70
0
 62
7
  6
CONTINUOUS
370
-3
390
F
  0
LAYER
  5
242
100
AcDbSymbolTableRecord
100
AcDbLayerTableRecord
  2
PARAMETERDIMENSIONS
 70
0
 62
7
  6
CONTINUOUS
370
-3
390
F
  0
LAYER
  5
243
100
AcDbSymbolTableRecord
100
AcDbLayerTableRecord
  2
PLANE
 70
0
 62
7
  6
CONTINUOUS
370
-3
390
F
  0
LAYER
  5
244
100
AcDbSymbolTableRecord
100
AcDbLayerTableRecord
  2
SUN_SAE-4_PORT
 70
0
 62
7
  6
CONTINUOUS
370
-3
390
F
  0
LAYER
  5
245
100
AcDbSymbolTableRecord
100
AcDbLayerTableRecord
  2
SURFACES
 70
0
 62
7
  6
CONTINUOUS
370
-3
390
F
  0
LAYER
  5
246
100
AcDbSymbolTableRecord
100
AcDbLayerTableRecord
  2
TEXT
 70
0
 62
7
  6
CONTINUOUS
370
-3
390
F
  0
LAYER
  5
247
100
AcDbSymbolTableRecord
100
AcDbLayerTableRecord
  2
THREAD
 70
0
 62
7
  6
CONTINUOUS
370
-3
390
F
  0
ENDTAB
  0
TABLE
  2
STYLE
  5
3
100
AcDbSymbolTable
 70
1
  0
STYLE
  5
11
100
AcDbSymbolTableRecord
100
AcDbTextStyleTableRecord
  2
STANDARD
 70
0
 40
0.0
 41
0.8
 50
0.0
 71
0
 42
0.2
  3
txt
  4

  0
ENDTAB
  0
TABLE
  2
VIEW
  5
6
100
AcDbSymbolTable
 70
0
  0
ENDTAB
  0
TABLE
  2
UCS
  5
7
100
AcDbSymbolTable
 70
0
  0
ENDTAB
  0
TABLE
  2
APPID
  5
9
100
AcDbSymbolTable
 70
1
  0
APPID
  5
248
100
AcDbSymbolTableRecord
100
AcDbRegAppTableRecord
  2
ACAD
 70
0
  0
ENDTAB
  0
TABLE
  2
BLOCK_RECORD
  5
1
100
AcDbSymbolTable
 70
0
  0
BLOCK_RECORD
  5
1F
100
AcDbSymbolTableRecord
100
AcDbBlockTableRecord
  2
*MODEL_SPACE
  0
BLOCK_RECORD
  5
1B
100
AcDbSymbolTableRecord
100
AcDbBlockTableRecord
  2
*PAPER_SPACE
  0
ENDTAB
  0
TABLE
  2
DIMSTYLE
  5
A
100
AcDbSymbolTable
 70
1
100
AcDbDimStyleTable
 71
0
  0
DIMSTYLE
105
249
100
AcDbSymbolTableRecord
100
AcDbDimStyleTableRecord
  2
STANDARD
 70
0
  3

  4

 40
1.0
 41
0.1875
 42
0.0625
 43
0.38
 44
0.18
 45
0.0
 46
0.0
 47
0.01
 48
0.01
140
0.15625
141
0.09
142
0.0
143
25.4
144
1.0
145
0.0
146
1.0
147
0.09
 71
0.0
 72
0.0
 73
1
 74
1
 75
0
 76
0
 77
0
 78
4
170
0
171
2
172
0
173
0
174
0
175
0
176
0
177
0
178
0
270
2
271
2
272
2
273
2
274
2
275
0
280
0
281
0
282
0
283
1
284
4
285
0
286
0
287
3
288
0
340
11
  0
ENDTAB
  0
ENDSEC
  0
SECTION
  2
BLOCKS
  0
BLOCK
  5
20
100
AcDbEntity
  8
0
100
AcDbBlockBegin
  2
*MODEL_SPACE
 70
0
 10
0.0
 20
0.0
 30
0.0
  3
*MODEL_SPACE
  1

  0
ENDBLK
  5
21
100
AcDbEntity
  8
0
100
AcDbBlockEnd
  0
BLOCK
  5
1C
100
AcDbEntity
  8
0
100
AcDbBlockBegin
  2
*PAPER_SPACE
 70
0
 10
0.0
 20
0.0
 30
0.0
  3
*PAPER_SPACE
  1

  0
ENDBLK
  5
1D
100
AcDbEntity
  8
0
100
AcDbBlockEnd
  0
ENDSEC
  0
SECTION
  2
ENTITIES
  0
LINE
  5
24A
100
AcDbEntity
  8
0
100
AcDbLine
 62
7
  6
CONTINUOUS
 10
2.7083167389
 20
4.408645308
 11
2.7083167389
 21
4.1026590572
  0
LINE
  5
24B
100
AcDbEntity
  8
03__ASM_ALL_CURVES
100
AcDbLine
 62
40
  6
CONTINUOUS
 10
2.7083167389
 20
4.408645308
 11
2.7083167389
 21
5.1628901826
  0
LINE
  5
24C
100
AcDbEntity
  8
0
100
AcDbLine
 62
7
  6
CONTINUOUS
 10
2.7393167389
 20
4.4396521826
 11
2.7393167389
 21
4.0716521826
  0
LINE
  5
24D
100
AcDbEntity
  8
03__ASM_ALL_CURVES
100
AcDbLine
 62
40
  6
CONTINUOUS
 10
2.8339267389
 20
5.1419551826
 11
2.8339267389
 21
5.1000851826
  0
LINE
  5
24E
100
AcDbEntity
  8
0
100
AcDbLine
 62
7
  6
CONTINUOUS
 10
2.9383167389
 20
4.4396521826
 11
2.9383167389
 21
4.0716521826
  0
LINE
  5
24F
100
AcDbEntity
  8
0
100
AcDbLine
 62
7
  6
CONTINUOUS
 10
2.9398167389
 20
4.0945091896
 11
2.9398167389
 21
4.3317757514
  0
LINE
  5
250
100
AcDbEntity
  8
0
100
AcDbLine
 62
7
  6
CONTINUOUS
 10
2.9748167389
 20
4.0945091896
 11
2.9748167389
 21
4.3317757514
  0
LINE
  5
251
100
AcDbEntity
  8
0
100
AcDbLine
 62
7
  6
CONTINUOUS
 10
2.9763167389
 20
4.4396521826
 11
2.9763167389
 21
4.0716521826
  0
LINE
  5
252
100
AcDbEntity
  8
0
100
AcDbLine
 62
7
  6
CONTINUOUS
 10
3.2083167389
 20
4.0080009975
 11
3.2083167389
 21
4.5033033677
  0
LINE
  5
253
100
AcDbEntity
  8
0
100
AcDbLine
 62
7
  6
CONTINUOUS
 10
3.2703167389
 20
3.9846521826
 11
3.2703167389
 21
4.5266521826
  0
LINE
  5
254
100
AcDbEntity
  8
0
100
AcDbLine
 62
7
  6
CONTINUOUS
 10
3.2763167389
 20
3.9846521826
 11
3.2763167389
 21
4.5266521826
  0
LINE
  5
255
100
AcDbEntity
  8
0
100
AcDbLine
 62
7
  6
CONTINUOUS
 10
3.2818167389
 20
3.9901521826
 11
3.2818167389
 21
4.5211521826
  0
LINE
  5
256
100
AcDbEntity
  8
0
100
AcDbLine
 62
7
  6
CONTINUOUS
 10
3.2978167389
 20
3.9901521826
 11
3.2978167389
 21
4.5211521826
  0
LINE
  5
257
100
AcDbEntity
  8
03__ASM_ALL_CURVES
100
AcDbLine
 62
40
  6
CONTINUOUS
 10
3.5713151764
 20
5.1890589326
 11
3.5647729889
 21
5.1628901826
  0
LINE
  5
258
100
AcDbEntity
  8
03__ASM_ALL_CURVES
100
AcDbLine
 62
40
  6
CONTINUOUS
 10
3.5647729889
 20
5.2501193472
 11
3.5713151764
 21
5.258842268
  0
LINE
  5
259
100
AcDbEntity
  8
0
100
AcDbLine
 62
7
  6
CONTINUOUS
 10
3.4893167389
 20
3.9846521826
 11
3.4893167389
 21
4.5266521826
  0
LINE
  5
25A
100
AcDbEntity
  8
0
100
AcDbLine
 62
7
  6
CONTINUOUS
 10
3.5203167389
 20
3.8206521826
 11
3.5203167389
 21
4.6906521826
  0
LINE
  5
25B
100
AcDbEntity
  8
0
100
AcDbLine
 62
7
  6
CONTINUOUS
 10
3.5823167389
 20
3.7586521826
 11
3.5823167389
 21
4.7526521826
  0
LINE
  5
25C
100
AcDbEntity
  8
03__ASM_ALL_CURVES
100
AcDbLine
 62
40
  6
CONTINUOUS
 10
3.6171104889
 20
5.2501193472
 11
3.6171104889
 21
5.232673518
  0
LINE
  5
25D
100
AcDbEntity
  8
03__ASM_ALL_CURVES
100
AcDbLine
 62
40
  6
CONTINUOUS
 10
3.5843995514
 20
5.2065047649
 11
3.5713151764
 21
5.1890589326
  0
LINE
  5
25E
100
AcDbEntity
  8
03__ASM_ALL_CURVES
100
AcDbLine
 62
40
  6
CONTINUOUS
 10
3.6171104889
 20
5.232673518
 11
3.6105683014
 21
5.2239505972
  0
LINE
  5
25F
100
AcDbEntity
  8
03__ASM_ALL_CURVES
100
AcDbLine
 62
40
  6
CONTINUOUS
 10
3.7741229889
 20
5.2501193472
 11
3.7806651764
 21
5.258842268
  0
LINE
  5
260
100
AcDbEntity
  8
03__ASM_ALL_CURVES
100
AcDbLine
 62
40
  6
CONTINUOUS
 10
3.7675808014
 20
5.1977818503
 11
3.7806651764
 21
5.2152276826
  0
LINE
  5
261
100
AcDbEntity
  8
03__ASM_ALL_CURVES
100
AcDbLine
 62
40
  6
CONTINUOUS
 10
3.8264604889
 20
5.2413964326
 11
3.8199183014
 21
5.232673518
  0
LINE
  5
262
100
AcDbEntity
  8
0
100
AcDbLine
 62
7
  6
CONTINUOUS
 10
2.7083167389
 20
4.4086521826
 11
2.7393167389
 21
4.4396521826
  0
LINE
  5
263
100
AcDbEntity
  8
0
100
AcDbLine
 62
7
  6
CONTINUOUS
 10
2.7083167389
 20
4.1026521826
 11
2.7393167389
 21
4.0716521826
  0
LINE
  5
264
100
AcDbEntity
  8
03__ASM_ALL_CURVES
100
AcDbLine
 62
40
  6
CONTINUOUS
 10
3.6890745514
 20
5.1628901826
 11
3.6890745514
 21
5.1716130995
  0
LINE
  5
265
100
AcDbEntity
  8
03__ASM_ALL_CURVES
100
AcDbLine
 62
40
  6
CONTINUOUS
 10
3.7675808014
 20
5.1890589326
 11
3.7675808014
 21
5.1977818503
  0
LINE
  5
266
100
AcDbEntity
  8
03__ASM_ALL_CURVES
100
AcDbLine
 62
40
  6
CONTINUOUS
 10
3.7741229889
 20
5.2413964326
 11
3.7741229889
 21
5.2501193472
  0
LINE
  5
267
100
AcDbEntity
  8
03__ASM_ALL_CURVES
100
AcDbLine
 62
40
  6
CONTINUOUS
 10
3.8264604889
 20
5.2501193472
 11
3.8264604889
 21
5.2413964326
  0
LINE
  5
268
100
AcDbEntity
  8
03__ASM_ALL_CURVES
100
AcDbLine
 62
40
  6
CONTINUOUS
 10
3.8330026764
 20
5.1977818503
 11
3.8330026764
 21
5.1890589326
  0
LINE
  5
269
100
AcDbEntity
  8
03__ASM_ALL_CURVES
100
AcDbLine
 62
40
  6
CONTINUOUS
 10
4.0030995514
 20
5.2501193472
 11
3.9965573639
 21
5.2239505972
  0
LINE
  5
26A
100
AcDbEntity
  8
03__ASM_ALL_CURVES
100
AcDbLine
 62
40
  6
CONTINUOUS
 10
3.8330026764
 20
5.1890589326
 11
3.8199183014
 21
5.1716130995
  0
LINE
  5
26B
100
AcDbEntity
  8
03__ASM_ALL_CURVES
100
AcDbLine
 62
40
  6
CONTINUOUS
 10
4.0161839264
 20
5.2675651826
 11
4.0030995514
 21
5.2501193472
  0
LINE
  5
26C
100
AcDbEntity
  8
0
100
AcDbLine
 62
7
  6
CONTINUOUS
 10
3.3133175244
 20
4.5366529682
 11
3.2978167389
 21
4.5211521826
  0
LINE
  5
26D
100
AcDbEntity
  8
03__ASM_ALL_CURVES
100
AcDbLine
 62
40
  6
CONTINUOUS
 10
3.5713151764
 20
5.258842268
 11
3.5843995514
 21
5.2675651826
  0
LINE
  5
26E
100
AcDbEntity
  8
03__ASM_ALL_CURVES
100
AcDbLine
 62
40
  6
CONTINUOUS
 10
3.6105683014
 20
5.2239505972
 11
3.5843995514
 21
5.2065047649
  0
LINE
  5
26F
100
AcDbEntity
  8
03__ASM_ALL_CURVES
100
AcDbLine
 62
40
  6
CONTINUOUS
 10
3.7806651764
 20
5.258842268
 11
3.7937495514
 21
5.2675651826
  0
LINE
  5
270
100
AcDbEntity
  8
0
100
AcDbLine
 62
7
  6
CONTINUOUS
 10
3.3133175244
 20
3.974651397
 11
3.2978167389
 21
3.9901521826
  0
LINE
  5
271
100
AcDbEntity
  8
0
100
AcDbLine
 62
7
  6
CONTINUOUS
 10
3.5823167389
 20
3.7586521826
 11
3.5203167389
 21
3.8206521826
  0
LINE
  5
272
100
AcDbEntity
  8
03__ASM_ALL_CURVES
100
AcDbLine
 62
40
  6
CONTINUOUS
 10
3.9049667389
 20
5.2675651826
 11
3.9049667389
 21
5.1628901826
  0
LINE
  5
273
100
AcDbEntity
  8
03__ASM_ALL_CURVES
100
AcDbLine
 62
40
  6
CONTINUOUS
 10
3.9965573639
 20
5.2239505972
 11
3.9965573639
 21
5.2065047649
  0
LINE
  5
274
100
AcDbEntity
  8
0
100
AcDbLine
 62
7
  6
CONTINUOUS
 10
4.0203167389
 20
3.7006521826
 11
4.0203167389
 21
4.8106521826
  0
LINE
  5
275
100
AcDbEntity
  8
0
100
AcDbLine
 62
7
  6
CONTINUOUS
 10
4.0659274101
 20
3.6216521826
 11
4.0659274101
 21
3.6222668731
  0
LINE
  5
276
100
AcDbEntity
  8
0
100
AcDbLine
 62
7
  6
CONTINUOUS
 10
4.0659274101
 20
3.9147874921
 11
4.0659274101
 21
3.9631315637
  0
LINE
  5
277
100
AcDbEntity
  8
0
100
AcDbLine
 62
7
  6
CONTINUOUS
 10
4.0659274101
 20
4.5481728015
 11
4.0659274101
 21
4.5965168731
  0
LINE
  5
278
100
AcDbEntity
  8
0
100
AcDbLine
 62
7
  6
CONTINUOUS
 10
4.0659274101
 20
4.8890374921
 11
4.0659274101
 21
4.8896521826
  0
LINE
  5
279
100
AcDbEntity
  8
03__ASM_ALL_CURVES
100
AcDbLine
 62
40
  6
CONTINUOUS
 10
4.1143167389
 20
5.1628901826
 11
4.1208589264
 21
5.2065047649
  0
LINE
  5
27A
100
AcDbEntity
  8
03__ASM_ALL_CURVES
100
AcDbLine
 62
40
  6
CONTINUOUS
 10
4.1208589264
 20
5.2065047649
 11
4.1274011139
 21
5.232673518
  0
LINE
  5
27B
100
AcDbEntity
  8
03__ASM_ALL_CURVES
100
AcDbLine
 62
40
  6
CONTINUOUS
 10
4.1274011139
 20
5.232673518
 11
4.1404854889
 21
5.2675651826
  0
LINE
  5
27C
100
AcDbEntity
  8
0
100
AcDbLine
 62
7
  6
CONTINUOUS
 10
3.4893167389
 20
3.9846521826
 11
3.4832219667
 21
3.9740957276
  0
LINE
  5
27D
100
AcDbEntity
  8
0
100
AcDbLine
 62
7
  6
CONTINUOUS
 10
4.0656612413
 20
4.8891911647
 11
4.0203167389
 21
4.8106521826
  0
LINE
  5
27E
100
AcDbEntity
  8
0
100
AcDbLine
 62
7
  6
CONTINUOUS
 10
3.5823167389
 20
4.7526521826
 11
3.5203167389
 21
4.6906521826
  0
LINE
  5
27F
100
AcDbEntity
  8
03__ASM_ALL_CURVES
100
AcDbLine
 62
40
  6
CONTINUOUS
 10
3.7806651764
 20
5.2152276826
 11
3.7937495514
 21
5.2239505972
  0
LINE
  5
280
100
AcDbEntity
  8
03__ASM_ALL_CURVES
100
AcDbLine
 62
40
  6
CONTINUOUS
 10
3.8199183014
 20
5.232673518
 11
3.8068339264
 21
5.2239505972
  0
LINE
  5
281
100
AcDbEntity
  8
03__ASM_ALL_CURVES
100
AcDbLine
 62
40
  6
CONTINUOUS
 10
3.8199183014
 20
5.1716130995
 11
3.8068339264
 21
5.1628901826
  0
LINE
  5
282
100
AcDbEntity
  8
0
100
AcDbLine
 62
7
  6
CONTINUOUS
 10
3.4893167389
 20
4.5266521826
 11
3.4832219667
 21
4.5372086376
  0
LINE
  5
283
100
AcDbEntity
  8
0
100
AcDbLine
 62
7
  6
CONTINUOUS
 10
4.0659274101
 20
3.6216521826
 11
4.0203167389
 21
3.7006521826
  0
LINE
  5
284
100
AcDbEntity
  8
03__ASM_ALL_CURVES
100
AcDbLine
 62
40
  6
CONTINUOUS
 10
4.2189917389
 20
5.2675651826
 11
4.2189917389
 21
5.1628901826
  0
LINE
  5
285
100
AcDbEntity
  8
03__ASM_ALL_CURVES
100
AcDbLine
 62
40
  6
CONTINUOUS
 10
4.5461011139
 20
5.232673518
 11
4.5591854889
 21
5.2675651826
  0
LINE
  5
286
100
AcDbEntity
  8
03__ASM_ALL_CURVES
100
AcDbLine
 62
40
  6
CONTINUOUS
 10
4.4545104889
 20
5.2413964326
 11
4.4479683014
 21
5.232673518
  0
LINE
  5
287
100
AcDbEntity
  8
03__ASM_ALL_CURVES
100
AcDbLine
 62
40
  6
CONTINUOUS
 10
4.4610526764
 20
5.1890589326
 11
4.4479683014
 21
5.1716130995
  0
LINE
  5
288
100
AcDbEntity
  8
0
100
AcDbLine
 62
7
  6
CONTINUOUS
 10
3.2818167389
 20
3.9901521826
 11
3.2763167389
 21
3.9846521826
  0
LINE
  5
289
100
AcDbEntity
  8
03__ASM_ALL_CURVES
100
AcDbLine
 62
40
  6
CONTINUOUS
 10
4.4087151764
 20
5.258842268
 11
4.4217995514
 21
5.2675651826
  0
LINE
  5
28A
100
AcDbEntity
  8
03__ASM_ALL_CURVES
100
AcDbLine
 62
40
  6
CONTINUOUS
 10
4.4479683014
 20
5.232673518
 11
4.4348839264
 21
5.2239505972
  0
LINE
  5
28B
100
AcDbEntity
  8
03__ASM_ALL_CURVES
100
AcDbLine
 62
40
  6
CONTINUOUS
 10
4.4479683014
 20
5.1716130995
 11
4.4348839264
 21
5.1628901826
  0
LINE
  5
28C
100
AcDbEntity
  8
0
100
AcDbLine
 62
7
  6
CONTINUOUS
 10
3.2818167389
 20
4.5211521826
 11
3.2763167389
 21
4.5266521826
  0
LINE
  5
28D
100
AcDbEntity
  8
03__ASM_ALL_CURVES
100
AcDbLine
 62
40
  6
CONTINUOUS
 10
3.9965573639
 20
5.2065047649
 11
4.0030995514
 21
5.1803360164
  0
LINE
  5
28E
100
AcDbEntity
  8
03__ASM_ALL_CURVES
100
AcDbLine
 62
40
  6
CONTINUOUS
 10
4.3171245514
 20
5.1628901826
 11
4.3171245514
 21
5.1716130995
  0
LINE
  5
28F
100
AcDbEntity
  8
03__ASM_ALL_CURVES
100
AcDbLine
 62
40
  6
CONTINUOUS
 10
4.4545104889
 20
5.2501193472
 11
4.4545104889
 21
5.2413964326
  0
LINE
  5
290
100
AcDbEntity
  8
03__ASM_ALL_CURVES
100
AcDbLine
 62
40
  6
CONTINUOUS
 10
4.4610526764
 20
5.1977818503
 11
4.4610526764
 21
5.1890589326
  0
LINE
  5
291
100
AcDbEntity
  8
03__ASM_ALL_CURVES
100
AcDbLine
 62
40
  6
CONTINUOUS
 10
4.5330167389
 20
5.1628901826
 11
4.5395589264
 21
5.2065047649
  0
LINE
  5
292
100
AcDbEntity
  8
03__ASM_ALL_CURVES
100
AcDbLine
 62
40
  6
CONTINUOUS
 10
4.5395589264
 20
5.2065047649
 11
4.5461011139
 21
5.232673518
  0
LINE
  5
293
100
AcDbEntity
  8
03__ASM_ALL_CURVES
100
AcDbLine
 62
40
  6
CONTINUOUS
 10
4.6507761139
 20
5.2065047649
 11
4.6442339264
 21
5.1803360164
  0
LINE
  5
294
100
AcDbEntity
  8
03__ASM_ALL_CURVES
100
AcDbLine
 62
40
  6
CONTINUOUS
 10
4.6442339264
 20
5.1803360164
 11
4.6311495514
 21
5.1628901826
  0
LINE
  5
295
100
AcDbEntity
  8
03__ASM_ALL_CURVES
100
AcDbLine
 62
40
  6
CONTINUOUS
 10
4.7792792516
 20
3.3852759326
 11
4.7890925329
 21
3.3787337467
  0
LINE
  5
296
100
AcDbEntity
  8
03__ASM_ALL_CURVES
100
AcDbLine
 62
40
  6
CONTINUOUS
 10
4.8577855016
 20
3.3852759326
 11
4.8675987829
 21
3.3787337467
  0
LINE
  5
297
100
AcDbEntity
  8
03__ASM_ALL_CURVES
100
AcDbLine
 62
40
  6
CONTINUOUS
 10
4.7890925329
 20
3.3787337467
 11
4.7939991735
 21
3.372191556
  0
LINE
  5
298
100
AcDbEntity
  8
03__ASM_ALL_CURVES
100
AcDbLine
 62
40
  6
CONTINUOUS
 10
4.8675987829
 20
3.3787337467
 11
4.8725054235
 21
3.372191556
  0
LINE
  5
299
100
AcDbEntity
  8
03__ASM_ALL_CURVES
100
AcDbLine
 62
40
  6
CONTINUOUS
 10
4.6507761139
 20
5.2239505972
 11
4.6507761139
 21
5.2065047649
  0
LINE
  5
29A
100
AcDbEntity
  8
0
100
AcDbLine
 62
7
  6
CONTINUOUS
 10
4.652891113
 20
3.6216521826
 11
4.652891113
 21
3.6222668731
  0
LINE
  5
29B
100
AcDbEntity
  8
0
100
AcDbLine
 62
7
  6
CONTINUOUS
 10
4.652891113
 20
3.9147874921
 11
4.652891113
 21
3.9631315637
  0
LINE
  5
29C
100
AcDbEntity
  8
0
100
AcDbLine
 62
7
  6
CONTINUOUS
 10
4.652891113
 20
4.5481728015
 11
4.652891113
 21
4.5965168731
  0
LINE
  5
29D
100
AcDbEntity
  8
0
100
AcDbLine
 62
7
  6
CONTINUOUS
 10
4.652891113
 20
4.8890374921
 11
4.652891113
 21
4.8896521826
  0
LINE
  5
29E
100
AcDbEntity
  8
0
100
AcDbLine
 62
7
  6
CONTINUOUS
 10
4.7083167389
 20
3.7176521826
 11
4.7083167389
 21
4.7936521826
  0
LINE
  5
29F
100
AcDbEntity
  8
03__ASM_ALL_CURVES
100
AcDbLine
 62
40
  6
CONTINUOUS
 10
5.0049847204
 20
3.3067696826
 11
4.9951714391
 21
3.3133118703
  0
LINE
  5
2A0
100
AcDbEntity
  8
03__ASM_ALL_CURVES
100
AcDbLine
 62
40
  6
CONTINUOUS
 10
5.0147980016
 20
3.3852759326
 11
5.0246112829
 21
3.3787337467
  0
LINE
  5
2A1
100
AcDbEntity
  8
03__ASM_ALL_CURVES
100
AcDbLine
 62
40
  6
CONTINUOUS
 10
5.0933042516
 20
3.3852759326
 11
5.1031175329
 21
3.3787337467
  0
LINE
  5
2A2
100
AcDbEntity
  8
03__ASM_ALL_CURVES
100
AcDbLine
 62
40
  6
CONTINUOUS
 10
5.1644505324
 20
3.4271459326
 11
5.1546372511
 21
3.4336881203
  0
LINE
  5
2A3
100
AcDbEntity
  8
03__ASM_ALL_CURVES
100
AcDbLine
 62
40
  6
CONTINUOUS
 10
4.9951714391
 20
3.3133118703
 11
4.9853581579
 21
3.3263962451
  0
LINE
  5
2A4
100
AcDbEntity
  8
03__ASM_ALL_CURVES
100
AcDbLine
 62
40
  6
CONTINUOUS
 10
3.6105683014
 20
5.258842268
 11
3.6171104889
 21
5.2501193472
  0
LINE
  5
2A5
100
AcDbEntity
  8
03__ASM_ALL_CURVES
100
AcDbLine
 62
40
  6
CONTINUOUS
 10
5.0246112829
 20
3.3787337467
 11
5.0344245641
 21
3.3656493701
  0
LINE
  5
2A6
100
AcDbEntity
  8
03__ASM_ALL_CURVES
100
AcDbLine
 62
40
  6
CONTINUOUS
 10
3.6890745514
 20
5.1716130995
 11
3.6956167389
 21
5.1628901826
  0
LINE
  5
2A7
100
AcDbEntity
  8
03__ASM_ALL_CURVES
100
AcDbLine
 62
40
  6
CONTINUOUS
 10
5.1031175329
 20
3.3787337467
 11
5.1080241735
 21
3.372191556
  0
LINE
  5
2A8
100
AcDbEntity
  8
03__ASM_ALL_CURVES
100
AcDbLine
 62
40
  6
CONTINUOUS
 10
3.7806651764
 20
5.1716130995
 11
3.7675808014
 21
5.1890589326
  0
LINE
  5
2A9
100
AcDbEntity
  8
03__ASM_ALL_CURVES
100
AcDbLine
 62
40
  6
CONTINUOUS
 10
4.8577855016
 20
3.3460228076
 11
4.8725054235
 21
3.3067696826
  0
LINE
  5
2AA
100
AcDbEntity
  8
03__ASM_ALL_CURVES
100
AcDbLine
 62
40
  6
CONTINUOUS
 10
4.7547460485
 20
3.3067696826
 11
4.7547460485
 21
3.3852759326
  0
LINE
  5
2AB
100
AcDbEntity
  8
03__ASM_ALL_CURVES
100
AcDbLine
 62
40
  6
CONTINUOUS
 10
4.7939991735
 20
3.372191556
 11
4.7939991735
 21
3.3591071842
  0
LINE
  5
2AC
100
AcDbEntity
  8
03__ASM_ALL_CURVES
100
AcDbLine
 62
40
  6
CONTINUOUS
 10
4.8332522985
 20
3.3067696826
 11
4.8332522985
 21
3.3852759326
  0
LINE
  5
2AD
100
AcDbEntity
  8
03__ASM_ALL_CURVES
100
AcDbLine
 62
40
  6
CONTINUOUS
 10
4.8725054235
 20
3.372191556
 11
4.8725054235
 21
3.3591071842
  0
LINE
  5
2AE
100
AcDbEntity
  8
0
100
AcDbLine
 62
7
  6
CONTINUOUS
 10
4.8953167389
 20
3.7176521826
 11
4.8953167389
 21
4.7936521826
  0
LINE
  5
2AF
100
AcDbEntity
  8
03__ASM_ALL_CURVES
100
AcDbLine
 62
40
  6
CONTINUOUS
 10
4.931385111
 20
3.3852759326
 11
4.931385111
 21
3.3067696826
  0
LINE
  5
2B0
100
AcDbEntity
  8
0
100
AcDbLine
 62
7
  6
CONTINUOUS
 10
4.9453167389
 20
3.7191521826
 11
4.9453167389
 21
4.7921521826
  0
LINE
  5
2B1
100
AcDbEntity
  8
03__ASM_ALL_CURVES
100
AcDbLine
 62
40
  6
CONTINUOUS
 10
6.6367950769
 20
3.3067696826
 11
6.6269817956
 21
3.3067696826
  0
LINE
  5
2B2
100
AcDbEntity
  8
03__ASM_ALL_CURVES
100
AcDbLine
 62
40
  6
CONTINUOUS
 10
6.3227700769
 20
3.3067696826
 11
6.3129567956
 21
3.3067696826
  0
LINE
  5
2B3
100
AcDbEntity
  8
03__ASM_ALL_CURVES
100
AcDbLine
 62
40
  6
CONTINUOUS
 10
6.2442638269
 20
3.3067696826
 11
6.2344505456
 21
3.3067696826
  0
LINE
  5
2B4
100
AcDbEntity
  8
03__ASM_ALL_CURVES
100
AcDbLine
 62
40
  6
CONTINUOUS
 10
5.6428480016
 20
3.3067696826
 11
5.6330347204
 21
3.3067696826
  0
LINE
  5
2B5
100
AcDbEntity
  8
03__ASM_ALL_CURVES
100
AcDbLine
 62
40
  6
CONTINUOUS
 10
5.0147980016
 20
3.3067696826
 11
5.0049847204
 21
3.3067696826
  0
LINE
  5
2B6
100
AcDbEntity
  8
03__ASM_ALL_CURVES
100
AcDbLine
 62
40
  6
CONTINUOUS
 10
5.5398085485
 20
3.3067696826
 11
5.5790616735
 21
3.3067696826
  0
LINE
  5
2B7
100
AcDbEntity
  8
03__ASM_ALL_CURVES
100
AcDbLine
 62
40
  6
CONTINUOUS
 10
5.9007989831
 20
3.3067696826
 11
5.9351454675
 21
3.3067696826
  0
LINE
  5
2B8
100
AcDbEntity
  8
03__ASM_ALL_CURVES
100
AcDbLine
 62
40
  6
CONTINUOUS
 10
6.5337556238
 20
3.3067696826
 11
6.5730087488
 21
3.3067696826
  0
LINE
  5
2B9
100
AcDbEntity
  8
03__ASM_ALL_CURVES
100
AcDbLine
 62
40
  6
CONTINUOUS
 10
6.1461310144
 20
3.3329384334
 11
6.1755708581
 21
3.3329384334
  0
LINE
  5
2BA
100
AcDbEntity
  8
03__ASM_ALL_CURVES
100
AcDbLine
 62
40
  6
CONTINUOUS
 10
6.0872513269
 20
3.3460228076
 11
6.0627181238
 21
3.3460228076
  0
LINE
  5
2BB
100
AcDbEntity
  8
03__ASM_ALL_CURVES
100
AcDbLine
 62
40
  6
CONTINUOUS
 10
5.0933042516
 20
3.3460228076
 11
5.0687710485
 21
3.3460228076
  0
LINE
  5
2BC
100
AcDbEntity
  8
03__ASM_ALL_CURVES
100
AcDbLine
 62
40
  6
CONTINUOUS
 10
4.8577855016
 20
3.3460228076
 11
4.8332522985
 21
3.3460228076
  0
LINE
  5
2BD
100
AcDbEntity
  8
03__ASM_ALL_CURVES
100
AcDbLine
 62
40
  6
CONTINUOUS
 10
4.7792792516
 20
3.3460228076
 11
4.7547460485
 21
3.3460228076
  0
LINE
  5
2BE
100
AcDbEntity
  8
03__ASM_ALL_CURVES
100
AcDbLine
 62
40
  6
CONTINUOUS
 10
5.4613022985
 20
3.3460228076
 11
5.4858355016
 21
3.3460228076
  0
LINE
  5
2BF
100
AcDbEntity
  8
03__ASM_ALL_CURVES
100
AcDbLine
 62
40
  6
CONTINUOUS
 10
6.4552493738
 20
3.3460228076
 11
6.4797825769
 21
3.3460228076
  0
LINE
  5
2C0
100
AcDbEntity
  8
03__ASM_ALL_CURVES
100
AcDbLine
 62
40
  6
CONTINUOUS
 10
5.9007989831
 20
3.3525649935
 11
5.9351454675
 21
3.3525649935
  0
LINE
  5
2C1
100
AcDbEntity
  8
03__ASM_ALL_CURVES
100
AcDbLine
 62
40
  6
CONTINUOUS
 10
6.3227700769
 20
3.3852759326
 11
6.3129567956
 21
3.3852759326
  0
LINE
  5
2C2
100
AcDbEntity
  8
03__ASM_ALL_CURVES
100
AcDbLine
 62
40
  6
CONTINUOUS
 10
6.2442638269
 20
3.3852759326
 11
6.2344505456
 21
3.3852759326
  0
LINE
  5
2C3
100
AcDbEntity
  8
03__ASM_ALL_CURVES
100
AcDbLine
 62
40
  6
CONTINUOUS
 10
5.9351454675
 20
3.3852759326
 11
5.9007989831
 21
3.3852759326
  0
LINE
  5
2C4
100
AcDbEntity
  8
03__ASM_ALL_CURVES
100
AcDbLine
 62
40
  6
CONTINUOUS
 10
4.7547460485
 20
3.3852759326
 11
4.7792792516
 21
3.3852759326
  0
LINE
  5
2C5
100
AcDbEntity
  8
03__ASM_ALL_CURVES
100
AcDbLine
 62
40
  6
CONTINUOUS
 10
4.8332522985
 20
3.3852759326
 11
4.8577855016
 21
3.3852759326
  0
LINE
  5
2C6
100
AcDbEntity
  8
03__ASM_ALL_CURVES
100
AcDbLine
 62
40
  6
CONTINUOUS
 10
5.0049847204
 20
3.3852759326
 11
5.0147980016
 21
3.3852759326
  0
LINE
  5
2C7
100
AcDbEntity
  8
03__ASM_ALL_CURVES
100
AcDbLine
 62
40
  6
CONTINUOUS
 10
5.0687710485
 20
3.3852759326
 11
5.0933042516
 21
3.3852759326
  0
LINE
  5
2C8
100
AcDbEntity
  8
03__ASM_ALL_CURVES
100
AcDbLine
 62
40
  6
CONTINUOUS
 10
5.2208769079
 20
3.3852759326
 11
5.2699433141
 21
3.3852759326
  0
LINE
  5
2C9
100
AcDbEntity
  8
03__ASM_ALL_CURVES
100
AcDbLine
 62
40
  6
CONTINUOUS
 10
5.4613022985
 20
3.3852759326
 11
5.5005554235
 21
3.3852759326
  0
LINE
  5
2CA
100
AcDbEntity
  8
03__ASM_ALL_CURVES
100
AcDbLine
 62
40
  6
CONTINUOUS
 10
5.6330347204
 20
3.3852759326
 11
5.6428480016
 21
3.3852759326
  0
LINE
  5
2CB
100
AcDbEntity
  8
03__ASM_ALL_CURVES
100
AcDbLine
 62
40
  6
CONTINUOUS
 10
6.0627181238
 20
3.3852759326
 11
6.0872513269
 21
3.3852759326
  0
LINE
  5
2CC
100
AcDbEntity
  8
03__ASM_ALL_CURVES
100
AcDbLine
 62
40
  6
CONTINUOUS
 10
6.4552493738
 20
3.3852759326
 11
6.4945024988
 21
3.3852759326
  0
LINE
  5
2CD
100
AcDbEntity
  8
03__ASM_ALL_CURVES
100
AcDbLine
 62
40
  6
CONTINUOUS
 10
6.6269817956
 20
3.3852759326
 11
6.6367950769
 21
3.3852759326
  0
LINE
  5
2CE
100
AcDbEntity
  8
03__ASM_ALL_CURVES
100
AcDbLine
 62
40
  6
CONTINUOUS
 10
6.246717111
 20
3.4271459326
 11
6.2369038298
 21
3.4271459326
  0
LINE
  5
2CF
100
AcDbEntity
  8
03__ASM_ALL_CURVES
100
AcDbLine
 62
40
  6
CONTINUOUS
 10
5.4097825636
 20
3.4271459326
 11
5.3999692824
 21
3.4271459326
  0
LINE
  5
2D0
100
AcDbEntity
  8
03__ASM_ALL_CURVES
100
AcDbLine
 62
40
  6
CONTINUOUS
 10
5.1742638136
 20
3.4271459326
 11
5.1644505324
 21
3.4271459326
  0
LINE
  5
2D1
100
AcDbEntity
  8
03__ASM_ALL_CURVES
100
AcDbLine
 62
40
  6
CONTINUOUS
 10
6.4577026579
 20
3.4271459326
 11
6.4969557829
 21
3.4271459326
  0
LINE
  5
2D2
100
AcDbEntity
  8
03__ASM_ALL_CURVES
100
AcDbLine
 62
40
  6
CONTINUOUS
 10
5.0957575636
 20
3.5056521826
 11
5.1055708449
 21
3.4991099967
  0
LINE
  5
2D3
100
AcDbEntity
  8
03__ASM_ALL_CURVES
100
AcDbLine
 62
40
  6
CONTINUOUS
 10
5.1742638136
 20
3.5056521826
 11
5.1840770949
 21
3.4991099967
  0
LINE
  5
2D4
100
AcDbEntity
  8
03__ASM_ALL_CURVES
100
AcDbLine
 62
40
  6
CONTINUOUS
 10
5.2527700636
 20
3.5056521826
 11
5.2625833449
 21
3.4991099967
  0
LINE
  5
2D5
100
AcDbEntity
  8
03__ASM_ALL_CURVES
100
AcDbLine
 62
40
  6
CONTINUOUS
 10
5.3999692824
 20
3.4271459326
 11
5.3901560011
 21
3.4336881203
  0
LINE
  5
2D6
100
AcDbEntity
  8
03__ASM_ALL_CURVES
100
AcDbLine
 62
40
  6
CONTINUOUS
 10
5.6330347204
 20
3.3067696826
 11
5.6232214391
 21
3.3133118703
  0
LINE
  5
2D7
100
AcDbEntity
  8
03__ASM_ALL_CURVES
100
AcDbLine
 62
40
  6
CONTINUOUS
 10
5.4097825636
 20
3.4729412435
 11
5.4195958449
 21
3.4663990576
  0
LINE
  5
2D8
100
AcDbEntity
  8
03__ASM_ALL_CURVES
100
AcDbLine
 62
40
  6
CONTINUOUS
 10
5.4097825636
 20
3.5056521826
 11
5.4195958449
 21
3.4991099967
  0
LINE
  5
2D9
100
AcDbEntity
  8
03__ASM_ALL_CURVES
100
AcDbLine
 62
40
  6
CONTINUOUS
 10
5.6428480016
 20
3.3852759326
 11
5.6526612829
 21
3.3787337467
  0
LINE
  5
2DA
100
AcDbEntity
  8
03__ASM_ALL_CURVES
100
AcDbLine
 62
40
  6
CONTINUOUS
 10
3.7806651764
 20
5.232673518
 11
3.7741229889
 21
5.2413964326
  0
LINE
  5
2DB
100
AcDbEntity
  8
03__ASM_ALL_CURVES
100
AcDbLine
 62
40
  6
CONTINUOUS
 10
5.1546372511
 20
3.4336881203
 11
5.1448239699
 21
3.4467724951
  0
LINE
  5
2DC
100
AcDbEntity
  8
03__ASM_ALL_CURVES
100
AcDbLine
 62
40
  6
CONTINUOUS
 10
5.1055708449
 20
3.4991099967
 11
5.1104774855
 21
3.492567806
  0
LINE
  5
2DD
100
AcDbEntity
  8
03__ASM_ALL_CURVES
100
AcDbLine
 62
40
  6
CONTINUOUS
 10
3.8199183014
 20
5.2152276826
 11
3.8330026764
 21
5.1977818503
  0
LINE
  5
2DE
100
AcDbEntity
  8
03__ASM_ALL_CURVES
100
AcDbLine
 62
40
  6
CONTINUOUS
 10
3.8199183014
 20
5.258842268
 11
3.8264604889
 21
5.2501193472
  0
LINE
  5
2DF
100
AcDbEntity
  8
03__ASM_ALL_CURVES
100
AcDbLine
 62
40
  6
CONTINUOUS
 10
5.1840770949
 20
3.4991099967
 11
5.1938903761
 21
3.4860256201
  0
LINE
  5
2E0
100
AcDbEntity
  8
03__ASM_ALL_CURVES
100
AcDbLine
 62
40
  6
CONTINUOUS
 10
5.2625833449
 20
3.4991099967
 11
5.2674899855
 21
3.492567806
  0
LINE
  5
2E1
100
AcDbEntity
  8
03__ASM_ALL_CURVES
100
AcDbLine
 62
40
  6
CONTINUOUS
 10
4.0030995514
 20
5.1803360164
 11
4.0161839264
 21
5.1628901826
  0
LINE
  5
2E2
100
AcDbEntity
  8
03__ASM_ALL_CURVES
100
AcDbLine
 62
40
  6
CONTINUOUS
 10
5.3901560011
 20
3.4336881203
 11
5.3852493605
 21
3.440230308
  0
LINE
  5
2E3
100
AcDbEntity
  8
03__ASM_ALL_CURVES
100
AcDbLine
 62
40
  6
CONTINUOUS
 10
5.3042897985
 20
3.3852759326
 11
5.323916361
 21
3.3460228076
  0
LINE
  5
2E4
100
AcDbEntity
  8
03__ASM_ALL_CURVES
100
AcDbLine
 62
40
  6
CONTINUOUS
 10
5.0933042516
 20
3.3460228076
 11
5.1080241735
 21
3.3067696826
  0
LINE
  5
2E5
100
AcDbEntity
  8
03__ASM_ALL_CURVES
100
AcDbLine
 62
40
  6
CONTINUOUS
 10
4.9853581579
 20
3.3263962451
 11
4.9804515173
 21
3.3460228076
  0
LINE
  5
2E6
100
AcDbEntity
  8
03__ASM_ALL_CURVES
100
AcDbLine
 62
40
  6
CONTINUOUS
 10
5.0344245641
 20
3.3656493701
 11
5.0393312048
 21
3.3460228076
  0
LINE
  5
2E7
100
AcDbEntity
  8
03__ASM_ALL_CURVES
100
AcDbLine
 62
40
  6
CONTINUOUS
 10
4.6442339264
 20
5.2501193472
 11
4.6507761139
 21
5.2239505972
  0
LINE
  5
2E8
100
AcDbEntity
  8
03__ASM_ALL_CURVES
100
AcDbLine
 62
40
  6
CONTINUOUS
 10
5.1448239699
 20
3.4467724951
 11
5.1399173293
 21
3.4663990576
  0
LINE
  5
2E9
100
AcDbEntity
  8
0
100
AcDbLine
 62
7
  6
CONTINUOUS
 10
5.0153167389
 20
4.7731521826
 11
5.0153167389
 21
3.7381521826
  0
LINE
  5
2EA
100
AcDbEntity
  8
0
100
AcDbLine
 62
7
  6
CONTINUOUS
 10
5.0363167389
 20
3.7176521826
 11
5.0363167389
 21
4.7936521826
  0
LINE
  5
2EB
100
AcDbEntity
  8
03__ASM_ALL_CURVES
100
AcDbLine
 62
40
  6
CONTINUOUS
 10
5.0687710485
 20
3.3067696826
 11
5.0687710485
 21
3.3852759326
  0
LINE
  5
2EC
100
AcDbEntity
  8
03__ASM_ALL_CURVES
100
AcDbLine
 62
40
  6
CONTINUOUS
 10
5.0712243605
 20
3.4271459326
 11
5.0712243605
 21
3.5056521826
  0
LINE
  5
2ED
100
AcDbEntity
  8
0
100
AcDbLine
 62
7
  6
CONTINUOUS
 10
5.0813167389
 20
3.7176521826
 11
5.0813167389
 21
4.7936521826
  0
LINE
  5
2EE
100
AcDbEntity
  8
0
100
AcDbLine
 62
7
  6
CONTINUOUS
 10
5.1027526743
 20
3.7976521826
 11
5.1027526743
 21
4.7136521826
  0
LINE
  5
2EF
100
AcDbEntity
  8
03__ASM_ALL_CURVES
100
AcDbLine
 62
40
  6
CONTINUOUS
 10
5.1080241735
 20
3.372191556
 11
5.1080241735
 21
3.3591071842
  0
LINE
  5
2F0
100
AcDbEntity
  8
03__ASM_ALL_CURVES
100
AcDbLine
 62
40
  6
CONTINUOUS
 10
5.1104774855
 20
3.492567806
 11
5.1104774855
 21
3.4794834342
  0
LINE
  5
2F1
100
AcDbEntity
  8
03__ASM_ALL_CURVES
100
AcDbLine
 62
40
  6
CONTINUOUS
 10
5.166903861
 20
3.3852759326
 11
5.166903861
 21
3.3067696826
  0
LINE
  5
2F2
100
AcDbEntity
  8
0
100
AcDbLine
 62
7
  6
CONTINUOUS
 10
4.7083167389
 20
3.7176521826
 11
4.6531572818
 21
3.6221132005
  0
LINE
  5
2F3
100
AcDbEntity
  8
03__ASM_ALL_CURVES
100
AcDbLine
 62
40
  6
CONTINUOUS
 10
5.7990139258
 20
5.258842268
 11
5.8120983008
 21
5.2675651826
  0
LINE
  5
2F4
100
AcDbEntity
  8
03__ASM_ALL_CURVES
100
AcDbLine
 62
40
  6
CONTINUOUS
 10
5.9036889258
 20
5.258842268
 11
5.9167733008
 21
5.2675651826
  0
LINE
  5
2F5
100
AcDbEntity
  8
03__ASM_ALL_CURVES
100
AcDbLine
 62
40
  6
CONTINUOUS
 10
5.8382670508
 20
5.1716130995
 11
5.8251826758
 21
5.1628901826
  0
LINE
  5
2F6
100
AcDbEntity
  8
03__ASM_ALL_CURVES
100
AcDbLine
 62
40
  6
CONTINUOUS
 10
5.9429420508
 20
5.1716130995
 11
5.9298576758
 21
5.1628901826
  0
LINE
  5
2F7
100
AcDbEntity
  8
03__ASM_ALL_CURVES
100
AcDbLine
 62
40
  6
CONTINUOUS
 10
6.325223361
 20
3.4663990576
 11
6.3006901579
 21
3.4663990576
  0
LINE
  5
2F8
100
AcDbEntity
  8
03__ASM_ALL_CURVES
100
AcDbLine
 62
40
  6
CONTINUOUS
 10
6.168210861
 20
3.4663990576
 11
6.1436776579
 21
3.4663990576
  0
LINE
  5
2F9
100
AcDbEntity
  8
03__ASM_ALL_CURVES
100
AcDbLine
 62
40
  6
CONTINUOUS
 10
5.2527700636
 20
3.4663990576
 11
5.2282368605
 21
3.4663990576
  0
LINE
  5
2FA
100
AcDbEntity
  8
03__ASM_ALL_CURVES
100
AcDbLine
 62
40
  6
CONTINUOUS
 10
5.0957575636
 20
3.4663990576
 11
5.0712243605
 21
3.4663990576
  0
LINE
  5
2FB
100
AcDbEntity
  8
03__ASM_ALL_CURVES
100
AcDbLine
 62
40
  6
CONTINUOUS
 10
5.3999692824
 20
3.4729412435
 11
5.4097825636
 21
3.4729412435
  0
LINE
  5
2FC
100
AcDbEntity
  8
03__ASM_ALL_CURVES
100
AcDbLine
 62
40
  6
CONTINUOUS
 10
5.0712243605
 20
3.5056521826
 11
5.0957575636
 21
3.5056521826
  0
LINE
  5
2FD
100
AcDbEntity
  8
03__ASM_ALL_CURVES
100
AcDbLine
 62
40
  6
CONTINUOUS
 10
5.1644505324
 20
3.5056521826
 11
5.1742638136
 21
3.5056521826
  0
LINE
  5
2FE
100
AcDbEntity
  8
03__ASM_ALL_CURVES
100
AcDbLine
 62
40
  6
CONTINUOUS
 10
5.2282368605
 20
3.5056521826
 11
5.2527700636
 21
3.5056521826
  0
LINE
  5
2FF
100
AcDbEntity
  8
03__ASM_ALL_CURVES
100
AcDbLine
 62
40
  6
CONTINUOUS
 10
5.3018364699
 20
3.5056521826
 11
5.3509028761
 21
3.5056521826
  0
LINE
  5
300
100
AcDbEntity
  8
03__ASM_ALL_CURVES
100
AcDbLine
 62
40
  6
CONTINUOUS
 10
5.3999692824
 20
3.5056521826
 11
5.4097825636
 21
3.5056521826
  0
LINE
  5
301
100
AcDbEntity
  8
03__ASM_ALL_CURVES
100
AcDbLine
 62
40
  6
CONTINUOUS
 10
6.1436776579
 20
3.5056521826
 11
6.168210861
 21
3.5056521826
  0
LINE
  5
302
100
AcDbEntity
  8
03__ASM_ALL_CURVES
100
AcDbLine
 62
40
  6
CONTINUOUS
 10
6.2369038298
 20
3.5056521826
 11
6.246717111
 21
3.5056521826
  0
LINE
  5
303
100
AcDbEntity
  8
03__ASM_ALL_CURVES
100
AcDbLine
 62
40
  6
CONTINUOUS
 10
6.3006901579
 20
3.5056521826
 11
6.325223361
 21
3.5056521826
  0
LINE
  5
304
100
AcDbEntity
  8
03__ASM_ALL_CURVES
100
AcDbLine
 62
40
  6
CONTINUOUS
 10
6.3742897673
 20
3.5056521826
 11
6.4233561735
 21
3.5056521826
  0
LINE
  5
305
100
AcDbEntity
  8
03__ASM_ALL_CURVES
100
AcDbLine
 62
40
  6
CONTINUOUS
 10
6.4724225798
 20
3.5056521826
 11
6.482235861
 21
3.5056521826
  0
LINE
  5
306
100
AcDbEntity
  8
0
100
AcDbLine
 62
7
  6
CONTINUOUS
 10
4.652891113
 20
3.6216521826
 11
4.0659274101
 21
3.6216521826
  0
LINE
  5
307
100
AcDbEntity
  8
0
100
AcDbLine
 62
7
  6
CONTINUOUS
 10
4.652891113
 20
3.6222668731
 11
4.0659274101
 21
3.6222668731
  0
LINE
  5
308
100
AcDbEntity
  8
03__ASM_ALL_CURVES
100
AcDbLine
 62
40
  6
CONTINUOUS
 10
5.4195958449
 20
3.4663990576
 11
5.4294091261
 21
3.4533146834
  0
LINE
  5
309
100
AcDbEntity
  8
03__ASM_ALL_CURVES
100
AcDbLine
 62
40
  6
CONTINUOUS
 10
5.4195958449
 20
3.4991099967
 11
5.4245024855
 21
3.492567806
  0
LINE
  5
30A
100
AcDbEntity
  8
03__ASM_ALL_CURVES
100
AcDbLine
 62
40
  6
CONTINUOUS
 10
5.6232214391
 20
3.3133118703
 11
5.6134081579
 21
3.3263962451
  0
LINE
  5
30B
100
AcDbEntity
  8
03__ASM_ALL_CURVES
100
AcDbLine
 62
40
  6
CONTINUOUS
 10
5.6526612829
 20
3.3787337467
 11
5.6624745641
 21
3.3656493701
  0
LINE
  5
30C
100
AcDbEntity
  8
03__ASM_ALL_CURVES
100
AcDbLine
 62
40
  6
CONTINUOUS
 10
4.3171245514
 20
5.1716130995
 11
4.3236667389
 21
5.1628901826
  0
LINE
  5
30D
100
AcDbEntity
  8
0
100
AcDbLine
 62
7
  6
CONTINUOUS
 10
4.7083167389
 20
4.7936521826
 11
4.6531572818
 21
4.8891911647
  0
LINE
  5
30E
100
AcDbEntity
  8
03__ASM_ALL_CURVES
100
AcDbLine
 62
40
  6
CONTINUOUS
 10
5.2527700636
 20
3.4663990576
 11
5.2674899855
 21
3.4271459326
  0
LINE
  5
30F
100
AcDbEntity
  8
03__ASM_ALL_CURVES
100
AcDbLine
 62
40
  6
CONTINUOUS
 10
5.1938903761
 20
3.4860256201
 11
5.1987970168
 21
3.4663990576
  0
LINE
  5
310
100
AcDbEntity
  8
0
100
AcDbLine
 62
7
  6
CONTINUOUS
 10
5.2083167389
 20
4.2508868264
 11
5.2083167389
 21
4.2604113712
  0
LINE
  5
311
100
AcDbEntity
  8
03__ASM_ALL_CURVES
100
AcDbLine
 62
40
  6
CONTINUOUS
 10
5.2282368605
 20
3.4271459326
 11
5.2282368605
 21
3.5056521826
  0
LINE
  5
312
100
AcDbEntity
  8
03__ASM_ALL_CURVES
100
AcDbLine
 62
40
  6
CONTINUOUS
 10
5.245410111
 20
3.3852759326
 11
5.245410111
 21
3.3067696826
  0
LINE
  5
313
100
AcDbEntity
  8
03__ASM_ALL_CURVES
100
AcDbLine
 62
40
  6
CONTINUOUS
 10
5.2674899855
 20
3.492567806
 11
5.2674899855
 21
3.4794834342
  0
LINE
  5
314
100
AcDbEntity
  8
03__ASM_ALL_CURVES
100
AcDbLine
 62
40
  6
CONTINUOUS
 10
5.323916361
 20
3.3460228076
 11
5.323916361
 21
3.3067696826
  0
LINE
  5
315
100
AcDbEntity
  8
03__ASM_ALL_CURVES
100
AcDbLine
 62
40
  6
CONTINUOUS
 10
5.326369673
 20
3.5056521826
 11
5.326369673
 21
3.4271459326
  0
LINE
  5
316
100
AcDbEntity
  8
03__ASM_ALL_CURVES
100
AcDbLine
 62
40
  6
CONTINUOUS
 10
5.3947067389
 20
5.1419551826
 11
5.3947067389
 21
5.1000851826
  0
LINE
  5
317
100
AcDbEntity
  8
03__ASM_ALL_CURVES
100
AcDbLine
 62
40
  6
CONTINUOUS
 10
4.9804515173
 20
3.3460228076
 11
4.9853581579
 21
3.3656493701
  0
LINE
  5
318
100
AcDbEntity
  8
03__ASM_ALL_CURVES
100
AcDbLine
 62
40
  6
CONTINUOUS
 10
5.0393312048
 20
3.3460228076
 11
5.0344245641
 21
3.3263962451
  0
LINE
  5
319
100
AcDbEntity
  8
03__ASM_ALL_CURVES
100
AcDbLine
 62
40
  6
CONTINUOUS
 10
5.1399173293
 20
3.4663990576
 11
5.1448239699
 21
3.4860256201
  0
LINE
  5
31A
100
AcDbEntity
  8
0
100
AcDbLine
 62
7
  6
CONTINUOUS
 10
5.1027526743
 20
3.7976521826
 11
5.0813167389
 21
3.7176521826
  0
LINE
  5
31B
100
AcDbEntity
  8
0
100
AcDbLine
 62
7
  6
CONTINUOUS
 10
5.4553167389
 20
4.7936521826
 11
5.4338808035
 21
4.7136521826
  0
LINE
  5
31C
100
AcDbEntity
  8
03__ASM_ALL_CURVES
100
AcDbLine
 62
40
  6
CONTINUOUS
 10
5.7859295508
 20
5.2413964326
 11
5.7990139258
 21
5.258842268
  0
LINE
  5
31D
100
AcDbEntity
  8
03__ASM_ALL_CURVES
100
AcDbLine
 62
40
  6
CONTINUOUS
 10
5.8513514258
 20
5.1890589326
 11
5.8382670508
 21
5.1716130995
  0
LINE
  5
31E
100
AcDbEntity
  8
03__ASM_ALL_CURVES
100
AcDbLine
 62
40
  6
CONTINUOUS
 10
5.8906045508
 20
5.2413964326
 11
5.9036889258
 21
5.258842268
  0
LINE
  5
31F
100
AcDbEntity
  8
03__ASM_ALL_CURVES
100
AcDbLine
 62
40
  6
CONTINUOUS
 10
5.9494842383
 20
5.1803360164
 11
5.9429420508
 21
5.1716130995
  0
LINE
  5
320
100
AcDbEntity
  8
03__ASM_ALL_CURVES
100
AcDbLine
 62
40
  6
CONTINUOUS
 10
6.4270639258
 20
5.258842268
 11
6.4401483008
 21
5.2675651826
  0
LINE
  5
321
100
AcDbEntity
  8
0
100
AcDbLine
 62
7
  6
CONTINUOUS
 10
5.5416731453
 20
3.7404823096
 11
5.5441731453
 21
3.7411521826
  0
LINE
  5
322
100
AcDbEntity
  8
0
100
AcDbLine
 62
7
  6
CONTINUOUS
 10
5.5173167389
 20
3.7176521826
 11
5.4553167389
 21
3.7176521826
  0
LINE
  5
323
100
AcDbEntity
  8
0
100
AcDbLine
 62
7
  6
CONTINUOUS
 10
5.0813167389
 20
3.7176521826
 11
5.0363167389
 21
3.7176521826
  0
LINE
  5
324
100
AcDbEntity
  8
0
100
AcDbLine
 62
7
  6
CONTINUOUS
 10
4.8953167389
 20
3.7176521826
 11
4.7083167389
 21
3.7176521826
  0
LINE
  5
325
100
AcDbEntity
  8
0
100
AcDbLine
 62
7
  6
CONTINUOUS
 10
4.8953167389
 20
3.7191521826
 11
4.9453167389
 21
3.7191521826
  0
LINE
  5
326
100
AcDbEntity
  8
THREAD
100
AcDbLine
 62
7
  6
CONTINUOUS
 10
5.5673167389
 20
3.7411521826
 11
5.5441731453
 21
3.7411521826
  0
LINE
  5
327
100
AcDbEntity
  8
0
100
AcDbLine
 62
7
  6
CONTINUOUS
 10
5.6373167389
 20
3.7436521826
 11
5.6873167389
 21
3.7436521826
  0
LINE
  5
328
100
AcDbEntity
  8
0
100
AcDbLine
 62
7
  6
CONTINUOUS
 10
4.0203167389
 20
3.7586521826
 11
3.5823167389
 21
3.7586521826
  0
LINE
  5
329
100
AcDbEntity
  8
THREAD
100
AcDbLine
 62
7
  6
CONTINUOUS
 10
6.0013167389
 20
3.7596521826
 11
5.7302560491
 21
3.7596521826
  0
LINE
  5
32A
100
AcDbEntity
  8
0
100
AcDbLine
 62
7
  6
CONTINUOUS
 10
5.0363167389
 20
3.7731521826
 11
5.0153167389
 21
3.7731521826
  0
LINE
  5
32B
100
AcDbEntity
  8
THREAD
100
AcDbLine
 62
7
  6
CONTINUOUS
 10
5.7008111854
 20
3.7976521826
 11
5.6873167389
 21
3.7976521826
  0
LINE
  5
32C
100
AcDbEntity
  8
0
100
AcDbLine
 62
7
  6
CONTINUOUS
 10
5.4338808035
 20
3.7976521826
 11
5.4108167389
 21
3.7976521826
  0
LINE
  5
32D
100
AcDbEntity
  8
0
100
AcDbLine
 62
7
  6
CONTINUOUS
 10
5.2078167389
 20
3.7976521826
 11
5.1027526743
 21
3.7976521826
  0
LINE
  5
32E
100
AcDbEntity
  8
THREAD
100
AcDbLine
 62
7
  6
CONTINUOUS
 10
6.1293167389
 20
3.8036521826
 11
6.0453167389
 21
3.8036521826
  0
LINE
  5
32F
100
AcDbEntity
  8
0
100
AcDbLine
 62
7
  6
CONTINUOUS
 10
6.5743167389
 20
3.8191521826
 11
6.6403167389
 21
3.8191521826
  0
LINE
  5
330
100
AcDbEntity
  8
0
100
AcDbLine
 62
7
  6
CONTINUOUS
 10
6.8383167389
 20
3.8191521826
 11
6.8793167389
 21
3.8191521826
  0
LINE
  5
331
100
AcDbEntity
  8
0
100
AcDbLine
 62
7
  6
CONTINUOUS
 10
6.6403167389
 20
3.8196521826
 11
6.6903167389
 21
3.8196521826
  0
LINE
  5
332
100
AcDbEntity
  8
0
100
AcDbLine
 62
7
  6
CONTINUOUS
 10
6.7603167389
 20
3.8196521826
 11
6.8103167389
 21
3.8196521826
  0
LINE
  5
333
100
AcDbEntity
  8
0
100
AcDbLine
 62
7
  6
CONTINUOUS
 10
6.8383167389
 20
3.8736521826
 11
6.8103167389
 21
3.8736521826
  0
LINE
  5
334
100
AcDbEntity
  8
0
100
AcDbLine
 62
7
  6
CONTINUOUS
 10
6.5743167389
 20
3.8816521826
 11
6.4263167389
 21
3.8816521826
  0
LINE
  5
335
100
AcDbEntity
  8
0
100
AcDbLine
 62
7
  6
CONTINUOUS
 10
6.2703167389
 20
3.8816521826
 11
6.1453167389
 21
3.8816521826
  0
LINE
  5
336
100
AcDbEntity
  8
03__ASM_ALL_CURVES
100
AcDbLine
 62
40
  6
CONTINUOUS
 10
6.0872513269
 20
3.3852759326
 11
6.0970646081
 21
3.3787337467
  0
LINE
  5
337
100
AcDbEntity
  8
03__ASM_ALL_CURVES
100
AcDbLine
 62
40
  6
CONTINUOUS
 10
6.2344505456
 20
3.3067696826
 11
6.2246372644
 21
3.3133118703
  0
LINE
  5
338
100
AcDbEntity
  8
03__ASM_ALL_CURVES
100
AcDbLine
 62
40
  6
CONTINUOUS
 10
6.2246372644
 20
3.3591071842
 11
6.2540771081
 21
3.3394806193
  0
LINE
  5
339
100
AcDbEntity
  8
03__ASM_ALL_CURVES
100
AcDbLine
 62
40
  6
CONTINUOUS
 10
6.3129567956
 20
3.3067696826
 11
6.3031435144
 21
3.3133118703
  0
LINE
  5
33A
100
AcDbEntity
  8
03__ASM_ALL_CURVES
100
AcDbLine
 62
40
  6
CONTINUOUS
 10
6.2540771081
 20
3.3787337467
 11
6.2442638269
 21
3.3852759326
  0
LINE
  5
33B
100
AcDbEntity
  8
03__ASM_ALL_CURVES
100
AcDbLine
 62
40
  6
CONTINUOUS
 10
6.3031435144
 20
3.3591071842
 11
6.3325833581
 21
3.3394806193
  0
LINE
  5
33C
100
AcDbEntity
  8
03__ASM_ALL_CURVES
100
AcDbLine
 62
40
  6
CONTINUOUS
 10
6.2369038298
 20
3.4271459326
 11
6.2270905485
 21
3.4336881203
  0
LINE
  5
33D
100
AcDbEntity
  8
03__ASM_ALL_CURVES
100
AcDbLine
 62
40
  6
CONTINUOUS
 10
6.3325833581
 20
3.3787337467
 11
6.3227700769
 21
3.3852759326
  0
LINE
  5
33E
100
AcDbEntity
  8
03__ASM_ALL_CURVES
100
AcDbLine
 62
40
  6
CONTINUOUS
 10
6.168210861
 20
3.5056521826
 11
6.1780241423
 21
3.4991099967
  0
LINE
  5
33F
100
AcDbEntity
  8
03__ASM_ALL_CURVES
100
AcDbLine
 62
40
  6
CONTINUOUS
 10
3.5974839264
 20
5.2675651826
 11
3.6105683014
 21
5.258842268
  0
LINE
  5
340
100
AcDbEntity
  8
03__ASM_ALL_CURVES
100
AcDbLine
 62
40
  6
CONTINUOUS
 10
4.4087151764
 20
5.1716130995
 11
4.4021729889
 21
5.1803360164
  0
LINE
  5
341
100
AcDbEntity
  8
03__ASM_ALL_CURVES
100
AcDbLine
 62
40
  6
CONTINUOUS
 10
4.4479683014
 20
5.2152276826
 11
4.4610526764
 21
5.1977818503
  0
LINE
  5
342
100
AcDbEntity
  8
03__ASM_ALL_CURVES
100
AcDbLine
 62
40
  6
CONTINUOUS
 10
4.4479683014
 20
5.258842268
 11
4.4545104889
 21
5.2501193472
  0
LINE
  5
343
100
AcDbEntity
  8
03__ASM_ALL_CURVES
100
AcDbLine
 62
40
  6
CONTINUOUS
 10
5.9449587488
 20
3.3394806193
 11
5.9351454675
 21
3.3525649935
  0
LINE
  5
344
100
AcDbEntity
  8
03__ASM_ALL_CURVES
100
AcDbLine
 62
40
  6
CONTINUOUS
 10
5.9400521081
 20
3.3787337467
 11
5.9351454675
 21
3.3852759326
  0
LINE
  5
345
100
AcDbEntity
  8
0
100
AcDbLine
 62
7
  6
CONTINUOUS
 10
5.1027526743
 20
4.7136521826
 11
5.0813167389
 21
4.7936521826
  0
LINE
  5
346
100
AcDbEntity
  8
0
100
AcDbLine
 62
7
  6
CONTINUOUS
 10
5.4553167389
 20
3.7176521826
 11
5.4338808035
 21
3.7976521826
  0
LINE
  5
347
100
AcDbEntity
  8
03__ASM_ALL_CURVES
100
AcDbLine
 62
40
  6
CONTINUOUS
 10
5.6134081579
 20
3.3263962451
 11
5.6085015173
 21
3.3460228076
  0
LINE
  5
348
100
AcDbEntity
  8
03__ASM_ALL_CURVES
100
AcDbLine
 62
40
  6
CONTINUOUS
 10
5.4245024855
 20
3.492567806
 11
5.4245024855
 21
3.4860256201
  0
LINE
  5
349
100
AcDbEntity
  8
03__ASM_ALL_CURVES
100
AcDbLine
 62
40
  6
CONTINUOUS
 10
5.4294091261
 20
3.4533146834
 11
5.4294091261
 21
3.4467724951
  0
LINE
  5
34A
100
AcDbEntity
  8
0
100
AcDbLine
 62
7
  6
CONTINUOUS
 10
5.4338808035
 20
3.7976521826
 11
5.4338808035
 21
4.7136521826
  0
LINE
  5
34B
100
AcDbEntity
  8
0
100
AcDbLine
 62
7
  6
CONTINUOUS
 10
5.4553167389
 20
3.7176521826
 11
5.4553167389
 21
4.7936521826
  0
LINE
  5
34C
100
AcDbEntity
  8
03__ASM_ALL_CURVES
100
AcDbLine
 62
40
  6
CONTINUOUS
 10
5.4613022985
 20
3.3067696826
 11
5.4613022985
 21
3.3852759326
  0
LINE
  5
34D
100
AcDbEntity
  8
0
100
AcDbLine
 62
7
  6
CONTINUOUS
 10
5.5173167389
 20
4.7936521826
 11
5.5173167389
 21
3.7176521826
  0
LINE
  5
34E
100
AcDbEntity
  8
0
100
AcDbLine
 62
7
  6
CONTINUOUS
 10
5.5203167389
 20
4.7906521826
 11
5.5203167389
 21
3.7206521826
  0
LINE
  5
34F
100
AcDbEntity
  8
03__ASM_ALL_CURVES
100
AcDbLine
 62
40
  6
CONTINUOUS
 10
5.5203167389
 20
4.8145871826
 11
5.5203167389
 21
5.1628901826
  0
LINE
  5
350
100
AcDbEntity
  8
0
100
AcDbLine
 62
7
  6
CONTINUOUS
 10
5.5228167389
 20
3.7295955583
 11
5.5228167389
 21
4.7817088069
  0
LINE
  5
351
100
AcDbEntity
  8
03__ASM_ALL_CURVES
100
AcDbLine
 62
40
  6
CONTINUOUS
 10
5.5398085485
 20
3.3852759326
 11
5.5398085485
 21
3.3067696826
  0
LINE
  5
352
100
AcDbEntity
  8
0
100
AcDbLine
 62
7
  6
CONTINUOUS
 10
5.5416731389
 20
4.7701522066
 11
5.5416731453
 21
4.7708220556
  0
LINE
  5
353
100
AcDbEntity
  8
0
100
AcDbLine
 62
7
  6
CONTINUOUS
 10
5.5416731453
 20
3.7404823096
 11
5.5416731389
 21
4.7701522066
  0
LINE
  5
354
100
AcDbEntity
  8
0
100
AcDbLine
 62
7
  6
CONTINUOUS
 10
5.5441731453
 20
3.7411521826
 11
5.5441731453
 21
4.7701521826
  0
LINE
  5
355
100
AcDbEntity
  8
THREAD
100
AcDbLine
 62
7
  6
CONTINUOUS
 10
5.5673167389
 20
3.7411521826
 11
5.5673167389
 21
4.7701521826
  0
LINE
  5
356
100
AcDbEntity
  8
03__ASM_ALL_CURVES
100
AcDbLine
 62
40
  6
CONTINUOUS
 10
5.1987970168
 20
3.4663990576
 11
5.1938903761
 21
3.4467724951
  0
LINE
  5
357
100
AcDbEntity
  8
03__ASM_ALL_CURVES
100
AcDbLine
 62
40
  6
CONTINUOUS
 10
5.7793873633
 20
5.2152276826
 11
5.7859295508
 21
5.2413964326
  0
LINE
  5
358
100
AcDbEntity
  8
THREAD
100
AcDbLine
 62
7
  6
CONTINUOUS
 10
5.7302560491
 20
4.7516521826
 11
5.7120695156
 21
4.7201521826
  0
LINE
  5
359
100
AcDbEntity
  8
03__ASM_ALL_CURVES
100
AcDbLine
 62
40
  6
CONTINUOUS
 10
4.7939991735
 20
3.3591071842
 11
4.7890925329
 21
3.3525649935
  0
LINE
  5
35A
100
AcDbEntity
  8
03__ASM_ALL_CURVES
100
AcDbLine
 62
40
  6
CONTINUOUS
 10
6.4663170508
 20
5.1716130995
 11
6.4532326758
 21
5.1628901826
  0
LINE
  5
35B
100
AcDbEntity
  8
03__ASM_ALL_CURVES
100
AcDbLine
 62
40
  6
CONTINUOUS
 10
6.6494983008
 20
5.2675651826
 11
6.6364139258
 21
5.258842268
  0
LINE
  5
35C
100
AcDbEntity
  8
03__ASM_ALL_CURVES
100
AcDbLine
 62
40
  6
CONTINUOUS
 10
6.6756670508
 20
5.1716130995
 11
6.6625826758
 21
5.1628901826
  0
LINE
  5
35D
100
AcDbEntity
  8
03__ASM_ALL_CURVES
100
AcDbLine
 62
40
  6
CONTINUOUS
 10
6.8457639258
 20
5.258842268
 11
6.8588483008
 21
5.2675651826
  0
LINE
  5
35E
100
AcDbEntity
  8
0
100
AcDbLine
 62
7
  6
CONTINUOUS
 10
4.652891113
 20
3.9147874921
 11
4.0659274101
 21
3.9147874921
  0
LINE
  5
35F
100
AcDbEntity
  8
0
100
AcDbLine
 62
7
  6
CONTINUOUS
 10
4.652891113
 20
3.9631315637
 11
4.0659274101
 21
3.9631315637
  0
LINE
  5
360
100
AcDbEntity
  8
0
100
AcDbLine
 62
7
  6
CONTINUOUS
 10
3.3133167389
 20
3.9746521826
 11
3.4835404606
 21
3.9746521826
  0
LINE
  5
361
100
AcDbEntity
  8
0
100
AcDbLine
 62
7
  6
CONTINUOUS
 10
3.5203167389
 20
3.9846521826
 11
3.4893167389
 21
3.9846521826
  0
LINE
  5
362
100
AcDbEntity
  8
0
100
AcDbLine
 62
7
  6
CONTINUOUS
 10
3.2763167389
 20
3.9846521826
 11
3.2703167389
 21
3.9846521826
  0
LINE
  5
363
100
AcDbEntity
  8
0
100
AcDbLine
 62
7
  6
CONTINUOUS
 10
3.2978167389
 20
3.9901521826
 11
3.2818167389
 21
3.9901521826
  0
LINE
  5
364
100
AcDbEntity
  8
0
100
AcDbLine
 62
7
  6
CONTINUOUS
 10
2.7393167389
 20
4.0716521826
 11
2.9383167389
 21
4.0716521826
  0
LINE
  5
365
100
AcDbEntity
  8
0
100
AcDbLine
 62
7
  6
CONTINUOUS
 10
2.9763167389
 20
4.0716521826
 11
3.2083167389
 21
4.0716521826
  0
LINE
  5
366
100
AcDbEntity
  8
03__ASM_ALL_CURVES
100
AcDbLine
 62
40
  6
CONTINUOUS
 10
6.246717111
 20
3.5056521826
 11
6.2565303923
 21
3.4991099967
  0
LINE
  5
367
100
AcDbEntity
  8
03__ASM_ALL_CURVES
100
AcDbLine
 62
40
  6
CONTINUOUS
 10
3.7937495514
 20
5.1628901826
 11
3.7806651764
 21
5.1716130995
  0
LINE
  5
368
100
AcDbEntity
  8
03__ASM_ALL_CURVES
100
AcDbLine
 62
40
  6
CONTINUOUS
 10
6.325223361
 20
3.5056521826
 11
6.3350366423
 21
3.4991099967
  0
LINE
  5
369
100
AcDbEntity
  8
03__ASM_ALL_CURVES
100
AcDbLine
 62
40
  6
CONTINUOUS
 10
6.6269817956
 20
3.3067696826
 11
6.6171685144
 21
3.3133118703
  0
LINE
  5
36A
100
AcDbEntity
  8
03__ASM_ALL_CURVES
100
AcDbLine
 62
40
  6
CONTINUOUS
 10
3.7937495514
 20
5.2239505972
 11
3.7806651764
 21
5.232673518
  0
LINE
  5
36B
100
AcDbEntity
  8
03__ASM_ALL_CURVES
100
AcDbLine
 62
40
  6
CONTINUOUS
 10
3.8068339264
 20
5.2239505972
 11
3.8199183014
 21
5.2152276826
  0
LINE
  5
36C
100
AcDbEntity
  8
03__ASM_ALL_CURVES
100
AcDbLine
 62
40
  6
CONTINUOUS
 10
3.8068339264
 20
5.2675651826
 11
3.8199183014
 21
5.258842268
  0
LINE
  5
36D
100
AcDbEntity
  8
03__ASM_ALL_CURVES
100
AcDbLine
 62
40
  6
CONTINUOUS
 10
6.6367950769
 20
3.3852759326
 11
6.6466083581
 21
3.3787337467
  0
LINE
  5
36E
100
AcDbEntity
  8
03__ASM_ALL_CURVES
100
AcDbLine
 62
40
  6
CONTINUOUS
 10
6.482235861
 20
3.5056521826
 11
6.4920491423
 21
3.4991099967
  0
LINE
  5
36F
100
AcDbEntity
  8
03__ASM_ALL_CURVES
100
AcDbLine
 62
40
  6
CONTINUOUS
 10
4.6311495514
 20
5.2675651826
 11
4.6442339264
 21
5.2501193472
  0
LINE
  5
370
100
AcDbEntity
  8
03__ASM_ALL_CURVES
100
AcDbLine
 62
40
  6
CONTINUOUS
 10
6.0970646081
 20
3.3787337467
 11
6.1019712488
 21
3.372191556
  0
LINE
  5
371
100
AcDbEntity
  8
03__ASM_ALL_CURVES
100
AcDbLine
 62
40
  6
CONTINUOUS
 10
6.2246372644
 20
3.3133118703
 11
6.2148239831
 21
3.3263962451
  0
LINE
  5
372
100
AcDbEntity
  8
03__ASM_ALL_CURVES
100
AcDbLine
 62
40
  6
CONTINUOUS
 10
6.2197306238
 20
3.3656493701
 11
6.2246372644
 21
3.3591071842
  0
LINE
  5
373
100
AcDbEntity
  8
03__ASM_ALL_CURVES
100
AcDbLine
 62
40
  6
CONTINUOUS
 10
6.2540771081
 20
3.3394806193
 11
6.2589837488
 21
3.3329384334
  0
LINE
  5
374
100
AcDbEntity
  8
THREAD
100
AcDbLine
 62
7
  6
CONTINUOUS
 10
5.7302560491
 20
3.7596521826
 11
5.7120695156
 21
3.7911521826
  0
LINE
  5
375
100
AcDbEntity
  8
03__ASM_ALL_CURVES
100
AcDbLine
 62
40
  6
CONTINUOUS
 10
5.9842118738
 20
3.3852759326
 11
6.0038384363
 21
3.3460228076
  0
LINE
  5
376
100
AcDbEntity
  8
03__ASM_ALL_CURVES
100
AcDbLine
 62
40
  6
CONTINUOUS
 10
5.6624745641
 20
3.3656493701
 11
5.6673812048
 21
3.3460228076
  0
LINE
  5
377
100
AcDbEntity
  8
03__ASM_ALL_CURVES
100
AcDbLine
 62
40
  6
CONTINUOUS
 10
5.6870077673
 20
3.3852759326
 11
5.7017276891
 21
3.3067696826
  0
LINE
  5
378
100
AcDbEntity
  8
03__ASM_ALL_CURVES
100
AcDbLine
 62
40
  6
CONTINUOUS
 10
5.716447611
 20
3.3852759326
 11
5.7311675329
 21
3.3067696826
  0
LINE
  5
379
100
AcDbEntity
  8
0
100
AcDbLine
 62
7
  6
CONTINUOUS
 10
5.6373167389
 20
3.7436521826
 11
5.6373167389
 21
4.7676521826
  0
LINE
  5
37A
100
AcDbEntity
  8
03__ASM_ALL_CURVES
100
AcDbLine
 62
40
  6
CONTINUOUS
 10
5.6459267389
 20
5.1419551826
 11
5.6459267389
 21
5.1000851826
  0
LINE
  5
37B
100
AcDbEntity
  8
0
100
AcDbLine
 62
7
  6
CONTINUOUS
 10
5.6873167389
 20
3.7436521826
 11
5.6873167389
 21
4.7676521826
  0
LINE
  5
37C
100
AcDbEntity
  8
03__ASM_ALL_CURVES
100
AcDbLine
 62
40
  6
CONTINUOUS
 10
5.6877967383
 20
5.2675651826
 11
5.6877967383
 21
5.1628901826
  0
LINE
  5
37D
100
AcDbEntity
  8
THREAD
100
AcDbLine
 62
7
  6
CONTINUOUS
 10
5.7008111854
 20
3.7976521826
 11
5.7008111854
 21
4.7136521826
  0
LINE
  5
37E
100
AcDbEntity
  8
THREAD
100
AcDbLine
 62
7
  6
CONTINUOUS
 10
5.7120695156
 20
3.7911521826
 11
5.7120695156
 21
4.7201521826
  0
LINE
  5
37F
100
AcDbEntity
  8
THREAD
100
AcDbLine
 62
7
  6
CONTINUOUS
 10
5.7302560491
 20
3.7596521826
 11
5.7302560491
 21
4.7516521826
  0
LINE
  5
380
100
AcDbEntity
  8
03__ASM_ALL_CURVES
100
AcDbLine
 62
40
  6
CONTINUOUS
 10
5.8578936133
 20
5.2152276826
 11
5.8513514258
 21
5.1890589326
  0
LINE
  5
381
100
AcDbEntity
  8
03__ASM_ALL_CURVES
100
AcDbLine
 62
40
  6
CONTINUOUS
 10
5.8840623633
 20
5.2152276826
 11
5.8906045508
 21
5.2413964326
  0
LINE
  5
382
100
AcDbEntity
  8
03__ASM_ALL_CURVES
100
AcDbLine
 62
40
  6
CONTINUOUS
 10
5.9952795508
 20
5.1628901826
 11
6.0279904883
 21
5.2675651826
  0
LINE
  5
383
100
AcDbEntity
  8
03__ASM_ALL_CURVES
100
AcDbLine
 62
40
  6
CONTINUOUS
 10
5.323916361
 20
3.3460228076
 11
5.3435429235
 21
3.3852759326
  0
LINE
  5
384
100
AcDbEntity
  8
03__ASM_ALL_CURVES
100
AcDbLine
 62
40
  6
CONTINUOUS
 10
4.8725054235
 20
3.3591071842
 11
4.8675987829
 21
3.3525649935
  0
LINE
  5
385
100
AcDbEntity
  8
03__ASM_ALL_CURVES
100
AcDbLine
 62
40
  6
CONTINUOUS
 10
4.9853581579
 20
3.3656493701
 11
4.9951714391
 21
3.3787337467
  0
LINE
  5
386
100
AcDbEntity
  8
03__ASM_ALL_CURVES
100
AcDbLine
 62
40
  6
CONTINUOUS
 10
6.4139795508
 20
5.2413964326
 11
6.4270639258
 21
5.258842268
  0
LINE
  5
387
100
AcDbEntity
  8
03__ASM_ALL_CURVES
100
AcDbLine
 62
40
  6
CONTINUOUS
 10
5.1104774855
 20
3.4794834342
 11
5.1055708449
 21
3.4729412435
  0
LINE
  5
388
100
AcDbEntity
  8
03__ASM_ALL_CURVES
100
AcDbLine
 62
40
  6
CONTINUOUS
 10
5.1448239699
 20
3.4860256201
 11
5.1546372511
 21
3.4991099967
  0
LINE
  5
389
100
AcDbEntity
  8
03__ASM_ALL_CURVES
100
AcDbLine
 62
40
  6
CONTINUOUS
 10
5.0344245641
 20
3.3263962451
 11
5.0246112829
 21
3.3133118703
  0
LINE
  5
38A
100
AcDbEntity
  8
03__ASM_ALL_CURVES
100
AcDbLine
 62
40
  6
CONTINUOUS
 10
6.4728592383
 20
5.1803360164
 11
6.4663170508
 21
5.1716130995
  0
LINE
  5
38B
100
AcDbEntity
  8
03__ASM_ALL_CURVES
100
AcDbLine
 62
40
  6
CONTINUOUS
 10
5.1080241735
 20
3.3591071842
 11
5.1031175329
 21
3.3525649935
  0
LINE
  5
38C
100
AcDbEntity
  8
03__ASM_ALL_CURVES
100
AcDbLine
 62
40
  6
CONTINUOUS
 10
5.1938903761
 20
3.4467724951
 11
5.1840770949
 21
3.4336881203
  0
LINE
  5
38D
100
AcDbEntity
  8
03__ASM_ALL_CURVES
100
AcDbLine
 62
40
  6
CONTINUOUS
 10
6.8850170508
 20
5.1716130995
 11
6.8719326758
 21
5.1628901826
  0
LINE
  5
38E
100
AcDbEntity
  8
03__ASM_ALL_CURVES
100
AcDbLine
 62
40
  6
CONTINUOUS
 10
6.9896920508
 20
5.1716130995
 11
6.9766076758
 21
5.1628901826
  0
LINE
  5
38F
100
AcDbEntity
  8
0
100
AcDbLine
 62
7
  6
CONTINUOUS
 10
2.9383167389
 20
4.1046521826
 11
2.9398167389
 21
4.1046521826
  0
LINE
  5
390
100
AcDbEntity
  8
0
100
AcDbLine
 62
7
  6
CONTINUOUS
 10
2.9748167389
 20
4.1046521826
 11
2.9763167389
 21
4.1046521826
  0
LINE
  5
391
100
AcDbEntity
  8
03__ASM_ALL_CURVES
100
AcDbLine
 62
40
  6
CONTINUOUS
 10
8.8110018947
 20
4.1562109326
 11
8.7717487697
 21
4.1562109326
  0
LINE
  5
392
100
AcDbEntity
  8
03__ASM_ALL_CURVES
100
AcDbLine
 62
40
  6
CONTINUOUS
 10
8.3252444728
 20
4.1562109326
 11
8.3154311915
 21
4.1562109326
  0
LINE
  5
393
100
AcDbEntity
  8
03__ASM_ALL_CURVES
100
AcDbLine
 62
40
  6
CONTINUOUS
 10
8.0063128322
 20
4.1562109326
 11
7.9866862697
 21
4.1562109326
  0
LINE
  5
394
100
AcDbEntity
  8
03__ASM_ALL_CURVES
100
AcDbLine
 62
40
  6
CONTINUOUS
 10
7.9474331447
 20
4.1562109326
 11
7.9081800197
 21
4.1562109326
  0
LINE
  5
395
100
AcDbEntity
  8
03__ASM_ALL_CURVES
100
AcDbLine
 62
40
  6
CONTINUOUS
 10
7.6971944728
 20
4.1562109326
 11
7.6873811915
 21
4.1562109326
  0
LINE
  5
396
100
AcDbEntity
  8
03__ASM_ALL_CURVES
100
AcDbLine
 62
40
  6
CONTINUOUS
 10
7.3831694728
 20
4.1562109326
 11
7.3733561915
 21
4.1562109326
  0
LINE
  5
397
100
AcDbEntity
  8
03__ASM_ALL_CURVES
100
AcDbLine
 62
40
  6
CONTINUOUS
 10
7.3046632228
 20
4.1562109326
 11
7.2948499415
 21
4.1562109326
  0
LINE
  5
398
100
AcDbEntity
  8
03__ASM_ALL_CURVES
100
AcDbLine
 62
40
  6
CONTINUOUS
 10
7.7511675197
 20
4.1562109326
 11
7.7904206447
 21
4.1562109326
  0
LINE
  5
399
100
AcDbEntity
  8
03__ASM_ALL_CURVES
100
AcDbLine
 62
40
  6
CONTINUOUS
 10
7.8296737697
 20
4.1562109326
 11
7.8689268947
 21
4.1562109326
  0
LINE
  5
39A
100
AcDbEntity
  8
03__ASM_ALL_CURVES
100
AcDbLine
 62
40
  6
CONTINUOUS
 10
8.2222050197
 20
4.1562109326
 11
8.2614581447
 21
4.1562109326
  0
LINE
  5
39B
100
AcDbEntity
  8
03__ASM_ALL_CURVES
100
AcDbLine
 62
40
  6
CONTINUOUS
 10
8.6932425197
 20
4.1562109326
 11
8.7324956447
 21
4.1562109326
  0
LINE
  5
39C
100
AcDbEntity
  8
03__ASM_ALL_CURVES
100
AcDbLine
 62
40
  6
CONTINUOUS
 10
7.6186882228
 20
4.1954640576
 11
7.5941550197
 21
4.1954640576
  0
LINE
  5
39D
100
AcDbEntity
  8
03__ASM_ALL_CURVES
100
AcDbLine
 62
40
  6
CONTINUOUS
 10
7.9081800197
 20
4.1954640576
 11
7.9327132228
 21
4.1954640576
  0
LINE
  5
39E
100
AcDbEntity
  8
03__ASM_ALL_CURVES
100
AcDbLine
 62
40
  6
CONTINUOUS
 10
8.1436987697
 20
4.1954640576
 11
8.1682319728
 21
4.1954640576
  0
LINE
  5
39F
100
AcDbEntity
  8
03__ASM_ALL_CURVES
100
AcDbLine
 62
40
  6
CONTINUOUS
 10
8.7717487697
 20
4.1954640576
 11
8.7962819728
 21
4.1954640576
  0
LINE
  5
3A0
100
AcDbEntity
  8
03__ASM_ALL_CURVES
100
AcDbLine
 62
40
  6
CONTINUOUS
 10
7.2948499415
 20
4.2347171826
 11
7.3046632228
 21
4.2347171826
  0
LINE
  5
3A1
100
AcDbEntity
  8
03__ASM_ALL_CURVES
100
AcDbLine
 62
40
  6
CONTINUOUS
 10
7.3733561915
 20
4.2347171826
 11
7.3831694728
 21
4.2347171826
  0
LINE
  5
3A2
100
AcDbEntity
  8
03__ASM_ALL_CURVES
100
AcDbLine
 62
40
  6
CONTINUOUS
 10
7.510742129
 20
4.2347171826
 11
7.5598085353
 21
4.2347171826
  0
LINE
  5
3A3
100
AcDbEntity
  8
03__ASM_ALL_CURVES
100
AcDbLine
 62
40
  6
CONTINUOUS
 10
7.5941550197
 20
4.2347171826
 11
7.6186882228
 21
4.2347171826
  0
LINE
  5
3A4
100
AcDbEntity
  8
03__ASM_ALL_CURVES
100
AcDbLine
 62
40
  6
CONTINUOUS
 10
7.6873811915
 20
4.2347171826
 11
7.6971944728
 21
4.2347171826
  0
LINE
  5
3A5
100
AcDbEntity
  8
03__ASM_ALL_CURVES
100
AcDbLine
 62
40
  6
CONTINUOUS
 10
7.9081800197
 20
4.2347171826
 11
7.9474331447
 21
4.2347171826
  0
LINE
  5
3A6
100
AcDbEntity
  8
03__ASM_ALL_CURVES
100
AcDbLine
 62
40
  6
CONTINUOUS
 10
7.9866862697
 20
4.2347171826
 11
8.0063128322
 21
4.2347171826
  0
LINE
  5
3A7
100
AcDbEntity
  8
03__ASM_ALL_CURVES
100
AcDbLine
 62
40
  6
CONTINUOUS
 10
8.1436987697
 20
4.2347171826
 11
8.1829518947
 21
4.2347171826
  0
LINE
  5
3A8
100
AcDbEntity
  8
03__ASM_ALL_CURVES
100
AcDbLine
 62
40
  6
CONTINUOUS
 10
8.3154311915
 20
4.2347171826
 11
8.3252444728
 21
4.2347171826
  0
LINE
  5
3A9
100
AcDbEntity
  8
03__ASM_ALL_CURVES
100
AcDbLine
 62
40
  6
CONTINUOUS
 10
8.7717487697
 20
4.2347171826
 11
8.8110018947
 21
4.2347171826
  0
LINE
  5
3AA
100
AcDbEntity
  8
03__ASM_ALL_CURVES
100
AcDbLine
 62
40
  6
CONTINUOUS
 10
8.845348379
 20
4.2347171826
 11
8.8944147853
 21
4.2347171826
  0
LINE
  5
3AB
100
AcDbEntity
  8
0
100
AcDbLine
 62
7
  6
CONTINUOUS
 10
3.4584453285
 20
4.2556521826
 11
3.3567875901
 21
4.2556521826
  0
LINE
  5
3AC
100
AcDbEntity
  8
03__ASM_ALL_CURVES
100
AcDbLine
 62
40
  6
CONTINUOUS
 10
7.3733561911
 20
4.2765871826
 11
7.3635429098
 21
4.2765871826
  0
LINE
  5
3AD
100
AcDbEntity
  8
03__ASM_ALL_CURVES
100
AcDbLine
 62
40
  6
CONTINUOUS
 10
7.4518624411
 20
4.3158403076
 11
7.4273292379
 21
4.3158403076
  0
LINE
  5
3AE
100
AcDbEntity
  8
03__ASM_ALL_CURVES
100
AcDbLine
 62
40
  6
CONTINUOUS
 10
7.2948499411
 20
4.3158403076
 11
7.2703167379
 21
4.3158403076
  0
LINE
  5
3AF
100
AcDbEntity
  8
03__ASM_ALL_CURVES
100
AcDbLine
 62
40
  6
CONTINUOUS
 10
4.4217995514
 20
5.1628901826
 11
4.4087151764
 21
5.1716130995
  0
LINE
  5
3B0
100
AcDbEntity
  8
03__ASM_ALL_CURVES
100
AcDbLine
 62
40
  6
CONTINUOUS
 10
4.4348839264
 20
5.2239505972
 11
4.4479683014
 21
5.2152276826
  0
LINE
  5
3B1
100
AcDbEntity
  8
03__ASM_ALL_CURVES
100
AcDbLine
 62
40
  6
CONTINUOUS
 10
6.3031435144
 20
3.3133118703
 11
6.2933302331
 21
3.3263962451
  0
LINE
  5
3B2
100
AcDbEntity
  8
03__ASM_ALL_CURVES
100
AcDbLine
 62
40
  6
CONTINUOUS
 10
6.2589837488
 20
3.372191556
 11
6.2540771081
 21
3.3787337467
  0
LINE
  5
3B3
100
AcDbEntity
  8
03__ASM_ALL_CURVES
100
AcDbLine
 62
40
  6
CONTINUOUS
 10
6.2270905485
 20
3.4336881203
 11
6.2172772673
 21
3.4467724951
  0
LINE
  5
3B4
100
AcDbEntity
  8
03__ASM_ALL_CURVES
100
AcDbLine
 62
40
  6
CONTINUOUS
 10
6.1780241423
 20
3.4991099967
 11
6.1829307829
 21
3.492567806
  0
LINE
  5
3B5
100
AcDbEntity
  8
03__ASM_ALL_CURVES
100
AcDbLine
 62
40
  6
CONTINUOUS
 10
6.2982368738
 20
3.3656493701
 11
6.3031435144
 21
3.3591071842
  0
LINE
  5
3B6
100
AcDbEntity
  8
03__ASM_ALL_CURVES
100
AcDbLine
 62
40
  6
CONTINUOUS
 10
6.3325833581
 20
3.3394806193
 11
6.3374899988
 21
3.3329384334
  0
LINE
  5
3B7
100
AcDbEntity
  8
03__ASM_ALL_CURVES
100
AcDbLine
 62
40
  6
CONTINUOUS
 10
6.3374899988
 20
3.372191556
 11
6.3325833581
 21
3.3787337467
  0
LINE
  5
3B8
100
AcDbEntity
  8
03__ASM_ALL_CURVES
100
AcDbLine
 62
40
  6
CONTINUOUS
 10
6.2565303923
 20
3.4991099967
 11
6.2663436735
 21
3.4860256201
  0
LINE
  5
3B9
100
AcDbEntity
  8
03__ASM_ALL_CURVES
100
AcDbLine
 62
40
  6
CONTINUOUS
 10
6.3350366423
 20
3.4991099967
 11
6.3399432829
 21
3.492567806
  0
LINE
  5
3BA
100
AcDbEntity
  8
03__ASM_ALL_CURVES
100
AcDbLine
 62
40
  6
CONTINUOUS
 10
5.9007989831
 20
3.3852759326
 11
5.9007989831
 21
3.3067696826
  0
LINE
  5
3BB
100
AcDbEntity
  8
03__ASM_ALL_CURVES
100
AcDbLine
 62
40
  6
CONTINUOUS
 10
5.9400521081
 20
3.3591071842
 11
5.9400521081
 21
3.3787337467
  0
LINE
  5
3BC
100
AcDbEntity
  8
03__ASM_ALL_CURVES
100
AcDbLine
 62
40
  6
CONTINUOUS
 10
5.9449587488
 20
3.319854058
 11
5.9449587488
 21
3.3394806193
  0
LINE
  5
3BD
100
AcDbEntity
  8
THREAD
100
AcDbLine
 62
7
  6
CONTINUOUS
 10
6.0013167389
 20
3.7596521826
 11
6.0013167389
 21
4.7516521826
  0
LINE
  5
3BE
100
AcDbEntity
  8
03__ASM_ALL_CURVES
100
AcDbLine
 62
40
  6
CONTINUOUS
 10
6.0038384363
 20
3.3460228076
 11
6.0038384363
 21
3.3067696826
  0
LINE
  5
3BF
100
AcDbEntity
  8
THREAD
100
AcDbLine
 62
7
  6
CONTINUOUS
 10
6.0453167389
 20
3.8036521826
 11
6.0453167389
 21
4.7076521826
  0
LINE
  5
3C0
100
AcDbEntity
  8
03__ASM_ALL_CURVES
100
AcDbLine
 62
40
  6
CONTINUOUS
 10
5.7017276891
 20
3.3067696826
 11
5.716447611
 21
3.3852759326
  0
LINE
  5
3C1
100
AcDbEntity
  8
03__ASM_ALL_CURVES
100
AcDbLine
 62
40
  6
CONTINUOUS
 10
5.7311675329
 20
3.3067696826
 11
5.7458874548
 21
3.3852759326
  0
LINE
  5
3C2
100
AcDbEntity
  8
03__ASM_ALL_CURVES
100
AcDbLine
 62
40
  6
CONTINUOUS
 10
5.6085015173
 20
3.3460228076
 11
5.6134081579
 21
3.3656493701
  0
LINE
  5
3C3
100
AcDbEntity
  8
03__ASM_ALL_CURVES
100
AcDbLine
 62
40
  6
CONTINUOUS
 10
5.6673812048
 20
3.3460228076
 11
5.6624745641
 21
3.3263962451
  0
LINE
  5
3C4
100
AcDbEntity
  8
03__ASM_ALL_CURVES
100
AcDbLine
 62
40
  6
CONTINUOUS
 10
5.2674899855
 20
3.4794834342
 11
5.2625833449
 21
3.4729412435
  0
LINE
  5
3C5
100
AcDbEntity
  8
03__ASM_ALL_CURVES
100
AcDbLine
 62
40
  6
CONTINUOUS
 10
6.6364139258
 20
5.258842268
 11
6.6298717383
 21
5.2501193472
  0
LINE
  5
3C6
100
AcDbEntity
  8
03__ASM_ALL_CURVES
100
AcDbLine
 62
40
  6
CONTINUOUS
 10
6.6822092383
 20
5.1803360164
 11
6.6756670508
 21
5.1716130995
  0
LINE
  5
3C7
100
AcDbEntity
  8
03__ASM_ALL_CURVES
100
AcDbLine
 62
40
  6
CONTINUOUS
 10
5.4245024855
 20
3.4860256201
 11
5.4195958449
 21
3.4794834342
  0
LINE
  5
3C8
100
AcDbEntity
  8
03__ASM_ALL_CURVES
100
AcDbLine
 62
40
  6
CONTINUOUS
 10
5.4294091261
 20
3.4467724951
 11
5.4195958449
 21
3.4336881203
  0
LINE
  5
3C9
100
AcDbEntity
  8
03__ASM_ALL_CURVES
100
AcDbLine
 62
40
  6
CONTINUOUS
 10
7.1924998633
 20
5.1716130995
 11
7.1794154883
 21
5.1628901826
  0
LINE
  5
3CA
100
AcDbEntity
  8
03__ASM_ALL_CURVES
100
AcDbLine
 62
40
  6
CONTINUOUS
 10
7.4083920508
 20
5.2239505972
 11
7.3953076758
 21
5.2152276826
  0
LINE
  5
3CB
100
AcDbEntity
  8
03__ASM_ALL_CURVES
100
AcDbLine
 62
40
  6
CONTINUOUS
 10
4.7890925329
 20
3.3525649935
 11
4.7792792516
 21
3.3460228076
  0
LINE
  5
3CC
100
AcDbEntity
  8
03__ASM_ALL_CURVES
100
AcDbLine
 62
40
  6
CONTINUOUS
 10
7.2703167379
 20
4.3550934326
 11
7.2948499411
 21
4.3550934326
  0
LINE
  5
3CD
100
AcDbEntity
  8
03__ASM_ALL_CURVES
100
AcDbLine
 62
40
  6
CONTINUOUS
 10
7.3635429098
 20
4.3550934326
 11
7.3733561911
 21
4.3550934326
  0
LINE
  5
3CE
100
AcDbEntity
  8
03__ASM_ALL_CURVES
100
AcDbLine
 62
40
  6
CONTINUOUS
 10
7.4273292379
 20
4.3550934326
 11
7.4518624411
 21
4.3550934326
  0
LINE
  5
3CF
100
AcDbEntity
  8
03__ASM_ALL_CURVES
100
AcDbLine
 62
40
  6
CONTINUOUS
 10
7.5009288473
 20
4.3550934326
 11
7.5499952536
 21
4.3550934326
  0
LINE
  5
3D0
100
AcDbEntity
  8
0
100
AcDbLine
 62
7
  6
CONTINUOUS
 10
2.9383167389
 20
4.4066521826
 11
2.9763167389
 21
4.4066521826
  0
LINE
  5
3D1
100
AcDbEntity
  8
0
100
AcDbLine
 62
7
  6
CONTINUOUS
 10
2.7393167389
 20
4.4396521826
 11
2.9383167389
 21
4.4396521826
  0
LINE
  5
3D2
100
AcDbEntity
  8
0
100
AcDbLine
 62
7
  6
CONTINUOUS
 10
2.9763167389
 20
4.4396521826
 11
3.2083167389
 21
4.4396521826
  0
LINE
  5
3D3
100
AcDbEntity
  8
0
100
AcDbLine
 62
7
  6
CONTINUOUS
 10
3.2978167389
 20
4.5211521826
 11
3.2818167389
 21
4.5211521826
  0
LINE
  5
3D4
100
AcDbEntity
  8
0
100
AcDbLine
 62
7
  6
CONTINUOUS
 10
3.5203167389
 20
4.5266521826
 11
3.4893167389
 21
4.5266521826
  0
LINE
  5
3D5
100
AcDbEntity
  8
0
100
AcDbLine
 62
7
  6
CONTINUOUS
 10
3.2763167389
 20
4.5266521826
 11
3.2703167389
 21
4.5266521826
  0
LINE
  5
3D6
100
AcDbEntity
  8
03__ASM_ALL_CURVES
100
AcDbLine
 62
40
  6
CONTINUOUS
 10
4.4348839264
 20
5.2675651826
 11
4.4479683014
 21
5.258842268
  0
LINE
  5
3D7
100
AcDbEntity
  8
03__ASM_ALL_CURVES
100
AcDbLine
 62
40
  6
CONTINUOUS
 10
6.6171685144
 20
3.3133118703
 11
6.6073552331
 21
3.3263962451
  0
LINE
  5
3D8
100
AcDbEntity
  8
03__ASM_ALL_CURVES
100
AcDbLine
 62
40
  6
CONTINUOUS
 10
6.4920491423
 20
3.4991099967
 11
6.4969557829
 21
3.492567806
  0
LINE
  5
3D9
100
AcDbEntity
  8
03__ASM_ALL_CURVES
100
AcDbLine
 62
40
  6
CONTINUOUS
 10
6.6466083581
 20
3.3787337467
 11
6.6564216394
 21
3.3656493701
  0
LINE
  5
3DA
100
AcDbEntity
  8
03__ASM_ALL_CURVES
100
AcDbLine
 62
40
  6
CONTINUOUS
 10
6.325223361
 20
3.4663990576
 11
6.3399432829
 21
3.4271459326
  0
LINE
  5
3DB
100
AcDbEntity
  8
03__ASM_ALL_CURVES
100
AcDbLine
 62
40
  6
CONTINUOUS
 10
6.1608509363
 20
3.3852759326
 11
6.1853841394
 21
3.3067696826
  0
LINE
  5
3DC
100
AcDbEntity
  8
03__ASM_ALL_CURVES
100
AcDbLine
 62
40
  6
CONTINUOUS
 10
6.2172772673
 20
3.4467724951
 11
6.2123706266
 21
3.4663990576
  0
LINE
  5
3DD
100
AcDbEntity
  8
03__ASM_ALL_CURVES
100
AcDbLine
 62
40
  6
CONTINUOUS
 10
5.7859295508
 20
5.1890589326
 11
5.7793873633
 21
5.2152276826
  0
LINE
  5
3DE
100
AcDbEntity
  8
03__ASM_ALL_CURVES
100
AcDbLine
 62
40
  6
CONTINUOUS
 10
6.0627181238
 20
3.3067696826
 11
6.0627181238
 21
3.3852759326
  0
LINE
  5
3DF
100
AcDbEntity
  8
03__ASM_ALL_CURVES
100
AcDbLine
 62
40
  6
CONTINUOUS
 10
6.1019712488
 20
3.372191556
 11
6.1019712488
 21
3.3591071842
  0
LINE
  5
3E0
100
AcDbEntity
  8
0
100
AcDbLine
 62
7
  6
CONTINUOUS
 10
6.1293167389
 20
3.8036521826
 11
6.1293167389
 21
4.7076521826
  0
LINE
  5
3E1
100
AcDbEntity
  8
03__ASM_ALL_CURVES
100
AcDbLine
 62
40
  6
CONTINUOUS
 10
6.1326654883
 20
5.2675651826
 11
6.1326654883
 21
5.1628901826
  0
LINE
  5
3E2
100
AcDbEntity
  8
03__ASM_ALL_CURVES
100
AcDbLine
 62
40
  6
CONTINUOUS
 10
6.1436776579
 20
3.4271459326
 11
6.1436776579
 21
3.5056521826
  0
LINE
  5
3E3
100
AcDbEntity
  8
0
100
AcDbLine
 62
7
  6
CONTINUOUS
 10
6.1453167389
 20
3.8196521826
 11
6.1453167389
 21
4.6916521826
  0
LINE
  5
3E4
100
AcDbEntity
  8
03__ASM_ALL_CURVES
100
AcDbLine
 62
40
  6
CONTINUOUS
 10
6.1829307829
 20
3.492567806
 11
6.1829307829
 21
3.4794834342
  0
LINE
  5
3E5
100
AcDbEntity
  8
03__ASM_ALL_CURVES
100
AcDbLine
 62
40
  6
CONTINUOUS
 10
6.2197306238
 20
3.372191556
 11
6.2197306238
 21
3.3656493701
  0
LINE
  5
3E6
100
AcDbEntity
  8
03__ASM_ALL_CURVES
100
AcDbLine
 62
40
  6
CONTINUOUS
 10
6.2373404883
 20
5.2675651826
 11
6.2373404883
 21
5.1628901826
  0
LINE
  5
3E7
100
AcDbEntity
  8
03__ASM_ALL_CURVES
100
AcDbLine
 62
40
  6
CONTINUOUS
 10
6.2589837488
 20
3.3329384334
 11
6.2589837488
 21
3.319854058
  0
LINE
  5
3E8
100
AcDbEntity
  8
03__ASM_ALL_CURVES
100
AcDbLine
 62
40
  6
CONTINUOUS
 10
6.4074373633
 20
5.2152276826
 11
6.4139795508
 21
5.2413964326
  0
LINE
  5
3E9
100
AcDbEntity
  8
03__ASM_ALL_CURVES
100
AcDbLine
 62
40
  6
CONTINUOUS
 10
6.8326795508
 20
5.2413964326
 11
6.8457639258
 21
5.258842268
  0
LINE
  5
3EA
100
AcDbEntity
  8
03__ASM_ALL_CURVES
100
AcDbLine
 62
40
  6
CONTINUOUS
 10
6.8981014258
 20
5.1890589326
 11
6.8850170508
 21
5.1716130995
  0
LINE
  5
3EB
100
AcDbEntity
  8
03__ASM_ALL_CURVES
100
AcDbLine
 62
40
  6
CONTINUOUS
 10
5.6134081579
 20
3.3656493701
 11
5.6232214391
 21
3.3787337467
  0
LINE
  5
3EC
100
AcDbEntity
  8
03__ASM_ALL_CURVES
100
AcDbLine
 62
40
  6
CONTINUOUS
 10
6.9962342383
 20
5.1803360164
 11
6.9896920508
 21
5.1716130995
  0
LINE
  5
3ED
100
AcDbEntity
  8
03__ASM_ALL_CURVES
100
AcDbLine
 62
40
  6
CONTINUOUS
 10
4.8675987829
 20
3.3525649935
 11
4.8577855016
 21
3.3460228076
  0
LINE
  5
3EE
100
AcDbEntity
  8
03__ASM_ALL_CURVES
100
AcDbLine
 62
40
  6
CONTINUOUS
 10
5.1055708449
 20
3.4729412435
 11
5.0957575636
 21
3.4663990576
  0
LINE
  5
3EF
100
AcDbEntity
  8
03__ASM_ALL_CURVES
100
AcDbLine
 62
40
  6
CONTINUOUS
 10
5.1546372511
 20
3.4991099967
 11
5.1644505324
 21
3.5056521826
  0
LINE
  5
3F0
100
AcDbEntity
  8
03__ASM_ALL_CURVES
100
AcDbLine
 62
40
  6
CONTINUOUS
 10
4.9951714391
 20
3.3787337467
 11
5.0049847204
 21
3.3852759326
  0
LINE
  5
3F1
100
AcDbEntity
  8
03__ASM_ALL_CURVES
100
AcDbLine
 62
40
  6
CONTINUOUS
 10
5.1840770949
 20
3.4336881203
 11
5.1742638136
 21
3.4271459326
  0
LINE
  5
3F2
100
AcDbEntity
  8
03__ASM_ALL_CURVES
100
AcDbLine
 62
40
  6
CONTINUOUS
 10
5.2625833449
 20
3.4729412435
 11
5.2527700636
 21
3.4663990576
  0
LINE
  5
3F3
100
AcDbEntity
  8
03__ASM_ALL_CURVES
100
AcDbLine
 62
40
  6
CONTINUOUS
 10
5.0246112829
 20
3.3133118703
 11
5.0147980016
 21
3.3067696826
  0
LINE
  5
3F4
100
AcDbEntity
  8
03__ASM_ALL_CURVES
100
AcDbLine
 62
40
  6
CONTINUOUS
 10
5.1031175329
 20
3.3525649935
 11
5.0933042516
 21
3.3460228076
  0
LINE
  5
3F5
100
AcDbEntity
  8
03__ASM_ALL_CURVES
100
AcDbLine
 62
40
  6
CONTINUOUS
 10
5.3901560011
 20
3.4991099967
 11
5.3999692824
 21
3.5056521826
  0
LINE
  5
3F6
100
AcDbEntity
  8
03__ASM_ALL_CURVES
100
AcDbLine
 62
40
  6
CONTINUOUS
 10
5.4195958449
 20
3.4794834342
 11
5.4097825636
 21
3.4729412435
  0
LINE
  5
3F7
100
AcDbEntity
  8
THREAD
100
AcDbLine
 62
7
  6
CONTINUOUS
 10
5.5416731453
 20
3.7404823096
 11
5.5228167389
 21
3.7295955583
  0
LINE
  5
3F8
100
AcDbEntity
  8
0
100
AcDbLine
 62
7
  6
CONTINUOUS
 10
3.3133167389
 20
4.5366521826
 11
3.4835404606
 21
4.5366521826
  0
LINE
  5
3F9
100
AcDbEntity
  8
0
100
AcDbLine
 62
7
  6
CONTINUOUS
 10
4.652891113
 20
4.5481728015
 11
4.0659274101
 21
4.5481728015
  0
LINE
  5
3FA
100
AcDbEntity
  8
0
100
AcDbLine
 62
7
  6
CONTINUOUS
 10
4.652891113
 20
4.5965168731
 11
4.0659274101
 21
4.5965168731
  0
LINE
  5
3FB
100
AcDbEntity
  8
0
100
AcDbLine
 62
7
  6
CONTINUOUS
 10
6.5743167389
 20
4.6296521826
 11
6.4263167389
 21
4.6296521826
  0
LINE
  5
3FC
100
AcDbEntity
  8
0
100
AcDbLine
 62
7
  6
CONTINUOUS
 10
6.2703167389
 20
4.6296521826
 11
6.1453167389
 21
4.6296521826
  0
LINE
  5
3FD
100
AcDbEntity
  8
0
100
AcDbLine
 62
7
  6
CONTINUOUS
 10
6.8383167389
 20
4.6376521826
 11
6.8103167389
 21
4.6376521826
  0
LINE
  5
3FE
100
AcDbEntity
  8
0
100
AcDbLine
 62
7
  6
CONTINUOUS
 10
6.6403167389
 20
4.6916521826
 11
6.6903167389
 21
4.6916521826
  0
LINE
  5
3FF
100
AcDbEntity
  8
0
100
AcDbLine
 62
7
  6
CONTINUOUS
 10
6.7603167389
 20
4.6916521826
 11
6.8103167389
 21
4.6916521826
  0
LINE
  5
400
100
AcDbEntity
  8
0
100
AcDbLine
 62
7
  6
CONTINUOUS
 10
6.5743167389
 20
4.6921521826
 11
6.6403167389
 21
4.6921521826
  0
LINE
  5
401
100
AcDbEntity
  8
0
100
AcDbLine
 62
7
  6
CONTINUOUS
 10
6.8383167389
 20
4.6921521826
 11
6.8793167389
 21
4.6921521826
  0
LINE
  5
402
100
AcDbEntity
  8
THREAD
100
AcDbLine
 62
7
  6
CONTINUOUS
 10
6.1293167389
 20
4.7076521826
 11
6.0453167389
 21
4.7076521826
  0
LINE
  5
403
100
AcDbEntity
  8
THREAD
100
AcDbLine
 62
7
  6
CONTINUOUS
 10
5.7008111854
 20
4.7136521826
 11
5.6873167389
 21
4.7136521826
  0
LINE
  5
404
100
AcDbEntity
  8
0
100
AcDbLine
 62
7
  6
CONTINUOUS
 10
5.4338808035
 20
4.7136521826
 11
5.4108167389
 21
4.7136521826
  0
LINE
  5
405
100
AcDbEntity
  8
0
100
AcDbLine
 62
7
  6
CONTINUOUS
 10
5.2078167389
 20
4.7136521826
 11
5.1027526743
 21
4.7136521826
  0
LINE
  5
406
100
AcDbEntity
  8
0
100
AcDbLine
 62
7
  6
CONTINUOUS
 10
5.0363167389
 20
4.7381521826
 11
5.0153167389
 21
4.7381521826
  0
LINE
  5
407
100
AcDbEntity
  8
03__ASM_ALL_CURVES
100
AcDbLine
 62
40
  6
CONTINUOUS
 10
2.8339267389
 20
5.1035743493
 11
2.7083167389
 21
5.1210201826
  0
LINE
  5
408
100
AcDbEntity
  8
03__ASM_ALL_CURVES
100
AcDbLine
 62
40
  6
CONTINUOUS
 10
2.8339267389
 20
5.1000851826
 11
2.7083167389
 21
5.1210201826
  0
LINE
  5
409
100
AcDbEntity
  8
0
100
AcDbLine
 62
7
  6
CONTINUOUS
 10
5.5416731453
 20
4.7708220556
 11
5.5441731453
 21
4.7701521826
  0
LINE
  5
40A
100
AcDbEntity
  8
THREAD
100
AcDbLine
 62
7
  6
CONTINUOUS
 10
5.5416731453
 20
4.7708220556
 11
5.5228167389
 21
4.7817088069
  0
LINE
  5
40B
100
AcDbEntity
  8
03__ASM_ALL_CURVES
100
AcDbLine
 62
40
  6
CONTINUOUS
 10
6.2663436735
 20
3.4860256201
 11
6.2712503141
 21
3.4663990576
  0
LINE
  5
40C
100
AcDbEntity
  8
03__ASM_ALL_CURVES
100
AcDbLine
 62
40
  6
CONTINUOUS
 10
5.8513514258
 20
5.2413964326
 11
5.8578936133
 21
5.2152276826
  0
LINE
  5
40D
100
AcDbEntity
  8
03__ASM_ALL_CURVES
100
AcDbLine
 62
40
  6
CONTINUOUS
 10
5.8906045508
 20
5.1890589326
 11
5.8840623633
 21
5.2152276826
  0
LINE
  5
40E
100
AcDbEntity
  8
03__ASM_ALL_CURVES
100
AcDbLine
 62
40
  6
CONTINUOUS
 10
6.2982368738
 20
3.372191556
 11
6.2982368738
 21
3.3656493701
  0
LINE
  5
40F
100
AcDbEntity
  8
03__ASM_ALL_CURVES
100
AcDbLine
 62
40
  6
CONTINUOUS
 10
6.3006901579
 20
3.4271459326
 11
6.3006901579
 21
3.5056521826
  0
LINE
  5
410
100
AcDbEntity
  8
0
100
AcDbLine
 62
7
  6
CONTINUOUS
 10
6.3133167389
 20
4.0359270474
 11
6.3133167389
 21
4.0449960334
  0
LINE
  5
411
100
AcDbEntity
  8
0
100
AcDbLine
 62
7
  6
CONTINUOUS
 10
6.3133167389
 20
4.1863584292
 11
6.3133167389
 21
4.3249963158
  0
LINE
  5
412
100
AcDbEntity
  8
0
100
AcDbLine
 62
7
  6
CONTINUOUS
 10
6.3133167389
 20
4.4663081575
 11
6.3133167389
 21
4.4754078381
  0
LINE
  5
413
100
AcDbEntity
  8
03__ASM_ALL_CURVES
100
AcDbLine
 62
40
  6
CONTINUOUS
 10
6.3158467383
 20
5.1628901826
 11
6.3158467383
 21
5.2675651826
  0
LINE
  5
414
100
AcDbEntity
  8
0
100
AcDbLine
 62
7
  6
CONTINUOUS
 10
6.3203167389
 20
4.4769533943
 11
6.3203167389
 21
4.4640743479
  0
LINE
  5
415
100
AcDbEntity
  8
0
100
AcDbLine
 62
7
  6
CONTINUOUS
 10
6.3203167389
 20
4.0342890032
 11
6.3203167389
 21
4.0472299672
  0
LINE
  5
416
100
AcDbEntity
  8
0
100
AcDbLine
 62
7
  6
CONTINUOUS
 10
6.3203167389
 20
4.1831490202
 11
6.3203167389
 21
4.3280832016
  0
LINE
  5
417
100
AcDbEntity
  8
0
100
AcDbLine
 62
7
  6
CONTINUOUS
 10
6.3303167389
 20
4.4785555193
 11
6.3303167389
 21
4.4609953252
  0
LINE
  5
418
100
AcDbEntity
  8
0
100
AcDbLine
 62
7
  6
CONTINUOUS
 10
6.3303167389
 20
4.0327745652
 11
6.3303167389
 21
4.0503089305
  0
LINE
  5
419
100
AcDbEntity
  8
0
100
AcDbLine
 62
7
  6
CONTINUOUS
 10
6.3303167389
 20
4.1801987014
 11
6.3303167389
 21
4.331133824
  0
LINE
  5
41A
100
AcDbEntity
  8
0
100
AcDbLine
 62
7
  6
CONTINUOUS
 10
6.3373167389
 20
4.0321818469
 11
6.3373167389
 21
4.0510303079
  0
LINE
  5
41B
100
AcDbEntity
  8
0
100
AcDbLine
 62
7
  6
CONTINUOUS
 10
6.3373167389
 20
4.1786363821
 11
6.3373167389
 21
4.3325869941
  0
LINE
  5
41C
100
AcDbEntity
  8
0
100
AcDbLine
 62
7
  6
CONTINUOUS
 10
6.3373167389
 20
4.4602739904
 11
6.3373167389
 21
4.4790945747
  0
LINE
  5
41D
100
AcDbEntity
  8
03__ASM_ALL_CURVES
100
AcDbLine
 62
40
  6
CONTINUOUS
 10
6.3374899988
 20
3.3329384334
 11
6.3374899988
 21
3.319854058
  0
LINE
  5
41E
100
AcDbEntity
  8
03__ASM_ALL_CURVES
100
AcDbLine
 62
40
  6
CONTINUOUS
 10
6.3399432829
 20
3.492567806
 11
6.3399432829
 21
3.4794834342
  0
LINE
  5
41F
100
AcDbEntity
  8
03__ASM_ALL_CURVES
100
AcDbLine
 62
40
  6
CONTINUOUS
 10
6.3681842383
 20
5.1628901826
 11
6.3681842383
 21
5.2675651826
  0
LINE
  5
420
100
AcDbEntity
  8
03__ASM_ALL_CURVES
100
AcDbLine
 62
40
  6
CONTINUOUS
 10
6.3988229704
 20
3.5056521826
 11
6.3988229704
 21
3.4271459326
  0
LINE
  5
421
100
AcDbEntity
  8
0
100
AcDbLine
 62
7
  6
CONTINUOUS
 10
6.4033167389
 20
4.200824363
 11
6.4033167389
 21
4.3105527666
  0
LINE
  5
422
100
AcDbEntity
  8
0
100
AcDbLine
 62
7
  6
CONTINUOUS
 10
6.4103167389
 20
4.2085504681
 11
6.4103167389
 21
4.302683624
  0
LINE
  5
423
100
AcDbEntity
  8
0
100
AcDbLine
 62
7
  6
CONTINUOUS
 10
6.4203167389
 20
4.2262560637
 11
6.4203167389
 21
4.2851550693
  0
LINE
  5
424
100
AcDbEntity
  8
03__ASM_ALL_CURVES
100
AcDbLine
 62
40
  6
CONTINUOUS
 10
6.4552493738
 20
3.3067696826
 11
6.4552493738
 21
3.3852759326
  0
LINE
  5
425
100
AcDbEntity
  8
03__ASM_ALL_CURVES
100
AcDbLine
 62
40
  6
CONTINUOUS
 10
6.4728592383
 20
5.2152276826
 11
6.4728592383
 21
5.1803360164
  0
LINE
  5
426
100
AcDbEntity
  8
03__ASM_ALL_CURVES
100
AcDbLine
 62
40
  6
CONTINUOUS
 10
6.2123706266
 20
3.4663990576
 11
6.2172772673
 21
3.4860256201
  0
LINE
  5
427
100
AcDbEntity
  8
03__ASM_ALL_CURVES
100
AcDbLine
 62
40
  6
CONTINUOUS
 10
6.2712503141
 20
3.4663990576
 11
6.2663436735
 21
3.4467724951
  0
LINE
  5
428
100
AcDbEntity
  8
03__ASM_ALL_CURVES
100
AcDbLine
 62
40
  6
CONTINUOUS
 10
6.1363177331
 20
3.3067696826
 11
6.1608509363
 21
3.3852759326
  0
LINE
  5
429
100
AcDbEntity
  8
03__ASM_ALL_CURVES
100
AcDbLine
 62
40
  6
CONTINUOUS
 10
6.0038384363
 20
3.3460228076
 11
6.0234649988
 21
3.3852759326
  0
LINE
  5
42A
100
AcDbEntity
  8
03__ASM_ALL_CURVES
100
AcDbLine
 62
40
  6
CONTINUOUS
 10
5.6624745641
 20
3.3263962451
 11
5.6526612829
 21
3.3133118703
  0
LINE
  5
42B
100
AcDbEntity
  8
03__ASM_ALL_CURVES
100
AcDbLine
 62
40
  6
CONTINUOUS
 10
7.2055842383
 20
5.1890589326
 11
7.1924998633
 21
5.1716130995
  0
LINE
  5
42C
100
AcDbEntity
  8
03__ASM_ALL_CURVES
100
AcDbLine
 62
40
  6
CONTINUOUS
 10
5.9351454675
 20
3.3525649935
 11
5.9400521081
 21
3.3591071842
  0
LINE
  5
42D
100
AcDbEntity
  8
THREAD
100
AcDbLine
 62
7
  6
CONTINUOUS
 10
6.0453167389
 20
3.8036521826
 11
6.0013167389
 21
3.7596521826
  0
LINE
  5
42E
100
AcDbEntity
  8
0
100
AcDbLine
 62
7
  6
CONTINUOUS
 10
6.1453167389
 20
3.8196521826
 11
6.1293167389
 21
3.8036521826
  0
LINE
  5
42F
100
AcDbEntity
  8
03__ASM_ALL_CURVES
100
AcDbLine
 62
40
  6
CONTINUOUS
 10
5.4195958449
 20
3.4336881203
 11
5.4097825636
 21
3.4271459326
  0
LINE
  5
430
100
AcDbEntity
  8
03__ASM_ALL_CURVES
100
AcDbLine
 62
40
  6
CONTINUOUS
 10
5.6232214391
 20
3.3787337467
 11
5.6330347204
 21
3.3852759326
  0
LINE
  5
431
100
AcDbEntity
  8
THREAD
100
AcDbLine
 62
7
  6
CONTINUOUS
 10
6.0013167389
 20
4.7516521826
 11
5.7302560491
 21
4.7516521826
  0
LINE
  5
432
100
AcDbEntity
  8
0
100
AcDbLine
 62
7
  6
CONTINUOUS
 10
4.0203167389
 20
4.7526521826
 11
3.5823167389
 21
4.7526521826
  0
LINE
  5
433
100
AcDbEntity
  8
0
100
AcDbLine
 62
7
  6
CONTINUOUS
 10
5.6373167389
 20
4.7676521826
 11
5.6873167389
 21
4.7676521826
  0
LINE
  5
434
100
AcDbEntity
  8
THREAD
100
AcDbLine
 62
7
  6
CONTINUOUS
 10
5.5673167389
 20
4.7701521826
 11
5.5441731453
 21
4.7701521826
  0
LINE
  5
435
100
AcDbEntity
  8
0
100
AcDbLine
 62
7
  6
CONTINUOUS
 10
4.8953167389
 20
4.7921521826
 11
4.9453167389
 21
4.7921521826
  0
LINE
  5
436
100
AcDbEntity
  8
0
100
AcDbLine
 62
7
  6
CONTINUOUS
 10
5.5173167389
 20
4.7936521826
 11
5.4553167389
 21
4.7936521826
  0
LINE
  5
437
100
AcDbEntity
  8
0
100
AcDbLine
 62
7
  6
CONTINUOUS
 10
5.0813167389
 20
4.7936521826
 11
5.0363167389
 21
4.7936521826
  0
LINE
  5
438
100
AcDbEntity
  8
0
100
AcDbLine
 62
7
  6
CONTINUOUS
 10
4.8953167389
 20
4.7936521826
 11
4.7083167389
 21
4.7936521826
  0
LINE
  5
439
100
AcDbEntity
  8
0
100
AcDbLine
 62
7
  6
CONTINUOUS
 10
4.652891113
 20
4.8890374921
 11
4.0659274101
 21
4.8890374921
  0
LINE
  5
43A
100
AcDbEntity
  8
0
100
AcDbLine
 62
7
  6
CONTINUOUS
 10
4.652891113
 20
4.8896521826
 11
4.0659274101
 21
4.8896521826
  0
LINE
  5
43B
100
AcDbEntity
  8
03__ASM_ALL_CURVES
100
AcDbLine
 62
40
  6
CONTINUOUS
 10
2.8339267389
 20
5.1140418493
 11
2.7083167389
 21
5.1210201826
  0
LINE
  5
43C
100
AcDbEntity
  8
03__ASM_ALL_CURVES
100
AcDbLine
 62
40
  6
CONTINUOUS
 10
2.8339267389
 20
5.1105526826
 11
2.7083167389
 21
5.1210201826
  0
LINE
  5
43D
100
AcDbEntity
  8
03__ASM_ALL_CURVES
100
AcDbLine
 62
40
  6
CONTINUOUS
 10
2.8339267389
 20
5.1070635159
 11
2.7083167389
 21
5.1210201826
  0
LINE
  5
43E
100
AcDbEntity
  8
THREAD
100
AcDbLine
 62
7
  6
CONTINUOUS
 10
6.0453167389
 20
4.7076521826
 11
6.0013167389
 21
4.7516521826
  0
LINE
  5
43F
100
AcDbEntity
  8
0
100
AcDbLine
 62
7
  6
CONTINUOUS
 10
6.1453167389
 20
4.6916521826
 11
6.1293167389
 21
4.7076521826
  0
LINE
  5
440
100
AcDbEntity
  8
03__ASM_ALL_CURVES
100
AcDbLine
 62
40
  6
CONTINUOUS
 10
5.7990139258
 20
5.1716130995
 11
5.7859295508
 21
5.1890589326
  0
LINE
  5
441
100
AcDbEntity
  8
03__ASM_ALL_CURVES
100
AcDbLine
 62
40
  6
CONTINUOUS
 10
5.9036889258
 20
5.1716130995
 11
5.8906045508
 21
5.1890589326
  0
LINE
  5
442
100
AcDbEntity
  8
03__ASM_ALL_CURVES
100
AcDbLine
 62
40
  6
CONTINUOUS
 10
5.8382670508
 20
5.258842268
 11
5.8513514258
 21
5.2413964326
  0
LINE
  5
443
100
AcDbEntity
  8
03__ASM_ALL_CURVES
100
AcDbLine
 62
40
  6
CONTINUOUS
 10
6.0279904883
 20
5.2675651826
 11
6.0607014258
 21
5.1628901826
  0
LINE
  5
444
100
AcDbEntity
  8
03__ASM_ALL_CURVES
100
AcDbLine
 62
40
  6
CONTINUOUS
 10
6.6073552331
 20
3.3263962451
 11
6.6024485925
 21
3.3460228076
  0
LINE
  5
445
100
AcDbEntity
  8
03__ASM_ALL_CURVES
100
AcDbLine
 62
40
  6
CONTINUOUS
 10
6.6564216394
 20
3.3656493701
 11
6.66132828
 21
3.3460228076
  0
LINE
  5
446
100
AcDbEntity
  8
03__ASM_ALL_CURVES
100
AcDbLine
 62
40
  6
CONTINUOUS
 10
6.4969557829
 20
3.492567806
 11
6.4969557829
 21
3.4794834342
  0
LINE
  5
447
100
AcDbEntity
  8
03__ASM_ALL_CURVES
100
AcDbLine
 62
40
  6
CONTINUOUS
 10
6.5337556238
 20
3.3852759326
 11
6.5337556238
 21
3.3067696826
  0
LINE
  5
448
100
AcDbEntity
  8
0
100
AcDbLine
 62
7
  6
CONTINUOUS
 10
6.5743167389
 20
4.6921521826
 11
6.5743167389
 21
3.8191521826
  0
LINE
  5
449
100
AcDbEntity
  8
03__ASM_ALL_CURVES
100
AcDbLine
 62
40
  6
CONTINUOUS
 10
6.6298717383
 20
5.2501193472
 11
6.6298717383
 21
5.2413964326
  0
LINE
  5
44A
100
AcDbEntity
  8
0
100
AcDbLine
 62
7
  6
CONTINUOUS
 10
6.6403167389
 20
4.6921521826
 11
6.6403167389
 21
3.8191521826
  0
LINE
  5
44B
100
AcDbEntity
  8
03__ASM_ALL_CURVES
100
AcDbLine
 62
40
  6
CONTINUOUS
 10
6.6822092383
 20
5.1977818503
 11
6.6822092383
 21
5.1803360164
  0
LINE
  5
44C
100
AcDbEntity
  8
0
100
AcDbLine
 62
7
  6
CONTINUOUS
 10
6.6903167389
 20
3.8196528455
 11
6.6903167389
 21
4.6916515197
  0
LINE
  5
44D
100
AcDbEntity
  8
03__ASM_ALL_CURVES
100
AcDbLine
 62
40
  6
CONTINUOUS
 10
6.8261373633
 20
5.2152276826
 11
6.8326795508
 21
5.2413964326
  0
LINE
  5
44E
100
AcDbEntity
  8
03__ASM_ALL_CURVES
100
AcDbLine
 62
40
  6
CONTINUOUS
 10
6.9046436133
 20
5.2152276826
 11
6.8981014258
 21
5.1890589326
  0
LINE
  5
44F
100
AcDbEntity
  8
03__ASM_ALL_CURVES
100
AcDbLine
 62
40
  6
CONTINUOUS
 10
6.4626092985
 20
3.4467724951
 11
6.4577026579
 21
3.4271459326
  0
LINE
  5
450
100
AcDbEntity
  8
03__ASM_ALL_CURVES
100
AcDbLine
 62
40
  6
CONTINUOUS
 10
5.9351454675
 20
3.3067696826
 11
5.9449587488
 21
3.319854058
  0
LINE
  5
451
100
AcDbEntity
  8
03__ASM_ALL_CURVES
100
AcDbLine
 62
40
  6
CONTINUOUS
 10
7.4149342383
 20
5.232673518
 11
7.4083920508
 21
5.2239505972
  0
LINE
  5
452
100
AcDbEntity
  8
03__ASM_ALL_CURVES
100
AcDbLine
 62
40
  6
CONTINUOUS
 10
6.1829307829
 20
3.4794834342
 11
6.1780241423
 21
3.4729412435
  0
LINE
  5
453
100
AcDbEntity
  8
03__ASM_ALL_CURVES
100
AcDbLine
 62
40
  6
CONTINUOUS
 10
6.1019712488
 20
3.3591071842
 11
6.0970646081
 21
3.3525649935
  0
LINE
  5
454
100
AcDbEntity
  8
03__ASM_ALL_CURVES
100
AcDbLine
 62
40
  6
CONTINUOUS
 10
6.2172772673
 20
3.4860256201
 11
6.2270905485
 21
3.4991099967
  0
LINE
  5
455
100
AcDbEntity
  8
03__ASM_ALL_CURVES
100
AcDbLine
 62
40
  6
CONTINUOUS
 10
6.2663436735
 20
3.4467724951
 11
6.2565303923
 21
3.4336881203
  0
LINE
  5
456
100
AcDbEntity
  8
03__ASM_ALL_CURVES
100
AcDbLine
 62
40
  6
CONTINUOUS
 10
6.2246372644
 20
3.3787337467
 11
6.2197306238
 21
3.372191556
  0
LINE
  5
457
100
AcDbEntity
  8
03__ASM_ALL_CURVES
100
AcDbLine
 62
40
  6
CONTINUOUS
 10
5.6526612829
 20
3.3133118703
 11
5.6428480016
 21
3.3067696826
  0
LINE
  5
458
100
AcDbEntity
  8
03__ASM_ALL_CURVES
100
AcDbLine
 62
40
  6
CONTINUOUS
 10
7.3046632223
 20
4.3223824935
 11
7.2948499411
 21
4.3158403076
  0
LINE
  5
459
100
AcDbEntity
  8
03__ASM_ALL_CURVES
100
AcDbLine
 62
40
  6
CONTINUOUS
 10
7.3537296286
 20
4.3485512467
 11
7.3635429098
 21
4.3550934326
  0
LINE
  5
45A
100
AcDbEntity
  8
03__ASM_ALL_CURVES
100
AcDbLine
 62
40
  6
CONTINUOUS
 10
7.2850366603
 20
4.2281749967
 11
7.2948499415
 21
4.2347171826
  0
LINE
  5
45B
100
AcDbEntity
  8
03__ASM_ALL_CURVES
100
AcDbLine
 62
40
  6
CONTINUOUS
 10
7.3831694723
 20
4.2831293703
 11
7.3733561911
 21
4.2765871826
  0
LINE
  5
45C
100
AcDbEntity
  8
03__ASM_ALL_CURVES
100
AcDbLine
 62
40
  6
CONTINUOUS
 10
6.1780241423
 20
3.4729412435
 11
6.168210861
 21
3.4663990576
  0
LINE
  5
45D
100
AcDbEntity
  8
03__ASM_ALL_CURVES
100
AcDbLine
 62
40
  6
CONTINUOUS
 10
7.4616757223
 20
4.3223824935
 11
7.4518624411
 21
4.3158403076
  0
LINE
  5
45E
100
AcDbEntity
  8
03__ASM_ALL_CURVES
100
AcDbLine
 62
40
  6
CONTINUOUS
 10
6.2270905485
 20
3.4991099967
 11
6.2369038298
 21
3.5056521826
  0
LINE
  5
45F
100
AcDbEntity
  8
03__ASM_ALL_CURVES
100
AcDbLine
 62
40
  6
CONTINUOUS
 10
5.3947067389
 20
5.1000851826
 11
5.6459267389
 21
5.1419551826
  0
LINE
  5
460
100
AcDbEntity
  8
03__ASM_ALL_CURVES
100
AcDbLine
 62
40
  6
CONTINUOUS
 10
5.3947067389
 20
5.1035743493
 11
5.6459267389
 21
5.1384660159
  0
LINE
  5
461
100
AcDbEntity
  8
03__ASM_ALL_CURVES
100
AcDbLine
 62
40
  6
CONTINUOUS
 10
5.3947067389
 20
5.1070635159
 11
5.6459267389
 21
5.1349768493
  0
LINE
  5
462
100
AcDbEntity
  8
03__ASM_ALL_CURVES
100
AcDbLine
 62
40
  6
CONTINUOUS
 10
5.3947067389
 20
5.1105526826
 11
5.6459267389
 21
5.1314876826
  0
LINE
  5
463
100
AcDbEntity
  8
03__ASM_ALL_CURVES
100
AcDbLine
 62
40
  6
CONTINUOUS
 10
5.3947067389
 20
5.1140418493
 11
5.6459267389
 21
5.1279985159
  0
LINE
  5
464
100
AcDbEntity
  8
03__ASM_ALL_CURVES
100
AcDbLine
 62
40
  6
CONTINUOUS
 10
5.3947067389
 20
5.1175310159
 11
5.6459267389
 21
5.1245093493
  0
LINE
  5
465
100
AcDbEntity
  8
03__ASM_ALL_CURVES
100
AcDbLine
 62
40
  6
CONTINUOUS
 10
2.7083167389
 20
5.1210201826
 11
7.5300767389
 21
5.1210201826
  0
LINE
  5
466
100
AcDbEntity
  8
03__ASM_ALL_CURVES
100
AcDbLine
 62
40
  6
CONTINUOUS
 10
7.3102592383
 20
5.1628901826
 11
7.2579217383
 21
5.1628901826
  0
LINE
  5
467
100
AcDbEntity
  8
03__ASM_ALL_CURVES
100
AcDbLine
 62
40
  6
CONTINUOUS
 10
7.1794154883
 20
5.1628901826
 11
7.1532467383
 21
5.1628901826
  0
LINE
  5
468
100
AcDbEntity
  8
03__ASM_ALL_CURVES
100
AcDbLine
 62
40
  6
CONTINUOUS
 10
6.9766076758
 20
5.1628901826
 11
6.9635233008
 21
5.1628901826
  0
LINE
  5
469
100
AcDbEntity
  8
03__ASM_ALL_CURVES
100
AcDbLine
 62
40
  6
CONTINUOUS
 10
6.8719326758
 20
5.1628901826
 11
6.8588483008
 21
5.1628901826
  0
LINE
  5
46A
100
AcDbEntity
  8
03__ASM_ALL_CURVES
100
AcDbLine
 62
40
  6
CONTINUOUS
 10
6.6625826758
 20
5.1628901826
 11
6.6494983008
 21
5.1628901826
  0
LINE
  5
46B
100
AcDbEntity
  8
03__ASM_ALL_CURVES
100
AcDbLine
 62
40
  6
CONTINUOUS
 10
6.4532326758
 20
5.1628901826
 11
6.4401483008
 21
5.1628901826
  0
LINE
  5
46C
100
AcDbEntity
  8
03__ASM_ALL_CURVES
100
AcDbLine
 62
40
  6
CONTINUOUS
 10
5.9298576758
 20
5.1628901826
 11
5.9167733008
 21
5.1628901826
  0
LINE
  5
46D
100
AcDbEntity
  8
03__ASM_ALL_CURVES
100
AcDbLine
 62
40
  6
CONTINUOUS
 10
5.8251826758
 20
5.1628901826
 11
5.8120983008
 21
5.1628901826
  0
LINE
  5
46E
100
AcDbEntity
  8
03__ASM_ALL_CURVES
100
AcDbLine
 62
40
  6
CONTINUOUS
 10
4.4348839264
 20
5.1628901826
 11
4.4217995514
 21
5.1628901826
  0
LINE
  5
46F
100
AcDbEntity
  8
03__ASM_ALL_CURVES
100
AcDbLine
 62
40
  6
CONTINUOUS
 10
4.3236667389
 20
5.1628901826
 11
4.3171245514
 21
5.1628901826
  0
LINE
  5
470
100
AcDbEntity
  8
03__ASM_ALL_CURVES
100
AcDbLine
 62
40
  6
CONTINUOUS
 10
3.8068339264
 20
5.1628901826
 11
3.7937495514
 21
5.1628901826
  0
LINE
  5
471
100
AcDbEntity
  8
03__ASM_ALL_CURVES
100
AcDbLine
 62
40
  6
CONTINUOUS
 10
3.6956167389
 20
5.1628901826
 11
3.6890745514
 21
5.1628901826
  0
LINE
  5
472
100
AcDbEntity
  8
03__ASM_ALL_CURVES
100
AcDbLine
 62
40
  6
CONTINUOUS
 10
3.5647729889
 20
5.1628901826
 11
3.6171104889
 21
5.1628901826
  0
LINE
  5
473
100
AcDbEntity
  8
03__ASM_ALL_CURVES
100
AcDbLine
 62
40
  6
CONTINUOUS
 10
5.6877967383
 20
5.1628901826
 11
5.7401342383
 21
5.1628901826
  0
LINE
  5
474
100
AcDbEntity
  8
03__ASM_ALL_CURVES
100
AcDbLine
 62
40
  6
CONTINUOUS
 10
7.0485717383
 20
5.1628901826
 11
7.1009092383
 21
5.1628901826
  0
LINE
  5
475
100
AcDbEntity
  8
03__ASM_ALL_CURVES
100
AcDbLine
 62
40
  6
CONTINUOUS
 10
2.8339267389
 20
5.1175310159
 11
2.7083167389
 21
5.1210201826
  0
LINE
  5
476
100
AcDbEntity
  8
03__ASM_ALL_CURVES
100
AcDbLine
 62
40
  6
CONTINUOUS
 10
5.3947067389
 20
5.1245093493
 11
5.6459267389
 21
5.1175310159
  0
LINE
  5
477
100
AcDbEntity
  8
03__ASM_ALL_CURVES
100
AcDbLine
 62
40
  6
CONTINUOUS
 10
5.3947067389
 20
5.1279985159
 11
5.6459267389
 21
5.1140418493
  0
LINE
  5
478
100
AcDbEntity
  8
03__ASM_ALL_CURVES
100
AcDbLine
 62
40
  6
CONTINUOUS
 10
5.3947067389
 20
5.1314876826
 11
5.6459267389
 21
5.1105526826
  0
LINE
  5
479
100
AcDbEntity
  8
03__ASM_ALL_CURVES
100
AcDbLine
 62
40
  6
CONTINUOUS
 10
5.3947067389
 20
5.1349768493
 11
5.6459267389
 21
5.1070635159
  0
LINE
  5
47A
100
AcDbEntity
  8
03__ASM_ALL_CURVES
100
AcDbLine
 62
40
  6
CONTINUOUS
 10
5.3947067389
 20
5.1384660159
 11
5.6459267389
 21
5.1035743493
  0
LINE
  5
47B
100
AcDbEntity
  8
03__ASM_ALL_CURVES
100
AcDbLine
 62
40
  6
CONTINUOUS
 10
5.6459267389
 20
5.1000851826
 11
5.3947067389
 21
5.1419551826
  0
LINE
  5
47C
100
AcDbEntity
  8
03__ASM_ALL_CURVES
100
AcDbLine
 62
40
  6
CONTINUOUS
 10
7.2948499415
 20
4.1562109326
 11
7.2850366603
 21
4.1627531203
  0
LINE
  5
47D
100
AcDbEntity
  8
03__ASM_ALL_CURVES
100
AcDbLine
 62
40
  6
CONTINUOUS
 10
5.8120983008
 20
5.1628901826
 11
5.7990139258
 21
5.1716130995
  0
LINE
  5
47E
100
AcDbEntity
  8
03__ASM_ALL_CURVES
100
AcDbLine
 62
40
  6
CONTINUOUS
 10
7.3733561915
 20
4.1562109326
 11
7.3635429103
 21
4.1627531203
  0
LINE
  5
47F
100
AcDbEntity
  8
03__ASM_ALL_CURVES
100
AcDbLine
 62
40
  6
CONTINUOUS
 10
7.3046632228
 20
4.2347171826
 11
7.314476504
 21
4.2281749967
  0
LINE
  5
480
100
AcDbEntity
  8
03__ASM_ALL_CURVES
100
AcDbLine
 62
40
  6
CONTINUOUS
 10
5.9167733008
 20
5.1628901826
 11
5.9036889258
 21
5.1716130995
  0
LINE
  5
481
100
AcDbEntity
  8
03__ASM_ALL_CURVES
100
AcDbLine
 62
40
  6
CONTINUOUS
 10
5.8251826758
 20
5.2675651826
 11
5.8382670508
 21
5.258842268
  0
LINE
  5
482
100
AcDbEntity
  8
03__ASM_ALL_CURVES
100
AcDbLine
 62
40
  6
CONTINUOUS
 10
7.3831694728
 20
4.2347171826
 11
7.392982754
 21
4.2281749967
  0
LINE
  5
483
100
AcDbEntity
  8
03__ASM_ALL_CURVES
100
AcDbLine
 62
40
  6
CONTINUOUS
 10
7.3635429098
 20
4.2765871826
 11
7.3537296286
 21
4.2831293703
  0
LINE
  5
484
100
AcDbEntity
  8
03__ASM_ALL_CURVES
100
AcDbLine
 62
40
  6
CONTINUOUS
 10
7.2948499411
 20
4.3550934326
 11
7.3046632223
 21
4.3485512467
  0
LINE
  5
485
100
AcDbEntity
  8
03__ASM_ALL_CURVES
100
AcDbLine
 62
40
  6
CONTINUOUS
 10
5.9298576758
 20
5.2675651826
 11
5.9429420508
 21
5.258842268
  0
LINE
  5
486
100
AcDbEntity
  8
03__ASM_ALL_CURVES
100
AcDbLine
 62
40
  6
CONTINUOUS
 10
5.9429420508
 20
5.258842268
 11
5.9494842383
 21
5.2501193472
  0
LINE
  5
487
100
AcDbEntity
  8
03__ASM_ALL_CURVES
100
AcDbLine
 62
40
  6
CONTINUOUS
 10
6.4139795508
 20
5.1890589326
 11
6.4074373633
 21
5.2152276826
  0
LINE
  5
488
100
AcDbEntity
  8
03__ASM_ALL_CURVES
100
AcDbLine
 62
40
  6
CONTINUOUS
 10
6.6809548425
 20
3.3852759326
 11
6.6956747644
 21
3.3067696826
  0
LINE
  5
489
100
AcDbEntity
  8
03__ASM_ALL_CURVES
100
AcDbLine
 62
40
  6
CONTINUOUS
 10
6.7103946863
 20
3.3852759326
 11
6.7251146081
 21
3.3067696826
  0
LINE
  5
48A
100
AcDbEntity
  8
03__ASM_ALL_CURVES
100
AcDbLine
 62
40
  6
CONTINUOUS
 10
6.7345467383
 20
5.2675651826
 11
6.7345467383
 21
5.1628901826
  0
LINE
  5
48B
100
AcDbEntity
  8
0
100
AcDbLine
 62
7
  6
CONTINUOUS
 10
6.7603167389
 20
3.8196528455
 11
6.7603167389
 21
4.6916515197
  0
LINE
  5
48C
100
AcDbEntity
  8
03__ASM_ALL_CURVES
100
AcDbLine
 62
40
  6
CONTINUOUS
 10
6.7868842383
 20
5.2675651826
 11
6.7868842383
 21
5.1628901826
  0
LINE
  5
48D
100
AcDbEntity
  8
0
100
AcDbLine
 62
7
  6
CONTINUOUS
 10
6.8103167389
 20
3.8196528455
 11
6.8103167389
 21
4.6916515197
  0
LINE
  5
48E
100
AcDbEntity
  8
0
100
AcDbLine
 62
7
  6
CONTINUOUS
 10
6.8383167389
 20
3.819159812
 11
6.8383167389
 21
4.6921445532
  0
LINE
  5
48F
100
AcDbEntity
  8
0
100
AcDbLine
 62
7
  6
CONTINUOUS
 10
6.8793167389
 20
3.8191521826
 11
6.8793167389
 21
4.6921521826
  0
LINE
  5
490
100
AcDbEntity
  8
0
100
AcDbLine
 62
7
  6
CONTINUOUS
 10
6.8953167389
 20
3.8351521826
 11
6.8953167389
 21
4.6761521826
  0
LINE
  5
491
100
AcDbEntity
  8
03__ASM_ALL_CURVES
100
AcDbLine
 62
40
  6
CONTINUOUS
 10
6.6956747644
 20
3.3067696826
 11
6.7103946863
 21
3.3852759326
  0
LINE
  5
492
100
AcDbEntity
  8
03__ASM_ALL_CURVES
100
AcDbLine
 62
40
  6
CONTINUOUS
 10
6.7251146081
 20
3.3067696826
 11
6.73983453
 21
3.3852759326
  0
LINE
  5
493
100
AcDbEntity
  8
03__ASM_ALL_CURVES
100
AcDbLine
 62
40
  6
CONTINUOUS
 10
6.6024485925
 20
3.3460228076
 11
6.6073552331
 21
3.3656493701
  0
LINE
  5
494
100
AcDbEntity
  8
03__ASM_ALL_CURVES
100
AcDbLine
 62
40
  6
CONTINUOUS
 10
6.66132828
 20
3.3460228076
 11
6.6564216394
 21
3.3263962451
  0
LINE
  5
495
100
AcDbEntity
  8
03__ASM_ALL_CURVES
100
AcDbLine
 62
40
  6
CONTINUOUS
 10
6.3399432829
 20
3.4794834342
 11
6.3350366423
 21
3.4729412435
  0
LINE
  5
496
100
AcDbEntity
  8
03__ASM_ALL_CURVES
100
AcDbLine
 62
40
  6
CONTINUOUS
 10
6.3031435144
 20
3.3787337467
 11
6.2982368738
 21
3.372191556
  0
LINE
  5
497
100
AcDbEntity
  8
03__ASM_ALL_CURVES
100
AcDbLine
 62
40
  6
CONTINUOUS
 10
6.2589837488
 20
3.319854058
 11
6.2540771081
 21
3.3133118703
  0
LINE
  5
498
100
AcDbEntity
  8
03__ASM_ALL_CURVES
100
AcDbLine
 62
40
  6
CONTINUOUS
 10
6.4577026579
 20
3.492567806
 11
6.4626092985
 21
3.4991099967
  0
LINE
  5
499
100
AcDbEntity
  8
03__ASM_ALL_CURVES
100
AcDbLine
 62
40
  6
CONTINUOUS
 10
6.3374899988
 20
3.319854058
 11
6.3325833581
 21
3.3133118703
  0
LINE
  5
49A
100
AcDbEntity
  8
03__ASM_ALL_CURVES
100
AcDbLine
 62
40
  6
CONTINUOUS
 10
6.4724225798
 20
3.4598568693
 11
6.4626092985
 21
3.4467724951
  0
LINE
  5
49B
100
AcDbEntity
  8
03__ASM_ALL_CURVES
100
AcDbLine
 62
40
  6
CONTINUOUS
 10
6.4969557829
 20
3.4794834342
 11
6.4920491423
 21
3.4729412435
  0
LINE
  5
49C
100
AcDbEntity
  8
0
100
AcDbLine
 62
7
  6
CONTINUOUS
 10
6.8793167389
 20
3.8191521826
 11
6.8953167389
 21
3.8351521826
  0
LINE
  5
49D
100
AcDbEntity
  8
03__ASM_ALL_CURVES
100
AcDbLine
 62
40
  6
CONTINUOUS
 10
7.3635429103
 20
4.2281749967
 11
7.3733561915
 21
4.2347171826
  0
LINE
  5
49E
100
AcDbEntity
  8
03__ASM_ALL_CURVES
100
AcDbLine
 62
40
  6
CONTINUOUS
 10
6.0970646081
 20
3.3525649935
 11
6.0872513269
 21
3.3460228076
  0
LINE
  5
49F
100
AcDbEntity
  8
03__ASM_ALL_CURVES
100
AcDbLine
 62
40
  6
CONTINUOUS
 10
7.314476504
 20
4.1627531203
 11
7.3046632228
 21
4.1562109326
  0
LINE
  5
4A0
100
AcDbEntity
  8
03__ASM_ALL_CURVES
100
AcDbLine
 62
40
  6
CONTINUOUS
 10
6.2565303923
 20
3.4336881203
 11
6.246717111
 21
3.4271459326
  0
LINE
  5
4A1
100
AcDbEntity
  8
03__ASM_ALL_CURVES
100
AcDbLine
 62
40
  6
CONTINUOUS
 10
6.3350366423
 20
3.4729412435
 11
6.325223361
 21
3.4663990576
  0
LINE
  5
4A2
100
AcDbEntity
  8
03__ASM_ALL_CURVES
100
AcDbLine
 62
40
  6
CONTINUOUS
 10
7.392982754
 20
4.1627531203
 11
7.3831694728
 21
4.1562109326
  0
LINE
  5
4A3
100
AcDbEntity
  8
03__ASM_ALL_CURVES
100
AcDbLine
 62
40
  6
CONTINUOUS
 10
6.2344505456
 20
3.3852759326
 11
6.2246372644
 21
3.3787337467
  0
LINE
  5
4A4
100
AcDbEntity
  8
03__ASM_ALL_CURVES
100
AcDbLine
 62
40
  6
CONTINUOUS
 10
6.4626092985
 20
3.4991099967
 11
6.4724225798
 21
3.5056521826
  0
LINE
  5
4A5
100
AcDbEntity
  8
03__ASM_ALL_CURVES
100
AcDbLine
 62
40
  6
CONTINUOUS
 10
6.3129567956
 20
3.3852759326
 11
6.3031435144
 21
3.3787337467
  0
LINE
  5
4A6
100
AcDbEntity
  8
03__ASM_ALL_CURVES
100
AcDbLine
 62
40
  6
CONTINUOUS
 10
6.4920491423
 20
3.4729412435
 11
6.4724225798
 21
3.4598568693
  0
LINE
  5
4A7
100
AcDbEntity
  8
03__ASM_ALL_CURVES
100
AcDbLine
 62
40
  6
CONTINUOUS
 10
6.2540771081
 20
3.3133118703
 11
6.2442638269
 21
3.3067696826
  0
LINE
  5
4A8
100
AcDbEntity
  8
03__ASM_ALL_CURVES
100
AcDbLine
 62
40
  6
CONTINUOUS
 10
7.628501504
 20
4.2020062435
 11
7.6186882228
 21
4.1954640576
  0
LINE
  5
4A9
100
AcDbEntity
  8
03__ASM_ALL_CURVES
100
AcDbLine
 62
40
  6
CONTINUOUS
 10
7.6775679103
 20
4.2281749967
 11
7.6873811915
 21
4.2347171826
  0
LINE
  5
4AA
100
AcDbEntity
  8
03__ASM_ALL_CURVES
100
AcDbLine
 62
40
  6
CONTINUOUS
 10
6.3325833581
 20
3.3133118703
 11
6.3227700769
 21
3.3067696826
  0
LINE
  5
4AB
100
AcDbEntity
  8
03__ASM_ALL_CURVES
100
AcDbLine
 62
40
  6
CONTINUOUS
 10
2.8339267389
 20
5.1314876826
 11
2.7083167389
 21
5.1210201826
  0
LINE
  5
4AC
100
AcDbEntity
  8
03__ASM_ALL_CURVES
100
AcDbLine
 62
40
  6
CONTINUOUS
 10
2.8339267389
 20
5.1279985159
 11
2.7083167389
 21
5.1210201826
  0
LINE
  5
4AD
100
AcDbEntity
  8
03__ASM_ALL_CURVES
100
AcDbLine
 62
40
  6
CONTINUOUS
 10
2.8339267389
 20
5.1245093493
 11
2.7083167389
 21
5.1210201826
  0
LINE
  5
4AE
100
AcDbEntity
  8
03__ASM_ALL_CURVES
100
AcDbLine
 62
40
  6
CONTINUOUS
 10
6.0083639258
 20
5.1977818503
 11
6.0476170508
 21
5.1977818503
  0
LINE
  5
4AF
100
AcDbEntity
  8
03__ASM_ALL_CURVES
100
AcDbLine
 62
40
  6
CONTINUOUS
 10
7.3953076758
 20
5.2152276826
 11
7.3625967383
 21
5.2152276826
  0
LINE
  5
4B0
100
AcDbEntity
  8
03__ASM_ALL_CURVES
100
AcDbLine
 62
40
  6
CONTINUOUS
 10
6.4466904883
 20
5.2152276826
 11
6.4728592383
 21
5.2152276826
  0
LINE
  5
4B1
100
AcDbEntity
  8
03__ASM_ALL_CURVES
100
AcDbLine
 62
40
  6
CONTINUOUS
 10
6.7345467383
 20
5.2152276826
 11
6.7868842383
 21
5.2152276826
  0
LINE
  5
4B2
100
AcDbEntity
  8
03__ASM_ALL_CURVES
100
AcDbLine
 62
40
  6
CONTINUOUS
 10
7.2579217383
 20
5.2152276826
 11
7.2906326758
 21
5.2152276826
  0
LINE
  5
4B3
100
AcDbEntity
  8
03__ASM_ALL_CURVES
100
AcDbLine
 62
40
  6
CONTINUOUS
 10
3.7937495514
 20
5.2239505972
 11
3.8068339264
 21
5.2239505972
  0
LINE
  5
4B4
100
AcDbEntity
  8
03__ASM_ALL_CURVES
100
AcDbLine
 62
40
  6
CONTINUOUS
 10
4.4217995514
 20
5.2239505972
 11
4.4348839264
 21
5.2239505972
  0
LINE
  5
4B5
100
AcDbEntity
  8
03__ASM_ALL_CURVES
100
AcDbLine
 62
40
  6
CONTINUOUS
 10
6.6625826758
 20
5.2675651826
 11
6.6494983008
 21
5.2675651826
  0
LINE
  5
4B6
100
AcDbEntity
  8
03__ASM_ALL_CURVES
100
AcDbLine
 62
40
  6
CONTINUOUS
 10
4.5591854889
 20
5.2675651826
 11
4.5068479889
 21
5.2675651826
  0
LINE
  5
4B7
100
AcDbEntity
  8
03__ASM_ALL_CURVES
100
AcDbLine
 62
40
  6
CONTINUOUS
 10
4.1404854889
 20
5.2675651826
 11
4.0881479889
 21
5.2675651826
  0
LINE
  5
4B8
100
AcDbEntity
  8
03__ASM_ALL_CURVES
100
AcDbLine
 62
40
  6
CONTINUOUS
 10
3.5843995514
 20
5.2675651826
 11
3.5974839264
 21
5.2675651826
  0
LINE
  5
4B9
100
AcDbEntity
  8
03__ASM_ALL_CURVES
100
AcDbLine
 62
40
  6
CONTINUOUS
 10
3.7937495514
 20
5.2675651826
 11
3.8068339264
 21
5.2675651826
  0
LINE
  5
4BA
100
AcDbEntity
  8
03__ASM_ALL_CURVES
100
AcDbLine
 62
40
  6
CONTINUOUS
 10
4.4217995514
 20
5.2675651826
 11
4.4348839264
 21
5.2675651826
  0
LINE
  5
4BB
100
AcDbEntity
  8
03__ASM_ALL_CURVES
100
AcDbLine
 62
40
  6
CONTINUOUS
 10
5.8120983008
 20
5.2675651826
 11
5.8251826758
 21
5.2675651826
  0
LINE
  5
4BC
100
AcDbEntity
  8
03__ASM_ALL_CURVES
100
AcDbLine
 62
40
  6
CONTINUOUS
 10
5.9167733008
 20
5.2675651826
 11
5.9298576758
 21
5.2675651826
  0
LINE
  5
4BD
100
AcDbEntity
  8
03__ASM_ALL_CURVES
100
AcDbLine
 62
40
  6
CONTINUOUS
 10
6.0999545508
 20
5.2675651826
 11
6.1653764258
 21
5.2675651826
  0
LINE
  5
4BE
100
AcDbEntity
  8
03__ASM_ALL_CURVES
100
AcDbLine
 62
40
  6
CONTINUOUS
 10
6.4401483008
 20
5.2675651826
 11
6.4532326758
 21
5.2675651826
  0
LINE
  5
4BF
100
AcDbEntity
  8
03__ASM_ALL_CURVES
100
AcDbLine
 62
40
  6
CONTINUOUS
 10
6.8588483008
 20
5.2675651826
 11
6.8719326758
 21
5.2675651826
  0
LINE
  5
4C0
100
AcDbEntity
  8
03__ASM_ALL_CURVES
100
AcDbLine
 62
40
  6
CONTINUOUS
 10
7.1532467383
 20
5.2675651826
 11
7.1794154883
 21
5.2675651826
  0
LINE
  5
4C1
100
AcDbEntity
  8
03__ASM_ALL_CURVES
100
AcDbLine
 62
40
  6
CONTINUOUS
 10
7.2579217383
 20
5.2675651826
 11
7.3102592383
 21
5.2675651826
  0
LINE
  5
4C2
100
AcDbEntity
  8
03__ASM_ALL_CURVES
100
AcDbLine
 62
40
  6
CONTINUOUS
 10
7.3625967383
 20
5.2675651826
 11
7.3953076758
 21
5.2675651826
  0
LINE
  5
4C3
100
AcDbEntity
  8
03__ASM_ALL_CURVES
100
AcDbLine
 62
40
  6
CONTINUOUS
 10
7.3733561911
 20
4.3550934326
 11
7.3831694723
 21
4.3485512467
  0
LINE
  5
4C4
100
AcDbEntity
  8
03__ASM_ALL_CURVES
100
AcDbLine
 62
40
  6
CONTINUOUS
 10
7.6873811915
 20
4.1562109326
 11
7.6775679103
 21
4.1627531203
  0
LINE
  5
4C5
100
AcDbEntity
  8
03__ASM_ALL_CURVES
100
AcDbLine
 62
40
  6
CONTINUOUS
 10
7.6186882228
 20
4.2347171826
 11
7.628501504
 21
4.2281749967
  0
LINE
  5
4C6
100
AcDbEntity
  8
03__ASM_ALL_CURVES
100
AcDbLine
 62
40
  6
CONTINUOUS
 10
7.4518624411
 20
4.3550934326
 11
7.4616757223
 21
4.3485512467
  0
LINE
  5
4C7
100
AcDbEntity
  8
03__ASM_ALL_CURVES
100
AcDbLine
 62
40
  6
CONTINUOUS
 10
7.6971944728
 20
4.2347171826
 11
7.707007754
 21
4.2281749967
  0
LINE
  5
4C8
100
AcDbEntity
  8
03__ASM_ALL_CURVES
100
AcDbLine
 62
40
  6
CONTINUOUS
 10
6.4401483008
 20
5.1628901826
 11
6.4270639258
 21
5.1716130995
  0
LINE
  5
4C9
100
AcDbEntity
  8
0
100
AcDbLine
 62
7
  6
CONTINUOUS
 10
6.8793167389
 20
4.6921521826
 11
6.8953167389
 21
4.6761521826
  0
LINE
  5
4CA
100
AcDbEntity
  8
03__ASM_ALL_CURVES
100
AcDbLine
 62
40
  6
CONTINUOUS
 10
6.4270639258
 20
5.1716130995
 11
6.4139795508
 21
5.1890589326
  0
LINE
  5
4CB
100
AcDbEntity
  8
03__ASM_ALL_CURVES
100
AcDbLine
 62
40
  6
CONTINUOUS
 10
6.3158467383
 20
5.2675651826
 11
6.3681842383
 21
5.1628901826
  0
LINE
  5
4CC
100
AcDbEntity
  8
03__ASM_ALL_CURVES
100
AcDbLine
 62
40
  6
CONTINUOUS
 10
6.9438967383
 20
5.1803360164
 11
6.9438967383
 21
5.2675651826
  0
LINE
  5
4CD
100
AcDbEntity
  8
03__ASM_ALL_CURVES
100
AcDbLine
 62
40
  6
CONTINUOUS
 10
6.9962342383
 20
5.2675651826
 11
6.9962342383
 21
5.1803360164
  0
LINE
  5
4CE
100
AcDbEntity
  8
03__ASM_ALL_CURVES
100
AcDbLine
 62
40
  6
CONTINUOUS
 10
7.0485717383
 20
5.2675651826
 11
7.0485717383
 21
5.1628901826
  0
LINE
  5
4CF
100
AcDbEntity
  8
03__ASM_ALL_CURVES
100
AcDbLine
 62
40
  6
CONTINUOUS
 10
7.2121264258
 20
5.2152276826
 11
7.2055842383
 21
5.1890589326
  0
LINE
  5
4D0
100
AcDbEntity
  8
03__ASM_ALL_CURVES
100
AcDbLine
 62
40
  6
CONTINUOUS
 10
7.3095698629
 20
4.3289246842
 11
7.3046632223
 21
4.3223824935
  0
LINE
  5
4D1
100
AcDbEntity
  8
03__ASM_ALL_CURVES
100
AcDbLine
 62
40
  6
CONTINUOUS
 10
6.6073552331
 20
3.3656493701
 11
6.6171685144
 21
3.3787337467
  0
LINE
  5
4D2
100
AcDbEntity
  8
03__ASM_ALL_CURVES
100
AcDbLine
 62
40
  6
CONTINUOUS
 10
7.3439163473
 20
4.3354668701
 11
7.3537296286
 21
4.3485512467
  0
LINE
  5
4D3
100
AcDbEntity
  8
03__ASM_ALL_CURVES
100
AcDbLine
 62
40
  6
CONTINUOUS
 10
7.275223379
 20
4.2150906201
 11
7.2850366603
 21
4.2281749967
  0
LINE
  5
4D4
100
AcDbEntity
  8
03__ASM_ALL_CURVES
100
AcDbLine
 62
40
  6
CONTINUOUS
 10
6.6564216394
 20
3.3263962451
 11
6.6466083581
 21
3.3133118703
  0
LINE
  5
4D5
100
AcDbEntity
  8
03__ASM_ALL_CURVES
100
AcDbLine
 62
40
  6
CONTINUOUS
 10
7.3929827536
 20
4.2962137451
 11
7.3831694723
 21
4.2831293703
  0
LINE
  5
4D6
100
AcDbEntity
  8
03__ASM_ALL_CURVES
100
AcDbLine
 62
40
  6
CONTINUOUS
 10
7.3193831447
 20
4.169295308
 11
7.314476504
 21
4.1627531203
  0
LINE
  5
4D7
100
AcDbEntity
  8
03__ASM_ALL_CURVES
100
AcDbLine
 62
40
  6
CONTINUOUS
 10
7.353729629
 20
4.2150906201
 11
7.3635429103
 21
4.2281749967
  0
LINE
  5
4D8
100
AcDbEntity
  8
03__ASM_ALL_CURVES
100
AcDbLine
 62
40
  6
CONTINUOUS
 10
7.4665823629
 20
4.3289246842
 11
7.4616757223
 21
4.3223824935
  0
LINE
  5
4D9
100
AcDbEntity
  8
03__ASM_ALL_CURVES
100
AcDbLine
 62
40
  6
CONTINUOUS
 10
7.707007754
 20
4.1627531203
 11
7.6971944728
 21
4.1562109326
  0
LINE
  5
4DA
100
AcDbEntity
  8
03__ASM_ALL_CURVES
100
AcDbLine
 62
40
  6
CONTINUOUS
 10
6.6171685144
 20
3.3787337467
 11
6.6269817956
 21
3.3852759326
  0
LINE
  5
4DB
100
AcDbEntity
  8
03__ASM_ALL_CURVES
100
AcDbLine
 62
40
  6
CONTINUOUS
 10
6.6466083581
 20
3.3133118703
 11
6.6367950769
 21
3.3067696826
  0
LINE
  5
4DC
100
AcDbEntity
  8
03__ASM_ALL_CURVES
100
AcDbLine
 62
40
  6
CONTINUOUS
 10
2.8339267389
 20
5.1384660159
 11
2.7083167389
 21
5.1210201826
  0
LINE
  5
4DD
100
AcDbEntity
  8
03__ASM_ALL_CURVES
100
AcDbLine
 62
40
  6
CONTINUOUS
 10
2.8339267389
 20
5.1349768493
 11
2.7083167389
 21
5.1210201826
  0
LINE
  5
4DE
100
AcDbEntity
  8
03__ASM_ALL_CURVES
100
AcDbLine
 62
40
  6
CONTINUOUS
 10
6.4532326758
 20
5.2675651826
 11
6.4663170508
 21
5.258842268
  0
LINE
  5
4DF
100
AcDbEntity
  8
03__ASM_ALL_CURVES
100
AcDbLine
 62
40
  6
CONTINUOUS
 10
8.0063128322
 20
4.2347171826
 11
8.0161261134
 21
4.2281749967
  0
LINE
  5
4E0
100
AcDbEntity
  8
03__ASM_ALL_CURVES
100
AcDbLine
 62
40
  6
CONTINUOUS
 10
6.6494983008
 20
5.1628901826
 11
6.6364139258
 21
5.1716130995
  0
LINE
  5
4E1
100
AcDbEntity
  8
03__ASM_ALL_CURVES
100
AcDbLine
 62
40
  6
CONTINUOUS
 10
6.6364139258
 20
5.232673518
 11
6.6756670508
 21
5.2065047649
  0
LINE
  5
4E2
100
AcDbEntity
  8
03__ASM_ALL_CURVES
100
AcDbLine
 62
40
  6
CONTINUOUS
 10
8.3154311915
 20
4.1562109326
 11
8.3056179103
 21
4.1627531203
  0
LINE
  5
4E3
100
AcDbEntity
  8
03__ASM_ALL_CURVES
100
AcDbLine
 62
40
  6
CONTINUOUS
 10
6.6756670508
 20
5.258842268
 11
6.6625826758
 21
5.2675651826
  0
LINE
  5
4E4
100
AcDbEntity
  8
03__ASM_ALL_CURVES
100
AcDbLine
 62
40
  6
CONTINUOUS
 10
6.8588483008
 20
5.1628901826
 11
6.8457639258
 21
5.1716130995
  0
LINE
  5
4E5
100
AcDbEntity
  8
03__ASM_ALL_CURVES
100
AcDbLine
 62
40
  6
CONTINUOUS
 10
7.2850366603
 20
4.1627531203
 11
7.275223379
 21
4.1758374951
  0
LINE
  5
4E6
100
AcDbEntity
  8
03__ASM_ALL_CURVES
100
AcDbLine
 62
40
  6
CONTINUOUS
 10
6.4663170508
 20
5.258842268
 11
6.4728592383
 21
5.2501193472
  0
LINE
  5
4E7
100
AcDbEntity
  8
03__ASM_ALL_CURVES
100
AcDbLine
 62
40
  6
CONTINUOUS
 10
7.3635429103
 20
4.1627531203
 11
7.353729629
 21
4.1758374951
  0
LINE
  5
4E8
100
AcDbEntity
  8
03__ASM_ALL_CURVES
100
AcDbLine
 62
40
  6
CONTINUOUS
 10
7.314476504
 20
4.2281749967
 11
7.3193831447
 21
4.221632806
  0
LINE
  5
4E9
100
AcDbEntity
  8
03__ASM_ALL_CURVES
100
AcDbLine
 62
40
  6
CONTINUOUS
 10
6.6364139258
 20
5.1716130995
 11
6.6233295508
 21
5.1890589326
  0
LINE
  5
4EA
100
AcDbEntity
  8
03__ASM_ALL_CURVES
100
AcDbLine
 62
40
  6
CONTINUOUS
 10
6.6298717383
 20
5.2413964326
 11
6.6364139258
 21
5.232673518
  0
LINE
  5
4EB
100
AcDbEntity
  8
03__ASM_ALL_CURVES
100
AcDbLine
 62
40
  6
CONTINUOUS
 10
7.392982754
 20
4.2281749967
 11
7.4027960353
 21
4.2150906201
  0
LINE
  5
4EC
100
AcDbEntity
  8
03__ASM_ALL_CURVES
100
AcDbLine
 62
40
  6
CONTINUOUS
 10
7.3537296286
 20
4.2831293703
 11
7.3439163473
 21
4.2962137451
  0
LINE
  5
4ED
100
AcDbEntity
  8
03__ASM_ALL_CURVES
100
AcDbLine
 62
40
  6
CONTINUOUS
 10
7.3046632223
 20
4.3485512467
 11
7.3095698629
 21
4.342009056
  0
LINE
  5
4EE
100
AcDbEntity
  8
03__ASM_ALL_CURVES
100
AcDbLine
 62
40
  6
CONTINUOUS
 10
6.6756670508
 20
5.2065047649
 11
6.6822092383
 21
5.1977818503
  0
LINE
  5
4EF
100
AcDbEntity
  8
03__ASM_ALL_CURVES
100
AcDbLine
 62
40
  6
CONTINUOUS
 10
6.6822092383
 20
5.2501193472
 11
6.6756670508
 21
5.258842268
  0
LINE
  5
4F0
100
AcDbEntity
  8
03__ASM_ALL_CURVES
100
AcDbLine
 62
40
  6
CONTINUOUS
 10
7.3831694723
 20
4.3485512467
 11
7.3929827536
 21
4.3354668701
  0
LINE
  5
4F1
100
AcDbEntity
  8
03__ASM_ALL_CURVES
100
AcDbLine
 62
40
  6
CONTINUOUS
 10
6.8326795508
 20
5.1890589326
 11
6.8261373633
 21
5.2152276826
  0
LINE
  5
4F2
100
AcDbEntity
  8
03__ASM_ALL_CURVES
100
AcDbLine
 62
40
  6
CONTINUOUS
 10
6.8981014258
 20
5.2413964326
 11
6.9046436133
 21
5.2152276826
  0
LINE
  5
4F3
100
AcDbEntity
  8
03__ASM_ALL_CURVES
100
AcDbLine
 62
40
  6
CONTINUOUS
 10
7.1532467383
 20
5.1628901826
 11
7.1532467383
 21
5.2675651826
  0
LINE
  5
4F4
100
AcDbEntity
  8
03__ASM_ALL_CURVES
100
AcDbLine
 62
40
  6
CONTINUOUS
 10
7.2579217383
 20
5.1628901826
 11
7.2579217383
 21
5.2675651826
  0
LINE
  5
4F5
100
AcDbEntity
  8
03__ASM_ALL_CURVES
100
AcDbLine
 62
40
  6
CONTINUOUS
 10
7.2703167379
 20
4.2765871826
 11
7.2703167379
 21
4.3550934326
  0
LINE
  5
4F6
100
AcDbEntity
  8
03__ASM_ALL_CURVES
100
AcDbLine
 62
40
  6
CONTINUOUS
 10
7.3095698629
 20
4.342009056
 11
7.3095698629
 21
4.3289246842
  0
LINE
  5
4F7
100
AcDbEntity
  8
03__ASM_ALL_CURVES
100
AcDbLine
 62
40
  6
CONTINUOUS
 10
7.2703167384
 20
4.1954640576
 11
7.275223379
 21
4.2150906201
  0
LINE
  5
4F8
100
AcDbEntity
  8
03__ASM_ALL_CURVES
100
AcDbLine
 62
40
  6
CONTINUOUS
 10
7.3390097067
 20
4.3158403076
 11
7.3439163473
 21
4.3354668701
  0
LINE
  5
4F9
100
AcDbEntity
  8
03__ASM_ALL_CURVES
100
AcDbLine
 62
40
  6
CONTINUOUS
 10
7.3488229884
 20
4.1954640576
 11
7.353729629
 21
4.2150906201
  0
LINE
  5
4FA
100
AcDbEntity
  8
03__ASM_ALL_CURVES
100
AcDbLine
 62
40
  6
CONTINUOUS
 10
7.3978893942
 20
4.3158403076
 11
7.3929827536
 21
4.2962137451
  0
LINE
  5
4FB
100
AcDbEntity
  8
03__ASM_ALL_CURVES
100
AcDbLine
 62
40
  6
CONTINUOUS
 10
7.4027960353
 20
4.1758374951
 11
7.392982754
 21
4.1627531203
  0
LINE
  5
4FC
100
AcDbEntity
  8
03__ASM_ALL_CURVES
100
AcDbLine
 62
40
  6
CONTINUOUS
 10
7.6334081447
 20
4.2085484342
 11
7.628501504
 21
4.2020062435
  0
LINE
  5
4FD
100
AcDbEntity
  8
03__ASM_ALL_CURVES
100
AcDbLine
 62
40
  6
CONTINUOUS
 10
7.667754629
 20
4.2150906201
 11
7.6775679103
 21
4.2281749967
  0
LINE
  5
4FE
100
AcDbEntity
  8
03__ASM_ALL_CURVES
100
AcDbLine
 62
40
  6
CONTINUOUS
 10
8.0161261134
 20
4.1627531203
 11
8.0063128322
 21
4.1562109326
  0
LINE
  5
4FF
100
AcDbEntity
  8
03__ASM_ALL_CURVES
100
AcDbLine
 62
40
  6
CONTINUOUS
 10
8.3056179103
 20
4.2281749967
 11
8.3154311915
 21
4.2347171826
  0
LINE
  5
500
100
AcDbEntity
  8
03__ASM_ALL_CURVES
100
AcDbLine
 62
40
  6
CONTINUOUS
 10
8.335057754
 20
4.1627531203
 11
8.3252444728
 21
4.1562109326
  0
LINE
  5
501
100
AcDbEntity
  8
03__ASM_ALL_CURVES
100
AcDbLine
 62
40
  6
CONTINUOUS
 10
2.7083167389
 20
5.1210201826
 11
2.8339267389
 21
5.1419551826
  0
LINE
  5
502
100
AcDbEntity
  8
03__ASM_ALL_CURVES
100
AcDbLine
 62
40
  6
CONTINUOUS
 10
8.3252444728
 20
4.2347171826
 11
8.335057754
 21
4.2281749967
  0
LINE
  5
503
100
AcDbEntity
  8
03__ASM_ALL_CURVES
100
AcDbLine
 62
40
  6
CONTINUOUS
 10
6.9635233008
 20
5.1628901826
 11
6.9504389258
 21
5.1716130995
  0
LINE
  5
504
100
AcDbEntity
  8
03__ASM_ALL_CURVES
100
AcDbLine
 62
40
  6
CONTINUOUS
 10
6.8719326758
 20
5.2675651826
 11
6.8850170508
 21
5.258842268
  0
LINE
  5
505
100
AcDbEntity
  8
03__ASM_ALL_CURVES
100
AcDbLine
 62
40
  6
CONTINUOUS
 10
7.4616757223
 20
4.3485512467
 11
7.4665823629
 21
4.342009056
  0
LINE
  5
506
100
AcDbEntity
  8
03__ASM_ALL_CURVES
100
AcDbLine
 62
40
  6
CONTINUOUS
 10
6.8457639258
 20
5.1716130995
 11
6.8326795508
 21
5.1890589326
  0
LINE
  5
507
100
AcDbEntity
  8
03__ASM_ALL_CURVES
100
AcDbLine
 62
40
  6
CONTINUOUS
 10
7.6775679103
 20
4.1627531203
 11
7.667754629
 21
4.1758374951
  0
LINE
  5
508
100
AcDbEntity
  8
03__ASM_ALL_CURVES
100
AcDbLine
 62
40
  6
CONTINUOUS
 10
7.628501504
 20
4.2281749967
 11
7.6334081447
 21
4.221632806
  0
LINE
  5
509
100
AcDbEntity
  8
03__ASM_ALL_CURVES
100
AcDbLine
 62
40
  6
CONTINUOUS
 10
6.8850170508
 20
5.258842268
 11
6.8981014258
 21
5.2413964326
  0
LINE
  5
50A
100
AcDbEntity
  8
03__ASM_ALL_CURVES
100
AcDbLine
 62
40
  6
CONTINUOUS
 10
6.9504389258
 20
5.1716130995
 11
6.9438967383
 21
5.1803360164
  0
LINE
  5
50B
100
AcDbEntity
  8
03__ASM_ALL_CURVES
100
AcDbLine
 62
40
  6
CONTINUOUS
 10
7.707007754
 20
4.2281749967
 11
7.7168210353
 21
4.2150906201
  0
LINE
  5
50C
100
AcDbEntity
  8
03__ASM_ALL_CURVES
100
AcDbLine
 62
40
  6
CONTINUOUS
 10
7.4371425197
 20
4.2347171826
 11
7.4763956447
 21
4.1562109326
  0
LINE
  5
50D
100
AcDbEntity
  8
03__ASM_ALL_CURVES
100
AcDbLine
 62
40
  6
CONTINUOUS
 10
7.275223379
 20
4.1758374951
 11
7.2703167384
 21
4.1954640576
  0
LINE
  5
50E
100
AcDbEntity
  8
03__ASM_ALL_CURVES
100
AcDbLine
 62
40
  6
CONTINUOUS
 10
7.353729629
 20
4.1758374951
 11
7.3488229884
 21
4.1954640576
  0
LINE
  5
50F
100
AcDbEntity
  8
03__ASM_ALL_CURVES
100
AcDbLine
 62
40
  6
CONTINUOUS
 10
7.3439163473
 20
4.2962137451
 11
7.3390097067
 21
4.3158403076
  0
LINE
  5
510
100
AcDbEntity
  8
03__ASM_ALL_CURVES
100
AcDbLine
 62
40
  6
CONTINUOUS
 10
7.4027960353
 20
4.2150906201
 11
7.4077026759
 21
4.1954640576
  0
LINE
  5
511
100
AcDbEntity
  8
03__ASM_ALL_CURVES
100
AcDbLine
 62
40
  6
CONTINUOUS
 10
7.3625967383
 20
5.1628901826
 11
7.3625967383
 21
5.2675651826
  0
LINE
  5
512
100
AcDbEntity
  8
03__ASM_ALL_CURVES
100
AcDbLine
 62
40
  6
CONTINUOUS
 10
7.4149342383
 20
5.2501193472
 11
7.4149342383
 21
5.232673518
  0
LINE
  5
513
100
AcDbEntity
  8
03__ASM_ALL_CURVES
100
AcDbLine
 62
40
  6
CONTINUOUS
 10
7.4273292379
 20
4.2765871826
 11
7.4273292379
 21
4.3550934326
  0
LINE
  5
514
100
AcDbEntity
  8
03__ASM_ALL_CURVES
100
AcDbLine
 62
40
  6
CONTINUOUS
 10
7.4371425197
 20
4.1562109326
 11
7.4371425197
 21
4.2347171826
  0
LINE
  5
515
100
AcDbEntity
  8
03__ASM_ALL_CURVES
100
AcDbLine
 62
40
  6
CONTINUOUS
 10
7.4665823629
 20
4.342009056
 11
7.4665823629
 21
4.3289246842
  0
LINE
  5
516
100
AcDbEntity
  8
03__ASM_ALL_CURVES
100
AcDbLine
 62
40
  6
CONTINUOUS
 10
7.4763956447
 20
4.1562109326
 11
7.4763956447
 21
4.2347171826
  0
LINE
  5
517
100
AcDbEntity
  8
03__ASM_ALL_CURVES
100
AcDbLine
 62
40
  6
CONTINUOUS
 10
7.5254620504
 20
4.3550934326
 11
7.5254620504
 21
4.2765871826
  0
LINE
  5
518
100
AcDbEntity
  8
03__ASM_ALL_CURVES
100
AcDbLine
 62
40
  6
CONTINUOUS
 10
7.5352753322
 20
4.2347171826
 11
7.5352753322
 21
4.1562109326
  0
LINE
  5
519
100
AcDbEntity
  8
03__ASM_ALL_CURVES
100
AcDbLine
 62
40
  6
CONTINUOUS
 10
7.4077026759
 20
4.1954640576
 11
7.4027960353
 21
4.1758374951
  0
LINE
  5
51A
100
AcDbEntity
  8
03__ASM_ALL_CURVES
100
AcDbLine
 62
40
  6
CONTINUOUS
 10
7.7168210353
 20
4.1758374951
 11
7.707007754
 21
4.1627531203
  0
LINE
  5
51B
100
AcDbEntity
  8
03__ASM_ALL_CURVES
100
AcDbLine
 62
40
  6
CONTINUOUS
 10
7.1794154883
 20
5.2675651826
 11
7.1924998633
 21
5.258842268
  0
LINE
  5
51C
100
AcDbEntity
  8
03__ASM_ALL_CURVES
100
AcDbLine
 62
40
  6
CONTINUOUS
 10
7.3953076758
 20
5.2675651826
 11
7.4083920508
 21
5.258842268
  0
LINE
  5
51D
100
AcDbEntity
  8
03__ASM_ALL_CURVES
100
AcDbLine
 62
40
  6
CONTINUOUS
 10
7.1924998633
 20
5.258842268
 11
7.2055842383
 21
5.2413964326
  0
LINE
  5
51E
100
AcDbEntity
  8
03__ASM_ALL_CURVES
100
AcDbLine
 62
40
  6
CONTINUOUS
 10
8.0161261134
 20
4.2281749967
 11
8.0259393947
 21
4.2150906201
  0
LINE
  5
51F
100
AcDbEntity
  8
03__ASM_ALL_CURVES
100
AcDbLine
 62
40
  6
CONTINUOUS
 10
7.4518624411
 20
4.3158403076
 11
7.4665823629
 21
4.2765871826
  0
LINE
  5
520
100
AcDbEntity
  8
03__ASM_ALL_CURVES
100
AcDbLine
 62
40
  6
CONTINUOUS
 10
7.6186882228
 20
4.1954640576
 11
7.6334081447
 21
4.1562109326
  0
LINE
  5
521
100
AcDbEntity
  8
03__ASM_ALL_CURVES
100
AcDbLine
 62
40
  6
CONTINUOUS
 10
7.3929827536
 20
4.3354668701
 11
7.3978893942
 21
4.3158403076
  0
LINE
  5
522
100
AcDbEntity
  8
03__ASM_ALL_CURVES
100
AcDbLine
 62
40
  6
CONTINUOUS
 10
7.2055842383
 20
5.2413964326
 11
7.2121264258
 21
5.2152276826
  0
LINE
  5
523
100
AcDbEntity
  8
03__ASM_ALL_CURVES
100
AcDbLine
 62
40
  6
CONTINUOUS
 10
7.5941550197
 20
4.1562109326
 11
7.5941550197
 21
4.2347171826
  0
LINE
  5
524
100
AcDbEntity
  8
03__ASM_ALL_CURVES
100
AcDbLine
 62
40
  6
CONTINUOUS
 10
7.6039683004
 20
4.3550934326
 11
7.6039683004
 21
4.2765871826
  0
LINE
  5
525
100
AcDbEntity
  8
03__ASM_ALL_CURVES
100
AcDbLine
 62
40
  6
CONTINUOUS
 10
7.6334081447
 20
4.221632806
 11
7.6334081447
 21
4.2085484342
  0
LINE
  5
526
100
AcDbEntity
  8
03__ASM_ALL_CURVES
100
AcDbLine
 62
40
  6
CONTINUOUS
 10
7.7511675197
 20
4.2347171826
 11
7.7511675197
 21
4.1562109326
  0
LINE
  5
527
100
AcDbEntity
  8
03__ASM_ALL_CURVES
100
AcDbLine
 62
40
  6
CONTINUOUS
 10
7.6628479884
 20
4.1954640576
 11
7.667754629
 21
4.2150906201
  0
LINE
  5
528
100
AcDbEntity
  8
03__ASM_ALL_CURVES
100
AcDbLine
 62
40
  6
CONTINUOUS
 10
7.7217276759
 20
4.1954640576
 11
7.7168210353
 21
4.1758374951
  0
LINE
  5
529
100
AcDbEntity
  8
03__ASM_ALL_CURVES
100
AcDbLine
 62
40
  6
CONTINUOUS
 10
8.0259393947
 20
4.1758374951
 11
8.0161261134
 21
4.1627531203
  0
LINE
  5
52A
100
AcDbEntity
  8
03__ASM_ALL_CURVES
100
AcDbLine
 62
40
  6
CONTINUOUS
 10
7.4083920508
 20
5.258842268
 11
7.4149342383
 21
5.2501193472
  0
LINE
  5
52B
100
AcDbEntity
  8
03__ASM_ALL_CURVES
100
AcDbLine
 62
40
  6
CONTINUOUS
 10
8.3056179103
 20
4.1627531203
 11
8.295804629
 21
4.1758374951
  0
LINE
  5
52C
100
AcDbEntity
  8
03__ASM_ALL_CURVES
100
AcDbLine
 62
40
  6
CONTINUOUS
 10
7.3953076758
 20
5.2152276826
 11
7.4149342383
 21
5.1628901826
  0
LINE
  5
52D
100
AcDbEntity
  8
03__ASM_ALL_CURVES
100
AcDbLine
 62
40
  6
CONTINUOUS
 10
7.667754629
 20
4.1758374951
 11
7.6628479884
 21
4.1954640576
  0
LINE
  5
52E
100
AcDbEntity
  8
03__ASM_ALL_CURVES
100
AcDbLine
 62
40
  6
CONTINUOUS
 10
7.7168210353
 20
4.2150906201
 11
7.7217276759
 21
4.1954640576
  0
LINE
  5
52F
100
AcDbEntity
  8
03__ASM_ALL_CURVES
100
AcDbLine
 62
40
  6
CONTINUOUS
 10
7.8296737697
 20
4.2347171826
 11
7.8296737697
 21
4.1562109326
  0
LINE
  5
530
100
AcDbEntity
  8
03__ASM_ALL_CURVES
100
AcDbLine
 62
40
  6
CONTINUOUS
 10
7.9081800197
 20
4.1562109326
 11
7.9081800197
 21
4.2347171826
  0
LINE
  5
531
100
AcDbEntity
  8
03__ASM_ALL_CURVES
100
AcDbLine
 62
40
  6
CONTINUOUS
 10
7.9866862697
 20
4.1562109326
 11
7.9866862697
 21
4.2347171826
  0
LINE
  5
532
100
AcDbEntity
  8
03__ASM_ALL_CURVES
100
AcDbLine
 62
40
  6
CONTINUOUS
 10
8.0308460353
 20
4.1954640576
 11
8.0259393947
 21
4.1758374951
  0
LINE
  5
533
100
AcDbEntity
  8
03__ASM_ALL_CURVES
100
AcDbLine
 62
40
  6
CONTINUOUS
 10
8.295804629
 20
4.2150906201
 11
8.3056179103
 21
4.2281749967
  0
LINE
  5
534
100
AcDbEntity
  8
03__ASM_ALL_CURVES
100
AcDbLine
 62
40
  6
CONTINUOUS
 10
8.3448710353
 20
4.1758374951
 11
8.335057754
 21
4.1627531203
  0
LINE
  5
535
100
AcDbEntity
  8
03__ASM_ALL_CURVES
100
AcDbLine
 62
40
  6
CONTINUOUS
 10
8.335057754
 20
4.2281749967
 11
8.3448710353
 21
4.2150906201
  0
LINE
  5
536
100
AcDbEntity
  8
03__ASM_ALL_CURVES
100
AcDbLine
 62
40
  6
CONTINUOUS
 10
8.0259393947
 20
4.2150906201
 11
8.0308460353
 21
4.1954640576
  0
LINE
  5
537
100
AcDbEntity
  8
03__ASM_ALL_CURVES
100
AcDbLine
 62
40
  6
CONTINUOUS
 10
8.1436987697
 20
4.1562109326
 11
8.1436987697
 21
4.2347171826
  0
LINE
  5
538
100
AcDbEntity
  8
03__ASM_ALL_CURVES
100
AcDbLine
 62
40
  6
CONTINUOUS
 10
8.295804629
 20
4.1758374951
 11
8.2908979884
 21
4.1954640576
  0
LINE
  5
539
100
AcDbEntity
  8
03__ASM_ALL_CURVES
100
AcDbLine
 62
40
  6
CONTINUOUS
 10
8.2222050197
 20
4.2347171826
 11
8.2222050197
 21
4.1562109326
  0
LINE
  5
53A
100
AcDbEntity
  8
03__ASM_ALL_CURVES
100
AcDbLine
 62
40
  6
CONTINUOUS
 10
8.3841241603
 20
4.1562109326
 11
8.3988440822
 21
4.2347171826
  0
LINE
  5
53B
100
AcDbEntity
  8
03__ASM_ALL_CURVES
100
AcDbLine
 62
40
  6
CONTINUOUS
 10
8.413564004
 20
4.1562109326
 11
8.4282839259
 21
4.2347171826
  0
LINE
  5
53C
100
AcDbEntity
  8
03__ASM_ALL_CURVES
100
AcDbLine
 62
40
  6
CONTINUOUS
 10
8.2908979884
 20
4.1954640576
 11
8.295804629
 21
4.2150906201
  0
LINE
  5
53D
100
AcDbEntity
  8
03__ASM_ALL_CURVES
100
AcDbLine
 62
40
  6
CONTINUOUS
 10
8.3497776759
 20
4.1954640576
 11
8.3448710353
 21
4.1758374951
  0
LINE
  5
53E
100
AcDbEntity
  8
03__ASM_ALL_CURVES
100
AcDbLine
 62
40
  6
CONTINUOUS
 10
8.6147362697
 20
4.2347171826
 11
8.6539893947
 21
4.1562109326
  0
LINE
  5
53F
100
AcDbEntity
  8
03__ASM_ALL_CURVES
100
AcDbLine
 62
40
  6
CONTINUOUS
 10
8.3448710353
 20
4.2150906201
 11
8.3497776759
 21
4.1954640576
  0
LINE
  5
540
100
AcDbEntity
  8
03__ASM_ALL_CURVES
100
AcDbLine
 62
40
  6
CONTINUOUS
 10
8.3694042384
 20
4.2347171826
 11
8.3841241603
 21
4.1562109326
  0
LINE
  5
541
100
AcDbEntity
  8
03__ASM_ALL_CURVES
100
AcDbLine
 62
40
  6
CONTINUOUS
 10
8.3988440822
 20
4.2347171826
 11
8.413564004
 21
4.1562109326
  0
LINE
  5
542
100
AcDbEntity
  8
03__ASM_ALL_CURVES
100
AcDbLine
 62
40
  6
CONTINUOUS
 10
8.5558565822
 20
4.2347171826
 11
8.5558565822
 21
4.1562109326
  0
LINE
  5
543
100
AcDbEntity
  8
03__ASM_ALL_CURVES
100
AcDbLine
 62
40
  6
CONTINUOUS
 10
8.6147362697
 20
4.1562109326
 11
8.6147362697
 21
4.2347171826
  0
LINE
  5
544
100
AcDbEntity
  8
03__ASM_ALL_CURVES
100
AcDbLine
 62
40
  6
CONTINUOUS
 10
8.6539893947
 20
4.1562109326
 11
8.6539893947
 21
4.2347171826
  0
LINE
  5
545
100
AcDbEntity
  8
03__ASM_ALL_CURVES
100
AcDbLine
 62
40
  6
CONTINUOUS
 10
8.6932425197
 20
4.2347171826
 11
8.6932425197
 21
4.1562109326
  0
LINE
  5
546
100
AcDbEntity
  8
03__ASM_ALL_CURVES
100
AcDbLine
 62
40
  6
CONTINUOUS
 10
8.7717487697
 20
4.1562109326
 11
8.7717487697
 21
4.2347171826
  0
LINE
  5
547
100
AcDbEntity
  8
03__ASM_ALL_CURVES
100
AcDbLine
 62
40
  6
CONTINUOUS
 10
8.8698815822
 20
4.2347171826
 11
8.8698815822
 21
4.1562109326
  0
CIRCLE
  5
548
100
AcDbEntity
  8
127-410_FEATURES
100
AcDbCircle
 62
7
  6
CONTINUOUS
 10
5.3093167389
 20
4.2556521826
 40
0.1015
  0
ARC
  5
549
100
AcDbEntity
  8
0
100
AcDbCircle
 62
7
  6
CONTINUOUS
 10
3.2703167389
 20
4.4326521826
 40
0.094
100
AcDbArc
 50
90.0
 51
131.267427381
  0
ARC
  5
54A
100
AcDbEntity
  8
0
100
AcDbCircle
 62
7
  6
CONTINUOUS
 10
3.2703167389
 20
4.0786521826
 40
0.094
100
AcDbArc
 50
228.732572619
 51
270.0
  0
CIRCLE
  5
54B
100
AcDbEntity
  8
0
100
AcDbCircle
 62
7
  6
CONTINUOUS
 10
6.3483167389
 20
4.2556521826
 40
0.078
  0
ARC
  5
54C
100
AcDbEntity
  8
0
100
AcDbCircle
 62
7
  6
CONTINUOUS
 10
2.9573167389
 20
4.0941521826
 40
0.0175
100
AcDbArc
 50
180.0
 51
360.0
  0
ARC
  5
54D
100
AcDbEntity
  8
THREAD
100
AcDbCircle
 62
7
  6
CONTINUOUS
 10
5.7008111854
 20
3.7846521826
 40
0.013
100
AcDbArc
 50
29.9999999933
 51
90.0
  0
ARC
  5
54E
100
AcDbEntity
  8
THREAD
100
AcDbCircle
 62
7
  6
CONTINUOUS
 10
5.7008111854
 20
4.7266521826
 40
0.013
100
AcDbArc
 50
270.0
 51
330.0000000082
  0
ARC
  5
54F
100
AcDbEntity
  8
0
100
AcDbCircle
 62
7
  6
CONTINUOUS
 10
5.5253167389
 20
3.7252654312
 40
0.005
100
AcDbArc
 50
120.0000000209
 51
179.9999999996
  0
ARC
  5
550
100
AcDbEntity
  8
0
100
AcDbCircle
 62
7
  6
CONTINUOUS
 10
5.5253167389
 20
4.7860389339
 40
0.005
100
AcDbArc
 50
180.0000000003
 51
239.9999999837
  0
ARC
  5
551
100
AcDbEntity
  8
0
100
AcDbCircle
 62
7
  6
CONTINUOUS
 10
5.5173167389
 20
3.7206521826
 40
0.003
100
AcDbArc
 50
270.0
 51
360.0
  0
ARC
  5
552
100
AcDbEntity
  8
0
100
AcDbCircle
 62
7
  6
CONTINUOUS
 10
5.5173167389
 20
4.7906521826
 40
0.003
100
AcDbArc
 50
0.0
 51
90.0
  0
SPLINE
  5
553
100
AcDbEntity
  8
0
100
AcDbSpline
 62
7
  6
CONTINUOUS
 70
0
 71
3
 72
20
 73
16
 74
14
 42
0.0000001
 43
0.0000001
 44
0.0000000001
 12
0.0
 22
0.0416605862
 32
0.0
 13
0.0
 23
-0.0416605862
 33
0.0
 40
0.0
 40
0.0
 40
0.0
 40
0.0
 40
0.0489307848
 40
0.1062135912
 40
0.175871992
 40
0.2580136346
 40
0.3503828832
 40
0.4493672053
 40
0.5506327947
 40
0.6496171168
 40
0.7419863654
 40
0.824128008
 40
0.8937864088
 40
0.9510692152
 40
1.0
 40
1.0
 40
1.0
 40
1.0
 10
2.9748167389
 20
4.3317757514
 30
0.0
 10
2.9748167389
 20
4.3324552465
 30
0.0
 10
2.9743952049
 20
4.3339412575
 30
0.0
 10
2.9727599371
 20
4.3358196848
 30
0.0
 10
2.9703080166
 20
4.3374186851
 30
0.0
 10
2.9671487842
 20
4.3386934362
 30
0.0
 10
2.9634456906
 20
4.339585424
 30
0.0
 10
2.9593987816
 20
4.3400446617
 30
0.0
 10
2.9552346961
 20
4.3400446617
 30
0.0
 10
2.9511877871
 20
4.339585424
 30
0.0
 10
2.9474846935
 20
4.3386934362
 30
0.0
 10
2.9443254611
 20
4.3374186851
 30
0.0
 10
2.9418735406
 20
4.3358196848
 30
0.0
 10
2.9402382728
 20
4.3339412575
 30
0.0
 10
2.9398167389
 20
4.3324552465
 30
0.0
 10
2.9398167389
 20
4.3317757514
 30
0.0
 11
2.9748167389
 21
4.3317757514
 31
0.0
 11
2.9743082207
 21
4.3337497907
 31
0.0
 11
2.9728122193
 21
4.335609106
 31
0.0
 11
2.970415677
 21
4.3372456406
 31
0.0
 11
2.9672578719
 21
4.3385642852
 31
0.0
 11
2.9635223244
 21
4.3394884049
 31
0.0
 11
2.9594261308
 21
4.3399642932
 31
0.0
 11
2.955207347
 21
4.3399642932
 31
0.0
 11
2.9511111533
 21
4.3394884049
 31
0.0
 11
2.9473756058
 21
4.3385642852
 31
0.0
 11
2.9442178008
 21
4.3372456406
 31
0.0
 11
2.9418212584
 21
4.335609106
 31
0.0
 11
2.9403252571
 21
4.3337497907
 31
0.0
 11
2.9398167389
 21
4.3317757514
 31
0.0
  0
SPLINE
  5
554
100
AcDbEntity
  8
0
100
AcDbSpline
 62
7
  6
CONTINUOUS
 70
0
 71
3
 72
15
 73
11
 74
9
 42
0.0000001
 43
0.0000001
 44
0.0000000001
 12
0.0
 22
0.1099409465
 32
0.0
 13
0.0
 23
-0.1099409465
 33
0.0
 40
0.0
 40
0.0
 40
0.0
 40
0.0
 40
0.125
 40
0.25
 40
0.375
 40
0.5
 40
0.625
 40
0.75
 40
0.875
 40
1.0
 40
1.0
 40
1.0
 40
1.0
 10
6.7603167389
 20
4.6726521826
 30
0.0
 10
6.7603167389
 20
4.6772330554
 30
0.0
 10
6.7584943544
 20
4.6863948009
 30
0.0
 10
6.7507097864
 20
4.6980452302
 30
0.0
 10
6.7390593572
 20
4.7058297981
 30
0.0
 10
6.7253167389
 20
4.7085633748
 30
0.0
 10
6.7115741205
 20
4.7058297981
 30
0.0
 10
6.6999236913
 20
4.6980452302
 30
0.0
 10
6.6921391234
 20
4.6863948009
 30
0.0
 10
6.6903167389
 20
4.6772330554
 30
0.0
 10
6.6903167389
 20
4.6726521826
 30
0.0
 11
6.7603167389
 21
4.6726521826
 31
0.0
 11
6.7576525225
 21
4.6860461027
 31
0.0
 11
6.7500654762
 21
4.6974009199
 31
0.0
 11
6.738710659
 21
4.7049879662
 31
0.0
 11
6.7253167389
 21
4.7076521826
 31
0.0
 11
6.7119228187
 21
4.7049879662
 31
0.0
 11
6.7005680015
 21
4.6974009199
 31
0.0
 11
6.6929809552
 21
4.6860461027
 31
0.0
 11
6.6903167389
 21
4.6726521826
 31
0.0
  0
SPLINE
  5
555
100
AcDbEntity
  8
0
100
AcDbSpline
 62
7
  6
CONTINUOUS
 70
0
 71
3
 72
15
 73
11
 74
9
 42
0.0000001
 43
0.0000001
 44
0.0000000001
 12
0.0
 22
-0.1099409465
 32
0.0
 13
0.0
 23
0.1099409465
 33
0.0
 40
0.0
 40
0.0
 40
0.0
 40
0.0
 40
0.125
 40
0.25
 40
0.375
 40
0.5
 40
0.625
 40
0.75
 40
0.875
 40
1.0
 40
1.0
 40
1.0
 40
1.0
 10
6.7603167389
 20
3.8386521826
 30
0.0
 10
6.7603167389
 20
3.8340713098
 30
0.0
 10
6.7584943544
 20
3.8249095643
 30
0.0
 10
6.7507097864
 20
3.813259135
 30
0.0
 10
6.7390593572
 20
3.8054745671
 30
0.0
 10
6.7253167389
 20
3.8027409903
 30
0.0
 10
6.7115741205
 20
3.8054745671
 30
0.0
 10
6.6999236913
 20
3.813259135
 30
0.0
 10
6.6921391234
 20
3.8249095643
 30
0.0
 10
6.6903167389
 20
3.8340713098
 30
0.0
 10
6.6903167389
 20
3.8386521826
 30
0.0
 11
6.7603167389
 21
3.8386521826
 31
0.0
 11
6.7576525225
 21
3.8252582625
 31
0.0
 11
6.7500654762
 21
3.8139034453
 31
0.0
 11
6.738710659
 21
3.806316399
 31
0.0
 11
6.7253167389
 21
3.8036521826
 31
0.0
 11
6.7119228187
 21
3.806316399
 31
0.0
 11
6.7005680015
 21
3.8139034453
 31
0.0
 11
6.6929809552
 21
3.8252582625
 31
0.0
 11
6.6903167389
 21
3.8386521826
 31
0.0
  0
SPLINE
  5
556
100
AcDbEntity
  8
0
100
AcDbSpline
 62
7
  6
CONTINUOUS
 70
0
 71
3
 72
14
 73
10
 74
8
 42
0.0000001
 43
0.0000001
 44
0.0000000001
 12
0.0
 22
0.0916172274
 32
0.0
 13
-0.045846371
 23
-0.079336773
 33
0.0
 40
0.0
 40
0.0
 40
0.0
 40
0.0
 40
0.1500003733
 40
0.3000007465
 40
0.4500011198
 40
0.6000014931
 40
0.7500018663
 40
0.9000022396
 40
1.0
 40
1.0
 40
1.0
 40
1.0
 10
5.6373167389
 20
4.7486521826
 30
0.0
 10
5.6373167389
 20
4.7532330554
 30
0.0
 10
5.6354943544
 20
4.7623948009
 30
0.0
 10
5.6277097864
 20
4.7740452302
 30
0.0
 10
5.6160593572
 20
4.7818297981
 30
0.0
 10
5.6023167389
 20
4.7845633748
 30
0.0
 10
5.5885741205
 20
4.7818297981
 30
0.0
 10
5.5782182479
 20
4.7749102252
 30
0.0
 10
5.5735355666
 20
4.7687957933
 30
0.0
 10
5.5720073884
 20
4.7661512934
 30
0.0
 11
5.6373167389
 21
4.7486521826
 31
0.0
 11
5.6346525225
 21
4.7620461027
 31
0.0
 11
5.6270654762
 21
4.7734009199
 31
0.0
 11
5.615710659
 21
4.7809879662
 31
0.0
 11
5.6023167389
 21
4.7836521826
 31
0.0
 11
5.5889228187
 21
4.7809879662
 31
0.0
 11
5.5775680015
 21
4.7734009199
 31
0.0
 11
5.5720073884
 21
4.7661512934
 31
0.0
  0
SPLINE
  5
557
100
AcDbEntity
  8
0
100
AcDbSpline
 62
7
  6
CONTINUOUS
 70
0
 71
3
 72
9
 73
5
 74
3
 42
0.0000001
 43
0.0000001
 44
0.0000000001
 12
-0.0091694111
 22
-0.0158675915
 32
0.0
 13
0.0
 23
-0.0183237191
 33
0.0
 40
0.0
 40
0.0
 40
0.0
 40
0.0
 40
0.2500093315
 40
1.0
 40
1.0
 40
1.0
 40
1.0
 10
5.5720073884
 20
4.7661512934
 30
0.0
 10
5.5712432423
 20
4.7648289448
 30
0.0
 10
5.568531677
 20
4.7593409617
 30
0.0
 10
5.5673167389
 20
4.7532330554
 30
0.0
 10
5.5673167389
 20
4.7486521826
 30
0.0
 11
5.5720073884
 21
4.7661512934
 31
0.0
 11
5.5699809552
 21
4.7620461027
 31
0.0
 11
5.5673167389
 21
4.7486521826
 31
0.0
  0
SPLINE
  5
558
100
AcDbEntity
  8
0
100
AcDbSpline
 62
7
  6
CONTINUOUS
 70
0
 71
3
 72
14
 73
10
 74
8
 42
0.0000001
 43
0.0000001
 44
0.0000000001
 12
0.0
 22
-0.0916172274
 32
0.0
 13
-0.045846371
 23
0.079336773
 33
0.0
 40
0.0
 40
0.0
 40
0.0
 40
0.0
 40
0.1500003733
 40
0.3000007465
 40
0.4500011198
 40
0.6000014931
 40
0.7500018663
 40
0.9000022396
 40
1.0
 40
1.0
 40
1.0
 40
1.0
 10
5.6373167389
 20
3.7626521826
 30
0.0
 10
5.6373167389
 20
3.7580713098
 30
0.0
 10
5.6354943544
 20
3.7489095643
 30
0.0
 10
5.6277097864
 20
3.737259135
 30
0.0
 10
5.6160593572
 20
3.7294745671
 30
0.0
 10
5.6023167389
 20
3.7267409903
 30
0.0
 10
5.5885741205
 20
3.7294745671
 30
0.0
 10
5.5782182479
 20
3.73639414
 30
0.0
 10
5.5735355666
 20
3.7425085719
 30
0.0
 10
5.5720073884
 20
3.7451530718
 30
0.0
 11
5.6373167389
 21
3.7626521826
 31
0.0
 11
5.6346525225
 21
3.7492582625
 31
0.0
 11
5.6270654762
 21
3.7379034453
 31
0.0
 11
5.615710659
 21
3.730316399
 31
0.0
 11
5.6023167389
 21
3.7276521826
 31
0.0
 11
5.5889228187
 21
3.730316399
 31
0.0
 11
5.5775680015
 21
3.7379034453
 31
0.0
 11
5.5720073884
 21
3.7451530718
 31
0.0
  0
SPLINE
  5
559
100
AcDbEntity
  8
0
100
AcDbSpline
 62
7
  6
CONTINUOUS
 70
0
 71
3
 72
9
 73
5
 74
3
 42
0.0000001
 43
0.0000001
 44
0.0000000001
 12
-0.0091694111
 22
0.0158675915
 32
0.0
 13
0.0
 23
0.0183237191
 33
0.0
 40
0.0
 40
0.0
 40
0.0
 40
0.0
 40
0.2500093315
 40
1.0
 40
1.0
 40
1.0
 40
1.0
 10
5.5720073884
 20
3.7451530718
 30
0.0
 10
5.5712432423
 20
3.7464754204
 30
0.0
 10
5.568531677
 20
3.7519634035
 30
0.0
 10
5.5673167389
 20
3.7580713098
 30
0.0
 10
5.5673167389
 20
3.7626521826
 30
0.0
 11
5.5720073884
 21
3.7451530718
 31
0.0
 11
5.5699809552
 21
3.7492582625
 31
0.0
 11
5.5673167389
 21
3.7626521826
 31
0.0
  0
SPLINE
  5
55A
100
AcDbEntity
  8
0
100
AcDbSpline
 62
7
  6
CONTINUOUS
 70
0
 71
3
 72
15
 73
11
 74
9
 42
0.0000001
 43
0.0000001
 44
0.0000000001
 12
0.0
 22
0.1099409465
 32
0.0
 13
-0.0
 23
-0.1099409465
 33
0.0
 40
0.0
 40
0.0
 40
0.0
 40
0.0
 40
0.125
 40
0.25
 40
0.375
 40
0.5
 40
0.625
 40
0.75
 40
0.875
 40
1.0
 40
1.0
 40
1.0
 40
1.0
 10
5.0153167389
 20
4.7731521826
 30
0.0
 10
5.0153167389
 20
4.7777330554
 30
0.0
 10
5.0134943544
 20
4.7868948009
 30
0.0
 10
5.0057097864
 20
4.7985452302
 30
0.0
 10
4.9940593572
 20
4.8063297981
 30
0.0
 10
4.9803167389
 20
4.8090633748
 30
0.0
 10
4.9665741205
 20
4.8063297981
 30
0.0
 10
4.9549236913
 20
4.7985452302
 30
0.0
 10
4.9471391234
 20
4.7868948009
 30
0.0
 10
4.9453167389
 20
4.7777330554
 30
0.0
 10
4.9453167389
 20
4.7731521826
 30
0.0
 11
5.0153167389
 21
4.7731521826
 31
0.0
 11
5.0126525225
 21
4.7865461027
 31
0.0
 11
5.0050654762
 21
4.7979009199
 31
0.0
 11
4.993710659
 21
4.8054879662
 31
0.0
 11
4.9803167389
 21
4.8081521826
 31
0.0
 11
4.9669228187
 21
4.8054879662
 31
0.0
 11
4.9555680015
 21
4.7979009199
 31
0.0
 11
4.9479809552
 21
4.7865461027
 31
0.0
 11
4.9453167389
 21
4.7731521826
 31
0.0
  0
SPLINE
  5
55B
100
AcDbEntity
  8
0
100
AcDbSpline
 62
7
  6
CONTINUOUS
 70
0
 71
3
 72
15
 73
11
 74
9
 42
0.0000001
 43
0.0000001
 44
0.0000000001
 12
0.0
 22
-0.1099409465
 32
0.0
 13
-0.0
 23
0.1099409465
 33
0.0
 40
0.0
 40
0.0
 40
0.0
 40
0.0
 40
0.125
 40
0.25
 40
0.375
 40
0.5
 40
0.625
 40
0.75
 40
0.875
 40
1.0
 40
1.0
 40
1.0
 40
1.0
 10
5.0153167389
 20
3.7381521826
 30
0.0
 10
5.0153167389
 20
3.7335713098
 30
0.0
 10
5.0134943544
 20
3.7244095643
 30
0.0
 10
5.0057097864
 20
3.712759135
 30
0.0
 10
4.9940593572
 20
3.7049745671
 30
0.0
 10
4.9803167389
 20
3.7022409903
 30
0.0
 10
4.9665741205
 20
3.7049745671
 30
0.0
 10
4.9549236913
 20
3.712759135
 30
0.0
 10
4.9471391234
 20
3.7244095643
 30
0.0
 10
4.9453167389
 20
3.7335713098
 30
0.0
 10
4.9453167389
 20
3.7381521826
 30
0.0
 11
5.0153167389
 21
3.7381521826
 31
0.0
 11
5.0126525225
 21
3.7247582625
 31
0.0
 11
5.0050654762
 21
3.7134034453
 31
0.0
 11
4.993710659
 21
3.705816399
 31
0.0
 11
4.9803167389
 21
3.7031521826
 31
0.0
 11
4.9669228187
 21
3.705816399
 31
0.0
 11
4.9555680015
 21
3.7134034453
 31
0.0
 11
4.9479809552
 21
3.7247582625
 31
0.0
 11
4.9453167389
 21
3.7381521826
 31
0.0
  0
SPLINE
  5
55C
100
AcDbEntity
  8
0
100
AcDbSpline
 62
7
  6
CONTINUOUS
 70
0
 71
3
 72
16
 73
12
 74
10
 42
0.0000001
 43
0.0000001
 44
0.0000000001
 12
0.0906480335
 22
0.2719441006
 32
0.0
 13
-0.0906480335
 23
0.2719441006
 33
0.0
 40
0.0
 40
0.0
 40
0.0
 40
0.0
 40
0.1184548733
 40
0.230565332
 40
0.3393089466
 40
0.4465959239
 40
0.5535015371
 40
0.6607803311
 40
0.769505023
 40
0.8815660643
 40
1.0
 40
1.0
 40
1.0
 40
1.0
 10
3.4584453285
 20
3.9746521826
 30
0.0
 10
3.4620245623
 20
3.9853898839
 30
0.0
 10
3.4684556489
 20
4.0064759308
 30
0.0
 10
3.4759750786
 20
4.0380369856
 30
0.0
 10
3.481063306
 20
4.0690058037
 30
0.0
 10
3.4836501682
 20
4.0997888733
 30
0.0
 10
3.4836489799
 20
4.1305426743
 30
0.0
 10
3.4810601393
 20
4.1613229657
 30
0.0
 10
3.4759714046
 20
4.1922842675
 30
0.0
 10
3.4684531478
 20
4.2238367991
 30
0.0
 10
3.4620239296
 20
4.2449163792
 30
0.0
 10
3.4584453285
 20
4.2556521826
 30
0.0
 11
3.4584453285
 21
3.9746521826
 31
0.0
 11
3.4682837981
 21
4.0071512105
 31
0.0
 11
3.4756709686
 21
4.0384276009
 31
0.0
 11
3.480675586
 21
4.0691950534
 31
0.0
 11
3.4832225513
 21
4.0998436746
 31
0.0
 11
3.4832213811
 21
4.1304886231
 31
0.0
 11
3.480672441
 21
4.1611347262
 31
0.0
 11
3.475667002
 21
4.1918965494
 31
0.0
 11
3.4682822305
 21
4.223158951
 31
0.0
 11
3.4584453285
 21
4.2556521826
 31
0.0
  0
SPLINE
  5
55D
100
AcDbEntity
  8
0
100
AcDbSpline
 62
7
  6
CONTINUOUS
 70
0
 71
3
 72
17
 73
13
 74
11
 42
0.0000001
 43
0.0000001
 44
0.0000000001
 12
-0.1487434696
 22
0.2576312467
 32
0.0
 13
0.1487434696
 23
0.2576312467
 33
0.0
 40
0.0
 40
0.0
 40
0.0
 40
0.0
 40
0.1169386465
 40
0.2216811606
 40
0.3184580982
 40
0.4103908543
 40
0.5000417254
 40
0.5896883004
 40
0.6816074548
 40
0.7783545182
 40
0.8830694657
 40
1.0
 40
1.0
 40
1.0
 40
1.0
 10
3.3567875901
 20
3.9746521826
 30
0.0
 10
3.3509896368
 20
3.9846945324
 30
0.0
 10
3.3406498092
 20
4.0041243798
 30
0.0
 10
3.3282761858
 20
4.0332264574
 30
0.0
 10
3.3196227391
 20
4.0610680201
 30
0.0
 10
3.3144656345
 20
4.0882513397
 30
0.0
 10
3.3127487541
 20
4.1151642246
 30
0.0
 10
3.3144686398
 20
4.1420755494
 30
0.0
 10
3.3196273914
 20
4.16925369
 30
0.0
 10
3.3282802432
 20
4.197087996
 30
0.0
 10
3.3406518306
 20
4.2261838357
 30
0.0
 10
3.350990039
 20
4.2456105295
 30
0.0
 10
3.3567875901
 20
4.2556521826
 30
0.0
 11
3.3567875901
 21
3.9746521826
 31
0.0
 11
3.3405613587
 21
4.0054238396
 31
0.0
 11
3.3284766022
 21
4.0341444762
 31
0.0
 11
3.3200239289
 21
4.0616655448
 31
0.0
 11
3.3149910436
 21
4.08854726
 31
0.0
 11
3.3133167392
 21
4.1151646161
 31
0.0
 11
3.3149939815
 21
4.1417805066
 31
0.0
 11
3.3200286282
 21
4.1686577753
 31
0.0
 11
3.3284802432
 21
4.1961698719
 31
0.0
 11
3.3405623944
 21
4.2248827076
 31
0.0
 11
3.3567875901
 21
4.2556521826
 31
0.0
  0
SPLINE
  5
55E
100
AcDbEntity
  8
0
100
AcDbSpline
 62
7
  6
CONTINUOUS
 70
0
 71
3
 72
16
 73
12
 74
10
 42
0.0000001
 43
0.0000001
 44
0.0000000001
 12
0.0906480335
 22
0.2719441006
 32
0.0
 13
-0.0906480335
 23
0.2719441006
 33
0.0
 40
0.0
 40
0.0
 40
0.0
 40
0.0
 40
0.1184548733
 40
0.230565332
 40
0.3393089466
 40
0.4465959239
 40
0.5535015371
 40
0.6607803311
 40
0.769505023
 40
0.8815660643
 40
1.0
 40
1.0
 40
1.0
 40
1.0
 10
3.4584453285
 20
4.2556521826
 30
0.0
 10
3.4620245623
 20
4.2663898839
 30
0.0
 10
3.4684556489
 20
4.2874759308
 30
0.0
 10
3.4759750786
 20
4.3190369856
 30
0.0
 10
3.481063306
 20
4.3500058037
 30
0.0
 10
3.4836501682
 20
4.3807888733
 30
0.0
 10
3.4836489799
 20
4.4115426743
 30
0.0
 10
3.4810601393
 20
4.4423229657
 30
0.0
 10
3.4759714046
 20
4.4732842675
 30
0.0
 10
3.4684531478
 20
4.5048367991
 30
0.0
 10
3.4620239296
 20
4.5259163792
 30
0.0
 10
3.4584453285
 20
4.5366521826
 30
0.0
 11
3.4584453285
 21
4.2556521826
 31
0.0
 11
3.4682837981
 21
4.2881512105
 31
0.0
 11
3.4756709686
 21
4.3194276009
 31
0.0
 11
3.480675586
 21
4.3501950534
 31
0.0
 11
3.4832225513
 21
4.3808436746
 31
0.0
 11
3.4832213811
 21
4.4114886231
 31
0.0
 11
3.480672441
 21
4.4421347262
 31
0.0
 11
3.475667002
 21
4.4728965494
 31
0.0
 11
3.4682822305
 21
4.504158951
 31
0.0
 11
3.4584453285
 21
4.5366521826
 31
0.0
  0
SPLINE
  5
55F
100
AcDbEntity
  8
0
100
AcDbSpline
 62
7
  6
CONTINUOUS
 70
0
 71
3
 72
17
 73
13
 74
11
 42
0.0000001
 43
0.0000001
 44
0.0000000001
 12
-0.1487434696
 22
0.2576312467
 32
0.0
 13
0.1487434696
 23
0.2576312467
 33
0.0
 40
0.0
 40
0.0
 40
0.0
 40
0.0
 40
0.1169386465
 40
0.2216811606
 40
0.3184580982
 40
0.4103908543
 40
0.5000417254
 40
0.5896883004
 40
0.6816074548
 40
0.7783545182
 40
0.8830694657
 40
1.0
 40
1.0
 40
1.0
 40
1.0
 10
3.3567875901
 20
4.2556521826
 30
0.0
 10
3.3509896368
 20
4.2656945324
 30
0.0
 10
3.3406498092
 20
4.2851243798
 30
0.0
 10
3.3282761858
 20
4.3142264574
 30
0.0
 10
3.3196227391
 20
4.3420680201
 30
0.0
 10
3.3144656345
 20
4.3692513397
 30
0.0
 10
3.3127487541
 20
4.3961642246
 30
0.0
 10
3.3144686398
 20
4.4230755494
 30
0.0
 10
3.3196273914
 20
4.45025369
 30
0.0
 10
3.3282802432
 20
4.478087996
 30
0.0
 10
3.3406518306
 20
4.5071838357
 30
0.0
 10
3.350990039
 20
4.5266105295
 30
0.0
 10
3.3567875901
 20
4.5366521826
 30
0.0
 11
3.3567875901
 21
4.2556521826
 31
0.0
 11
3.3405613587
 21
4.2864238396
 31
0.0
 11
3.3284766022
 21
4.3151444762
 31
0.0
 11
3.3200239289
 21
4.3426655448
 31
0.0
 11
3.3149910436
 21
4.36954726
 31
0.0
 11
3.3133167392
 21
4.3961646161
 31
0.0
 11
3.3149939815
 21
4.4227805066
 31
0.0
 11
3.3200286282
 21
4.4496577753
 31
0.0
 11
3.3284802432
 21
4.4771698719
 31
0.0
 11
3.3405623944
 21
4.5058827076
 31
0.0
 11
3.3567875901
 21
4.5366521826
 31
0.0
  0
SPLINE
  5
560
100
AcDbEntity
  8
0
100
AcDbSpline
 62
7
  6
CONTINUOUS
 70
0
 71
3
 72
14
 73
10
 74
8
 42
0.0000001
 43
0.0000001
 44
0.0000000001
 12
-0.1085118701
 22
0.0
 32
0.0
 13
-0.0000340041
 23
-0.1090536841
 33
0.0
 40
0.0
 40
0.0
 40
0.0
 40
0.0
 40
0.1715768663
 40
0.341607352
 40
0.5070332819
 40
0.6635337578
 40
0.8075580357
 40
0.93849004
 40
1.0
 40
1.0
 40
1.0
 40
1.0
 10
6.3483167389
 20
4.052163901
 30
0.0
 10
6.3421106966
 20
4.052163901
 30
0.0
 10
6.3297168912
 20
4.0508912909
 30
0.0
 10
6.3121209247
 20
4.045294585
 30
0.0
 10
6.2965244195
 20
4.0364517714
 30
0.0
 10
6.2838832575
 20
4.0250921287
 30
0.0
 10
6.2749380176
 20
4.0121043157
 30
0.0
 10
6.2709176414
 20
4.0004295913
 30
0.0
 10
6.2703210341
 20
3.9934300437
 30
0.0
 10
6.2703203369
 20
3.9911940811
 30
0.0
 11
6.3483167389
 21
4.052163901
 31
0.0
 11
6.3297966949
 21
4.0502553379
 31
0.0
 11
6.3122197429
 21
4.0446459453
 31
0.0
 11
6.2966302031
 21
4.0357468973
 31
0.0
 11
6.284066143
 21
4.024321569
 31
0.0
 11
6.2753292408
 21
4.0113634955
 31
0.0
 11
6.2708763868
 21
3.9978716399
 31
0.0
 11
6.2703203369
 21
3.9911940811
 31
0.0
  0
SPLINE
  5
561
100
AcDbEntity
  8
0
100
AcDbSpline
 62
7
  6
CONTINUOUS
 70
0
 71
3
 72
14
 73
10
 74
8
 42
0.0000001
 43
0.0000001
 44
0.0000000001
 12
0.1085118852
 22
0.0
 32
0.0
 13
0.000033958
 23
0.1090537098
 33
0.0
 40
0.0
 40
0.0
 40
0.0
 40
0.0
 40
0.1715751794
 40
0.3416037877
 40
0.5070273994
 40
0.6635274485
 40
0.807554545
 40
0.9384893611
 40
1.0
 40
1.0
 40
1.0
 40
1.0
 10
6.3483167389
 20
4.4591404642
 30
0.0
 10
6.3545227209
 20
4.4591404642
 30
0.0
 10
6.366916398
 20
4.4604130487
 30
0.0
 10
6.3845121778
 20
4.4660096344
 30
0.0
 10
6.400108587
 20
4.4748522717
 30
0.0
 10
6.4127498481
 20
4.4862118071
 30
0.0
 10
6.4216953117
 20
4.4991997042
 30
0.0
 10
6.4257158225
 20
4.5108746362
 30
0.0
 10
6.4263124443
 20
4.5178743131
 30
0.0
 10
6.4263131406
 20
4.5201103009
 30
0.0
 11
6.3483167389
 21
4.4591404642
 31
0.0
 11
6.3668366052
 21
4.4610489902
 31
0.0
 11
6.3844133834
 21
4.4666582658
 31
0.0
 11
6.4000027609
 21
4.4755570957
 31
0.0
 11
6.4125668891
 21
4.4869822839
 31
0.0
 11
6.4213040728
 21
4.4999405391
 31
0.0
 11
6.4257570813
 21
4.513432667
 31
0.0
 11
6.4263131406
 21
4.5201103009
 31
0.0
  0
SPLINE
  5
562
100
AcDbEntity
  8
0
100
AcDbSpline
 62
7
  6
CONTINUOUS
 70
0
 71
3
 72
14
 73
10
 74
8
 42
0.0000001
 43
0.0000001
 44
0.0000000001
 12
0.0000337781
 22
-0.1090538087
 32
0.0
 13
0.1085119429
 23
0.0
 33
0.0
 40
0.0
 40
0.0
 40
0.0
 40
0.0
 40
0.0615124291
 40
0.1924583293
 40
0.3364950367
 40
0.4929921746
 40
0.658409111
 40
0.8284332507
 40
1.0
 40
1.0
 40
1.0
 40
1.0
 10
6.2703203382
 20
4.5201103652
 30
0.0
 10
6.2703210308
 20
4.5178743103
 30
0.0
 10
6.2709176986
 20
4.5108741569
 30
0.0
 10
6.2749386888
 20
4.4991984805
 30
0.0
 10
6.2838849368
 20
4.48621031
 30
0.0
 10
6.2965265306
 20
4.4748511503
 30
0.0
 10
6.3121226709
 20
4.466009084
 30
0.0
 10
6.329717847
 20
4.4604129386
 30
0.0
 10
6.3421110584
 20
4.4591404642
 30
0.0
 10
6.3483167389
 20
4.4591404642
 30
0.0
 11
6.2703203382
 21
4.5201103652
 31
0.0
 11
6.270876419
 21
4.5134325314
 31
0.0
 11
6.2753300097
 21
4.499939321
 31
0.0
 11
6.2840681752
 21
4.48698046
 31
0.0
 11
6.296632423
 21
4.4755558595
 31
0.0
 11
6.3122213649
 21
4.4666577085
 31
0.0
 11
6.3297977631
 21
4.4610488045
 31
0.0
 11
6.3483167389
 21
4.4591404642
 31
0.0
  0
SPLINE
  5
563
100
AcDbEntity
  8
0
100
AcDbSpline
 62
7
  6
CONTINUOUS
 70
0
 71
3
 72
11
 73
7
 74
5
 42
0.0000001
 43
0.0000001
 44
0.0000000001
 12
-0.043579131
 22
0.0164923701
 32
0.0
 13
-0.04653686
 23
-0.0
 33
0.0
 40
0.0
 40
0.0
 40
0.0
 40
0.0
 40
0.0384656706
 40
0.3421954583
 40
0.6660226548
 40
1.0
 40
1.0
 40
1.0
 40
1.0
 10
6.3940427055
 20
4.4722486049
 30
0.0
 10
6.3934839387
 20
4.4724600682
 30
0.0
 10
6.3884937838
 20
4.4742895194
 30
0.0
 10
6.3784915894
 20
4.4769930852
 30
0.0
 10
6.3637087344
 20
4.4791733192
 30
0.0
 10
6.3534974912
 20
4.4796517661
 30
0.0
 10
6.3483167389
 20
4.4796517661
 30
0.0
 11
6.3940427055
 21
4.4722486049
 31
0.0
 11
6.3923601862
 21
4.4728657953
 31
0.0
 11
6.3787410116
 21
4.4766481047
 31
0.0
 11
6.3638410351
 21
4.4789047866
 31
0.0
 11
6.3483167389
 21
4.4796517661
 31
0.0
  0
SPLINE
  5
564
100
AcDbEntity
  8
0
100
AcDbSpline
 62
7
  6
CONTINUOUS
 70
0
 71
3
 72
9
 73
5
 74
3
 42
0.0000001
 43
0.0000001
 44
0.0000000001
 12
0.0104685629
 22
-0.0039617681
 32
0.0
 13
0.0108461922
 23
-0.0027423714
 33
0.0
 40
0.0
 40
0.0
 40
0.0
 40
0.0
 40
0.1603679725
 40
1.0
 40
1.0
 40
1.0
 40
1.0
 10
6.3025909178
 20
4.0390557046
 30
0.0
 10
6.3031505252
 20
4.0388439244
 30
0.0
 10
6.3066536119
 20
4.0375597205
 30
0.0
 10
6.3102300487
 20
4.0364925252
 30
0.0
 10
6.3132656522
 20
4.0357249976
 30
0.0
 11
6.3025909178
 21
4.0390557046
 31
0.0
 11
6.3042759774
 21
4.038437615
 31
0.0
 11
6.3132656522
 21
4.0357249976
 31
0.0
  0
SPLINE
  5
565
100
AcDbEntity
  8
0
100
AcDbSpline
 62
7
  6
CONTINUOUS
 70
0
 71
3
 72
10
 73
6
 74
4
 42
0.0000001
 43
0.0000001
 44
0.0000000001
 12
0.0236173289
 22
-0.0059714493
 32
0.0
 13
0.0242982162
 23
-0.0016608952
 33
0.0
 40
0.0
 40
0.0
 40
0.0
 40
0.0
 40
0.1950324303
 40
0.8140797733
 40
1.0
 40
1.0
 40
1.0
 40
1.0
 10
6.3132656522
 20
4.0357249976
 30
0.0
 10
6.3148010339
 20
4.0353367888
 30
0.0
 10
6.3212447619
 20
4.0338536185
 30
0.0
 10
6.3292866088
 20
4.0326676615
 30
0.0
 10
6.3358001849
 20
4.0321280855
 30
0.0
 10
6.3373060282
 20
4.0320251541
 30
0.0
 11
6.3132656522
 21
4.0357249976
 31
0.0
 11
6.317894445
 21
4.0346558446
 31
0.0
 11
6.3327934961
 21
4.0323994756
 31
0.0
 11
6.3373060282
 21
4.0320251541
 31
0.0
  0
SPLINE
  5
566
100
AcDbEntity
  8
0
100
AcDbSpline
 62
7
  6
CONTINUOUS
 70
0
 71
3
 72
8
 73
4
 74
2
 42
0.0000001
 43
0.0000001
 44
0.0000000001
 12
0.0109956249
 22
-0.0007516017
 32
0.0
 13
0.011015503
 23
0.0
 33
0.0
 40
0.0
 40
0.0
 40
0.0
 40
0.0
 40
1.0
 40
1.0
 40
1.0
 40
1.0
 10
6.3373060282
 20
4.0320251541
 30
0.0
 10
6.3409712365
 20
4.0317746202
 30
0.0
 10
6.3446449045
 20
4.0316525991
 30
0.0
 10
6.3483167389
 20
4.0316525991
 30
0.0
 11
6.3373060282
 21
4.0320251541
 31
0.0
 11
6.3483167389
 21
4.0316525991
 31
0.0
  0
SPLINE
  5
567
100
AcDbEntity
  8
0
100
AcDbSpline
 62
7
  6
CONTINUOUS
 70
0
 71
3
 72
14
 73
10
 74
8
 42
0.0000001
 43
0.0000001
 44
0.0000000001
 12
-0.000033825
 22
0.1090537824
 32
0.0
 13
-0.1085119279
 23
0.0
 33
0.0
 40
0.0
 40
0.0
 40
0.0
 40
0.0
 40
0.0615119152
 40
0.192455045
 40
0.3364892945
 40
0.4929861135
 40
0.6584056127
 40
0.8284316284
 40
1.0
 40
1.0
 40
1.0
 40
1.0
 10
6.4263131398
 20
3.9911940168
 30
0.0
 10
6.4263124463
 20
3.9934300525
 30
0.0
 10
6.4257157906
 20
4.0004300841
 30
0.0
 10
6.4216949234
 20
4.0121055709
 30
0.0
 10
6.4127488964
 20
4.0250936413
 30
0.0
 10
6.4001074043
 20
4.0364529006
 30
0.0
 10
6.3845111838
 20
4.0452951355
 30
0.0
 10
6.3669158145
 20
4.0508914018
 30
0.0
 10
6.3545224771
 20
4.052163901
 30
0.0
 10
6.3483167389
 20
4.052163901
 30
0.0
 11
6.4263131398
 21
3.9911940168
 31
0.0
 11
6.4257570655
 21
3.9978717933
 31
0.0
 11
6.4213036222
 21
4.0113647337
 31
0.0
 11
6.4125657075
 21
4.0243234396
 31
0.0
 11
6.4000015842
 21
4.0357481221
 31
0.0
 11
6.3844124576
 21
4.0446465055
 31
0.0
 11
6.3668358854
 21
4.0502555251
 31
0.0
 11
6.3483167389
 21
4.052163901
 31
0.0
  0
SPLINE
  5
568
100
AcDbEntity
  8
0
100
AcDbSpline
 62
7
  6
CONTINUOUS
 70
0
 71
3
 72
22
 73
18
 74
16
 42
0.0000001
 43
0.0000001
 44
0.0000000001
 12
0.1538254178
 22
0.0320812678
 32
0.0
 13
0.1538254178
 23
-0.0320812676
 33
0.0
 40
0.0
 40
0.0
 40
0.0
 40
0.0
 40
0.0110671742
 40
0.0437507045
 40
0.0964532505
 40
0.1664062976
 40
0.2509986095
 40
0.3459538765
 40
0.4481201715
 40
0.5520569277
 40
0.6542454463
 40
0.7492441615
 40
0.8338037691
 40
0.9037172503
 40
0.9563282066
 40
0.9889596558
 40
1.0
 40
1.0
 40
1.0
 40
1.0
 10
6.2703167389
 20
3.8816521826
 30
0.0
 10
6.2708842098
 20
3.8817705323
 30
0.0
 10
6.2731285132
 20
3.8822337117
 30
0.0
 10
6.2780847377
 20
3.8832138023
 30
0.0
 10
6.2860920167
 20
3.8846609127
 30
0.0
 10
6.296819209
 20
3.8863330253
 30
0.0
 10
6.309790976
 20
3.8879413178
 30
0.0
 10
6.3244960279
 20
3.8892097421
 30
0.0
 10
6.3402546251
 20
3.8899069472
 30
0.0
 10
6.3564078483
 20
3.8899063318
 30
0.0
 10
6.3721698286
 20
3.8892077054
 30
0.0
 10
6.386876487
 20
3.8879377635
 30
0.0
 10
6.3998466032
 20
3.8863284524
 30
0.0
 10
6.4105651857
 20
3.8846568482
 30
0.0
 10
6.4185629472
 20
3.8832110583
 30
0.0
 10
6.4235103905
 20
3.8822326007
 30
0.0
 10
6.4257506437
 20
3.8817702453
 30
0.0
 10
6.4263167389
 20
3.8816521826
 30
0.0
 11
6.2703167389
 21
3.8816521826
 31
0.0
 11
6.2720198915
 21
3.8820036727
 31
0.0
 11
6.277058097
 21
3.8829998057
 31
0.0
 11
6.2852076296
 21
3.8844719573
 31
0.0
 11
6.2960687833
 21
3.886163551
 31
0.0
 11
6.309260471
 21
3.8877970589
 31
0.0
 11
6.3241262765
 21
3.8890772537
 31
0.0
 11
6.3401645819
 21
3.8897854614
 31
0.0
 11
6.3564967179
 21
3.8897848404
 31
0.0
 11
6.372538455
 21
3.88907519
 31
0.0
 11
6.3874109436
 21
3.8877930291
 31
0.0
 11
6.4005973796
 21
3.8861589277
 31
0.0
 11
6.4114522616
 21
3.8844674655
 31
0.0
 11
6.4195875599
 21
3.8829974766
 31
0.0
 11
6.424617717
 21
3.8820028292
 31
0.0
 11
6.4263167389
 21
3.8816521826
 31
0.0
  0
SPLINE
  5
569
100
AcDbEntity
  8
0
100
AcDbSpline
 62
7
  6
CONTINUOUS
 70
0
 71
3
 72
22
 73
18
 74
16
 42
0.0000001
 43
0.0000001
 44
0.0000000001
 12
-0.1538254178
 22
-0.0320812678
 32
0.0
 13
-0.1538254178
 23
0.0320812676
 33
0.0
 40
0.0
 40
0.0
 40
0.0
 40
0.0
 40
0.0110671742
 40
0.0437507045
 40
0.0964532505
 40
0.1664062976
 40
0.2509986095
 40
0.3459538765
 40
0.4481201715
 40
0.5520569277
 40
0.6542454463
 40
0.7492441615
 40
0.8338037691
 40
0.9037172503
 40
0.9563282066
 40
0.9889596558
 40
1.0
 40
1.0
 40
1.0
 40
1.0
 10
6.4263167389
 20
4.6296521826
 30
0.0
 10
6.425749268
 20
4.6295338329
 30
0.0
 10
6.4235049645
 20
4.6290706535
 30
0.0
 10
6.41854874
 20
4.6280905629
 30
0.0
 10
6.410541461
 20
4.6266434525
 30
0.0
 10
6.3998142687
 20
4.6249713399
 30
0.0
 10
6.3868425017
 20
4.6233630474
 30
0.0
 10
6.3721374498
 20
4.6220946231
 30
0.0
 10
6.3563788526
 20
4.621397418
 30
0.0
 10
6.3402256295
 20
4.6213980334
 30
0.0
 10
6.3244636491
 20
4.6220966597
 30
0.0
 10
6.3097569907
 20
4.6233666017
 30
0.0
 10
6.2967868745
 20
4.6249759128
 30
0.0
 10
6.286068292
 20
4.626647517
 30
0.0
 10
6.2780705305
 20
4.6280933069
 30
0.0
 10
6.2731230872
 20
4.6290717645
 30
0.0
 10
6.270882834
 20
4.6295341199
 30
0.0
 10
6.2703167389
 20
4.6296521826
 30
0.0
 11
6.4263167389
 21
4.6296521826
 31
0.0
 11
6.4246135863
 21
4.6293006925
 31
0.0
 11
6.4195753807
 21
4.6283045595
 31
0.0
 11
6.4114258481
 21
4.6268324079
 31
0.0
 11
6.4005646944
 21
4.6251408142
 31
0.0
 11
6.3873730067
 21
4.6235073063
 31
0.0
 11
6.3725072012
 21
4.6222271115
 31
0.0
 11
6.3564688958
 21
4.6215189038
 31
0.0
 11
6.3401367598
 21
4.6215195248
 31
0.0
 11
6.3240950227
 21
4.6222291752
 31
0.0
 11
6.3092225341
 21
4.6235113361
 31
0.0
 11
6.2960360981
 21
4.6251454375
 31
0.0
 11
6.2851812162
 21
4.6268368997
 31
0.0
 11
6.2770459179
 21
4.6283068886
 31
0.0
 11
6.2720157608
 21
4.6293015359
 31
0.0
 11
6.2703167389
 21
4.6296521826
 31
0.0
  0
SPLINE
  5
56A
100
AcDbEntity
  8
0
100
AcDbSpline
 62
7
  6
CONTINUOUS
 70
0
 71
3
 72
8
 73
4
 74
2
 42
0.0000001
 43
0.0000001
 44
0.0000000001
 12
-0.0110171377
 22
0.0
 32
0.0
 13
-0.010997757
 23
-0.0007519406
 33
0.0
 40
0.0
 40
0.0
 40
0.0
 40
0.0
 40
1.0
 40
1.0
 40
1.0
 40
1.0
 10
6.3483167389
 20
4.4796517661
 30
0.0
 10
6.3446443596
 20
4.4796517661
 30
0.0
 10
6.3409700337
 20
4.4795298595
 30
0.0
 10
6.3373041148
 20
4.4792792127
 30
0.0
 11
6.3483167389
 21
4.4796517661
 31
0.0
 11
6.3373041148
 21
4.4792792127
 31
0.0
  0
SPLINE
  5
56B
100
AcDbEntity
  8
0
100
AcDbSpline
 62
7
  6
CONTINUOUS
 70
0
 71
3
 72
10
 73
6
 74
4
 42
0.0000001
 43
0.0000001
 44
0.0000000001
 12
-0.0242884809
 22
-0.0016606563
 32
0.0
 13
-0.0236112246
 23
-0.0059661001
 33
0.0
 40
0.0
 40
0.0
 40
0.0
 40
0.0
 40
0.2186462599
 40
0.8671568614
 40
1.0
 40
1.0
 40
1.0
 40
1.0
 10
6.3373041148
 20
4.4792792127
 30
0.0
 10
6.3355339196
 20
4.4791581806
 30
0.0
 10
6.3285210531
 20
4.4785591094
 30
0.0
 10
6.3204905607
 20
4.4773097991
 30
0.0
 10
6.314318502
 20
4.4758452321
 30
0.0
 10
6.3132729723
 20
4.475581047
 30
0.0
 11
6.3373041148
 21
4.4792792127
 31
0.0
 11
6.3320005758
 21
4.478825291
 31
0.0
 11
6.316420173
 21
4.4763291157
 31
0.0
 11
6.3132729723
 21
4.475581047
 31
0.0
  0
SPLINE
  5
56C
100
AcDbEntity
  8
0
100
AcDbSpline
 62
7
  6
CONTINUOUS
 70
0
 71
3
 72
8
 73
4
 74
2
 42
0.0000001
 43
0.0000001
 44
0.0000000001
 12
-0.0109436535
 22
-0.0027652497
 32
0.0
 13
-0.0105551826
 23
-0.0040102088
 33
0.0
 40
0.0
 40
0.0
 40
0.0
 40
0.0
 40
1.0
 40
1.0
 40
1.0
 40
1.0
 10
6.3132729723
 20
4.475581047
 30
0.0
 10
6.3096250878
 20
4.4746592971
 30
0.0
 10
6.3060237415
 20
4.4735527024
 30
0.0
 10
6.3025053473
 20
4.4722159662
 30
0.0
 11
6.3132729723
 21
4.475581047
 31
0.0
 11
6.3025053473
 21
4.4722159662
 31
0.0
  0
SPLINE
  5
56D
100
AcDbEntity
  8
0
100
AcDbSpline
 62
7
  6
CONTINUOUS
 70
0
 71
3
 72
11
 73
7
 74
5
 42
0.0000001
 43
0.0000001
 44
0.0000000001
 12
0.0465349409
 22
0.0
 32
0.0
 13
0.0435777007
 23
0.0164905844
 33
0.0
 40
0.0
 40
0.0
 40
0.0
 40
0.0
 40
0.3336517371
 40
0.6571467362
 40
0.9606222485
 40
1.0
 40
1.0
 40
1.0
 40
1.0
 10
6.3483167389
 20
4.0316525991
 30
0.0
 10
6.3534922268
 20
4.0316525991
 30
0.0
 10
6.3636928225
 20
4.0321300731
 30
0.0
 10
6.3784613289
 20
4.0343057389
 30
0.0
 10
6.3884688194
 20
4.0370070678
 30
0.0
 10
6.3934688725
 20
4.0388386017
 30
0.0
 10
6.3940408698
 20
4.0390550557
 30
0.0
 11
6.3483167389
 21
4.0316525991
 31
0.0
 11
6.3638252977
 21
4.0323980414
 31
0.0
 11
6.3787097712
 21
4.0346496991
 31
0.0
 11
6.3923183633
 21
4.0384237128
 31
0.0
 11
6.3940408698
 21
4.0390550557
 31
0.0
  0
SPLINE
  5
56E
100
AcDbEntity
  8
0
100
AcDbSpline
 62
7
  6
CONTINUOUS
 70
0
 71
3
 72
14
 73
10
 74
8
 42
0.0000001
 43
0.0000001
 44
0.0000000001
 12
0.1019147199
 22
0.0
 32
0.0
 13
-0.0000317686
 23
0.1024236313
 33
0.0
 40
0.0
 40
0.0
 40
0.0
 40
0.0
 40
0.1821521891
 40
0.3585163812
 40
0.5234218272
 40
0.6730875717
 40
0.8084332404
 40
0.9360547239
 40
1.0
 40
1.0
 40
1.0
 40
1.0
 10
6.3483167389
 20
3.9418552431
 30
0.0
 10
6.3545047353
 20
3.9418552431
 30
0.0
 10
6.3667008739
 20
3.9426527022
 30
0.0
 10
6.3841735845
 20
3.9462821808
 30
0.0
 10
6.3998039988
 20
3.952375612
 30
0.0
 10
6.4126577688
 20
3.9609281291
 30
0.0
 10
6.4218480738
 20
3.9718259166
 30
0.0
 10
6.4257732199
 20
3.9824742216
 30
0.0
 10
6.426313817
 20
3.9890108477
 30
0.0
 10
6.4263131398
 20
3.9911940168
 30
0.0
 11
6.3483167389
 21
3.9418552431
 31
0.0
 11
6.3668388516
 21
3.9431014525
 31
0.0
 11
6.384415402
 21
3.9468608951
 31
0.0
 11
6.4000066207
 21
3.9531350771
 31
0.0
 11
6.4125719944
 21
3.9617820268
 31
0.0
 11
6.4213049995
 21
3.9724591622
 31
0.0
 11
6.4257568641
 21
3.9846800519
 31
0.0
 11
6.4263131398
 21
3.9911940168
 31
0.0
  0
SPLINE
  5
56F
100
AcDbEntity
  8
0
100
AcDbSpline
 62
7
  6
CONTINUOUS
 70
0
 71
3
 72
14
 73
10
 74
8
 42
0.0000001
 43
0.0000001
 44
0.0000000001
 12
0.0000318935
 22
0.102423651
 32
0.0
 13
-0.1019147673
 23
0.0
 33
0.0
 40
0.0
 40
0.0
 40
0.0
 40
0.0
 40
0.0639434222
 40
0.1915648602
 40
0.3269101533
 40
0.4765761094
 40
0.641481986
 40
0.817846707
 40
1.0
 40
1.0
 40
1.0
 40
1.0
 10
6.4263131406
 20
4.5201103009
 30
0.0
 10
6.4263138203
 20
4.5222934071
 30
0.0
 10
6.4257732516
 20
4.5288299709
 30
0.0
 10
6.4218482008
 20
4.5394782334
 30
0.0
 10
6.4126579578
 20
4.5503760742
 30
0.0
 10
6.3998042057
 20
4.5589286529
 30
0.0
 10
6.3841737595
 20
4.5650221375
 30
0.0
 10
6.3667009758
 20
4.5686516539
 30
0.0
 10
6.3545047757
 20
4.5694491221
 30
0.0
 10
6.3483167389
 20
4.5694491221
 30
0.0
 11
6.4263131406
 21
4.5201103009
 31
0.0
 11
6.4257569046
 21
4.5266240814
 31
0.0
 11
6.4213051161
 21
4.5388450003
 31
0.0
 11
6.4125721913
 21
4.5495221602
 31
0.0
 11
6.4000068297
 21
4.558169178
 31
0.0
 11
6.3844155782
 21
4.5644434173
 31
0.0
 11
6.366838972
 21
4.5682028962
 31
0.0
 11
6.3483167389
 21
4.5694491221
 31
0.0
  0
SPLINE
  5
570
100
AcDbEntity
  8
0
100
AcDbSpline
 62
7
  6
CONTINUOUS
 70
0
 71
3
 72
14
 73
10
 74
8
 42
0.0000001
 43
0.0000001
 44
0.0000000001
 12
-0.1019147034
 22
0.0
 32
0.0
 13
0.0000317245
 23
-0.1024236251
 33
0.0
 40
0.0
 40
0.0
 40
0.0
 40
0.0
 40
0.182152011
 40
0.3585160738
 40
0.5234214205
 40
0.6730871351
 40
0.8084327239
 40
0.9360540643
 40
1.0
 40
1.0
 40
1.0
 40
1.0
 10
6.3483167389
 20
4.5694491221
 30
0.0
 10
6.3421287495
 20
4.5694491221
 30
0.0
 10
6.3299326234
 20
4.5686516647
 30
0.0
 10
6.3124599285
 20
4.5650221937
 30
0.0
 10
6.2968295224
 20
4.5589287742
 30
0.0
 10
6.2839757536
 20
4.5503762735
 30
0.0
 10
6.2747854415
 20
4.5394785078
 30
0.0
 10
6.2708602687
 20
4.5288301995
 30
0.0
 10
6.270319662
 20
4.5222935567
 30
0.0
 10
6.2703203382
 20
4.5201103652
 30
0.0
 11
6.3483167389
 21
4.5694491221
 31
0.0
 11
6.3297946471
 21
4.5682029156
 31
0.0
 11
6.3122181115
 21
4.5644434808
 31
0.0
 11
6.2966269015
 21
4.5581693115
 31
0.0
 11
6.2840615248
 21
4.549522376
 31
0.0
 11
6.2753285115
 21
4.5388452607
 31
0.0
 11
6.270876628
 21
4.5266243957
 31
0.0
 11
6.2703203382
 21
4.5201103652
 31
0.0
  0
SPLINE
  5
571
100
AcDbEntity
  8
0
100
AcDbSpline
 62
7
  6
CONTINUOUS
 70
0
 71
3
 72
14
 73
10
 74
8
 42
0.0000001
 43
0.0000001
 44
0.0000000001
 12
-0.0000319368
 22
-0.1024236578
 32
0.0
 13
0.1019147839
 23
-0.0
 33
0.0
 40
0.0
 40
0.0
 40
0.0
 40
0.0
 40
0.0639429372
 40
0.1915644761
 40
0.3269098347
 40
0.4765758151
 40
0.6414817638
 40
0.8178465804
 40
1.0
 40
1.0
 40
1.0
 40
1.0
 10
6.2703203369
 20
3.9911940811
 30
0.0
 10
6.2703196562
 20
3.9890109912
 30
0.0
 10
6.2708602171
 20
3.9824744396
 30
0.0
 10
6.2747852473
 20
3.9718261785
 30
0.0
 10
6.2839754847
 20
3.9609283204
 30
0.0
 10
6.2968292383
 20
3.9523757285
 30
0.0
 10
6.3124596912
 20
3.9462822348
 30
0.0
 10
6.329932487
 20
3.9426527126
 30
0.0
 10
6.3421286967
 20
3.9418552431
 30
0.0
 10
6.3483167389
 20
3.9418552431
 30
0.0
 11
6.2703203369
 21
3.9911940811
 31
0.0
 11
6.2708765618
 21
3.9846803485
 31
0.0
 11
6.2753283352
 21
3.9724594108
 31
0.0
 11
6.2840612539
 21
3.9617822344
 31
0.0
 11
6.2966266137
 21
3.9531352053
 31
0.0
 11
6.312217872
 21
3.9468609561
 31
0.0
 11
6.3297944899
 21
3.9431014711
 31
0.0
 11
6.3483167389
 21
3.9418552431
 31
0.0
  0
SPLINE
  5
572
100
AcDbEntity
  8
127-410_FEATURES
100
AcDbSpline
 62
7
  6
CONTINUOUS
 70
0
 71
3
 72
15
 73
11
 74
9
 42
0.0000001
 43
0.0000001
 44
0.0000000001
 12
-0.0999118987
 22
-0.0221420612
 32
0.0
 13
-0.1023360934
 23
0.0
 33
0.0
 40
0.0
 40
0.0
 40
0.0
 40
0.0
 40
0.0182471882
 40
0.0767712652
 40
0.1711412062
 40
0.2959581781
 40
0.4469050226
 40
0.6194995954
 40
0.8065968056
 40
1.0
 40
1.0
 40
1.0
 40
1.0
 10
5.4108167389
 20
4.7136521826
 30
0.0
 10
5.4102090351
 20
4.7135175058
 30
0.0
 10
5.4076512215
 20
4.7129554931
 30
0.0
 10
5.401939745
 20
4.7117461396
 30
0.0
 10
5.3926421867
 20
4.7099268948
 30
0.0
 10
5.3801979925
 20
4.7077833768
 30
0.0
 10
5.3650532808
 20
4.7056295487
 30
0.0
 10
5.3477276148
 20
4.7037880827
 30
0.0
 10
5.3288956079
 20
4.702551577
 30
0.0
 10
5.3159141146
 20
4.7022635909
 30
0.0
 10
5.3093167389
 20
4.7022635909
 30
0.0
 11
5.4108167389
 21
4.7136521826
 31
0.0
 11
5.408992899
 21
4.7132514471
 31
0.0
 11
5.4031336422
 21
4.7120109903
 31
0.0
 11
5.3936557797
 21
4.7101572143
 31
0.0
 11
5.3810676111
 21
4.7079904826
 31
0.0
 11
5.3657738478
 21
4.70581788
 31
0.0
 11
5.3482098248
 21
4.7039538914
 31
0.0
 11
5.3291040164
 21
4.7027017172
 31
0.0
 11
5.3093167389
 21
4.7022635909
 31
0.0
  0
SPLINE
  5
573
100
AcDbEntity
  8
127-410_FEATURES
100
AcDbSpline
 62
7
  6
CONTINUOUS
 70
0
 71
3
 72
15
 73
11
 74
9
 42
0.0000001
 43
0.0000001
 44
0.0000000001
 12
-0.1023360977
 22
0.0
 32
0.0
 13
-0.0999119004
 23
0.022142062
 33
0.0
 40
0.0
 40
0.0
 40
0.0
 40
0.0
 40
0.193309461
 40
0.380468101
 40
0.5530909897
 40
0.7039756037
 40
0.8283813005
 40
0.9226934012
 40
0.9815835346
 40
1.0
 40
1.0
 40
1.0
 40
1.0
 10
5.3093167389
 20
4.7022635909
 30
0.0
 10
5.3027225602
 20
4.7022635909
 30
0.0
 10
5.2897421712
 20
4.7025514125
 30
0.0
 10
5.2709102766
 20
4.7037876418
 30
0.0
 10
5.2535836681
 20
4.7056291382
 30
0.0
 10
5.2384539781
 20
4.7077807118
 30
0.0
 10
5.2260275347
 20
4.7099204351
 30
0.0
 10
5.2167332386
 20
4.7117380423
 30
0.0
 10
5.2110057394
 20
4.7129503678
 30
0.0
 10
5.2084300802
 20
4.7135162564
 30
0.0
 10
5.2078167389
 20
4.7136521826
 30
0.0
 11
5.3093167389
 21
4.7022635909
 31
0.0
 11
5.2895390458
 21
4.702701293
 31
0.0
 11
5.2704269456
 21
4.7039536058
 31
0.0
 11
5.2528600328
 21
4.7058178295
 31
0.0
 11
5.2375725576
 21
4.7079894213
 31
0.0
 11
5.2250257442
 21
4.7101483011
 31
0.0
 11
5.2155534989
 21
4.7119999613
 31
0.0
 11
5.2096575052
 21
4.7132477604
 31
0.0
 11
5.2078167389
 21
4.7136521826
 31
0.0
  0
SPLINE
  5
574
100
AcDbEntity
  8
127-410_FEATURES
100
AcDbSpline
 62
7
  6
CONTINUOUS
 70
0
 71
3
 72
15
 73
11
 74
9
 42
0.0000001
 43
0.0000001
 44
0.0000000001
 12
0.1023360972
 22
0.0
 32
0.0
 13
0.0999119002
 23
-0.0221420619
 33
0.0
 40
0.0
 40
0.0
 40
0.0
 40
0.0
 40
0.193323
 40
0.3804709567
 40
0.5531093709
 40
0.7039989376
 40
0.8284395159
 40
0.9227224844
 40
0.9815650052
 40
1.0
 40
1.0
 40
1.0
 40
1.0
 10
5.3093167389
 20
3.8090407743
 30
0.0
 10
5.3159113793
 20
3.8090407743
 30
0.0
 10
5.3288918662
 20
3.8087529303
 30
0.0
 10
5.3477243832
 20
3.8075166252
 30
0.0
 10
5.3650513206
 20
3.8056750522
 30
0.0
 10
5.3801828707
 20
3.8035231445
 30
0.0
 10
5.3926096564
 20
3.8013832522
 30
0.0
 10
5.4019025343
 20
3.7995658366
 30
0.0
 10
5.4076280891
 20
3.7983539165
 30
0.0
 10
5.4102027804
 20
3.7977882455
 30
0.0
 10
5.4108167389
 20
3.7976521826
 30
0.0
 11
5.3093167389
 21
3.8090407743
 31
0.0
 11
5.3290958163
 21
3.8086030109
 31
0.0
 11
5.3482068231
 21
3.8073507342
 31
0.0
 11
5.3657753114
 21
3.8054863016
 31
0.0
 11
5.3810632786
 21
3.8033145698
 31
0.0
 11
5.3936135915
 21
3.8011549776
 31
0.0
 11
5.4030828943
 21
3.7993038048
 31
0.0
 11
5.4089741197
 21
3.7980570083
 31
0.0
 11
5.4108167389
 21
3.7976521826
 31
0.0
  0
SPLINE
  5
575
100
AcDbEntity
  8
127-410_FEATURES
100
AcDbSpline
 62
7
  6
CONTINUOUS
 70
0
 71
3
 72
15
 73
11
 74
9
 42
0.0000001
 43
0.0000001
 44
0.0000000001
 12
0.0999118989
 22
0.0221420612
 32
0.0
 13
0.1023360934
 23
0.0
 33
0.0
 40
0.0
 40
0.0
 40
0.0
 40
0.0
 40
0.0182737161
 40
0.0767655841
 40
0.1711096445
 40
0.295957118
 40
0.4469108838
 40
0.6195182352
 40
0.8065997239
 40
1.0
 40
1.0
 40
1.0
 40
1.0
 10
5.2078167389
 20
3.7976521826
 30
0.0
 10
5.2084253261
 20
3.7977870552
 30
0.0
 10
5.2109829519
 20
3.7983490196
 30
0.0
 10
5.2166933775
 20
3.7995581379
 30
0.0
 10
5.2259900049
 20
3.801377237
 30
0.0
 10
5.2384345806
 20
3.8035208652
 30
0.0
 10
5.2535809892
 20
3.8056749268
 30
0.0
 10
5.270906796
 20
3.8075163604
 30
0.0
 10
5.2897386052
 20
3.8087528066
 30
0.0
 10
5.3027194626
 20
3.8090407743
 30
0.0
 10
5.3093167389
 20
3.8090407743
 30
0.0
 11
5.2078167389
 21
3.7976521826
 31
0.0
 11
5.2096432313
 21
3.7980534959
 31
0.0
 11
5.215499266
 21
3.7992932578
 31
0.0
 11
5.2249745221
 21
3.8011465616
 31
0.0
 11
5.2375657595
 21
3.8033138656
 31
0.0
 11
5.2528602252
 21
3.8054865598
 31
0.0
 11
5.2704255537
 21
3.8073506387
 31
0.0
 11
5.2895297598
 21
3.8086026612
 31
0.0
 11
5.3093167389
 21
3.8090407743
 31
0.0
  0
SPLINE
  5
576
100
AcDbEntity
  8
0
100
AcDbSpline
 62
7
  6
CONTINUOUS
 70
0
 71
3
 72
14
 73
10
 74
8
 42
0.0000001
 43
0.0000001
 44
0.0000000001
 12
-0.1524912644
 22
0.5724510643
 32
0.0
 13
0.1524912644
 23
0.5724510643
 33
0.0
 40
0.0
 40
0.0
 40
0.0
 40
0.0
 40
0.1483734886
 40
0.2906183378
 40
0.4304255817
 40
0.5696820058
 40
0.7094806994
 40
0.8516660081
 40
1.0
 40
1.0
 40
1.0
 40
1.0
 10
4.0659274101
 20
3.9631315637
 30
0.0
 10
4.0583855232
 20
3.9914437508
 30
0.0
 10
4.0451824039
 20
4.0473390937
 30
0.0
 10
4.0313791147
 20
4.13128295
 30
0.0
 10
4.0243478365
 20
4.2142762565
 30
0.0
 10
4.0243505775
 20
4.2970902195
 30
0.0
 10
4.0313857563
 20
4.3800696644
 30
0.0
 10
4.0451884969
 20
4.4639919769
 30
0.0
 10
4.0583875308
 20
4.519868151
 30
0.0
 10
4.0659274101
 20
4.5481728015
 30
0.0
 11
4.0659274101
 21
3.9631315637
 31
0.0
 11
4.0459161755
 21
4.0487218113
 31
0.0
 11
4.0324042447
 21
4.1318992461
 31
0.0
 11
4.0255080364
 21
4.2144353497
 31
0.0
 11
4.0255107272
 21
4.2969327413
 31
0.0
 11
4.0324114743
 21
4.3794633825
 31
0.0
 11
4.0459207524
 21
4.4626055132
 31
0.0
 11
4.0659274101
 21
4.5481728015
 31
0.0
  0
SPLINE
  5
577
100
AcDbEntity
  8
0
100
AcDbSpline
 62
7
  6
CONTINUOUS
 70
0
 71
3
 72
14
 73
10
 74
8
 42
0.0000001
 43
0.0000001
 44
0.0000000001
 12
0.1524912644
 22
0.5724510643
 32
0.0
 13
-0.1524912644
 23
0.5724510643
 33
0.0
 40
0.0
 40
0.0
 40
0.0
 40
0.0
 40
0.1483734886
 40
0.2906183378
 40
0.4304255817
 40
0.5696820058
 40
0.7094806994
 40
0.8516660081
 40
1.0
 40
1.0
 40
1.0
 40
1.0
 10
4.652891113
 20
3.9631315637
 30
0.0
 10
4.660433
 20
3.9914437508
 30
0.0
 10
4.6736361192
 20
4.0473390937
 30
0.0
 10
4.6874394085
 20
4.13128295
 30
0.0
 10
4.6944706867
 20
4.2142762565
 30
0.0
 10
4.6944679456
 20
4.2970902195
 30
0.0
 10
4.6874327669
 20
4.3800696644
 30
0.0
 10
4.6736300263
 20
4.4639919769
 30
0.0
 10
4.6604309923
 20
4.519868151
 30
0.0
 10
4.652891113
 20
4.5481728015
 30
0.0
 11
4.652891113
 21
3.9631315637
 31
0.0
 11
4.6729023477
 21
4.0487218113
 31
0.0
 11
4.6864142785
 21
4.1318992461
 31
0.0
 11
4.6933104867
 21
4.2144353497
 31
0.0
 11
4.6933077959
 21
4.2969327413
 31
0.0
 11
4.6864070489
 21
4.3794633825
 31
0.0
 11
4.6728977708
 21
4.4626055132
 31
0.0
 11
4.652891113
 21
4.5481728015
 31
0.0
  0
SPLINE
  5
578
100
AcDbEntity
  8
0
100
AcDbSpline
 62
7
  6
CONTINUOUS
 70
0
 71
3
 72
14
 73
10
 74
8
 42
0.0000001
 43
0.0000001
 44
0.0000000001
 12
-0.1442757118
 22
0.2708049707
 32
0.0
 13
0.1442757118
 23
0.2708049707
 33
0.0
 40
0.0
 40
0.0
 40
0.0
 40
0.0
 40
0.1539652166
 40
0.2964780264
 40
0.4328366592
 40
0.567267274
 40
0.7036195666
 40
0.846074992
 40
1.0
 40
1.0
 40
1.0
 40
1.0
 10
4.0659274101
 20
4.5965168731
 30
0.0
 10
4.0585229297
 20
4.6104150551
 30
0.0
 10
4.0454838006
 20
4.637869395
 30
0.0
 10
4.0315148489
 20
4.6800191781
 30
0.0
 10
4.0243507642
 20
4.7218683814
 30
0.0
 10
4.0243535669
 20
4.7637173449
 30
0.0
 10
4.0315215403
 20
4.8055591824
 30
0.0
 10
4.0454897198
 20
4.8476978192
 30
0.0
 10
4.0585248634
 20
4.8751429396
 30
0.0
 10
4.0659274101
 20
4.8890374921
 30
0.0
 11
4.0659274101
 21
4.5965168731
 31
0.0
 11
4.0459161755
 21
4.6393119969
 31
0.0
 11
4.0324042447
 21
4.6809007144
 31
0.0
 11
4.0255080364
 21
4.7221687661
 31
0.0
 11
4.0255107272
 21
4.7634174619
 31
0.0
 11
4.0324114743
 21
4.8046827826
 31
0.0
 11
4.0459207524
 21
4.8462538479
 31
0.0
 11
4.0659274101
 21
4.8890374921
 31
0.0
  0
SPLINE
  5
579
100
AcDbEntity
  8
0
100
AcDbSpline
 62
7
  6
CONTINUOUS
 70
0
 71
3
 72
14
 73
10
 74
8
 42
0.0000001
 43
0.0000001
 44
0.0000000001
 12
0.1442757118
 22
0.2708049707
 32
0.0
 13
-0.1442757118
 23
0.2708049707
 33
0.0
 40
0.0
 40
0.0
 40
0.0
 40
0.0
 40
0.1539652166
 40
0.2964780264
 40
0.4328366592
 40
0.567267274
 40
0.7036195666
 40
0.846074992
 40
1.0
 40
1.0
 40
1.0
 40
1.0
 10
4.652891113
 20
4.5965168731
 30
0.0
 10
4.6602955934
 20
4.6104150551
 30
0.0
 10
4.6733347226
 20
4.637869395
 30
0.0
 10
4.6873036743
 20
4.6800191781
 30
0.0
 10
4.6944677589
 20
4.7218683814
 30
0.0
 10
4.6944649563
 20
4.7637173449
 30
0.0
 10
4.6872969829
 20
4.8055591824
 30
0.0
 10
4.6733288034
 20
4.8476978192
 30
0.0
 10
4.6602936597
 20
4.8751429396
 30
0.0
 10
4.652891113
 20
4.8890374921
 30
0.0
 11
4.652891113
 21
4.5965168731
 31
0.0
 11
4.6729023477
 21
4.6393119969
 31
0.0
 11
4.6864142785
 21
4.6809007144
 31
0.0
 11
4.6933104867
 21
4.7221687661
 31
0.0
 11
4.6933077959
 21
4.7634174619
 31
0.0
 11
4.6864070489
 21
4.8046827826
 31
0.0
 11
4.6728977708
 21
4.8462538479
 31
0.0
 11
4.652891113
 21
4.8890374921
 31
0.0
  0
SPLINE
  5
57A
100
AcDbEntity
  8
0
100
AcDbSpline
 62
7
  6
CONTINUOUS
 70
0
 71
3
 72
14
 73
10
 74
8
 42
0.0000001
 43
0.0000001
 44
0.0000000001
 12
-0.1442757118
 22
0.2708049707
 32
0.0
 13
0.1442757118
 23
0.2708049707
 33
0.0
 40
0.0
 40
0.0
 40
0.0
 40
0.0
 40
0.1539652166
 40
0.2964780264
 40
0.4328366592
 40
0.567267274
 40
0.7036195666
 40
0.846074992
 40
1.0
 40
1.0
 40
1.0
 40
1.0
 10
4.0659274101
 20
3.6222668731
 30
0.0
 10
4.0585229297
 20
3.6361650551
 30
0.0
 10
4.0454838006
 20
3.663619395
 30
0.0
 10
4.0315148489
 20
3.7057691781
 30
0.0
 10
4.0243507642
 20
3.7476183814
 30
0.0
 10
4.0243535669
 20
3.7894673449
 30
0.0
 10
4.0315215403
 20
3.8313091824
 30
0.0
 10
4.0454897198
 20
3.8734478192
 30
0.0
 10
4.0585248634
 20
3.9008929396
 30
0.0
 10
4.0659274101
 20
3.9147874921
 30
0.0
 11
4.0659274101
 21
3.6222668731
 31
0.0
 11
4.0459161755
 21
3.6650619969
 31
0.0
 11
4.0324042447
 21
3.7066507144
 31
0.0
 11
4.0255080364
 21
3.7479187661
 31
0.0
 11
4.0255107272
 21
3.7891674619
 31
0.0
 11
4.0324114743
 21
3.8304327826
 31
0.0
 11
4.0459207524
 21
3.8720038479
 31
0.0
 11
4.0659274101
 21
3.9147874921
 31
0.0
  0
SPLINE
  5
57B
100
AcDbEntity
  8
0
100
AcDbSpline
 62
7
  6
CONTINUOUS
 70
0
 71
3
 72
14
 73
10
 74
8
 42
0.0000001
 43
0.0000001
 44
0.0000000001
 12
0.1442757118
 22
0.2708049707
 32
0.0
 13
-0.1442757118
 23
0.2708049707
 33
0.0
 40
0.0
 40
0.0
 40
0.0
 40
0.0
 40
0.1539652166
 40
0.2964780264
 40
0.4328366592
 40
0.567267274
 40
0.7036195666
 40
0.846074992
 40
1.0
 40
1.0
 40
1.0
 40
1.0
 10
4.652891113
 20
3.6222668731
 30
0.0
 10
4.6602955934
 20
3.6361650551
 30
0.0
 10
4.6733347226
 20
3.663619395
 30
0.0
 10
4.6873036743
 20
3.7057691781
 30
0.0
 10
4.6944677589
 20
3.7476183814
 30
0.0
 10
4.6944649563
 20
3.7894673449
 30
0.0
 10
4.6872969829
 20
3.8313091824
 30
0.0
 10
4.6733288034
 20
3.8734478192
 30
0.0
 10
4.6602936597
 20
3.9008929396
 30
0.0
 10
4.652891113
 20
3.9147874921
 30
0.0
 11
4.652891113
 21
3.6222668731
 31
0.0
 11
4.6729023477
 21
3.6650619969
 31
0.0
 11
4.6864142785
 21
3.7066507144
 31
0.0
 11
4.6933104867
 21
3.7479187661
 31
0.0
 11
4.6933077959
 21
3.7891674619
 31
0.0
 11
4.6864070489
 21
3.8304327826
 31
0.0
 11
4.6728977708
 21
3.8720038479
 31
0.0
 11
4.652891113
 21
3.9147874921
 31
0.0
  0
ENDSEC
  0
SECTION
  2
OBJECTS
  0
DICTIONARY
  5
C
100
AcDbDictionary
280
0
281
1
  3
ACAD_GROUP
350
D
  3
ACAD_MLINESTYLE
350
17
  3
ACAD_LAYOUT
350
1A
  3
ACAD_PLOTSETTINGS
350
19
  3
ACAD_PLOTSTYLENAME
350
E
  0
DICTIONARY
  5
D
102
{ACAD_REACTORS
330
C
102
}
100
AcDbDictionary
280
0
281
1
  0
ACDBDICTIONARYWDFLT
  5
E
102
{ACAD_REACTORS
330
C
102
}
100
AcDbDictionary
281
1
  3
Normal
350
F
100
AcDbDictionaryWithDefault
340
F
  0
DICTIONARY
  5
17
102
{ACAD_REACTORS
330
C
102
}
100
AcDbDictionary
280
0
281
1
  3
Standard
350
18
  0
DICTIONARY
  5
19
102
{ACAD_REACTORS
330
C
102
}
100
AcDbDictionary
281
1
  0
DICTIONARY
  5
1A
102
{ACAD_REACTORS
330
C
102
}
100
AcDbDictionary
281
1
  3
Layout1
350
1E
  3
Model
350
22
  0
ACDBPLACEHOLDER
  5
F
102
{ACAD_REACTORS
330
E
102
}
  0
MLINESTYLE
  5
18
102
{ACAD_REACTORS
330
17
102
}
100
AcDbMlineStyle
  2
STANDARD
 70
0
  3

 62
256
 51
90.0
 52
90.0
 71
2
 49
0.5
 62
256
  6
BYLAYER
 49
-0.5
 62
256
  6
BYLAYER
  0
LAYOUT
  5
1E
102
{ACAD_REACTORS
330
1A
102
}
100
AcDbPlotSettings
  1

  2

  4

  6

 40
0.0
 41
0.0
 42
0.0
 43
0.0
 44
0.0
 45
0.0
 46
0.0
 47
0.0
 48
0.0
 49
0.0
140
0.0
141
0.0
142
1.0
143
1.0
 70
0
 72
0
 73
0
 74
0
  7

 75
0
147
1.0
148
0.0
149
0.0
100
AcDbLayout
  1
Layout1
 70
0
 71
0
 10
0.0
 20
0.0
 11
0.0
 21
0.0
 12
0.0
 22
0.0
 32
0.0
 14
0.0
 24
0.0
 34
0.0
 15
0.0
 25
0.0
 35
0.0
146
0.0
 13
0.0
 23
0.0
 33
0.0
 16
0.0
 26
0.0
 36
0.0
 17
0.0
 27
0.0
 37
0.0
 76
0
330
1B
331
0
345
0
346
0
  0
LAYOUT
  5
22
102
{ACAD_REACTORS
330
1A
102
}
100
AcDbPlotSettings
  1

  2

  4

  6

 40
0.0
 41
0.0
 42
0.0
 43
0.0
 44
0.0
 45
0.0
 46
0.0
 47
0.0
 48
0.0
 49
0.0
140
0.0
141
0.0
142
1.0
143
1.0
 70
0
 72
0
 73
0
 74
0
  7

 75
0
147
1.0
148
0.0
149
0.0
100
AcDbLayout
  1
Model
 70
0
 71
0
 10
0.0
 20
0.0
 11
0.0
 21
0.0
 12
0.0
 22
0.0
 32
0.0
 14
0.0
 24
0.0
 34
0.0
 15
0.0
 25
0.0
 35
0.0
146
0.0
 13
0.0
 23
0.0
 33
0.0
 16
0.0
 26
0.0
 36
0.0
 17
0.0
 27
0.0
 37
0.0
 76
0
330
1F
331
0
345
0
346
0
  0
ENDSEC
  0
EOF
