999
DXF file: FPFK-XDN.dxf
999
Pro/ENGINEER 2006240 by Parametric Technology Corporation
  0
SECTION
  2
HEADER
  9
$ACADVER
  1
AC1015
  9
$DWGCODEPAGE
  3
ANSI_1252
  9
$EXTMAX
 10
11.6929133858
 20
8.2677165354
 30
0.0
  9
$EXTMIN
 10
0.0
 20
0.0
 30
0.0
  9
$LIMMIN
 10
0.0
 20
0.0
  9
$LIMMAX
 10
11.6929133858
 20
8.2677165354
  9
$VIEWCTR
 10
5.8464566929
 20
4.1338582677
  9
$VIEWSIZE
 40
8.2677165354
  9
$CLAYER
  8
0
  9
$LTSCALE
 40
0.6431102362
  9
$CELTYPE
  6
BYLAYER
  9
$DIMSCALE
 40
1.0
  9
$DIMASZ
 40
0.1875
  9
$DIMEXO
 40
0.0730807087
  9
$DIMDLI
 40
0.4443307087
  9
$DIMEXE
 40
0.2104724409
  9
$DIMCEN
 40
0.1052362205
  9
$DIMLFAC
 40
1.0
  9
$DIMBLK
  1
_CLOSED
  9
$DIMTXT
 40
0.15625
  9
$DIMTOL
 70
0
  9
$DIMLIM
 70
0
  9
$DIMTFAC
 40
1.0
  9
$PDMODE
 70
3
  9
$PDSIZE
 40
0.3125
  9
$HANDSEED
  5
534
  9
$MEASUREMENT
 70
0
  9
$INSUNITS
 70
1
  0
ENDSEC
  0
SECTION
  2
CLASSES
  0
CLASS
  1
ACDBDICTIONARYWDFLT
  2
AcDbDictionaryWithDefault
  3
AutoCAD 2000
 90
0
280
0
281
0
  0
CLASS
  1
ACDBPLACEHOLDER
  2
AcDbPlaceHolder
  3
AutoCAD 2000
 90
0
280
0
281
0
  0
CLASS
  1
LAYOUT
  2
AcDbLayout
  3
AutoCAD 2000
 90
0
280
0
281
0
  0
ENDSEC
  0
SECTION
  2
TABLES
  0
TABLE
  2
VPORT
  5
8
100
AcDbSymbolTable
 70
2
  0
VPORT
  5
1F4
100
AcDbSymbolTableRecord
100
AcDbViewportTableRecord
  2
*ACTIVE
 70
0
 10
0.0
 20
0.0
 11
1.0
 21
1.0
 12
5.8464566929
 22
4.1338582677
 13
0.0
 23
0.0
 14
1.0
 24
1.0
 15
0.0
 25
0.0
 16
0.0
 26
0.0
 36
1.0
 17
0.0
 27
0.0
 37
0.0
 40
8.2677165354
 41
1.4142857143
 42
50.0
 43
0.0
 44
0.0
 50
0.0
 51
0.0
 71
0
 72
100
 73
1
 74
1
 75
0
 76
0
 77
0
 78
0
  0
ENDTAB
  0
TABLE
  2
LTYPE
  5
5
100
AcDbSymbolTable
 70
6
  0
LTYPE
  5
14
100
AcDbSymbolTableRecord
100
AcDbLinetypeTableRecord
  2
BYBLOCK
 70
0
  3

 72
65
 73
0
 40
0.0
  0
LTYPE
  5
15
100
AcDbSymbolTableRecord
100
AcDbLinetypeTableRecord
  2
BYLAYER
 70
0
  3

 72
65
 73
0
 40
0.0
  0
LTYPE
  5
16
100
AcDbSymbolTableRecord
100
AcDbLinetypeTableRecord
  2
CONTINUOUS
 70
64
  3
Solid line
 72
65
 73
0
 40
0.0
  0
LTYPE
  5
1F5
100
AcDbSymbolTableRecord
100
AcDbLinetypeTableRecord
  2
CENTER
 70
64
  3
____ _ ____ _ ____ _ ____ _ ____ _ ____ _ ____
 72
65
 73
4
 40
0.6
 49
0.375
 74
0
 49
-0.075
 74
0
 49
0.075
 74
0
 49
-0.075
 74
0
  0
LTYPE
  5
1F6
100
AcDbSymbolTableRecord
100
AcDbLinetypeTableRecord
  2
HIDDEN
 70
64
  3
- - - - - - - - - - - - - - - - - - - -
 72
65
 73
2
 40
0.2
 49
0.1
 74
0
 49
-0.1
 74
0
  0
LTYPE
  5
1F7
100
AcDbSymbolTableRecord
100
AcDbLinetypeTableRecord
  2
PHANTOM
 70
64
  3
_____ _ _ _____ _ _ _____ _ _ _____
 72
65
 73
6
 40
0.8
 49
0.45
 74
0
 49
-0.05
 74
0
 49
0.1
 74
0
 49
-0.05
 74
0
 49
0.1
 74
0
 49
-0.05
 74
0
  0
LTYPE
  5
1F8
100
AcDbSymbolTableRecord
100
AcDbLinetypeTableRecord
  2
DOT
 70
64
  3
. . . . . . . . . . . . . . . . . . . .
 72
65
 73
2
 40
0.2
 49
0.1
 74
0
 49
-0.1
 74
0
  0
LTYPE
  5
1F9
100
AcDbSymbolTableRecord
100
AcDbLinetypeTableRecord
  2
DASHED
 70
64
  3
- - - - - - - - - - - - - - - - - - - -
 72
65
 73
2
 40
0.2
 49
0.1
 74
0
 49
-0.1
 74
0
  0
ENDTAB
  0
TABLE
  2
LAYER
  5
2
100
AcDbSymbolTable
 70
36
  0
LAYER
  5
10
100
AcDbSymbolTableRecord
100
AcDbLayerTableRecord
  2
0
 70
0
 62
7
  6
CONTINUOUS
370
-3
390
F
  0
LAYER
  5
1FA
100
AcDbSymbolTableRecord
100
AcDbLayerTableRecord
  2
DEFAULT_1
 70
0
 62
7
  6
CENTER
370
-3
390
F
  0
LAYER
  5
1FB
100
AcDbSymbolTableRecord
100
AcDbLayerTableRecord
  2
DEFAULT_2
 70
0
 62
8
  6
HIDDEN
370
-3
390
F
  0
LAYER
  5
1FC
100
AcDbSymbolTableRecord
100
AcDbLayerTableRecord
  2
DEFAULT_3
 70
0
 62
7
  6
PHANTOM
370
-3
390
F
  0
LAYER
  5
1FD
100
AcDbSymbolTableRecord
100
AcDbLayerTableRecord
  2
_BLACK_HOLE
 70
0
 62
7
  6
CONTINUOUS
370
-3
390
F
  0
LAYER
  5
1FE
100
AcDbSymbolTableRecord
100
AcDbLayerTableRecord
  2
01_ALL_DTM_PLN
 70
0
 62
7
  6
CONTINUOUS
370
-3
390
F
  0
LAYER
  5
1FF
100
AcDbSymbolTableRecord
100
AcDbLayerTableRecord
  2
01__ASM_ALL_DTM_PLN
 70
0
 62
7
  6
CONTINUOUS
370
-3
390
F
  0
LAYER
  5
200
100
AcDbSymbolTableRecord
100
AcDbLayerTableRecord
  2
01__ASM_DEF_DTM_PLN
 70
0
 62
7
  6
CONTINUOUS
370
-3
390
F
  0
LAYER
  5
201
100
AcDbSymbolTableRecord
100
AcDbLayerTableRecord
  2
01___PRT_ALL_DTM_PLN
 70
0
 62
7
  6
CONTINUOUS
370
-3
390
F
  0
LAYER
  5
202
100
AcDbSymbolTableRecord
100
AcDbLayerTableRecord
  2
01___PRT_DEF_DTM_PLN
 70
0
 62
7
  6
CONTINUOUS
370
-3
390
F
  0
LAYER
  5
203
100
AcDbSymbolTableRecord
100
AcDbLayerTableRecord
  2
02_ALL_AXES
 70
0
 62
7
  6
CONTINUOUS
370
-3
390
F
  0
LAYER
  5
204
100
AcDbSymbolTableRecord
100
AcDbLayerTableRecord
  2
02__ASM_ALL_AXES
 70
0
 62
7
  6
CONTINUOUS
370
-3
390
F
  0
LAYER
  5
205
100
AcDbSymbolTableRecord
100
AcDbLayerTableRecord
  2
02___PRT_ALL_AXES
 70
0
 62
7
  6
CONTINUOUS
370
-3
390
F
  0
LAYER
  5
206
100
AcDbSymbolTableRecord
100
AcDbLayerTableRecord
  2
03_ALL_CURVES
 70
0
 62
7
  6
CONTINUOUS
370
-3
390
F
  0
LAYER
  5
207
100
AcDbSymbolTableRecord
100
AcDbLayerTableRecord
  2
03__ASM_ALL_CURVES
 70
0
 62
7
  6
CONTINUOUS
370
-3
390
F
  0
LAYER
  5
208
100
AcDbSymbolTableRecord
100
AcDbLayerTableRecord
  2
03___PRT_ALL_CURVES
 70
0
 62
7
  6
CONTINUOUS
370
-3
390
F
  0
LAYER
  5
209
100
AcDbSymbolTableRecord
100
AcDbLayerTableRecord
  2
04_ALL_DTM_PNT
 70
0
 62
7
  6
CONTINUOUS
370
-3
390
F
  0
LAYER
  5
20A
100
AcDbSymbolTableRecord
100
AcDbLayerTableRecord
  2
04__ASM_ALL_DTM_PNT
 70
0
 62
7
  6
CONTINUOUS
370
-3
390
F
  0
LAYER
  5
20B
100
AcDbSymbolTableRecord
100
AcDbLayerTableRecord
  2
04___PRT_ALL_DTM_PNT
 70
0
 62
7
  6
CONTINUOUS
370
-3
390
F
  0
LAYER
  5
20C
100
AcDbSymbolTableRecord
100
AcDbLayerTableRecord
  2
05_ALL_DTM_CSYS
 70
0
 62
7
  6
CONTINUOUS
370
-3
390
F
  0
LAYER
  5
20D
100
AcDbSymbolTableRecord
100
AcDbLayerTableRecord
  2
05__ASM_ALL_DTM_CSYS
 70
0
 62
7
  6
CONTINUOUS
370
-3
390
F
  0
LAYER
  5
20E
100
AcDbSymbolTableRecord
100
AcDbLayerTableRecord
  2
05__ASM_DEF_DTM_CSYS
 70
0
 62
7
  6
CONTINUOUS
370
-3
390
F
  0
LAYER
  5
20F
100
AcDbSymbolTableRecord
100
AcDbLayerTableRecord
  2
05___PRT_ALL_DTM_CSYS
 70
0
 62
7
  6
CONTINUOUS
370
-3
390
F
  0
LAYER
  5
210
100
AcDbSymbolTableRecord
100
AcDbLayerTableRecord
  2
05___PRT_DEF_DTM_CSYS
 70
0
 62
7
  6
CONTINUOUS
370
-3
390
F
  0
LAYER
  5
211
100
AcDbSymbolTableRecord
100
AcDbLayerTableRecord
  2
06_ALL_SURFS
 70
0
 62
7
  6
CONTINUOUS
370
-3
390
F
  0
LAYER
  5
212
100
AcDbSymbolTableRecord
100
AcDbLayerTableRecord
  2
06__ASM_ALL_SURFS
 70
0
 62
7
  6
CONTINUOUS
370
-3
390
F
  0
LAYER
  5
213
100
AcDbSymbolTableRecord
100
AcDbLayerTableRecord
  2
06___PRT_ALL_SURFS
 70
0
 62
7
  6
CONTINUOUS
370
-3
390
F
  0
LAYER
  5
214
100
AcDbSymbolTableRecord
100
AcDbLayerTableRecord
  2
07__ASM_ALL_SKELETONS
 70
0
 62
7
  6
CONTINUOUS
370
-3
390
F
  0
LAYER
  5
215
100
AcDbSymbolTableRecord
100
AcDbLayerTableRecord
  2
COPY_GEO_FET
 70
0
 62
7
  6
CONTINUOUS
370
-3
390
F
  0
LAYER
  5
216
100
AcDbSymbolTableRecord
100
AcDbLayerTableRecord
  2
COSMETIC
 70
0
 62
7
  6
CONTINUOUS
370
-3
390
F
  0
LAYER
  5
217
100
AcDbSymbolTableRecord
100
AcDbLayerTableRecord
  2
CURVES
 70
0
 62
7
  6
CONTINUOUS
370
-3
390
F
  0
LAYER
  5
218
100
AcDbSymbolTableRecord
100
AcDbLayerTableRecord
  2
CUT_REF_SURF
 70
0
 62
7
  6
CONTINUOUS
370
-3
390
F
  0
LAYER
  5
219
100
AcDbSymbolTableRecord
100
AcDbLayerTableRecord
  2
DATUM
 70
0
 62
7
  6
CONTINUOUS
370
-3
390
F
  0
LAYER
  5
21A
100
AcDbSymbolTableRecord
100
AcDbLayerTableRecord
  2
DATUMCURVES
 70
0
 62
7
  6
CONTINUOUS
370
-3
390
F
  0
LAYER
  5
21B
100
AcDbSymbolTableRecord
100
AcDbLayerTableRecord
  2
DIMENSIONS
 70
0
 62
7
  6
CONTINUOUS
370
-3
390
F
  0
LAYER
  5
21C
100
AcDbSymbolTableRecord
100
AcDbLayerTableRecord
  2
DRAWINGNOTES
 70
0
 62
7
  6
CONTINUOUS
370
-3
390
F
  0
LAYER
  5
21D
100
AcDbSymbolTableRecord
100
AcDbLayerTableRecord
  2
DTM
 70
0
 62
7
  6
CONTINUOUS
370
-3
390
F
  0
LAYER
  5
21E
100
AcDbSymbolTableRecord
100
AcDbLayerTableRecord
  2
DTM230
 70
0
 62
7
  6
CONTINUOUS
370
-3
390
F
  0
LAYER
  5
21F
100
AcDbSymbolTableRecord
100
AcDbLayerTableRecord
  2
DTM_500001
 70
0
 62
7
  6
CONTINUOUS
370
-3
390
F
  0
LAYER
  5
220
100
AcDbSymbolTableRecord
100
AcDbLayerTableRecord
  2
DTM_500002
 70
0
 62
7
  6
CONTINUOUS
370
-3
390
F
  0
LAYER
  5
221
100
AcDbSymbolTableRecord
100
AcDbLayerTableRecord
  2
DTM_500051
 70
0
 62
7
  6
CONTINUOUS
370
-3
390
F
  0
LAYER
  5
222
100
AcDbSymbolTableRecord
100
AcDbLayerTableRecord
  2
DTM_515002
 70
0
 62
7
  6
CONTINUOUS
370
-3
390
F
  0
LAYER
  5
223
100
AcDbSymbolTableRecord
100
AcDbLayerTableRecord
  2
DTM_530002
 70
0
 62
7
  6
CONTINUOUS
370
-3
390
F
  0
LAYER
  5
224
100
AcDbSymbolTableRecord
100
AcDbLayerTableRecord
  2
DTM_SPRING_RH
 70
0
 62
7
  6
CONTINUOUS
370
-3
390
F
  0
LAYER
  5
225
100
AcDbSymbolTableRecord
100
AcDbLayerTableRecord
  2
DTM_SP_RH_CONSTR
 70
0
 62
7
  6
CONTINUOUS
370
-3
390
F
  0
LAYER
  5
226
100
AcDbSymbolTableRecord
100
AcDbLayerTableRecord
  2
GEOMETRICTOLERANCES
 70
0
 62
7
  6
CONTINUOUS
370
-3
390
F
  0
LAYER
  5
227
100
AcDbSymbolTableRecord
100
AcDbLayerTableRecord
  2
INTFCLR_102
 70
0
 62
7
  6
CONTINUOUS
370
-3
390
F
  0
LAYER
  5
228
100
AcDbSymbolTableRecord
100
AcDbLayerTableRecord
  2
INTF_YELLOW
 70
0
 62
7
  6
CONTINUOUS
370
-3
390
F
  0
LAYER
  5
229
100
AcDbSymbolTableRecord
100
AcDbLayerTableRecord
  2
PARAMETERDIMENSIONS
 70
0
 62
7
  6
CONTINUOUS
370
-3
390
F
  0
LAYER
  5
22A
100
AcDbSymbolTableRecord
100
AcDbLayerTableRecord
  2
PLANE
 70
0
 62
7
  6
CONTINUOUS
370
-3
390
F
  0
LAYER
  5
22B
100
AcDbSymbolTableRecord
100
AcDbLayerTableRecord
  2
TEXT
 70
0
 62
7
  6
CONTINUOUS
370
-3
390
F
  0
LAYER
  5
22C
100
AcDbSymbolTableRecord
100
AcDbLayerTableRecord
  2
THREAD
 70
0
 62
7
  6
CONTINUOUS
370
-3
390
F
  0
ENDTAB
  0
TABLE
  2
STYLE
  5
3
100
AcDbSymbolTable
 70
1
  0
STYLE
  5
11
100
AcDbSymbolTableRecord
100
AcDbTextStyleTableRecord
  2
STANDARD
 70
0
 40
0.0
 41
0.8
 50
0.0
 71
0
 42
0.2
  3
txt
  4

  0
ENDTAB
  0
TABLE
  2
VIEW
  5
6
100
AcDbSymbolTable
 70
0
  0
ENDTAB
  0
TABLE
  2
UCS
  5
7
100
AcDbSymbolTable
 70
0
  0
ENDTAB
  0
TABLE
  2
APPID
  5
9
100
AcDbSymbolTable
 70
1
  0
APPID
  5
22D
100
AcDbSymbolTableRecord
100
AcDbRegAppTableRecord
  2
ACAD
 70
0
  0
ENDTAB
  0
TABLE
  2
BLOCK_RECORD
  5
1
100
AcDbSymbolTable
 70
0
  0
BLOCK_RECORD
  5
1F
100
AcDbSymbolTableRecord
100
AcDbBlockTableRecord
  2
*MODEL_SPACE
  0
BLOCK_RECORD
  5
1B
100
AcDbSymbolTableRecord
100
AcDbBlockTableRecord
  2
*PAPER_SPACE
  0
ENDTAB
  0
TABLE
  2
DIMSTYLE
  5
A
100
AcDbSymbolTable
 70
1
100
AcDbDimStyleTable
 71
0
  0
DIMSTYLE
105
22E
100
AcDbSymbolTableRecord
100
AcDbDimStyleTableRecord
  2
STANDARD
 70
0
  3

  4

 40
1.0
 41
0.1875
 42
0.0625
 43
0.38
 44
0.18
 45
0.0
 46
0.0
 47
0.01
 48
0.01
140
0.15625
141
0.09
142
0.0
143
25.4
144
1.0
145
0.0
146
1.0
147
0.09
 71
0.0
 72
0.0
 73
1
 74
1
 75
0
 76
0
 77
0
 78
4
170
0
171
2
172
0
173
0
174
0
175
0
176
0
177
0
178
0
270
2
271
2
272
2
273
2
274
2
275
0
280
0
281
0
282
0
283
1
284
4
285
0
286
0
287
3
288
0
340
11
  0
ENDTAB
  0
ENDSEC
  0
SECTION
  2
BLOCKS
  0
BLOCK
  5
20
100
AcDbEntity
  8
0
100
AcDbBlockBegin
  2
*MODEL_SPACE
 70
0
 10
0.0
 20
0.0
 30
0.0
  3
*MODEL_SPACE
  1

  0
ENDBLK
  5
21
100
AcDbEntity
  8
0
100
AcDbBlockEnd
  0
BLOCK
  5
1C
100
AcDbEntity
  8
0
100
AcDbBlockBegin
  2
*PAPER_SPACE
 70
0
 10
0.0
 20
0.0
 30
0.0
  3
*PAPER_SPACE
  1

  0
ENDBLK
  5
1D
100
AcDbEntity
  8
0
100
AcDbBlockEnd
  0
ENDSEC
  0
SECTION
  2
ENTITIES
  0
LINE
  5
22F
100
AcDbEntity
  8
0
100
AcDbLine
 62
7
  6
CONTINUOUS
 10
2.5875057621
 20
3.8918831678
 11
2.5875057621
 21
3.9713848603
  0
LINE
  5
230
100
AcDbEntity
  8
0
100
AcDbLine
 62
7
  6
CONTINUOUS
 10
2.5875057621
 20
3.9714104966
 11
2.5875057621
 21
4.0597760244
  0
LINE
  5
231
100
AcDbEntity
  8
0
100
AcDbLine
 62
7
  6
CONTINUOUS
 10
2.5875057621
 20
4.0598265103
 11
2.5875057621
 21
4.1689217316
  0
LINE
  5
232
100
AcDbEntity
  8
0
100
AcDbLine
 62
7
  6
CONTINUOUS
 10
2.5875057621
 20
4.1993033905
 11
2.5875057621
 21
4.2607679952
  0
LINE
  5
233
100
AcDbEntity
  8
0
100
AcDbLine
 62
7
  6
CONTINUOUS
 10
2.5875057621
 20
4.2676233988
 11
2.5875057621
 21
4.3120295418
  0
LINE
  5
234
100
AcDbEntity
  8
0
100
AcDbLine
 62
7
  6
CONTINUOUS
 10
2.5875057621
 20
4.3234377162
 11
2.5875057621
 21
4.324425414
  0
LINE
  5
235
100
AcDbEntity
  8
0
100
AcDbLine
 62
7
  6
CONTINUOUS
 10
2.5875057621
 20
4.3248453095
 11
2.5875057621
 21
4.3389808363
  0
LINE
  5
236
100
AcDbEntity
  8
0
100
AcDbLine
 62
7
  6
CONTINUOUS
 10
2.5875057621
 20
4.3489730152
 11
2.5875057621
 21
4.3695059066
  0
LINE
  5
237
100
AcDbEntity
  8
0
100
AcDbLine
 62
7
  6
CONTINUOUS
 10
2.5875057621
 20
4.3744480472
 11
2.5875057621
 21
4.4308726744
  0
LINE
  5
238
100
AcDbEntity
  8
0
100
AcDbLine
 62
7
  6
CONTINUOUS
 10
2.5875057621
 20
4.4315158297
 11
2.5875057621
 21
4.494215045
  0
LINE
  5
239
100
AcDbEntity
  8
0
100
AcDbLine
 62
7
  6
CONTINUOUS
 10
2.5875057621
 20
4.5028180122
 11
2.5875057621
 21
4.7734471691
  0
LINE
  5
23A
100
AcDbEntity
  8
0
100
AcDbLine
 62
7
  6
CONTINUOUS
 10
2.6025057621
 20
4.8235121826
 11
2.6025057621
 21
3.8235121826
  0
LINE
  5
23B
100
AcDbEntity
  8
03__ASM_ALL_CURVES
100
AcDbLine
 62
40
  6
CONTINUOUS
 10
2.6025057621
 20
4.8235121826
 11
2.6025057621
 21
5.0764501826
  0
LINE
  5
23C
100
AcDbEntity
  8
0
100
AcDbLine
 62
7
  6
CONTINUOUS
 10
2.6458070323
 20
3.8240897162
 11
2.6458070323
 21
3.8270183526
  0
LINE
  5
23D
100
AcDbEntity
  8
0
100
AcDbLine
 62
7
  6
CONTINUOUS
 10
2.6458070323
 20
4.0334796382
 11
2.6458070323
 21
4.0385521852
  0
LINE
  5
23E
100
AcDbEntity
  8
0
100
AcDbLine
 62
7
  6
CONTINUOUS
 10
2.6458070323
 20
4.3205835462
 11
2.6458070323
 21
4.326440819
  0
LINE
  5
23F
100
AcDbEntity
  8
0
100
AcDbLine
 62
7
  6
CONTINUOUS
 10
2.6458070323
 20
4.60847218
 11
2.6458070323
 21
4.613544727
  0
LINE
  5
240
100
AcDbEntity
  8
0
100
AcDbLine
 62
7
  6
CONTINUOUS
 10
2.6458070323
 20
4.8200060125
 11
2.6458070323
 21
4.822934649
  0
LINE
  5
241
100
AcDbEntity
  8
03__ASM_ALL_CURVES
100
AcDbLine
 62
40
  6
CONTINUOUS
 10
2.7446757621
 20
5.0527551826
 11
2.7446757621
 21
5.0053651826
  0
LINE
  5
242
100
AcDbEntity
  8
0
100
AcDbLine
 62
7
  6
CONTINUOUS
 10
2.6025057621
 20
4.8235121826
 11
2.6425807783
 21
4.8929241468
  0
LINE
  5
243
100
AcDbEntity
  8
0
100
AcDbLine
 62
7
  6
CONTINUOUS
 10
2.6025057621
 20
3.8235121826
 11
2.6425807783
 21
3.7541002184
  0
LINE
  5
244
100
AcDbEntity
  8
0
100
AcDbLine
 62
7
  6
CONTINUOUS
 10
3.0605057621
 20
4.8985047244
 11
3.0605057621
 21
4.822934649
  0
LINE
  5
245
100
AcDbEntity
  8
0
100
AcDbLine
 62
7
  6
CONTINUOUS
 10
3.0605057621
 20
4.8200060125
 11
3.0605057621
 21
4.613544727
  0
LINE
  5
246
100
AcDbEntity
  8
0
100
AcDbLine
 62
7
  6
CONTINUOUS
 10
3.0605057621
 20
4.60847218
 11
3.0605057621
 21
4.326440819
  0
LINE
  5
247
100
AcDbEntity
  8
0
100
AcDbLine
 62
7
  6
CONTINUOUS
 10
3.0605057621
 20
4.3205835462
 11
3.0605057621
 21
4.0385521852
  0
LINE
  5
248
100
AcDbEntity
  8
0
100
AcDbLine
 62
7
  6
CONTINUOUS
 10
3.0605057621
 20
4.0334796382
 11
3.0605057621
 21
3.8270183526
  0
LINE
  5
249
100
AcDbEntity
  8
0
100
AcDbLine
 62
7
  6
CONTINUOUS
 10
3.0605057621
 20
3.8240897162
 11
3.0605057621
 21
3.7485196408
  0
LINE
  5
24A
100
AcDbEntity
  8
0
100
AcDbLine
 62
7
  6
CONTINUOUS
 10
3.3695057621
 20
3.7485121826
 11
3.3695057621
 21
4.8985121826
  0
LINE
  5
24B
100
AcDbEntity
  8
0
100
AcDbLine
 62
7
  6
CONTINUOUS
 10
3.3895057621
 20
3.7685186856
 11
3.3895057621
 21
4.8785056796
  0
LINE
  5
24C
100
AcDbEntity
  8
0
100
AcDbLine
 62
7
  6
CONTINUOUS
 10
3.4025057621
 20
4.7870121826
 11
3.4025057621
 21
3.8600121826
  0
LINE
  5
24D
100
AcDbEntity
  8
03__ASM_ALL_CURVES
100
AcDbLine
 62
40
  6
CONTINUOUS
 10
4.0421073246
 20
5.1949251826
 11
3.9902745121
 21
5.1060689326
  0
LINE
  5
24E
100
AcDbEntity
  8
03__ASM_ALL_CURVES
100
AcDbLine
 62
40
  6
CONTINUOUS
 10
4.0421073246
 20
5.0764501826
 11
4.0421073246
 21
5.1949251826
  0
LINE
  5
24F
100
AcDbEntity
  8
03__ASM_ALL_CURVES
100
AcDbLine
 62
40
  6
CONTINUOUS
 10
4.1309635746
 20
5.0764501826
 11
4.1309635746
 21
5.0863230996
  0
LINE
  5
250
100
AcDbEntity
  8
03__ASM_ALL_CURVES
100
AcDbLine
 62
40
  6
CONTINUOUS
 10
4.2568432621
 20
5.1949251826
 11
4.2568432621
 21
5.0764501826
  0
LINE
  5
251
100
AcDbEntity
  8
03__ASM_ALL_CURVES
100
AcDbLine
 62
40
  6
CONTINUOUS
 10
4.4049370121
 20
5.1653064326
 11
4.3975323246
 21
5.1554335183
  0
LINE
  5
252
100
AcDbEntity
  8
03__ASM_ALL_CURVES
100
AcDbLine
 62
40
  6
CONTINUOUS
 10
4.4123416996
 20
5.1060689326
 11
4.3975323246
 21
5.0863230996
  0
LINE
  5
253
100
AcDbEntity
  8
03__ASM_ALL_CURVES
100
AcDbLine
 62
40
  6
CONTINUOUS
 10
4.5011979496
 20
5.1949251826
 11
4.4863885746
 21
5.1751793469
  0
LINE
  5
254
100
AcDbEntity
  8
03__ASM_ALL_CURVES
100
AcDbLine
 62
40
  6
CONTINUOUS
 10
4.3531041996
 20
5.1850522683
 11
4.3679135746
 21
5.1949251826
  0
LINE
  5
255
100
AcDbEntity
  8
03__ASM_ALL_CURVES
100
AcDbLine
 62
40
  6
CONTINUOUS
 10
4.4049370121
 20
5.1751793469
 11
4.4049370121
 21
5.1653064326
  0
LINE
  5
256
100
AcDbEntity
  8
03__ASM_ALL_CURVES
100
AcDbLine
 62
40
  6
CONTINUOUS
 10
4.4123416996
 20
5.1159418504
 11
4.4123416996
 21
5.1060689326
  0
LINE
  5
257
100
AcDbEntity
  8
03__ASM_ALL_CURVES
100
AcDbLine
 62
40
  6
CONTINUOUS
 10
4.4789838871
 20
5.1455605969
 11
4.4789838871
 21
5.1258147648
  0
LINE
  5
258
100
AcDbEntity
  8
03__ASM_ALL_CURVES
100
AcDbLine
 62
40
  6
CONTINUOUS
 10
4.4863885746
 20
5.1751793469
 11
4.4789838871
 21
5.1455605969
  0
LINE
  5
259
100
AcDbEntity
  8
03__ASM_ALL_CURVES
100
AcDbLine
 62
40
  6
CONTINUOUS
 10
4.7011245121
 20
5.1554335183
 11
4.7085291996
 21
5.1751793469
  0
LINE
  5
25A
100
AcDbEntity
  8
03__ASM_ALL_CURVES
100
AcDbLine
 62
40
  6
CONTINUOUS
 10
4.7085291996
 20
5.1751793469
 11
4.7159338871
 21
5.1850522683
  0
LINE
  5
25B
100
AcDbEntity
  8
03__ASM_ALL_CURVES
100
AcDbLine
 62
40
  6
CONTINUOUS
 10
4.7529573246
 20
5.0961960165
 11
4.7455526371
 21
5.0863230996
  0
LINE
  5
25C
100
AcDbEntity
  8
0
100
AcDbLine
 62
7
  6
CONTINUOUS
 10
3.3895057621
 20
3.7685121826
 11
3.3695057621
 21
3.7485121826
  0
LINE
  5
25D
100
AcDbEntity
  8
03__ASM_ALL_CURVES
100
AcDbLine
 62
40
  6
CONTINUOUS
 10
4.3975323246
 20
5.1554335183
 11
4.3827229496
 21
5.1455605969
  0
LINE
  5
25E
100
AcDbEntity
  8
03__ASM_ALL_CURVES
100
AcDbLine
 62
40
  6
CONTINUOUS
 10
4.3975323246
 20
5.0863230996
 11
4.3827229496
 21
5.0764501826
  0
LINE
  5
25F
100
AcDbEntity
  8
03__ASM_ALL_CURVES
100
AcDbLine
 62
40
  6
CONTINUOUS
 10
4.7159338871
 20
5.1850522683
 11
4.7307432621
 21
5.1949251826
  0
LINE
  5
260
100
AcDbEntity
  8
03__ASM_ALL_CURVES
100
AcDbLine
 62
40
  6
CONTINUOUS
 10
4.6122682621
 20
5.1949251826
 11
4.6122682621
 21
5.0764501826
  0
LINE
  5
261
100
AcDbEntity
  8
03__ASM_ALL_CURVES
100
AcDbLine
 62
40
  6
CONTINUOUS
 10
4.7011245121
 20
5.1159418504
 11
4.7011245121
 21
5.1554335183
  0
LINE
  5
262
100
AcDbEntity
  8
03__ASM_ALL_CURVES
100
AcDbLine
 62
40
  6
CONTINUOUS
 10
4.7603620121
 20
5.1159418504
 11
4.7529573246
 21
5.0961960165
  0
LINE
  5
263
100
AcDbEntity
  8
03__ASM_ALL_CURVES
100
AcDbLine
 62
40
  6
CONTINUOUS
 10
4.8714323246
 20
5.1949251826
 11
4.8195995121
 21
5.1060689326
  0
LINE
  5
264
100
AcDbEntity
  8
03__ASM_ALL_CURVES
100
AcDbLine
 62
40
  6
CONTINUOUS
 10
5.0639541996
 20
5.1751793469
 11
5.0713588871
 21
5.1850522683
  0
LINE
  5
265
100
AcDbEntity
  8
03__ASM_ALL_CURVES
100
AcDbLine
 62
40
  6
CONTINUOUS
 10
4.7455526371
 20
5.0863230996
 11
4.7307432621
 21
5.0764501826
  0
LINE
  5
266
100
AcDbEntity
  8
03__ASM_ALL_CURVES
100
AcDbLine
 62
40
  6
CONTINUOUS
 10
5.0713588871
 20
5.1850522683
 11
5.0861682621
 21
5.1949251826
  0
LINE
  5
267
100
AcDbEntity
  8
03__ASM_ALL_CURVES
100
AcDbLine
 62
40
  6
CONTINUOUS
 10
5.1898338871
 20
5.1850522683
 11
5.2046432621
 21
5.1949251826
  0
LINE
  5
268
100
AcDbEntity
  8
0
100
AcDbLine
 62
7
  6
CONTINUOUS
 10
3.3895057621
 20
4.8785121826
 11
3.3695057621
 21
4.8985121826
  0
LINE
  5
269
100
AcDbEntity
  8
03__ASM_ALL_CURVES
100
AcDbLine
 62
40
  6
CONTINUOUS
 10
4.7603620121
 20
5.1554335183
 11
4.7603620121
 21
5.1159418504
  0
LINE
  5
26A
100
AcDbEntity
  8
03__ASM_ALL_CURVES
100
AcDbLine
 62
40
  6
CONTINUOUS
 10
4.8714323246
 20
5.0764501826
 11
4.8714323246
 21
5.1949251826
  0
LINE
  5
26B
100
AcDbEntity
  8
03__ASM_ALL_CURVES
100
AcDbLine
 62
40
  6
CONTINUOUS
 10
5.0565495121
 20
5.1554335183
 11
5.0639541996
 21
5.1751793469
  0
LINE
  5
26C
100
AcDbEntity
  8
03__ASM_ALL_CURVES
100
AcDbLine
 62
40
  6
CONTINUOUS
 10
5.1157870121
 20
5.1554335183
 11
5.1083823246
 21
5.1356876826
  0
LINE
  5
26D
100
AcDbEntity
  8
03__ASM_ALL_CURVES
100
AcDbLine
 62
40
  6
CONTINUOUS
 10
5.1157870121
 20
5.1159418504
 11
5.1083823246
 21
5.0961960165
  0
LINE
  5
26E
100
AcDbEntity
  8
03__ASM_ALL_CURVES
100
AcDbLine
 62
40
  6
CONTINUOUS
 10
5.1750245121
 20
5.1554335183
 11
5.1824291996
 21
5.1751793469
  0
LINE
  5
26F
100
AcDbEntity
  8
03__ASM_ALL_CURVES
100
AcDbLine
 62
40
  6
CONTINUOUS
 10
5.1083823246
 20
5.0961960165
 11
5.1009776371
 21
5.0863230996
  0
LINE
  5
270
100
AcDbEntity
  8
03__ASM_ALL_CURVES
100
AcDbLine
 62
40
  6
CONTINUOUS
 10
5.1824291996
 20
5.1751793469
 11
5.1898338871
 21
5.1850522683
  0
LINE
  5
271
100
AcDbEntity
  8
03__ASM_ALL_CURVES
100
AcDbLine
 62
40
  6
CONTINUOUS
 10
5.2268573246
 20
5.0961960165
 11
5.2194526371
 21
5.0863230996
  0
LINE
  5
272
100
AcDbEntity
  8
03__ASM_ALL_CURVES
100
AcDbLine
 62
40
  6
CONTINUOUS
 10
5.3305229496
 20
5.0961960165
 11
5.3157135746
 21
5.0764501826
  0
LINE
  5
273
100
AcDbEntity
  8
03__ASM_ALL_CURVES
100
AcDbLine
 62
40
  6
CONTINUOUS
 10
5.1009776371
 20
5.0863230996
 11
5.0861682621
 21
5.0764501826
  0
LINE
  5
274
100
AcDbEntity
  8
03__ASM_ALL_CURVES
100
AcDbLine
 62
40
  6
CONTINUOUS
 10
5.2194526371
 20
5.0863230996
 11
5.2046432621
 21
5.0764501826
  0
LINE
  5
275
100
AcDbEntity
  8
03__ASM_ALL_CURVES
100
AcDbLine
 62
40
  6
CONTINUOUS
 10
5.1083823246
 20
5.1356876826
 11
5.0861682621
 21
5.1258147648
  0
LINE
  5
276
100
AcDbEntity
  8
03__ASM_ALL_CURVES
100
AcDbLine
 62
40
  6
CONTINUOUS
 10
7.9927809675
 20
3.3794096826
 11
7.9483528425
 21
3.3794096826
  0
LINE
  5
277
100
AcDbEntity
  8
03__ASM_ALL_CURVES
100
AcDbLine
 62
40
  6
CONTINUOUS
 10
7.7095516706
 20
3.3794096826
 11
7.6984446394
 21
3.3794096826
  0
LINE
  5
278
100
AcDbEntity
  8
03__ASM_ALL_CURVES
100
AcDbLine
 62
40
  6
CONTINUOUS
 10
7.6206954206
 20
3.3794096826
 11
7.6095883894
 21
3.3794096826
  0
LINE
  5
279
100
AcDbEntity
  8
03__ASM_ALL_CURVES
100
AcDbLine
 62
40
  6
CONTINUOUS
 10
7.8594965925
 20
3.3794096826
 11
7.9039247175
 21
3.3794096826
  0
LINE
  5
27A
100
AcDbEntity
  8
03__ASM_ALL_CURVES
100
AcDbLine
 62
40
  6
CONTINUOUS
 10
7.9483528425
 20
3.4238378076
 11
7.9761204206
 21
3.4238378076
  0
LINE
  5
27B
100
AcDbEntity
  8
03__ASM_ALL_CURVES
100
AcDbLine
 62
40
  6
CONTINUOUS
 10
4.4789838871
 20
5.1258147648
 11
4.4863885746
 21
5.0961960165
  0
LINE
  5
27C
100
AcDbEntity
  8
03__ASM_ALL_CURVES
100
AcDbLine
 62
40
  6
CONTINUOUS
 10
4.9602885746
 20
5.0764501826
 11
4.9602885746
 21
5.0863230996
  0
LINE
  5
27D
100
AcDbEntity
  8
0
100
AcDbLine
 62
7
  6
CONTINUOUS
 10
5.0461796089
 20
4.6975121826
 11
5.0461796089
 21
3.9495121826
  0
LINE
  5
27E
100
AcDbEntity
  8
0
100
AcDbLine
 62
7
  6
CONTINUOUS
 10
5.0615004978
 20
4.6903679348
 11
5.0615004978
 21
3.9566564304
  0
LINE
  5
27F
100
AcDbEntity
  8
0
100
AcDbLine
 62
7
  6
CONTINUOUS
 10
5.092006596
 20
3.9930121826
 11
5.092006596
 21
4.6540121826
  0
LINE
  5
280
100
AcDbEntity
  8
03__ASM_ALL_CURVES
100
AcDbLine
 62
40
  6
CONTINUOUS
 10
5.1157870121
 20
5.1554335183
 11
5.1157870121
 21
5.1159418504
  0
LINE
  5
281
100
AcDbEntity
  8
03__ASM_ALL_CURVES
100
AcDbLine
 62
40
  6
CONTINUOUS
 10
5.3379276371
 20
5.1258147648
 11
5.3305229496
 21
5.0961960165
  0
LINE
  5
282
100
AcDbEntity
  8
03__ASM_ALL_CURVES
100
AcDbLine
 62
40
  6
CONTINUOUS
 10
5.2342620121
 20
5.1159418504
 11
5.2268573246
 21
5.0961960165
  0
LINE
  5
283
100
AcDbEntity
  8
0
100
AcDbLine
 62
7
  6
CONTINUOUS
 10
5.3655057621
 20
4.8785121826
 11
5.4108495823
 21
4.9570499831
  0
LINE
  5
284
100
AcDbEntity
  8
0
100
AcDbLine
 62
7
  6
CONTINUOUS
 10
5.1655057621
 20
4.6875121826
 11
5.1755057621
 21
4.6975121826
  0
LINE
  5
285
100
AcDbEntity
  8
03__ASM_ALL_CURVES
100
AcDbLine
 62
40
  6
CONTINUOUS
 10
7.6095883894
 20
3.4682659326
 11
7.6206954206
 21
3.4682659326
  0
LINE
  5
286
100
AcDbEntity
  8
03__ASM_ALL_CURVES
100
AcDbLine
 62
40
  6
CONTINUOUS
 10
7.7650868269
 20
3.4682659326
 11
7.8206219831
 21
3.4682659326
  0
LINE
  5
287
100
AcDbEntity
  8
03__ASM_ALL_CURVES
100
AcDbLine
 62
40
  6
CONTINUOUS
 10
7.9483528425
 20
3.4682659326
 11
7.9927809675
 21
3.4682659326
  0
LINE
  5
288
100
AcDbEntity
  8
03__ASM_ALL_CURVES
100
AcDbLine
 62
40
  6
CONTINUOUS
 10
8.0316555769
 20
3.4682659326
 11
8.0871907331
 21
3.4682659326
  0
LINE
  5
289
100
AcDbEntity
  8
03__ASM_ALL_CURVES
100
AcDbLine
 62
40
  6
CONTINUOUS
 10
7.751203035
 20
3.5156559326
 11
7.7400960038
 21
3.5156559326
  0
LINE
  5
28A
100
AcDbEntity
  8
03__ASM_ALL_CURVES
100
AcDbLine
 62
40
  6
CONTINUOUS
 10
7.9900042069
 20
3.5156559326
 11
8.0344323319
 21
3.5156559326
  0
LINE
  5
28B
100
AcDbEntity
  8
03__ASM_ALL_CURVES
100
AcDbLine
 62
40
  6
CONTINUOUS
 10
7.840059285
 20
3.5600840576
 11
7.8122917069
 21
3.5600840576
  0
LINE
  5
28C
100
AcDbEntity
  8
03__ASM_ALL_CURVES
100
AcDbLine
 62
40
  6
CONTINUOUS
 10
7.662346785
 20
3.5600840576
 11
7.6345792069
 21
3.5600840576
  0
LINE
  5
28D
100
AcDbEntity
  8
03__ASM_ALL_CURVES
100
AcDbLine
 62
40
  6
CONTINUOUS
 10
7.6345792069
 20
3.6045121826
 11
7.662346785
 21
3.6045121826
  0
LINE
  5
28E
100
AcDbEntity
  8
03__ASM_ALL_CURVES
100
AcDbLine
 62
40
  6
CONTINUOUS
 10
7.7400960038
 20
3.6045121826
 11
7.751203035
 21
3.6045121826
  0
LINE
  5
28F
100
AcDbEntity
  8
03__ASM_ALL_CURVES
100
AcDbLine
 62
40
  6
CONTINUOUS
 10
7.8122917069
 20
3.6045121826
 11
7.840059285
 21
3.6045121826
  0
LINE
  5
290
100
AcDbEntity
  8
03__ASM_ALL_CURVES
100
AcDbLine
 62
40
  6
CONTINUOUS
 10
7.8955944413
 20
3.6045121826
 11
7.9511295975
 21
3.6045121826
  0
LINE
  5
291
100
AcDbEntity
  8
03__ASM_ALL_CURVES
100
AcDbLine
 62
40
  6
CONTINUOUS
 10
8.0066647538
 20
3.6045121826
 11
8.017771785
 21
3.6045121826
  0
LINE
  5
292
100
AcDbEntity
  8
0
100
AcDbLine
 62
7
  6
CONTINUOUS
 10
5.1655057621
 20
3.9595121826
 11
5.1755057621
 21
3.9495121826
  0
LINE
  5
293
100
AcDbEntity
  8
03__ASM_ALL_CURVES
100
AcDbLine
 62
40
  6
CONTINUOUS
 10
4.1309635746
 20
5.0863230996
 11
4.1383682621
 21
5.0764501826
  0
LINE
  5
294
100
AcDbEntity
  8
03__ASM_ALL_CURVES
100
AcDbLine
 62
40
  6
CONTINUOUS
 10
4.3531041996
 20
5.0863230996
 11
4.3456995121
 21
5.0961960165
  0
LINE
  5
295
100
AcDbEntity
  8
03__ASM_ALL_CURVES
100
AcDbLine
 62
40
  6
CONTINUOUS
 10
4.7085291996
 20
5.0961960165
 11
4.7011245121
 21
5.1159418504
  0
LINE
  5
296
100
AcDbEntity
  8
03__ASM_ALL_CURVES
100
AcDbLine
 62
40
  6
CONTINUOUS
 10
4.7529573246
 20
5.1751793469
 11
4.7603620121
 21
5.1554335183
  0
LINE
  5
297
100
AcDbEntity
  8
0
100
AcDbLine
 62
7
  6
CONTINUOUS
 10
5.1655057621
 20
4.6875101254
 11
5.1655057621
 21
3.9595142398
  0
LINE
  5
298
100
AcDbEntity
  8
03__ASM_ALL_CURVES
100
AcDbLine
 62
40
  6
CONTINUOUS
 10
5.1750245121
 20
5.1159418504
 11
5.1750245121
 21
5.1554335183
  0
LINE
  5
299
100
AcDbEntity
  8
0
100
AcDbLine
 62
7
  6
CONTINUOUS
 10
5.1755057621
 20
4.6975121826
 11
5.1755057621
 21
3.9495121826
  0
LINE
  5
29A
100
AcDbEntity
  8
03__ASM_ALL_CURVES
100
AcDbLine
 62
40
  6
CONTINUOUS
 10
5.2342620121
 20
5.1554335183
 11
5.2342620121
 21
5.1159418504
  0
LINE
  5
29B
100
AcDbEntity
  8
03__ASM_ALL_CURVES
100
AcDbLine
 62
40
  6
CONTINUOUS
 10
5.3379276371
 20
5.1455605969
 11
5.3379276371
 21
5.1258147648
  0
LINE
  5
29C
100
AcDbEntity
  8
0
100
AcDbLine
 62
7
  6
CONTINUOUS
 10
5.3555057621
 20
4.6975121826
 11
5.3555057621
 21
3.9495121826
  0
LINE
  5
29D
100
AcDbEntity
  8
0
100
AcDbLine
 62
7
  6
CONTINUOUS
 10
5.3655057621
 20
4.8785115819
 11
5.3655057621
 21
3.7685127833
  0
LINE
  5
29E
100
AcDbEntity
  8
0
100
AcDbLine
 62
7
  6
CONTINUOUS
 10
5.4111164333
 20
3.6895121826
 11
6.3075057621
 21
3.6895121826
  0
LINE
  5
29F
100
AcDbEntity
  8
0
100
AcDbLine
 62
7
  6
CONTINUOUS
 10
5.4111164333
 20
3.6901284486
 11
6.3075057621
 21
3.6901284486
  0
LINE
  5
2A0
100
AcDbEntity
  8
0
100
AcDbLine
 62
7
  6
CONTINUOUS
 10
3.3695057621
 20
3.7485121826
 11
3.0605057621
 21
3.7485121826
  0
LINE
  5
2A1
100
AcDbEntity
  8
0
100
AcDbLine
 62
7
  6
CONTINUOUS
 10
3.0605057621
 20
3.7485196408
 11
2.6458070323
 21
3.7485196408
  0
LINE
  5
2A2
100
AcDbEntity
  8
0
100
AcDbLine
 62
7
  6
CONTINUOUS
 10
3.0605057621
 20
3.7541467746
 11
2.642661416
 21
3.7541467746
  0
LINE
  5
2A3
100
AcDbEntity
  8
0
100
AcDbLine
 62
7
  6
CONTINUOUS
 10
6.4035057621
 20
3.7855121826
 11
6.7375057621
 21
3.7855121826
  0
LINE
  5
2A4
100
AcDbEntity
  8
0
100
AcDbLine
 62
7
  6
CONTINUOUS
 10
6.7660942193
 20
3.8095121826
 11
6.7875057621
 21
3.8095121826
  0
LINE
  5
2A5
100
AcDbEntity
  8
0
100
AcDbLine
 62
7
  6
CONTINUOUS
 10
6.8575057621
 20
3.8115121826
 11
6.9075057621
 21
3.8115121826
  0
LINE
  5
2A6
100
AcDbEntity
  8
0
100
AcDbLine
 62
7
  6
CONTINUOUS
 10
2.6458070323
 20
3.8221181284
 11
3.0605057621
 21
3.8221181284
  0
LINE
  5
2A7
100
AcDbEntity
  8
0
100
AcDbLine
 62
7
  6
CONTINUOUS
 10
2.6458070323
 20
3.8240897162
 11
3.0605057621
 21
3.8240897162
  0
LINE
  5
2A8
100
AcDbEntity
  8
0
100
AcDbLine
 62
7
  6
CONTINUOUS
 10
3.0605057621
 20
3.8270183526
 11
2.6458070323
 21
3.8270183526
  0
LINE
  5
2A9
100
AcDbEntity
  8
0
100
AcDbLine
 62
7
  6
CONTINUOUS
 10
6.9494450723
 20
3.8275121826
 11
7.2580057621
 21
3.8275121826
  0
LINE
  5
2AA
100
AcDbEntity
  8
0
100
AcDbLine
 62
7
  6
CONTINUOUS
 10
3.0605057621
 20
3.8377090114
 11
2.642661416
 21
3.8377090114
  0
LINE
  5
2AB
100
AcDbEntity
  8
0
100
AcDbLine
 62
7
  6
CONTINUOUS
 10
7.4294566055
 20
3.8585121826
 11
7.4694566055
 21
3.8585121826
  0
LINE
  5
2AC
100
AcDbEntity
  8
0
100
AcDbLine
 62
7
  6
CONTINUOUS
 10
6.9075057621
 20
3.8655121826
 11
6.9275057621
 21
3.8655121826
  0
LINE
  5
2AD
100
AcDbEntity
  8
03__ASM_ALL_CURVES
100
AcDbLine
 62
40
  6
CONTINUOUS
 10
4.3975323246
 20
5.1356876826
 11
4.4123416996
 21
5.1159418504
  0
LINE
  5
2AE
100
AcDbEntity
  8
03__ASM_ALL_CURVES
100
AcDbLine
 62
40
  6
CONTINUOUS
 10
4.3975323246
 20
5.1850522683
 11
4.4049370121
 21
5.1751793469
  0
LINE
  5
2AF
100
AcDbEntity
  8
03__ASM_ALL_CURVES
100
AcDbLine
 62
40
  6
CONTINUOUS
 10
4.4863885746
 20
5.0961960165
 11
4.5011979496
 21
5.0764501826
  0
LINE
  5
2B0
100
AcDbEntity
  8
0
100
AcDbLine
 62
7
  6
CONTINUOUS
 10
5.3655057621
 20
3.7685121826
 11
5.4111164333
 21
3.6895121826
  0
LINE
  5
2B1
100
AcDbEntity
  8
0
100
AcDbLine
 62
7
  6
CONTINUOUS
 10
5.4111164333
 20
4.9575121826
 11
5.4111164333
 21
4.9568959166
  0
LINE
  5
2B2
100
AcDbEntity
  8
0
100
AcDbLine
 62
7
  6
CONTINUOUS
 10
5.4111164333
 20
4.6644070279
 11
5.4111164333
 21
4.6160010713
  0
LINE
  5
2B3
100
AcDbEntity
  8
0
100
AcDbLine
 62
7
  6
CONTINUOUS
 10
5.4111164333
 20
4.0310232939
 11
5.4111164333
 21
3.9826173373
  0
LINE
  5
2B4
100
AcDbEntity
  8
0
100
AcDbLine
 62
7
  6
CONTINUOUS
 10
5.4111164333
 20
3.6901284486
 11
5.4111164333
 21
3.6895121826
  0
LINE
  5
2B5
100
AcDbEntity
  8
0
100
AcDbLine
 62
7
  6
CONTINUOUS
 10
5.092006596
 20
3.9930121826
 11
5.0615004978
 21
3.9566564304
  0
LINE
  5
2B6
100
AcDbEntity
  8
0
100
AcDbLine
 62
7
  6
CONTINUOUS
 10
7.3675763056
 20
3.8720121826
 11
7.4005057621
 21
3.8720121826
  0
LINE
  5
2B7
100
AcDbEntity
  8
0
100
AcDbLine
 62
7
  6
CONTINUOUS
 10
7.4829566055
 20
3.8720121826
 11
7.5995056122
 21
3.8720121826
  0
LINE
  5
2B8
100
AcDbEntity
  8
0
100
AcDbLine
 62
7
  6
CONTINUOUS
 10
7.6305058185
 20
3.8870121826
 11
7.6805057621
 21
3.8870121826
  0
LINE
  5
2B9
100
AcDbEntity
  8
0
100
AcDbLine
 62
7
  6
CONTINUOUS
 10
8.0515057621
 20
3.8870121826
 11
8.1085057621
 21
3.8870121826
  0
LINE
  5
2BA
100
AcDbEntity
  8
0
100
AcDbLine
 62
7
  6
CONTINUOUS
 10
8.3085057621
 20
3.8870121826
 11
8.3505057162
 21
3.8870121826
  0
LINE
  5
2BB
100
AcDbEntity
  8
0
100
AcDbLine
 62
7
  6
CONTINUOUS
 10
8.1085057621
 20
3.8875121826
 11
8.1585057621
 21
3.8875121826
  0
LINE
  5
2BC
100
AcDbEntity
  8
0
100
AcDbLine
 62
7
  6
CONTINUOUS
 10
8.2285057621
 20
3.8875121826
 11
8.2785057621
 21
3.8875121826
  0
LINE
  5
2BD
100
AcDbEntity
  8
0
100
AcDbLine
 62
7
  6
CONTINUOUS
 10
2.6025057621
 20
3.8918831678
 11
2.5875057621
 21
3.8918831678
  0
LINE
  5
2BE
100
AcDbEntity
  8
0
100
AcDbLine
 62
7
  6
CONTINUOUS
 10
2.6025057621
 20
3.8930562496
 11
2.5875057621
 21
3.8930562496
  0
LINE
  5
2BF
100
AcDbEntity
  8
0
100
AcDbLine
 62
7
  6
CONTINUOUS
 10
2.6025057621
 20
3.8979440963
 11
2.5875057621
 21
3.8979440963
  0
LINE
  5
2C0
100
AcDbEntity
  8
0
100
AcDbLine
 62
7
  6
CONTINUOUS
 10
2.6025057621
 20
3.899703719
 11
2.5875057621
 21
3.899703719
  0
LINE
  5
2C1
100
AcDbEntity
  8
0
100
AcDbLine
 62
7
  6
CONTINUOUS
 10
2.6025057621
 20
3.9065607369
 11
2.5875057621
 21
3.9065607369
  0
LINE
  5
2C2
100
AcDbEntity
  8
0
100
AcDbLine
 62
7
  6
CONTINUOUS
 10
2.6025057621
 20
3.9071345458
 11
2.5875057621
 21
3.9071345458
  0
LINE
  5
2C3
100
AcDbEntity
  8
0
100
AcDbLine
 62
7
  6
CONTINUOUS
 10
2.6025057621
 20
3.9093378115
 11
2.5875057621
 21
3.9093378115
  0
LINE
  5
2C4
100
AcDbEntity
  8
0
100
AcDbLine
 62
7
  6
CONTINUOUS
 10
2.6025057621
 20
3.9115181038
 11
2.5875057621
 21
3.9115181038
  0
LINE
  5
2C5
100
AcDbEntity
  8
0
100
AcDbLine
 62
7
  6
CONTINUOUS
 10
2.6025057621
 20
3.91422622
 11
2.5875057621
 21
3.91422622
  0
LINE
  5
2C6
100
AcDbEntity
  8
0
100
AcDbLine
 62
7
  6
CONTINUOUS
 10
2.6025057621
 20
3.9175100835
 11
2.5875057621
 21
3.9175100835
  0
LINE
  5
2C7
100
AcDbEntity
  8
0
100
AcDbLine
 62
7
  6
CONTINUOUS
 10
2.6025057621
 20
3.919463654
 11
2.5875057621
 21
3.919463654
  0
LINE
  5
2C8
100
AcDbEntity
  8
0
100
AcDbLine
 62
7
  6
CONTINUOUS
 10
2.6025057621
 20
3.9229307591
 11
2.5875057621
 21
3.9229307591
  0
LINE
  5
2C9
100
AcDbEntity
  8
0
100
AcDbLine
 62
7
  6
CONTINUOUS
 10
2.6025057621
 20
3.9370998726
 11
2.5875057621
 21
3.9370998726
  0
LINE
  5
2CA
100
AcDbEntity
  8
0
100
AcDbLine
 62
7
  6
CONTINUOUS
 10
2.6025057621
 20
3.9409054512
 11
2.5875057621
 21
3.9409054512
  0
LINE
  5
2CB
100
AcDbEntity
  8
0
100
AcDbLine
 62
7
  6
CONTINUOUS
 10
8.2785057621
 20
3.9415121826
 11
8.3085057621
 21
3.9415121826
  0
LINE
  5
2CC
100
AcDbEntity
  8
0
100
AcDbLine
 62
7
  6
CONTINUOUS
 10
2.6025057621
 20
3.9493710649
 11
2.5875057621
 21
3.9493710649
  0
LINE
  5
2CD
100
AcDbEntity
  8
0
100
AcDbLine
 62
7
  6
CONTINUOUS
 10
3.4025057621
 20
3.9495121826
 11
5.0461796089
 21
3.9495121826
  0
LINE
  5
2CE
100
AcDbEntity
  8
0
100
AcDbLine
 62
7
  6
CONTINUOUS
 10
5.1755057621
 20
3.9495121826
 11
5.3555057621
 21
3.9495121826
  0
LINE
  5
2CF
100
AcDbEntity
  8
0
100
AcDbLine
 62
7
  6
CONTINUOUS
 10
2.6025057621
 20
3.9529226091
 11
2.5875057621
 21
3.9529226091
  0
LINE
  5
2D0
100
AcDbEntity
  8
0
100
AcDbLine
 62
7
  6
CONTINUOUS
 10
7.7547900333
 20
3.9530121826
 11
7.9098010028
 21
3.9530121826
  0
LINE
  5
2D1
100
AcDbEntity
  8
0
100
AcDbLine
 62
7
  6
CONTINUOUS
 10
2.6025057621
 20
3.9714104966
 11
2.5875057621
 21
3.9714104966
  0
LINE
  5
2D2
100
AcDbEntity
  8
0
100
AcDbLine
 62
7
  6
CONTINUOUS
 10
2.6025057621
 20
3.9732918231
 11
2.5875057621
 21
3.9732918231
  0
LINE
  5
2D3
100
AcDbEntity
  8
0
100
AcDbLine
 62
7
  6
CONTINUOUS
 10
6.3075057621
 20
3.9826173373
 11
5.4111164333
 21
3.9826173373
  0
LINE
  5
2D4
100
AcDbEntity
  8
0
100
AcDbLine
 62
7
  6
CONTINUOUS
 10
2.6025057621
 20
3.9855500607
 11
2.5875057621
 21
3.9855500607
  0
LINE
  5
2D5
100
AcDbEntity
  8
0
100
AcDbLine
 62
7
  6
CONTINUOUS
 10
5.1655057621
 20
3.9930121826
 11
5.092006596
 21
3.9930121826
  0
LINE
  5
2D6
100
AcDbEntity
  8
0
100
AcDbLine
 62
7
  6
CONTINUOUS
 10
2.6025057621
 20
3.9982849207
 11
2.5875057621
 21
3.9982849207
  0
LINE
  5
2D7
100
AcDbEntity
  8
0
100
AcDbLine
 62
7
  6
CONTINUOUS
 10
2.6025057621
 20
3.999339156
 11
2.5875057621
 21
3.999339156
  0
LINE
  5
2D8
100
AcDbEntity
  8
0
100
AcDbLine
 62
7
  6
CONTINUOUS
 10
2.6025057621
 20
4.0015843207
 11
2.5875057621
 21
4.0015843207
  0
LINE
  5
2D9
100
AcDbEntity
  8
0
100
AcDbLine
 62
7
  6
CONTINUOUS
 10
2.6025057621
 20
4.0061657925
 11
2.5875057621
 21
4.0061657925
  0
LINE
  5
2DA
100
AcDbEntity
  8
0
100
AcDbLine
 62
7
  6
CONTINUOUS
 10
2.6025057621
 20
4.0096474773
 11
2.5875057621
 21
4.0096474773
  0
LINE
  5
2DB
100
AcDbEntity
  8
0
100
AcDbLine
 62
7
  6
CONTINUOUS
 10
2.6025057621
 20
4.0131747138
 11
2.5875057621
 21
4.0131747138
  0
LINE
  5
2DC
100
AcDbEntity
  8
0
100
AcDbLine
 62
7
  6
CONTINUOUS
 10
2.6025057621
 20
4.0179384704
 11
2.5875057621
 21
4.0179384704
  0
LINE
  5
2DD
100
AcDbEntity
  8
0
100
AcDbLine
 62
7
  6
CONTINUOUS
 10
2.6025057621
 20
4.0215568559
 11
2.5875057621
 21
4.0215568559
  0
LINE
  5
2DE
100
AcDbEntity
  8
0
100
AcDbLine
 62
7
  6
CONTINUOUS
 10
2.6025057621
 20
4.0252208077
 11
2.5875057621
 21
4.0252208077
  0
LINE
  5
2DF
100
AcDbEntity
  8
0
100
AcDbLine
 62
7
  6
CONTINUOUS
 10
2.642661416
 20
4.0262171417
 11
3.0605057621
 21
4.0262171417
  0
LINE
  5
2E0
100
AcDbEntity
  8
0
100
AcDbLine
 62
7
  6
CONTINUOUS
 10
2.6025057621
 20
4.027741878
 11
2.5875057621
 21
4.027741878
  0
LINE
  5
2E1
100
AcDbEntity
  8
0
100
AcDbLine
 62
7
  6
CONTINUOUS
 10
2.6025057621
 20
4.0285797362
 11
2.5875057621
 21
4.0285797362
  0
LINE
  5
2E2
100
AcDbEntity
  8
0
100
AcDbLine
 62
7
  6
CONTINUOUS
 10
5.4111164333
 20
4.0310232939
 11
6.3075057621
 21
4.0310232939
  0
LINE
  5
2E3
100
AcDbEntity
  8
0
100
AcDbLine
 62
7
  6
CONTINUOUS
 10
2.6025057621
 20
4.0311637206
 11
2.5875057621
 21
4.0311637206
  0
LINE
  5
2E4
100
AcDbEntity
  8
0
100
AcDbLine
 62
7
  6
CONTINUOUS
 10
2.6458070323
 20
4.0334796382
 11
3.0605057621
 21
4.0334796382
  0
LINE
  5
2E5
100
AcDbEntity
  8
0
100
AcDbLine
 62
7
  6
CONTINUOUS
 10
3.0605057621
 20
4.0385521852
 11
2.6458070323
 21
4.0385521852
  0
LINE
  5
2E6
100
AcDbEntity
  8
0
100
AcDbLine
 62
7
  6
CONTINUOUS
 10
2.6025057621
 20
4.0462489981
 11
2.5875057621
 21
4.0462489981
  0
LINE
  5
2E7
100
AcDbEntity
  8
0
100
AcDbLine
 62
7
  6
CONTINUOUS
 10
3.0605057621
 20
4.0514418156
 11
2.642661416
 21
4.0514418156
  0
LINE
  5
2E8
100
AcDbEntity
  8
0
100
AcDbLine
 62
7
  6
CONTINUOUS
 10
2.6025057621
 20
4.0598265103
 11
2.5875057621
 21
4.0598265103
  0
LINE
  5
2E9
100
AcDbEntity
  8
0
100
AcDbLine
 62
7
  6
CONTINUOUS
 10
2.6025057621
 20
4.061050037
 11
2.5875057621
 21
4.061050037
  0
LINE
  5
2EA
100
AcDbEntity
  8
0
100
AcDbLine
 62
7
  6
CONTINUOUS
 10
2.6025057621
 20
4.0639421063
 11
2.5875057621
 21
4.0639421063
  0
LINE
  5
2EB
100
AcDbEntity
  8
0
100
AcDbLine
 62
7
  6
CONTINUOUS
 10
2.6025057621
 20
4.080202551
 11
2.5875057621
 21
4.080202551
  0
LINE
  5
2EC
100
AcDbEntity
  8
0
100
AcDbLine
 62
7
  6
CONTINUOUS
 10
2.6025057621
 20
4.0942380739
 11
2.5875057621
 21
4.0942380739
  0
LINE
  5
2ED
100
AcDbEntity
  8
0
100
AcDbLine
 62
7
  6
CONTINUOUS
 10
5.092006596
 20
4.6540121826
 11
5.0615004978
 21
4.6903679348
  0
LINE
  5
2EE
100
AcDbEntity
  8
03__ASM_ALL_CURVES
100
AcDbLine
 62
40
  6
CONTINUOUS
 10
4.7159338871
 20
5.0863230996
 11
4.7085291996
 21
5.0961960165
  0
LINE
  5
2EF
100
AcDbEntity
  8
03__ASM_ALL_CURVES
100
AcDbLine
 62
40
  6
CONTINUOUS
 10
4.7455526371
 20
5.1850522683
 11
4.7529573246
 21
5.1751793469
  0
LINE
  5
2F0
100
AcDbEntity
  8
03__ASM_ALL_CURVES
100
AcDbLine
 62
40
  6
CONTINUOUS
 10
4.9602885746
 20
5.0863230996
 11
4.9676932621
 21
5.0764501826
  0
LINE
  5
2F1
100
AcDbEntity
  8
03__ASM_ALL_CURVES
100
AcDbLine
 62
40
  6
CONTINUOUS
 10
5.0639541996
 20
5.1356876826
 11
5.0565495121
 21
5.1554335183
  0
LINE
  5
2F2
100
AcDbEntity
  8
03__ASM_ALL_CURVES
100
AcDbLine
 62
40
  6
CONTINUOUS
 10
5.1083823246
 20
5.1751793469
 11
5.1157870121
 21
5.1554335183
  0
LINE
  5
2F3
100
AcDbEntity
  8
03__ASM_ALL_CURVES
100
AcDbLine
 62
40
  6
CONTINUOUS
 10
5.1824291996
 20
5.0961960165
 11
5.1750245121
 21
5.1159418504
  0
LINE
  5
2F4
100
AcDbEntity
  8
03__ASM_ALL_CURVES
100
AcDbLine
 62
40
  6
CONTINUOUS
 10
5.2268573246
 20
5.1751793469
 11
5.2342620121
 21
5.1554335183
  0
LINE
  5
2F5
100
AcDbEntity
  8
03__ASM_ALL_CURVES
100
AcDbLine
 62
40
  6
CONTINUOUS
 10
5.3305229496
 20
5.1751793469
 11
5.3379276371
 21
5.1455605969
  0
LINE
  5
2F6
100
AcDbEntity
  8
0
100
AcDbLine
 62
7
  6
CONTINUOUS
 10
5.3555057621
 20
3.9495121826
 11
5.3655057621
 21
3.9595121826
  0
LINE
  5
2F7
100
AcDbEntity
  8
03__ASM_ALL_CURVES
100
AcDbLine
 62
40
  6
CONTINUOUS
 10
7.0559454502
 20
5.1850522683
 11
7.0707548252
 21
5.1949251826
  0
LINE
  5
2F8
100
AcDbEntity
  8
03__ASM_ALL_CURVES
100
AcDbLine
 62
40
  6
CONTINUOUS
 10
7.1744204502
 20
5.1850522683
 11
7.1892298252
 21
5.1949251826
  0
LINE
  5
2F9
100
AcDbEntity
  8
0
100
AcDbLine
 62
7
  6
CONTINUOUS
 10
7.3019181815
 20
4.2960121865
 11
7.3025057621
 21
4.2960226628
  0
LINE
  5
2FA
100
AcDbEntity
  8
0
100
AcDbLine
 62
7
  6
CONTINUOUS
 10
2.6025057621
 20
4.0954228976
 11
2.5875057621
 21
4.0954228976
  0
LINE
  5
2FB
100
AcDbEntity
  8
0
100
AcDbLine
 62
7
  6
CONTINUOUS
 10
2.6025057621
 20
4.0974587176
 11
2.5875057621
 21
4.0974587176
  0
LINE
  5
2FC
100
AcDbEntity
  8
0
100
AcDbLine
 62
7
  6
CONTINUOUS
 10
2.6025057621
 20
4.1006417489
 11
2.5875057621
 21
4.1006417489
  0
LINE
  5
2FD
100
AcDbEntity
  8
0
100
AcDbLine
 62
7
  6
CONTINUOUS
 10
2.6025057621
 20
4.1064153936
 11
2.5875057621
 21
4.1064153936
  0
LINE
  5
2FE
100
AcDbEntity
  8
0
100
AcDbLine
 62
7
  6
CONTINUOUS
 10
2.6025057621
 20
4.1104494212
 11
2.5875057621
 21
4.1104494212
  0
LINE
  5
2FF
100
AcDbEntity
  8
0
100
AcDbLine
 62
7
  6
CONTINUOUS
 10
2.6025057621
 20
4.1141872459
 11
2.5875057621
 21
4.1141872459
  0
LINE
  5
300
100
AcDbEntity
  8
0
100
AcDbLine
 62
7
  6
CONTINUOUS
 10
2.6025057621
 20
4.1187760709
 11
2.5875057621
 21
4.1187760709
  0
LINE
  5
301
100
AcDbEntity
  8
0
100
AcDbLine
 62
7
  6
CONTINUOUS
 10
2.6025057621
 20
4.1219214817
 11
2.5875057621
 21
4.1219214817
  0
LINE
  5
302
100
AcDbEntity
  8
0
100
AcDbLine
 62
7
  6
CONTINUOUS
 10
2.6025057621
 20
4.1247706888
 11
2.5875057621
 21
4.1247706888
  0
LINE
  5
303
100
AcDbEntity
  8
0
100
AcDbLine
 62
7
  6
CONTINUOUS
 10
2.6025057621
 20
4.1306588789
 11
2.5875057621
 21
4.1306588789
  0
LINE
  5
304
100
AcDbEntity
  8
0
100
AcDbLine
 62
7
  6
CONTINUOUS
 10
2.6025057621
 20
4.1322938327
 11
2.5875057621
 21
4.1322938327
  0
LINE
  5
305
100
AcDbEntity
  8
0
100
AcDbLine
 62
7
  6
CONTINUOUS
 10
2.6025057621
 20
4.1346299826
 11
2.5875057621
 21
4.1346299826
  0
LINE
  5
306
100
AcDbEntity
  8
0
100
AcDbLine
 62
7
  6
CONTINUOUS
 10
7.5600057621
 20
4.1351567002
 11
7.5200057621
 21
4.1351567002
  0
LINE
  5
307
100
AcDbEntity
  8
0
100
AcDbLine
 62
7
  6
CONTINUOUS
 10
2.6025057621
 20
4.1380760703
 11
2.5875057621
 21
4.1380760703
  0
LINE
  5
308
100
AcDbEntity
  8
0
100
AcDbLine
 62
7
  6
CONTINUOUS
 10
2.6025057621
 20
4.144910104
 11
2.5875057621
 21
4.144910104
  0
LINE
  5
309
100
AcDbEntity
  8
0
100
AcDbLine
 62
7
  6
CONTINUOUS
 10
2.6025057621
 20
4.1490573893
 11
2.5875057621
 21
4.1490573893
  0
LINE
  5
30A
100
AcDbEntity
  8
0
100
AcDbLine
 62
7
  6
CONTINUOUS
 10
2.6025057621
 20
4.1527959367
 11
2.5875057621
 21
4.1527959367
  0
LINE
  5
30B
100
AcDbEntity
  8
0
100
AcDbLine
 62
7
  6
CONTINUOUS
 10
2.6025057621
 20
4.1572356818
 11
2.5875057621
 21
4.1572356818
  0
LINE
  5
30C
100
AcDbEntity
  8
0
100
AcDbLine
 62
7
  6
CONTINUOUS
 10
2.6025057621
 20
4.1601567526
 11
2.5875057621
 21
4.1601567526
  0
LINE
  5
30D
100
AcDbEntity
  8
0
100
AcDbLine
 62
7
  6
CONTINUOUS
 10
2.6025057621
 20
4.1626690863
 11
2.5875057621
 21
4.1626690863
  0
LINE
  5
30E
100
AcDbEntity
  8
0
100
AcDbLine
 62
7
  6
CONTINUOUS
 10
2.6025057621
 20
4.1679280733
 11
2.5875057621
 21
4.1679280733
  0
LINE
  5
30F
100
AcDbEntity
  8
0
100
AcDbLine
 62
7
  6
CONTINUOUS
 10
2.6025057621
 20
4.1689217316
 11
2.5875057621
 21
4.1689217316
  0
LINE
  5
310
100
AcDbEntity
  8
0
100
AcDbLine
 62
7
  6
CONTINUOUS
 10
2.6025057621
 20
4.1993033905
 11
2.5875057621
 21
4.1993033905
  0
LINE
  5
311
100
AcDbEntity
  8
03__ASM_ALL_CURVES
100
AcDbLine
 62
40
  6
CONTINUOUS
 10
8.9142885745
 20
4.2109609326
 11
8.8698604495
 21
4.2109609326
  0
LINE
  5
312
100
AcDbEntity
  8
03__ASM_ALL_CURVES
100
AcDbLine
 62
40
  6
CONTINUOUS
 10
8.7810041995
 20
4.2109609326
 11
8.8254323245
 21
4.2109609326
  0
LINE
  5
313
100
AcDbEntity
  8
0
100
AcDbLine
 62
7
  6
CONTINUOUS
 10
2.6025057621
 20
4.2483408057
 11
2.5875057621
 21
4.2483408057
  0
LINE
  5
314
100
AcDbEntity
  8
03__ASM_ALL_CURVES
100
AcDbLine
 62
40
  6
CONTINUOUS
 10
8.8698604495
 20
4.2553890576
 11
8.8976280277
 21
4.2553890576
  0
LINE
  5
315
100
AcDbEntity
  8
0
100
AcDbLine
 62
7
  6
CONTINUOUS
 10
2.6025057621
 20
4.2554898471
 11
2.5875057621
 21
4.2554898471
  0
LINE
  5
316
100
AcDbEntity
  8
0
100
AcDbLine
 62
7
  6
CONTINUOUS
 10
2.6025057621
 20
4.2582652112
 11
2.5875057621
 21
4.2582652112
  0
LINE
  5
317
100
AcDbEntity
  8
0
100
AcDbLine
 62
7
  6
CONTINUOUS
 10
2.6025057621
 20
4.2607679952
 11
2.5875057621
 21
4.2607679952
  0
LINE
  5
318
100
AcDbEntity
  8
0
100
AcDbLine
 62
7
  6
CONTINUOUS
 10
2.6025057621
 20
4.2676233988
 11
2.5875057621
 21
4.2676233988
  0
LINE
  5
319
100
AcDbEntity
  8
03__ASM_ALL_CURVES
100
AcDbLine
 62
40
  6
CONTINUOUS
 10
8.8698604495
 20
4.2998171826
 11
8.9142885745
 21
4.2998171826
  0
LINE
  5
31A
100
AcDbEntity
  8
03__ASM_ALL_CURVES
100
AcDbLine
 62
40
  6
CONTINUOUS
 10
8.9531631839
 20
4.2998171826
 11
9.0086983402
 21
4.2998171826
  0
LINE
  5
31B
100
AcDbEntity
  8
0
100
AcDbLine
 62
7
  6
CONTINUOUS
 10
2.6025057621
 20
4.3075845215
 11
2.5875057621
 21
4.3075845215
  0
LINE
  5
31C
100
AcDbEntity
  8
0
100
AcDbLine
 62
7
  6
CONTINUOUS
 10
2.642661416
 20
4.3089487103
 11
3.0605057621
 21
4.3089487103
  0
LINE
  5
31D
100
AcDbEntity
  8
0
100
AcDbLine
 62
7
  6
CONTINUOUS
 10
2.6025057621
 20
4.3120295418
 11
2.5875057621
 21
4.3120295418
  0
LINE
  5
31E
100
AcDbEntity
  8
03__ASM_ALL_CURVES
100
AcDbLine
 62
40
  6
CONTINUOUS
 10
4.3679135746
 20
5.0764501826
 11
4.3531041996
 21
5.0863230996
  0
LINE
  5
31F
100
AcDbEntity
  8
03__ASM_ALL_CURVES
100
AcDbLine
 62
40
  6
CONTINUOUS
 10
4.3827229496
 20
5.1455605969
 11
4.3975323246
 21
5.1356876826
  0
LINE
  5
320
100
AcDbEntity
  8
03__ASM_ALL_CURVES
100
AcDbLine
 62
40
  6
CONTINUOUS
 10
4.3827229496
 20
5.1949251826
 11
4.3975323246
 21
5.1850522683
  0
LINE
  5
321
100
AcDbEntity
  8
0
100
AcDbLine
 62
7
  6
CONTINUOUS
 10
5.3555057621
 20
4.6975121826
 11
5.3655057621
 21
4.6875121826
  0
LINE
  5
322
100
AcDbEntity
  8
03__ASM_ALL_CURVES
100
AcDbLine
 62
40
  6
CONTINUOUS
 10
5.0713588871
 20
5.0863230996
 11
5.0639541996
 21
5.0961960165
  0
LINE
  5
323
100
AcDbEntity
  8
03__ASM_ALL_CURVES
100
AcDbLine
 62
40
  6
CONTINUOUS
 10
5.1009776371
 20
5.1850522683
 11
5.1083823246
 21
5.1751793469
  0
LINE
  5
324
100
AcDbEntity
  8
03__ASM_ALL_CURVES
100
AcDbLine
 62
40
  6
CONTINUOUS
 10
5.1898338871
 20
5.0863230996
 11
5.1824291996
 21
5.0961960165
  0
LINE
  5
325
100
AcDbEntity
  8
03__ASM_ALL_CURVES
100
AcDbLine
 62
40
  6
CONTINUOUS
 10
7.1003735752
 20
5.0863230996
 11
7.0855642002
 21
5.0764501826
  0
LINE
  5
326
100
AcDbEntity
  8
03__ASM_ALL_CURVES
100
AcDbLine
 62
40
  6
CONTINUOUS
 10
7.2188485752
 20
5.0863230996
 11
7.2040392002
 21
5.0764501826
  0
LINE
  5
327
100
AcDbEntity
  8
0
100
AcDbLine
 62
2
  6
CONTINUOUS
 10
7.3021849331
 20
4.7748625776
 11
7.3694455173
 21
4.8062267031
  0
LINE
  5
328
100
AcDbEntity
  8
0
100
AcDbLine
 62
7
  6
CONTINUOUS
 10
7.4005057621
 20
4.7750121826
 11
7.4294566055
 21
4.7885121826
  0
LINE
  5
329
100
AcDbEntity
  8
0
100
AcDbLine
 62
2
  6
CONTINUOUS
 10
7.2884606605
 20
4.6381398127
 11
7.3694455173
 21
4.6648428934
  0
LINE
  5
32A
100
AcDbEntity
  8
0
100
AcDbLine
 62
7
  6
CONTINUOUS
 10
2.6458070323
 20
4.3205835462
 11
3.0605057621
 21
4.3205835462
  0
LINE
  5
32B
100
AcDbEntity
  8
0
100
AcDbLine
 62
7
  6
CONTINUOUS
 10
2.6025057621
 20
4.3234377162
 11
2.5875057621
 21
4.3234377162
  0
LINE
  5
32C
100
AcDbEntity
  8
0
100
AcDbLine
 62
2
  6
CONTINUOUS
 10
8.6452877156
 20
4.3235121826
 11
8.3655057621
 21
4.3235121826
  0
LINE
  5
32D
100
AcDbEntity
  8
0
100
AcDbLine
 62
2
  6
CONTINUOUS
 10
7.2818123608
 20
4.3235121826
 11
7.3694455173
 21
4.3235121826
  0
LINE
  5
32E
100
AcDbEntity
  8
0
100
AcDbLine
 62
2
  6
CONTINUOUS
 10
7.5200057621
 20
4.3235121826
 11
7.5600057621
 21
4.3235121826
  0
LINE
  5
32F
100
AcDbEntity
  8
0
100
AcDbLine
 62
7
  6
CONTINUOUS
 10
2.6025057621
 20
4.324425414
 11
2.5875057621
 21
4.324425414
  0
LINE
  5
330
100
AcDbEntity
  8
0
100
AcDbLine
 62
7
  6
CONTINUOUS
 10
2.6025057621
 20
4.3245931736
 11
2.5875057621
 21
4.3245931736
  0
LINE
  5
331
100
AcDbEntity
  8
0
100
AcDbLine
 62
7
  6
CONTINUOUS
 10
2.6025057621
 20
4.3248453095
 11
2.5875057621
 21
4.3248453095
  0
LINE
  5
332
100
AcDbEntity
  8
0
100
AcDbLine
 62
7
  6
CONTINUOUS
 10
3.0605057621
 20
4.326440819
 11
2.6458070323
 21
4.326440819
  0
LINE
  5
333
100
AcDbEntity
  8
0
100
AcDbLine
 62
7
  6
CONTINUOUS
 10
3.0605057621
 20
4.3380756549
 11
2.642661416
 21
4.3380756549
  0
LINE
  5
334
100
AcDbEntity
  8
0
100
AcDbLine
 62
7
  6
CONTINUOUS
 10
2.6025057621
 20
4.3389808363
 11
2.5875057621
 21
4.3389808363
  0
LINE
  5
335
100
AcDbEntity
  8
03__ASM_ALL_CURVES
100
AcDbLine
 62
40
  6
CONTINUOUS
 10
8.7421295902
 20
4.3472071826
 11
8.7310225589
 21
4.3472071826
  0
LINE
  5
336
100
AcDbEntity
  8
0
100
AcDbLine
 62
7
  6
CONTINUOUS
 10
2.6025057621
 20
4.3489730152
 11
2.5875057621
 21
4.3489730152
  0
LINE
  5
337
100
AcDbEntity
  8
0
100
AcDbLine
 62
7
  6
CONTINUOUS
 10
2.6025057621
 20
4.3555279284
 11
2.5875057621
 21
4.3555279284
  0
LINE
  5
338
100
AcDbEntity
  8
0
100
AcDbLine
 62
7
  6
CONTINUOUS
 10
2.6025057621
 20
4.3695059066
 11
2.5875057621
 21
4.3695059066
  0
LINE
  5
339
100
AcDbEntity
  8
0
100
AcDbLine
 62
7
  6
CONTINUOUS
 10
2.6025057621
 20
4.3744480472
 11
2.5875057621
 21
4.3744480472
  0
LINE
  5
33A
100
AcDbEntity
  8
0
100
AcDbLine
 62
7
  6
CONTINUOUS
 10
2.6025057621
 20
4.3848361701
 11
2.5875057621
 21
4.3848361701
  0
LINE
  5
33B
100
AcDbEntity
  8
03__ASM_ALL_CURVES
100
AcDbLine
 62
40
  6
CONTINUOUS
 10
8.8309858402
 20
4.3916353076
 11
8.8032182621
 21
4.3916353076
  0
LINE
  5
33C
100
AcDbEntity
  8
03__ASM_ALL_CURVES
100
AcDbLine
 62
40
  6
CONTINUOUS
 10
8.6532733402
 20
4.3916353076
 11
8.6255057621
 21
4.3916353076
  0
LINE
  5
33D
100
AcDbEntity
  8
0
100
AcDbLine
 62
7
  6
CONTINUOUS
 10
2.6025057621
 20
4.4003490948
 11
2.5875057621
 21
4.4003490948
  0
LINE
  5
33E
100
AcDbEntity
  8
0
100
AcDbLine
 62
7
  6
CONTINUOUS
 10
2.6025057621
 20
4.40753553
 11
2.5875057621
 21
4.40753553
  0
LINE
  5
33F
100
AcDbEntity
  8
0
100
AcDbLine
 62
7
  6
CONTINUOUS
 10
2.6025057621
 20
4.4157504081
 11
2.5875057621
 21
4.4157504081
  0
LINE
  5
340
100
AcDbEntity
  8
0
100
AcDbLine
 62
7
  6
CONTINUOUS
 10
2.6025057621
 20
4.4308726744
 11
2.5875057621
 21
4.4308726744
  0
LINE
  5
341
100
AcDbEntity
  8
0
100
AcDbLine
 62
7
  6
CONTINUOUS
 10
2.6025057621
 20
4.4315158297
 11
2.5875057621
 21
4.4315158297
  0
LINE
  5
342
100
AcDbEntity
  8
03__ASM_ALL_CURVES
100
AcDbLine
 62
40
  6
CONTINUOUS
 10
8.6255057621
 20
4.4360634326
 11
8.6532733402
 21
4.4360634326
  0
LINE
  5
343
100
AcDbEntity
  8
03__ASM_ALL_CURVES
100
AcDbLine
 62
40
  6
CONTINUOUS
 10
8.7310225589
 20
4.4360634326
 11
8.7421295902
 21
4.4360634326
  0
LINE
  5
344
100
AcDbEntity
  8
03__ASM_ALL_CURVES
100
AcDbLine
 62
40
  6
CONTINUOUS
 10
8.8032182621
 20
4.4360634326
 11
8.8309858402
 21
4.4360634326
  0
LINE
  5
345
100
AcDbEntity
  8
03__ASM_ALL_CURVES
100
AcDbLine
 62
40
  6
CONTINUOUS
 10
8.8865209964
 20
4.4360634326
 11
8.9420561527
 21
4.4360634326
  0
LINE
  5
346
100
AcDbEntity
  8
0
100
AcDbLine
 62
7
  6
CONTINUOUS
 10
2.6025057621
 20
4.4500824751
 11
2.5875057621
 21
4.4500824751
  0
LINE
  5
347
100
AcDbEntity
  8
0
100
AcDbLine
 62
7
  6
CONTINUOUS
 10
2.6025057621
 20
4.494215045
 11
2.5875057621
 21
4.494215045
  0
LINE
  5
348
100
AcDbEntity
  8
0
100
AcDbLine
 62
7
  6
CONTINUOUS
 10
2.6025057621
 20
4.5028180122
 11
2.5875057621
 21
4.5028180122
  0
LINE
  5
349
100
AcDbEntity
  8
0
100
AcDbLine
 62
7
  6
CONTINUOUS
 10
2.6025057621
 20
4.5091356969
 11
2.5875057621
 21
4.5091356969
  0
LINE
  5
34A
100
AcDbEntity
  8
0
100
AcDbLine
 62
7
  6
CONTINUOUS
 10
7.5600057621
 20
4.511867665
 11
7.5200057621
 21
4.511867665
  0
LINE
  5
34B
100
AcDbEntity
  8
0
100
AcDbLine
 62
7
  6
CONTINUOUS
 10
2.6025057621
 20
4.5142130186
 11
2.5875057621
 21
4.5142130186
  0
LINE
  5
34C
100
AcDbEntity
  8
0
100
AcDbLine
 62
7
  6
CONTINUOUS
 10
7.3025057621
 20
4.3510017024
 11
7.3019221965
 21
4.3510121812
  0
LINE
  5
34D
100
AcDbEntity
  8
03__ASM_ALL_CURVES
100
AcDbLine
 62
40
  6
CONTINUOUS
 10
2.7446757621
 20
5.0053651826
 11
2.6025057621
 21
5.0290601826
  0
LINE
  5
34E
100
AcDbEntity
  8
0
100
AcDbLine
 62
2
  6
CONTINUOUS
 10
7.2884626798
 20
4.0088838867
 11
7.3694455173
 21
3.9821814718
  0
LINE
  5
34F
100
AcDbEntity
  8
03__ASM_ALL_CURVES
100
AcDbLine
 62
40
  6
CONTINUOUS
 10
4.7307432621
 20
5.0764501826
 11
4.7159338871
 21
5.0863230996
  0
LINE
  5
350
100
AcDbEntity
  8
03__ASM_ALL_CURVES
100
AcDbLine
 62
40
  6
CONTINUOUS
 10
4.7307432621
 20
5.1949251826
 11
4.7455526371
 21
5.1850522683
  0
LINE
  5
351
100
AcDbEntity
  8
03__ASM_ALL_CURVES
100
AcDbLine
 62
40
  6
CONTINUOUS
 10
7.6095883894
 20
3.3794096826
 11
7.5984813581
 21
3.3868143703
  0
LINE
  5
352
100
AcDbEntity
  8
03__ASM_ALL_CURVES
100
AcDbLine
 62
40
  6
CONTINUOUS
 10
5.2194526371
 20
5.1850522683
 11
5.2268573246
 21
5.1751793469
  0
LINE
  5
353
100
AcDbEntity
  8
03__ASM_ALL_CURVES
100
AcDbLine
 62
40
  6
CONTINUOUS
 10
5.3157135746
 20
5.1949251826
 11
5.3305229496
 21
5.1751793469
  0
LINE
  5
354
100
AcDbEntity
  8
03__ASM_ALL_CURVES
100
AcDbLine
 62
40
  6
CONTINUOUS
 10
7.0411360752
 20
5.1653064326
 11
7.0559454502
 21
5.1850522683
  0
LINE
  5
355
100
AcDbEntity
  8
03__ASM_ALL_CURVES
100
AcDbLine
 62
40
  6
CONTINUOUS
 10
7.7667954502
 20
5.1850522683
 11
7.7816048252
 21
5.1949251826
  0
LINE
  5
356
100
AcDbEntity
  8
03__ASM_ALL_CURVES
100
AcDbLine
 62
40
  6
CONTINUOUS
 10
7.8112235752
 20
5.0863230996
 11
7.7964142002
 21
5.0764501826
  0
LINE
  5
357
100
AcDbEntity
  8
03__ASM_ALL_CURVES
100
AcDbLine
 62
40
  6
CONTINUOUS
 10
8.0185548252
 20
5.1949251826
 11
8.0037454502
 21
5.1850522683
  0
LINE
  5
358
100
AcDbEntity
  8
0
100
AcDbLine
 62
7
  6
CONTINUOUS
 10
2.6025057621
 20
4.5413329126
 11
2.5875057621
 21
4.5413329126
  0
LINE
  5
359
100
AcDbEntity
  8
0
100
AcDbLine
 62
7
  6
CONTINUOUS
 10
2.6025057621
 20
4.5706900326
 11
2.5875057621
 21
4.5706900326
  0
LINE
  5
35A
100
AcDbEntity
  8
0
100
AcDbLine
 62
7
  6
CONTINUOUS
 10
2.6025057621
 20
4.5821880881
 11
2.5875057621
 21
4.5821880881
  0
LINE
  5
35B
100
AcDbEntity
  8
0
100
AcDbLine
 62
7
  6
CONTINUOUS
 10
2.6025057621
 20
4.5931631317
 11
2.5875057621
 21
4.5931631317
  0
LINE
  5
35C
100
AcDbEntity
  8
0
100
AcDbLine
 62
7
  6
CONTINUOUS
 10
2.642661416
 20
4.5955825496
 11
3.0605057621
 21
4.5955825496
  0
LINE
  5
35D
100
AcDbEntity
  8
0
100
AcDbLine
 62
7
  6
CONTINUOUS
 10
2.6025057621
 20
4.6081747405
 11
2.5875057621
 21
4.6081747405
  0
LINE
  5
35E
100
AcDbEntity
  8
0
100
AcDbLine
 62
7
  6
CONTINUOUS
 10
2.6458070323
 20
4.60847218
 11
3.0605057621
 21
4.60847218
  0
LINE
  5
35F
100
AcDbEntity
  8
0
100
AcDbLine
 62
7
  6
CONTINUOUS
 10
3.0605057621
 20
4.613544727
 11
2.6458070323
 21
4.613544727
  0
LINE
  5
360
100
AcDbEntity
  8
0
100
AcDbLine
 62
7
  6
CONTINUOUS
 10
6.3075057621
 20
4.6160010713
 11
5.4111164333
 21
4.6160010713
  0
LINE
  5
361
100
AcDbEntity
  8
0
100
AcDbLine
 62
7
  6
CONTINUOUS
 10
2.6025057621
 20
4.6185662984
 11
2.5875057621
 21
4.6185662984
  0
LINE
  5
362
100
AcDbEntity
  8
0
100
AcDbLine
 62
7
  6
CONTINUOUS
 10
3.0605057621
 20
4.6208072235
 11
2.642661416
 21
4.6208072235
  0
LINE
  5
363
100
AcDbEntity
  8
0
100
AcDbLine
 62
7
  6
CONTINUOUS
 10
2.6025057621
 20
4.6313853877
 11
2.5875057621
 21
4.6313853877
  0
LINE
  5
364
100
AcDbEntity
  8
0
100
AcDbLine
 62
7
  6
CONTINUOUS
 10
2.6025057621
 20
4.6417769455
 11
2.5875057621
 21
4.6417769455
  0
LINE
  5
365
100
AcDbEntity
  8
0
100
AcDbLine
 62
7
  6
CONTINUOUS
 10
5.1655057621
 20
4.6540121826
 11
5.092006596
 21
4.6540121826
  0
LINE
  5
366
100
AcDbEntity
  8
0
100
AcDbLine
 62
7
  6
CONTINUOUS
 10
2.6025057621
 20
4.6549941191
 11
2.5875057621
 21
4.6549941191
  0
LINE
  5
367
100
AcDbEntity
  8
0
100
AcDbLine
 62
7
  6
CONTINUOUS
 10
5.4111164333
 20
4.6644070279
 11
6.3075057621
 21
4.6644070279
  0
LINE
  5
368
100
AcDbEntity
  8
0
100
AcDbLine
 62
7
  6
CONTINUOUS
 10
2.6025057621
 20
4.6749759515
 11
2.5875057621
 21
4.6749759515
  0
LINE
  5
369
100
AcDbEntity
  8
0
100
AcDbLine
 62
7
  6
CONTINUOUS
 10
7.7547900333
 20
4.6940121826
 11
7.9098010028
 21
4.6940121826
  0
LINE
  5
36A
100
AcDbEntity
  8
0
100
AcDbLine
 62
7
  6
CONTINUOUS
 10
2.6025057621
 20
4.695302776
 11
2.5875057621
 21
4.695302776
  0
LINE
  5
36B
100
AcDbEntity
  8
0
100
AcDbLine
 62
7
  6
CONTINUOUS
 10
3.4025057621
 20
4.6975121826
 11
5.0461796089
 21
4.6975121826
  0
LINE
  5
36C
100
AcDbEntity
  8
0
100
AcDbLine
 62
7
  6
CONTINUOUS
 10
5.1755057621
 20
4.6975121826
 11
5.3555057621
 21
4.6975121826
  0
LINE
  5
36D
100
AcDbEntity
  8
0
100
AcDbLine
 62
7
  6
CONTINUOUS
 10
2.6025057621
 20
4.7042420278
 11
2.5875057621
 21
4.7042420278
  0
LINE
  5
36E
100
AcDbEntity
  8
0
100
AcDbLine
 62
7
  6
CONTINUOUS
 10
2.6025057621
 20
4.7049223195
 11
2.5875057621
 21
4.7049223195
  0
LINE
  5
36F
100
AcDbEntity
  8
0
100
AcDbLine
 62
7
  6
CONTINUOUS
 10
8.2785057621
 20
4.7055121826
 11
8.3085057621
 21
4.7055121826
  0
LINE
  5
370
100
AcDbEntity
  8
0
100
AcDbLine
 62
7
  6
CONTINUOUS
 10
2.6025057621
 20
4.7288139807
 11
2.5875057621
 21
4.7288139807
  0
LINE
  5
371
100
AcDbEntity
  8
0
100
AcDbLine
 62
7
  6
CONTINUOUS
 10
2.6025057621
 20
4.7377038589
 11
2.5875057621
 21
4.7377038589
  0
LINE
  5
372
100
AcDbEntity
  8
0
100
AcDbLine
 62
7
  6
CONTINUOUS
 10
2.6025057621
 20
4.7436624765
 11
2.5875057621
 21
4.7436624765
  0
LINE
  5
373
100
AcDbEntity
  8
0
100
AcDbLine
 62
7
  6
CONTINUOUS
 10
2.6025057621
 20
4.7495782323
 11
2.5875057621
 21
4.7495782323
  0
LINE
  5
374
100
AcDbEntity
  8
0
100
AcDbLine
 62
7
  6
CONTINUOUS
 10
2.6025057621
 20
4.7553868149
 11
2.5875057621
 21
4.7553868149
  0
LINE
  5
375
100
AcDbEntity
  8
0
100
AcDbLine
 62
7
  6
CONTINUOUS
 10
8.1085057621
 20
4.7595121826
 11
8.1585057621
 21
4.7595121826
  0
LINE
  5
376
100
AcDbEntity
  8
0
100
AcDbLine
 62
7
  6
CONTINUOUS
 10
8.2285057621
 20
4.7595121826
 11
8.2785057621
 21
4.7595121826
  0
LINE
  5
377
100
AcDbEntity
  8
0
100
AcDbLine
 62
7
  6
CONTINUOUS
 10
7.6305058185
 20
4.7600121826
 11
7.6805057621
 21
4.7600121826
  0
LINE
  5
378
100
AcDbEntity
  8
0
100
AcDbLine
 62
7
  6
CONTINUOUS
 10
8.0515057621
 20
4.7600121826
 11
8.1085057621
 21
4.7600121826
  0
LINE
  5
379
100
AcDbEntity
  8
0
100
AcDbLine
 62
7
  6
CONTINUOUS
 10
8.3085057621
 20
4.7600121826
 11
8.3505057162
 21
4.7600121826
  0
LINE
  5
37A
100
AcDbEntity
  8
0
100
AcDbLine
 62
7
  6
CONTINUOUS
 10
2.6025057621
 20
4.7616326646
 11
2.5875057621
 21
4.7616326646
  0
LINE
  5
37B
100
AcDbEntity
  8
03__ASM_ALL_CURVES
100
AcDbLine
 62
40
  6
CONTINUOUS
 10
2.7446757621
 20
5.0172126826
 11
2.6025057621
 21
5.0290601826
  0
LINE
  5
37C
100
AcDbEntity
  8
03__ASM_ALL_CURVES
100
AcDbLine
 62
40
  6
CONTINUOUS
 10
2.7446757621
 20
5.0132635159
 11
2.6025057621
 21
5.0290601826
  0
LINE
  5
37D
100
AcDbEntity
  8
03__ASM_ALL_CURVES
100
AcDbLine
 62
40
  6
CONTINUOUS
 10
2.7446757621
 20
5.0093143493
 11
2.6025057621
 21
5.0290601826
  0
LINE
  5
37E
100
AcDbEntity
  8
0
100
AcDbLine
 62
2
  6
CONTINUOUS
 10
7.3021849331
 20
3.8721617876
 11
7.3694455173
 21
3.8407976621
  0
LINE
  5
37F
100
AcDbEntity
  8
0
100
AcDbLine
 62
7
  6
CONTINUOUS
 10
7.4005057621
 20
3.8720121826
 11
7.4294566055
 21
3.8585121826
  0
LINE
  5
380
100
AcDbEntity
  8
03__ASM_ALL_CURVES
100
AcDbLine
 62
40
  6
CONTINUOUS
 10
5.0861682621
 20
5.0764501826
 11
5.0713588871
 21
5.0863230996
  0
LINE
  5
381
100
AcDbEntity
  8
03__ASM_ALL_CURVES
100
AcDbLine
 62
40
  6
CONTINUOUS
 10
7.6984446394
 20
3.3794096826
 11
7.6873376081
 21
3.3868143703
  0
LINE
  5
382
100
AcDbEntity
  8
03__ASM_ALL_CURVES
100
AcDbLine
 62
40
  6
CONTINUOUS
 10
5.2046432621
 20
5.0764501826
 11
5.1898338871
 21
5.0863230996
  0
LINE
  5
383
100
AcDbEntity
  8
03__ASM_ALL_CURVES
100
AcDbLine
 62
40
  6
CONTINUOUS
 10
7.6206954206
 20
3.4682659326
 11
7.6318024519
 21
3.4608612469
  0
LINE
  5
384
100
AcDbEntity
  8
03__ASM_ALL_CURVES
100
AcDbLine
 62
40
  6
CONTINUOUS
 10
5.0861682621
 20
5.1949251826
 11
5.1009776371
 21
5.1850522683
  0
LINE
  5
385
100
AcDbEntity
  8
03__ASM_ALL_CURVES
100
AcDbLine
 62
40
  6
CONTINUOUS
 10
5.2046432621
 20
5.1949251826
 11
5.2194526371
 21
5.1850522683
  0
LINE
  5
386
100
AcDbEntity
  8
03__ASM_ALL_CURVES
100
AcDbLine
 62
40
  6
CONTINUOUS
 10
7.7400960038
 20
3.5156559326
 11
7.7289889725
 21
3.5230606203
  0
LINE
  5
387
100
AcDbEntity
  8
03__ASM_ALL_CURVES
100
AcDbLine
 62
40
  6
CONTINUOUS
 10
7.662346785
 20
3.6045121826
 11
7.6734538163
 21
3.5971074969
  0
LINE
  5
388
100
AcDbEntity
  8
0
100
AcDbLine
 62
7
  6
CONTINUOUS
 10
6.3075057621
 20
3.6895121826
 11
6.3075057621
 21
3.6901284486
  0
LINE
  5
389
100
AcDbEntity
  8
0
100
AcDbLine
 62
7
  6
CONTINUOUS
 10
6.3075057621
 20
3.9826173373
 11
6.3075057621
 21
4.0310232939
  0
LINE
  5
38A
100
AcDbEntity
  8
0
100
AcDbLine
 62
7
  6
CONTINUOUS
 10
6.3075057621
 20
4.6160010713
 11
6.3075057621
 21
4.6644070279
  0
LINE
  5
38B
100
AcDbEntity
  8
0
100
AcDbLine
 62
7
  6
CONTINUOUS
 10
6.3075057621
 20
4.9568959166
 11
6.3075057621
 21
4.9575121826
  0
LINE
  5
38C
100
AcDbEntity
  8
0
100
AcDbLine
 62
7
  6
CONTINUOUS
 10
6.4035057621
 20
4.8615121826
 11
6.4035057621
 21
3.7855121826
  0
LINE
  5
38D
100
AcDbEntity
  8
03__ASM_ALL_CURVES
100
AcDbLine
 62
40
  6
CONTINUOUS
 10
7.1151829502
 20
5.1060689326
 11
7.1003735752
 21
5.0863230996
  0
LINE
  5
38E
100
AcDbEntity
  8
03__ASM_ALL_CURVES
100
AcDbLine
 62
40
  6
CONTINUOUS
 10
7.1596110752
 20
5.1653064326
 11
7.1744204502
 21
5.1850522683
  0
LINE
  5
38F
100
AcDbEntity
  8
03__ASM_ALL_CURVES
100
AcDbLine
 62
40
  6
CONTINUOUS
 10
7.2262532627
 20
5.0961960165
 11
7.2188485752
 21
5.0863230996
  0
LINE
  5
390
100
AcDbEntity
  8
03__ASM_ALL_CURVES
100
AcDbLine
 62
40
  6
CONTINUOUS
 10
8.0481735752
 20
5.0863230996
 11
8.0333642002
 21
5.0764501826
  0
LINE
  5
391
100
AcDbEntity
  8
03__ASM_ALL_CURVES
100
AcDbLine
 62
40
  6
CONTINUOUS
 10
8.2406954502
 20
5.1850522683
 11
8.2555048252
 21
5.1949251826
  0
LINE
  5
392
100
AcDbEntity
  8
03__ASM_ALL_CURVES
100
AcDbLine
 62
40
  6
CONTINUOUS
 10
6.5983357621
 20
5.0053651826
 11
6.8826757621
 21
5.0527551826
  0
LINE
  5
393
100
AcDbEntity
  8
03__ASM_ALL_CURVES
100
AcDbLine
 62
40
  6
CONTINUOUS
 10
6.5983357621
 20
5.0093143493
 11
6.8826757621
 21
5.0488060159
  0
LINE
  5
394
100
AcDbEntity
  8
03__ASM_ALL_CURVES
100
AcDbLine
 62
40
  6
CONTINUOUS
 10
6.5983357621
 20
5.0132635159
 11
6.8826757621
 21
5.0448568493
  0
LINE
  5
395
100
AcDbEntity
  8
03__ASM_ALL_CURVES
100
AcDbLine
 62
40
  6
CONTINUOUS
 10
6.5983357621
 20
5.0172126826
 11
6.8826757621
 21
5.0409076826
  0
LINE
  5
396
100
AcDbEntity
  8
03__ASM_ALL_CURVES
100
AcDbLine
 62
40
  6
CONTINUOUS
 10
6.5983357621
 20
5.0211618493
 11
6.8826757621
 21
5.0369585159
  0
LINE
  5
397
100
AcDbEntity
  8
0
100
AcDbLine
 62
7
  6
CONTINUOUS
 10
2.6025057621
 20
4.7734471691
 11
2.5875057621
 21
4.7734471691
  0
LINE
  5
398
100
AcDbEntity
  8
0
100
AcDbLine
 62
7
  6
CONTINUOUS
 10
7.3675763056
 20
4.7750121826
 11
7.4005057621
 21
4.7750121826
  0
LINE
  5
399
100
AcDbEntity
  8
0
100
AcDbLine
 62
7
  6
CONTINUOUS
 10
7.4829566055
 20
4.7750121826
 11
7.5995056122
 21
4.7750121826
  0
LINE
  5
39A
100
AcDbEntity
  8
0
100
AcDbLine
 62
7
  6
CONTINUOUS
 10
6.9075057621
 20
4.7815121826
 11
6.9275057621
 21
4.7815121826
  0
LINE
  5
39B
100
AcDbEntity
  8
0
100
AcDbLine
 62
7
  6
CONTINUOUS
 10
7.4294566055
 20
4.7885121826
 11
7.4694566055
 21
4.7885121826
  0
LINE
  5
39C
100
AcDbEntity
  8
0
100
AcDbLine
 62
7
  6
CONTINUOUS
 10
2.642661416
 20
4.8093153538
 11
3.0605057621
 21
4.8093153538
  0
LINE
  5
39D
100
AcDbEntity
  8
0
100
AcDbLine
 62
7
  6
CONTINUOUS
 10
6.9494450723
 20
4.8195121826
 11
7.2580057621
 21
4.8195121826
  0
LINE
  5
39E
100
AcDbEntity
  8
0
100
AcDbLine
 62
7
  6
CONTINUOUS
 10
2.6458070323
 20
4.8200060125
 11
3.0605057621
 21
4.8200060125
  0
LINE
  5
39F
100
AcDbEntity
  8
0
100
AcDbLine
 62
7
  6
CONTINUOUS
 10
3.0605057621
 20
4.822934649
 11
2.6458070323
 21
4.822934649
  0
LINE
  5
3A0
100
AcDbEntity
  8
0
100
AcDbLine
 62
7
  6
CONTINUOUS
 10
3.0605057621
 20
4.8249062368
 11
2.6458070323
 21
4.8249062368
  0
LINE
  5
3A1
100
AcDbEntity
  8
0
100
AcDbLine
 62
7
  6
CONTINUOUS
 10
6.8575057621
 20
4.8355121826
 11
6.9075057621
 21
4.8355121826
  0
LINE
  5
3A2
100
AcDbEntity
  8
0
100
AcDbLine
 62
7
  6
CONTINUOUS
 10
6.7660942193
 20
4.8375121826
 11
6.7875057621
 21
4.8375121826
  0
LINE
  5
3A3
100
AcDbEntity
  8
0
100
AcDbLine
 62
7
  6
CONTINUOUS
 10
6.4035057621
 20
4.8615121826
 11
6.7375057621
 21
4.8615121826
  0
LINE
  5
3A4
100
AcDbEntity
  8
0
100
AcDbLine
 62
7
  6
CONTINUOUS
 10
2.642661416
 20
4.8928775906
 11
3.0605057621
 21
4.8928775906
  0
LINE
  5
3A5
100
AcDbEntity
  8
0
100
AcDbLine
 62
7
  6
CONTINUOUS
 10
2.6458070323
 20
4.8985047244
 11
3.0605057621
 21
4.8985047244
  0
LINE
  5
3A6
100
AcDbEntity
  8
0
100
AcDbLine
 62
7
  6
CONTINUOUS
 10
3.3695057621
 20
4.8985121826
 11
3.0605057621
 21
4.8985121826
  0
LINE
  5
3A7
100
AcDbEntity
  8
0
100
AcDbLine
 62
7
  6
CONTINUOUS
 10
6.3075057621
 20
4.9568959166
 11
5.4111164333
 21
4.9568959166
  0
LINE
  5
3A8
100
AcDbEntity
  8
0
100
AcDbLine
 62
7
  6
CONTINUOUS
 10
5.4111164333
 20
4.9575121826
 11
6.3075057621
 21
4.9575121826
  0
LINE
  5
3A9
100
AcDbEntity
  8
03__ASM_ALL_CURVES
100
AcDbLine
 62
40
  6
CONTINUOUS
 10
2.7446757621
 20
5.0251110159
 11
2.6025057621
 21
5.0290601826
  0
LINE
  5
3AA
100
AcDbEntity
  8
03__ASM_ALL_CURVES
100
AcDbLine
 62
40
  6
CONTINUOUS
 10
2.7446757621
 20
5.0211618493
 11
2.6025057621
 21
5.0290601826
  0
LINE
  5
3AB
100
AcDbEntity
  8
03__ASM_ALL_CURVES
100
AcDbLine
 62
40
  6
CONTINUOUS
 10
5.0861682621
 20
5.1258147648
 11
5.0639541996
 21
5.1356876826
  0
LINE
  5
3AC
100
AcDbEntity
  8
03__ASM_ALL_CURVES
100
AcDbLine
 62
40
  6
CONTINUOUS
 10
7.751203035
 20
3.6045121826
 11
7.7623100663
 21
3.5971074969
  0
LINE
  5
3AD
100
AcDbEntity
  8
03__ASM_ALL_CURVES
100
AcDbLine
 62
40
  6
CONTINUOUS
 10
7.840059285
 20
3.6045121826
 11
7.8511663163
 21
3.5971074969
  0
LINE
  5
3AE
100
AcDbEntity
  8
03__ASM_ALL_CURVES
100
AcDbLine
 62
40
  6
CONTINUOUS
 10
8.017771785
 20
3.6045121826
 11
8.0288788163
 21
3.5971074969
  0
LINE
  5
3AF
100
AcDbEntity
  8
03__ASM_ALL_CURVES
100
AcDbLine
 62
40
  6
CONTINUOUS
 10
6.5983357621
 20
5.0527551826
 11
6.5983357621
 21
5.0053651826
  0
LINE
  5
3B0
100
AcDbEntity
  8
0
100
AcDbLine
 62
7
  6
CONTINUOUS
 10
6.9275057621
 20
4.7815121826
 11
6.9494450723
 21
4.8195121826
  0
LINE
  5
3B1
100
AcDbEntity
  8
0
100
AcDbLine
 62
7
  6
CONTINUOUS
 10
6.4035057621
 20
3.7855121826
 11
6.3078138951
 21
3.6898203156
  0
LINE
  5
3B2
100
AcDbEntity
  8
03__ASM_ALL_CURVES
100
AcDbLine
 62
40
  6
CONTINUOUS
 10
8.2851235752
 20
5.0863230996
 11
8.2703142002
 21
5.0764501826
  0
LINE
  5
3B3
100
AcDbEntity
  8
03__ASM_ALL_CURVES
100
AcDbLine
 62
40
  6
CONTINUOUS
 10
8.4035985752
 20
5.0863230996
 11
8.3887892002
 21
5.0764501826
  0
LINE
  5
3B4
100
AcDbEntity
  8
03__ASM_ALL_CURVES
100
AcDbLine
 62
40
  6
CONTINUOUS
 10
8.6331438877
 20
5.0863230996
 11
8.6183345127
 21
5.0764501826
  0
LINE
  5
3B5
100
AcDbEntity
  8
0
100
AcDbLine
 62
7
  6
CONTINUOUS
 10
6.7635942193
 20
3.8088423096
 11
6.7430057621
 21
3.7969555583
  0
LINE
  5
3B6
100
AcDbEntity
  8
03__ASM_ALL_CURVES
100
AcDbLine
 62
40
  6
CONTINUOUS
 10
2.7446757621
 20
5.0369585159
 11
2.6025057621
 21
5.0290601826
  0
LINE
  5
3B7
100
AcDbEntity
  8
03__ASM_ALL_CURVES
100
AcDbLine
 62
40
  6
CONTINUOUS
 10
6.5983357621
 20
5.0251110159
 11
6.8826757621
 21
5.0330093493
  0
LINE
  5
3B8
100
AcDbEntity
  8
03__ASM_ALL_CURVES
100
AcDbLine
 62
40
  6
CONTINUOUS
 10
2.7446757621
 20
5.0330093493
 11
2.6025057621
 21
5.0290601826
  0
LINE
  5
3B9
100
AcDbEntity
  8
03__ASM_ALL_CURVES
100
AcDbLine
 62
40
  6
CONTINUOUS
 10
2.6025057621
 20
5.0290601826
 11
9.0152257621
 21
5.0290601826
  0
LINE
  5
3BA
100
AcDbEntity
  8
03__ASM_ALL_CURVES
100
AcDbLine
 62
40
  6
CONTINUOUS
 10
8.7664282627
 20
5.0764501826
 11
8.7071907627
 21
5.0764501826
  0
LINE
  5
3BB
100
AcDbEntity
  8
03__ASM_ALL_CURVES
100
AcDbLine
 62
40
  6
CONTINUOUS
 10
8.6183345127
 20
5.0764501826
 11
8.5887157627
 21
5.0764501826
  0
LINE
  5
3BC
100
AcDbEntity
  8
03__ASM_ALL_CURVES
100
AcDbLine
 62
40
  6
CONTINUOUS
 10
8.3887892002
 20
5.0764501826
 11
8.3739798252
 21
5.0764501826
  0
LINE
  5
3BD
100
AcDbEntity
  8
03__ASM_ALL_CURVES
100
AcDbLine
 62
40
  6
CONTINUOUS
 10
8.2703142002
 20
5.0764501826
 11
8.2555048252
 21
5.0764501826
  0
LINE
  5
3BE
100
AcDbEntity
  8
03__ASM_ALL_CURVES
100
AcDbLine
 62
40
  6
CONTINUOUS
 10
8.0333642002
 20
5.0764501826
 11
8.0185548252
 21
5.0764501826
  0
LINE
  5
3BF
100
AcDbEntity
  8
03__ASM_ALL_CURVES
100
AcDbLine
 62
40
  6
CONTINUOUS
 10
7.7964142002
 20
5.0764501826
 11
7.7816048252
 21
5.0764501826
  0
LINE
  5
3C0
100
AcDbEntity
  8
03__ASM_ALL_CURVES
100
AcDbLine
 62
40
  6
CONTINUOUS
 10
7.2040392002
 20
5.0764501826
 11
7.1892298252
 21
5.0764501826
  0
LINE
  5
3C1
100
AcDbEntity
  8
03__ASM_ALL_CURVES
100
AcDbLine
 62
40
  6
CONTINUOUS
 10
7.0855642002
 20
5.0764501826
 11
7.0707548252
 21
5.0764501826
  0
LINE
  5
3C2
100
AcDbEntity
  8
03__ASM_ALL_CURVES
100
AcDbLine
 62
40
  6
CONTINUOUS
 10
4.9676932621
 20
5.0764501826
 11
4.9602885746
 21
5.0764501826
  0
LINE
  5
3C3
100
AcDbEntity
  8
03__ASM_ALL_CURVES
100
AcDbLine
 62
40
  6
CONTINUOUS
 10
4.3827229496
 20
5.0764501826
 11
4.3679135746
 21
5.0764501826
  0
LINE
  5
3C4
100
AcDbEntity
  8
03__ASM_ALL_CURVES
100
AcDbLine
 62
40
  6
CONTINUOUS
 10
4.1383682621
 20
5.0764501826
 11
4.1309635746
 21
5.0764501826
  0
LINE
  5
3C5
100
AcDbEntity
  8
03__ASM_ALL_CURVES
100
AcDbLine
 62
40
  6
CONTINUOUS
 10
6.9300657627
 20
5.0764501826
 11
6.9893032627
 21
5.0764501826
  0
LINE
  5
3C6
100
AcDbEntity
  8
03__ASM_ALL_CURVES
100
AcDbLine
 62
40
  6
CONTINUOUS
 10
8.4702407627
 20
5.0764501826
 11
8.5294782627
 21
5.0764501826
  0
LINE
  5
3C7
100
AcDbEntity
  8
03__ASM_ALL_CURVES
100
AcDbLine
 62
40
  6
CONTINUOUS
 10
3.9902745121
 20
5.1060689326
 11
4.0569166996
 21
5.1060689326
  0
LINE
  5
3C8
100
AcDbEntity
  8
03__ASM_ALL_CURVES
100
AcDbLine
 62
40
  6
CONTINUOUS
 10
4.8195995121
 20
5.1060689326
 11
4.8862416996
 21
5.1060689326
  0
LINE
  5
3C9
100
AcDbEntity
  8
03__ASM_ALL_CURVES
100
AcDbLine
 62
40
  6
CONTINUOUS
 10
7.2928954502
 20
5.1159418504
 11
7.3373235752
 21
5.1159418504
  0
LINE
  5
3CA
100
AcDbEntity
  8
03__ASM_ALL_CURVES
100
AcDbLine
 62
40
  6
CONTINUOUS
 10
8.8626892002
 20
5.1356876826
 11
8.8256657627
 21
5.1356876826
  0
LINE
  5
3CB
100
AcDbEntity
  8
03__ASM_ALL_CURVES
100
AcDbLine
 62
40
  6
CONTINUOUS
 10
7.7890095127
 20
5.1356876826
 11
7.8186282627
 21
5.1356876826
  0
LINE
  5
3CC
100
AcDbEntity
  8
03__ASM_ALL_CURVES
100
AcDbLine
 62
40
  6
CONTINUOUS
 10
8.1148157627
 20
5.1356876826
 11
8.1740532627
 21
5.1356876826
  0
LINE
  5
3CD
100
AcDbEntity
  8
03__ASM_ALL_CURVES
100
AcDbLine
 62
40
  6
CONTINUOUS
 10
8.7071907627
 20
5.1356876826
 11
8.7442142002
 21
5.1356876826
  0
LINE
  5
3CE
100
AcDbEntity
  8
03__ASM_ALL_CURVES
100
AcDbLine
 62
40
  6
CONTINUOUS
 10
4.3679135746
 20
5.1455605969
 11
4.3827229496
 21
5.1455605969
  0
LINE
  5
3CF
100
AcDbEntity
  8
03__ASM_ALL_CURVES
100
AcDbLine
 62
40
  6
CONTINUOUS
 10
8.0333642002
 20
5.1949251826
 11
8.0185548252
 21
5.1949251826
  0
LINE
  5
3D0
100
AcDbEntity
  8
03__ASM_ALL_CURVES
100
AcDbLine
 62
40
  6
CONTINUOUS
 10
4.3679135746
 20
5.1949251826
 11
4.3827229496
 21
5.1949251826
  0
LINE
  5
3D1
100
AcDbEntity
  8
03__ASM_ALL_CURVES
100
AcDbLine
 62
40
  6
CONTINUOUS
 10
7.0707548252
 20
5.1949251826
 11
7.0855642002
 21
5.1949251826
  0
LINE
  5
3D2
100
AcDbEntity
  8
03__ASM_ALL_CURVES
100
AcDbLine
 62
40
  6
CONTINUOUS
 10
7.1892298252
 20
5.1949251826
 11
7.2040392002
 21
5.1949251826
  0
LINE
  5
3D3
100
AcDbEntity
  8
03__ASM_ALL_CURVES
100
AcDbLine
 62
40
  6
CONTINUOUS
 10
7.3965610752
 20
5.1949251826
 11
7.4706079502
 21
5.1949251826
  0
LINE
  5
3D4
100
AcDbEntity
  8
03__ASM_ALL_CURVES
100
AcDbLine
 62
40
  6
CONTINUOUS
 10
7.7816048252
 20
5.1949251826
 11
7.7964142002
 21
5.1949251826
  0
LINE
  5
3D5
100
AcDbEntity
  8
03__ASM_ALL_CURVES
100
AcDbLine
 62
40
  6
CONTINUOUS
 10
8.2555048252
 20
5.1949251826
 11
8.2703142002
 21
5.1949251826
  0
LINE
  5
3D6
100
AcDbEntity
  8
03__ASM_ALL_CURVES
100
AcDbLine
 62
40
  6
CONTINUOUS
 10
8.5887157627
 20
5.1949251826
 11
8.6183345127
 21
5.1949251826
  0
LINE
  5
3D7
100
AcDbEntity
  8
03__ASM_ALL_CURVES
100
AcDbLine
 62
40
  6
CONTINUOUS
 10
8.7071907627
 20
5.1949251826
 11
8.7664282627
 21
5.1949251826
  0
LINE
  5
3D8
100
AcDbEntity
  8
03__ASM_ALL_CURVES
100
AcDbLine
 62
40
  6
CONTINUOUS
 10
8.8256657627
 20
5.1949251826
 11
8.8626892002
 21
5.1949251826
  0
LINE
  5
3D9
100
AcDbEntity
  8
03__ASM_ALL_CURVES
100
AcDbLine
 62
40
  6
CONTINUOUS
 10
6.5983357621
 20
5.0330093493
 11
6.8826757621
 21
5.0251110159
  0
LINE
  5
3DA
100
AcDbEntity
  8
03__ASM_ALL_CURVES
100
AcDbLine
 62
40
  6
CONTINUOUS
 10
6.5983357621
 20
5.0369585159
 11
6.8826757621
 21
5.0211618493
  0
LINE
  5
3DB
100
AcDbEntity
  8
03__ASM_ALL_CURVES
100
AcDbLine
 62
40
  6
CONTINUOUS
 10
6.5983357621
 20
5.0409076826
 11
6.8826757621
 21
5.0172126826
  0
LINE
  5
3DC
100
AcDbEntity
  8
03__ASM_ALL_CURVES
100
AcDbLine
 62
40
  6
CONTINUOUS
 10
6.5983357621
 20
5.0448568493
 11
6.8826757621
 21
5.0132635159
  0
LINE
  5
3DD
100
AcDbEntity
  8
03__ASM_ALL_CURVES
100
AcDbLine
 62
40
  6
CONTINUOUS
 10
6.5983357621
 20
5.0488060159
 11
6.8826757621
 21
5.0093143493
  0
LINE
  5
3DE
100
AcDbEntity
  8
03__ASM_ALL_CURVES
100
AcDbLine
 62
40
  6
CONTINUOUS
 10
6.8826757621
 20
5.0053651826
 11
6.5983357621
 21
5.0527551826
  0
LINE
  5
3DF
100
AcDbEntity
  8
0
100
AcDbLine
 62
7
  6
CONTINUOUS
 10
6.4035057621
 20
4.8615121826
 11
6.3075057621
 21
4.9575121826
  0
LINE
  5
3E0
100
AcDbEntity
  8
03__ASM_ALL_CURVES
100
AcDbLine
 62
40
  6
CONTINUOUS
 10
7.5984813581
 20
3.3868143703
 11
7.5873743269
 21
3.4016237451
  0
LINE
  5
3E1
100
AcDbEntity
  8
0
100
AcDbLine
 62
7
  6
CONTINUOUS
 10
6.9275057621
 20
3.8655121826
 11
6.9494450723
 21
3.8275121826
  0
LINE
  5
3E2
100
AcDbEntity
  8
0
100
AcDbLine
 62
7
  6
CONTINUOUS
 10
6.7375057621
 20
3.7855121826
 11
6.7375057621
 21
4.8615121826
  0
LINE
  5
3E3
100
AcDbEntity
  8
0
100
AcDbLine
 62
7
  6
CONTINUOUS
 10
6.7405057621
 20
4.8585121826
 11
6.7405057621
 21
3.7885121826
  0
LINE
  5
3E4
100
AcDbEntity
  8
03__ASM_ALL_CURVES
100
AcDbLine
 62
40
  6
CONTINUOUS
 10
6.7405057621
 20
4.8585121826
 11
6.7405057621
 21
5.0764501826
  0
LINE
  5
3E5
100
AcDbEntity
  8
0
100
AcDbLine
 62
7
  6
CONTINUOUS
 10
6.7430057621
 20
4.8500688069
 11
6.7430057621
 21
3.7969555583
  0
LINE
  5
3E6
100
AcDbEntity
  8
0
100
AcDbLine
 62
7
  6
CONTINUOUS
 10
6.7635942193
 20
3.8088423096
 11
6.7635942193
 21
4.8381820556
  0
LINE
  5
3E7
100
AcDbEntity
  8
0
100
AcDbLine
 62
7
  6
CONTINUOUS
 10
6.7660942193
 20
4.8375121826
 11
6.7660942193
 21
3.8095121826
  0
LINE
  5
3E8
100
AcDbEntity
  8
0
100
AcDbLine
 62
7
  6
CONTINUOUS
 10
6.7875057621
 20
3.8095127254
 11
6.7875057621
 21
4.8375116398
  0
LINE
  5
3E9
100
AcDbEntity
  8
0
100
AcDbLine
 62
7
  6
CONTINUOUS
 10
6.8575057621
 20
3.8115121826
 11
6.8575057621
 21
4.8355121826
  0
LINE
  5
3EA
100
AcDbEntity
  8
03__ASM_ALL_CURVES
100
AcDbLine
 62
40
  6
CONTINUOUS
 10
6.8826757621
 20
5.0527551826
 11
6.8826757621
 21
5.0053651826
  0
LINE
  5
3EB
100
AcDbEntity
  8
0
100
AcDbLine
 62
7
  6
CONTINUOUS
 10
6.9075057621
 20
3.8115121826
 11
6.9075057621
 21
4.8355121826
  0
LINE
  5
3EC
100
AcDbEntity
  8
0
100
AcDbLine
 62
7
  6
CONTINUOUS
 10
6.9275057621
 20
3.8655121826
 11
6.9275057621
 21
4.7815121826
  0
LINE
  5
3ED
100
AcDbEntity
  8
03__ASM_ALL_CURVES
100
AcDbLine
 62
40
  6
CONTINUOUS
 10
6.9300657627
 20
5.1949251826
 11
6.9300657627
 21
5.0764501826
  0
LINE
  5
3EE
100
AcDbEntity
  8
03__ASM_ALL_CURVES
100
AcDbLine
 62
40
  6
CONTINUOUS
 10
7.0337313877
 20
5.1356876826
 11
7.0411360752
 21
5.1653064326
  0
LINE
  5
3EF
100
AcDbEntity
  8
03__ASM_ALL_CURVES
100
AcDbLine
 62
40
  6
CONTINUOUS
 10
7.1225876377
 20
5.1356876826
 11
7.1151829502
 21
5.1060689326
  0
LINE
  5
3F0
100
AcDbEntity
  8
03__ASM_ALL_CURVES
100
AcDbLine
 62
40
  6
CONTINUOUS
 10
7.1522063877
 20
5.1356876826
 11
7.1596110752
 21
5.1653064326
  0
LINE
  5
3F1
100
AcDbEntity
  8
03__ASM_ALL_CURVES
100
AcDbLine
 62
40
  6
CONTINUOUS
 10
7.7519860752
 20
5.1653064326
 11
7.7667954502
 21
5.1850522683
  0
LINE
  5
3F2
100
AcDbEntity
  8
03__ASM_ALL_CURVES
100
AcDbLine
 62
40
  6
CONTINUOUS
 10
7.8186282627
 20
5.0961960165
 11
7.8112235752
 21
5.0863230996
  0
LINE
  5
3F3
100
AcDbEntity
  8
0
100
AcDbLine
 62
7
  6
CONTINUOUS
 10
7.6155057148
 20
4.745012176
 11
7.6305057692
 21
4.7600122319
  0
LINE
  5
3F4
100
AcDbEntity
  8
03__ASM_ALL_CURVES
100
AcDbLine
 62
40
  6
CONTINUOUS
 10
8.8774985752
 20
5.1455605969
 11
8.8626892002
 21
5.1356876826
  0
LINE
  5
3F5
100
AcDbEntity
  8
03__ASM_ALL_CURVES
100
AcDbLine
 62
40
  6
CONTINUOUS
 10
2.7446757621
 20
5.0448568493
 11
2.6025057621
 21
5.0290601826
  0
LINE
  5
3F6
100
AcDbEntity
  8
03__ASM_ALL_CURVES
100
AcDbLine
 62
40
  6
CONTINUOUS
 10
2.7446757621
 20
5.0409076826
 11
2.6025057621
 21
5.0290601826
  0
LINE
  5
3F7
100
AcDbEntity
  8
0
100
AcDbLine
 62
7
  6
CONTINUOUS
 10
6.7635942193
 20
4.8381820556
 11
6.7430057621
 21
4.8500688069
  0
LINE
  5
3F8
100
AcDbEntity
  8
0
100
AcDbLine
 62
7
  6
CONTINUOUS
 10
7.6155057148
 20
3.9020121892
 11
7.6305057692
 21
3.8870121333
  0
LINE
  5
3F9
100
AcDbEntity
  8
03__ASM_ALL_CURVES
100
AcDbLine
 62
40
  6
CONTINUOUS
 10
7.6873376081
 20
3.3868143703
 11
7.6817840925
 21
3.394219058
  0
LINE
  5
3FA
100
AcDbEntity
  8
03__ASM_ALL_CURVES
100
AcDbLine
 62
40
  6
CONTINUOUS
 10
7.6318024519
 20
3.4608612469
 11
7.6429094831
 21
3.4460518701
  0
LINE
  5
3FB
100
AcDbEntity
  8
03__ASM_ALL_CURVES
100
AcDbLine
 62
40
  6
CONTINUOUS
 10
7.7289889725
 20
3.5230606203
 11
7.7178819413
 21
3.5378699951
  0
LINE
  5
3FC
100
AcDbEntity
  8
03__ASM_ALL_CURVES
100
AcDbLine
 62
40
  6
CONTINUOUS
 10
7.6734538163
 20
3.5971074969
 11
7.6790073319
 21
3.5897028058
  0
LINE
  5
3FD
100
AcDbEntity
  8
0
100
AcDbLine
 62
7
  6
CONTINUOUS
 10
6.9494450723
 20
4.8195121826
 11
6.9494450723
 21
3.8275121826
  0
LINE
  5
3FE
100
AcDbEntity
  8
03__ASM_ALL_CURVES
100
AcDbLine
 62
40
  6
CONTINUOUS
 10
7.2780860752
 20
5.0764501826
 11
7.3151095127
 21
5.1949251826
  0
LINE
  5
3FF
100
AcDbEntity
  8
03__ASM_ALL_CURVES
100
AcDbLine
 62
40
  6
CONTINUOUS
 10
8.0037454502
 20
5.1850522683
 11
7.9963407627
 21
5.1751793469
  0
LINE
  5
400
100
AcDbEntity
  8
03__ASM_ALL_CURVES
100
AcDbLine
 62
40
  6
CONTINUOUS
 10
8.0555782627
 20
5.0961960165
 11
8.0481735752
 21
5.0863230996
  0
LINE
  5
401
100
AcDbEntity
  8
0
100
AcDbLine
 62
7
  6
CONTINUOUS
 10
7.2818123608
 20
3.8513187813
 11
7.2580057621
 21
3.8275121826
  0
LINE
  5
402
100
AcDbEntity
  8
03__ASM_ALL_CURVES
100
AcDbLine
 62
40
  6
CONTINUOUS
 10
2.6025057621
 20
5.0290601826
 11
2.7446757621
 21
5.0527551826
  0
LINE
  5
403
100
AcDbEntity
  8
03__ASM_ALL_CURVES
100
AcDbLine
 62
40
  6
CONTINUOUS
 10
2.7446757621
 20
5.0488060159
 11
2.6025057621
 21
5.0290601826
  0
LINE
  5
404
100
AcDbEntity
  8
03__ASM_ALL_CURVES
100
AcDbLine
 62
40
  6
CONTINUOUS
 10
7.0707548252
 20
5.0764501826
 11
7.0559454502
 21
5.0863230996
  0
LINE
  5
405
100
AcDbEntity
  8
03__ASM_ALL_CURVES
100
AcDbLine
 62
40
  6
CONTINUOUS
 10
7.7623100663
 20
3.5971074969
 11
7.7734170975
 21
3.5822981201
  0
LINE
  5
406
100
AcDbEntity
  8
03__ASM_ALL_CURVES
100
AcDbLine
 62
40
  6
CONTINUOUS
 10
7.8511663163
 20
3.5971074969
 11
7.8567198319
 21
3.5897028058
  0
LINE
  5
407
100
AcDbEntity
  8
0
100
AcDbLine
 62
7
  6
CONTINUOUS
 10
7.2580057621
 20
3.8275121826
 11
7.2580057621
 21
4.8195121826
  0
LINE
  5
408
100
AcDbEntity
  8
0
100
AcDbLine
 62
7
  6
CONTINUOUS
 10
7.3025057621
 20
4.7741745577
 11
7.3025057621
 21
4.6616166299
  0
LINE
  5
409
100
AcDbEntity
  8
0
100
AcDbLine
 62
7
  6
CONTINUOUS
 10
7.3025057621
 20
4.6227405782
 11
7.3025057621
 21
4.3510017024
  0
LINE
  5
40A
100
AcDbEntity
  8
0
100
AcDbLine
 62
7
  6
CONTINUOUS
 10
7.3025057621
 20
4.2960226628
 11
7.3025057621
 21
4.024283787
  0
LINE
  5
40B
100
AcDbEntity
  8
0
100
AcDbLine
 62
7
  6
CONTINUOUS
 10
7.3025057621
 20
3.9854077353
 11
7.3025057621
 21
3.8728498075
  0
LINE
  5
40C
100
AcDbEntity
  8
03__ASM_ALL_CURVES
100
AcDbLine
 62
40
  6
CONTINUOUS
 10
8.2258860752
 20
5.1653064326
 11
8.2406954502
 21
5.1850522683
  0
LINE
  5
40D
100
AcDbEntity
  8
03__ASM_ALL_CURVES
100
AcDbLine
 62
40
  6
CONTINUOUS
 10
8.2999329502
 20
5.1060689326
 11
8.2851235752
 21
5.0863230996
  0
LINE
  5
40E
100
AcDbEntity
  8
0
100
AcDbLine
 62
7
  6
CONTINUOUS
 10
7.4829566055
 20
3.8720121826
 11
7.4694566055
 21
3.8585121826
  0
LINE
  5
40F
100
AcDbEntity
  8
0
100
AcDbLine
 62
7
  6
CONTINUOUS
 10
7.6155056364
 20
3.888012451
 11
7.5995054829
 21
3.872012312
  0
LINE
  5
410
100
AcDbEntity
  8
03__ASM_ALL_CURVES
100
AcDbLine
 62
40
  6
CONTINUOUS
 10
8.6643803714
 20
4.3990399933
 11
8.6532733402
 21
4.3916353076
  0
LINE
  5
411
100
AcDbEntity
  8
03__ASM_ALL_CURVES
100
AcDbLine
 62
40
  6
CONTINUOUS
 10
8.7199155277
 20
4.4286587469
 11
8.7310225589
 21
4.4360634326
  0
LINE
  5
412
100
AcDbEntity
  8
03__ASM_ALL_CURVES
100
AcDbLine
 62
40
  6
CONTINUOUS
 10
8.7532366214
 20
4.3546118703
 11
8.7421295902
 21
4.3472071826
  0
LINE
  5
413
100
AcDbEntity
  8
03__ASM_ALL_CURVES
100
AcDbLine
 62
40
  6
CONTINUOUS
 10
7.1892298252
 20
5.0764501826
 11
7.1744204502
 21
5.0863230996
  0
LINE
  5
414
100
AcDbEntity
  8
03__ASM_ALL_CURVES
100
AcDbLine
 62
40
  6
CONTINUOUS
 10
7.0855642002
 20
5.1949251826
 11
7.1003735752
 21
5.1850522683
  0
LINE
  5
415
100
AcDbEntity
  8
03__ASM_ALL_CURVES
100
AcDbLine
 62
40
  6
CONTINUOUS
 10
7.2040392002
 20
5.1949251826
 11
7.2188485752
 21
5.1850522683
  0
LINE
  5
416
100
AcDbEntity
  8
0
100
AcDbLine
 62
7
  6
CONTINUOUS
 10
7.2818123608
 20
4.7957055839
 11
7.2580057621
 21
4.8195121826
  0
LINE
  5
417
100
AcDbEntity
  8
0
100
AcDbLine
 62
7
  6
CONTINUOUS
 10
7.4829566055
 20
4.7750121826
 11
7.4694566055
 21
4.7885121826
  0
LINE
  5
418
100
AcDbEntity
  8
03__ASM_ALL_CURVES
100
AcDbLine
 62
40
  6
CONTINUOUS
 10
8.0288788163
 20
3.5971074969
 11
8.0344323319
 21
3.5897028058
  0
LINE
  5
419
100
AcDbEntity
  8
03__ASM_ALL_CURVES
100
AcDbLine
 62
40
  6
CONTINUOUS
 10
7.0559454502
 20
5.0863230996
 11
7.0411360752
 21
5.1060689326
  0
LINE
  5
41A
100
AcDbEntity
  8
03__ASM_ALL_CURVES
100
AcDbLine
 62
40
  6
CONTINUOUS
 10
7.1003735752
 20
5.1850522683
 11
7.1151829502
 21
5.1653064326
  0
LINE
  5
41B
100
AcDbEntity
  8
03__ASM_ALL_CURVES
100
AcDbLine
 62
40
  6
CONTINUOUS
 10
7.1744204502
 20
5.0863230996
 11
7.1596110752
 21
5.1060689326
  0
LINE
  5
41C
100
AcDbEntity
  8
03__ASM_ALL_CURVES
100
AcDbLine
 62
40
  6
CONTINUOUS
 10
7.0411360752
 20
5.1060689326
 11
7.0337313877
 21
5.1356876826
  0
LINE
  5
41D
100
AcDbEntity
  8
03__ASM_ALL_CURVES
100
AcDbLine
 62
40
  6
CONTINUOUS
 10
7.1151829502
 20
5.1653064326
 11
7.1225876377
 21
5.1356876826
  0
LINE
  5
41E
100
AcDbEntity
  8
03__ASM_ALL_CURVES
100
AcDbLine
 62
40
  6
CONTINUOUS
 10
7.1596110752
 20
5.1060689326
 11
7.1522063877
 21
5.1356876826
  0
LINE
  5
41F
100
AcDbEntity
  8
03__ASM_ALL_CURVES
100
AcDbLine
 62
40
  6
CONTINUOUS
 10
7.5873743269
 20
3.4016237451
 11
7.5818208112
 21
3.4238378076
  0
LINE
  5
420
100
AcDbEntity
  8
03__ASM_ALL_CURVES
100
AcDbLine
 62
40
  6
CONTINUOUS
 10
7.6429094831
 20
3.4460518701
 11
7.6484629987
 21
3.4238378076
  0
LINE
  5
421
100
AcDbEntity
  8
0
100
AcDbLine
 62
7
  6
CONTINUOUS
 10
7.4005057621
 20
3.8720121826
 11
7.4005057621
 21
4.7750121826
  0
LINE
  5
422
100
AcDbEntity
  8
0
100
AcDbLine
 62
7
  6
CONTINUOUS
 10
7.4294566055
 20
4.7885121826
 11
7.4294566055
 21
3.8585121826
  0
LINE
  5
423
100
AcDbEntity
  8
03__ASM_ALL_CURVES
100
AcDbLine
 62
40
  6
CONTINUOUS
 10
7.4335845127
 20
5.1949251826
 11
7.4335845127
 21
5.0764501826
  0
LINE
  5
424
100
AcDbEntity
  8
0
100
AcDbLine
 62
7
  6
CONTINUOUS
 10
7.4694566055
 20
3.8585121826
 11
7.4694566055
 21
4.7885121826
  0
LINE
  5
425
100
AcDbEntity
  8
0
100
AcDbLine
 62
7
  6
CONTINUOUS
 10
7.4829566055
 20
4.7750121826
 11
7.4829566055
 21
3.8720121826
  0
LINE
  5
426
100
AcDbEntity
  8
0
100
AcDbLine
 62
7
  6
CONTINUOUS
 10
7.5200057621
 20
4.1351567002
 11
7.5200057621
 21
4.511867665
  0
LINE
  5
427
100
AcDbEntity
  8
0
100
AcDbLine
 62
7
  6
CONTINUOUS
 10
7.5235057621
 20
4.2152319715
 11
7.5235057621
 21
4.431798792
  0
LINE
  5
428
100
AcDbEntity
  8
0
100
AcDbLine
 62
7
  6
CONTINUOUS
 10
7.5515057621
 20
4.2099489767
 11
7.5515057621
 21
4.4370575212
  0
LINE
  5
429
100
AcDbEntity
  8
03__ASM_ALL_CURVES
100
AcDbLine
 62
40
  6
CONTINUOUS
 10
7.5520595127
 20
5.1949251826
 11
7.5520595127
 21
5.0764501826
  0
LINE
  5
42A
100
AcDbEntity
  8
0
100
AcDbLine
 62
7
  6
CONTINUOUS
 10
7.5595000795
 20
4.4237934489
 11
7.5595000795
 21
4.2232059241
  0
LINE
  5
42B
100
AcDbEntity
  8
0
100
AcDbLine
 62
7
  6
CONTINUOUS
 10
7.5600057621
 20
4.511867665
 11
7.5600057621
 21
4.1351567002
  0
LINE
  5
42C
100
AcDbEntity
  8
0
100
AcDbLine
 62
7
  6
CONTINUOUS
 10
7.5995056122
 20
3.8720121826
 11
7.5995056122
 21
4.7750121826
  0
LINE
  5
42D
100
AcDbEntity
  8
03__ASM_ALL_CURVES
100
AcDbLine
 62
40
  6
CONTINUOUS
 10
7.7445813877
 20
5.1356876826
 11
7.7519860752
 21
5.1653064326
  0
LINE
  5
42E
100
AcDbEntity
  8
03__ASM_ALL_CURVES
100
AcDbLine
 62
40
  6
CONTINUOUS
 10
8.4110032627
 20
5.0961960165
 11
8.4035985752
 21
5.0863230996
  0
LINE
  5
42F
100
AcDbEntity
  8
03__ASM_ALL_CURVES
100
AcDbLine
 62
40
  6
CONTINUOUS
 10
8.6479532627
 20
5.1060689326
 11
8.6331438877
 21
5.0863230996
  0
LINE
  5
430
100
AcDbEntity
  8
0
100
AcDbLine
 62
2
  6
CONTINUOUS
 10
7.9701713649
 20
4.2040226685
 11
8.0155265121
 21
4.2563292686
  0
LINE
  5
431
100
AcDbEntity
  8
0
100
AcDbLine
 62
7
  6
CONTINUOUS
 10
7.7406479025
 20
3.947154323
 11
7.6805057621
 21
3.8870121826
  0
LINE
  5
432
100
AcDbEntity
  8
03__ASM_ALL_CURVES
100
AcDbLine
 62
40
  6
CONTINUOUS
 10
8.8420928714
 20
4.3990399933
 11
8.8309858402
 21
4.3916353076
  0
LINE
  5
433
100
AcDbEntity
  8
03__ASM_ALL_CURVES
100
AcDbLine
 62
40
  6
CONTINUOUS
 10
7.6734538163
 20
3.5674887433
 11
7.662346785
 21
3.5600840576
  0
LINE
  5
434
100
AcDbEntity
  8
03__ASM_ALL_CURVES
100
AcDbLine
 62
40
  6
CONTINUOUS
 10
7.7289889725
 20
3.5971074969
 11
7.7400960038
 21
3.6045121826
  0
LINE
  5
435
100
AcDbEntity
  8
03__ASM_ALL_CURVES
100
AcDbLine
 62
40
  6
CONTINUOUS
 10
7.5984813581
 20
3.4608612469
 11
7.6095883894
 21
3.4682659326
  0
LINE
  5
436
100
AcDbEntity
  8
03__ASM_ALL_CURVES
100
AcDbLine
 62
40
  6
CONTINUOUS
 10
7.7623100663
 20
3.5230606203
 11
7.751203035
 21
3.5156559326
  0
LINE
  5
437
100
AcDbEntity
  8
03__ASM_ALL_CURVES
100
AcDbLine
 62
40
  6
CONTINUOUS
 10
7.8511663163
 20
3.5674887433
 11
7.840059285
 21
3.5600840576
  0
LINE
  5
438
100
AcDbEntity
  8
03__ASM_ALL_CURVES
100
AcDbLine
 62
40
  6
CONTINUOUS
 10
7.6318024519
 20
3.3868143703
 11
7.6206954206
 21
3.3794096826
  0
LINE
  5
439
100
AcDbEntity
  8
03__ASM_ALL_CURVES
100
AcDbLine
 62
40
  6
CONTINUOUS
 10
7.9955577225
 20
3.5971074969
 11
8.0066647538
 21
3.6045121826
  0
LINE
  5
43A
100
AcDbEntity
  8
03__ASM_ALL_CURVES
100
AcDbLine
 62
40
  6
CONTINUOUS
 10
8.7310225589
 20
4.3472071826
 11
8.7199155277
 21
4.3546118703
  0
LINE
  5
43B
100
AcDbEntity
  8
03__ASM_ALL_CURVES
100
AcDbLine
 62
40
  6
CONTINUOUS
 10
8.6532733402
 20
4.4360634326
 11
8.6643803714
 21
4.4286587469
  0
LINE
  5
43C
100
AcDbEntity
  8
03__ASM_ALL_CURVES
100
AcDbLine
 62
40
  6
CONTINUOUS
 10
8.7421295902
 20
4.4360634326
 11
8.7532366214
 21
4.4286587469
  0
LINE
  5
43D
100
AcDbEntity
  8
03__ASM_ALL_CURVES
100
AcDbLine
 62
40
  6
CONTINUOUS
 10
7.7816048252
 20
5.0764501826
 11
7.7667954502
 21
5.0863230996
  0
LINE
  5
43E
100
AcDbEntity
  8
03__ASM_ALL_CURVES
100
AcDbLine
 62
40
  6
CONTINUOUS
 10
8.8309858402
 20
4.4360634326
 11
8.8420928714
 21
4.4286587469
  0
LINE
  5
43F
100
AcDbEntity
  8
0
100
AcDbLine
 62
7
  6
CONTINUOUS
 10
7.6155056364
 20
4.7590119142
 11
7.5995054829
 21
4.7750120532
  0
LINE
  5
440
100
AcDbEntity
  8
0
100
AcDbLine
 62
7
  6
CONTINUOUS
 10
7.7406479025
 20
4.6998700422
 11
7.6805057621
 21
4.7600121826
  0
LINE
  5
441
100
AcDbEntity
  8
0
100
AcDbLine
 62
2
  6
CONTINUOUS
 10
7.9701713649
 20
4.4430016967
 11
8.0155050922
 21
4.3907197995
  0
LINE
  5
442
100
AcDbEntity
  8
03__ASM_ALL_CURVES
100
AcDbLine
 62
40
  6
CONTINUOUS
 10
7.2188485752
 20
5.1850522683
 11
7.2262532627
 21
5.1751793469
  0
LINE
  5
443
100
AcDbEntity
  8
03__ASM_ALL_CURVES
100
AcDbLine
 62
40
  6
CONTINUOUS
 10
7.840059285
 20
3.5600840576
 11
7.8567198319
 21
3.5156559326
  0
LINE
  5
444
100
AcDbEntity
  8
03__ASM_ALL_CURVES
100
AcDbLine
 62
40
  6
CONTINUOUS
 10
7.3151095127
 20
5.1949251826
 11
7.3521329502
 21
5.0764501826
  0
LINE
  5
445
100
AcDbEntity
  8
03__ASM_ALL_CURVES
100
AcDbLine
 62
40
  6
CONTINUOUS
 10
7.7178819413
 20
3.5378699951
 11
7.7123284256
 21
3.5600840576
  0
LINE
  5
446
100
AcDbEntity
  8
03__ASM_ALL_CURVES
100
AcDbLine
 62
40
  6
CONTINUOUS
 10
7.7734170975
 20
3.5822981201
 11
7.7789706131
 21
3.5600840576
  0
LINE
  5
447
100
AcDbEntity
  8
0
100
AcDbLine
 62
7
  6
CONTINUOUS
 10
7.6155057621
 20
3.888012451
 11
7.6155057621
 21
4.7590119142
  0
LINE
  5
448
100
AcDbEntity
  8
0
100
AcDbLine
 62
7
  6
CONTINUOUS
 10
7.6305058185
 20
4.7600121826
 11
7.6305058185
 21
3.8870121826
  0
LINE
  5
449
100
AcDbEntity
  8
03__ASM_ALL_CURVES
100
AcDbLine
 62
40
  6
CONTINUOUS
 10
7.6345792069
 20
3.5156559326
 11
7.6345792069
 21
3.6045121826
  0
LINE
  5
44A
100
AcDbEntity
  8
03__ASM_ALL_CURVES
100
AcDbLine
 62
40
  6
CONTINUOUS
 10
7.6409157627
 20
5.0764501826
 11
7.6409157627
 21
5.1949251826
  0
LINE
  5
44B
100
AcDbEntity
  8
03__ASM_ALL_CURVES
100
AcDbLine
 62
40
  6
CONTINUOUS
 10
7.6790073319
 20
3.5897028058
 11
7.6790073319
 21
3.5748934344
  0
LINE
  5
44C
100
AcDbEntity
  8
0
100
AcDbLine
 62
7
  6
CONTINUOUS
 10
7.6805057621
 20
3.8870121826
 11
7.6805057621
 21
4.7600121826
  0
LINE
  5
44D
100
AcDbEntity
  8
03__ASM_ALL_CURVES
100
AcDbLine
 62
40
  6
CONTINUOUS
 10
7.6817840925
 20
3.394219058
 11
7.6817840925
 21
3.4682659326
  0
LINE
  5
44E
100
AcDbEntity
  8
03__ASM_ALL_CURVES
100
AcDbLine
 62
40
  6
CONTINUOUS
 10
7.7001532627
 20
5.0764501826
 11
7.7001532627
 21
5.1949251826
  0
LINE
  5
44F
100
AcDbEntity
  8
03__ASM_ALL_CURVES
100
AcDbLine
 62
40
  6
CONTINUOUS
 10
7.7262122175
 20
3.4682659326
 11
7.7262122175
 21
3.394219058
  0
LINE
  5
450
100
AcDbEntity
  8
0
100
AcDbLine
 62
7
  6
CONTINUOUS
 10
7.7406479025
 20
3.947154323
 11
7.7406479025
 21
4.6998700422
  0
LINE
  5
451
100
AcDbEntity
  8
0
100
AcDbLine
 62
7
  6
CONTINUOUS
 10
7.7547900333
 20
4.6940121826
 11
7.7547900333
 21
3.9530121826
  0
LINE
  5
452
100
AcDbEntity
  8
03__ASM_ALL_CURVES
100
AcDbLine
 62
40
  6
CONTINUOUS
 10
7.792854405
 20
3.4682659326
 11
7.792854405
 21
3.3794096826
  0
LINE
  5
453
100
AcDbEntity
  8
03__ASM_ALL_CURVES
100
AcDbLine
 62
40
  6
CONTINUOUS
 10
7.8122917069
 20
3.5156559326
 11
7.8122917069
 21
3.6045121826
  0
LINE
  5
454
100
AcDbEntity
  8
03__ASM_ALL_CURVES
100
AcDbLine
 62
40
  6
CONTINUOUS
 10
7.8186282627
 20
5.1356876826
 11
7.8186282627
 21
5.0961960165
  0
LINE
  5
455
100
AcDbEntity
  8
03__ASM_ALL_CURVES
100
AcDbLine
 62
40
  6
CONTINUOUS
 10
7.5818208112
 20
3.4238378076
 11
7.5873743269
 21
3.4460518701
  0
LINE
  5
456
100
AcDbEntity
  8
03__ASM_ALL_CURVES
100
AcDbLine
 62
40
  6
CONTINUOUS
 10
7.6484629987
 20
3.4238378076
 11
7.6429094831
 21
3.4016237451
  0
LINE
  5
457
100
AcDbEntity
  8
03__ASM_ALL_CURVES
100
AcDbLine
 62
40
  6
CONTINUOUS
 10
7.7123284256
 20
3.5600840576
 11
7.7178819413
 21
3.5822981201
  0
LINE
  5
458
100
AcDbEntity
  8
0
100
AcDbLine
 62
7
  6
CONTINUOUS
 10
8.0256733059
 20
4.1726178067
 11
8.0315057621
 21
4.1807141613
  0
LINE
  5
459
100
AcDbEntity
  8
03__ASM_ALL_CURVES
100
AcDbLine
 62
40
  6
CONTINUOUS
 10
7.6790073319
 20
3.5748934344
 11
7.6734538163
 21
3.5674887433
  0
LINE
  5
45A
100
AcDbEntity
  8
03__ASM_ALL_CURVES
100
AcDbLine
 62
40
  6
CONTINUOUS
 10
7.5873743269
 20
3.4460518701
 11
7.5984813581
 21
3.4608612469
  0
LINE
  5
45B
100
AcDbEntity
  8
03__ASM_ALL_CURVES
100
AcDbLine
 62
40
  6
CONTINUOUS
 10
8.8849032627
 20
5.1554335183
 11
8.8774985752
 21
5.1455605969
  0
LINE
  5
45C
100
AcDbEntity
  8
03__ASM_ALL_CURVES
100
AcDbLine
 62
40
  6
CONTINUOUS
 10
7.7178819413
 20
3.5822981201
 11
7.7289889725
 21
3.5971074969
  0
LINE
  5
45D
100
AcDbEntity
  8
03__ASM_ALL_CURVES
100
AcDbLine
 62
40
  6
CONTINUOUS
 10
7.6429094831
 20
3.4016237451
 11
7.6318024519
 21
3.3868143703
  0
LINE
  5
45E
100
AcDbEntity
  8
03__ASM_ALL_CURVES
100
AcDbLine
 62
40
  6
CONTINUOUS
 10
7.7734170975
 20
3.5378699951
 11
7.7623100663
 21
3.5230606203
  0
LINE
  5
45F
100
AcDbEntity
  8
03__ASM_ALL_CURVES
100
AcDbLine
 62
40
  6
CONTINUOUS
 10
7.7206587019
 20
3.3868143703
 11
7.7095516706
 21
3.3794096826
  0
LINE
  5
460
100
AcDbEntity
  8
03__ASM_ALL_CURVES
100
AcDbLine
 62
40
  6
CONTINUOUS
 10
8.0288788163
 20
3.5674887433
 11
8.0066647538
 21
3.5526793692
  0
LINE
  5
461
100
AcDbEntity
  8
03__ASM_ALL_CURVES
100
AcDbLine
 62
40
  6
CONTINUOUS
 10
7.7964142002
 20
5.1949251826
 11
7.8112235752
 21
5.1850522683
  0
LINE
  5
462
100
AcDbEntity
  8
03__ASM_ALL_CURVES
100
AcDbLine
 62
40
  6
CONTINUOUS
 10
8.0185548252
 20
5.0764501826
 11
8.0037454502
 21
5.0863230996
  0
LINE
  5
463
100
AcDbEntity
  8
03__ASM_ALL_CURVES
100
AcDbLine
 62
40
  6
CONTINUOUS
 10
8.0037454502
 20
5.1554335183
 11
8.0481735752
 21
5.1258147648
  0
LINE
  5
464
100
AcDbEntity
  8
03__ASM_ALL_CURVES
100
AcDbLine
 62
40
  6
CONTINUOUS
 10
8.0481735752
 20
5.1850522683
 11
8.0333642002
 21
5.1949251826
  0
LINE
  5
465
100
AcDbEntity
  8
03__ASM_ALL_CURVES
100
AcDbLine
 62
40
  6
CONTINUOUS
 10
8.2555048252
 20
5.0764501826
 11
8.2406954502
 21
5.0863230996
  0
LINE
  5
466
100
AcDbEntity
  8
0
100
AcDbLine
 62
7
  6
CONTINUOUS
 10
8.0315057621
 20
4.4663102039
 11
8.0256761774
 21
4.4744038432
  0
LINE
  5
467
100
AcDbEntity
  8
03__ASM_ALL_CURVES
100
AcDbLine
 62
40
  6
CONTINUOUS
 10
7.8567198319
 20
3.5897028058
 11
7.8567198319
 21
3.5748934344
  0
LINE
  5
468
100
AcDbEntity
  8
03__ASM_ALL_CURVES
100
AcDbLine
 62
40
  6
CONTINUOUS
 10
7.8594965925
 20
3.4682659326
 11
7.8594965925
 21
3.3794096826
  0
LINE
  5
469
100
AcDbEntity
  8
03__ASM_ALL_CURVES
100
AcDbLine
 62
40
  6
CONTINUOUS
 10
7.9233620194
 20
3.6045121826
 11
7.9233620194
 21
3.5156559326
  0
LINE
  5
46A
100
AcDbEntity
  8
03__ASM_ALL_CURVES
100
AcDbLine
 62
40
  6
CONTINUOUS
 10
7.9483528425
 20
3.3794096826
 11
7.9483528425
 21
3.4682659326
  0
LINE
  5
46B
100
AcDbEntity
  8
03__ASM_ALL_CURVES
100
AcDbLine
 62
40
  6
CONTINUOUS
 10
7.9963407627
 20
5.1751793469
 11
7.9963407627
 21
5.1653064326
  0
LINE
  5
46C
100
AcDbEntity
  8
0
100
AcDbLine
 62
7
  6
CONTINUOUS
 10
8.0315057621
 20
3.9542420816
 11
8.0315057621
 21
4.0070366785
  0
LINE
  5
46D
100
AcDbEntity
  8
0
100
AcDbLine
 62
7
  6
CONTINUOUS
 10
8.0315057621
 20
4.0424961123
 11
8.0315057621
 21
4.1807141613
  0
LINE
  5
46E
100
AcDbEntity
  8
0
100
AcDbLine
 62
7
  6
CONTINUOUS
 10
8.0315057621
 20
4.2380887304
 11
8.0315057621
 21
4.4089356348
  0
LINE
  5
46F
100
AcDbEntity
  8
0
100
AcDbLine
 62
7
  6
CONTINUOUS
 10
8.0315057621
 20
4.4663102039
 11
8.0315057621
 21
4.6045282529
  0
LINE
  5
470
100
AcDbEntity
  8
0
100
AcDbLine
 62
7
  6
CONTINUOUS
 10
8.0315057621
 20
4.6399876867
 11
8.0315057621
 21
4.6927822836
  0
LINE
  5
471
100
AcDbEntity
  8
03__ASM_ALL_CURVES
100
AcDbLine
 62
40
  6
CONTINUOUS
 10
8.0344323319
 20
3.5897028058
 11
8.0344323319
 21
3.5748934344
  0
LINE
  5
472
100
AcDbEntity
  8
0
100
AcDbLine
 62
7
  6
CONTINUOUS
 10
8.0515057621
 20
4.7600119417
 11
8.0515057621
 21
3.8870124235
  0
LINE
  5
473
100
AcDbEntity
  8
03__ASM_ALL_CURVES
100
AcDbLine
 62
40
  6
CONTINUOUS
 10
8.0555782627
 20
5.1159418504
 11
8.0555782627
 21
5.0961960165
  0
LINE
  5
474
100
AcDbEntity
  8
0
100
AcDbLine
 62
7
  6
CONTINUOUS
 10
8.0378624796
 20
4.0162772299
 11
8.038837456
 21
4.0226449867
  0
LINE
  5
475
100
AcDbEntity
  8
0
100
AcDbLine
 62
7
  6
CONTINUOUS
 10
7.9109668354
 20
4.0307139801
 11
7.9098010019
 21
4.0237713813
  0
LINE
  5
476
100
AcDbEntity
  8
03__ASM_ALL_CURVES
100
AcDbLine
 62
40
  6
CONTINUOUS
 10
7.7789706131
 20
3.5600840576
 11
7.7734170975
 21
3.5378699951
  0
LINE
  5
477
100
AcDbEntity
  8
03__ASM_ALL_CURVES
100
AcDbLine
 62
40
  6
CONTINUOUS
 10
8.2184813877
 20
5.1356876826
 11
8.2258860752
 21
5.1653064326
  0
LINE
  5
478
100
AcDbEntity
  8
03__ASM_ALL_CURVES
100
AcDbLine
 62
40
  6
CONTINUOUS
 10
8.3073376377
 20
5.1356876826
 11
8.2999329502
 21
5.1060689326
  0
LINE
  5
479
100
AcDbEntity
  8
0
100
AcDbLine
 62
2
  6
CONTINUOUS
 10
7.9701713649
 20
3.9368359923
 11
7.9759187962
 21
3.9582856978
  0
LINE
  5
47A
100
AcDbEntity
  8
0
100
AcDbLine
 62
2
  6
CONTINUOUS
 10
7.9701713649
 20
4.0106845733
 11
7.9878288711
 21
4.0639977498
  0
LINE
  5
47B
100
AcDbEntity
  8
03__ASM_ALL_CURVES
100
AcDbLine
 62
40
  6
CONTINUOUS
 10
7.8567198319
 20
3.5748934344
 11
7.8511663163
 21
3.5674887433
  0
LINE
  5
47C
100
AcDbEntity
  8
03__ASM_ALL_CURVES
100
AcDbLine
 62
40
  6
CONTINUOUS
 10
7.7262122175
 20
3.394219058
 11
7.7206587019
 21
3.3868143703
  0
LINE
  5
47D
100
AcDbEntity
  8
03__ASM_ALL_CURVES
100
AcDbLine
 62
40
  6
CONTINUOUS
 10
7.9900042069
 20
3.5897028058
 11
7.9955577225
 21
3.5971074969
  0
LINE
  5
47E
100
AcDbEntity
  8
03__ASM_ALL_CURVES
100
AcDbLine
 62
40
  6
CONTINUOUS
 10
8.0066647538
 20
3.5526793692
 11
7.9955577225
 21
3.5378699951
  0
LINE
  5
47F
100
AcDbEntity
  8
03__ASM_ALL_CURVES
100
AcDbLine
 62
40
  6
CONTINUOUS
 10
8.0344323319
 20
3.5748934344
 11
8.0288788163
 21
3.5674887433
  0
LINE
  5
480
100
AcDbEntity
  8
03__ASM_ALL_CURVES
100
AcDbLine
 62
40
  6
CONTINUOUS
 10
8.6699338871
 20
4.4064446844
 11
8.6643803714
 21
4.3990399933
  0
LINE
  5
481
100
AcDbEntity
  8
03__ASM_ALL_CURVES
100
AcDbLine
 62
40
  6
CONTINUOUS
 10
8.7088084964
 20
4.4138493701
 11
8.7199155277
 21
4.4286587469
  0
LINE
  5
482
100
AcDbEntity
  8
0
100
AcDbLine
 62
7
  6
CONTINUOUS
 10
8.3655058102
 20
3.9020121783
 11
8.3505057663
 21
3.8870121325
  0
LINE
  5
483
100
AcDbEntity
  8
03__ASM_ALL_CURVES
100
AcDbLine
 62
40
  6
CONTINUOUS
 10
8.3739798252
 20
5.0764501826
 11
8.3591704502
 21
5.0863230996
  0
LINE
  5
484
100
AcDbEntity
  8
03__ASM_ALL_CURVES
100
AcDbLine
 62
40
  6
CONTINUOUS
 10
8.2703142002
 20
5.1949251826
 11
8.2851235752
 21
5.1850522683
  0
LINE
  5
485
100
AcDbEntity
  8
0
100
AcDbLine
 62
7
  6
CONTINUOUS
 10
8.3655058102
 20
4.7450121869
 11
8.3505057663
 21
4.7600122327
  0
LINE
  5
486
100
AcDbEntity
  8
03__ASM_ALL_CURVES
100
AcDbLine
 62
40
  6
CONTINUOUS
 10
7.7667954502
 20
5.0863230996
 11
7.7519860752
 21
5.1060689326
  0
LINE
  5
487
100
AcDbEntity
  8
03__ASM_ALL_CURVES
100
AcDbLine
 62
40
  6
CONTINUOUS
 10
7.8112235752
 20
5.1850522683
 11
7.8186282627
 21
5.1751793469
  0
LINE
  5
488
100
AcDbEntity
  8
03__ASM_ALL_CURVES
100
AcDbLine
 62
40
  6
CONTINUOUS
 10
8.0037454502
 20
5.0863230996
 11
7.9889360752
 21
5.1060689326
  0
LINE
  5
489
100
AcDbEntity
  8
03__ASM_ALL_CURVES
100
AcDbLine
 62
40
  6
CONTINUOUS
 10
7.6409157627
 20
5.1949251826
 11
7.7001532627
 21
5.0764501826
  0
LINE
  5
48A
100
AcDbEntity
  8
0
100
AcDbLine
 62
2
  6
CONTINUOUS
 10
7.9701713649
 20
4.6363397919
 11
7.987812387
 21
4.5830763859
  0
LINE
  5
48B
100
AcDbEntity
  8
0
100
AcDbLine
 62
2
  6
CONTINUOUS
 10
7.9701713649
 20
4.7101883729
 11
7.9759164458
 21
4.6887474394
  0
LINE
  5
48C
100
AcDbEntity
  8
03__ASM_ALL_CURVES
100
AcDbLine
 62
40
  6
CONTINUOUS
 10
7.7519860752
 20
5.1060689326
 11
7.7445813877
 21
5.1356876826
  0
LINE
  5
48D
100
AcDbEntity
  8
0
100
AcDbLine
 62
7
  6
CONTINUOUS
 10
7.9098010019
 20
4.6232529741
 11
7.9109642303
 21
4.6163142854
  0
LINE
  5
48E
100
AcDbEntity
  8
03__ASM_ALL_CURVES
100
AcDbLine
 62
40
  6
CONTINUOUS
 10
8.059423155
 20
3.4682659326
 11
8.059423155
 21
3.3794096826
  0
LINE
  5
48F
100
AcDbEntity
  8
0
100
AcDbLine
 62
7
  6
CONTINUOUS
 10
8.1085057621
 20
3.8870124235
 11
8.1085057621
 21
4.7600119417
  0
LINE
  5
490
100
AcDbEntity
  8
03__ASM_ALL_CURVES
100
AcDbLine
 62
40
  6
CONTINUOUS
 10
8.1148157627
 20
5.1949251826
 11
8.1148157627
 21
5.0764501826
  0
LINE
  5
491
100
AcDbEntity
  8
0
100
AcDbLine
 62
7
  6
CONTINUOUS
 10
8.1585057621
 20
3.8875128455
 11
8.1585057621
 21
4.7595115197
  0
LINE
  5
492
100
AcDbEntity
  8
03__ASM_ALL_CURVES
100
AcDbLine
 62
40
  6
CONTINUOUS
 10
8.1740532627
 20
5.1949251826
 11
8.1740532627
 21
5.0764501826
  0
LINE
  5
493
100
AcDbEntity
  8
0
100
AcDbLine
 62
7
  6
CONTINUOUS
 10
8.2285057621
 20
3.8875128455
 11
8.2285057621
 21
4.7595115197
  0
LINE
  5
494
100
AcDbEntity
  8
0
100
AcDbLine
 62
7
  6
CONTINUOUS
 10
8.2785057621
 20
3.8875128455
 11
8.2785057621
 21
4.7595115197
  0
LINE
  5
495
100
AcDbEntity
  8
03__ASM_ALL_CURVES
100
AcDbLine
 62
40
  6
CONTINUOUS
 10
7.9955577225
 20
3.5378699951
 11
7.9900042069
 21
3.5156559326
  0
LINE
  5
496
100
AcDbEntity
  8
03__ASM_ALL_CURVES
100
AcDbLine
 62
40
  6
CONTINUOUS
 10
8.7643436527
 20
4.3694212451
 11
8.7532366214
 21
4.3546118703
  0
LINE
  5
497
100
AcDbEntity
  8
03__ASM_ALL_CURVES
100
AcDbLine
 62
40
  6
CONTINUOUS
 10
8.8476463871
 20
4.4064446844
 11
8.8420928714
 21
4.3990399933
  0
LINE
  5
498
100
AcDbEntity
  8
03__ASM_ALL_CURVES
100
AcDbLine
 62
40
  6
CONTINUOUS
 10
8.6183345127
 20
5.1949251826
 11
8.6331438877
 21
5.1850522683
  0
LINE
  5
499
100
AcDbEntity
  8
03__ASM_ALL_CURVES
100
AcDbLine
 62
40
  6
CONTINUOUS
 10
8.8626892002
 20
5.1949251826
 11
8.8774985752
 21
5.1850522683
  0
LINE
  5
49A
100
AcDbEntity
  8
03__ASM_ALL_CURVES
100
AcDbLine
 62
40
  6
CONTINUOUS
 10
7.9963407627
 20
5.1653064326
 11
8.0037454502
 21
5.1554335183
  0
LINE
  5
49B
100
AcDbEntity
  8
03__ASM_ALL_CURVES
100
AcDbLine
 62
40
  6
CONTINUOUS
 10
8.0481735752
 20
5.1258147648
 11
8.0555782627
 21
5.1159418504
  0
LINE
  5
49C
100
AcDbEntity
  8
03__ASM_ALL_CURVES
100
AcDbLine
 62
40
  6
CONTINUOUS
 10
8.0555782627
 20
5.1751793469
 11
8.0481735752
 21
5.1850522683
  0
LINE
  5
49D
100
AcDbEntity
  8
03__ASM_ALL_CURVES
100
AcDbLine
 62
40
  6
CONTINUOUS
 10
8.7199155277
 20
4.3546118703
 11
8.7088084964
 21
4.3694212451
  0
LINE
  5
49E
100
AcDbEntity
  8
03__ASM_ALL_CURVES
100
AcDbLine
 62
40
  6
CONTINUOUS
 10
8.6643803714
 20
4.4286587469
 11
8.6699338871
 21
4.4212540558
  0
LINE
  5
49F
100
AcDbEntity
  8
03__ASM_ALL_CURVES
100
AcDbLine
 62
40
  6
CONTINUOUS
 10
8.2406954502
 20
5.0863230996
 11
8.2258860752
 21
5.1060689326
  0
LINE
  5
4A0
100
AcDbEntity
  8
03__ASM_ALL_CURVES
100
AcDbLine
 62
40
  6
CONTINUOUS
 10
8.7532366214
 20
4.4286587469
 11
8.7643436527
 21
4.4138493701
  0
LINE
  5
4A1
100
AcDbEntity
  8
0
100
AcDbLine
 62
7
  6
CONTINUOUS
 10
8.038837456
 20
4.6243793785
 11
8.0378624806
 21
4.6307471324
  0
LINE
  5
4A2
100
AcDbEntity
  8
0
100
AcDbLine
 62
7
  6
CONTINUOUS
 10
8.3085057621
 20
4.7600119417
 11
8.3085057621
 21
3.8870124235
  0
LINE
  5
4A3
100
AcDbEntity
  8
0
100
AcDbLine
 62
7
  6
CONTINUOUS
 10
8.3505057162
 20
3.8870121826
 11
8.3505057162
 21
4.7600121826
  0
LINE
  5
4A4
100
AcDbEntity
  8
03__ASM_ALL_CURVES
100
AcDbLine
 62
40
  6
CONTINUOUS
 10
8.3517657627
 20
5.0961960165
 11
8.3517657627
 21
5.1949251826
  0
LINE
  5
4A5
100
AcDbEntity
  8
0
100
AcDbLine
 62
7
  6
CONTINUOUS
 10
8.3655057621
 20
3.9020121783
 11
8.3655057621
 21
4.7450121869
  0
LINE
  5
4A6
100
AcDbEntity
  8
03__ASM_ALL_CURVES
100
AcDbLine
 62
40
  6
CONTINUOUS
 10
8.4110032627
 20
5.1949251826
 11
8.4110032627
 21
5.0961960165
  0
LINE
  5
4A7
100
AcDbEntity
  8
03__ASM_ALL_CURVES
100
AcDbLine
 62
40
  6
CONTINUOUS
 10
8.4702407627
 20
5.1949251826
 11
8.4702407627
 21
5.0764501826
  0
LINE
  5
4A8
100
AcDbEntity
  8
03__ASM_ALL_CURVES
100
AcDbLine
 62
40
  6
CONTINUOUS
 10
8.6553579502
 20
5.1356876826
 11
8.6479532627
 21
5.1060689326
  0
LINE
  5
4A9
100
AcDbEntity
  8
03__ASM_ALL_CURVES
100
AcDbLine
 62
40
  6
CONTINUOUS
 10
8.8420928714
 20
4.4286587469
 11
8.8476463871
 21
4.4212540558
  0
LINE
  5
4AA
100
AcDbEntity
  8
03__ASM_ALL_CURVES
100
AcDbLine
 62
40
  6
CONTINUOUS
 10
8.3591704502
 20
5.0863230996
 11
8.3517657627
 21
5.0961960165
  0
LINE
  5
4AB
100
AcDbEntity
  8
03__ASM_ALL_CURVES
100
AcDbLine
 62
40
  6
CONTINUOUS
 10
8.2851235752
 20
5.1850522683
 11
8.2999329502
 21
5.1653064326
  0
LINE
  5
4AC
100
AcDbEntity
  8
03__ASM_ALL_CURVES
100
AcDbLine
 62
40
  6
CONTINUOUS
 10
8.6921479495
 20
4.2998171826
 11
8.7365760745
 21
4.2109609326
  0
LINE
  5
4AD
100
AcDbEntity
  8
03__ASM_ALL_CURVES
100
AcDbLine
 62
40
  6
CONTINUOUS
 10
8.2258860752
 20
5.1060689326
 11
8.2184813877
 21
5.1356876826
  0
LINE
  5
4AE
100
AcDbEntity
  8
03__ASM_ALL_CURVES
100
AcDbLine
 62
40
  6
CONTINUOUS
 10
8.2999329502
 20
5.1653064326
 11
8.3073376377
 21
5.1356876826
  0
LINE
  5
4AF
100
AcDbEntity
  8
03__ASM_ALL_CURVES
100
AcDbLine
 62
40
  6
CONTINUOUS
 10
8.5887157627
 20
5.0764501826
 11
8.5887157627
 21
5.1949251826
  0
LINE
  5
4B0
100
AcDbEntity
  8
03__ASM_ALL_CURVES
100
AcDbLine
 62
40
  6
CONTINUOUS
 10
8.625505762
 20
4.2998171826
 11
8.625505762
 21
4.2109609326
  0
LINE
  5
4B1
100
AcDbEntity
  8
03__ASM_ALL_CURVES
100
AcDbLine
 62
40
  6
CONTINUOUS
 10
8.6255057621
 20
4.3472071826
 11
8.6255057621
 21
4.4360634326
  0
LINE
  5
4B2
100
AcDbEntity
  8
03__ASM_ALL_CURVES
100
AcDbLine
 62
40
  6
CONTINUOUS
 10
8.6699338871
 20
4.4212540558
 11
8.6699338871
 21
4.4064446844
  0
LINE
  5
4B3
100
AcDbEntity
  8
03__ASM_ALL_CURVES
100
AcDbLine
 62
40
  6
CONTINUOUS
 10
8.6921479495
 20
4.2109609326
 11
8.6921479495
 21
4.2998171826
  0
LINE
  5
4B4
100
AcDbEntity
  8
03__ASM_ALL_CURVES
100
AcDbLine
 62
40
  6
CONTINUOUS
 10
8.7071907627
 20
5.0764501826
 11
8.7071907627
 21
5.1949251826
  0
LINE
  5
4B5
100
AcDbEntity
  8
03__ASM_ALL_CURVES
100
AcDbLine
 62
40
  6
CONTINUOUS
 10
8.7032549808
 20
4.3916353076
 11
8.7088084964
 21
4.4138493701
  0
LINE
  5
4B6
100
AcDbEntity
  8
03__ASM_ALL_CURVES
100
AcDbLine
 62
40
  6
CONTINUOUS
 10
8.7698971683
 20
4.3916353076
 11
8.7643436527
 21
4.3694212451
  0
LINE
  5
4B7
100
AcDbEntity
  8
03__ASM_ALL_CURVES
100
AcDbLine
 62
40
  6
CONTINUOUS
 10
8.6331438877
 20
5.1850522683
 11
8.6479532627
 21
5.1653064326
  0
LINE
  5
4B8
100
AcDbEntity
  8
03__ASM_ALL_CURVES
100
AcDbLine
 62
40
  6
CONTINUOUS
 10
8.8309858402
 20
4.3916353076
 11
8.8476463871
 21
4.3472071826
  0
LINE
  5
4B9
100
AcDbEntity
  8
03__ASM_ALL_CURVES
100
AcDbLine
 62
40
  6
CONTINUOUS
 10
8.7088084964
 20
4.3694212451
 11
8.7032549808
 21
4.3916353076
  0
LINE
  5
4BA
100
AcDbEntity
  8
03__ASM_ALL_CURVES
100
AcDbLine
 62
40
  6
CONTINUOUS
 10
8.7643436527
 20
4.4138493701
 11
8.7698971683
 21
4.3916353076
  0
LINE
  5
4BB
100
AcDbEntity
  8
03__ASM_ALL_CURVES
100
AcDbLine
 62
40
  6
CONTINUOUS
 10
8.7365760745
 20
4.2109609326
 11
8.7365760745
 21
4.2998171826
  0
LINE
  5
4BC
100
AcDbEntity
  8
03__ASM_ALL_CURVES
100
AcDbLine
 62
40
  6
CONTINUOUS
 10
8.7810041995
 20
4.2998171826
 11
8.7810041995
 21
4.2109609326
  0
LINE
  5
4BD
100
AcDbEntity
  8
03__ASM_ALL_CURVES
100
AcDbLine
 62
40
  6
CONTINUOUS
 10
8.8032182621
 20
4.3472071826
 11
8.8032182621
 21
4.4360634326
  0
LINE
  5
4BE
100
AcDbEntity
  8
03__ASM_ALL_CURVES
100
AcDbLine
 62
40
  6
CONTINUOUS
 10
8.8256657627
 20
5.0764501826
 11
8.8256657627
 21
5.1949251826
  0
LINE
  5
4BF
100
AcDbEntity
  8
03__ASM_ALL_CURVES
100
AcDbLine
 62
40
  6
CONTINUOUS
 10
8.8476463871
 20
4.4212540558
 11
8.8476463871
 21
4.4064446844
  0
LINE
  5
4C0
100
AcDbEntity
  8
03__ASM_ALL_CURVES
100
AcDbLine
 62
40
  6
CONTINUOUS
 10
8.8698604495
 20
4.2109609326
 11
8.8698604495
 21
4.2998171826
  0
LINE
  5
4C1
100
AcDbEntity
  8
03__ASM_ALL_CURVES
100
AcDbLine
 62
40
  6
CONTINUOUS
 10
8.8849032627
 20
5.1751793469
 11
8.8849032627
 21
5.1554335183
  0
LINE
  5
4C2
100
AcDbEntity
  8
03__ASM_ALL_CURVES
100
AcDbLine
 62
40
  6
CONTINUOUS
 10
8.9142885746
 20
4.4360634326
 11
8.9142885746
 21
4.3472071826
  0
LINE
  5
4C3
100
AcDbEntity
  8
03__ASM_ALL_CURVES
100
AcDbLine
 62
40
  6
CONTINUOUS
 10
8.980930762
 20
4.2998171826
 11
8.980930762
 21
4.2109609326
  0
LINE
  5
4C4
100
AcDbEntity
  8
03__ASM_ALL_CURVES
100
AcDbLine
 62
40
  6
CONTINUOUS
 10
9.0031448246
 20
4.4360634326
 11
9.0031448246
 21
4.3472071826
  0
LINE
  5
4C5
100
AcDbEntity
  8
03__ASM_ALL_CURVES
100
AcDbLine
 62
40
  6
CONTINUOUS
 10
8.8774985752
 20
5.1850522683
 11
8.8849032627
 21
5.1751793469
  0
LINE
  5
4C6
100
AcDbEntity
  8
03__ASM_ALL_CURVES
100
AcDbLine
 62
40
  6
CONTINUOUS
 10
8.8626892002
 20
5.1356876826
 11
8.8849032627
 21
5.0764501826
  0
LINE
  5
4C7
100
AcDbEntity
  8
03__ASM_ALL_CURVES
100
AcDbLine
 62
40
  6
CONTINUOUS
 10
8.6479532627
 20
5.1653064326
 11
8.6553579502
 21
5.1356876826
  0
ARC
  5
4C8
100
AcDbEntity
  8
0
100
AcDbCircle
 62
7
  6
CONTINUOUS
 10
8.0315057621
 20
4.7140121826
 40
0.02
100
AcDbArc
 50
291.5051401965
 51
359.9999955905
  0
ARC
  5
4C9
100
AcDbEntity
  8
0
100
AcDbCircle
 62
7
  6
CONTINUOUS
 10
8.0315057621
 20
3.9330121826
 40
0.02
100
AcDbArc
 50
0.0000044095
 51
68.4948598035
  0
ARC
  5
4CA
100
AcDbEntity
  8
0
100
AcDbCircle
 62
7
  6
CONTINUOUS
 10
7.7547900333
 20
4.7140121826
 40
0.02
100
AcDbArc
 50
225.0000195362
 51
270.0
  0
ARC
  5
4CB
100
AcDbEntity
  8
0
100
AcDbCircle
 62
7
  6
CONTINUOUS
 10
7.7547900333
 20
3.9330121826
 40
0.02
100
AcDbArc
 50
90.0
 51
134.9999804638
  0
ARC
  5
4CC
100
AcDbEntity
  8
0
100
AcDbCircle
 62
7
  6
CONTINUOUS
 10
5.0461796089
 20
3.9695121826
 40
0.02
100
AcDbArc
 50
270.0
 51
320.0
  0
ARC
  5
4CD
100
AcDbEntity
  8
0
100
AcDbCircle
 62
7
  6
CONTINUOUS
 10
5.0461796089
 20
4.6775121826
 40
0.02
100
AcDbArc
 50
40.0
 51
90.0
  0
ARC
  5
4CE
100
AcDbEntity
  8
0
100
AcDbCircle
 62
7
  6
CONTINUOUS
 10
7.5400057621
 20
4.4210121826
 40
0.02
100
AcDbArc
 50
0.0
 51
180.0
  0
ARC
  5
4CF
100
AcDbEntity
  8
0
100
AcDbCircle
 62
7
  6
CONTINUOUS
 10
7.5400057621
 20
4.2260121826
 40
0.02
100
AcDbArc
 50
180.0
 51
360.0
  0
ARC
  5
4D0
100
AcDbEntity
  8
0
100
AcDbCircle
 62
7
  6
CONTINUOUS
 10
6.7455057621
 20
3.7926254312
 40
0.005
100
AcDbArc
 50
120.0000000001
 51
180.0
  0
ARC
  5
4D1
100
AcDbEntity
  8
0
100
AcDbCircle
 62
7
  6
CONTINUOUS
 10
6.7455057621
 20
4.8543989339
 40
0.005
100
AcDbArc
 50
180.0
 51
239.9999999999
  0
ARC
  5
4D2
100
AcDbEntity
  8
0
100
AcDbCircle
 62
7
  6
CONTINUOUS
 10
6.7660942193
 20
3.8045121826
 40
0.005
100
AcDbArc
 50
90.0
 51
120.0000000001
  0
ARC
  5
4D3
100
AcDbEntity
  8
0
100
AcDbCircle
 62
7
  6
CONTINUOUS
 10
6.7660942193
 20
4.8425121826
 40
0.005
100
AcDbArc
 50
239.9999999999
 51
270.0
  0
ARC
  5
4D4
100
AcDbEntity
  8
0
100
AcDbCircle
 62
7
  6
CONTINUOUS
 10
6.7375057621
 20
4.8585121826
 40
0.003
100
AcDbArc
 50
0.0
 51
90.0
  0
ARC
  5
4D5
100
AcDbEntity
  8
0
100
AcDbCircle
 62
7
  6
CONTINUOUS
 10
6.7375057621
 20
3.7885121826
 40
0.003
100
AcDbArc
 50
270.0
 51
360.0
  0
SPLINE
  5
4D6
100
AcDbEntity
  8
0
100
AcDbSpline
 62
7
  6
CONTINUOUS
 70
0
 71
3
 72
15
 73
11
 74
9
 42
0.0000001
 43
0.0000001
 44
0.0000000001
 12
0.0
 22
0.1099409465
 32
0.0
 13
0.0
 23
-0.1099409465
 33
0.0
 40
0.0
 40
0.0
 40
0.0
 40
0.0
 40
0.125
 40
0.25
 40
0.375
 40
0.5
 40
0.625
 40
0.75
 40
0.875
 40
1.0
 40
1.0
 40
1.0
 40
1.0
 10
8.2285057621
 20
4.7405121826
 30
0.0
 10
8.2285057621
 20
4.7450930554
 30
0.0
 10
8.2266833776
 20
4.7542548009
 30
0.0
 10
8.2188988096
 20
4.7659052302
 30
0.0
 10
8.2072483804
 20
4.7736897981
 30
0.0
 10
8.1935057621
 20
4.7764233748
 30
0.0
 10
8.1797631438
 20
4.7736897981
 30
0.0
 10
8.1681127145
 20
4.7659052302
 30
0.0
 10
8.1603281466
 20
4.7542548009
 30
0.0
 10
8.1585057621
 20
4.7450930554
 30
0.0
 10
8.1585057621
 20
4.7405121826
 30
0.0
 11
8.2285057621
 21
4.7405121826
 31
0.0
 11
8.2258415457
 21
4.7539061027
 31
0.0
 11
8.2182544994
 21
4.7652609199
 31
0.0
 11
8.2068996822
 21
4.7728479662
 31
0.0
 11
8.1935057621
 21
4.7755121826
 31
0.0
 11
8.1801118419
 21
4.7728479662
 31
0.0
 11
8.1687570247
 21
4.7652609199
 31
0.0
 11
8.1611699784
 21
4.7539061027
 31
0.0
 11
8.1585057621
 21
4.7405121826
 31
0.0
  0
SPLINE
  5
4D7
100
AcDbEntity
  8
0
100
AcDbSpline
 62
7
  6
CONTINUOUS
 70
0
 71
3
 72
15
 73
11
 74
9
 42
0.0000001
 43
0.0000001
 44
0.0000000001
 12
0.0
 22
-0.1099409465
 32
0.0
 13
0.0
 23
0.1099409465
 33
0.0
 40
0.0
 40
0.0
 40
0.0
 40
0.0
 40
0.125
 40
0.25
 40
0.375
 40
0.5
 40
0.625
 40
0.75
 40
0.875
 40
1.0
 40
1.0
 40
1.0
 40
1.0
 10
8.2285057621
 20
3.9065121826
 30
0.0
 10
8.2285057621
 20
3.9019313098
 30
0.0
 10
8.2266833776
 20
3.8927695643
 30
0.0
 10
8.2188988096
 20
3.881119135
 30
0.0
 10
8.2072483804
 20
3.8733345671
 30
0.0
 10
8.1935057621
 20
3.8706009903
 30
0.0
 10
8.1797631438
 20
3.8733345671
 30
0.0
 10
8.1681127145
 20
3.881119135
 30
0.0
 10
8.1603281466
 20
3.8927695643
 30
0.0
 10
8.1585057621
 20
3.9019313098
 30
0.0
 10
8.1585057621
 20
3.9065121826
 30
0.0
 11
8.2285057621
 21
3.9065121826
 31
0.0
 11
8.2258415457
 21
3.8931182625
 31
0.0
 11
8.2182544994
 21
3.8817634453
 31
0.0
 11
8.2068996822
 21
3.874176399
 31
0.0
 11
8.1935057621
 21
3.8715121826
 31
0.0
 11
8.1801118419
 21
3.874176399
 31
0.0
 11
8.1687570247
 21
3.8817634453
 31
0.0
 11
8.1611699784
 21
3.8931182625
 31
0.0
 11
8.1585057621
 21
3.9065121826
 31
0.0
  0
SPLINE
  5
4D8
100
AcDbEntity
  8
0
100
AcDbSpline
 62
7
  6
CONTINUOUS
 70
0
 71
3
 72
14
 73
10
 74
8
 42
0.0000001
 43
0.0000001
 44
0.0000000001
 12
0.0
 22
0.0916172274
 32
0.0
 13
-0.045846371
 23
-0.079336773
 33
0.0
 40
0.0
 40
0.0
 40
0.0
 40
0.0
 40
0.1500003733
 40
0.3000007465
 40
0.4500011198
 40
0.6000014931
 40
0.7500018663
 40
0.9000022396
 40
1.0
 40
1.0
 40
1.0
 40
1.0
 10
6.8575057621
 20
4.8165121826
 30
0.0
 10
6.8575057621
 20
4.8210930554
 30
0.0
 10
6.8556833776
 20
4.8302548009
 30
0.0
 10
6.8478988096
 20
4.8419052302
 30
0.0
 10
6.8362483804
 20
4.8496897981
 30
0.0
 10
6.8225057621
 20
4.8524233748
 30
0.0
 10
6.8087631438
 20
4.8496897981
 30
0.0
 10
6.7984072711
 20
4.8427702252
 30
0.0
 10
6.7937245898
 20
4.8366557933
 30
0.0
 10
6.7921964116
 20
4.8340112934
 30
0.0
 11
6.8575057621
 21
4.8165121826
 31
0.0
 11
6.8548415457
 21
4.8299061027
 31
0.0
 11
6.8472544994
 21
4.8412609199
 31
0.0
 11
6.8358996822
 21
4.8488479662
 31
0.0
 11
6.8225057621
 21
4.8515121826
 31
0.0
 11
6.8091118419
 21
4.8488479662
 31
0.0
 11
6.7977570247
 21
4.8412609199
 31
0.0
 11
6.7921964116
 21
4.8340112934
 31
0.0
  0
SPLINE
  5
4D9
100
AcDbEntity
  8
0
100
AcDbSpline
 62
7
  6
CONTINUOUS
 70
0
 71
3
 72
9
 73
5
 74
3
 42
0.0000001
 43
0.0000001
 44
0.0000000001
 12
-0.0091694111
 22
-0.0158675915
 32
0.0
 13
0.0
 23
-0.0183237191
 33
0.0
 40
0.0
 40
0.0
 40
0.0
 40
0.0
 40
0.2500093315
 40
1.0
 40
1.0
 40
1.0
 40
1.0
 10
6.7921964116
 20
4.8340112934
 30
0.0
 10
6.7914322655
 20
4.8326889448
 30
0.0
 10
6.7887207002
 20
4.8272009617
 30
0.0
 10
6.7875057621
 20
4.8210930554
 30
0.0
 10
6.7875057621
 20
4.8165121826
 30
0.0
 11
6.7921964116
 21
4.8340112934
 31
0.0
 11
6.7901699784
 21
4.8299061027
 31
0.0
 11
6.7875057621
 21
4.8165121826
 31
0.0
  0
SPLINE
  5
4DA
100
AcDbEntity
  8
0
100
AcDbSpline
 62
7
  6
CONTINUOUS
 70
0
 71
3
 72
14
 73
10
 74
8
 42
0.0000001
 43
0.0000001
 44
0.0000000001
 12
0.0
 22
-0.0916172274
 32
0.0
 13
-0.045846371
 23
0.079336773
 33
0.0
 40
0.0
 40
0.0
 40
0.0
 40
0.0
 40
0.1500003733
 40
0.3000007465
 40
0.4500011198
 40
0.6000014931
 40
0.7500018663
 40
0.9000022396
 40
1.0
 40
1.0
 40
1.0
 40
1.0
 10
6.8575057621
 20
3.8305121826
 30
0.0
 10
6.8575057621
 20
3.8259313098
 30
0.0
 10
6.8556833776
 20
3.8167695643
 30
0.0
 10
6.8478988096
 20
3.805119135
 30
0.0
 10
6.8362483804
 20
3.7973345671
 30
0.0
 10
6.8225057621
 20
3.7946009903
 30
0.0
 10
6.8087631438
 20
3.7973345671
 30
0.0
 10
6.7984072711
 20
3.80425414
 30
0.0
 10
6.7937245898
 20
3.8103685719
 30
0.0
 10
6.7921964116
 20
3.8130130718
 30
0.0
 11
6.8575057621
 21
3.8305121826
 31
0.0
 11
6.8548415457
 21
3.8171182625
 31
0.0
 11
6.8472544994
 21
3.8057634453
 31
0.0
 11
6.8358996822
 21
3.798176399
 31
0.0
 11
6.8225057621
 21
3.7955121826
 31
0.0
 11
6.8091118419
 21
3.798176399
 31
0.0
 11
6.7977570247
 21
3.8057634453
 31
0.0
 11
6.7921964116
 21
3.8130130718
 31
0.0
  0
SPLINE
  5
4DB
100
AcDbEntity
  8
0
100
AcDbSpline
 62
7
  6
CONTINUOUS
 70
0
 71
3
 72
9
 73
5
 74
3
 42
0.0000001
 43
0.0000001
 44
0.0000000001
 12
-0.0091694111
 22
0.0158675915
 32
0.0
 13
0.0
 23
0.0183237191
 33
0.0
 40
0.0
 40
0.0
 40
0.0
 40
0.0
 40
0.2500093315
 40
1.0
 40
1.0
 40
1.0
 40
1.0
 10
6.7921964116
 20
3.8130130718
 30
0.0
 10
6.7914322655
 20
3.8143354204
 30
0.0
 10
6.7887207002
 20
3.8198234035
 30
0.0
 10
6.7875057621
 20
3.8259313098
 30
0.0
 10
6.7875057621
 20
3.8305121826
 30
0.0
 11
6.7921964116
 21
3.8130130718
 31
0.0
 11
6.7901699784
 21
3.8171182625
 31
0.0
 11
6.7875057621
 21
3.8305121826
 31
0.0
  0
SPLINE
  5
4DC
100
AcDbEntity
  8
0
100
AcDbSpline
 62
7
  6
CONTINUOUS
 70
0
 71
3
 72
9
 73
5
 74
3
 42
0.0000001
 43
0.0000001
 44
0.0000000001
 12
0.0
 22
0.0338567261
 32
0.0
 13
-0.0206835959
 23
0.0268104417
 33
0.0
 40
0.0
 40
0.0
 40
0.0
 40
0.0
 40
0.5972603837
 40
1.0
 40
1.0
 40
1.0
 40
1.0
 10
3.4025057621
 20
4.7870121826
 30
0.0
 10
3.4025057621
 20
4.7937526097
 30
0.0
 10
3.4002609216
 20
4.805038185
 30
0.0
 10
3.394543622
 20
4.8148854208
 30
0.0
 10
3.3917669209
 20
4.8184846298
 30
0.0
 11
3.4025057621
 21
4.7870121826
 31
0.0
 11
3.398585558
 21
4.8067203794
 31
0.0
 11
3.3917669209
 21
4.8184846298
 31
0.0
  0
SPLINE
  5
4DD
100
AcDbEntity
  8
0
100
AcDbSpline
 62
7
  6
CONTINUOUS
 70
0
 71
3
 72
8
 73
4
 74
2
 42
0.0000001
 43
0.0000001
 44
0.0000000001
 12
-0.0021226434
 22
0.0027514078
 32
0.0
 13
-0.0023029305
 23
0.0026019409
 33
0.0
 40
0.0
 40
0.0
 40
0.0
 40
0.0
 40
1.0
 40
1.0
 40
1.0
 40
1.0
 10
3.3917669209
 20
4.8184846298
 30
0.0
 10
3.391059373
 20
4.8194017657
 30
0.0
 10
3.3903210402
 20
4.8202950938
 30
0.0
 10
3.3895533967
 20
4.8211624074
 30
0.0
 11
3.3917669209
 21
4.8184846298
 31
0.0
 11
3.3895533967
 21
4.8211624074
 31
0.0
  0
SPLINE
  5
4DE
100
AcDbEntity
  8
0
100
AcDbSpline
 62
7
  6
CONTINUOUS
 70
0
 71
3
 72
9
 73
5
 74
3
 42
0.0000001
 43
0.0000001
 44
0.0000000001
 12
0.0
 22
-0.0338567261
 32
0.0
 13
-0.0206835959
 23
-0.0268104417
 33
0.0
 40
0.0
 40
0.0
 40
0.0
 40
0.0
 40
0.5972603837
 40
1.0
 40
1.0
 40
1.0
 40
1.0
 10
3.4025057621
 20
3.8600121826
 30
0.0
 10
3.4025057621
 20
3.8532717555
 30
0.0
 10
3.4002609216
 20
3.8419861801
 30
0.0
 10
3.394543622
 20
3.8321389444
 30
0.0
 10
3.3917669209
 20
3.8285397354
 30
0.0
 11
3.4025057621
 21
3.8600121826
 31
0.0
 11
3.398585558
 21
3.8403039858
 31
0.0
 11
3.3917669209
 21
3.8285397354
 31
0.0
  0
SPLINE
  5
4DF
100
AcDbEntity
  8
0
100
AcDbSpline
 62
7
  6
CONTINUOUS
 70
0
 71
3
 72
8
 73
4
 74
2
 42
0.0000001
 43
0.0000001
 44
0.0000000001
 12
-0.0021226434
 22
-0.0027514078
 32
0.0
 13
-0.0023029305
 23
-0.0026019409
 33
0.0
 40
0.0
 40
0.0
 40
0.0
 40
0.0
 40
1.0
 40
1.0
 40
1.0
 40
1.0
 10
3.3917669209
 20
3.8285397354
 30
0.0
 10
3.391059373
 20
3.8276225995
 30
0.0
 10
3.3903210402
 20
3.8267292714
 30
0.0
 10
3.3895533967
 20
3.8258619577
 30
0.0
 11
3.3917669209
 21
3.8285397354
 31
0.0
 11
3.3895533967
 21
3.8258619577
 31
0.0
  0
SPLINE
  5
4E0
100
AcDbEntity
  8
0
100
AcDbSpline
 62
7
  6
CONTINUOUS
 70
0
 71
3
 72
19
 73
15
 74
13
 42
0.0000001
 43
0.0000001
 44
0.0000000001
 12
0.1207170301
 22
-0.0188506945
 32
0.0
 13
0.1208477246
 23
0.0179940522
 33
0.0
 40
0.0
 40
0.0
 40
0.0
 40
0.0
 40
0.0124019768
 40
0.049310725
 40
0.1097477564
 40
0.1926054656
 40
0.2905026526
 40
0.400807572
 40
0.5170205094
 40
0.6326384375
 40
0.7455266984
 40
0.8481865761
 40
0.9346019299
 40
1.0
 40
1.0
 40
1.0
 40
1.0
 10
7.9098010015
 20
4.6940121826
 30
0.0
 10
7.9103000448
 20
4.693934254
 30
0.0
 10
7.9122847532
 20
4.6936275592
 30
0.0
 10
7.9167062802
 20
4.6929729184
 30
0.0
 10
7.9239794492
 20
4.6919891332
 30
0.0
 10
7.9337382512
 20
4.6908611925
 30
0.0
 10
7.9455452648
 20
4.6897910371
 30
0.0
 10
7.9587361579
 20
4.6889987049
 30
0.0
 10
7.9726682616
 20
4.6886299684
 30
0.0
 10
7.986709959
 20
4.6887683259
 30
0.0
 10
8.0001859642
 20
4.6893884978
 30
0.0
 10
8.0124457735
 20
4.6903859129
 30
0.0
 10
8.0227459425
 20
4.6915452872
 30
0.0
 10
8.0288713594
 20
4.6923900248
 30
0.0
 10
8.0315057621
 20
4.6927822836
 30
0.0
 11
7.9098010015
 21
4.6940121826
 31
0.0
 11
7.9112985015
 21
4.6937807768
 31
0.0
 11
7.9157593892
 21
4.6931203398
 31
0.0
 11
7.9230770768
 21
4.6921314876
 31
0.0
 11
7.9331337257
 21
4.6909694982
 31
0.0
 11
7.9450463087
 21
4.6898934792
 31
0.0
 11
7.9584991806
 21
4.689086432
 31
0.0
 11
7.9726932341
 21
4.6887154937
 31
0.0
 11
7.9868187416
 21
4.6888554935
 31
0.0
 11
8.0005967273
 21
4.6894922217
 31
0.0
 11
8.013098401
 21
4.6905094056
 31
0.0
 11
8.0235903458
 21
4.691690641
 31
0.0
 11
8.0315057621
 21
4.6927822836
 31
0.0
  0
SPLINE
  5
4E1
100
AcDbEntity
  8
0
100
AcDbSpline
 62
7
  6
CONTINUOUS
 70
0
 71
3
 72
17
 73
13
 74
11
 42
0.0000001
 43
0.0000001
 44
0.0000000001
 12
0.0
 22
0.1338739974
 32
0.0
 13
0.1156664336
 23
-0.0679313398
 33
0.0
 40
0.0
 40
0.0
 40
0.0
 40
0.0
 40
0.0942860073
 40
0.1900995357
 40
0.2888718666
 40
0.3912251819
 40
0.4983649824
 40
0.608705476
 40
0.7207606072
 40
0.8290418365
 40
0.9348291792
 40
1.0
 40
1.0
 40
1.0
 40
1.0
 10
7.9340504027
 20
4.410036941
 30
0.0
 10
7.9340504027
 20
4.4142444226
 30
0.0
 10
7.9351042209
 20
4.4227667637
 30
0.0
 10
7.9398866941
 20
4.4348788589
 30
0.0
 10
7.9477023905
 20
4.4457397075
 30
0.0
 10
7.9581678801
 20
4.4548402761
 30
0.0
 10
7.9707710632
 20
4.4617530581
 30
0.0
 10
7.9849001276
 20
4.4661553012
 30
0.0
 10
7.9996621555
 20
4.467763937
 30
0.0
 10
8.0142546454
 20
4.4665347498
 30
0.0
 10
8.0263035402
 20
4.4630231708
 30
0.0
 10
8.0331720322
 20
4.4596222937
 30
0.0
 10
8.0356847243
 20
4.45814658
 30
0.0
 11
7.9340504027
 21
4.410036941
 31
0.0
 11
7.9356107289
 21
4.4225625744
 31
0.0
 11
7.9402984136
 21
4.4345022563
 31
0.0
 11
7.9479781819
 21
4.4452665549
 31
0.0
 11
7.9582782128
 21
4.4543035031
 31
0.0
 11
7.9708281046
 21
4.4612481815
 31
0.0
 11
7.9849232988
 21
4.4656673781
 31
0.0
 11
7.9998365223
 21
4.467290282
 31
0.0
 11
8.0142788046
 21
4.46604301
 31
0.0
 11
8.0278615192
 21
4.4620333904
 31
0.0
 11
8.0356847243
 21
4.45814658
 31
0.0
  0
SPLINE
  5
4E2
100
AcDbEntity
  8
0
100
AcDbSpline
 62
7
  6
CONTINUOUS
 70
0
 71
3
 72
9
 73
5
 74
3
 42
0.0000001
 43
0.0000001
 44
0.0000000001
 12
0.0
 22
0.0225604253
 32
0.0
 13
0.0090609845
 23
0.0207123187
 33
0.0
 40
0.0
 40
0.0
 40
0.0
 40
0.0
 40
0.5680522166
 40
1.0
 40
1.0
 40
1.0
 40
1.0
 10
7.9340504027
 20
4.2369874242
 30
0.0
 10
7.9340504027
 20
4.2412592574
 30
0.0
 10
7.934996932
 20
4.2488072879
 30
0.0
 10
7.9374463903
 20
4.2559616617
 30
0.0
 10
7.9387510144
 20
4.2589438751
 30
0.0
 11
7.9340504027
 21
4.2369874242
 31
0.0
 11
7.9356107289
 21
4.2497075819
 31
0.0
 11
7.9387510144
 21
4.2589438751
 31
0.0
  0
SPLINE
  5
4E3
100
AcDbEntity
  8
0
100
AcDbSpline
 62
7
  6
CONTINUOUS
 70
0
 71
3
 72
19
 73
15
 74
13
 42
0.0000001
 43
0.0000001
 44
0.0000000001
 12
0.0437902535
 22
-0.1330224438
 32
0.0
 13
0.0893419603
 23
0.1064873329
 33
0.0
 40
0.0
 40
0.0
 40
0.0
 40
0.0
 40
0.0071567293
 40
0.0726747385
 40
0.1486451152
 40
0.236295768
 40
0.330389561
 40
0.430697258
 40
0.5334574642
 40
0.6351694095
 40
0.7363299043
 40
0.8328286909
 40
0.921581407
 40
1.0
 40
1.0
 40
1.0
 40
1.0
 10
7.9109667803
 20
4.6163151248
 30
0.0
 10
7.9110712453
 20
4.6159977896
 30
0.0
 10
7.9121952114
 20
4.6127977812
 30
0.0
 10
7.915735705
 20
4.606790624
 30
0.0
 10
7.9232526075
 20
4.5991714234
 30
0.0
 10
7.9332240087
 20
4.5924795329
 30
0.0
 10
7.9451980813
 20
4.5871050084
 30
0.0
 10
7.9585446006
 20
4.5835038098
 30
0.0
 10
7.9726314578
 20
4.5819113365
 30
0.0
 10
7.9868365946
 20
4.5825037181
 30
0.0
 10
8.0004954259
 20
4.5852501614
 30
0.0
 10
8.0129467623
 20
4.5900368842
 30
0.0
 10
8.0234384342
 20
4.5964264004
 30
0.0
 10
8.0291704051
 20
4.601744724
 30
0.0
 10
8.0315057621
 20
4.6045282529
 30
0.0
 11
7.9109667803
 21
4.6163151248
 31
0.0
 11
7.9112984997
 21
4.6153700912
 31
0.0
 11
7.9157593886
 21
4.6074302997
 31
0.0
 11
7.9230770785
 21
4.5998167832
 31
0.0
 11
7.9331337303
 21
4.5929389844
 31
0.0
 11
7.9450463124
 21
4.5875393209
 31
0.0
 11
7.9584991827
 21
4.5838750986
 31
0.0
 11
7.9726932339
 21
4.5822757926
 31
0.0
 11
7.9868187396
 21
4.5828737721
 31
0.0
 11
8.0005967242
 21
4.5856832293
 31
0.0
 11
8.0130983979
 21
4.590544363
 31
0.0
 11
8.0235903439
 21
4.5970340229
 31
0.0
 11
8.0315057621
 21
4.6045282529
 31
0.0
  0
SPLINE
  5
4E4
100
AcDbEntity
  8
0
100
AcDbSpline
 62
7
  6
CONTINUOUS
 70
0
 71
3
 72
9
 73
5
 74
3
 42
0.0000001
 43
0.0000001
 44
0.0000000001
 12
-0.0090862316
 22
0.0207399413
 32
0.0
 13
0.0
 23
0.022592045
 33
0.0
 40
0.0
 40
0.0
 40
0.0
 40
0.0
 40
0.4362971722
 40
1.0
 40
1.0
 40
1.0
 40
1.0
 10
7.9387639889
 20
4.3880508411
 30
0.0
 10
7.9374425565
 20
4.3910671003
 30
0.0
 10
7.93499196
 20
4.3982340027
 30
0.0
 10
7.9340504027
 20
4.4057918745
 30
0.0
 10
7.9340504027
 20
4.410036941
 30
0.0
 11
7.9387639889
 21
4.3880508411
 31
0.0
 11
7.9355914334
 21
4.3973953219
 31
0.0
 11
7.9340504027
 21
4.410036941
 31
0.0
  0
SPLINE
  5
4E5
100
AcDbEntity
  8
0
100
AcDbSpline
 62
7
  6
CONTINUOUS
 70
0
 71
3
 72
15
 73
11
 74
9
 42
0.0000001
 43
0.0000001
 44
0.0000000001
 12
0.0661945179
 22
-0.0763602221
 32
0.0
 13
0.0795608471
 23
0.0623273596
 33
0.0
 40
0.0
 40
0.0
 40
0.0
 40
0.0
 40
0.1195934976
 40
0.2600041946
 40
0.4027111101
 40
0.5451328909
 40
0.6854094394
 40
0.8273917755
 40
0.9687070785
 40
1.0
 40
1.0
 40
1.0
 40
1.0
 10
7.9244259716
 20
4.4003547475
 30
0.0
 10
7.9270647829
 20
4.3973106855
 30
0.0
 10
7.9334204492
 20
4.3912306997
 30
0.0
 10
7.9448908452
 20
4.3838568139
 30
0.0
 10
7.9583612345
 20
4.3787348249
 30
0.0
 10
7.9725953105
 20
4.3764887179
 30
0.0
 10
7.9869599649
 20
4.3773229977
 30
0.0
 10
8.0007797755
 20
4.3812239815
 30
0.0
 10
8.0101383843
 20
4.3863480642
 30
0.0
 10
8.0148062823
 20
4.3898189368
 30
0.0
 10
8.0156361794
 20
4.3904690719
 30
0.0
 11
7.9244259716
 21
4.4003547475
 31
0.0
 11
7.933133736
 21
4.3919965858
 31
0.0
 11
7.9450463218
 21
4.3843357652
 31
0.0
 11
7.958499195
 21
4.3792139775
 31
0.0
 11
7.9726932479
 21
4.3769971869
 31
0.0
 11
7.9868187534
 21
4.3778247412
 31
0.0
 11
8.0005967362
 21
4.381733813
 31
0.0
 11
8.0130984065
 21
4.38858211
 31
0.0
 11
8.0156361794
 21
4.3904690719
 31
0.0
  0
SPLINE
  5
4E6
100
AcDbEntity
  8
0
100
AcDbSpline
 62
7
  6
CONTINUOUS
 70
0
 71
3
 72
9
 73
5
 74
3
 42
0.0000001
 43
0.0000001
 44
0.0000000001
 12
0.0192898168
 22
0.0151114951
 32
0.0
 13
0.0119804263
 23
0.021320941
 33
0.0
 40
0.0
 40
0.0
 40
0.0
 40
0.0
 40
0.444736276
 40
1.0
 40
1.0
 40
1.0
 40
1.0
 10
8.0156361794
 20
4.3904690719
 30
0.0
 10
8.0184958065
 20
4.3927092819
 30
0.0
 10
8.0244887875
 20
4.3983040191
 30
0.0
 10
8.02928833
 20
4.4049893864
 30
0.0
 10
8.0315057621
 20
4.4089356348
 30
0.0
 11
8.0156361794
 21
4.3904690719
 31
0.0
 11
8.023590348
 21
4.3979013632
 31
0.0
 11
8.0315057621
 21
4.4089356348
 31
0.0
  0
SPLINE
  5
4E7
100
AcDbEntity
  8
0
100
AcDbSpline
 62
7
  6
CONTINUOUS
 70
0
 71
3
 72
17
 73
13
 74
11
 42
0.0000001
 43
0.0000001
 44
0.0000000001
 12
-0.1156601805
 22
-0.0679470257
 32
0.0
 13
-0.0
 23
0.1338771958
 33
0.0
 40
0.0
 40
0.0
 40
0.0
 40
0.0
 40
0.0617029475
 40
0.1658506551
 40
0.2714074462
 40
0.380848264
 40
0.4903622745
 40
0.5990176978
 40
0.7051835903
 40
0.8078809428
 40
0.9062985541
 40
1.0
 40
1.0
 40
1.0
 40
1.0
 10
8.0356900743
 20
4.1888810152
 30
0.0
 10
8.0333112163
 20
4.1874835046
 30
0.0
 10
8.0266625737
 20
4.1841588981
 30
0.0
 10
8.0149827817
 20
4.1806466653
 30
0.0
 10
8.0007212361
 20
4.1792749382
 30
0.0
 10
7.9862151267
 20
4.1806244539
 30
0.0
 10
7.9720886459
 20
4.1847278043
 30
0.0
 10
7.9591675328
 20
4.1914773848
 30
0.0
 10
7.9482225702
 20
4.2006683115
 30
0.0
 10
7.9400162605
 20
4.2118339159
 30
0.0
 10
7.9351082141
 20
4.2241939185
 30
0.0
 10
7.9340504027
 20
4.2328059286
 30
0.0
 10
7.9340504027
 20
4.2369874242
 30
0.0
 11
8.0356900743
 21
4.1888810152
 31
0.0
 11
8.0282964759
 21
4.1851728378
 31
0.0
 11
8.0149579455
 21
4.1811119338
 31
0.0
 11
8.00089404
 21
4.1797299018
 31
0.0
 11
7.9863049143
 21
4.1810818144
 31
0.0
 11
7.9722319902
 21
4.1851940275
 31
0.0
 11
7.9593633886
 21
4.1919763037
 31
0.0
 11
7.948521993
 21
4.2011675478
 31
0.0
 11
7.9404294418
 21
4.2122824495
 31
0.0
 11
7.9355914334
 21
4.2245379513
 31
0.0
 11
7.9340504027
 21
4.2369874242
 31
0.0
  0
SPLINE
  5
4E8
100
AcDbEntity
  8
0
100
AcDbSpline
 62
7
  6
CONTINUOUS
 70
0
 71
3
 72
10
 73
6
 74
4
 42
0.0000001
 43
0.0000001
 44
0.0000000001
 12
0.0
 22
0.0215110708
 32
0.0
 13
-0.0138260035
 23
0.0164793142
 33
0.0
 40
0.0
 40
0.0
 40
0.0
 40
0.0
 40
0.3215225165
 40
0.6602832515
 40
1.0
 40
1.0
 40
1.0
 40
1.0
 10
8.038837456
 20
4.0226449867
 30
0.0
 10
8.038837456
 20
4.0249504179
 30
0.0
 10
8.0381689944
 20
4.0296934512
 30
0.0
 10
8.0356930408
 20
4.0364643337
 30
0.0
 10
8.0330714037
 20
4.0406300126
 30
0.0
 10
8.0315057621
 20
4.0424961123
 30
0.0
 11
8.038837456
 21
4.0226449867
 31
0.0
 11
8.0379573038
 21
4.0295050486
 31
0.0
 11
8.0354606313
 21
4.036351109
 31
0.0
 11
8.0315057621
 21
4.0424961123
 31
0.0
  0
SPLINE
  5
4E9
100
AcDbEntity
  8
0
100
AcDbSpline
 62
7
  6
CONTINUOUS
 70
0
 71
3
 72
10
 73
6
 74
4
 42
0.0000001
 43
0.0000001
 44
0.0000000001
 12
0.0148547778
 22
0.025069273
 32
0.0
 13
0.0
 23
0.0291398845
 33
0.0
 40
0.0
 40
0.0
 40
0.0
 40
0.0
 40
0.3151193975
 40
0.644776561
 40
1.0
 40
1.0
 40
1.0
 40
1.0
 10
8.0315057621
 20
4.1807141613
 30
0.0
 10
8.0330661049
 20
4.1833474327
 30
0.0
 10
8.0357850552
 20
4.1890350005
 30
0.0
 10
8.0382932833
 20
4.1984704817
 30
0.0
 10
8.038837456
 20
4.2051407499
 30
0.0
 10
8.038837456
 20
4.2085911399
 30
0.0
 11
8.0315057621
 21
4.1807141613
 31
0.0
 11
8.0354606052
 21
4.189001399
 31
0.0
 11
8.0379572385
 21
4.1982774627
 31
0.0
 11
8.038837456
 21
4.2085911399
 31
0.0
  0
SPLINE
  5
4EA
100
AcDbEntity
  8
0
100
AcDbSpline
 62
7
  6
CONTINUOUS
 70
0
 71
3
 72
10
 73
6
 74
4
 42
0.0000001
 43
0.0000001
 44
0.0000000001
 12
0.0
 22
0.0306795056
 32
0.0
 13
-0.0150289611
 23
0.0267462595
 33
0.0
 40
0.0
 40
0.0
 40
0.0
 40
0.0
 40
0.3471423647
 40
0.6819663327
 40
1.0
 40
1.0
 40
1.0
 40
1.0
 10
8.038837456
 20
4.2085911399
 30
0.0
 10
8.038837456
 20
4.2121411919
 30
0.0
 10
8.0382522651
 20
4.2191285155
 30
0.0
 10
8.0357847737
 20
4.2290921836
 30
0.0
 10
8.0330990006
 20
4.2352533268
 30
0.0
 10
8.0315057621
 20
4.2380887304
 30
0.0
 11
8.038837456
 21
4.2085911399
 31
0.0
 11
8.0379573038
 21
4.2192048648
 31
0.0
 11
8.0354606313
 21
4.2291690715
 31
0.0
 11
8.0315057621
 21
4.2380887304
 31
0.0
  0
SPLINE
  5
4EB
100
AcDbEntity
  8
0
100
AcDbSpline
 62
7
  6
CONTINUOUS
 70
0
 71
3
 72
9
 73
5
 74
3
 42
0.0000001
 43
0.0000001
 44
0.0000000001
 12
-0.0119914765
 22
0.0213406063
 32
0.0
 13
-0.0193117392
 23
0.0151181481
 33
0.0
 40
0.0
 40
0.0
 40
0.0
 40
0.0
 40
0.5453038676
 40
1.0
 40
1.0
 40
1.0
 40
1.0
 10
8.0315057621
 20
4.2380887304
 30
0.0
 10
8.0293260959
 20
4.2419677688
 30
0.0
 10
8.0245364103
 20
4.2486662414
 30
0.0
 10
8.0185468376
 20
4.2542769862
 30
0.0
 10
8.0156198465
 20
4.2565683741
 30
0.0
 11
8.0315057621
 21
4.2380887304
 31
0.0
 11
8.0237456337
 21
4.2489497321
 31
0.0
 11
8.0156198465
 21
4.2565683741
 31
0.0
  0
SPLINE
  5
4EC
100
AcDbEntity
  8
0
100
AcDbSpline
 62
7
  6
CONTINUOUS
 70
0
 71
3
 72
15
 73
11
 74
9
 42
0.0000001
 43
0.0000001
 44
0.0000000001
 12
-0.0795558635
 22
0.0622801142
 32
0.0
 13
-0.0661860163
 23
-0.0763365044
 33
0.0
 40
0.0
 40
0.0
 40
0.0
 40
0.0
 40
0.0267671405
 40
0.1664945647
 40
0.3074479359
 40
0.4469896513
 40
0.5890718362
 40
0.7320168924
 40
0.872898708
 40
1.0
 40
1.0
 40
1.0
 40
1.0
 10
8.0156198465
 20
4.2565683741
 30
0.0
 10
8.0149100189
 20
4.2571240609
 30
0.0
 10
8.010420349
 20
4.2604854572
 30
0.0
 10
8.0013198233
 20
4.2655654207
 30
0.0
 10
7.9876551134
 20
4.2695751418
 30
0.0
 10
7.9733766624
 20
4.2705654712
 30
0.0
 10
7.9591489932
 20
4.2684947164
 30
0.0
 10
7.945611074
 20
4.2635275328
 30
0.0
 10
7.9338248266
 20
4.2561387846
 30
0.0
 10
7.9272351949
 20
4.2499101373
 30
0.0
 10
7.9244310855
 20
4.2466759812
 30
0.0
 11
8.0156198465
 21
4.2565683741
 31
0.0
 11
8.0134550842
 21
4.2581890997
 31
0.0
 11
8.001153169
 21
4.2650595688
 31
0.0
 11
7.9875191704
 21
4.2690787424
 31
0.0
 11
7.9734817315
 21
4.2700602568
 31
0.0
 11
7.9593000778
 21
4.2680183537
 31
0.0
 11
7.94576895
 21
4.2630486179
 31
0.0
 11
7.9337326612
 21
4.2555012775
 31
0.0
 11
7.9244310855
 21
4.2466759812
 31
0.0
  0
SPLINE
  5
4ED
100
AcDbEntity
  8
0
100
AcDbSpline
 62
7
  6
CONTINUOUS
 70
0
 71
3
 72
19
 73
15
 74
13
 42
0.0000001
 43
0.0000001
 44
0.0000000001
 12
-0.0893386722
 22
0.1064834139
 32
0.0
 13
-0.0438259898
 23
-0.1330739699
 33
0.0
 40
0.0
 40
0.0
 40
0.0
 40
0.0
 40
0.0770203275
 40
0.1643219409
 40
0.259520599
 40
0.3597846973
 40
0.4609045295
 40
0.5634823868
 40
0.6641396136
 40
0.7588293214
 40
0.8474413069
 40
0.9246520997
 40
0.9915095366
 40
1.0
 40
1.0
 40
1.0
 40
1.0
 10
8.0315057621
 20
4.0424961123
 30
0.0
 10
8.0292121308
 20
4.0452299081
 30
0.0
 10
8.0235911665
 20
4.0504681405
 30
0.0
 10
8.0132959249
 20
4.056804907
 30
0.0
 10
8.0010350951
 20
4.0616082659
 30
0.0
 10
7.9875254583
 20
4.0644311566
 30
0.0
 10
7.9734041275
 20
4.0651341836
 30
0.0
 10
7.9593244696
 20
4.0636656414
 30
0.0
 10
7.945913321
 20
4.0601714749
 30
0.0
 10
7.9338112788
 20
4.0548686301
 30
0.0
 10
7.9236694508
 20
4.0481991031
 30
0.0
 10
7.9159622009
 20
4.0405368005
 30
0.0
 10
7.9122711062
 20
4.0344049472
 30
0.0
 10
7.9110927753
 20
4.0310899725
 30
0.0
 10
7.910968741
 20
4.0307133526
 30
0.0
 11
8.0315057621
 21
4.0424961123
 31
0.0
 11
8.0237456333
 21
4.0498710602
 31
0.0
 11
8.0134550858
 21
4.0563017894
 31
0.0
 11
8.001153175
 21
4.0611759086
 31
0.0
 11
7.9875191825
 21
4.0640633361
 31
0.0
 11
7.9734817493
 21
4.064772499
 31
0.0
 11
7.9593001009
 21
4.0632989677
 31
0.0
 11
7.9457689746
 21
4.0597412065
 31
0.0
 11
7.9337326837
 21
4.0544163048
 31
0.0
 11
7.9235005503
 21
4.0475601676
 31
0.0
 11
7.9159887465
 21
4.0398953258
 31
0.0
 11
7.911366518
 21
4.0318334206
 31
0.0
 11
7.910968741
 21
4.0307133526
 31
0.0
  0
SPLINE
  5
4EE
100
AcDbEntity
  8
0
100
AcDbSpline
 62
7
  6
CONTINUOUS
 70
0
 71
3
 72
19
 73
15
 74
13
 42
0.0000001
 43
0.0000001
 44
0.0000000001
 12
-0.1208477655
 22
0.0179940583
 32
0.0
 13
-0.1207172528
 23
-0.0188494909
 33
0.0
 40
0.0
 40
0.0
 40
0.0
 40
0.0
 40
0.0641169347
 40
0.1488801037
 40
0.2499096442
 40
0.3616268044
 40
0.4765261788
 40
0.5926316886
 40
0.7035661909
 40
0.8024663549
 40
0.8867587108
 40
0.9487930075
 40
0.9870348818
 40
1.0
 40
1.0
 40
1.0
 40
1.0
 10
8.0315057621
 20
3.9542420816
 30
0.0
 10
8.028922966
 20
3.9546266562
 30
0.0
 10
8.0229161009
 20
3.955456365
 30
0.0
 10
8.0128014906
 20
3.9566019626
 30
0.0
 10
8.0007237732
 20
3.9575993397
 30
0.0
 10
7.9873921021
 20
3.9582352758
 30
0.0
 10
7.9734320656
 20
3.9583993641
 30
0.0
 10
7.9595072386
 20
3.958058805
 30
0.0
 10
7.9462528565
 20
3.9572869208
 30
0.0
 10
7.9343197328
 20
3.9562238197
 30
0.0
 10
7.924396328
 20
3.9550884089
 30
0.0
 10
7.9169462528
 20
3.9540860452
 30
0.0
 10
7.912383763
 20
3.9534119741
 30
0.0
 10
7.910322706
 20
3.9530936446
 30
0.0
 10
7.9098010016
 20
3.9530121826
 30
0.0
 11
8.0315057621
 21
3.9542420816
 31
0.0
 11
8.0237456332
 21
3.9553139959
 31
0.0
 11
8.0134550858
 21
3.9564797684
 31
0.0
 11
8.0011531756
 21
3.957495791
 31
0.0
 11
7.9875191839
 21
3.9581485729
 31
0.0
 11
7.9734817514
 21
3.9583145055
 31
0.0
 11
7.9593001036
 21
3.9579721797
 31
0.0
 11
7.9457689775
 21
3.9571853308
 31
0.0
 11
7.9337326861
 21
3.9561167939
 31
0.0
 11
7.9235005525
 21
3.9549464684
 31
0.0
 11
7.9159887479
 21
3.9539368122
 31
0.0
 11
7.9113665185
 21
3.9532539739
 31
0.0
 11
7.9098010016
 21
3.9530121826
 31
0.0
  0
SPLINE
  5
4EF
100
AcDbEntity
  8
0
100
AcDbSpline
 62
7
  6
CONTINUOUS
 70
0
 71
3
 72
8
 73
4
 74
2
 42
0.0000001
 43
0.0000001
 44
0.0000000001
 12
-0.0008692185
 22
0.0005054992
 32
0.0
 13
-0.0008909466
 23
0.0004663699
 33
0.0
 40
0.0
 40
0.0
 40
0.0
 40
0.0
 40
1.0
 40
1.0
 40
1.0
 40
1.0
 10
8.038837456
 20
3.9516198763
 30
0.0
 10
8.0385477165
 20
3.951788376
 30
0.0
 10
8.0382542636
 20
3.9519505198
 30
0.0
 10
8.0379572814
 20
3.9521059764
 30
0.0
 11
8.038837456
 21
3.9516198763
 31
0.0
 11
8.0379572814
 21
3.9521059764
 31
0.0
  0
SPLINE
  5
4F0
100
AcDbEntity
  8
0
100
AcDbSpline
 62
7
  6
CONTINUOUS
 70
0
 71
3
 72
9
 73
5
 74
3
 42
0.0000001
 43
0.0000001
 44
0.0000000001
 12
-0.0060418268
 22
0.003162621
 32
0.0
 13
-0.0067442023
 23
0.001004202
 33
0.0
 40
0.0
 40
0.0
 40
0.0
 40
0.0
 40
0.400888059
 40
1.0
 40
1.0
 40
1.0
 40
1.0
 10
8.0379572814
 20
3.9521059764
 30
0.0
 10
8.037149916
 20
3.9525285954
 30
0.0
 10
8.0350709087
 20
3.9534595221
 30
0.0
 10
8.0328526061
 20
3.9540415385
 30
0.0
 10
8.0315057621
 20
3.9542420816
 30
0.0
 11
8.0379572814
 21
3.9521059764
 31
0.0
 11
8.0354606313
 21
3.9532189164
 31
0.0
 11
8.0315057621
 21
3.9542420816
 31
0.0
  0
SPLINE
  5
4F1
100
AcDbEntity
  8
0
100
AcDbSpline
 62
7
  6
CONTINUOUS
 70
0
 71
3
 72
10
 73
6
 74
4
 42
0.0000001
 43
0.0000001
 44
0.0000000001
 12
0.0150289611
 22
0.0267462594
 32
0.0
 13
-0.0
 23
0.0306795056
 33
0.0
 40
0.0
 40
0.0
 40
0.0
 40
0.0
 40
0.3180310475
 40
0.652844721
 40
1.0
 40
1.0
 40
1.0
 40
1.0
 10
8.0315057621
 20
4.4089356348
 30
0.0
 10
8.0330989875
 20
4.4117710151
 30
0.0
 10
8.0357847124
 20
4.4179320339
 30
0.0
 10
8.0382522411
 20
4.4278956892
 30
0.0
 10
8.038837456
 20
4.4348830412
 30
0.0
 10
8.038837456
 20
4.4384332253
 30
0.0
 11
8.0315057621
 21
4.4089356348
 31
0.0
 11
8.0354606052
 21
4.4178552173
 31
0.0
 11
8.0379572385
 21
4.4278191082
 31
0.0
 11
8.038837456
 21
4.4384332253
 31
0.0
  0
SPLINE
  5
4F2
100
AcDbEntity
  8
0
100
AcDbSpline
 62
7
  6
CONTINUOUS
 70
0
 71
3
 72
10
 73
6
 74
4
 42
0.0000001
 43
0.0000001
 44
0.0000000001
 12
-0.0
 22
0.0291398845
 32
0.0
 13
-0.0148547778
 23
0.025069273
 33
0.0
 40
0.0
 40
0.0
 40
0.0
 40
0.0
 40
0.35521055
 40
0.684878038
 40
1.0
 40
1.0
 40
1.0
 40
1.0
 10
8.038837456
 20
4.4384332253
 30
0.0
 10
8.038837456
 20
4.4418834901
 30
0.0
 10
8.0382933056
 20
4.4485537311
 30
0.0
 10
8.0357851183
 20
4.4579892272
 30
0.0
 10
8.0330661176
 20
4.463676911
 30
0.0
 10
8.0315057621
 20
4.4663102039
 30
0.0
 11
8.038837456
 21
4.4384332253
 31
0.0
 11
8.0379573038
 21
4.4487465312
 31
0.0
 11
8.0354606313
 21
4.4580228958
 31
0.0
 11
8.0315057621
 21
4.4663102039
 31
0.0
  0
SPLINE
  5
4F3
100
AcDbEntity
  8
0
100
AcDbSpline
 62
7
  6
CONTINUOUS
 70
0
 71
3
 72
10
 73
6
 74
4
 42
0.0000001
 43
0.0000001
 44
0.0000000001
 12
0.0138260033
 22
0.016479314
 32
0.0
 13
0.0
 23
0.0215110706
 33
0.0
 40
0.0
 40
0.0
 40
0.0
 40
0.0
 40
0.3397140163
 40
0.6784649615
 40
1.0
 40
1.0
 40
1.0
 40
1.0
 10
8.0315057621
 20
4.6045282529
 30
0.0
 10
8.0330713911
 20
4.6063943376
 30
0.0
 10
8.0356929843
 20
4.6105599366
 30
0.0
 10
8.0381689664
 20
4.6173308038
 30
0.0
 10
8.038837456
 20
4.6220738575
 30
0.0
 10
8.038837456
 20
4.6243793785
 30
0.0
 11
8.0315057621
 21
4.6045282529
 31
0.0
 11
8.0354606052
 21
4.610673203
 31
0.0
 11
8.0379572385
 21
4.6175190534
 31
0.0
 11
8.038837456
 21
4.6243793785
 31
0.0
  0
SPLINE
  5
4F4
100
AcDbEntity
  8
0
100
AcDbSpline
 62
7
  6
CONTINUOUS
 70
0
 71
3
 72
9
 73
5
 74
3
 42
0.0000001
 43
0.0000001
 44
0.0000000001
 12
0.0067442025
 22
0.001004202
 32
0.0
 13
0.0060418275
 23
0.00316262
 33
0.0
 40
0.0
 40
0.0
 40
0.0
 40
0.0
 40
0.5991078657
 40
1.0
 40
1.0
 40
1.0
 40
1.0
 10
8.0315057621
 20
4.6927822836
 30
0.0
 10
8.032852597
 20
4.6929828254
 30
0.0
 10
8.0350709001
 20
4.6935648395
 30
0.0
 10
8.0371499075
 20
4.6944957661
 30
0.0
 10
8.0379572812
 20
4.6949183892
 30
0.0
 11
8.0315057621
 21
4.6927822836
 31
0.0
 11
8.0354606052
 21
4.6938054391
 31
0.0
 11
8.0379572812
 21
4.6949183892
 31
0.0
  0
SPLINE
  5
4F5
100
AcDbEntity
  8
0
100
AcDbSpline
 62
7
  6
CONTINUOUS
 70
0
 71
3
 72
8
 73
4
 74
2
 42
0.0000001
 43
0.0000001
 44
0.0000000001
 12
0.0008909466
 22
0.0004663698
 32
0.0
 13
0.000869219
 23
0.0005054984
 33
0.0
 40
0.0
 40
0.0
 40
0.0
 40
0.0
 40
1.0
 40
1.0
 40
1.0
 40
1.0
 10
8.0379572812
 20
4.6949183892
 30
0.0
 10
8.0382542634
 20
4.6950738458
 30
0.0
 10
8.0385477163
 20
4.6952359894
 30
0.0
 10
8.038837456
 20
4.6954044889
 30
0.0
 11
8.0379572812
 21
4.6949183892
 31
0.0
 11
8.038837456
 21
4.6954044889
 31
0.0
  0
SPLINE
  5
4F6
100
AcDbEntity
  8
0
100
AcDbSpline
 62
7
  6
CONTINUOUS
 70
0
 71
3
 72
9
 73
5
 74
3
 42
0.0000001
 43
0.0000001
 44
0.0000000001
 12
0.008191496
 22
0.0077899845
 32
0.0
 13
0.0035988147
 23
0.0107564757
 33
0.0
 40
0.0
 40
0.0
 40
0.0
 40
0.0
 40
0.5292707264
 40
1.0
 40
1.0
 40
1.0
 40
1.0
 10
8.0315057621
 20
4.0070366785
 30
0.0
 10
8.0329509351
 20
4.0084110154
 30
0.0
 10
8.0355441597
 20
4.0111891568
 30
0.0
 10
8.0372971754
 20
4.0145896397
 30
0.0
 10
8.0378618646
 20
4.0162774357
 30
0.0
 11
8.0315057621
 21
4.0070366785
 31
0.0
 11
8.0354606052
 21
4.0115261282
 31
0.0
 11
8.0378618646
 21
4.0162774357
 31
0.0
  0
SPLINE
  5
4F7
100
AcDbEntity
  8
0
100
AcDbSpline
 62
7
  6
CONTINUOUS
 70
0
 71
3
 72
11
 73
7
 74
5
 42
0.0000001
 43
0.0000001
 44
0.0000000001
 12
-0.0270264655
 22
-0.0311713262
 32
0.0
 13
-0.0
 23
-0.0411780592
 33
0.0
 40
0.0
 40
0.0
 40
0.0
 40
0.0
 40
0.0348828266
 40
0.366271563
 40
0.6867696009
 40
1.0
 40
1.0
 40
1.0
 40
1.0
 10
7.9244310855
 20
4.2466759812
 30
0.0
 10
7.9241168323
 20
4.2463135332
 30
0.0
 10
7.9208595253
 20
4.2424708874
 30
0.0
 10
7.9156078246
 20
4.2345497271
 30
0.0
 10
7.9108869863
 20
4.2220529919
 30
0.0
 10
7.9098009995
 20
4.2133207928
 30
0.0
 10
7.9098009995
 20
4.2090213862
 30
0.0
 11
7.9244310855
 21
4.2466759812
 31
0.0
 11
7.9235005361
 21
4.2455781404
 31
0.0
 11
7.9159887415
 21
4.2341858291
 31
0.0
 11
7.9113665194
 21
4.2218242462
 31
0.0
 11
7.9098009995
 21
4.2090213862
 31
0.0
  0
SPLINE
  5
4F8
100
AcDbEntity
  8
0
100
AcDbSpline
 62
7
  6
CONTINUOUS
 70
0
 71
3
 72
19
 73
15
 74
13
 42
0.0000001
 43
0.0000001
 44
0.0000000001
 12
-0.0
 22
-0.1530328815
 32
0.0
 13
0.1005376464
 23
0.1160064347
 33
0.0
 40
0.0
 40
0.0
 40
0.0
 40
0.0
 40
0.0814897983
 40
0.1637903931
 40
0.2485995943
 40
0.3378788941
 40
0.4281528429
 40
0.5211070331
 40
0.6147635787
 40
0.7071942341
 40
0.800111653
 40
0.8913559031
 40
0.9799599161
 40
1.0
 40
1.0
 40
1.0
 40
1.0
 10
7.9098009995
 20
4.2090213862
 30
0.0
 10
7.9098009995
 20
4.2048645133
 30
0.0
 10
7.9108102676
 20
4.1964730476
 30
0.0
 10
7.9153664956
 20
4.1845117231
 30
0.0
 10
7.9228416094
 20
4.1736326637
 30
0.0
 10
7.9328898198
 20
4.1644724633
 30
0.0
 10
7.9449769964
 20
4.1574151825
 30
0.0
 10
7.9584299982
 20
4.1528285587
 30
0.0
 10
7.9726104622
 20
4.1508366267
 30
0.0
 10
7.9869103259
 20
4.1515751298
 30
0.0
 10
8.0006867649
 20
4.1550454261
 30
0.0
 10
8.0132639189
 20
4.1612563583
 30
0.0
 10
8.0212403593
 20
4.1677461009
 30
0.0
 10
8.0249953628
 20
4.1718483827
 30
0.0
 10
8.0256669571
 20
4.1726233089
 30
0.0
 11
7.9098009995
 21
4.2090213862
 31
0.0
 11
7.911298505
 21
4.1966410063
 31
0.0
 11
7.9157593963
 21
4.1848627702
 31
0.0
 11
7.9230770865
 21
4.1741438442
 31
0.0
 11
7.933133736
 21
4.164895476
 31
0.0
 11
7.9450463218
 21
4.1578996717
 31
0.0
 11
7.958499195
 21
4.1532766663
 31
0.0
 11
7.9726932479
 21
4.1512891279
 31
0.0
 11
7.9868187535
 21
4.1520301573
 31
0.0
 11
8.0005967362
 21
4.1555457093
 31
0.0
 11
8.0130984065
 21
4.1617653521
 31
0.0
 11
8.023590348
 21
4.1703545618
 31
0.0
 11
8.0256669571
 21
4.1726233089
 31
0.0
  0
SPLINE
  5
4F9
100
AcDbEntity
  8
0
100
AcDbSpline
 62
7
  6
CONTINUOUS
 70
0
 71
3
 72
19
 73
15
 74
13
 42
0.0000001
 43
0.0000001
 44
0.0000000001
 12
0.0000000014
 22
-0.139048293
 32
0.0
 13
0.1007603936
 23
0.0958215574
 33
0.0
 40
0.0
 40
0.0
 40
0.0
 40
0.0
 40
0.0550624259
 40
0.1139788782
 40
0.1820961425
 40
0.2628594339
 40
0.3524811627
 40
0.4507062322
 40
0.5530388193
 40
0.6546609863
 40
0.754571512
 40
0.8474063323
 40
0.9297329786
 40
1.0
 40
1.0
 40
1.0
 40
1.0
 10
7.9098010019
 20
4.0237713813
 30
0.0
 10
7.9098010019
 20
4.0212192692
 30
0.0
 10
7.910878437
 20
4.0158750323
 30
0.0
 10
7.9157247809
 20
4.0087552009
 30
0.0
 10
7.9233805089
 20
4.0027354218
 30
0.0
 10
7.933410897
 20
3.9979417055
 30
0.0
 10
7.9453767426
 20
3.9943728099
 30
0.0
 10
7.9586619373
 20
3.9921108782
 30
0.0
 10
7.9726554563
 20
3.9911413544
 30
0.0
 10
7.9867559016
 20
3.991500066
 30
0.0
 10
8.0003203231
 20
3.9931905969
 30
0.0
 10
8.0127319167
 20
3.9962779778
 30
0.0
 10
8.0232689272
 20
4.0007010005
 30
0.0
 10
8.0291457178
 20
4.0047923133
 30
0.0
 10
8.0315057621
 20
4.0070366785
 30
0.0
 11
7.9098010019
 21
4.0237713813
 31
0.0
 11
7.9112984997
 21
4.0162629203
 31
0.0
 11
7.9157593886
 21
4.0093917386
 31
0.0
 11
7.9230770785
 21
4.003378219
 31
0.0
 11
7.9331337303
 21
3.9983805591
 31
0.0
 11
7.9450463124
 21
3.9947219306
 31
0.0
 11
7.9584991827
 21
3.9923635378
 31
0.0
 11
7.9726932339
 21
3.9913644225
 31
0.0
 11
7.9868187396
 21
3.9917358775
 31
0.0
 11
8.0005967242
 21
3.9935150871
 31
0.0
 11
8.0130983979
 21
3.996730383
 31
0.0
 11
8.0235903439
 21
4.0013087636
 31
0.0
 11
8.0315057621
 21
4.0070366785
 31
0.0
  0
SPLINE
  5
4FA
100
AcDbEntity
  8
0
100
AcDbSpline
 62
7
  6
CONTINUOUS
 70
0
 71
3
 72
19
 73
15
 74
13
 42
0.0000001
 43
0.0000001
 44
0.0000000001
 12
-0.1007583907
 22
0.0958196526
 32
0.0
 13
0.0000000014
 23
-0.1390455289
 33
0.0
 40
0.0
 40
0.0
 40
0.0
 40
0.0
 40
0.0689954642
 40
0.1498994436
 40
0.241372508
 40
0.3403071442
 40
0.4413125397
 40
0.5435196015
 40
0.6422113002
 40
0.7325556586
 40
0.8143420352
 40
0.8836243707
 40
0.9436951751
 40
1.0
 40
1.0
 40
1.0
 40
1.0
 10
8.0315057621
 20
4.6399876867
 30
0.0
 10
8.0291884714
 20
4.6421913938
 30
0.0
 10
8.0234284278
 20
4.6462244314
 30
0.0
 10
8.0130863775
 20
4.6506223651
 30
0.0
 10
8.0008603135
 20
4.6537289432
 30
0.0
 10
7.9874407665
 20
4.655469926
 30
0.0
 10
7.9734223535
 20
4.6558957321
 30
0.0
 10
7.9594371214
 20
4.6550025141
 30
0.0
 10
7.9460903823
 20
4.6528134022
 30
0.0
 10
7.934000736
 20
4.649305239
 30
0.0
 10
7.92380423
 20
4.64454963
 30
0.0
 10
7.9159566738
 20
4.6385245066
 30
0.0
 10
7.9109296122
 20
4.6313212845
 30
0.0
 10
7.9098010019
 20
4.6258626189
 30
0.0
 10
7.9098010019
 20
4.6232529741
 30
0.0
 11
8.0315057621
 21
4.6399876867
 31
0.0
 11
8.0237456333
 21
4.6456282409
 31
0.0
 11
8.0134550858
 21
4.6501727106
 31
0.0
 11
8.001153175
 21
4.6534028705
 31
0.0
 11
7.9875191825
 21
4.6552340747
 31
0.0
 11
7.9734817493
 21
4.6556747532
 31
0.0
 11
7.9593001009
 21
4.6547551168
 31
0.0
 11
7.9457689746
 21
4.652470504
 31
0.0
 11
7.9337326837
 21
4.6488745315
 31
0.0
 11
7.9235005503
 21
4.6439120207
 31
0.0
 11
7.9159887465
 21
4.6378808368
 31
0.0
 11
7.911366518
 21
4.630923787
 31
0.0
 11
7.9098010019
 21
4.6232529741
 31
0.0
  0
SPLINE
  5
4FB
100
AcDbEntity
  8
0
100
AcDbSpline
 62
7
  6
CONTINUOUS
 70
0
 71
3
 72
11
 73
7
 74
5
 42
0.0000001
 43
0.0000001
 44
0.0000000001
 12
-0.0
 22
-0.0411728038
 32
0.0
 13
0.0270190142
 23
-0.0311684108
 33
0.0
 40
0.0
 40
0.0
 40
0.0
 40
0.0
 40
0.30633358
 40
0.621522588
 40
0.9491111205
 40
1.0
 40
1.0
 40
1.0
 40
1.0
 10
7.9098009995
 20
4.438002979
 30
0.0
 10
7.9098009995
 20
4.4337987749
 30
0.0
 10
7.9108416307
 20
4.425237234
 30
0.0
 10
7.9153959363
 20
4.4129197499
 30
0.0
 10
7.9206228036
 20
4.4048711569
 30
0.0
 10
7.9239676491
 20
4.400883456
 30
0.0
 10
7.9244259716
 20
4.4003547475
 30
0.0
 11
7.9098009995
 21
4.438002979
 31
0.0
 11
7.911298505
 21
4.4254795822
 31
0.0
 11
7.9157593963
 21
4.4132931733
 31
0.0
 11
7.9230770865
 21
4.4019631028
 31
0.0
 11
7.9244259716
 21
4.4003547475
 31
0.0
  0
SPLINE
  5
4FC
100
AcDbEntity
  8
0
100
AcDbSpline
 62
7
  6
CONTINUOUS
 70
0
 71
3
 72
9
 73
5
 74
3
 42
0.0000001
 43
0.0000001
 44
0.0000000001
 12
-0.0035988219
 22
0.0107564755
 32
0.0
 13
-0.008191497
 23
0.0077899854
 33
0.0
 40
0.0
 40
0.0
 40
0.0
 40
0.0
 40
0.4707253251
 40
1.0
 40
1.0
 40
1.0
 40
1.0
 10
8.0378618649
 20
4.6307469264
 30
0.0
 10
8.0372971794
 20
4.6324347082
 30
0.0
 10
8.0355441709
 20
4.6358351968
 30
0.0
 10
8.032950946
 20
4.6386133394
 30
0.0
 10
8.0315057621
 20
4.6399876867
 30
0.0
 11
8.0378618649
 21
4.6307469264
 31
0.0
 11
8.0354606313
 21
4.6354981995
 31
0.0
 11
8.0315057621
 21
4.6399876867
 31
0.0
  0
SPLINE
  5
4FD
100
AcDbEntity
  8
0
100
AcDbSpline
 62
7
  6
CONTINUOUS
 70
0
 71
3
 72
19
 73
15
 74
13
 42
0.0000001
 43
0.0000001
 44
0.0000000001
 12
-0.1005205417
 22
0.1160043177
 32
0.0
 13
-0.0
 23
-0.1530359191
 33
0.0
 40
0.0
 40
0.0
 40
0.0
 40
0.0
 40
0.0186096196
 40
0.1059037934
 40
0.1960470491
 40
0.2882169024
 40
0.3801229757
 40
0.4735603894
 40
0.5667056122
 40
0.657320355
 40
0.747232884
 40
0.8330264165
 40
0.9166868644
 40
1.0
 40
1.0
 40
1.0
 40
1.0
 10
8.0256696793
 20
4.4743982124
 30
0.0
 10
8.0250461296
 20
4.4751178111
 30
0.0
 10
8.0213943826
 20
4.4791233443
 30
0.0
 10
8.0136084717
 20
4.4855308273
 30
0.0
 10
8.0012278889
 20
4.4917679697
 30
0.0
 10
7.9876032453
 20
4.4953373676
 30
0.0
 10
7.9733881827
 20
4.4962140756
 30
0.0
 10
7.959215486
 20
4.4943782115
 30
0.0
 10
7.9456977236
 20
4.489933704
 30
0.0
 10
7.9334799995
 20
4.4829833048
 30
0.0
 10
7.9232534552
 20
4.4738695599
 30
0.0
 10
7.9155783963
 20
4.4629400462
 30
0.0
 10
7.9108538196
 20
4.4508094459
 30
0.0
 10
7.9098009995
 20
4.4422529465
 30
0.0
 10
7.9098009995
 20
4.438002979
 30
0.0
 11
8.0256696793
 21
4.4743982124
 31
0.0
 11
8.0237456337
 21
4.4765087262
 31
0.0
 11
8.0134550842
 21
4.4850276065
 31
0.0
 11
8.001153169
 21
4.4912701389
 31
0.0
 11
7.9875191704
 21
4.4948858711
 31
0.0
 11
7.9734817315
 21
4.495764834
 31
0.0
 11
7.9593000778
 21
4.4939345004
 31
0.0
 11
7.94576895
 21
4.4894510646
 31
0.0
 11
7.9337326612
 21
4.4825641167
 31
0.0
 11
7.9235005361
 21
4.4733642802
 31
0.0
 11
7.9159887415
 21
4.4625959699
 31
0.0
 11
7.9113665194
 21
4.4506564037
 31
0.0
 11
7.9098009995
 21
4.438002979
 31
0.0
  0
SPLINE
  5
4FE
100
AcDbEntity
  8
0
100
AcDbSpline
 62
7
  6
CONTINUOUS
 70
0
 71
3
 72
9
 73
5
 74
3
 42
0.0000001
 43
0.0000001
 44
0.0000000001
 12
-0.002391947
 22
0.000306519
 32
0.0
 13
-0.0017631589
 23
-0.0014529134
 33
0.0
 40
0.0
 40
0.0
 40
0.0
 40
0.0
 40
0.1212174223
 40
1.0
 40
1.0
 40
1.0
 40
1.0
 10
2.6446937369
 20
4.8248639406
 30
0.0
 10
2.6445970884
 20
4.8248763258
 30
0.0
 10
2.6437943605
 20
4.8249042379
 30
0.0
 10
2.6431778938
 20
4.8243044244
 30
0.0
 10
2.642661416
 20
4.823878826
 30
0.0
 11
2.6446937369
 21
4.8248639406
 31
0.0
 11
2.644405216
 21
4.8248738691
 31
0.0
 11
2.642661416
 21
4.823878826
 31
0.0
  0
SPLINE
  5
4FF
100
AcDbEntity
  8
0
100
AcDbSpline
 62
7
  6
CONTINUOUS
 70
0
 71
3
 72
10
 73
6
 74
4
 42
0.0000001
 43
0.0000001
 44
0.0000000001
 12
0.0347388618
 22
0.0007196615
 32
0.0
 13
0.0248914624
 23
-0.0205115594
 33
0.0
 40
0.0
 40
0.0
 40
0.0
 40
0.0
 40
0.0651940071
 40
0.4239198444
 40
1.0
 40
1.0
 40
1.0
 40
1.0
 10
2.6145598572
 20
3.8384776045
 30
0.0
 10
2.6153147791
 20
3.8384932437
 30
0.0
 10
2.6203350117
 20
3.8381376427
 30
0.0
 10
2.6295965785
 20
3.8329486466
 30
0.0
 10
2.6378815902
 20
3.8270843066
 30
0.0
 10
2.642661416
 20
3.8231455391
 30
0.0
 11
2.6145598572
 21
3.8384776045
 31
0.0
 11
2.6168330116
 21
3.838340254
 31
0.0
 11
2.6275286452
 21
3.8339272302
 31
0.0
 11
2.642661416
 21
3.8231455391
 31
0.0
  0
SPLINE
  5
500
100
AcDbEntity
  8
0
100
AcDbSpline
 62
7
  6
CONTINUOUS
 70
0
 71
3
 72
9
 73
5
 74
3
 42
0.0000001
 43
0.0000001
 44
0.0000000001
 12
0.0017631495
 22
-0.0014529057
 32
0.0
 13
0.0023919226
 23
0.0003065742
 33
0.0
 40
0.0
 40
0.0
 40
0.0
 40
0.0
 40
0.8787885691
 40
1.0
 40
1.0
 40
1.0
 40
1.0
 10
2.642661416
 20
3.8231455391
 30
0.0
 10
2.6431778946
 20
3.8227199402
 30
0.0
 10
2.6437943626
 20
3.8221201107
 30
0.0
 10
2.6445970797
 20
3.8221480439
 30
0.0
 10
2.6446937225
 20
3.8221604307
 30
0.0
 11
2.642661416
 21
3.8231455391
 31
0.0
 11
2.6444052191
 21
3.8221504955
 31
0.0
 11
2.6446937225
 21
3.8221604307
 31
0.0
  0
SPLINE
  5
501
100
AcDbEntity
  8
0
100
AcDbSpline
 62
7
  6
CONTINUOUS
 70
0
 71
3
 72
10
 73
6
 74
4
 42
0.0000001
 43
0.0000001
 44
0.0000000001
 12
-0.0249130934
 22
-0.0205293842
 32
0.0
 13
-0.034896939
 23
0.0014880581
 33
0.0
 40
0.0
 40
0.0
 40
0.0
 40
0.0
 40
0.5838438106
 40
0.9457936423
 40
1.0
 40
1.0
 40
1.0
 40
1.0
 10
2.642661416
 20
4.823878826
 30
0.0
 10
2.6378129642
 20
4.8198835081
 30
0.0
 10
2.6294347734
 20
4.814023299
 30
0.0
 10
2.6200963267
 20
4.8087021799
 30
0.0
 10
2.6151878436
 20
4.808543667
 30
0.0
 10
2.6145572983
 20
4.8085705544
 30
0.0
 11
2.642661416
 21
4.823878826
 31
0.0
 11
2.6272961301
 21
4.8129637703
 31
0.0
 11
2.6164492075
 21
4.8086198423
 31
0.0
 11
2.6145572983
 21
4.8085705544
 31
0.0
  0
SPLINE
  5
502
100
AcDbEntity
  8
0
100
AcDbSpline
 62
7
  6
CONTINUOUS
 70
0
 71
3
 72
10
 73
6
 74
4
 42
0.0000001
 43
0.0000001
 44
0.0000000001
 12
0.0
 22
0.008338093
 32
0.0
 13
-0.0078905502
 23
0.0026949979
 33
0.0
 40
0.0
 40
0.0
 40
0.0
 40
0.0
 40
0.4065042467
 40
0.7337685247
 40
1.0
 40
1.0
 40
1.0
 40
1.0
 10
2.6458070323
 20
4.613544727
 30
0.0
 10
2.6458070323
 20
4.6146745504
 30
0.0
 10
2.6456343128
 20
4.6167203596
 30
0.0
 10
2.644700925
 20
4.6193971652
 30
0.0
 10
2.6433616536
 20
4.6205680591
 30
0.0
 10
2.642661416
 20
4.6208072235
 30
0.0
 11
2.6458070323
 21
4.613544727
 31
0.0
 11
2.6454584699
 21
4.6169162271
 31
0.0
 11
2.644405175
 21
4.6194335075
 31
0.0
 11
2.642661416
 21
4.6208072235
 31
0.0
  0
SPLINE
  5
503
100
AcDbEntity
  8
0
100
AcDbSpline
 62
7
  6
CONTINUOUS
 70
0
 71
3
 72
10
 73
6
 74
4
 42
0.0000001
 43
0.0000001
 44
0.0000000001
 12
0.0057195435
 22
0.0120703766
 32
0.0
 13
0.0
 23
0.0133569147
 33
0.0
 40
0.0
 40
0.0
 40
0.0
 40
0.0
 40
0.3592823861
 40
0.6984403679
 40
1.0
 40
1.0
 40
1.0
 40
1.0
 10
2.642661416
 20
4.5955825496
 30
0.0
 10
2.6433463931
 20
4.5970281075
 30
0.0
 10
2.6444771214
 20
4.5999380082
 30
0.0
 10
2.645530488
 20
4.6042751603
 30
0.0
 10
2.6458070323
 20
4.6071295445
 30
0.0
 10
2.6458070323
 20
4.60847218
 30
0.0
 11
2.642661416
 21
4.5955825496
 31
0.0
 11
2.644405175
 21
4.6000534316
 31
0.0
 11
2.6454584699
 21
4.6044593838
 31
0.0
 11
2.6458070323
 21
4.60847218
 31
0.0
  0
SPLINE
  5
504
100
AcDbEntity
  8
0
100
AcDbSpline
 62
7
  6
CONTINUOUS
 70
0
 71
3
 72
10
 73
6
 74
4
 42
0.0000001
 43
0.0000001
 44
0.0000000001
 12
0.0
 22
0.0122094374
 32
0.0
 13
-0.0070444586
 23
0.0099722597
 33
0.0
 40
0.0
 40
0.0
 40
0.0
 40
0.0
 40
0.3503478922
 40
0.6889039979
 40
1.0
 40
1.0
 40
1.0
 40
1.0
 10
2.6458070323
 20
4.326440819
 30
0.0
 10
2.6458070323
 20
4.3278666692
 30
0.0
 10
2.6455840417
 20
4.3306769177
 30
0.0
 10
2.6445769983
 20
4.3346390564
 30
0.0
 10
2.643391917
 20
4.3370415448
 30
0.0
 10
2.642661416
 20
4.3380756549
 30
0.0
 11
2.6458070323
 21
4.326440819
 31
0.0
 11
2.6454584699
 21
4.3307041444
 31
0.0
 11
2.644405175
 21
4.3347012746
 31
0.0
 11
2.642661416
 21
4.3380756549
 31
0.0
  0
SPLINE
  5
505
100
AcDbEntity
  8
0
100
AcDbSpline
 62
7
  6
CONTINUOUS
 70
0
 71
3
 72
10
 73
6
 74
4
 42
0.0000001
 43
0.0000001
 44
0.0000000001
 12
0.0070444586
 22
0.0099722597
 32
0.0
 13
-0.0
 23
0.0122094374
 33
0.0
 40
0.0
 40
0.0
 40
0.0
 40
0.0
 40
0.3110960021
 40
0.6496521078
 40
1.0
 40
1.0
 40
1.0
 40
1.0
 10
2.642661416
 20
4.3089487103
 30
0.0
 10
2.643391917
 20
4.3099828204
 30
0.0
 10
2.6445769983
 20
4.3123853088
 30
0.0
 10
2.6455840417
 20
4.3163474475
 30
0.0
 10
2.6458070323
 20
4.319157696
 30
0.0
 10
2.6458070323
 20
4.3205835462
 30
0.0
 11
2.642661416
 21
4.3089487103
 31
0.0
 11
2.644405175
 21
4.3123230906
 31
0.0
 11
2.6454584699
 21
4.3163202207
 31
0.0
 11
2.6458070323
 21
4.3205835462
 31
0.0
  0
SPLINE
  5
506
100
AcDbEntity
  8
0
100
AcDbSpline
 62
7
  6
CONTINUOUS
 70
0
 71
3
 72
15
 73
11
 74
9
 42
0.0000001
 43
0.0000001
 44
0.0000000001
 12
-0.084578344
 22
0.1894265289
 32
0.0
 13
0.1963161477
 23
0.0670512959
 33
0.0
 40
0.0
 40
0.0
 40
0.0
 40
0.0
 40
0.1956745179
 40
0.3666317578
 40
0.5112525242
 40
0.6337084564
 40
0.7385976957
 40
0.8306968565
 40
0.9154261333
 40
1.0
 40
1.0
 40
1.0
 40
1.0
 10
2.642661416
 20
3.8377090114
 30
0.0
 10
2.6371448071
 20
3.8500643263
 30
0.0
 10
2.6274400711
 20
3.8735089858
 30
0.0
 10
2.6164055211
 20
3.9071410356
 30
0.0
 10
2.6098464395
 20
3.9367780481
 30
0.0
 10
2.6075942677
 20
3.9624957963
 30
0.0
 10
2.6095053014
 20
3.9846471364
 30
0.0
 10
2.615714085
 20
4.0033648705
 30
0.0
 10
2.6266875149
 20
4.018203399
 30
0.0
 10
2.6371270108
 20
4.0243268792
 30
0.0
 10
2.642661416
 20
4.0262171417
 30
0.0
 11
2.642661416
 21
3.8377090114
 31
0.0
 11
2.6272961301
 21
3.8752814615
 31
0.0
 11
2.6164492075
 21
3.9090472419
 31
0.0
 11
2.6102130155
 21
3.9383936733
 31
0.0
 11
2.6082818633
 21
3.9637237672
 31
0.0
 11
2.6104785767
 21
3.9853719736
 31
0.0
 11
2.6168330116
 21
4.0033903726
 31
0.0
 11
2.6275286452
 21
4.0173388622
 31
0.0
 11
2.642661416
 21
4.0262171417
 31
0.0
  0
SPLINE
  5
507
100
AcDbEntity
  8
0
100
AcDbSpline
 62
7
  6
CONTINUOUS
 70
0
 71
3
 72
13
 73
9
 74
7
 42
0.0000001
 43
0.0000001
 44
0.0000000001
 12
-0.0470635579
 22
0.0832472726
 32
0.0
 13
0.102997891
 23
0.0021337376
 33
0.0
 40
0.0
 40
0.0
 40
0.0
 40
0.0
 40
0.3339315861
 40
0.5904521575
 40
0.7713111419
 40
0.8872524937
 40
0.9545583823
 40
1.0
 40
1.0
 40
1.0
 40
1.0
 10
2.642661416
 20
3.7541467746
 30
0.0
 10
2.6374227465
 20
3.7634130726
 30
0.0
 10
2.6283162553
 20
3.7799012789
 30
0.0
 10
2.6171301234
 20
3.8017588498
 30
0.0
 10
2.610636841
 20
3.8183243562
 30
0.0
 10
2.607480662
 20
3.8292513298
 30
0.0
 10
2.6093103544
 20
3.8376198632
 30
0.0
 10
2.612999727
 20
3.8384452844
 30
0.0
 10
2.6145598572
 20
3.8384776045
 30
0.0
 11
2.642661416
 21
3.7541467746
 31
0.0
 11
2.6272961301
 21
3.7821410492
 31
0.0
 11
2.6164492075
 21
3.8041436996
 31
0.0
 11
2.6102130155
 21
3.8202758243
 31
0.0
 11
2.6082818633
 21
3.8311938159
 31
0.0
 11
2.6104785767
 21
3.8372438117
 31
0.0
 11
2.6145598572
 21
3.8384776045
 31
0.0
  0
SPLINE
  5
508
100
AcDbEntity
  8
0
100
AcDbSpline
 62
7
  6
CONTINUOUS
 70
0
 71
3
 72
15
 73
11
 74
9
 42
0.0000001
 43
0.0000001
 44
0.0000000001
 12
-0.1963060385
 22
0.0670478431
 32
0.0
 13
0.0845739887
 23
0.1894167745
 33
0.0
 40
0.0
 40
0.0
 40
0.0
 40
0.0
 40
0.086059199
 40
0.1732705754
 40
0.2676816574
 40
0.374321887
 40
0.4972036641
 40
0.6403945316
 40
0.8075570998
 40
1.0
 40
1.0
 40
1.0
 40
1.0
 10
2.642661416
 20
4.6208072235
 30
0.0
 10
2.6370301025
 20
4.6227305847
 30
0.0
 10
2.6263580465
 20
4.6290450983
 30
0.0
 10
2.6153013822
 20
4.6443924036
 30
0.0
 10
2.6092486451
 20
4.6636400718
 30
0.0
 10
2.6076170242
 20
4.6861211433
 30
0.0
 10
2.6101255049
 20
4.7118606194
 30
0.0
 10
2.6167801117
 20
4.7411295316
 30
0.0
 10
2.6277081006
 20
4.7741752998
 30
0.0
 10
2.6372361948
 20
4.797164716
 30
0.0
 10
2.642661416
 20
4.8093153538
 30
0.0
 11
2.642661416
 21
4.6208072235
 31
0.0
 11
2.6272961301
 21
4.629896067
 31
0.0
 11
2.6164492075
 21
4.6443748133
 31
0.0
 11
2.6102130155
 21
4.6629400741
 31
0.0
 11
2.6082818633
 21
4.6849771006
 31
0.0
 11
2.6104785767
 21
4.7103729023
 31
0.0
 11
2.6168330116
 21
4.7393888004
 31
0.0
 11
2.6275286452
 21
4.7723743405
 31
0.0
 11
2.642661416
 21
4.8093153538
 31
0.0
  0
SPLINE
  5
509
100
AcDbEntity
  8
0
100
AcDbSpline
 62
7
  6
CONTINUOUS
 70
0
 71
3
 72
10
 73
6
 74
4
 42
0.0000001
 43
0.0000001
 44
0.0000000001
 12
0.0
 22
0.0133569147
 32
0.0
 13
-0.0057195435
 23
0.0120703766
 33
0.0
 40
0.0
 40
0.0
 40
0.0
 40
0.0
 40
0.3015596321
 40
0.6407176139
 40
1.0
 40
1.0
 40
1.0
 40
1.0
 10
2.6458070323
 20
4.0385521852
 30
0.0
 10
2.6458070323
 20
4.0398948207
 30
0.0
 10
2.645530488
 20
4.0427492049
 30
0.0
 10
2.6444771214
 20
4.047086357
 30
0.0
 10
2.6433463931
 20
4.0499962577
 30
0.0
 10
2.642661416
 20
4.0514418156
 30
0.0
 11
2.6458070323
 21
4.0385521852
 31
0.0
 11
2.6454584699
 21
4.0425649814
 31
0.0
 11
2.644405175
 21
4.0469709335
 31
0.0
 11
2.642661416
 21
4.0514418156
 31
0.0
  0
SPLINE
  5
50A
100
AcDbEntity
  8
0
100
AcDbSpline
 62
7
  6
CONTINUOUS
 70
0
 71
3
 72
10
 73
6
 74
4
 42
0.0000001
 43
0.0000001
 44
0.0000000001
 12
0.0078905502
 22
0.0026949979
 32
0.0
 13
-0.0
 23
0.008338093
 33
0.0
 40
0.0
 40
0.0
 40
0.0
 40
0.0
 40
0.2662314753
 40
0.5934957533
 40
1.0
 40
1.0
 40
1.0
 40
1.0
 10
2.642661416
 20
4.0262171417
 30
0.0
 10
2.6433616536
 20
4.0264563061
 30
0.0
 10
2.644700925
 20
4.0276272
 30
0.0
 10
2.6456343128
 20
4.0303040056
 30
0.0
 10
2.6458070323
 20
4.0323498148
 30
0.0
 10
2.6458070323
 20
4.0334796382
 30
0.0
 11
2.642661416
 21
4.0262171417
 31
0.0
 11
2.644405175
 21
4.0275908576
 31
0.0
 11
2.6454584699
 21
4.0301081381
 31
0.0
 11
2.6458070323
 21
4.0334796382
 31
0.0
  0
SPLINE
  5
50B
100
AcDbEntity
  8
0
100
AcDbSpline
 62
7
  6
CONTINUOUS
 70
0
 71
3
 72
10
 73
6
 74
4
 42
0.0000001
 43
0.0000001
 44
0.0000000001
 12
0.0
 22
0.0111978344
 32
0.0
 13
-0.0045653885
 23
0.010224907
 33
0.0
 40
0.0
 40
0.0
 40
0.0
 40
0.0
 40
0.2419713269
 40
0.5798726138
 40
1.0
 40
1.0
 40
1.0
 40
1.0
 10
2.6458070323
 20
3.8270183526
 30
0.0
 10
2.6458070323
 20
3.8279215376
 30
0.0
 10
2.6454441464
 20
3.8300762481
 30
0.0
 10
2.6443656412
 20
3.8336495244
 30
0.0
 10
2.6433007643
 20
3.8362770903
 30
0.0
 10
2.642661416
 20
3.8377090114
 30
0.0
 11
2.6458070323
 21
3.8270183526
 31
0.0
 11
2.6454584699
 21
3.8297053941
 31
0.0
 11
2.644405175
 21
3.8333395968
 31
0.0
 11
2.642661416
 21
3.8377090114
 31
0.0
  0
SPLINE
  5
50C
100
AcDbEntity
  8
0
100
AcDbSpline
 62
7
  6
CONTINUOUS
 70
0
 71
3
 72
10
 73
6
 74
4
 42
0.0000001
 43
0.0000001
 44
0.0000000001
 12
0.0
 22
0.0064467377
 32
0.0
 13
-0.0031727134
 23
0.0056119798
 33
0.0
 40
0.0
 40
0.0
 40
0.0
 40
0.0
 40
0.1132203092
 40
0.4486650405
 40
1.0
 40
1.0
 40
1.0
 40
1.0
 10
2.6458070323
 20
3.7485196408
 30
0.0
 10
2.6458070323
 20
3.7487629414
 30
0.0
 10
2.6450672342
 20
3.7495395876
 30
0.0
 10
2.6442868041
 20
3.7514814215
 30
0.0
 10
2.643244492
 20
3.7531154144
 30
0.0
 10
2.642661416
 20
3.7541467746
 30
0.0
 11
2.6458070323
 21
3.7485196408
 31
0.0
 11
2.6454584699
 21
3.7491609369
 31
0.0
 11
2.644405175
 21
3.7510496086
 31
0.0
 11
2.642661416
 21
3.7541467746
 31
0.0
  0
SPLINE
  5
50D
100
AcDbEntity
  8
0
100
AcDbSpline
 62
7
  6
CONTINUOUS
 70
0
 71
3
 72
17
 73
13
 74
11
 42
0.0000001
 43
0.0000001
 44
0.0000000001
 12
-0.1555291936
 22
0.2201698682
 32
0.0
 13
0.1154290625
 23
0.2435985067
 33
0.0
 40
0.0
 40
0.0
 40
0.0
 40
0.0
 40
0.0906802874
 40
0.1805150788
 40
0.2713818059
 40
0.3646511471
 40
0.460956641
 40
0.560466155
 40
0.6632311497
 40
0.7696010446
 40
0.8810131297
 40
1.0
 40
1.0
 40
1.0
 40
1.0
 10
2.642661416
 20
4.3380756549
 30
0.0
 10
2.637960272
 20
4.3447306772
 30
0.0
 10
2.6296115588
 20
4.3587163157
 30
0.0
 10
2.6200293277
 20
4.381206704
 30
0.0
 10
2.6132326166
 20
4.4049297425
 30
0.0
 10
2.6091529591
 20
4.4298509437
 30
0.0
 10
2.6078184849
 20
4.455842745
 30
0.0
 10
2.6092516421
 20
4.482678928
 30
0.0
 10
2.613421478
 20
4.5101374435
 30
0.0
 10
2.6202915234
 20
4.5381457408
 30
0.0
 10
2.6299359957
 20
4.5668609181
 30
0.0
 10
2.6380832351
 20
4.585920875
 30
0.0
 10
2.642661416
 20
4.5955825496
 30
0.0
 11
2.642661416
 21
4.3380756549
 31
0.0
 11
2.6300708157
 21
4.3590276828
 31
0.0
 11
2.6205347432
 21
4.3812871453
 31
0.0
 11
2.6137523249
 21
4.4048236912
 31
0.0
 11
2.6096528409
 21
4.4296291664
 31
0.0
 11
2.6082792685
 21
4.455553181
 31
0.0
 11
2.6096624176
 21
4.4823415599
 31
0.0
 11
2.6137728157
 21
4.5097365292
 31
0.0
 11
2.6205578353
 21
4.5375955572
 31
0.0
 11
2.6300812761
 21
4.566078154
 31
0.0
 11
2.642661416
 21
4.5955825496
 31
0.0
  0
SPLINE
  5
50E
100
AcDbEntity
  8
0
100
AcDbSpline
 62
7
  6
CONTINUOUS
 70
0
 71
3
 72
13
 73
9
 74
7
 42
0.0000001
 43
0.0000001
 44
0.0000000001
 12
-0.1033303486
 22
0.0044061618
 32
0.0
 13
0.0470424371
 23
0.0832099137
 33
0.0
 40
0.0
 40
0.0
 40
0.0
 40
0.0
 40
0.0485690673
 40
0.1187015387
 40
0.2377896085
 40
0.419054717
 40
0.6711384458
 40
1.0
 40
1.0
 40
1.0
 40
1.0
 10
2.6145572983
 20
4.8085705544
 30
0.0
 10
2.6128844121
 20
4.8086418888
 30
0.0
 10
2.6089474492
 20
4.8096339499
 30
0.0
 10
2.6076461959
 20
4.8184521806
 30
0.0
 10
2.6108605328
 20
4.8294475069
 30
0.0
 10
2.6174961107
 20
4.8459749025
 30
0.0
 10
2.6285366297
 20
4.8675376339
 30
0.0
 10
2.6375045997
 20
4.8837560767
 30
0.0
 10
2.642661416
 20
4.8928775906
 30
0.0
 11
2.6145572983
 21
4.8085705544
 31
0.0
 11
2.6102130155
 21
4.810024614
 31
0.0
 11
2.6082818633
 21
4.8164441918
 31
0.0
 11
2.6104785767
 21
4.8276134981
 31
0.0
 11
2.6168330116
 21
4.8437328034
 31
0.0
 11
2.6275286452
 21
4.8653248743
 31
0.0
 11
2.642661416
 21
4.8928775906
 31
0.0
  0
SPLINE
  5
50F
100
AcDbEntity
  8
0
100
AcDbSpline
 62
7
  6
CONTINUOUS
 70
0
 71
3
 72
9
 73
5
 74
3
 42
0.0000001
 43
0.0000001
 44
0.0000000001
 12
0.0025666033
 22
0.0003289632
 32
0.0
 13
0.0
 23
0.002451498
 33
0.0
 40
0.0
 40
0.0
 40
0.0
 40
0.0
 40
0.3413720348
 40
1.0
 40
1.0
 40
1.0
 40
1.0
 10
2.6446937225
 20
3.8221604307
 30
0.0
 10
2.644985778
 20
3.8221978636
 30
0.0
 10
2.6458237708
 20
3.8225483156
 30
0.0
 10
2.6458070323
 20
3.8235515079
 30
0.0
 10
2.6458070323
 20
3.8240897162
 30
0.0
 11
2.6446937225
 21
3.8221604307
 31
0.0
 11
2.6454583066
 21
3.8225131996
 31
0.0
 11
2.6458070323
 21
3.8240897162
 31
0.0
  0
SPLINE
  5
510
100
AcDbEntity
  8
0
100
AcDbSpline
 62
7
  6
CONTINUOUS
 70
0
 71
3
 72
17
 73
13
 74
11
 42
0.0000001
 43
0.0000001
 44
0.0000000001
 12
-0.1154290554
 22
0.2435984916
 32
0.0
 13
0.155529184
 23
0.2201698546
 33
0.0
 40
0.0
 40
0.0
 40
0.0
 40
0.0
 40
0.1191610139
 40
0.2306335878
 40
0.3369765967
 40
0.4396665133
 40
0.5390652631
 40
0.6352602481
 40
0.7284558631
 40
0.8193068364
 40
0.9091880169
 40
1.0
 40
1.0
 40
1.0
 40
1.0
 10
2.642661416
 20
4.0514418156
 30
0.0
 10
2.6380765349
 20
4.06111763
 30
0.0
 10
2.6299220321
 20
4.0801975278
 30
0.0
 10
2.6202758285
 20
4.1089318801
 30
0.0
 10
2.6134117084
 20
4.1369377874
 30
0.0
 10
2.6092490558
 20
4.1643779874
 30
0.0
 10
2.6078195104
 20
4.1911875546
 30
0.0
 10
2.6091517168
 20
4.2171527557
 30
0.0
 10
2.6132246755
 20
4.2420567004
 30
0.0
 10
2.620014994
 20
4.2657774945
 30
0.0
 10
2.6295979437
 20
4.288283495
 30
0.0
 10
2.6379534448
 20
4.3022840233
 30
0.0
 10
2.642661416
 20
4.3089487103
 30
0.0
 11
2.642661416
 21
4.0514418156
 31
0.0
 11
2.6300646114
 21
4.0809901351
 31
0.0
 11
2.6205402674
 21
4.1094896205
 31
0.0
 11
2.6137619688
 21
4.1373428238
 31
0.0
 11
2.6096588025
 21
4.1647184112
 31
0.0
 11
2.6082792675
 21
4.1914770773
 31
0.0
 11
2.6096502692
 21
4.2173713956
 31
0.0
 11
2.613742699
 21
4.2421578913
 31
0.0
 11
2.6205186458
 21
4.2656918805
 31
0.0
 11
2.6300546954
 21
4.2879649544
 31
0.0
 11
2.642661416
 21
4.3089487103
 31
0.0
  0
SPLINE
  5
511
100
AcDbEntity
  8
0
100
AcDbSpline
 62
7
  6
CONTINUOUS
 70
0
 71
3
 72
10
 73
6
 74
4
 42
0.0000001
 43
0.0000001
 44
0.0000000001
 12
0.0031727134
 22
0.0056119798
 32
0.0
 13
0.0
 23
0.0064467377
 33
0.0
 40
0.0
 40
0.0
 40
0.0
 40
0.0
 40
0.5513349595
 40
0.8867796908
 40
1.0
 40
1.0
 40
1.0
 40
1.0
 10
2.642661416
 20
4.8928775906
 30
0.0
 10
2.643244492
 20
4.8939089508
 30
0.0
 10
2.6442868041
 20
4.8955429437
 30
0.0
 10
2.6450672342
 20
4.8974847776
 30
0.0
 10
2.6458070323
 20
4.8982614238
 30
0.0
 10
2.6458070323
 20
4.8985047244
 30
0.0
 11
2.642661416
 21
4.8928775906
 31
0.0
 11
2.644405175
 21
4.8959747566
 31
0.0
 11
2.6454584699
 21
4.8978634282
 31
0.0
 11
2.6458070323
 21
4.8985047244
 31
0.0
  0
SPLINE
  5
512
100
AcDbEntity
  8
0
100
AcDbSpline
 62
7
  6
CONTINUOUS
 70
0
 71
3
 72
9
 73
5
 74
3
 42
0.0000001
 43
0.0000001
 44
0.0000000001
 12
0.0
 22
0.0024514988
 32
0.0
 13
-0.0025666167
 23
0.0003289023
 33
0.0
 40
0.0
 40
0.0
 40
0.0
 40
0.0
 40
0.658671813
 40
1.0
 40
1.0
 40
1.0
 40
1.0
 10
2.6458070323
 20
4.822934649
 30
0.0
 10
2.6458070323
 20
4.8234728933
 30
0.0
 10
2.6458237485
 20
4.8244761242
 30
0.0
 10
2.6449857565
 20
4.8248265194
 30
0.0
 10
2.6446937369
 20
4.8248639406
 30
0.0
 11
2.6458070323
 21
4.822934649
 31
0.0
 11
2.6454582393
 21
4.8245112613
 31
0.0
 11
2.6446937369
 21
4.8248639406
 31
0.0
  0
SPLINE
  5
513
100
AcDbEntity
  8
0
100
AcDbSpline
 62
7
  6
CONTINUOUS
 70
0
 71
3
 72
10
 73
6
 74
4
 42
0.0000001
 43
0.0000001
 44
0.0000000001
 12
0.0045653885
 22
0.010224907
 32
0.0
 13
0.0
 23
0.0111978344
 33
0.0
 40
0.0
 40
0.0
 40
0.0
 40
0.0
 40
0.4201273862
 40
0.7580286731
 40
1.0
 40
1.0
 40
1.0
 40
1.0
 10
2.642661416
 20
4.8093153538
 30
0.0
 10
2.6433007643
 20
4.8107472749
 30
0.0
 10
2.6443656412
 20
4.8133748408
 30
0.0
 10
2.6454441464
 20
4.8169481171
 30
0.0
 10
2.6458070323
 20
4.8191028276
 30
0.0
 10
2.6458070323
 20
4.8200060125
 30
0.0
 11
2.642661416
 21
4.8093153538
 31
0.0
 11
2.644405175
 21
4.8136847684
 31
0.0
 11
2.6454584699
 21
4.8173189711
 31
0.0
 11
2.6458070323
 21
4.8200060125
 31
0.0
  0
SPLINE
  5
514
100
AcDbEntity
  8
0
100
AcDbSpline
 62
7
  6
CONTINUOUS
 70
0
 71
3
 72
10
 73
6
 74
4
 42
0.0000001
 43
0.0000001
 44
0.0000000001
 12
-0.0107238479
 22
-0.0034627233
 32
0.0
 13
-0.0
 23
-0.0111666091
 33
0.0
 40
0.0
 40
0.0
 40
0.0
 40
0.0
 40
0.140660907
 40
0.5322612475
 40
1.0
 40
1.0
 40
1.0
 40
1.0
 10
7.2869199469
 20
4.6665814257
 30
0.0
 10
7.2864171382
 20
4.6664190691
 30
0.0
 10
7.2845981502
 20
4.6656028307
 30
0.0
 10
7.2821750352
 20
4.6624152208
 30
0.0
 10
7.2818123608
 20
4.6591443573
 30
0.0
 10
7.2818123608
 20
4.6574033387
 30
0.0
 11
7.2869199469
 21
4.6665814257
 31
0.0
 11
7.2854926915
 21
4.6659261674
 31
0.0
 11
7.2827166235
 21
4.6625475219
 31
0.0
 11
7.2818123608
 21
4.6574033387
 31
0.0
  0
SPLINE
  5
515
100
AcDbEntity
  8
0
100
AcDbSpline
 62
7
  6
CONTINUOUS
 70
0
 71
3
 72
9
 73
5
 74
3
 42
0.0000001
 43
0.0000001
 44
0.0000000001
 12
0.0016749915
 22
-0.0018127295
 32
0.0
 13
0.0016815169
 23
-0.0018066747
 33
0.0
 40
0.0
 40
0.0
 40
0.0
 40
0.0
 40
0.5673703401
 40
1.0
 40
1.0
 40
1.0
 40
1.0
 10
7.2818123608
 20
4.7957055839
 30
0.0
 10
7.282129141
 20
4.7953627542
 30
0.0
 10
7.2826881368
 20
4.7947591274
 30
0.0
 10
7.2832482088
 20
4.7941564993
 30
0.0
 10
7.2834907001
 20
4.7938959589
 30
0.0
 11
7.2818123608
 21
4.7957055839
 31
0.0
 11
7.2827638027
 21
4.7946781158
 31
0.0
 11
7.2834907001
 21
4.7938959589
 31
0.0
  0
SPLINE
  5
516
100
AcDbEntity
  8
0
100
AcDbSpline
 62
7
  6
CONTINUOUS
 70
0
 71
3
 72
11
 73
7
 74
5
 42
0.0000001
 43
0.0000001
 44
0.0000000001
 12
0.0186653197
 22
-0.0200546069
 32
0.0
 13
0.0193760954
 23
-0.0193687449
 33
0.0
 40
0.0
 40
0.0
 40
0.0
 40
0.0
 40
0.1112772229
 40
0.3460085386
 40
0.6484878173
 40
1.0
 40
1.0
 40
1.0
 40
1.0
 10
7.2834907001
 20
4.7938959589
 30
0.0
 10
7.2841830418
 20
4.7931520853
 30
0.0
 10
7.2863405841
 20
4.7908434852
 30
0.0
 10
7.2904061403
 20
4.786537216
 30
0.0
 10
7.2960406337
 20
4.7806955385
 30
0.0
 10
7.3002354509
 20
4.7764440076
 30
0.0
 10
7.3025057621
 20
4.7741745577
 30
0.0
 11
7.2834907001
 21
4.7938959589
 31
0.0
 11
7.2855719924
 21
4.7916683133
 31
0.0
 11
7.2899886605
 21
4.7869940039
 31
0.0
 11
7.2957401445
 21
4.7810279409
 31
0.0
 11
7.3025057621
 21
4.7741745577
 31
0.0
  0
SPLINE
  5
517
100
AcDbEntity
  8
0
100
AcDbSpline
 62
7
  6
CONTINUOUS
 70
0
 71
3
 72
14
 73
10
 74
8
 42
0.0000001
 43
0.0000001
 44
0.0000000001
 12
-0.0456522769
 22
0.0150628768
 32
0.0
 13
-0.0480634436
 23
0.0004202022
 33
0.0
 40
0.0
 40
0.0
 40
0.0
 40
0.0
 40
0.0411517569
 40
0.1586236662
 40
0.2907990279
 40
0.4390860169
 40
0.6051750464
 40
0.7912602832
 40
1.0
 40
1.0
 40
1.0
 40
1.0
 10
7.3499287774
 20
4.0175731881
 30
0.0
 10
7.3493025536
 20
4.0177798093
 30
0.0
 10
7.3468791637
 20
4.018547441
 30
0.0
 10
7.3423817639
 20
4.0197726829
 30
0.0
 10
7.3361511018
 20
4.0211360358
 30
0.0
 10
7.3290958398
 20
4.0223383712
 30
0.0
 10
7.321136623
 20
4.023331467
 30
0.0
 10
7.312175368
 20
4.0240459146
 30
0.0
 10
7.3058500119
 20
4.0242545494
 30
0.0
 10
7.3025057621
 20
4.024283787
 30
0.0
 11
7.3499287774
 21
4.0175731881
 31
0.0
 11
7.3480431452
 21
4.0181714201
 31
0.0
 11
7.3425985575
 21
4.0196672134
 31
0.0
 11
7.3363945292
 21
4.0210351403
 31
0.0
 11
7.3293698053
 21
4.0222409093
 31
0.0
 11
7.3214489666
 21
4.0232361233
 31
0.0
 11
7.3125333975
 21
4.0239516936
 31
0.0
 11
7.3025057621
 21
4.024283787
 31
0.0
  0
SPLINE
  5
518
100
AcDbEntity
  8
0
100
AcDbSpline
 62
7
  6
CONTINUOUS
 70
0
 71
3
 72
12
 73
8
 74
6
 42
0.0000001
 43
0.0000001
 44
0.0000000001
 12
-0.0376034603
 22
-0.0001001173
 32
0.0
 13
0.0
 23
-0.0375212978
 33
0.0
 40
0.0
 40
0.0
 40
0.0
 40
0.0
 40
0.1661442984
 40
0.3534222642
 40
0.5568065661
 40
0.776568171
 40
1.0
 40
1.0
 40
1.0
 40
1.0
 10
7.3019221981
 20
4.3510115883
 30
0.0
 10
7.2998396646
 20
4.3510060437
 30
0.0
 10
7.2953616765
 20
4.3500707933
 30
0.0
 10
7.2895514936
 20
4.3459353833
 30
0.0
 10
7.2851149499
 20
4.3395763148
 30
0.0
 10
7.2824107675
 20
4.3318701828
 30
0.0
 10
7.2818123608
 20
4.3263066667
 30
0.0
 10
7.2818123608
 20
4.3235121826
 30
0.0
 11
7.3019221981
 21
4.3510115883
 31
0.0
 11
7.2958040531
 21
4.3497533202
 31
0.0
 11
7.2900038762
 21
4.3457865275
 31
0.0
 11
7.2855356235
 21
4.3396002049
 31
0.0
 11
7.2827347322
 21
4.3318447393
 31
0.0
 11
7.2818123608
 21
4.3235121826
 31
0.0
  0
SPLINE
  5
519
100
AcDbEntity
  8
0
100
AcDbSpline
 62
7
  6
CONTINUOUS
 70
0
 71
3
 72
14
 73
10
 74
8
 42
0.0000001
 43
0.0000001
 44
0.0000000001
 12
0.0480633912
 22
0.0004202018
 32
0.0
 13
0.0456522585
 23
0.0150628286
 33
0.0
 40
0.0
 40
0.0
 40
0.0
 40
0.0
 40
0.2086484034
 40
0.3946565811
 40
0.5606968602
 40
0.7090000314
 40
0.8412559387
 40
0.9588395048
 40
1.0
 40
1.0
 40
1.0
 40
1.0
 10
7.3025057621
 20
4.6227405782
 30
0.0
 10
7.3058485453
 20
4.622769803
 30
0.0
 10
7.3121711966
 20
4.622978282
 30
0.0
 10
7.3211289927
 20
4.6236921727
 30
0.0
 10
7.3290865056
 20
4.6246846442
 30
0.0
 10
7.336142594
 20
4.6258866564
 30
0.0
 10
7.3423765955
 20
4.6272503484
 30
0.0
 10
7.3468771411
 20
4.6284762904
 30
0.0
 10
7.3493023715
 20
4.6292444959
 30
0.0
 10
7.3499287281
 20
4.6294511604
 30
0.0
 11
7.3025057621
 21
4.6227405782
 31
0.0
 11
7.3125290035
 21
4.6230724182
 31
0.0
 11
7.3214408938
 21
4.6237874067
 31
0.0
 11
7.3293594507
 21
4.6247819153
 31
0.0
 11
7.3363850115
 21
4.6259873607
 31
0.0
 11
7.3425928945
 21
4.6273557529
 31
0.0
 11
7.3480426949
 21
4.6288528077
 31
0.0
 11
7.3499287281
 21
4.6294511604
 31
0.0
  0
SPLINE
  5
51A
100
AcDbEntity
  8
0
100
AcDbSpline
 62
7
  6
CONTINUOUS
 70
0
 71
3
 72
19
 73
15
 74
13
 42
0.0000001
 43
0.0000001
 44
0.0000000001
 12
0.0633715193
 22
0.0000450458
 32
0.0
 13
0.0633535637
 23
0.001509146
 33
0.0
 40
0.0
 40
0.0
 40
0.0
 40
0.0
 40
0.1581668675
 40
0.2987989027
 40
0.4237589974
 40
0.534630337
 40
0.6326009499
 40
0.7186105757
 40
0.7933633452
 40
0.8573476879
 40
0.9108755147
 40
0.9540967844
 40
0.9869847926
 40
1.0
 40
1.0
 40
1.0
 40
1.0
 10
7.3025057621
 20
4.7741745577
 30
0.0
 10
7.3058468536
 20
4.7741769326
 30
0.0
 10
7.312158632
 20
4.7741938976
 30
0.0
 10
7.321109888
 20
4.7742505485
 30
0.0
 10
7.3290618974
 20
4.7743260388
 30
0.0
 10
7.336112559
 20
4.7744123934
 30
0.0
 10
7.3423402955
 20
4.7745035957
 30
0.0
 10
7.3478049707
 20
4.774594985
 30
0.0
 10
7.3525516746
 20
4.7746828749
 30
0.0
 10
7.356612235
 20
4.7747642678
 30
0.0
 10
7.3600067722
 20
4.7748366622
 30
0.0
 10
7.3627445216
 20
4.7748979152
 30
0.0
 10
7.3646266675
 20
4.7749415647
 30
0.0
 10
7.3655960481
 20
4.7749645217
 30
0.0
 10
7.3658709014
 20
4.774971069
 30
0.0
 11
7.3025057621
 21
4.7741745577
 31
0.0
 11
7.3125290035
 21
4.7742013323
 31
0.0
 11
7.3214408938
 21
4.7742576208
 31
0.0
 11
7.3293594507
 21
4.7743327159
 31
0.0
 11
7.3363850115
 21
4.7744187101
 31
0.0
 11
7.3425928945
 21
4.7745095859
 31
0.0
 11
7.3480426949
 21
4.7746007026
 31
0.0
 11
7.3527790811
 21
4.774688386
 31
0.0
 11
7.356833053
 21
4.7747696373
 31
0.0
 11
7.3602244225
 21
4.7748419587
 31
0.0
 11
7.3629627355
 21
4.7749032213
 31
0.0
 11
7.3650463389
 21
4.7749515417
 31
0.0
 11
7.3658709014
 21
4.774971069
 31
0.0
  0
SPLINE
  5
51B
100
AcDbEntity
  8
0
100
AcDbSpline
 62
7
  6
CONTINUOUS
 70
0
 71
3
 72
10
 73
6
 74
4
 42
0.0000001
 43
0.0000001
 44
0.0000000001
 12
0.001705416
 22
0.0000406247
 32
0.0
 13
0.0017053924
 23
0.0000416018
 33
0.0
 40
0.0
 40
0.0
 40
0.0
 40
0.0
 40
0.3615382475
 40
0.8477833024
 40
1.0
 40
1.0
 40
1.0
 40
1.0
 10
7.3658709014
 20
4.774971069
 30
0.0
 10
7.3660764257
 20
4.7749759648
 30
0.0
 10
7.3665583656
 20
4.7749874951
 30
0.0
 10
7.3671268329
 20
4.7750012338
 30
0.0
 10
7.3674897759
 20
4.7750100718
 30
0.0
 10
7.3675763056
 20
4.7750121826
 30
0.0
 11
7.3658709014
 21
4.774971069
 31
0.0
 11
7.3664874729
 21
4.7749858203
 31
0.0
 11
7.3673167161
 21
4.7750058614
 31
0.0
 11
7.3675763056
 21
4.7750121826
 31
0.0
  0
SPLINE
  5
51C
100
AcDbEntity
  8
0
100
AcDbSpline
 62
7
  6
CONTINUOUS
 70
0
 71
3
 72
12
 73
8
 74
6
 42
0.0000001
 43
0.0000001
 44
0.0000000001
 12
0.0
 22
-0.0416073857
 32
0.0
 13
0.0343919331
 23
-0.0234172902
 33
0.0
 40
0.0
 40
0.0
 40
0.0
 40
0.0
 40
0.1628328034
 40
0.3569452746
 40
0.5686019512
 40
0.78663156
 40
1.0
 40
1.0
 40
1.0
 40
1.0
 10
7.2818123608
 20
4.6574033387
 30
0.0
 10
7.2818123608
 20
4.6551449896
 30
0.0
 10
7.2826379338
 20
4.6501984643
 30
0.0
 10
7.2854703146
 20
4.6428048483
 30
0.0
 10
7.2898477578
 20
4.6352971645
 30
0.0
 10
7.2955052338
 20
4.6283602126
 30
0.0
 10
7.300059711
 20
4.6244060818
 30
0.0
 10
7.3025057621
 20
4.6227405782
 30
0.0
 11
7.2818123608
 21
4.6574033387
 31
0.0
 11
7.2827638027
 21
4.6506954311
 31
0.0
 11
7.2855719924
 21
4.6431228408
 31
0.0
 11
7.2899886605
 21
4.6355039728
 31
0.0
 11
7.2957401445
 21
4.6284886238
 31
0.0
 11
7.3025057621
 21
4.6227405782
 31
0.0
  0
SPLINE
  5
51D
100
AcDbEntity
  8
0
100
AcDbSpline
 62
7
  6
CONTINUOUS
 70
0
 71
3
 72
12
 73
8
 74
6
 42
0.0000001
 43
0.0000001
 44
0.0000000001
 12
0.0
 22
-0.0375171954
 32
0.0
 13
0.0376007355
 23
-0.0001118443
 33
0.0
 40
0.0
 40
0.0
 40
0.0
 40
0.0
 40
0.2268902405
 40
0.4453389409
 40
0.6460838985
 40
0.8321362918
 40
1.0
 40
1.0
 40
1.0
 40
1.0
 10
7.2818123608
 20
4.3235121826
 30
0.0
 10
7.2818123608
 20
4.3206747541
 30
0.0
 10
7.2824231246
 20
4.3150840235
 30
0.0
 10
7.2851486053
 20
4.3073934012
 30
0.0
 10
7.2895557944
 20
4.301098662
 30
0.0
 10
7.2953295619
 20
4.2969672363
 30
0.0
 10
7.2998142503
 20
4.2960190599
 30
0.0
 10
7.3019181833
 20
4.2960128017
 30
0.0
 11
7.2818123608
 21
4.3235121826
 31
0.0
 11
7.2827638027
 21
4.3150532369
 31
0.0
 11
7.2855719924
 21
4.3073537795
 31
0.0
 11
7.2899886605
 21
4.3012533823
 31
0.0
 11
7.2957401445
 21
4.2972982437
 31
0.0
 11
7.3019181833
 21
4.2960128017
 31
0.0
  0
SPLINE
  5
51E
100
AcDbEntity
  8
0
100
AcDbSpline
 62
7
  6
CONTINUOUS
 70
0
 71
3
 72
12
 73
8
 74
6
 42
0.0000001
 43
0.0000001
 44
0.0000000001
 12
-0.0343922637
 22
-0.0234175153
 32
0.0
 13
0.0
 23
-0.0416077857
 33
0.0
 40
0.0
 40
0.0
 40
0.0
 40
0.0
 40
0.2122576297
 40
0.4329518757
 40
0.64746894
 40
0.8416775705
 40
1.0
 40
1.0
 40
1.0
 40
1.0
 10
7.3025057621
 20
4.024283787
 30
0.0
 10
7.3000724219
 20
4.0226269382
 30
0.0
 10
7.2954989239
 20
4.018662197
 30
0.0
 10
7.2898055667
 20
4.0116736497
 30
0.0
 10
7.2854018724
 20
4.0040897137
 30
0.0
 10
7.2826075858
 20
3.9967026072
 30
0.0
 10
7.2818123608
 20
3.9918168418
 30
0.0
 10
7.2818123608
 20
3.9896210265
 30
0.0
 11
7.3025057621
 21
4.024283787
 31
0.0
 11
7.2957722603
 21
4.0185691932
 31
0.0
 11
7.2899523372
 21
4.0114664742
 31
0.0
 11
7.2854926915
 21
4.0037348807
 31
0.0
 11
7.2827166235
 21
3.9961461127
 31
0.0
 11
7.2818123608
 21
3.9896210265
 31
0.0
  0
SPLINE
  5
51F
100
AcDbEntity
  8
0
100
AcDbSpline
 62
7
  6
CONTINUOUS
 70
0
 71
3
 72
10
 73
6
 74
4
 42
0.0000001
 43
0.0000001
 44
0.0000000001
 12
0.0
 22
-0.0111669543
 32
0.0
 13
0.0107118414
 23
-0.003460616
 33
0.0
 40
0.0
 40
0.0
 40
0.0
 40
0.0
 40
0.4782223925
 40
0.8673512264
 40
1.0
 40
1.0
 40
1.0
 40
1.0
 10
7.2818123608
 20
3.9896210265
 30
0.0
 10
7.2818123608
 20
3.9878409307
 30
0.0
 10
7.2821861817
 20
3.9845288844
 30
0.0
 10
7.2846622195
 20
3.9813835091
 30
0.0
 10
7.2864480982
 20
3.9805933203
 30
0.0
 10
7.2869217358
 20
3.9804403048
 30
0.0
 11
7.2818123608
 21
3.9896210265
 31
0.0
 11
7.2827638027
 21
3.9843661783
 31
0.0
 11
7.2855719924
 21
3.9810500915
 31
0.0
 11
7.2869217358
 21
3.9804403048
 31
0.0
  0
SPLINE
  5
520
100
AcDbEntity
  8
0
100
AcDbSpline
 62
7
  6
CONTINUOUS
 70
0
 71
3
 72
11
 73
7
 74
5
 42
0.0000001
 43
0.0000001
 44
0.0000000001
 12
-0.0193760953
 22
-0.0193687448
 32
0.0
 13
-0.0186617327
 23
-0.020057967
 33
0.0
 40
0.0
 40
0.0
 40
0.0
 40
0.0
 40
0.3498200944
 40
0.6559426963
 40
0.8929343613
 40
1.0
 40
1.0
 40
1.0
 40
1.0
 10
7.3025057621
 20
3.8728498075
 30
0.0
 10
7.3002463796
 20
3.8705912822
 30
0.0
 10
7.2960379637
 20
3.8663281203
 30
0.0
 10
7.2903791793
 20
3.8604564454
 30
0.0
 10
7.2863012329
 20
3.8561406223
 30
0.0
 10
7.2841566967
 20
3.8538442581
 30
0.0
 10
7.2834906866
 20
3.8531284184
 30
0.0
 11
7.3025057621
 21
3.8728498075
 31
0.0
 11
7.2957722603
 21
3.8660298611
 31
0.0
 11
7.2899523372
 21
3.8599911312
 31
0.0
 11
7.2854926915
 21
3.8552722333
 31
0.0
 11
7.2834906866
 21
3.8531284184
 31
0.0
  0
SPLINE
  5
521
100
AcDbEntity
  8
0
100
AcDbSpline
 62
7
  6
CONTINUOUS
 70
0
 71
3
 72
9
 73
5
 74
3
 42
0.0000001
 43
0.0000001
 44
0.0000000001
 12
-0.0016811929
 22
-0.0018069765
 32
0.0
 13
-0.0016754344
 23
-0.001812315
 33
0.0
 40
0.0
 40
0.0
 40
0.0
 40
0.0
 40
0.4607853471
 40
1.0
 40
1.0
 40
1.0
 40
1.0
 10
7.2834906866
 20
3.8531284184
 30
0.0
 10
7.2832324636
 20
3.8528508756
 30
0.0
 10
7.2826725026
 20
3.8522481441
 30
0.0
 10
7.2821135004
 20
3.8516445236
 30
0.0
 10
7.2818123608
 20
3.8513187813
 30
0.0
 11
7.2834906866
 21
3.8531284184
 31
0.0
 11
7.2827166235
 21
3.8522952272
 31
0.0
 11
7.2818123608
 21
3.8513187813
 31
0.0
  0
SPLINE
  5
522
100
AcDbEntity
  8
0
100
AcDbSpline
 62
7
  6
CONTINUOUS
 70
0
 71
3
 72
9
 73
5
 74
3
 42
0.0000001
 43
0.0000001
 44
0.0000000001
 12
-0.0010883267
 22
0.0000265489
 32
0.0
 13
-0.0010883363
 23
0.0000261513
 33
0.0
 40
0.0
 40
0.0
 40
0.0
 40
0.0
 40
0.2388135804
 40
1.0
 40
1.0
 40
1.0
 40
1.0
 10
7.3675763056
 20
3.8720121826
 30
0.0
 10
7.3674896699
 20
3.872014296
 30
0.0
 10
7.3671268939
 20
3.8720231299
 30
0.0
 10
7.3667641164
 20
3.8720318975
 30
0.0
 10
7.3664879741
 20
3.8720385328
 30
0.0
 11
7.3675763056
 21
3.8720121826
 31
0.0
 11
7.3673163981
 21
3.8720185115
 31
0.0
 11
7.3664879741
 21
3.8720385328
 31
0.0
  0
SPLINE
  5
523
100
AcDbEntity
  8
0
100
AcDbSpline
 62
7
  6
CONTINUOUS
 70
0
 71
3
 72
19
 73
15
 74
13
 42
0.0000001
 43
0.0000001
 44
0.0000000001
 12
-0.0639703201
 22
0.0015371243
 32
0.0
 13
-0.0639887685
 23
0.0000454845
 33
0.0
 40
0.0
 40
0.0
 40
0.0
 40
0.0
 40
0.0225194181
 40
0.0551190809
 40
0.0980260286
 40
0.1510438564
 40
0.2143559577
 40
0.2883142554
 40
0.3734127415
 40
0.4703780659
 40
0.5801668433
 40
0.703957211
 40
0.8432901753
 40
1.0
 40
1.0
 40
1.0
 40
1.0
 10
7.3664879741
 20
3.8720385328
 30
0.0
 10
7.3660077827
 20
3.8720500712
 30
0.0
 10
7.3648324474
 20
3.8720780283
 30
0.0
 10
7.3627421538
 20
3.8721265051
 30
0.0
 10
7.360001465
 20
3.87218782
 30
0.0
 10
7.3566057781
 20
3.8722602301
 30
0.0
 10
7.352547821
 20
3.8723415624
 30
0.0
 10
7.3478055934
 20
3.8724293662
 30
0.0
 10
7.3423455057
 20
3.8725206847
 30
0.0
 10
7.3361210708
 20
3.8726118556
 30
0.0
 10
7.3290712125
 20
3.872698226
 30
0.0
 10
7.3211174952
 20
3.8727737598
 30
0.0
 10
7.3121627877
 20
3.8728304539
 30
0.0
 10
7.3058483183
 20
3.8728474316
 30
0.0
 10
7.3025057621
 20
3.8728498075
 30
0.0
 11
7.3664879741
 21
3.8720385328
 31
0.0
 11
7.3650473914
 21
3.8720727988
 31
0.0
 11
7.3629619393
 21
3.8721211621
 31
0.0
 11
7.3602170626
 21
3.8721825678
 31
0.0
 11
7.3568252872
 21
3.872254889
 31
0.0
 11
7.3527748361
 21
3.8723360613
 31
0.0
 11
7.3480431452
 21
3.8724236547
 31
0.0
 11
7.3425985575
 21
3.8725146901
 31
0.0
 11
7.3363945292
 21
3.8726055264
 31
0.0
 11
7.3293698053
 21
3.8726915359
 31
0.0
 11
7.3214489666
 21
3.8727666798
 31
0.0
 11
7.3125333975
 21
3.8728230126
 31
0.0
 11
7.3025057621
 21
3.8728498075
 31
0.0
  0
SPLINE
  5
524
100
AcDbEntity
  8
0
100
AcDbSpline
 62
7
  6
CONTINUOUS
 70
0
 71
3
 72
11
 73
7
 74
5
 42
0.0000001
 43
0.0000001
 44
0.0000000001
 12
-0.0762335611
 22
-0.286211263
 32
0.0
 13
0.0
 23
-0.2961898764
 33
0.0
 40
0.0
 40
0.0
 40
0.0
 40
0.0
 40
0.2606815539
 40
0.5081152459
 40
0.7566928314
 40
1.0
 40
1.0
 40
1.0
 40
1.0
 10
5.4111164333
 20
4.6160010713
 30
0.0
 10
5.4044922056
 20
4.5911310723
 30
0.0
 10
5.3927861531
 20
4.5423194381
 30
0.0
 10
5.3796593108
 20
4.4687259728
 30
0.0
 10
5.371643499
 20
4.3961158253
 30
0.0
 10
5.3698358891
 20
4.3475338893
 30
0.0
 10
5.3698358891
 20
4.3235121826
 30
0.0
 11
5.4111164333
 21
4.6160010713
 31
0.0
 11
5.3932419933
 21
4.5408872939
 31
0.0
 11
5.3804821368
 21
4.4687192787
 31
0.0
 11
5.3724867161
 21
4.3955285326
 31
0.0
 11
5.3698358891
 21
4.3235121826
 31
0.0
  0
SPLINE
  5
525
100
AcDbEntity
  8
0
100
AcDbSpline
 62
7
  6
CONTINUOUS
 70
0
 71
3
 72
15
 73
11
 74
9
 42
0.0000001
 43
0.0000001
 44
0.0000000001
 12
0.2257055701
 22
0.2446201154
 32
0.0
 13
-0.2257055701
 23
0.2446201154
 33
0.0
 40
0.0
 40
0.0
 40
0.0
 40
0.0
 40
0.1514952825
 40
0.280093351
 40
0.3938570155
 40
0.5000058728
 40
0.6061425848
 40
0.719906015
 40
0.8485287634
 40
1.0
 40
1.0
 40
1.0
 40
1.0
 10
6.3075057621
 20
3.6901284486
 30
0.0
 10
6.3189035384
 20
3.7024813798
 30
0.0
 10
6.3389085146
 20
3.7263801435
 30
0.0
 10
6.361967527
 20
3.7637201257
 30
0.0
 10
6.3758489955
 20
3.8001216572
 30
0.0
 10
6.3805290291
 20
3.8363735377
 30
0.0
 10
6.3758484706
 20
3.8726251979
 30
0.0
 10
6.3619667271
 20
3.9090281085
 30
0.0
 10
6.3389067877
 20
3.9463676727
 30
0.0
 10
6.3189017293
 20
3.9702663668
 30
0.0
 10
6.3075057621
 20
3.9826173373
 30
0.0
 11
6.3075057621
 21
3.6901284486
 31
0.0
 11
6.3394888439
 21
3.7291107575
 31
0.0
 11
6.3615589646
 21
3.7657844962
 31
0.0
 11
6.3746529369
 21
3.8013134645
 31
0.0
 11
6.3790053947
 21
3.8363748564
 31
0.0
 11
6.3746529351
 21
3.8714321747
 31
0.0
 11
6.3615590974
 21
3.9069611095
 31
0.0
 11
6.3394841543
 21
3.9436415333
 31
0.0
 11
6.3075057621
 21
3.9826173373
 31
0.0
  0
SPLINE
  5
526
100
AcDbEntity
  8
0
100
AcDbSpline
 62
7
  6
CONTINUOUS
 70
0
 71
3
 72
11
 73
7
 74
5
 42
0.0000001
 43
0.0000001
 44
0.0000000001
 12
0.1270857635
 22
0.2754715725
 32
0.0
 13
-0.0
 23
0.3033733319
 33
0.0
 40
0.0
 40
0.0
 40
0.0
 40
0.0
 40
0.2781563682
 40
0.5225786753
 40
0.7696444445
 40
1.0
 40
1.0
 40
1.0
 40
1.0
 10
6.3075057621
 20
4.0310232939
 30
0.0
 10
6.3192890002
 20
4.0565646846
 30
0.0
 10
6.3395718197
 20
4.1054538114
 30
0.0
 10
6.3624048622
 20
4.1799897368
 30
0.0
 10
6.3759751637
 20
4.2518897073
 30
0.0
 10
6.3790057621
 20
4.3002176051
 30
0.0
 10
6.3790057621
 20
4.3235121826
 30
0.0
 11
6.3075057621
 21
4.0310232939
 31
0.0
 11
6.3395270246
 21
4.1090970079
 31
0.0
 11
6.3610054525
 21
4.1800693901
 31
0.0
 11
6.3746972805
 21
4.2537613902
 31
0.0
 11
6.3790057621
 21
4.3235121826
 31
0.0
  0
SPLINE
  5
527
100
AcDbEntity
  8
0
100
AcDbSpline
 62
7
  6
CONTINUOUS
 70
0
 71
3
 72
15
 73
11
 74
9
 42
0.0000001
 43
0.0000001
 44
0.0000000001
 12
-0.1442741788
 22
-0.2708314708
 32
0.0
 13
0.1442741788
 23
-0.2708314708
 33
0.0
 40
0.0
 40
0.0
 40
0.0
 40
0.0
 40
0.1354796343
 40
0.2615918802
 40
0.3820878341
 40
0.4999837131
 40
0.6178975346
 40
0.7384084524
 40
0.8645067772
 40
1.0
 40
1.0
 40
1.0
 40
1.0
 10
5.4111164333
 20
4.9568959166
 30
0.0
 10
5.404601029
 20
4.9446652004
 30
0.0
 10
5.392971336
 20
4.9205160566
 30
0.0
 10
5.3797674973
 20
4.8836426084
 30
0.0
 10
5.3716725342
 20
4.847131072
 30
0.0
 10
5.3689283539
 20
4.810654668
 30
0.0
 10
5.3716715779
 20
4.7741765998
 30
0.0
 10
5.3797667154
 20
4.737663076
 30
0.0
 10
5.392970771
 20
4.7007881381
 30
0.0
 10
5.4046003755
 20
4.6766389708
 30
0.0
 10
5.4111164333
 20
4.6644070279
 30
0.0
 11
5.4111164333
 21
4.9568959166
 31
0.0
 11
5.3932495472
 21
4.9193573685
 31
0.0
 11
5.3803698235
 21
4.882864402
 31
0.0
 11
5.3724983046
 21
4.846736259
 31
0.0
 11
5.3698362514
 21
4.8106564829
 31
0.0
 11
5.3724976556
 21
4.7745711381
 31
0.0
 11
5.3803698598
 21
4.7384384449
 31
0.0
 11
5.3932479353
 21
4.7019494268
 31
0.0
 11
5.4111164333
 21
4.6644070279
 31
0.0
  0
SPLINE
  5
528
100
AcDbEntity
  8
0
100
AcDbSpline
 62
7
  6
CONTINUOUS
 70
0
 71
3
 72
15
 73
11
 74
9
 42
0.0000001
 43
0.0000001
 44
0.0000000001
 12
0.2257055701
 22
0.2446201154
 32
0.0
 13
-0.2257055701
 23
0.2446201154
 33
0.0
 40
0.0
 40
0.0
 40
0.0
 40
0.0
 40
0.1514952825
 40
0.2800933511
 40
0.3938570155
 40
0.5000058728
 40
0.6061425848
 40
0.719906015
 40
0.8485287634
 40
1.0
 40
1.0
 40
1.0
 40
1.0
 10
6.3075057621
 20
4.6644070279
 30
0.0
 10
6.3189035384
 20
4.676759959
 30
0.0
 10
6.3389085146
 20
4.7006587228
 30
0.0
 10
6.361967527
 20
4.7379987049
 30
0.0
 10
6.3758489955
 20
4.7744002364
 30
0.0
 10
6.3805290291
 20
4.810652117
 30
0.0
 10
6.3758484706
 20
4.8469037771
 30
0.0
 10
6.3619667271
 20
4.8833066878
 30
0.0
 10
6.3389067877
 20
4.920646252
 30
0.0
 10
6.3189017293
 20
4.9445449461
 30
0.0
 10
6.3075057621
 20
4.9568959166
 30
0.0
 11
6.3075057621
 21
4.6644070279
 31
0.0
 11
6.3394888439
 21
4.7033893368
 31
0.0
 11
6.3615589646
 21
4.7400630755
 31
0.0
 11
6.3746529369
 21
4.7755920437
 31
0.0
 11
6.3790053947
 21
4.8106534357
 31
0.0
 11
6.3746529351
 21
4.845710754
 31
0.0
 11
6.3615590974
 21
4.8812396887
 31
0.0
 11
6.3394841543
 21
4.9179201126
 31
0.0
 11
6.3075057621
 21
4.9568959166
 31
0.0
  0
SPLINE
  5
529
100
AcDbEntity
  8
0
100
AcDbSpline
 62
7
  6
CONTINUOUS
 70
0
 71
3
 72
10
 73
6
 74
4
 42
0.0000001
 43
0.0000001
 44
0.0000000001
 12
-0.013554492
 22
0.0099324907
 32
0.0
 13
-0.0161378339
 23
-0.0052108958
 33
0.0
 40
0.0
 40
0.0
 40
0.0
 40
0.0
 40
0.4639696812
 40
0.8207144697
 40
1.0
 40
1.0
 40
1.0
 40
1.0
 10
7.3025057621
 20
4.6616166299
 30
0.0
 10
7.300409471
 20
4.6631527547
 30
0.0
 10
7.296451399
 20
4.6655633653
 30
0.0
 10
7.2910109648
 20
4.6672370638
 30
0.0
 10
7.2878843736
 20
4.6668928385
 30
0.0
 10
7.2869199469
 20
4.6665814257
 30
0.0
 11
7.3025057621
 21
4.6616166299
 31
0.0
 11
7.2957722603
 21
4.6655468968
 31
0.0
 11
7.2899523372
 21
4.6669842315
 31
0.0
 11
7.2869199469
 21
4.6665814257
 31
0.0
  0
SPLINE
  5
52A
100
AcDbEntity
  8
0
100
AcDbSpline
 62
7
  6
CONTINUOUS
 70
0
 71
3
 72
15
 73
11
 74
9
 42
0.0000001
 43
0.0000001
 44
0.0000000001
 12
0.0220806315
 22
0.0072854395
 32
0.0
 13
0.0
 23
0.0232477126
 33
0.0
 40
0.0
 40
0.0
 40
0.0
 40
0.0
 40
0.1299489824
 40
0.3187623624
 40
0.4828886773
 40
0.6237446098
 40
0.7426169948
 40
0.8420253687
 40
0.926288497
 40
1.0
 40
1.0
 40
1.0
 40
1.0
 10
7.3499287281
 20
4.6294511604
 30
0.0
 10
7.3508851799
 20
4.6297667389
 30
0.0
 10
7.3532171666
 20
4.6305836175
 30
0.0
 10
7.3566819694
 20
4.6320057478
 30
0.0
 10
7.3600976837
 20
4.6337419605
 30
0.0
 10
7.3628653409
 20
4.6355240835
 30
0.0
 10
7.3649934272
 20
4.6373338978
 30
0.0
 10
7.3664944332
 20
4.6391561085
 30
0.0
 10
7.3673786302
 20
4.6409692716
 30
0.0
 10
7.3675763056
 20
4.6421996864
 30
0.0
 10
7.3675763056
 20
4.6427708943
 30
0.0
 11
7.3499287281
 21
4.6294511604
 31
0.0
 11
7.3527790811
 21
4.6304530257
 31
0.0
 11
7.356833053
 21
4.6321361299
 31
0.0
 11
7.3602244225
 21
4.6338845925
 31
0.0
 11
7.3629627355
 21
4.6356802831
 31
0.0
 11
7.3650463389
 21
4.6374956592
 31
0.0
 11
7.3664874729
 21
4.6393022951
 31
0.0
 11
7.3673167161
 21
4.6410770466
 31
0.0
 11
7.3675763056
 21
4.6427708943
 31
0.0
  0
SPLINE
  5
52B
100
AcDbEntity
  8
0
100
AcDbSpline
 62
7
  6
CONTINUOUS
 70
0
 71
3
 72
10
 73
6
 74
4
 42
0.0000001
 43
0.0000001
 44
0.0000000001
 12
0.0161201126
 22
-0.0052078366
 32
0.0
 13
0.0135552025
 23
0.0099330113
 33
0.0
 40
0.0
 40
0.0
 40
0.0
 40
0.0
 40
0.1814363813
 40
0.5339890578
 40
1.0
 40
1.0
 40
1.0
 40
1.0
 10
7.2869217358
 20
3.9804403048
 30
0.0
 10
7.2878966608
 20
3.9801253411
 30
0.0
 10
7.291010676
 20
3.9797952932
 30
0.0
 10
7.2964508308
 20
3.9814585405
 30
0.0
 10
7.3004001378
 20
3.9838647713
 30
0.0
 10
7.3025057621
 20
3.9854077353
 30
0.0
 11
7.2869217358
 21
3.9804403048
 31
0.0
 11
7.2899886605
 21
3.9800416952
 31
0.0
 11
7.2957401445
 21
3.9814636334
 31
0.0
 11
7.3025057621
 21
3.9854077353
 31
0.0
  0
SPLINE
  5
52C
100
AcDbEntity
  8
0
100
AcDbSpline
 62
7
  6
CONTINUOUS
 70
0
 71
3
 72
15
 73
11
 74
9
 42
0.0000001
 43
0.0000001
 44
0.0000000001
 12
-0.1442741788
 22
-0.2708314708
 32
0.0
 13
0.1442741788
 23
-0.2708314708
 33
0.0
 40
0.0
 40
0.0
 40
0.0
 40
0.0
 40
0.1354796343
 40
0.2615918802
 40
0.3820878342
 40
0.4999837131
 40
0.6178975346
 40
0.7384084524
 40
0.8645067772
 40
1.0
 40
1.0
 40
1.0
 40
1.0
 10
5.4111164333
 20
3.9826173373
 30
0.0
 10
5.404601029
 20
3.9703866211
 30
0.0
 10
5.392971336
 20
3.9462374773
 30
0.0
 10
5.3797674973
 20
3.9093640291
 30
0.0
 10
5.3716725342
 20
3.8728524927
 30
0.0
 10
5.3689283539
 20
3.8363760887
 30
0.0
 10
5.3716715779
 20
3.7998980205
 30
0.0
 10
5.3797667154
 20
3.7633844967
 30
0.0
 10
5.392970771
 20
3.7265095589
 30
0.0
 10
5.4046003755
 20
3.7023603916
 30
0.0
 10
5.4111164333
 20
3.6901284486
 30
0.0
 11
5.4111164333
 21
3.9826173373
 31
0.0
 11
5.3932495472
 21
3.9450787892
 31
0.0
 11
5.3803698235
 21
3.9085858227
 31
0.0
 11
5.3724983046
 21
3.8724576798
 31
0.0
 11
5.3698362514
 21
3.8363779037
 31
0.0
 11
5.3724976556
 21
3.8002925588
 31
0.0
 11
5.3803698598
 21
3.7641598657
 31
0.0
 11
5.3932479353
 21
3.7276708475
 31
0.0
 11
5.4111164333
 21
3.6901284486
 31
0.0
  0
SPLINE
  5
52D
100
AcDbEntity
  8
0
100
AcDbSpline
 62
7
  6
CONTINUOUS
 70
0
 71
3
 72
21
 73
17
 74
15
 42
0.0000001
 43
0.0000001
 44
0.0000000001
 12
0.0
 22
0.0754463415
 32
0.0
 13
-0.0754412193
 23
0.000879129
 33
0.0
 40
0.0
 40
0.0
 40
0.0
 40
0.0
 40
0.0318728312
 40
0.0666113786
 40
0.1050977357
 40
0.1484669647
 40
0.1975280796
 40
0.2525960885
 40
0.3143097988
 40
0.3833232408
 40
0.4603149239
 40
0.5461002325
 40
0.641650566
 40
0.7481117277
 40
0.8669596231
 40
1.0
 40
1.0
 40
1.0
 40
1.0
 10
7.3675763056
 20
4.3235121826
 30
0.0
 10
7.3675763056
 20
4.3243137454
 30
0.0
 10
7.3673901274
 20
4.3259941041
 30
0.0
 10
7.3665330939
 20
4.328514199
 30
0.0
 10
7.3650489166
 20
4.3310628674
 30
0.0
 10
7.3629216957
 20
4.3335933168
 30
0.0
 10
7.3601463784
 20
4.336070162
 30
0.0
 10
7.3567221157
 20
4.338465211
 30
0.0
 10
7.3526422813
 20
4.3407558862
 30
0.0
 10
7.3478832604
 20
4.3429230197
 30
0.0
 10
7.3424099954
 20
4.344942534
 30
0.0
 10
7.3361747545
 20
4.3467823909
 30
0.0
 10
7.3291152868
 20
4.3483985606
 30
0.0
 10
7.3211516917
 20
4.3497291318
 30
0.0
 10
7.3121852427
 20
4.3506840636
 30
0.0
 10
7.3058513382
 20
4.3509627158
 30
0.0
 10
7.3025057621
 20
4.3510017024
 30
0.0
 11
7.3675763056
 21
4.3235121826
 31
0.0
 11
7.3673163981
 21
4.325902784
 31
0.0
 11
7.3664882619
 21
4.3283894057
 31
0.0
 11
7.3650473914
 21
4.3309103388
 31
0.0
 11
7.3629619393
 21
4.3334316874
 31
0.0
 11
7.3602170626
 21
4.3359149551
 31
0.0
 11
7.3568252872
 21
4.3383143766
 31
0.0
 11
7.3527748361
 21
4.3406106491
 31
0.0
 11
7.3480431452
 21
4.3427836631
 31
0.0
 11
7.3425985575
 21
4.3448079987
 31
0.0
 11
7.3363945292
 21
4.3466517032
 31
0.0
 11
7.3293698053
 21
4.3482709086
 31
0.0
 11
7.3214489666
 21
4.3496032099
 31
0.0
 11
7.3125333975
 21
4.3505588464
 31
0.0
 11
7.3025057621
 21
4.3510017024
 31
0.0
  0
SPLINE
  5
52E
100
AcDbEntity
  8
0
100
AcDbSpline
 62
7
  6
CONTINUOUS
 70
0
 71
3
 72
21
 73
17
 74
15
 42
0.0000001
 43
0.0000001
 44
0.0000000001
 12
0.0
 22
0.0709243634
 32
0.0
 13
-0.0709222405
 23
0.0005487542
 33
0.0
 40
0.0
 40
0.0
 40
0.0
 40
0.0
 40
0.0240517003
 40
0.0512746915
 40
0.0833270059
 40
0.1216998439
 40
0.167315804
 40
0.2204690369
 40
0.2816997775
 40
0.3515791005
 40
0.4307280247
 40
0.5199305101
 40
0.62014839
 40
0.7325295911
 40
0.8585542435
 40
1.0
 40
1.0
 40
1.0
 40
1.0
 10
7.3675763056
 20
4.6427708943
 30
0.0
 10
7.3675763056
 20
4.6433395115
 30
0.0
 10
7.3673811104
 20
4.6445584964
 30
0.0
 10
7.3664967794
 20
4.6463454278
 30
0.0
 10
7.3649936411
 20
4.6481201925
 30
0.0
 10
7.3628609938
 20
4.6498633555
 30
0.0
 10
7.3600888866
 20
4.6515592305
 30
0.0
 10
7.3566711208
 20
4.6531919968
 30
0.0
 10
7.3525979655
 20
4.6547473983
 30
0.0
 10
7.3478449768
 20
4.6562128673
 30
0.0
 10
7.3423769754
 20
4.6575728334
 30
0.0
 10
7.3361464235
 20
4.6588067717
 30
0.0
 10
7.3290914549
 20
4.6598865267
 30
0.0
 10
7.3211328493
 20
4.6607723998
 30
0.0
 10
7.3121727051
 20
4.6614063137
 30
0.0
 10
7.3058496454
 20
4.6615907569
 30
0.0
 10
7.3025057621
 20
4.6616166299
 30
0.0
 11
7.3675763056
 21
4.6427708943
 31
0.0
 11
7.3673163981
 21
4.6444568295
 31
0.0
 11
7.3664882619
 21
4.6462009843
 31
0.0
 11
7.3650473914
 21
4.6479593186
 31
0.0
 11
7.3629619393
 21
4.6497079833
 31
0.0
 11
7.3602170626
 21
4.6514204983
 31
0.0
 11
7.3568252872
 21
4.6530660067
 31
0.0
 11
7.3527748361
 21
4.6546323191
 31
0.0
 11
7.3480431452
 21
4.6561069341
 31
0.0
 11
7.3425985575
 21
4.6574739838
 31
0.0
 11
7.3363945292
 21
4.6587134488
 31
0.0
 11
7.3293698053
 21
4.659797582
 31
0.0
 11
7.3214489666
 21
4.6606865266
 31
0.0
 11
7.3125333975
 21
4.6613224303
 31
0.0
 11
7.3025057621
 21
4.6616166299
 31
0.0
  0
SPLINE
  5
52F
100
AcDbEntity
  8
0
100
AcDbSpline
 62
7
  6
CONTINUOUS
 70
0
 71
3
 72
11
 73
7
 74
5
 42
0.0000001
 43
0.0000001
 44
0.0000000001
 12
0.0
 22
-0.2961898693
 32
0.0
 13
0.0762335592
 23
-0.2862112561
 33
0.0
 40
0.0
 40
0.0
 40
0.0
 40
0.0
 40
0.2434261847
 40
0.492031274
 40
0.7394428972
 40
1.0
 40
1.0
 40
1.0
 40
1.0
 10
5.3698358891
 20
4.3235121826
 30
0.0
 10
5.3698358891
 20
4.299478726
 30
0.0
 10
5.3716449355
 20
4.2508822996
 30
0.0
 10
5.3796648574
 20
4.1782602358
 30
0.0
 10
5.3927921216
 20
4.1046788048
 30
0.0
 10
5.4044953682
 20
4.0558814191
 30
0.0
 10
5.4111164333
 20
4.0310232939
 30
0.0
 11
5.3698358891
 21
4.3235121826
 31
0.0
 11
5.3724892963
 21
4.2514606541
 31
0.0
 11
5.38048834
 21
4.1782621108
 31
0.0
 11
5.3932495092
 21
4.1061009674
 31
0.0
 11
5.4111164333
 21
4.0310232939
 31
0.0
  0
SPLINE
  5
530
100
AcDbEntity
  8
0
100
AcDbSpline
 62
7
  6
CONTINUOUS
 70
0
 71
3
 72
12
 73
8
 74
6
 42
0.0000001
 43
0.0000001
 44
0.0000000001
 12
0.0
 22
0.3034265821
 32
0.0
 13
-0.1271080705
 23
0.2755199251
 33
0.0
 40
0.0
 40
0.0
 40
0.0
 40
0.0
 40
0.1838036079
 40
0.3776478751
 40
0.5727950818
 40
0.7750543975
 40
1.0
 40
1.0
 40
1.0
 40
1.0
 10
6.3790057621
 20
4.3235121826
 30
0.0
 10
6.3790057621
 20
4.3421024828
 30
0.0
 10
6.3770993649
 20
4.3803242531
 30
0.0
 10
6.3684694391
 20
4.4377021179
 30
0.0
 10
6.3540818043
 20
4.4958271456
 30
0.0
 10
6.3338978945
 20
4.555513276
 30
0.0
 10
6.3170365626
 20
4.5953420728
 30
0.0
 10
6.3075057621
 20
4.6160010713
 30
0.0
 11
6.3790057621
 21
4.3235121826
 31
0.0
 11
6.3762538337
 21
4.3792151469
 31
0.0
 11
6.3675938144
 21
4.4373916265
 31
0.0
 11
6.3534789172
 21
4.4948975504
 31
0.0
 11
6.3339597617
 21
4.5530816044
 31
0.0
 11
6.3075057621
 21
4.6160010713
 31
0.0
  0
SPLINE
  5
531
100
AcDbEntity
  8
0
100
AcDbSpline
 62
7
  6
CONTINUOUS
 70
0
 71
3
 72
21
 73
17
 74
15
 42
0.0000001
 43
0.0000001
 44
0.0000000001
 12
0.0709222429
 22
0.0005487542
 32
0.0
 13
-0.0
 23
0.0709243658
 33
0.0
 40
0.0
 40
0.0
 40
0.0
 40
0.0
 40
0.1413837328
 40
0.2673561217
 40
0.3797043474
 40
0.4799332354
 40
0.5691901456
 40
0.6484142883
 40
0.7183635245
 40
0.7796501494
 40
0.8328023952
 40
0.8783139928
 40
0.9166521452
 40
0.948704898
 40
0.9759632954
 40
1.0
 40
1.0
 40
1.0
 40
1.0
 10
7.3025057621
 20
3.9854077353
 30
0.0
 10
7.3058481792
 20
3.985433597
 30
0.0
 10
7.312168537
 20
3.9856179026
 30
0.0
 10
7.3211252232
 20
3.9862513212
 30
0.0
 10
7.3290821234
 20
3.9871366318
 30
0.0
 10
7.3361379142
 20
3.9882160849
 30
0.0
 10
7.3423718007
 20
3.9894503159
 30
0.0
 10
7.347844429
 20
3.9908112497
 30
0.0
 10
7.3526019398
 20
3.992278215
 30
0.0
 10
7.3566777057
 20
3.9938350845
 30
0.0
 10
7.3600941064
 20
3.9954680304
 30
0.0
 10
7.3628630253
 20
3.9971627036
 30
0.0
 10
7.3649930999
 20
3.9989037839
 30
0.0
 10
7.366496483
 20
4.0006783447
 30
0.0
 10
7.3673811652
 20
4.0024657462
 30
0.0
 10
7.3675763056
 20
4.0036852082
 30
0.0
 10
7.3675763056
 20
4.0042534709
 30
0.0
 11
7.3025057621
 21
3.9854077353
 31
0.0
 11
7.3125290035
 21
3.9857017102
 31
0.0
 11
7.3214408938
 21
3.9863370948
 31
0.0
 11
7.3293594507
 21
3.987225403
 31
0.0
 11
7.3363850115
 21
3.9883092342
 31
0.0
 11
7.3425928945
 21
3.9895491086
 31
0.0
 11
7.3480426949
 21
3.9909173049
 31
0.0
 11
7.3527790811
 21
3.9923935199
 31
0.0
 11
7.356833053
 21
3.9939617173
 31
0.0
 11
7.3602244225
 21
3.9956079021
 31
0.0
 11
7.3629627355
 21
3.9973169542
 31
0.0
 11
7.3650463389
 21
3.999063995
 31
0.0
 11
7.3664874729
 21
4.0008221536
 31
0.0
 11
7.3673167161
 21
4.0025685627
 31
0.0
 11
7.3675763056
 21
4.0042534709
 31
0.0
  0
SPLINE
  5
532
100
AcDbEntity
  8
0
100
AcDbSpline
 62
7
  6
CONTINUOUS
 70
0
 71
3
 72
15
 73
11
 74
9
 42
0.0000001
 43
0.0000001
 44
0.0000000001
 12
0.0
 22
0.0232476577
 32
0.0
 13
-0.0220805641
 23
0.0072854377
 33
0.0
 40
0.0
 40
0.0
 40
0.0
 40
0.0
 40
0.0737578833
 40
0.1579117301
 40
0.2573189014
 40
0.376299127
 40
0.5174779506
 40
0.6816068395
 40
0.8702478629
 40
1.0
 40
1.0
 40
1.0
 40
1.0
 10
7.3675763056
 20
4.0042534709
 30
0.0
 10
7.3675763056
 20
4.0048250369
 30
0.0
 10
7.3673785759
 20
4.0060549662
 30
0.0
 10
7.3664947321
 20
4.007867653
 30
0.0
 10
7.3649939677
 20
4.0096900607
 30
0.0
 10
7.3628633178
 20
4.0115020367
 30
0.0
 10
7.3600924715
 20
4.0132854608
 30
0.0
 10
7.3566753791
 20
4.0150215286
 30
0.0
 10
7.3532130778
 20
4.0164422206
 30
0.0
 10
7.3508837775
 20
4.0172580877
 30
0.0
 10
7.3499287774
 20
4.0175731881
 30
0.0
 11
7.3675763056
 21
4.0042534709
 31
0.0
 11
7.3673163981
 21
4.0059483566
 31
0.0
 11
7.3664882619
 21
4.007720816
 31
0.0
 11
7.3650473914
 21
4.0095276194
 31
0.0
 11
7.3629619393
 21
4.0113446801
 31
0.0
 11
7.3602170626
 21
4.0131440359
 31
0.0
 11
7.3568252872
 21
4.014891822
 31
0.0
 11
7.3527748361
 21
4.0165729293
 31
0.0
 11
7.3499287774
 21
4.0175731881
 31
0.0
  0
SPLINE
  5
533
100
AcDbEntity
  8
0
100
AcDbSpline
 62
7
  6
CONTINUOUS
 70
0
 71
3
 72
21
 73
17
 74
15
 42
0.0000001
 43
0.0000001
 44
0.0000000001
 12
0.0754412239
 22
0.000879129
 32
0.0
 13
0.0
 23
0.0754463461
 33
0.0
 40
0.0
 40
0.0
 40
0.0
 40
0.0
 40
0.1329881415
 40
0.2517870291
 40
0.3582159048
 40
0.453774334
 40
0.5396089983
 40
0.6166724038
 40
0.685753994
 40
0.7475222934
 40
0.8025942733
 40
0.8515520402
 40
0.8948801803
 40
0.9333657443
 40
0.9681465709
 40
1.0
 40
1.0
 40
1.0
 40
1.0
 10
7.3025057621
 20
4.2960226628
 30
0.0
 10
7.3058500248
 20
4.2960616341
 30
0.0
 10
7.3121813832
 20
4.2963400946
 30
0.0
 10
7.3211445237
 20
4.2972943261
 30
0.0
 10
7.3291063839
 20
4.2986240806
 30
0.0
 10
7.3361665998
 20
4.3002398163
 30
0.0
 10
7.3424051019
 20
4.3020801194
 30
0.0
 10
7.3478829223
 20
4.3041010682
 30
0.0
 10
7.3526463468
 20
4.3062703733
 30
0.0
 10
7.356728685
 20
4.3085631384
 30
0.0
 10
7.3601514834
 20
4.3109583463
 30
0.0
 10
7.3629236173
 20
4.31343338
 30
0.0
 10
7.3650484448
 20
4.3159610167
 30
0.0
 10
7.3665328992
 20
4.3185095192
 30
0.0
 10
7.3673901837
 20
4.3210301809
 30
0.0
 10
7.3675763056
 20
4.3227111077
 30
0.0
 10
7.3675763056
 20
4.3235121826
 30
0.0
 11
7.3025057621
 21
4.2960226628
 31
0.0
 11
7.3125294666
 21
4.2964652164
 31
0.0
 11
7.3214413974
 21
4.2974201084
 31
0.0
 11
7.3293599221
 21
4.2987514853
 31
0.0
 11
7.3363853748
 21
4.30037025
 31
0.0
 11
7.3425931113
 21
4.3022145497
 31
0.0
 11
7.3480428434
 21
4.3042405772
 31
0.0
 11
7.3527791289
 21
4.3064159068
 31
0.0
 11
7.3568328465
 21
4.3087147692
 31
0.0
 11
7.360224293
 21
4.3111151747
 31
0.0
 11
7.3629629346
 21
4.3135937122
 31
0.0
 11
7.3650464349
 21
4.3161126524
 31
0.0
 11
7.3664875503
 21
4.3186333768
 31
0.0
 11
7.3673167113
 21
4.3211230195
 31
0.0
 11
7.3675763056
 21
4.3235121826
 31
0.0
  0
ENDSEC
  0
SECTION
  2
OBJECTS
  0
DICTIONARY
  5
C
100
AcDbDictionary
280
0
281
1
  3
ACAD_GROUP
350
D
  3
ACAD_MLINESTYLE
350
17
  3
ACAD_LAYOUT
350
1A
  3
ACAD_PLOTSETTINGS
350
19
  3
ACAD_PLOTSTYLENAME
350
E
  0
DICTIONARY
  5
D
102
{ACAD_REACTORS
330
C
102
}
100
AcDbDictionary
280
0
281
1
  0
ACDBDICTIONARYWDFLT
  5
E
102
{ACAD_REACTORS
330
C
102
}
100
AcDbDictionary
281
1
  3
Normal
350
F
100
AcDbDictionaryWithDefault
340
F
  0
DICTIONARY
  5
17
102
{ACAD_REACTORS
330
C
102
}
100
AcDbDictionary
280
0
281
1
  3
Standard
350
18
  0
DICTIONARY
  5
19
102
{ACAD_REACTORS
330
C
102
}
100
AcDbDictionary
281
1
  0
DICTIONARY
  5
1A
102
{ACAD_REACTORS
330
C
102
}
100
AcDbDictionary
281
1
  3
Layout1
350
1E
  3
Model
350
22
  0
ACDBPLACEHOLDER
  5
F
102
{ACAD_REACTORS
330
E
102
}
  0
MLINESTYLE
  5
18
102
{ACAD_REACTORS
330
17
102
}
100
AcDbMlineStyle
  2
STANDARD
 70
0
  3

 62
256
 51
90.0
 52
90.0
 71
2
 49
0.5
 62
256
  6
BYLAYER
 49
-0.5
 62
256
  6
BYLAYER
  0
LAYOUT
  5
1E
102
{ACAD_REACTORS
330
1A
102
}
100
AcDbPlotSettings
  1

  2

  4

  6

 40
0.0
 41
0.0
 42
0.0
 43
0.0
 44
0.0
 45
0.0
 46
0.0
 47
0.0
 48
0.0
 49
0.0
140
0.0
141
0.0
142
1.0
143
1.0
 70
0
 72
0
 73
0
 74
0
  7

 75
0
147
1.0
148
0.0
149
0.0
100
AcDbLayout
  1
Layout1
 70
0
 71
0
 10
0.0
 20
0.0
 11
0.0
 21
0.0
 12
0.0
 22
0.0
 32
0.0
 14
0.0
 24
0.0
 34
0.0
 15
0.0
 25
0.0
 35
0.0
146
0.0
 13
0.0
 23
0.0
 33
0.0
 16
0.0
 26
0.0
 36
0.0
 17
0.0
 27
0.0
 37
0.0
 76
0
330
1B
331
0
345
0
346
0
  0
LAYOUT
  5
22
102
{ACAD_REACTORS
330
1A
102
}
100
AcDbPlotSettings
  1

  2

  4

  6

 40
0.0
 41
0.0
 42
0.0
 43
0.0
 44
0.0
 45
0.0
 46
0.0
 47
0.0
 48
0.0
 49
0.0
140
0.0
141
0.0
142
1.0
143
1.0
 70
0
 72
0
 73
0
 74
0
  7

 75
0
147
1.0
148
0.0
149
0.0
100
AcDbLayout
  1
Model
 70
0
 71
0
 10
0.0
 20
0.0
 11
0.0
 21
0.0
 12
0.0
 22
0.0
 32
0.0
 14
0.0
 24
0.0
 34
0.0
 15
0.0
 25
0.0
 35
0.0
146
0.0
 13
0.0
 23
0.0
 33
0.0
 16
0.0
 26
0.0
 36
0.0
 17
0.0
 27
0.0
 37
0.0
 76
0
330
1F
331
0
345
0
346
0
  0
ENDSEC
  0
EOF
