999
DXF file: DTAF-MHN912.dxf
999
Pro/ENGINEER 2006240 by Parametric Technology Corporation
  0
SECTION
  2
HEADER
  9
$ACADVER
  1
AC1015
  9
$DWGCODEPAGE
  3
ANSI_1252
  9
$EXTMAX
 10
11.6929133858
 20
8.2677165354
 30
0.0
  9
$EXTMIN
 10
0.0
 20
0.0
 30
0.0
  9
$LIMMIN
 10
0.0
 20
0.0
  9
$LIMMAX
 10
11.6929133858
 20
8.2677165354
  9
$VIEWCTR
 10
5.8464566929
 20
4.1338582677
  9
$VIEWSIZE
 40
8.2677165354
  9
$CLAYER
  8
0
  9
$LTSCALE
 40
0.6431102362
  9
$CELTYPE
  6
BYLAYER
  9
$DIMSCALE
 40
1.0
  9
$DIMASZ
 40
0.1875
  9
$DIMEXO
 40
0.0730807087
  9
$DIMDLI
 40
0.4443307087
  9
$DIMEXE
 40
0.2104724409
  9
$DIMCEN
 40
0.1052362205
  9
$DIMLFAC
 40
1.0
  9
$DIMBLK
  1
_CLOSED
  9
$DIMTXT
 40
0.15625
  9
$DIMTOL
 70
0
  9
$DIMLIM
 70
0
  9
$DIMTFAC
 40
1.0
  9
$PDMODE
 70
3
  9
$PDSIZE
 40
0.3125
  9
$HANDSEED
  5
48E
  9
$MEASUREMENT
 70
0
  9
$INSUNITS
 70
1
  0
ENDSEC
  0
SECTION
  2
CLASSES
  0
CLASS
  1
ACDBDICTIONARYWDFLT
  2
AcDbDictionaryWithDefault
  3
AutoCAD 2000
 90
0
280
0
281
0
  0
CLASS
  1
ACDBPLACEHOLDER
  2
AcDbPlaceHolder
  3
AutoCAD 2000
 90
0
280
0
281
0
  0
CLASS
  1
LAYOUT
  2
AcDbLayout
  3
AutoCAD 2000
 90
0
280
0
281
0
  0
ENDSEC
  0
SECTION
  2
TABLES
  0
TABLE
  2
VPORT
  5
8
100
AcDbSymbolTable
 70
2
  0
VPORT
  5
1F4
100
AcDbSymbolTableRecord
100
AcDbViewportTableRecord
  2
*ACTIVE
 70
0
 10
0.0
 20
0.0
 11
1.0
 21
1.0
 12
5.8464566929
 22
4.1338582677
 13
0.0
 23
0.0
 14
1.0
 24
1.0
 15
0.0
 25
0.0
 16
0.0
 26
0.0
 36
1.0
 17
0.0
 27
0.0
 37
0.0
 40
8.2677165354
 41
1.4142857143
 42
50.0
 43
0.0
 44
0.0
 50
0.0
 51
0.0
 71
0
 72
100
 73
1
 74
1
 75
0
 76
0
 77
0
 78
0
  0
ENDTAB
  0
TABLE
  2
LTYPE
  5
5
100
AcDbSymbolTable
 70
6
  0
LTYPE
  5
14
100
AcDbSymbolTableRecord
100
AcDbLinetypeTableRecord
  2
BYBLOCK
 70
0
  3

 72
65
 73
0
 40
0.0
  0
LTYPE
  5
15
100
AcDbSymbolTableRecord
100
AcDbLinetypeTableRecord
  2
BYLAYER
 70
0
  3

 72
65
 73
0
 40
0.0
  0
LTYPE
  5
16
100
AcDbSymbolTableRecord
100
AcDbLinetypeTableRecord
  2
CONTINUOUS
 70
64
  3
Solid line
 72
65
 73
0
 40
0.0
  0
LTYPE
  5
1F5
100
AcDbSymbolTableRecord
100
AcDbLinetypeTableRecord
  2
CENTER
 70
64
  3
____ _ ____ _ ____ _ ____ _ ____ _ ____ _ ____
 72
65
 73
4
 40
0.6
 49
0.375
 74
0
 49
-0.075
 74
0
 49
0.075
 74
0
 49
-0.075
 74
0
  0
LTYPE
  5
1F6
100
AcDbSymbolTableRecord
100
AcDbLinetypeTableRecord
  2
HIDDEN
 70
64
  3
- - - - - - - - - - - - - - - - - - - -
 72
65
 73
2
 40
0.2
 49
0.1
 74
0
 49
-0.1
 74
0
  0
LTYPE
  5
1F7
100
AcDbSymbolTableRecord
100
AcDbLinetypeTableRecord
  2
PHANTOM
 70
64
  3
_____ _ _ _____ _ _ _____ _ _ _____
 72
65
 73
6
 40
0.8
 49
0.45
 74
0
 49
-0.05
 74
0
 49
0.1
 74
0
 49
-0.05
 74
0
 49
0.1
 74
0
 49
-0.05
 74
0
  0
LTYPE
  5
1F8
100
AcDbSymbolTableRecord
100
AcDbLinetypeTableRecord
  2
DOT
 70
64
  3
. . . . . . . . . . . . . . . . . . . .
 72
65
 73
2
 40
0.2
 49
0.1
 74
0
 49
-0.1
 74
0
  0
LTYPE
  5
1F9
100
AcDbSymbolTableRecord
100
AcDbLinetypeTableRecord
  2
DASHED
 70
64
  3
- - - - - - - - - - - - - - - - - - - -
 72
65
 73
2
 40
0.2
 49
0.1
 74
0
 49
-0.1
 74
0
  0
ENDTAB
  0
TABLE
  2
LAYER
  5
2
100
AcDbSymbolTable
 70
36
  0
LAYER
  5
10
100
AcDbSymbolTableRecord
100
AcDbLayerTableRecord
  2
0
 70
0
 62
7
  6
CONTINUOUS
370
-3
390
F
  0
LAYER
  5
1FA
100
AcDbSymbolTableRecord
100
AcDbLayerTableRecord
  2
DEFAULT_1
 70
0
 62
7
  6
CENTER
370
-3
390
F
  0
LAYER
  5
1FB
100
AcDbSymbolTableRecord
100
AcDbLayerTableRecord
  2
DEFAULT_2
 70
0
 62
8
  6
HIDDEN
370
-3
390
F
  0
LAYER
  5
1FC
100
AcDbSymbolTableRecord
100
AcDbLayerTableRecord
  2
DEFAULT_3
 70
0
 62
7
  6
PHANTOM
370
-3
390
F
  0
LAYER
  5
1FD
100
AcDbSymbolTableRecord
100
AcDbLayerTableRecord
  2
_BLACK_HOLE
 70
0
 62
7
  6
CONTINUOUS
370
-3
390
F
  0
LAYER
  5
1FE
100
AcDbSymbolTableRecord
100
AcDbLayerTableRecord
  2
01_ALL_DTM_PLN
 70
0
 62
7
  6
CONTINUOUS
370
-3
390
F
  0
LAYER
  5
1FF
100
AcDbSymbolTableRecord
100
AcDbLayerTableRecord
  2
01__ASM_ALL_DTM_PLN
 70
0
 62
7
  6
CONTINUOUS
370
-3
390
F
  0
LAYER
  5
200
100
AcDbSymbolTableRecord
100
AcDbLayerTableRecord
  2
01__ASM_DEF_DTM_PLN
 70
0
 62
7
  6
CONTINUOUS
370
-3
390
F
  0
LAYER
  5
201
100
AcDbSymbolTableRecord
100
AcDbLayerTableRecord
  2
01___PRT_ALL_DTM_PLN
 70
0
 62
7
  6
CONTINUOUS
370
-3
390
F
  0
LAYER
  5
202
100
AcDbSymbolTableRecord
100
AcDbLayerTableRecord
  2
01___PRT_DEF_DTM_PLN
 70
0
 62
7
  6
CONTINUOUS
370
-3
390
F
  0
LAYER
  5
203
100
AcDbSymbolTableRecord
100
AcDbLayerTableRecord
  2
02_ALL_AXES
 70
0
 62
7
  6
CONTINUOUS
370
-3
390
F
  0
LAYER
  5
204
100
AcDbSymbolTableRecord
100
AcDbLayerTableRecord
  2
02__ASM_ALL_AXES
 70
0
 62
7
  6
CONTINUOUS
370
-3
390
F
  0
LAYER
  5
205
100
AcDbSymbolTableRecord
100
AcDbLayerTableRecord
  2
02___PRT_ALL_AXES
 70
0
 62
7
  6
CONTINUOUS
370
-3
390
F
  0
LAYER
  5
206
100
AcDbSymbolTableRecord
100
AcDbLayerTableRecord
  2
03_ALL_CURVES
 70
0
 62
7
  6
CONTINUOUS
370
-3
390
F
  0
LAYER
  5
207
100
AcDbSymbolTableRecord
100
AcDbLayerTableRecord
  2
03__ASM_ALL_CURVES
 70
0
 62
7
  6
CONTINUOUS
370
-3
390
F
  0
LAYER
  5
208
100
AcDbSymbolTableRecord
100
AcDbLayerTableRecord
  2
03___PRT_ALL_CURVES
 70
0
 62
7
  6
CONTINUOUS
370
-3
390
F
  0
LAYER
  5
209
100
AcDbSymbolTableRecord
100
AcDbLayerTableRecord
  2
04_ALL_DTM_PNT
 70
0
 62
7
  6
CONTINUOUS
370
-3
390
F
  0
LAYER
  5
20A
100
AcDbSymbolTableRecord
100
AcDbLayerTableRecord
  2
04__ASM_ALL_DTM_PNT
 70
0
 62
7
  6
CONTINUOUS
370
-3
390
F
  0
LAYER
  5
20B
100
AcDbSymbolTableRecord
100
AcDbLayerTableRecord
  2
04___PRT_ALL_DTM_PNT
 70
0
 62
7
  6
CONTINUOUS
370
-3
390
F
  0
LAYER
  5
20C
100
AcDbSymbolTableRecord
100
AcDbLayerTableRecord
  2
05_ALL_DTM_CSYS
 70
0
 62
7
  6
CONTINUOUS
370
-3
390
F
  0
LAYER
  5
20D
100
AcDbSymbolTableRecord
100
AcDbLayerTableRecord
  2
05__ASM_ALL_DTM_CSYS
 70
0
 62
7
  6
CONTINUOUS
370
-3
390
F
  0
LAYER
  5
20E
100
AcDbSymbolTableRecord
100
AcDbLayerTableRecord
  2
05__ASM_DEF_DTM_CSYS
 70
0
 62
7
  6
CONTINUOUS
370
-3
390
F
  0
LAYER
  5
20F
100
AcDbSymbolTableRecord
100
AcDbLayerTableRecord
  2
05___PRT_ALL_DTM_CSYS
 70
0
 62
7
  6
CONTINUOUS
370
-3
390
F
  0
LAYER
  5
210
100
AcDbSymbolTableRecord
100
AcDbLayerTableRecord
  2
05___PRT_DEF_DTM_CSYS
 70
0
 62
7
  6
CONTINUOUS
370
-3
390
F
  0
LAYER
  5
211
100
AcDbSymbolTableRecord
100
AcDbLayerTableRecord
  2
06_ALL_SURFS
 70
0
 62
7
  6
CONTINUOUS
370
-3
390
F
  0
LAYER
  5
212
100
AcDbSymbolTableRecord
100
AcDbLayerTableRecord
  2
06__ASM_ALL_SURFS
 70
0
 62
7
  6
CONTINUOUS
370
-3
390
F
  0
LAYER
  5
213
100
AcDbSymbolTableRecord
100
AcDbLayerTableRecord
  2
06___PRT_ALL_SURFS
 70
0
 62
7
  6
CONTINUOUS
370
-3
390
F
  0
LAYER
  5
214
100
AcDbSymbolTableRecord
100
AcDbLayerTableRecord
  2
07__ASM_ALL_SKELETONS
 70
0
 62
7
  6
CONTINUOUS
370
-3
390
F
  0
LAYER
  5
215
100
AcDbSymbolTableRecord
100
AcDbLayerTableRecord
  2
COPY_GEO_FET
 70
0
 62
7
  6
CONTINUOUS
370
-3
390
F
  0
LAYER
  5
216
100
AcDbSymbolTableRecord
100
AcDbLayerTableRecord
  2
COSMETIC
 70
0
 62
7
  6
CONTINUOUS
370
-3
390
F
  0
LAYER
  5
217
100
AcDbSymbolTableRecord
100
AcDbLayerTableRecord
  2
CUT_REF_SURF
 70
0
 62
7
  6
CONTINUOUS
370
-3
390
F
  0
LAYER
  5
218
100
AcDbSymbolTableRecord
100
AcDbLayerTableRecord
  2
DATUM
 70
0
 62
7
  6
CONTINUOUS
370
-3
390
F
  0
LAYER
  5
219
100
AcDbSymbolTableRecord
100
AcDbLayerTableRecord
  2
DATUMCURVES
 70
0
 62
7
  6
CONTINUOUS
370
-3
390
F
  0
LAYER
  5
21A
100
AcDbSymbolTableRecord
100
AcDbLayerTableRecord
  2
DIMENSIONS
 70
0
 62
7
  6
CONTINUOUS
370
-3
390
F
  0
LAYER
  5
21B
100
AcDbSymbolTableRecord
100
AcDbLayerTableRecord
  2
DTM_500001
 70
0
 62
7
  6
CONTINUOUS
370
-3
390
F
  0
LAYER
  5
21C
100
AcDbSymbolTableRecord
100
AcDbLayerTableRecord
  2
DTM_500002
 70
0
 62
7
  6
CONTINUOUS
370
-3
390
F
  0
LAYER
  5
21D
100
AcDbSymbolTableRecord
100
AcDbLayerTableRecord
  2
DTM_500051
 70
0
 62
7
  6
CONTINUOUS
370
-3
390
F
  0
LAYER
  5
21E
100
AcDbSymbolTableRecord
100
AcDbLayerTableRecord
  2
DTM_515002
 70
0
 62
7
  6
CONTINUOUS
370
-3
390
F
  0
LAYER
  5
21F
100
AcDbSymbolTableRecord
100
AcDbLayerTableRecord
  2
DTM_530002
 70
0
 62
7
  6
CONTINUOUS
370
-3
390
F
  0
LAYER
  5
220
100
AcDbSymbolTableRecord
100
AcDbLayerTableRecord
  2
DTM_SPRING_RH
 70
0
 62
7
  6
CONTINUOUS
370
-3
390
F
  0
LAYER
  5
221
100
AcDbSymbolTableRecord
100
AcDbLayerTableRecord
  2
DTM_SP_RH_CONSTR
 70
0
 62
7
  6
CONTINUOUS
370
-3
390
F
  0
LAYER
  5
222
100
AcDbSymbolTableRecord
100
AcDbLayerTableRecord
  2
PARAMETERDIMENSIONS
 70
0
 62
7
  6
CONTINUOUS
370
-3
390
F
  0
LAYER
  5
223
100
AcDbSymbolTableRecord
100
AcDbLayerTableRecord
  2
PLANE
 70
0
 62
7
  6
CONTINUOUS
370
-3
390
F
  0
LAYER
  5
224
100
AcDbSymbolTableRecord
100
AcDbLayerTableRecord
  2
TEXT
 70
0
 62
7
  6
CONTINUOUS
370
-3
390
F
  0
LAYER
  5
225
100
AcDbSymbolTableRecord
100
AcDbLayerTableRecord
  2
THREAD
 70
0
 62
7
  6
CONTINUOUS
370
-3
390
F
  0
ENDTAB
  0
TABLE
  2
STYLE
  5
3
100
AcDbSymbolTable
 70
1
  0
STYLE
  5
11
100
AcDbSymbolTableRecord
100
AcDbTextStyleTableRecord
  2
STANDARD
 70
0
 40
0.0
 41
0.8
 50
0.0
 71
0
 42
0.2
  3
txt
  4

  0
ENDTAB
  0
TABLE
  2
VIEW
  5
6
100
AcDbSymbolTable
 70
0
  0
ENDTAB
  0
TABLE
  2
UCS
  5
7
100
AcDbSymbolTable
 70
0
  0
ENDTAB
  0
TABLE
  2
APPID
  5
9
100
AcDbSymbolTable
 70
1
  0
APPID
  5
226
100
AcDbSymbolTableRecord
100
AcDbRegAppTableRecord
  2
ACAD
 70
0
  0
ENDTAB
  0
TABLE
  2
BLOCK_RECORD
  5
1
100
AcDbSymbolTable
 70
0
  0
BLOCK_RECORD
  5
1F
100
AcDbSymbolTableRecord
100
AcDbBlockTableRecord
  2
*MODEL_SPACE
  0
BLOCK_RECORD
  5
1B
100
AcDbSymbolTableRecord
100
AcDbBlockTableRecord
  2
*PAPER_SPACE
  0
ENDTAB
  0
TABLE
  2
DIMSTYLE
  5
A
100
AcDbSymbolTable
 70
1
100
AcDbDimStyleTable
 71
0
  0
DIMSTYLE
105
227
100
AcDbSymbolTableRecord
100
AcDbDimStyleTableRecord
  2
STANDARD
 70
0
  3

  4

 40
1.0
 41
0.1875
 42
0.0625
 43
0.38
 44
0.18
 45
0.0
 46
0.0
 47
0.01
 48
0.01
140
0.15625
141
0.09
142
0.0
143
25.4
144
1.0
145
0.0
146
1.0
147
0.09
 71
0.0
 72
0.0
 73
1
 74
1
 75
0
 76
0
 77
0
 78
4
170
0
171
2
172
0
173
0
174
0
175
0
176
0
177
0
178
0
270
2
271
2
272
2
273
2
274
2
275
0
280
0
281
0
282
0
283
1
284
4
285
0
286
0
287
3
288
0
340
11
  0
ENDTAB
  0
ENDSEC
  0
SECTION
  2
BLOCKS
  0
BLOCK
  5
20
100
AcDbEntity
  8
0
100
AcDbBlockBegin
  2
*MODEL_SPACE
 70
0
 10
0.0
 20
0.0
 30
0.0
  3
*MODEL_SPACE
  1

  0
ENDBLK
  5
21
100
AcDbEntity
  8
0
100
AcDbBlockEnd
  0
BLOCK
  5
1C
100
AcDbEntity
  8
0
100
AcDbBlockBegin
  2
*PAPER_SPACE
 70
0
 10
0.0
 20
0.0
 30
0.0
  3
*PAPER_SPACE
  1

  0
ENDBLK
  5
1D
100
AcDbEntity
  8
0
100
AcDbBlockEnd
  0
ENDSEC
  0
SECTION
  2
ENTITIES
  0
LINE
  5
228
100
AcDbEntity
  8
0
100
AcDbLine
 62
7
  6
CONTINUOUS
 10
3.0044257621
 20
4.425647557
 11
3.0044257621
 21
3.8806486057
  0
LINE
  5
229
100
AcDbEntity
  8
03__ASM_ALL_CURVES
100
AcDbLine
 62
40
  6
CONTINUOUS
 10
3.0044257621
 20
4.425647557
 11
3.0044257621
 21
5.0600600814
  0
LINE
  5
22A
100
AcDbEntity
  8
03__ASM_ALL_CURVES
100
AcDbLine
 62
40
  6
CONTINUOUS
 10
3.1328557621
 20
5.0386550814
 11
3.1328557621
 21
4.9958450814
  0
LINE
  5
22B
100
AcDbEntity
  8
0
100
AcDbLine
 62
7
  6
CONTINUOUS
 10
3.3124257621
 20
4.4311480814
 11
3.3124257621
 21
3.8751480814
  0
LINE
  5
22C
100
AcDbEntity
  8
0
100
AcDbLine
 62
7
  6
CONTINUOUS
 10
3.3184257621
 20
4.6187702414
 11
3.3184257621
 21
4.6184626002
  0
LINE
  5
22D
100
AcDbEntity
  8
0
100
AcDbLine
 62
7
  6
CONTINUOUS
 10
3.3184257621
 20
4.6181527301
 11
3.3184257621
 21
4.4549853149
  0
LINE
  5
22E
100
AcDbEntity
  8
0
100
AcDbLine
 62
7
  6
CONTINUOUS
 10
3.3184257621
 20
4.3686479517
 11
3.3184257621
 21
4.2250161148
  0
LINE
  5
22F
100
AcDbEntity
  8
0
100
AcDbLine
 62
7
  6
CONTINUOUS
 10
3.3184257621
 20
4.2000415422
 11
3.3184257621
 21
4.0988169656
  0
LINE
  5
230
100
AcDbEntity
  8
0
100
AcDbLine
 62
7
  6
CONTINUOUS
 10
3.3184257621
 20
4.0752211032
 11
3.3184257621
 21
3.936779991
  0
LINE
  5
231
100
AcDbEntity
  8
0
100
AcDbLine
 62
7
  6
CONTINUOUS
 10
3.3184257621
 20
3.8513108478
 11
3.3184257621
 21
3.6872238537
  0
LINE
  5
232
100
AcDbEntity
  8
0
100
AcDbLine
 62
7
  6
CONTINUOUS
 10
3.3334257621
 20
4.6531478041
 11
3.3334257621
 21
3.6531483587
  0
LINE
  5
233
100
AcDbEntity
  8
0
100
AcDbLine
 62
7
  6
CONTINUOUS
 10
3.3767270323
 20
4.6525705478
 11
3.3767270323
 21
4.6496419113
  0
LINE
  5
234
100
AcDbEntity
  8
0
100
AcDbLine
 62
7
  6
CONTINUOUS
 10
3.3767270323
 20
4.4431806258
 11
3.3767270323
 21
4.4381080787
  0
LINE
  5
235
100
AcDbEntity
  8
0
100
AcDbLine
 62
7
  6
CONTINUOUS
 10
3.3767270323
 20
4.1560767178
 11
3.3767270323
 21
4.150219445
  0
LINE
  5
236
100
AcDbEntity
  8
0
100
AcDbLine
 62
7
  6
CONTINUOUS
 10
3.3767270323
 20
3.868188084
 11
3.3767270323
 21
3.863115537
  0
LINE
  5
237
100
AcDbEntity
  8
0
100
AcDbLine
 62
7
  6
CONTINUOUS
 10
3.3767270323
 20
3.6566542514
 11
3.3767270323
 21
3.653725615
  0
LINE
  5
238
100
AcDbEntity
  8
0
100
AcDbLine
 62
7
  6
CONTINUOUS
 10
3.3334257621
 20
4.6531480814
 11
3.3735007783
 21
4.7225600456
  0
LINE
  5
239
100
AcDbEntity
  8
0
100
AcDbLine
 62
7
  6
CONTINUOUS
 10
3.3334257621
 20
3.6531480814
 11
3.3735007783
 21
3.5837361172
  0
LINE
  5
23A
100
AcDbEntity
  8
0
100
AcDbLine
 62
7
  6
CONTINUOUS
 10
3.6634257621
 20
3.653725615
 11
3.6634257621
 21
3.6566542514
  0
LINE
  5
23B
100
AcDbEntity
  8
0
100
AcDbLine
 62
7
  6
CONTINUOUS
 10
3.6634257621
 20
3.863115537
 11
3.6634257621
 21
3.868188084
  0
LINE
  5
23C
100
AcDbEntity
  8
0
100
AcDbLine
 62
7
  6
CONTINUOUS
 10
3.6634257621
 20
4.150219445
 11
3.6634257621
 21
4.1560767178
  0
LINE
  5
23D
100
AcDbEntity
  8
0
100
AcDbLine
 62
7
  6
CONTINUOUS
 10
3.6634257621
 20
4.4381080787
 11
3.6634257621
 21
4.4431806258
  0
LINE
  5
23E
100
AcDbEntity
  8
0
100
AcDbLine
 62
7
  6
CONTINUOUS
 10
3.6634257621
 20
4.6496419113
 11
3.6634257621
 21
4.6525705478
  0
LINE
  5
23F
100
AcDbEntity
  8
0
100
AcDbLine
 62
7
  6
CONTINUOUS
 10
3.6834257621
 20
4.8993881955
 11
3.6834257621
 21
3.4069079672
  0
LINE
  5
240
100
AcDbEntity
  8
0
100
AcDbLine
 62
7
  6
CONTINUOUS
 10
3.3124257621
 20
3.8751480814
 11
3.3334257621
 21
3.8541480814
  0
LINE
  5
241
100
AcDbEntity
  8
03__ASM_ALL_CURVES
100
AcDbLine
 62
40
  6
CONTINUOUS
 10
4.2655570121
 20
5.1403288314
 11
4.2588679496
 21
5.1314100835
  0
LINE
  5
242
100
AcDbEntity
  8
0
100
AcDbLine
 62
7
  6
CONTINUOUS
 10
3.3124257621
 20
4.4311480814
 11
3.3334257621
 21
4.4521480814
  0
LINE
  5
243
100
AcDbEntity
  8
03__ASM_ALL_CURVES
100
AcDbLine
 62
40
  6
CONTINUOUS
 10
4.2722460746
 20
5.0868163314
 11
4.2588679496
 21
5.0689788317
  0
LINE
  5
244
100
AcDbEntity
  8
03__ASM_ALL_CURVES
100
AcDbLine
 62
40
  6
CONTINUOUS
 10
4.2187335746
 20
5.1581663335
 11
4.2321116996
 21
5.1670850814
  0
LINE
  5
245
100
AcDbEntity
  8
03__ASM_ALL_CURVES
100
AcDbLine
 62
40
  6
CONTINUOUS
 10
4.2588679496
 20
5.1314100835
 11
4.2454898246
 21
5.1224913293
  0
LINE
  5
246
100
AcDbEntity
  8
03__ASM_ALL_CURVES
100
AcDbLine
 62
40
  6
CONTINUOUS
 10
4.2655570121
 20
5.1492475793
 11
4.2655570121
 21
5.1403288314
  0
LINE
  5
247
100
AcDbEntity
  8
03__ASM_ALL_CURVES
100
AcDbLine
 62
40
  6
CONTINUOUS
 10
4.2722460746
 20
5.0957350825
 11
4.2722460746
 21
5.0868163314
  0
LINE
  5
248
100
AcDbEntity
  8
03__ASM_ALL_CURVES
100
AcDbLine
 62
40
  6
CONTINUOUS
 10
4.3391366996
 20
5.0600600814
 11
4.3391366996
 21
5.0689788317
  0
LINE
  5
249
100
AcDbEntity
  8
03__ASM_ALL_CURVES
100
AcDbLine
 62
40
  6
CONTINUOUS
 10
4.4394726371
 20
5.1670850814
 11
4.4327835746
 21
5.1224913293
  0
LINE
  5
24A
100
AcDbEntity
  8
03__ASM_ALL_CURVES
100
AcDbLine
 62
40
  6
CONTINUOUS
 10
4.4862960746
 20
5.0957350825
 11
4.4796070121
 21
5.0778975819
  0
LINE
  5
24B
100
AcDbEntity
  8
03__ASM_ALL_CURVES
100
AcDbLine
 62
40
  6
CONTINUOUS
 10
4.4796070121
 20
5.0778975819
 11
4.4729179496
 21
5.0689788317
  0
LINE
  5
24C
100
AcDbEntity
  8
03__ASM_ALL_CURVES
100
AcDbLine
 62
40
  6
CONTINUOUS
 10
4.5866320121
 20
5.1403288314
 11
4.5799429496
 21
5.1314100835
  0
LINE
  5
24D
100
AcDbEntity
  8
03__ASM_ALL_CURVES
100
AcDbLine
 62
40
  6
CONTINUOUS
 10
4.5933210746
 20
5.0868163314
 11
4.5799429496
 21
5.0689788317
  0
LINE
  5
24E
100
AcDbEntity
  8
03__ASM_ALL_CURVES
100
AcDbLine
 62
40
  6
CONTINUOUS
 10
4.6735898246
 20
5.1670850814
 11
4.6602116996
 21
5.1492475793
  0
LINE
  5
24F
100
AcDbEntity
  8
03__ASM_ALL_CURVES
100
AcDbLine
 62
40
  6
CONTINUOUS
 10
4.7471695121
 20
5.1492475793
 11
4.7538585746
 21
5.1581663335
  0
LINE
  5
250
100
AcDbEntity
  8
03__ASM_ALL_CURVES
100
AcDbLine
 62
40
  6
CONTINUOUS
 10
4.2588679496
 20
5.0689788317
 11
4.2454898246
 21
5.0600600814
  0
LINE
  5
251
100
AcDbEntity
  8
03__ASM_ALL_CURVES
100
AcDbLine
 62
40
  6
CONTINUOUS
 10
4.4327835746
 20
5.1224913293
 11
4.4461616996
 21
5.1314100835
  0
LINE
  5
252
100
AcDbEntity
  8
03__ASM_ALL_CURVES
100
AcDbLine
 62
40
  6
CONTINUOUS
 10
4.5398085746
 20
5.1581663335
 11
4.5531866996
 21
5.1670850814
  0
LINE
  5
253
100
AcDbEntity
  8
03__ASM_ALL_CURVES
100
AcDbLine
 62
40
  6
CONTINUOUS
 10
4.4729179496
 20
5.0689788317
 11
4.4595398246
 21
5.0600600814
  0
LINE
  5
254
100
AcDbEntity
  8
03__ASM_ALL_CURVES
100
AcDbLine
 62
40
  6
CONTINUOUS
 10
4.5799429496
 20
5.1314100835
 11
4.5665648246
 21
5.1224913293
  0
LINE
  5
255
100
AcDbEntity
  8
03__ASM_ALL_CURVES
100
AcDbLine
 62
40
  6
CONTINUOUS
 10
4.5866320121
 20
5.1492475793
 11
4.5866320121
 21
5.1403288314
  0
LINE
  5
256
100
AcDbEntity
  8
03__ASM_ALL_CURVES
100
AcDbLine
 62
40
  6
CONTINUOUS
 10
4.5933210746
 20
5.0957350825
 11
4.5933210746
 21
5.0868163314
  0
LINE
  5
257
100
AcDbEntity
  8
03__ASM_ALL_CURVES
100
AcDbLine
 62
40
  6
CONTINUOUS
 10
4.6535226371
 20
5.1224913293
 11
4.6535226371
 21
5.1046538303
  0
LINE
  5
258
100
AcDbEntity
  8
03__ASM_ALL_CURVES
100
AcDbLine
 62
40
  6
CONTINUOUS
 10
4.6602116996
 20
5.1492475793
 11
4.6535226371
 21
5.1224913293
  0
LINE
  5
259
100
AcDbEntity
  8
03__ASM_ALL_CURVES
100
AcDbLine
 62
40
  6
CONTINUOUS
 10
4.8541945121
 20
5.1314100835
 11
4.8608835746
 21
5.1492475793
  0
LINE
  5
25A
100
AcDbEntity
  8
03__ASM_ALL_CURVES
100
AcDbLine
 62
40
  6
CONTINUOUS
 10
4.7404804496
 20
5.0957350825
 11
4.7538585746
 21
5.1135725814
  0
LINE
  5
25B
100
AcDbEntity
  8
03__ASM_ALL_CURVES
100
AcDbLine
 62
40
  6
CONTINUOUS
 10
4.8006820121
 20
5.1403288314
 11
4.7939929496
 21
5.1314100835
  0
LINE
  5
25C
100
AcDbEntity
  8
03__ASM_ALL_CURVES
100
AcDbLine
 62
40
  6
CONTINUOUS
 10
4.8073710746
 20
5.0868163314
 11
4.7939929496
 21
5.0689788317
  0
LINE
  5
25D
100
AcDbEntity
  8
03__ASM_ALL_CURVES
100
AcDbLine
 62
40
  6
CONTINUOUS
 10
4.8608835746
 20
5.1492475793
 11
4.8675726371
 21
5.1581663335
  0
LINE
  5
25E
100
AcDbEntity
  8
03__ASM_ALL_CURVES
100
AcDbLine
 62
40
  6
CONTINUOUS
 10
4.9010179496
 20
5.0778975819
 11
4.8943288871
 21
5.0689788317
  0
LINE
  5
25F
100
AcDbEntity
  8
03__ASM_ALL_CURVES
100
AcDbLine
 62
40
  6
CONTINUOUS
 10
4.5799429496
 20
5.0689788317
 11
4.5665648246
 21
5.0600600814
  0
LINE
  5
260
100
AcDbEntity
  8
03__ASM_ALL_CURVES
100
AcDbLine
 62
40
  6
CONTINUOUS
 10
4.7538585746
 20
5.1581663335
 11
4.7672366996
 21
5.1670850814
  0
LINE
  5
261
100
AcDbEntity
  8
03__ASM_ALL_CURVES
100
AcDbLine
 62
40
  6
CONTINUOUS
 10
4.7538585746
 20
5.1135725814
 11
4.7672366996
 21
5.1224913293
  0
LINE
  5
262
100
AcDbEntity
  8
03__ASM_ALL_CURVES
100
AcDbLine
 62
40
  6
CONTINUOUS
 10
4.7939929496
 20
5.1314100835
 11
4.7806148246
 21
5.1224913293
  0
LINE
  5
263
100
AcDbEntity
  8
03__ASM_ALL_CURVES
100
AcDbLine
 62
40
  6
CONTINUOUS
 10
4.8675726371
 20
5.1581663335
 11
4.8809507621
 21
5.1670850814
  0
LINE
  5
264
100
AcDbEntity
  8
03__ASM_ALL_CURVES
100
AcDbLine
 62
40
  6
CONTINUOUS
 10
4.7939929496
 20
5.0689788317
 11
4.7806148246
 21
5.0600600814
  0
LINE
  5
265
100
AcDbEntity
  8
03__ASM_ALL_CURVES
100
AcDbLine
 62
40
  6
CONTINUOUS
 10
4.8943288871
 20
5.0689788317
 11
4.8809507621
 21
5.0600600814
  0
LINE
  5
266
100
AcDbEntity
  8
0
100
AcDbLine
 62
7
  6
CONTINUOUS
 10
3.6834257621
 20
4.7081480814
 11
3.6689672417
 21
4.7226066018
  0
LINE
  5
267
100
AcDbEntity
  8
03__ASM_ALL_CURVES
100
AcDbLine
 62
40
  6
CONTINUOUS
 10
4.7404804496
 20
5.0868163314
 11
4.7404804496
 21
5.0957350825
  0
LINE
  5
268
100
AcDbEntity
  8
03__ASM_ALL_CURVES
100
AcDbLine
 62
40
  6
CONTINUOUS
 10
4.7471695121
 20
5.1403288314
 11
4.7471695121
 21
5.1492475793
  0
LINE
  5
269
100
AcDbEntity
  8
03__ASM_ALL_CURVES
100
AcDbLine
 62
40
  6
CONTINUOUS
 10
4.8006820121
 20
5.1492475793
 11
4.8006820121
 21
5.1403288314
  0
LINE
  5
26A
100
AcDbEntity
  8
03__ASM_ALL_CURVES
100
AcDbLine
 62
40
  6
CONTINUOUS
 10
4.8073710746
 20
5.0957350825
 11
4.8073710746
 21
5.0868163314
  0
LINE
  5
26B
100
AcDbEntity
  8
03__ASM_ALL_CURVES
100
AcDbLine
 62
40
  6
CONTINUOUS
 10
4.9077070121
 20
5.1314100835
 11
4.9010179496
 21
5.1135725814
  0
LINE
  5
26C
100
AcDbEntity
  8
03__ASM_ALL_CURVES
100
AcDbLine
 62
40
  6
CONTINUOUS
 10
4.9077070121
 20
5.0957350825
 11
4.9010179496
 21
5.0778975819
  0
LINE
  5
26D
100
AcDbEntity
  8
03__ASM_ALL_CURVES
100
AcDbLine
 62
40
  6
CONTINUOUS
 10
5.0682445121
 20
5.1314100835
 11
5.0749335746
 21
5.1492475793
  0
LINE
  5
26E
100
AcDbEntity
  8
03__ASM_ALL_CURVES
100
AcDbLine
 62
40
  6
CONTINUOUS
 10
5.0682445121
 20
5.0957350825
 11
5.0749335746
 21
5.1135725814
  0
LINE
  5
26F
100
AcDbEntity
  8
03__ASM_ALL_CURVES
100
AcDbLine
 62
40
  6
CONTINUOUS
 10
5.0749335746
 20
5.1492475793
 11
5.0816226371
 21
5.1581663335
  0
LINE
  5
270
100
AcDbEntity
  8
03__ASM_ALL_CURVES
100
AcDbLine
 62
40
  6
CONTINUOUS
 10
5.1150679496
 20
5.0778975819
 11
5.1083788871
 21
5.0689788317
  0
LINE
  5
271
100
AcDbEntity
  8
03__ASM_ALL_CURVES
100
AcDbLine
 62
40
  6
CONTINUOUS
 10
5.1819585746
 20
5.1492475793
 11
5.1886476371
 21
5.1581663335
  0
LINE
  5
272
100
AcDbEntity
  8
0
100
AcDbLine
 62
7
  6
CONTINUOUS
 10
3.6834257621
 20
3.5981480814
 11
3.6689672417
 21
3.583689561
  0
LINE
  5
273
100
AcDbEntity
  8
03__ASM_ALL_CURVES
100
AcDbLine
 62
40
  6
CONTINUOUS
 10
5.0816226371
 20
5.1581663335
 11
5.0950007621
 21
5.1670850814
  0
LINE
  5
274
100
AcDbEntity
  8
03__ASM_ALL_CURVES
100
AcDbLine
 62
40
  6
CONTINUOUS
 10
5.1886476371
 20
5.1581663335
 11
5.2020257621
 21
5.1670850814
  0
LINE
  5
275
100
AcDbEntity
  8
03__ASM_ALL_CURVES
100
AcDbLine
 62
40
  6
CONTINUOUS
 10
5.1083788871
 20
5.0689788317
 11
5.0950007621
 21
5.0600600814
  0
LINE
  5
276
100
AcDbEntity
  8
03__ASM_ALL_CURVES
100
AcDbLine
 62
40
  6
CONTINUOUS
 10
5.2154038871
 20
5.0689788317
 11
5.2020257621
 21
5.0600600814
  0
LINE
  5
277
100
AcDbEntity
  8
03__ASM_ALL_CURVES
100
AcDbLine
 62
40
  6
CONTINUOUS
 10
4.9010179496
 20
5.1135725814
 11
4.8809507621
 21
5.1046538303
  0
LINE
  5
278
100
AcDbEntity
  8
03__ASM_ALL_CURVES
100
AcDbLine
 62
40
  6
CONTINUOUS
 10
5.0749335746
 20
5.1135725814
 11
5.0950007621
 21
5.1224913293
  0
LINE
  5
279
100
AcDbEntity
  8
03__ASM_ALL_CURVES
100
AcDbLine
 62
40
  6
CONTINUOUS
 10
5.1819585746
 20
5.1135725814
 11
5.2020257621
 21
5.1224913293
  0
LINE
  5
27A
100
AcDbEntity
  8
03__ASM_ALL_CURVES
100
AcDbLine
 62
40
  6
CONTINUOUS
 10
4.9077070121
 20
5.1314100835
 11
4.9077070121
 21
5.0957350825
  0
LINE
  5
27B
100
AcDbEntity
  8
03__ASM_ALL_CURVES
100
AcDbLine
 62
40
  6
CONTINUOUS
 10
4.9812866996
 20
5.0600600814
 11
4.9812866996
 21
5.0689788317
  0
LINE
  5
27C
100
AcDbEntity
  8
03__ASM_ALL_CURVES
100
AcDbLine
 62
40
  6
CONTINUOUS
 10
5.1217570121
 20
5.0957350825
 11
5.1150679496
 21
5.0778975819
  0
LINE
  5
27D
100
AcDbEntity
  8
03__ASM_ALL_CURVES
100
AcDbLine
 62
40
  6
CONTINUOUS
 10
5.1752695121
 20
5.1314100835
 11
5.1819585746
 21
5.1492475793
  0
LINE
  5
27E
100
AcDbEntity
  8
03__ASM_ALL_CURVES
100
AcDbLine
 62
40
  6
CONTINUOUS
 10
5.1752695121
 20
5.0957350825
 11
5.1819585746
 21
5.1135725814
  0
LINE
  5
27F
100
AcDbEntity
  8
03__ASM_ALL_CURVES
100
AcDbLine
 62
40
  6
CONTINUOUS
 10
5.2287820121
 20
5.0957350825
 11
5.2220929496
 21
5.0778975819
  0
LINE
  5
280
100
AcDbEntity
  8
03__ASM_ALL_CURVES
100
AcDbLine
 62
40
  6
CONTINUOUS
 10
5.2220929496
 20
5.0778975819
 11
5.2154038871
 21
5.0689788317
  0
LINE
  5
281
100
AcDbEntity
  8
03__ASM_ALL_CURVES
100
AcDbLine
 62
40
  6
CONTINUOUS
 10
5.3157398246
 20
5.0778975819
 11
5.3023616996
 21
5.0600600814
  0
LINE
  5
282
100
AcDbEntity
  8
0
100
AcDbLine
 62
7
  6
CONTINUOUS
 10
3.6834257621
 20
3.4068980814
 11
5.6754257621
 21
3.4068980814
  0
LINE
  5
283
100
AcDbEntity
  8
03__ASM_ALL_CURVES
100
AcDbLine
 62
40
  6
CONTINUOUS
 10
7.2145388357
 20
3.4498005814
 11
7.1744044607
 21
3.4498005814
  0
LINE
  5
284
100
AcDbEntity
  8
03__ASM_ALL_CURVES
100
AcDbLine
 62
40
  6
CONTINUOUS
 10
7.0138669607
 20
3.4498005814
 11
7.0540013357
 21
3.4498005814
  0
LINE
  5
285
100
AcDbEntity
  8
03__ASM_ALL_CURVES
100
AcDbLine
 62
40
  6
CONTINUOUS
 10
6.9386150076
 20
3.4765568322
 11
6.9687157888
 21
3.4765568322
  0
LINE
  5
286
100
AcDbEntity
  8
03__ASM_ALL_CURVES
100
AcDbLine
 62
40
  6
CONTINUOUS
 10
7.1744044607
 20
3.4899349564
 11
7.1994884451
 21
3.4899349564
  0
LINE
  5
287
100
AcDbEntity
  8
03__ASM_ALL_CURVES
100
AcDbLine
 62
40
  6
CONTINUOUS
 10
7.1744044607
 20
3.5300693314
 11
7.2145388357
 21
3.5300693314
  0
LINE
  5
288
100
AcDbEntity
  8
03__ASM_ALL_CURVES
100
AcDbLine
 62
40
  6
CONTINUOUS
 10
4.2187335746
 20
5.0689788317
 11
4.2120445121
 21
5.0778975819
  0
LINE
  5
289
100
AcDbEntity
  8
03__ASM_ALL_CURVES
100
AcDbLine
 62
40
  6
CONTINUOUS
 10
4.4796070121
 20
5.1135725814
 11
4.4862960746
 21
5.0957350825
  0
LINE
  5
28A
100
AcDbEntity
  8
03__ASM_ALL_CURVES
100
AcDbLine
 62
40
  6
CONTINUOUS
 10
4.6535226371
 20
5.1046538303
 11
4.6602116996
 21
5.0778975819
  0
LINE
  5
28B
100
AcDbEntity
  8
03__ASM_ALL_CURVES
100
AcDbLine
 62
40
  6
CONTINUOUS
 10
5.0682445121
 20
5.0957350825
 11
5.0682445121
 21
5.1314100835
  0
LINE
  5
28C
100
AcDbEntity
  8
03__ASM_ALL_CURVES
100
AcDbLine
 62
40
  6
CONTINUOUS
 10
5.1752695121
 20
5.0957350825
 11
5.1752695121
 21
5.1314100835
  0
LINE
  5
28D
100
AcDbEntity
  8
03__ASM_ALL_CURVES
100
AcDbLine
 62
40
  6
CONTINUOUS
 10
5.3224288871
 20
5.1046538303
 11
5.3157398246
 21
5.0778975819
  0
LINE
  5
28E
100
AcDbEntity
  8
03__ASM_ALL_CURVES
100
AcDbLine
 62
40
  6
CONTINUOUS
 10
6.9561738006
 20
3.5728793314
 11
6.9461402069
 21
3.5728793314
  0
LINE
  5
28F
100
AcDbEntity
  8
03__ASM_ALL_CURVES
100
AcDbLine
 62
40
  6
CONTINUOUS
 10
7.1718960663
 20
3.5728793314
 11
7.2120304413
 21
3.5728793314
  0
LINE
  5
290
100
AcDbEntity
  8
0
100
AcDbLine
 62
7
  6
CONTINUOUS
 10
3.3767270323
 20
3.5781555396
 11
3.6634257621
 21
3.5781555396
  0
LINE
  5
291
100
AcDbEntity
  8
0
100
AcDbLine
 62
7
  6
CONTINUOUS
 10
3.373581416
 20
3.5837826734
 11
3.6688741292
 21
3.5837826734
  0
LINE
  5
292
100
AcDbEntity
  8
03__ASM_ALL_CURVES
100
AcDbLine
 62
40
  6
CONTINUOUS
 10
7.0364425506
 20
3.6130137064
 11
7.0113585663
 21
3.6130137064
  0
LINE
  5
293
100
AcDbEntity
  8
03__ASM_ALL_CURVES
100
AcDbLine
 62
40
  6
CONTINUOUS
 10
6.8759050506
 20
3.6130137064
 11
6.8508210663
 21
3.6130137064
  0
LINE
  5
294
100
AcDbEntity
  8
0
100
AcDbLine
 62
7
  6
CONTINUOUS
 10
3.3755604889
 20
3.6517540272
 11
3.6653793542
 21
3.6517540272
  0
LINE
  5
295
100
AcDbEntity
  8
03__ASM_ALL_CURVES
100
AcDbLine
 62
40
  6
CONTINUOUS
 10
6.8508210663
 20
3.6531480814
 11
6.8759050506
 21
3.6531480814
  0
LINE
  5
296
100
AcDbEntity
  8
03__ASM_ALL_CURVES
100
AcDbLine
 62
40
  6
CONTINUOUS
 10
6.9461402069
 20
3.6531480814
 11
6.9561738006
 21
3.6531480814
  0
LINE
  5
297
100
AcDbEntity
  8
03__ASM_ALL_CURVES
100
AcDbLine
 62
40
  6
CONTINUOUS
 10
7.0113585663
 20
3.6531480814
 11
7.0364425506
 21
3.6531480814
  0
LINE
  5
298
100
AcDbEntity
  8
03__ASM_ALL_CURVES
100
AcDbLine
 62
40
  6
CONTINUOUS
 10
7.0866105194
 20
3.6531480814
 11
7.1367784881
 21
3.6531480814
  0
LINE
  5
299
100
AcDbEntity
  8
03__ASM_ALL_CURVES
100
AcDbLine
 62
40
  6
CONTINUOUS
 10
7.1869464569
 20
3.6531480814
 11
7.1969800506
 21
3.6531480814
  0
LINE
  5
29A
100
AcDbEntity
  8
0
100
AcDbLine
 62
7
  6
CONTINUOUS
 10
3.6634257621
 20
3.653725615
 11
3.3767270323
 21
3.653725615
  0
LINE
  5
29B
100
AcDbEntity
  8
0
100
AcDbLine
 62
7
  6
CONTINUOUS
 10
3.3767270323
 20
3.6566542514
 11
3.6634257621
 21
3.6566542514
  0
LINE
  5
29C
100
AcDbEntity
  8
0
100
AcDbLine
 62
7
  6
CONTINUOUS
 10
3.373581416
 20
3.6673449102
 11
3.6688741292
 21
3.6673449102
  0
LINE
  5
29D
100
AcDbEntity
  8
0
100
AcDbLine
 62
7
  6
CONTINUOUS
 10
3.3184257621
 20
3.6872238537
 11
3.3334257621
 21
3.6872238537
  0
LINE
  5
29E
100
AcDbEntity
  8
0
100
AcDbLine
 62
7
  6
CONTINUOUS
 10
3.3184257621
 20
3.6989314943
 11
3.3334257621
 21
3.6989314943
  0
LINE
  5
29F
100
AcDbEntity
  8
03__ASM_ALL_CURVES
100
AcDbLine
 62
40
  6
CONTINUOUS
 10
4.2588679496
 20
5.1135725814
 11
4.2722460746
 21
5.0957350825
  0
LINE
  5
2A0
100
AcDbEntity
  8
03__ASM_ALL_CURVES
100
AcDbLine
 62
40
  6
CONTINUOUS
 10
4.2588679496
 20
5.1581663335
 11
4.2655570121
 21
5.1492475793
  0
LINE
  5
2A1
100
AcDbEntity
  8
03__ASM_ALL_CURVES
100
AcDbLine
 62
40
  6
CONTINUOUS
 10
4.3391366996
 20
5.0689788317
 11
4.3458257621
 21
5.0600600814
  0
LINE
  5
2A2
100
AcDbEntity
  8
03__ASM_ALL_CURVES
100
AcDbLine
 62
40
  6
CONTINUOUS
 10
4.4327835746
 20
5.0689788317
 11
4.4260945121
 21
5.0778975819
  0
LINE
  5
2A3
100
AcDbEntity
  8
03__ASM_ALL_CURVES
100
AcDbLine
 62
40
  6
CONTINUOUS
 10
4.4729179496
 20
5.1224913293
 11
4.4796070121
 21
5.1135725814
  0
LINE
  5
2A4
100
AcDbEntity
  8
03__ASM_ALL_CURVES
100
AcDbLine
 62
40
  6
CONTINUOUS
 10
4.8608835746
 20
5.1135725814
 11
4.8541945121
 21
5.1314100835
  0
LINE
  5
2A5
100
AcDbEntity
  8
03__ASM_ALL_CURVES
100
AcDbLine
 62
40
  6
CONTINUOUS
 10
5.3224288871
 20
5.1224913293
 11
5.3224288871
 21
5.1046538303
  0
LINE
  5
2A6
100
AcDbEntity
  8
0
100
AcDbLine
 62
7
  6
CONTINUOUS
 10
7.2204257621
 20
3.9780447874
 11
7.2264257621
 21
3.9789414934
  0
LINE
  5
2A7
100
AcDbEntity
  8
0
100
AcDbLine
 62
7
  6
CONTINUOUS
 10
6.2357018421
 20
3.7291480814
 11
5.7060253263
 21
3.7291480814
  0
LINE
  5
2A8
100
AcDbEntity
  8
0
100
AcDbLine
 62
7
  6
CONTINUOUS
 10
5.7060253263
 20
3.7294554968
 11
6.2357018421
 21
3.7294554968
  0
LINE
  5
2A9
100
AcDbEntity
  8
0
100
AcDbLine
 62
7
  6
CONTINUOUS
 10
3.3184257621
 20
3.7370720537
 11
3.3334257621
 21
3.7370720537
  0
LINE
  5
2AA
100
AcDbEntity
  8
0
100
AcDbLine
 62
7
  6
CONTINUOUS
 10
3.3184257621
 20
3.8025344144
 11
3.3334257621
 21
3.8025344144
  0
LINE
  5
2AB
100
AcDbEntity
  8
0
100
AcDbLine
 62
7
  6
CONTINUOUS
 10
6.5404257621
 20
3.8031480814
 11
6.2784257621
 21
3.8031480814
  0
LINE
  5
2AC
100
AcDbEntity
  8
0
100
AcDbLine
 62
7
  6
CONTINUOUS
 10
6.5804257621
 20
3.8261480814
 11
6.5664161431
 21
3.8261480814
  0
LINE
  5
2AD
100
AcDbEntity
  8
0
100
AcDbLine
 62
7
  6
CONTINUOUS
 10
6.6504257621
 20
3.8276480814
 11
6.7004257621
 21
3.8276480814
  0
LINE
  5
2AE
100
AcDbEntity
  8
0
100
AcDbLine
 62
7
  6
CONTINUOUS
 10
3.3184257621
 20
3.827947875
 11
3.3334257621
 21
3.827947875
  0
LINE
  5
2AF
100
AcDbEntity
  8
0
100
AcDbLine
 62
7
  6
CONTINUOUS
 10
6.9044257621
 20
3.8446480814
 11
6.7554257621
 21
3.8446480814
  0
LINE
  5
2B0
100
AcDbEntity
  8
0
100
AcDbLine
 62
7
  6
CONTINUOUS
 10
3.3184257621
 20
3.8508653734
 11
3.3334257621
 21
3.8508653734
  0
LINE
  5
2B1
100
AcDbEntity
  8
0
100
AcDbLine
 62
7
  6
CONTINUOUS
 10
3.3184257621
 20
3.8513108478
 11
3.3334257621
 21
3.8513108478
  0
LINE
  5
2B2
100
AcDbEntity
  8
0
100
AcDbLine
 62
7
  6
CONTINUOUS
 10
3.6688741292
 20
3.8558530405
 11
3.373581416
 21
3.8558530405
  0
LINE
  5
2B3
100
AcDbEntity
  8
0
100
AcDbLine
 62
7
  6
CONTINUOUS
 10
3.6634257621
 20
3.863115537
 11
3.3767270323
 21
3.863115537
  0
LINE
  5
2B4
100
AcDbEntity
  8
0
100
AcDbLine
 62
7
  6
CONTINUOUS
 10
3.3767270323
 20
3.868188084
 11
3.6634257621
 21
3.868188084
  0
LINE
  5
2B5
100
AcDbEntity
  8
0
100
AcDbLine
 62
7
  6
CONTINUOUS
 10
3.3124257621
 20
3.8806480814
 11
3.0044257621
 21
3.8806480814
  0
LINE
  5
2B6
100
AcDbEntity
  8
0
100
AcDbLine
 62
7
  6
CONTINUOUS
 10
3.373581416
 20
3.8810777144
 11
3.6688741292
 21
3.8810777144
  0
LINE
  5
2B7
100
AcDbEntity
  8
0
100
AcDbLine
 62
7
  6
CONTINUOUS
 10
6.7130409858
 20
3.8816480814
 11
6.7004257621
 21
3.8816480814
  0
LINE
  5
2B8
100
AcDbEntity
  8
03__ASM_ALL_CURVES
100
AcDbLine
 62
40
  6
CONTINUOUS
 10
4.5398085746
 20
5.0689788317
 11
4.5331195121
 21
5.0778975819
  0
LINE
  5
2B9
100
AcDbEntity
  8
03__ASM_ALL_CURVES
100
AcDbLine
 62
40
  6
CONTINUOUS
 10
4.5799429496
 20
5.1135725814
 11
4.5933210746
 21
5.0957350825
  0
LINE
  5
2BA
100
AcDbEntity
  8
03__ASM_ALL_CURVES
100
AcDbLine
 62
40
  6
CONTINUOUS
 10
4.5799429496
 20
5.1581663335
 11
4.5866320121
 21
5.1492475793
  0
LINE
  5
2BB
100
AcDbEntity
  8
03__ASM_ALL_CURVES
100
AcDbLine
 62
40
  6
CONTINUOUS
 10
4.6602116996
 20
5.0778975819
 11
4.6735898246
 21
5.0600600814
  0
LINE
  5
2BC
100
AcDbEntity
  8
03__ASM_ALL_CURVES
100
AcDbLine
 62
40
  6
CONTINUOUS
 10
4.7538585746
 20
5.0689788317
 11
4.7404804496
 21
5.0868163314
  0
LINE
  5
2BD
100
AcDbEntity
  8
03__ASM_ALL_CURVES
100
AcDbLine
 62
40
  6
CONTINUOUS
 10
4.9010179496
 20
5.1492475793
 11
4.9077070121
 21
5.1314100835
  0
LINE
  5
2BE
100
AcDbEntity
  8
03__ASM_ALL_CURVES
100
AcDbLine
 62
40
  6
CONTINUOUS
 10
5.0749335746
 20
5.0778975819
 11
5.0682445121
 21
5.0957350825
  0
LINE
  5
2BF
100
AcDbEntity
  8
0
100
AcDbLine
 62
7
  6
CONTINUOUS
 10
5.6754257621
 20
4.5241480814
 11
5.7058922116
 21
4.5769175198
  0
LINE
  5
2C0
100
AcDbEntity
  8
0
100
AcDbLine
 62
7
  6
CONTINUOUS
 10
6.2357018421
 20
3.9273216131
 11
5.7060253263
 21
3.9273216131
  0
LINE
  5
2C1
100
AcDbEntity
  8
0
100
AcDbLine
 62
7
  6
CONTINUOUS
 10
6.9414257621
 20
3.9356480814
 11
6.9469257621
 21
3.9356480814
  0
LINE
  5
2C2
100
AcDbEntity
  8
0
100
AcDbLine
 62
7
  6
CONTINUOUS
 10
7.0399257621
 20
3.9356480814
 11
7.1654257621
 21
3.9356480814
  0
LINE
  5
2C3
100
AcDbEntity
  8
0
100
AcDbLine
 62
7
  6
CONTINUOUS
 10
7.2404257621
 20
3.9356480814
 11
7.2754257621
 21
3.9356480814
  0
LINE
  5
2C4
100
AcDbEntity
  8
0
100
AcDbLine
 62
7
  6
CONTINUOUS
 10
3.3184257621
 20
3.936779991
 11
3.3334257621
 21
3.936779991
  0
LINE
  5
2C5
100
AcDbEntity
  8
0
100
AcDbLine
 62
7
  6
CONTINUOUS
 10
5.7060253263
 20
3.955281965
 11
6.2357018421
 21
3.955281965
  0
LINE
  5
2C6
100
AcDbEntity
  8
0
100
AcDbLine
 62
7
  6
CONTINUOUS
 10
3.3184257621
 20
4.0310853731
 11
3.3334257621
 21
4.0310853731
  0
LINE
  5
2C7
100
AcDbEntity
  8
03__ASM_ALL_CURVES
100
AcDbLine
 62
40
  6
CONTINUOUS
 10
7.9136519338
 20
4.0514743314
 11
7.8735175588
 21
4.0514743314
  0
LINE
  5
2C8
100
AcDbEntity
  8
03__ASM_ALL_CURVES
100
AcDbLine
 62
40
  6
CONTINUOUS
 10
7.7129800588
 20
4.0514743314
 11
7.7531144338
 21
4.0514743314
  0
LINE
  5
2C9
100
AcDbEntity
  8
0
100
AcDbLine
 62
7
  6
CONTINUOUS
 10
3.3184257621
 20
4.0752211032
 11
3.3334257621
 21
4.0752211032
  0
LINE
  5
2CA
100
AcDbEntity
  8
03__ASM_ALL_CURVES
100
AcDbLine
 62
40
  6
CONTINUOUS
 10
7.6377281057
 20
4.0782305822
 11
7.667828887
 21
4.0782305822
  0
LINE
  5
2CB
100
AcDbEntity
  8
03__ASM_ALL_CURVES
100
AcDbLine
 62
40
  6
CONTINUOUS
 10
7.8735175588
 20
4.0916087064
 11
7.8986015432
 21
4.0916087064
  0
LINE
  5
2CC
100
AcDbEntity
  8
0
100
AcDbLine
 62
7
  6
CONTINUOUS
 10
3.3184257621
 20
4.0988169656
 11
3.3334257621
 21
4.0988169656
  0
LINE
  5
2CD
100
AcDbEntity
  8
03__ASM_ALL_CURVES
100
AcDbLine
 62
40
  6
CONTINUOUS
 10
4.2321116996
 20
5.0600600814
 11
4.2187335746
 21
5.0689788317
  0
LINE
  5
2CE
100
AcDbEntity
  8
03__ASM_ALL_CURVES
100
AcDbLine
 62
40
  6
CONTINUOUS
 10
4.7538585746
 20
5.1314100835
 11
4.7471695121
 21
5.1403288314
  0
LINE
  5
2CF
100
AcDbEntity
  8
03__ASM_ALL_CURVES
100
AcDbLine
 62
40
  6
CONTINUOUS
 10
4.7939929496
 20
5.1135725814
 11
4.8073710746
 21
5.0957350825
  0
LINE
  5
2D0
100
AcDbEntity
  8
03__ASM_ALL_CURVES
100
AcDbLine
 62
40
  6
CONTINUOUS
 10
4.7939929496
 20
5.1581663335
 11
4.8006820121
 21
5.1492475793
  0
LINE
  5
2D1
100
AcDbEntity
  8
03__ASM_ALL_CURVES
100
AcDbLine
 62
40
  6
CONTINUOUS
 10
4.8675726371
 20
5.0689788317
 11
4.8608835746
 21
5.0778975819
  0
LINE
  5
2D2
100
AcDbEntity
  8
03__ASM_ALL_CURVES
100
AcDbLine
 62
40
  6
CONTINUOUS
 10
4.8943288871
 20
5.1581663335
 11
4.9010179496
 21
5.1492475793
  0
LINE
  5
2D3
100
AcDbEntity
  8
03__ASM_ALL_CURVES
100
AcDbLine
 62
40
  6
CONTINUOUS
 10
4.9812866996
 20
5.0689788317
 11
4.9879757621
 21
5.0600600814
  0
LINE
  5
2D4
100
AcDbEntity
  8
0
100
AcDbLine
 62
7
  6
CONTINUOUS
 10
5.6754257621
 20
3.7821480814
 11
5.7060253263
 21
3.7291480814
  0
LINE
  5
2D5
100
AcDbEntity
  8
03__ASM_ALL_CURVES
100
AcDbLine
 62
40
  6
CONTINUOUS
 10
5.1150679496
 20
5.1135725814
 11
5.1217570121
 21
5.0957350825
  0
LINE
  5
2D6
100
AcDbEntity
  8
03__ASM_ALL_CURVES
100
AcDbLine
 62
40
  6
CONTINUOUS
 10
5.1819585746
 20
5.0778975819
 11
5.1752695121
 21
5.0957350825
  0
LINE
  5
2D7
100
AcDbEntity
  8
03__ASM_ALL_CURVES
100
AcDbLine
 62
40
  6
CONTINUOUS
 10
5.2220929496
 20
5.1135725814
 11
5.2287820121
 21
5.0957350825
  0
LINE
  5
2D8
100
AcDbEntity
  8
03__ASM_ALL_CURVES
100
AcDbLine
 62
40
  6
CONTINUOUS
 10
5.3157398246
 20
5.1492475793
 11
5.3224288871
 21
5.1224913293
  0
LINE
  5
2D9
100
AcDbEntity
  8
0
100
AcDbLine
 62
7
  6
CONTINUOUS
 10
5.6754257621
 20
3.4069040178
 11
5.6754257621
 21
4.8993942076
  0
LINE
  5
2DA
100
AcDbEntity
  8
0
100
AcDbLine
 62
7
  6
CONTINUOUS
 10
5.7060253263
 20
4.5771480814
 11
5.7060253263
 21
4.576840666
  0
LINE
  5
2DB
100
AcDbEntity
  8
0
100
AcDbLine
 62
7
  6
CONTINUOUS
 10
5.7060253263
 20
4.3789745496
 11
5.7060253263
 21
4.3510141977
  0
LINE
  5
2DC
100
AcDbEntity
  8
0
100
AcDbLine
 62
7
  6
CONTINUOUS
 10
5.7060253263
 20
3.955281965
 11
5.7060253263
 21
3.9273216131
  0
LINE
  5
2DD
100
AcDbEntity
  8
0
100
AcDbLine
 62
7
  6
CONTINUOUS
 10
5.7060253263
 20
3.7294554968
 11
5.7060253263
 21
3.7291480814
  0
LINE
  5
2DE
100
AcDbEntity
  8
03__ASM_ALL_CURVES
100
AcDbLine
 62
40
  6
CONTINUOUS
 10
6.8283798252
 20
5.1581663335
 11
6.8417579502
 21
5.1670850814
  0
LINE
  5
2DF
100
AcDbEntity
  8
03__ASM_ALL_CURVES
100
AcDbLine
 62
40
  6
CONTINUOUS
 10
6.9354048252
 20
5.1581663335
 11
6.9487829502
 21
5.1670850814
  0
LINE
  5
2E0
100
AcDbEntity
  8
03__ASM_ALL_CURVES
100
AcDbLine
 62
40
  6
CONTINUOUS
 10
6.8685142002
 20
5.0689788317
 11
6.8551360752
 21
5.0600600814
  0
LINE
  5
2E1
100
AcDbEntity
  8
03__ASM_ALL_CURVES
100
AcDbLine
 62
40
  6
CONTINUOUS
 10
6.9755392002
 20
5.0689788317
 11
6.9621610752
 21
5.0600600814
  0
LINE
  5
2E2
100
AcDbEntity
  8
03__ASM_ALL_CURVES
100
AcDbLine
 62
40
  6
CONTINUOUS
 10
7.8735175588
 20
4.1317430814
 11
7.9136519338
 21
4.1317430814
  0
LINE
  5
2E3
100
AcDbEntity
  8
0
100
AcDbLine
 62
7
  6
CONTINUOUS
 10
3.3184257621
 20
4.1325543449
 11
3.3334257621
 21
4.1325543449
  0
LINE
  5
2E4
100
AcDbEntity
  8
0
100
AcDbLine
 62
7
  6
CONTINUOUS
 10
3.3184257621
 20
4.133433797
 11
3.3334257621
 21
4.133433797
  0
LINE
  5
2E5
100
AcDbEntity
  8
0
100
AcDbLine
 62
7
  6
CONTINUOUS
 10
3.6688741292
 20
4.1385846091
 11
3.373581416
 21
4.1385846091
  0
LINE
  5
2E6
100
AcDbEntity
  8
0
100
AcDbLine
 62
7
  6
CONTINUOUS
 10
3.6634257621
 20
4.150219445
 11
3.3767270323
 21
4.150219445
  0
LINE
  5
2E7
100
AcDbEntity
  8
0
100
AcDbLine
 62
7
  6
CONTINUOUS
 10
3.3767270323
 20
4.1560767178
 11
3.6634257621
 21
4.1560767178
  0
LINE
  5
2E8
100
AcDbEntity
  8
0
100
AcDbLine
 62
7
  6
CONTINUOUS
 10
3.3184257621
 20
4.1660490433
 11
3.3334257621
 21
4.1660490433
  0
LINE
  5
2E9
100
AcDbEntity
  8
0
100
AcDbLine
 62
7
  6
CONTINUOUS
 10
3.373581416
 20
4.1677115537
 11
3.6688741292
 21
4.1677115537
  0
LINE
  5
2EA
100
AcDbEntity
  8
03__ASM_ALL_CURVES
100
AcDbLine
 62
40
  6
CONTINUOUS
 10
7.6527784969
 20
4.1745530814
 11
7.6427449032
 21
4.1745530814
  0
LINE
  5
2EB
100
AcDbEntity
  8
0
100
AcDbLine
 62
7
  6
CONTINUOUS
 10
3.3184257621
 20
4.1989369326
 11
3.3334257621
 21
4.1989369326
  0
LINE
  5
2EC
100
AcDbEntity
  8
0
100
AcDbLine
 62
7
  6
CONTINUOUS
 10
3.3184257621
 20
4.2000415422
 11
3.3334257621
 21
4.2000415422
  0
LINE
  5
2ED
100
AcDbEntity
  8
03__ASM_ALL_CURVES
100
AcDbLine
 62
40
  6
CONTINUOUS
 10
7.7330472469
 20
4.2146874564
 11
7.7079632625
 21
4.2146874564
  0
LINE
  5
2EE
100
AcDbEntity
  8
03__ASM_ALL_CURVES
100
AcDbLine
 62
40
  6
CONTINUOUS
 10
7.5725097469
 20
4.2146874564
 11
7.5474257625
 21
4.2146874564
  0
LINE
  5
2EF
100
AcDbEntity
  8
0
100
AcDbLine
 62
7
  6
CONTINUOUS
 10
3.3184257621
 20
4.2250161148
 11
3.3334257621
 21
4.2250161148
  0
LINE
  5
2F0
100
AcDbEntity
  8
0
100
AcDbLine
 62
7
  6
CONTINUOUS
 10
3.3184257621
 20
4.2527703756
 11
3.3334257621
 21
4.2527703756
  0
LINE
  5
2F1
100
AcDbEntity
  8
03__ASM_ALL_CURVES
100
AcDbLine
 62
40
  6
CONTINUOUS
 10
7.5474257625
 20
4.2548218314
 11
7.5725097469
 21
4.2548218314
  0
LINE
  5
2F2
100
AcDbEntity
  8
03__ASM_ALL_CURVES
100
AcDbLine
 62
40
  6
CONTINUOUS
 10
7.6427449032
 20
4.2548218314
 11
7.6527784969
 21
4.2548218314
  0
LINE
  5
2F3
100
AcDbEntity
  8
03__ASM_ALL_CURVES
100
AcDbLine
 62
40
  6
CONTINUOUS
 10
7.7079632625
 20
4.2548218314
 11
7.7330472469
 21
4.2548218314
  0
LINE
  5
2F4
100
AcDbEntity
  8
03__ASM_ALL_CURVES
100
AcDbLine
 62
40
  6
CONTINUOUS
 10
7.7832152157
 20
4.2548218314
 11
7.8333831844
 21
4.2548218314
  0
LINE
  5
2F5
100
AcDbEntity
  8
0
100
AcDbLine
 62
7
  6
CONTINUOUS
 10
3.3184257621
 20
4.2595365513
 11
3.3334257621
 21
4.2595365513
  0
LINE
  5
2F6
100
AcDbEntity
  8
0
100
AcDbLine
 62
7
  6
CONTINUOUS
 10
3.3184257621
 20
4.2682420827
 11
3.3334257621
 21
4.2682420827
  0
LINE
  5
2F7
100
AcDbEntity
  8
03__ASM_ALL_CURVES
100
AcDbLine
 62
40
  6
CONTINUOUS
 10
4.2454898246
 20
5.1224913293
 11
4.2588679496
 21
5.1135725814
  0
LINE
  5
2F8
100
AcDbEntity
  8
03__ASM_ALL_CURVES
100
AcDbLine
 62
40
  6
CONTINUOUS
 10
4.2454898246
 20
5.1670850814
 11
4.2588679496
 21
5.1581663335
  0
LINE
  5
2F9
100
AcDbEntity
  8
03__ASM_ALL_CURVES
100
AcDbLine
 62
40
  6
CONTINUOUS
 10
4.4461616996
 20
5.0600600814
 11
4.4327835746
 21
5.0689788317
  0
LINE
  5
2FA
100
AcDbEntity
  8
03__ASM_ALL_CURVES
100
AcDbLine
 62
40
  6
CONTINUOUS
 10
4.5531866996
 20
5.0600600814
 11
4.5398085746
 21
5.0689788317
  0
LINE
  5
2FB
100
AcDbEntity
  8
03__ASM_ALL_CURVES
100
AcDbLine
 62
40
  6
CONTINUOUS
 10
4.4595398246
 20
5.1314100835
 11
4.4729179496
 21
5.1224913293
  0
LINE
  5
2FC
100
AcDbEntity
  8
03__ASM_ALL_CURVES
100
AcDbLine
 62
40
  6
CONTINUOUS
 10
4.5665648246
 20
5.1224913293
 11
4.5799429496
 21
5.1135725814
  0
LINE
  5
2FD
100
AcDbEntity
  8
03__ASM_ALL_CURVES
100
AcDbLine
 62
40
  6
CONTINUOUS
 10
5.0816226371
 20
5.0689788317
 11
5.0749335746
 21
5.0778975819
  0
LINE
  5
2FE
100
AcDbEntity
  8
03__ASM_ALL_CURVES
100
AcDbLine
 62
40
  6
CONTINUOUS
 10
5.1083788871
 20
5.1581663335
 11
5.1150679496
 21
5.1492475793
  0
LINE
  5
2FF
100
AcDbEntity
  8
03__ASM_ALL_CURVES
100
AcDbLine
 62
40
  6
CONTINUOUS
 10
5.1886476371
 20
5.0689788317
 11
5.1819585746
 21
5.0778975819
  0
LINE
  5
300
100
AcDbEntity
  8
03__ASM_ALL_CURVES
100
AcDbLine
 62
40
  6
CONTINUOUS
 10
7.4705298252
 20
5.1581663335
 11
7.4839079502
 21
5.1670850814
  0
LINE
  5
301
100
AcDbEntity
  8
0
100
AcDbLine
 62
7
  6
CONTINUOUS
 10
6.2357018421
 20
4.3510141977
 11
5.7060253263
 21
4.3510141977
  0
LINE
  5
302
100
AcDbEntity
  8
0
100
AcDbLine
 62
7
  6
CONTINUOUS
 10
3.3184257621
 20
4.3686479517
 11
3.3334257621
 21
4.3686479517
  0
LINE
  5
303
100
AcDbEntity
  8
0
100
AcDbLine
 62
7
  6
CONTINUOUS
 10
6.9414257621
 20
4.3706480814
 11
6.9469257621
 21
4.3706480814
  0
LINE
  5
304
100
AcDbEntity
  8
0
100
AcDbLine
 62
7
  6
CONTINUOUS
 10
7.0399257621
 20
4.3706480814
 11
7.1654257621
 21
4.3706480814
  0
LINE
  5
305
100
AcDbEntity
  8
0
100
AcDbLine
 62
7
  6
CONTINUOUS
 10
7.2404257621
 20
4.3706480814
 11
7.2754257621
 21
4.3706480814
  0
LINE
  5
306
100
AcDbEntity
  8
0
100
AcDbLine
 62
7
  6
CONTINUOUS
 10
5.7060253263
 20
4.3789745496
 11
6.2357018421
 21
4.3789745496
  0
LINE
  5
307
100
AcDbEntity
  8
0
100
AcDbLine
 62
7
  6
CONTINUOUS
 10
6.7130409858
 20
4.4246480814
 11
6.7004257621
 21
4.4246480814
  0
LINE
  5
308
100
AcDbEntity
  8
0
100
AcDbLine
 62
7
  6
CONTINUOUS
 10
3.6688741292
 20
4.4252184484
 11
3.373581416
 21
4.4252184484
  0
LINE
  5
309
100
AcDbEntity
  8
0
100
AcDbLine
 62
7
  6
CONTINUOUS
 10
3.3124257621
 20
4.4256480814
 11
3.0044257621
 21
4.4256480814
  0
LINE
  5
30A
100
AcDbEntity
  8
0
100
AcDbLine
 62
7
  6
CONTINUOUS
 10
3.6634257621
 20
4.4381080787
 11
3.3767270323
 21
4.4381080787
  0
LINE
  5
30B
100
AcDbEntity
  8
0
100
AcDbLine
 62
7
  6
CONTINUOUS
 10
3.3767270323
 20
4.4431806258
 11
3.6634257621
 21
4.4431806258
  0
LINE
  5
30C
100
AcDbEntity
  8
0
100
AcDbLine
 62
7
  6
CONTINUOUS
 10
3.373581416
 20
4.4504431223
 11
3.6688741292
 21
4.4504431223
  0
LINE
  5
30D
100
AcDbEntity
  8
0
100
AcDbLine
 62
7
  6
CONTINUOUS
 10
3.3184257621
 20
4.4549853149
 11
3.3334257621
 21
4.4549853149
  0
LINE
  5
30E
100
AcDbEntity
  8
0
100
AcDbLine
 62
7
  6
CONTINUOUS
 10
6.9044257621
 20
4.4616480814
 11
6.7554257621
 21
4.4616480814
  0
LINE
  5
30F
100
AcDbEntity
  8
0
100
AcDbLine
 62
7
  6
CONTINUOUS
 10
6.6504257621
 20
4.4786480814
 11
6.7004257621
 21
4.4786480814
  0
LINE
  5
310
100
AcDbEntity
  8
0
100
AcDbLine
 62
7
  6
CONTINUOUS
 10
6.5804257621
 20
4.4801480814
 11
6.5664161431
 21
4.4801480814
  0
LINE
  5
311
100
AcDbEntity
  8
0
100
AcDbLine
 62
7
  6
CONTINUOUS
 10
6.5404257621
 20
4.5031480814
 11
6.2784257621
 21
4.5031480814
  0
LINE
  5
312
100
AcDbEntity
  8
03__ASM_ALL_CURVES
100
AcDbLine
 62
40
  6
CONTINUOUS
 10
6.9461402069
 20
3.5728793314
 11
6.9361066131
 21
3.5795683941
  0
LINE
  5
313
100
AcDbEntity
  8
03__ASM_ALL_CURVES
100
AcDbLine
 62
40
  6
CONTINUOUS
 10
4.5665648246
 20
5.1670850814
 11
4.5799429496
 21
5.1581663335
  0
LINE
  5
314
100
AcDbEntity
  8
03__ASM_ALL_CURVES
100
AcDbLine
 62
40
  6
CONTINUOUS
 10
6.8759050506
 20
3.6531480814
 11
6.8859386444
 21
3.6464590205
  0
LINE
  5
315
100
AcDbEntity
  8
03__ASM_ALL_CURVES
100
AcDbLine
 62
40
  6
CONTINUOUS
 10
4.7672366996
 20
5.0600600814
 11
4.7538585746
 21
5.0689788317
  0
LINE
  5
316
100
AcDbEntity
  8
03__ASM_ALL_CURVES
100
AcDbLine
 62
40
  6
CONTINUOUS
 10
6.9561738006
 20
3.6531480814
 11
6.9662073944
 21
3.6464590205
  0
LINE
  5
317
100
AcDbEntity
  8
03__ASM_ALL_CURVES
100
AcDbLine
 62
40
  6
CONTINUOUS
 10
4.7672366996
 20
5.1224913293
 11
4.7538585746
 21
5.1314100835
  0
LINE
  5
318
100
AcDbEntity
  8
03__ASM_ALL_CURVES
100
AcDbLine
 62
40
  6
CONTINUOUS
 10
4.7806148246
 20
5.1224913293
 11
4.7939929496
 21
5.1135725814
  0
LINE
  5
319
100
AcDbEntity
  8
03__ASM_ALL_CURVES
100
AcDbLine
 62
40
  6
CONTINUOUS
 10
4.8809507621
 20
5.0600600814
 11
4.8675726371
 21
5.0689788317
  0
LINE
  5
31A
100
AcDbEntity
  8
03__ASM_ALL_CURVES
100
AcDbLine
 62
40
  6
CONTINUOUS
 10
7.0364425506
 20
3.6531480814
 11
7.0464761444
 21
3.6464590205
  0
LINE
  5
31B
100
AcDbEntity
  8
03__ASM_ALL_CURVES
100
AcDbLine
 62
40
  6
CONTINUOUS
 10
4.7806148246
 20
5.1670850814
 11
4.7939929496
 21
5.1581663335
  0
LINE
  5
31C
100
AcDbEntity
  8
03__ASM_ALL_CURVES
100
AcDbLine
 62
40
  6
CONTINUOUS
 10
4.8809507621
 20
5.1670850814
 11
4.8943288871
 21
5.1581663335
  0
LINE
  5
31D
100
AcDbEntity
  8
03__ASM_ALL_CURVES
100
AcDbLine
 62
40
  6
CONTINUOUS
 10
5.2154038871
 20
5.1581663335
 11
5.2220929496
 21
5.1492475793
  0
LINE
  5
31E
100
AcDbEntity
  8
03__ASM_ALL_CURVES
100
AcDbLine
 62
40
  6
CONTINUOUS
 10
5.3023616996
 20
5.1670850814
 11
5.3157398246
 21
5.1492475793
  0
LINE
  5
31F
100
AcDbEntity
  8
03__ASM_ALL_CURVES
100
AcDbLine
 62
40
  6
CONTINUOUS
 10
6.8150017002
 20
5.1403288314
 11
6.8283798252
 21
5.1581663335
  0
LINE
  5
320
100
AcDbEntity
  8
03__ASM_ALL_CURVES
100
AcDbLine
 62
40
  6
CONTINUOUS
 10
6.8818923252
 20
5.0868163314
 11
6.8685142002
 21
5.0689788317
  0
LINE
  5
321
100
AcDbEntity
  8
03__ASM_ALL_CURVES
100
AcDbLine
 62
40
  6
CONTINUOUS
 10
6.9220267002
 20
5.1403288314
 11
6.9354048252
 21
5.1581663335
  0
LINE
  5
322
100
AcDbEntity
  8
03__ASM_ALL_CURVES
100
AcDbLine
 62
40
  6
CONTINUOUS
 10
7.5106642002
 20
5.0689788317
 11
7.4972860752
 21
5.0600600814
  0
LINE
  5
323
100
AcDbEntity
  8
03__ASM_ALL_CURVES
100
AcDbLine
 62
40
  6
CONTINUOUS
 10
7.6979579502
 20
5.1670850814
 11
7.6845798252
 21
5.1581663335
  0
LINE
  5
324
100
AcDbEntity
  8
03__ASM_ALL_CURVES
100
AcDbLine
 62
40
  6
CONTINUOUS
 10
7.7247142002
 20
5.0689788317
 11
7.7113360752
 21
5.0600600814
  0
LINE
  5
325
100
AcDbEntity
  8
0
100
AcDbLine
 62
7
  6
CONTINUOUS
 10
3.3184257621
 20
4.5683772714
 11
3.3334257621
 21
4.5683772714
  0
LINE
  5
326
100
AcDbEntity
  8
0
100
AcDbLine
 62
7
  6
CONTINUOUS
 10
6.2357018421
 20
4.576840666
 11
5.7060253263
 21
4.576840666
  0
LINE
  5
327
100
AcDbEntity
  8
0
100
AcDbLine
 62
7
  6
CONTINUOUS
 10
6.2357018421
 20
4.5771480814
 11
5.7060253263
 21
4.5771480814
  0
LINE
  5
328
100
AcDbEntity
  8
0
100
AcDbLine
 62
7
  6
CONTINUOUS
 10
3.3184257621
 20
4.6048031703
 11
3.3334257621
 21
4.6048031703
  0
LINE
  5
329
100
AcDbEntity
  8
0
100
AcDbLine
 62
7
  6
CONTINUOUS
 10
3.3184257621
 20
4.6181527301
 11
3.3334257621
 21
4.6181527301
  0
LINE
  5
32A
100
AcDbEntity
  8
0
100
AcDbLine
 62
7
  6
CONTINUOUS
 10
3.3184257621
 20
4.6184626002
 11
3.3334257621
 21
4.6184626002
  0
LINE
  5
32B
100
AcDbEntity
  8
0
100
AcDbLine
 62
7
  6
CONTINUOUS
 10
3.3184257621
 20
4.6187702414
 11
3.3334257621
 21
4.6187702414
  0
LINE
  5
32C
100
AcDbEntity
  8
0
100
AcDbLine
 62
7
  6
CONTINUOUS
 10
3.3184257621
 20
4.6190723091
 11
3.3334257621
 21
4.6190723091
  0
LINE
  5
32D
100
AcDbEntity
  8
0
100
AcDbLine
 62
7
  6
CONTINUOUS
 10
3.6688741292
 20
4.6389512526
 11
3.373581416
 21
4.6389512526
  0
LINE
  5
32E
100
AcDbEntity
  8
0
100
AcDbLine
 62
7
  6
CONTINUOUS
 10
3.6634257621
 20
4.6496419113
 11
3.3767270323
 21
4.6496419113
  0
LINE
  5
32F
100
AcDbEntity
  8
0
100
AcDbLine
 62
7
  6
CONTINUOUS
 10
3.3767270323
 20
4.6525705478
 11
3.6634257621
 21
4.6525705478
  0
LINE
  5
330
100
AcDbEntity
  8
0
100
AcDbLine
 62
7
  6
CONTINUOUS
 10
3.665379357
 20
4.6545421356
 11
3.3755609762
 21
4.6545421356
  0
LINE
  5
331
100
AcDbEntity
  8
03__ASM_ALL_CURVES
100
AcDbLine
 62
40
  6
CONTINUOUS
 10
3.1328557621
 20
5.0029800814
 11
3.0044257621
 21
5.0172500814
  0
LINE
  5
332
100
AcDbEntity
  8
03__ASM_ALL_CURVES
100
AcDbLine
 62
40
  6
CONTINUOUS
 10
3.1328557621
 20
4.9994125814
 11
3.0044257621
 21
5.0172500814
  0
LINE
  5
333
100
AcDbEntity
  8
0
100
AcDbLine
 62
7
  6
CONTINUOUS
 10
7.2204257621
 20
4.3282513754
 11
7.2264257621
 21
4.3273546694
  0
LINE
  5
334
100
AcDbEntity
  8
03__ASM_ALL_CURVES
100
AcDbLine
 62
40
  6
CONTINUOUS
 10
3.1328557621
 20
4.9958450814
 11
3.0044257621
 21
5.0172500814
  0
LINE
  5
335
100
AcDbEntity
  8
03__ASM_ALL_CURVES
100
AcDbLine
 62
40
  6
CONTINUOUS
 10
4.8809507621
 20
5.1046538303
 11
4.8608835746
 21
5.1135725814
  0
LINE
  5
336
100
AcDbEntity
  8
03__ASM_ALL_CURVES
100
AcDbLine
 62
40
  6
CONTINUOUS
 10
7.1969800506
 20
3.6531480814
 11
7.2070136444
 21
3.6464590205
  0
LINE
  5
337
100
AcDbEntity
  8
03__ASM_ALL_CURVES
100
AcDbLine
 62
40
  6
CONTINUOUS
 10
5.0950007621
 20
5.0600600814
 11
5.0816226371
 21
5.0689788317
  0
LINE
  5
338
100
AcDbEntity
  8
03__ASM_ALL_CURVES
100
AcDbLine
 62
40
  6
CONTINUOUS
 10
5.2020257621
 20
5.0600600814
 11
5.1886476371
 21
5.0689788317
  0
LINE
  5
339
100
AcDbEntity
  8
03__ASM_ALL_CURVES
100
AcDbLine
 62
40
  6
CONTINUOUS
 10
5.0950007621
 20
5.1670850814
 11
5.1083788871
 21
5.1581663335
  0
LINE
  5
33A
100
AcDbEntity
  8
03__ASM_ALL_CURVES
100
AcDbLine
 62
40
  6
CONTINUOUS
 10
5.2020257621
 20
5.1670850814
 11
5.2154038871
 21
5.1581663335
  0
LINE
  5
33B
100
AcDbEntity
  8
0
100
AcDbLine
 62
7
  6
CONTINUOUS
 10
6.7222333739
 20
3.8778404695
 11
6.7554257621
 21
3.8446480814
  0
LINE
  5
33C
100
AcDbEntity
  8
0
100
AcDbLine
 62
7
  6
CONTINUOUS
 10
6.2357018421
 20
3.7291480814
 11
6.2357018421
 21
3.7294554968
  0
LINE
  5
33D
100
AcDbEntity
  8
0
100
AcDbLine
 62
7
  6
CONTINUOUS
 10
6.2357018421
 20
3.9273216131
 11
6.2357018421
 21
3.955281965
  0
LINE
  5
33E
100
AcDbEntity
  8
0
100
AcDbLine
 62
7
  6
CONTINUOUS
 10
6.2357018421
 20
4.3510141977
 11
6.2357018421
 21
4.3789745496
  0
LINE
  5
33F
100
AcDbEntity
  8
0
100
AcDbLine
 62
7
  6
CONTINUOUS
 10
6.2357018421
 20
4.576840666
 11
6.2357018421
 21
4.5771480814
  0
LINE
  5
340
100
AcDbEntity
  8
0
100
AcDbLine
 62
7
  6
CONTINUOUS
 10
6.2784257621
 20
4.5031480814
 11
6.2784257621
 21
3.8031480814
  0
LINE
  5
341
100
AcDbEntity
  8
03__ASM_ALL_CURVES
100
AcDbLine
 62
40
  6
CONTINUOUS
 10
6.9822282627
 20
5.0778975819
 11
6.9755392002
 21
5.0689788317
  0
LINE
  5
342
100
AcDbEntity
  8
0
100
AcDbLine
 62
7
  6
CONTINUOUS
 10
6.7222333739
 20
4.4284556932
 11
6.7554257621
 21
4.4616480814
  0
LINE
  5
343
100
AcDbEntity
  8
03__ASM_ALL_CURVES
100
AcDbLine
 62
40
  6
CONTINUOUS
 10
7.8986298252
 20
5.1581663335
 11
7.9120079502
 21
5.1670850814
  0
LINE
  5
344
100
AcDbEntity
  8
03__ASM_ALL_CURVES
100
AcDbLine
 62
40
  6
CONTINUOUS
 10
7.9387642002
 20
5.0689788317
 11
7.9253860752
 21
5.0600600814
  0
LINE
  5
345
100
AcDbEntity
  8
03__ASM_ALL_CURVES
100
AcDbLine
 62
40
  6
CONTINUOUS
 10
8.0457892002
 20
5.0689788317
 11
8.0324110752
 21
5.0600600814
  0
LINE
  5
346
100
AcDbEntity
  8
03__ASM_ALL_CURVES
100
AcDbLine
 62
40
  6
CONTINUOUS
 10
6.4149957621
 20
4.9958450814
 11
6.6718557621
 21
5.0386550814
  0
LINE
  5
347
100
AcDbEntity
  8
0
100
AcDbLine
 62
7
  6
CONTINUOUS
 10
3.6688741292
 20
4.7225134893
 11
3.373581416
 21
4.7225134893
  0
LINE
  5
348
100
AcDbEntity
  8
0
100
AcDbLine
 62
7
  6
CONTINUOUS
 10
3.6634257621
 20
4.7281406232
 11
3.3767270323
 21
4.7281406232
  0
LINE
  5
349
100
AcDbEntity
  8
0
100
AcDbLine
 62
7
  6
CONTINUOUS
 10
3.6834257621
 20
4.8993980814
 11
5.6754257621
 21
4.8993980814
  0
LINE
  5
34A
100
AcDbEntity
  8
03__ASM_ALL_CURVES
100
AcDbLine
 62
40
  6
CONTINUOUS
 10
3.1328557621
 20
5.0101150814
 11
3.0044257621
 21
5.0172500814
  0
LINE
  5
34B
100
AcDbEntity
  8
03__ASM_ALL_CURVES
100
AcDbLine
 62
40
  6
CONTINUOUS
 10
3.1328557621
 20
5.0065475814
 11
3.0044257621
 21
5.0172500814
  0
LINE
  5
34C
100
AcDbEntity
  8
03__ASM_ALL_CURVES
100
AcDbLine
 62
40
  6
CONTINUOUS
 10
5.0950007621
 20
5.1224913293
 11
5.1150679496
 21
5.1135725814
  0
LINE
  5
34D
100
AcDbEntity
  8
03__ASM_ALL_CURVES
100
AcDbLine
 62
40
  6
CONTINUOUS
 10
5.2020257621
 20
5.1224913293
 11
5.2220929496
 21
5.1135725814
  0
LINE
  5
34E
100
AcDbEntity
  8
0
100
AcDbLine
 62
7
  6
CONTINUOUS
 10
6.5639161431
 20
4.4808179544
 11
6.5459257621
 21
4.4912047057
  0
LINE
  5
34F
100
AcDbEntity
  8
03__ASM_ALL_CURVES
100
AcDbLine
 62
40
  6
CONTINUOUS
 10
6.9361066131
 20
3.5795683941
 11
6.9260730194
 21
3.5929465189
  0
LINE
  5
350
100
AcDbEntity
  8
03__ASM_ALL_CURVES
100
AcDbLine
 62
40
  6
CONTINUOUS
 10
6.8859386444
 20
3.6464590205
 11
6.8909554413
 21
3.6397699548
  0
LINE
  5
351
100
AcDbEntity
  8
03__ASM_ALL_CURVES
100
AcDbLine
 62
40
  6
CONTINUOUS
 10
6.9662073944
 20
3.6464590205
 11
6.9762409881
 21
3.6330808939
  0
LINE
  5
352
100
AcDbEntity
  8
03__ASM_ALL_CURVES
100
AcDbLine
 62
40
  6
CONTINUOUS
 10
7.0464761444
 20
3.6464590205
 11
7.0514929413
 21
3.6397699548
  0
LINE
  5
353
100
AcDbEntity
  8
0
100
AcDbLine
 62
7
  6
CONTINUOUS
 10
6.2784257621
 20
4.5031480814
 11
6.2358349569
 21
4.5769175198
  0
LINE
  5
354
100
AcDbEntity
  8
03__ASM_ALL_CURVES
100
AcDbLine
 62
40
  6
CONTINUOUS
 10
6.4149957621
 20
5.0386550814
 11
6.4149957621
 21
4.9958450814
  0
LINE
  5
355
100
AcDbEntity
  8
0
100
AcDbLine
 62
7
  6
CONTINUOUS
 10
6.5404257621
 20
3.8031480814
 11
6.5404257621
 21
4.5031480814
  0
LINE
  5
356
100
AcDbEntity
  8
0
100
AcDbLine
 62
7
  6
CONTINUOUS
 10
6.5434257621
 20
3.8061483114
 11
6.5434257621
 21
4.5001478514
  0
LINE
  5
357
100
AcDbEntity
  8
03__ASM_ALL_CURVES
100
AcDbLine
 62
40
  6
CONTINUOUS
 10
6.5434257621
 20
4.5001480814
 11
6.5434257621
 21
5.0600600814
  0
LINE
  5
358
100
AcDbEntity
  8
0
100
AcDbLine
 62
7
  6
CONTINUOUS
 10
6.5459257621
 20
4.4912047057
 11
6.5459257621
 21
3.8150914571
  0
LINE
  5
359
100
AcDbEntity
  8
0
100
AcDbLine
 62
7
  6
CONTINUOUS
 10
6.5639161431
 20
3.8254782084
 11
6.5639161431
 21
4.4808179544
  0
LINE
  5
35A
100
AcDbEntity
  8
0
100
AcDbLine
 62
7
  6
CONTINUOUS
 10
6.5664161431
 20
4.4801480814
 11
6.5664161431
 21
3.8261480814
  0
LINE
  5
35B
100
AcDbEntity
  8
0
100
AcDbLine
 62
7
  6
CONTINUOUS
 10
6.5804257621
 20
3.8261484327
 11
6.5804257621
 21
4.4801477301
  0
LINE
  5
35C
100
AcDbEntity
  8
03__ASM_ALL_CURVES
100
AcDbLine
 62
40
  6
CONTINUOUS
 10
6.8083126377
 20
5.1135725814
 11
6.8150017002
 21
5.1403288314
  0
LINE
  5
35D
100
AcDbEntity
  8
0
100
AcDbLine
 62
7
  6
CONTINUOUS
 10
6.2784257621
 20
3.8031480814
 11
6.2358349569
 21
3.7293786429
  0
LINE
  5
35E
100
AcDbEntity
  8
03__ASM_ALL_CURVES
100
AcDbLine
 62
40
  6
CONTINUOUS
 10
8.2531501377
 20
5.0689788317
 11
8.2397720127
 21
5.0600600814
  0
LINE
  5
35F
100
AcDbEntity
  8
03__ASM_ALL_CURVES
100
AcDbLine
 62
40
  6
CONTINUOUS
 10
8.4738892002
 20
5.1224913293
 11
8.4605110752
 21
5.1135725814
  0
LINE
  5
360
100
AcDbEntity
  8
0
100
AcDbLine
 62
7
  6
CONTINUOUS
 10
6.5639161431
 20
3.8254782084
 11
6.5459257621
 21
3.8150914571
  0
LINE
  5
361
100
AcDbEntity
  8
03__ASM_ALL_CURVES
100
AcDbLine
 62
40
  6
CONTINUOUS
 10
6.4149957621
 20
4.9994125814
 11
6.6718557621
 21
5.0350875814
  0
LINE
  5
362
100
AcDbEntity
  8
03__ASM_ALL_CURVES
100
AcDbLine
 62
40
  6
CONTINUOUS
 10
6.4149957621
 20
5.0029800814
 11
6.6718557621
 21
5.0315200814
  0
LINE
  5
363
100
AcDbEntity
  8
03__ASM_ALL_CURVES
100
AcDbLine
 62
40
  6
CONTINUOUS
 10
6.4149957621
 20
5.0065475814
 11
6.6718557621
 21
5.0279525814
  0
LINE
  5
364
100
AcDbEntity
  8
03__ASM_ALL_CURVES
100
AcDbLine
 62
40
  6
CONTINUOUS
 10
6.4149957621
 20
5.0101150814
 11
6.6718557621
 21
5.0243850814
  0
LINE
  5
365
100
AcDbEntity
  8
03__ASM_ALL_CURVES
100
AcDbLine
 62
40
  6
CONTINUOUS
 10
6.4149957621
 20
5.0136825814
 11
6.6718557621
 21
5.0208175814
  0
LINE
  5
366
100
AcDbEntity
  8
03__ASM_ALL_CURVES
100
AcDbLine
 62
40
  6
CONTINUOUS
 10
3.1328557621
 20
5.0208175814
 11
3.0044257621
 21
5.0172500814
  0
LINE
  5
367
100
AcDbEntity
  8
03__ASM_ALL_CURVES
100
AcDbLine
 62
40
  6
CONTINUOUS
 10
3.0044257621
 20
5.0172500814
 11
8.5983057621
 21
5.0172500814
  0
LINE
  5
368
100
AcDbEntity
  8
03__ASM_ALL_CURVES
100
AcDbLine
 62
40
  6
CONTINUOUS
 10
8.3735532627
 20
5.0600600814
 11
8.3200407627
 21
5.0600600814
  0
LINE
  5
369
100
AcDbEntity
  8
03__ASM_ALL_CURVES
100
AcDbLine
 62
40
  6
CONTINUOUS
 10
8.2397720127
 20
5.0600600814
 11
8.2130157627
 21
5.0600600814
  0
LINE
  5
36A
100
AcDbEntity
  8
03__ASM_ALL_CURVES
100
AcDbLine
 62
40
  6
CONTINUOUS
 10
8.0324110752
 20
5.0600600814
 11
8.0190329502
 21
5.0600600814
  0
LINE
  5
36B
100
AcDbEntity
  8
03__ASM_ALL_CURVES
100
AcDbLine
 62
40
  6
CONTINUOUS
 10
7.9253860752
 20
5.0600600814
 11
7.9120079502
 21
5.0600600814
  0
LINE
  5
36C
100
AcDbEntity
  8
03__ASM_ALL_CURVES
100
AcDbLine
 62
40
  6
CONTINUOUS
 10
7.7113360752
 20
5.0600600814
 11
7.6979579502
 21
5.0600600814
  0
LINE
  5
36D
100
AcDbEntity
  8
03__ASM_ALL_CURVES
100
AcDbLine
 62
40
  6
CONTINUOUS
 10
7.4972860752
 20
5.0600600814
 11
7.4839079502
 21
5.0600600814
  0
LINE
  5
36E
100
AcDbEntity
  8
03__ASM_ALL_CURVES
100
AcDbLine
 62
40
  6
CONTINUOUS
 10
6.9621610752
 20
5.0600600814
 11
6.9487829502
 21
5.0600600814
  0
LINE
  5
36F
100
AcDbEntity
  8
03__ASM_ALL_CURVES
100
AcDbLine
 62
40
  6
CONTINUOUS
 10
6.8551360752
 20
5.0600600814
 11
6.8417579502
 21
5.0600600814
  0
LINE
  5
370
100
AcDbEntity
  8
03__ASM_ALL_CURVES
100
AcDbLine
 62
40
  6
CONTINUOUS
 10
4.9879757621
 20
5.0600600814
 11
4.9812866996
 21
5.0600600814
  0
LINE
  5
371
100
AcDbEntity
  8
03__ASM_ALL_CURVES
100
AcDbLine
 62
40
  6
CONTINUOUS
 10
4.7806148246
 20
5.0600600814
 11
4.7672366996
 21
5.0600600814
  0
LINE
  5
372
100
AcDbEntity
  8
03__ASM_ALL_CURVES
100
AcDbLine
 62
40
  6
CONTINUOUS
 10
4.5665648246
 20
5.0600600814
 11
4.5531866996
 21
5.0600600814
  0
LINE
  5
373
100
AcDbEntity
  8
03__ASM_ALL_CURVES
100
AcDbLine
 62
40
  6
CONTINUOUS
 10
4.4595398246
 20
5.0600600814
 11
4.4461616996
 21
5.0600600814
  0
LINE
  5
374
100
AcDbEntity
  8
03__ASM_ALL_CURVES
100
AcDbLine
 62
40
  6
CONTINUOUS
 10
4.3458257621
 20
5.0600600814
 11
4.3391366996
 21
5.0600600814
  0
LINE
  5
375
100
AcDbEntity
  8
03__ASM_ALL_CURVES
100
AcDbLine
 62
40
  6
CONTINUOUS
 10
4.2454898246
 20
5.0600600814
 11
4.2321116996
 21
5.0600600814
  0
LINE
  5
376
100
AcDbEntity
  8
03__ASM_ALL_CURVES
100
AcDbLine
 62
40
  6
CONTINUOUS
 10
6.7146657627
 20
5.0600600814
 11
6.7681782627
 21
5.0600600814
  0
LINE
  5
377
100
AcDbEntity
  8
03__ASM_ALL_CURVES
100
AcDbLine
 62
40
  6
CONTINUOUS
 10
8.1059907627
 20
5.0600600814
 11
8.1595032627
 21
5.0600600814
  0
LINE
  5
378
100
AcDbEntity
  8
03__ASM_ALL_CURVES
100
AcDbLine
 62
40
  6
CONTINUOUS
 10
3.1328557621
 20
5.0136825814
 11
3.0044257621
 21
5.0172500814
  0
LINE
  5
379
100
AcDbEntity
  8
03__ASM_ALL_CURVES
100
AcDbLine
 62
40
  6
CONTINUOUS
 10
6.4149957621
 20
5.0208175814
 11
6.6718557621
 21
5.0136825814
  0
LINE
  5
37A
100
AcDbEntity
  8
03__ASM_ALL_CURVES
100
AcDbLine
 62
40
  6
CONTINUOUS
 10
6.4149957621
 20
5.0243850814
 11
6.6718557621
 21
5.0101150814
  0
LINE
  5
37B
100
AcDbEntity
  8
03__ASM_ALL_CURVES
100
AcDbLine
 62
40
  6
CONTINUOUS
 10
6.4149957621
 20
5.0279525814
 11
6.6718557621
 21
5.0065475814
  0
LINE
  5
37C
100
AcDbEntity
  8
03__ASM_ALL_CURVES
100
AcDbLine
 62
40
  6
CONTINUOUS
 10
6.4149957621
 20
5.0315200814
 11
6.6718557621
 21
5.0029800814
  0
LINE
  5
37D
100
AcDbEntity
  8
03__ASM_ALL_CURVES
100
AcDbLine
 62
40
  6
CONTINUOUS
 10
7.2070136444
 20
3.6464590205
 11
7.2120304413
 21
3.6397699548
  0
LINE
  5
37E
100
AcDbEntity
  8
03__ASM_ALL_CURVES
100
AcDbLine
 62
40
  6
CONTINUOUS
 10
6.8483126638
 20
3.5300693314
 11
6.8733966482
 21
3.4498005814
  0
LINE
  5
37F
100
AcDbEntity
  8
0
100
AcDbLine
 62
7
  6
CONTINUOUS
 10
6.6504257621
 20
3.8276485763
 11
6.6504257621
 21
4.4786475865
  0
LINE
  5
380
100
AcDbEntity
  8
03__ASM_ALL_CURVES
100
AcDbLine
 62
40
  6
CONTINUOUS
 10
6.6718557621
 20
5.0386550814
 11
6.6718557621
 21
4.9958450814
  0
LINE
  5
381
100
AcDbEntity
  8
0
100
AcDbLine
 62
7
  6
CONTINUOUS
 10
6.7004257621
 20
3.8276485763
 11
6.7004257621
 21
4.4786475865
  0
LINE
  5
382
100
AcDbEntity
  8
0
100
AcDbLine
 62
7
  6
CONTINUOUS
 10
6.7130409858
 20
3.8816480814
 11
6.7130409858
 21
4.4246480814
  0
LINE
  5
383
100
AcDbEntity
  8
03__ASM_ALL_CURVES
100
AcDbLine
 62
40
  6
CONTINUOUS
 10
6.7146657627
 20
5.1670850814
 11
6.7146657627
 21
5.0600600814
  0
LINE
  5
384
100
AcDbEntity
  8
0
100
AcDbLine
 62
7
  6
CONTINUOUS
 10
6.7222333739
 20
4.4284556932
 11
6.7222333739
 21
3.8778404695
  0
LINE
  5
385
100
AcDbEntity
  8
0
100
AcDbLine
 62
7
  6
CONTINUOUS
 10
6.7554257621
 20
4.4616480814
 11
6.7554257621
 21
3.8446480814
  0
LINE
  5
386
100
AcDbEntity
  8
03__ASM_ALL_CURVES
100
AcDbLine
 62
40
  6
CONTINUOUS
 10
6.8885813877
 20
5.1135725814
 11
6.8818923252
 21
5.0868163314
  0
LINE
  5
387
100
AcDbEntity
  8
03__ASM_ALL_CURVES
100
AcDbLine
 62
40
  6
CONTINUOUS
 10
6.9153376377
 20
5.1135725814
 11
6.9220267002
 21
5.1403288314
  0
LINE
  5
388
100
AcDbEntity
  8
03__ASM_ALL_CURVES
100
AcDbLine
 62
40
  6
CONTINUOUS
 10
7.0290517002
 20
5.0600600814
 11
7.0624970127
 21
5.1670850814
  0
LINE
  5
389
100
AcDbEntity
  8
03__ASM_ALL_CURVES
100
AcDbLine
 62
40
  6
CONTINUOUS
 10
7.4571517002
 20
5.1403288314
 11
7.4705298252
 21
5.1581663335
  0
LINE
  5
38A
100
AcDbEntity
  8
03__ASM_ALL_CURVES
100
AcDbLine
 62
40
  6
CONTINUOUS
 10
7.5173532627
 20
5.0778975819
 11
7.5106642002
 21
5.0689788317
  0
LINE
  5
38B
100
AcDbEntity
  8
03__ASM_ALL_CURVES
100
AcDbLine
 62
40
  6
CONTINUOUS
 10
7.6845798252
 20
5.1581663335
 11
7.6778907627
 21
5.1492475793
  0
LINE
  5
38C
100
AcDbEntity
  8
03__ASM_ALL_CURVES
100
AcDbLine
 62
40
  6
CONTINUOUS
 10
3.1328557621
 20
5.0279525814
 11
3.0044257621
 21
5.0172500814
  0
LINE
  5
38D
100
AcDbEntity
  8
03__ASM_ALL_CURVES
100
AcDbLine
 62
40
  6
CONTINUOUS
 10
3.1328557621
 20
5.0243850814
 11
3.0044257621
 21
5.0172500814
  0
LINE
  5
38E
100
AcDbEntity
  8
03__ASM_ALL_CURVES
100
AcDbLine
 62
40
  6
CONTINUOUS
 10
7.0424298252
 20
5.0957350825
 11
7.0825642002
 21
5.0957350825
  0
LINE
  5
38F
100
AcDbEntity
  8
03__ASM_ALL_CURVES
100
AcDbLine
 62
40
  6
CONTINUOUS
 10
8.4605110752
 20
5.1135725814
 11
8.4270657627
 21
5.1135725814
  0
LINE
  5
390
100
AcDbEntity
  8
03__ASM_ALL_CURVES
100
AcDbLine
 62
40
  6
CONTINUOUS
 10
7.4905970127
 20
5.1135725814
 11
7.5173532627
 21
5.1135725814
  0
LINE
  5
391
100
AcDbEntity
  8
03__ASM_ALL_CURVES
100
AcDbLine
 62
40
  6
CONTINUOUS
 10
7.7849157627
 20
5.1135725814
 11
7.8384282627
 21
5.1135725814
  0
LINE
  5
392
100
AcDbEntity
  8
03__ASM_ALL_CURVES
100
AcDbLine
 62
40
  6
CONTINUOUS
 10
8.3200407627
 20
5.1135725814
 11
8.3534860752
 21
5.1135725814
  0
LINE
  5
393
100
AcDbEntity
  8
03__ASM_ALL_CURVES
100
AcDbLine
 62
40
  6
CONTINUOUS
 10
4.2321116996
 20
5.1224913293
 11
4.2454898246
 21
5.1224913293
  0
LINE
  5
394
100
AcDbEntity
  8
03__ASM_ALL_CURVES
100
AcDbLine
 62
40
  6
CONTINUOUS
 10
4.5531866996
 20
5.1224913293
 11
4.5665648246
 21
5.1224913293
  0
LINE
  5
395
100
AcDbEntity
  8
03__ASM_ALL_CURVES
100
AcDbLine
 62
40
  6
CONTINUOUS
 10
4.7672366996
 20
5.1224913293
 11
4.7806148246
 21
5.1224913293
  0
LINE
  5
396
100
AcDbEntity
  8
03__ASM_ALL_CURVES
100
AcDbLine
 62
40
  6
CONTINUOUS
 10
4.4461616996
 20
5.1314100835
 11
4.4595398246
 21
5.1314100835
  0
LINE
  5
397
100
AcDbEntity
  8
03__ASM_ALL_CURVES
100
AcDbLine
 62
40
  6
CONTINUOUS
 10
7.7113360752
 20
5.1670850814
 11
7.6979579502
 21
5.1670850814
  0
LINE
  5
398
100
AcDbEntity
  8
03__ASM_ALL_CURVES
100
AcDbLine
 62
40
  6
CONTINUOUS
 10
4.4796070121
 20
5.1670850814
 11
4.4394726371
 21
5.1670850814
  0
LINE
  5
399
100
AcDbEntity
  8
03__ASM_ALL_CURVES
100
AcDbLine
 62
40
  6
CONTINUOUS
 10
4.2321116996
 20
5.1670850814
 11
4.2454898246
 21
5.1670850814
  0
LINE
  5
39A
100
AcDbEntity
  8
03__ASM_ALL_CURVES
100
AcDbLine
 62
40
  6
CONTINUOUS
 10
4.5531866996
 20
5.1670850814
 11
4.5665648246
 21
5.1670850814
  0
LINE
  5
39B
100
AcDbEntity
  8
03__ASM_ALL_CURVES
100
AcDbLine
 62
40
  6
CONTINUOUS
 10
4.7672366996
 20
5.1670850814
 11
4.7806148246
 21
5.1670850814
  0
LINE
  5
39C
100
AcDbEntity
  8
03__ASM_ALL_CURVES
100
AcDbLine
 62
40
  6
CONTINUOUS
 10
6.8417579502
 20
5.1670850814
 11
6.8551360752
 21
5.1670850814
  0
LINE
  5
39D
100
AcDbEntity
  8
03__ASM_ALL_CURVES
100
AcDbLine
 62
40
  6
CONTINUOUS
 10
6.9487829502
 20
5.1670850814
 11
6.9621610752
 21
5.1670850814
  0
LINE
  5
39E
100
AcDbEntity
  8
03__ASM_ALL_CURVES
100
AcDbLine
 62
40
  6
CONTINUOUS
 10
7.1360767002
 20
5.1670850814
 11
7.2029673252
 21
5.1670850814
  0
LINE
  5
39F
100
AcDbEntity
  8
03__ASM_ALL_CURVES
100
AcDbLine
 62
40
  6
CONTINUOUS
 10
7.4839079502
 20
5.1670850814
 11
7.4972860752
 21
5.1670850814
  0
LINE
  5
3A0
100
AcDbEntity
  8
03__ASM_ALL_CURVES
100
AcDbLine
 62
40
  6
CONTINUOUS
 10
7.9120079502
 20
5.1670850814
 11
7.9253860752
 21
5.1670850814
  0
LINE
  5
3A1
100
AcDbEntity
  8
03__ASM_ALL_CURVES
100
AcDbLine
 62
40
  6
CONTINUOUS
 10
8.2130157627
 20
5.1670850814
 11
8.2397720127
 21
5.1670850814
  0
LINE
  5
3A2
100
AcDbEntity
  8
03__ASM_ALL_CURVES
100
AcDbLine
 62
40
  6
CONTINUOUS
 10
8.3200407627
 20
5.1670850814
 11
8.3735532627
 21
5.1670850814
  0
LINE
  5
3A3
100
AcDbEntity
  8
03__ASM_ALL_CURVES
100
AcDbLine
 62
40
  6
CONTINUOUS
 10
8.4270657627
 20
5.1670850814
 11
8.4605110752
 21
5.1670850814
  0
LINE
  5
3A4
100
AcDbEntity
  8
03__ASM_ALL_CURVES
100
AcDbLine
 62
40
  6
CONTINUOUS
 10
6.4149957621
 20
5.0350875814
 11
6.6718557621
 21
4.9994125814
  0
LINE
  5
3A5
100
AcDbEntity
  8
03__ASM_ALL_CURVES
100
AcDbLine
 62
40
  6
CONTINUOUS
 10
6.6718557621
 20
4.9958450814
 11
6.4149957621
 21
5.0386550814
  0
LINE
  5
3A6
100
AcDbEntity
  8
03__ASM_ALL_CURVES
100
AcDbLine
 62
40
  6
CONTINUOUS
 10
7.6427449032
 20
4.1745530814
 11
7.6327113094
 21
4.1812421441
  0
LINE
  5
3A7
100
AcDbEntity
  8
03__ASM_ALL_CURVES
100
AcDbLine
 62
40
  6
CONTINUOUS
 10
7.5725097469
 20
4.2548218314
 11
7.5825433407
 21
4.2481327705
  0
LINE
  5
3A8
100
AcDbEntity
  8
03__ASM_ALL_CURVES
100
AcDbLine
 62
40
  6
CONTINUOUS
 10
7.6527784969
 20
4.2548218314
 11
7.6628120907
 21
4.2481327705
  0
LINE
  5
3A9
100
AcDbEntity
  8
0
100
AcDbLine
 62
7
  6
CONTINUOUS
 10
6.9414257621
 20
4.4246480814
 11
6.9044257621
 21
4.4616480814
  0
LINE
  5
3AA
100
AcDbEntity
  8
03__ASM_ALL_CURVES
100
AcDbLine
 62
40
  6
CONTINUOUS
 10
7.0364425506
 20
3.6130137064
 11
7.0514929413
 21
3.5728793314
  0
LINE
  5
3AB
100
AcDbEntity
  8
03__ASM_ALL_CURVES
100
AcDbLine
 62
40
  6
CONTINUOUS
 10
6.9536653982
 20
3.5300693314
 11
6.9787493826
 21
3.4498005814
  0
LINE
  5
3AC
100
AcDbEntity
  8
03__ASM_ALL_CURVES
100
AcDbLine
 62
40
  6
CONTINUOUS
 10
7.0891189138
 20
3.5300693314
 11
7.1142028982
 21
3.4498005814
  0
LINE
  5
3AD
100
AcDbEntity
  8
03__ASM_ALL_CURVES
100
AcDbLine
 62
40
  6
CONTINUOUS
 10
6.9260730194
 20
3.5929465189
 11
6.9210562225
 21
3.6130137064
  0
LINE
  5
3AE
100
AcDbEntity
  8
03__ASM_ALL_CURVES
100
AcDbLine
 62
40
  6
CONTINUOUS
 10
6.9762409881
 20
3.6330808939
 11
6.981257785
 21
3.6130137064
  0
LINE
  5
3AF
100
AcDbEntity
  8
03__ASM_ALL_CURVES
100
AcDbLine
 62
40
  6
CONTINUOUS
 10
6.8508210663
 20
3.5728793314
 11
6.8508210663
 21
3.6531480814
  0
LINE
  5
3B0
100
AcDbEntity
  8
03__ASM_ALL_CURVES
100
AcDbLine
 62
40
  6
CONTINUOUS
 10
6.8909554413
 20
3.6397699548
 11
6.8909554413
 21
3.626391833
  0
LINE
  5
3B1
100
AcDbEntity
  8
0
100
AcDbLine
 62
7
  6
CONTINUOUS
 10
6.9044257621
 20
3.8446480814
 11
6.9044257621
 21
4.4616480814
  0
LINE
  5
3B2
100
AcDbEntity
  8
0
100
AcDbLine
 62
7
  6
CONTINUOUS
 10
6.9414257621
 20
3.8816525627
 11
6.9414257621
 21
4.4246436001
  0
LINE
  5
3B3
100
AcDbEntity
  8
0
100
AcDbLine
 62
7
  6
CONTINUOUS
 10
6.9964257621
 20
4.1069890985
 11
6.9964257621
 21
4.1993191927
  0
LINE
  5
3B4
100
AcDbEntity
  8
03__ASM_ALL_CURVES
100
AcDbLine
 62
40
  6
CONTINUOUS
 10
7.7314032627
 20
5.0778975819
 11
7.7247142002
 21
5.0689788317
  0
LINE
  5
3B5
100
AcDbEntity
  8
03__ASM_ALL_CURVES
100
AcDbLine
 62
40
  6
CONTINUOUS
 10
7.8852517002
 20
5.1403288314
 11
7.8986298252
 21
5.1581663335
  0
LINE
  5
3B6
100
AcDbEntity
  8
0
100
AcDbLine
 62
7
  6
CONTINUOUS
 10
6.9414257621
 20
3.8816480814
 11
6.9044257621
 21
3.8446480814
  0
LINE
  5
3B7
100
AcDbEntity
  8
03__ASM_ALL_CURVES
100
AcDbLine
 62
40
  6
CONTINUOUS
 10
7.5825433407
 20
4.2213765173
 11
7.5725097469
 21
4.2146874564
  0
LINE
  5
3B8
100
AcDbEntity
  8
03__ASM_ALL_CURVES
100
AcDbLine
 62
40
  6
CONTINUOUS
 10
7.6327113094
 20
4.2481327705
 11
7.6427449032
 21
4.2548218314
  0
LINE
  5
3B9
100
AcDbEntity
  8
03__ASM_ALL_CURVES
100
AcDbLine
 62
40
  6
CONTINUOUS
 10
7.6628120907
 20
4.1812421441
 11
7.6527784969
 21
4.1745530814
  0
LINE
  5
3BA
100
AcDbEntity
  8
03__ASM_ALL_CURVES
100
AcDbLine
 62
40
  6
CONTINUOUS
 10
7.7430808407
 20
4.2213765173
 11
7.7330472469
 21
4.2146874564
  0
LINE
  5
3BB
100
AcDbEntity
  8
03__ASM_ALL_CURVES
100
AcDbLine
 62
40
  6
CONTINUOUS
 10
6.8859386444
 20
3.6197027673
 11
6.8759050506
 21
3.6130137064
  0
LINE
  5
3BC
100
AcDbEntity
  8
03__ASM_ALL_CURVES
100
AcDbLine
 62
40
  6
CONTINUOUS
 10
6.9361066131
 20
3.6464590205
 11
6.9461402069
 21
3.6531480814
  0
LINE
  5
3BD
100
AcDbEntity
  8
03__ASM_ALL_CURVES
100
AcDbLine
 62
40
  6
CONTINUOUS
 10
3.0044257621
 20
5.0172500814
 11
3.1328557621
 21
5.0386550814
  0
LINE
  5
3BE
100
AcDbEntity
  8
03__ASM_ALL_CURVES
100
AcDbLine
 62
40
  6
CONTINUOUS
 10
3.1328557621
 20
5.0350875814
 11
3.0044257621
 21
5.0172500814
  0
LINE
  5
3BF
100
AcDbEntity
  8
03__ASM_ALL_CURVES
100
AcDbLine
 62
40
  6
CONTINUOUS
 10
3.1328557621
 20
5.0315200814
 11
3.0044257621
 21
5.0172500814
  0
LINE
  5
3C0
100
AcDbEntity
  8
03__ASM_ALL_CURVES
100
AcDbLine
 62
40
  6
CONTINUOUS
 10
7.7330472469
 20
4.2548218314
 11
7.7430808407
 21
4.2481327705
  0
LINE
  5
3C1
100
AcDbEntity
  8
0
100
AcDbLine
 62
7
  6
CONTINUOUS
 10
7.2854257621
 20
4.3606480814
 11
7.2754257621
 21
4.3706480814
  0
LINE
  5
3C2
100
AcDbEntity
  8
03__ASM_ALL_CURVES
100
AcDbLine
 62
40
  6
CONTINUOUS
 10
6.8150017002
 20
5.0868163314
 11
6.8083126377
 21
5.1135725814
  0
LINE
  5
3C3
100
AcDbEntity
  8
0
100
AcDbLine
 62
7
  6
CONTINUOUS
 10
7.0014257621
 20
4.107532706
 11
7.0014257621
 21
4.198745486
  0
LINE
  5
3C4
100
AcDbEntity
  8
03__ASM_ALL_CURVES
100
AcDbLine
 62
40
  6
CONTINUOUS
 10
7.0113585663
 20
3.5728793314
 11
7.0113585663
 21
3.6531480814
  0
LINE
  5
3C5
100
AcDbEntity
  8
03__ASM_ALL_CURVES
100
AcDbLine
 62
40
  6
CONTINUOUS
 10
7.0138669607
 20
3.5300693314
 11
7.0138669607
 21
3.4498005814
  0
LINE
  5
3C6
100
AcDbEntity
  8
03__ASM_ALL_CURVES
100
AcDbLine
 62
40
  6
CONTINUOUS
 10
7.0514929413
 20
3.6397699548
 11
7.0514929413
 21
3.626391833
  0
LINE
  5
3C7
100
AcDbEntity
  8
03__ASM_ALL_CURVES
100
AcDbLine
 62
40
  6
CONTINUOUS
 10
7.1116945038
 20
3.6531480814
 11
7.1116945038
 21
3.5728793314
  0
LINE
  5
3C8
100
AcDbEntity
  8
0
100
AcDbLine
 62
7
  6
CONTINUOUS
 10
7.1654257621
 20
3.9356480814
 11
7.1654257621
 21
4.3706480814
  0
LINE
  5
3C9
100
AcDbEntity
  8
03__ASM_ALL_CURVES
100
AcDbLine
 62
40
  6
CONTINUOUS
 10
7.1695220127
 20
5.1670850814
 11
7.1695220127
 21
5.0600600814
  0
LINE
  5
3CA
100
AcDbEntity
  8
0
100
AcDbLine
 62
7
  6
CONTINUOUS
 10
7.1704257621
 20
4.3656480814
 11
7.1704257621
 21
3.9406482297
  0
LINE
  5
3CB
100
AcDbEntity
  8
03__ASM_ALL_CURVES
100
AcDbLine
 62
40
  6
CONTINUOUS
 10
7.1744044607
 20
3.4498005814
 11
7.1744044607
 21
3.5300693314
  0
LINE
  5
3CC
100
AcDbEntity
  8
03__ASM_ALL_CURVES
100
AcDbLine
 62
40
  6
CONTINUOUS
 10
6.9210562225
 20
3.6130137064
 11
6.9260730194
 21
3.6330808939
  0
LINE
  5
3CD
100
AcDbEntity
  8
03__ASM_ALL_CURVES
100
AcDbLine
 62
40
  6
CONTINUOUS
 10
6.981257785
 20
3.6130137064
 11
6.9762409881
 21
3.5929465189
  0
LINE
  5
3CE
100
AcDbEntity
  8
03__ASM_ALL_CURVES
100
AcDbLine
 62
40
  6
CONTINUOUS
 10
6.8733966482
 20
3.4498005814
 11
6.8984806326
 21
3.5300693314
  0
LINE
  5
3CF
100
AcDbEntity
  8
03__ASM_ALL_CURVES
100
AcDbLine
 62
40
  6
CONTINUOUS
 10
6.9285814138
 20
3.4498005814
 11
6.9536653982
 21
3.5300693314
  0
LINE
  5
3D0
100
AcDbEntity
  8
03__ASM_ALL_CURVES
100
AcDbLine
 62
40
  6
CONTINUOUS
 10
7.9521423252
 20
5.0868163314
 11
7.9387642002
 21
5.0689788317
  0
LINE
  5
3D1
100
AcDbEntity
  8
03__ASM_ALL_CURVES
100
AcDbLine
 62
40
  6
CONTINUOUS
 10
6.8909554413
 20
3.626391833
 11
6.8859386444
 21
3.6197027673
  0
LINE
  5
3D2
100
AcDbEntity
  8
03__ASM_ALL_CURVES
100
AcDbLine
 62
40
  6
CONTINUOUS
 10
6.9260730194
 20
3.6330808939
 11
6.9361066131
 21
3.6464590205
  0
LINE
  5
3D3
100
AcDbEntity
  8
03__ASM_ALL_CURVES
100
AcDbLine
 62
40
  6
CONTINUOUS
 10
8.0524782627
 20
5.0778975819
 11
8.0457892002
 21
5.0689788317
  0
LINE
  5
3D4
100
AcDbEntity
  8
03__ASM_ALL_CURVES
100
AcDbLine
 62
40
  6
CONTINUOUS
 10
6.9762409881
 20
3.5929465189
 11
6.9662073944
 21
3.5795683941
  0
LINE
  5
3D5
100
AcDbEntity
  8
0
100
AcDbLine
 62
7
  6
CONTINUOUS
 10
7.2854257621
 20
3.9456480814
 11
7.2754257621
 21
3.9356480814
  0
LINE
  5
3D6
100
AcDbEntity
  8
03__ASM_ALL_CURVES
100
AcDbLine
 62
40
  6
CONTINUOUS
 10
6.9662073944
 20
3.5795683941
 11
6.9561738006
 21
3.5728793314
  0
LINE
  5
3D7
100
AcDbEntity
  8
03__ASM_ALL_CURVES
100
AcDbLine
 62
40
  6
CONTINUOUS
 10
7.0464761444
 20
3.6197027673
 11
7.0364425506
 21
3.6130137064
  0
LINE
  5
3D8
100
AcDbEntity
  8
03__ASM_ALL_CURVES
100
AcDbLine
 62
40
  6
CONTINUOUS
 10
7.1769128631
 20
3.6464590205
 11
7.1869464569
 21
3.6531480814
  0
LINE
  5
3D9
100
AcDbEntity
  8
03__ASM_ALL_CURVES
100
AcDbLine
 62
40
  6
CONTINUOUS
 10
7.2070136444
 20
3.6197027673
 11
7.1869464569
 21
3.6063246431
  0
LINE
  5
3DA
100
AcDbEntity
  8
03__ASM_ALL_CURVES
100
AcDbLine
 62
40
  6
CONTINUOUS
 10
6.8417579502
 20
5.0600600814
 11
6.8283798252
 21
5.0689788317
  0
LINE
  5
3DB
100
AcDbEntity
  8
03__ASM_ALL_CURVES
100
AcDbLine
 62
40
  6
CONTINUOUS
 10
6.9487829502
 20
5.0600600814
 11
6.9354048252
 21
5.0689788317
  0
LINE
  5
3DC
100
AcDbEntity
  8
03__ASM_ALL_CURVES
100
AcDbLine
 62
40
  6
CONTINUOUS
 10
6.8551360752
 20
5.1670850814
 11
6.8685142002
 21
5.1581663335
  0
LINE
  5
3DD
100
AcDbEntity
  8
03__ASM_ALL_CURVES
100
AcDbLine
 62
40
  6
CONTINUOUS
 10
6.9621610752
 20
5.1670850814
 11
6.9755392002
 21
5.1581663335
  0
LINE
  5
3DE
100
AcDbEntity
  8
03__ASM_ALL_CURVES
100
AcDbLine
 62
40
  6
CONTINUOUS
 10
6.8283798252
 20
5.0689788317
 11
6.8150017002
 21
5.0868163314
  0
LINE
  5
3DF
100
AcDbEntity
  8
03__ASM_ALL_CURVES
100
AcDbLine
 62
40
  6
CONTINUOUS
 10
6.9354048252
 20
5.0689788317
 11
6.9220267002
 21
5.0868163314
  0
LINE
  5
3E0
100
AcDbEntity
  8
03__ASM_ALL_CURVES
100
AcDbLine
 62
40
  6
CONTINUOUS
 10
6.8685142002
 20
5.1581663335
 11
6.8818923252
 21
5.1403288314
  0
LINE
  5
3E1
100
AcDbEntity
  8
03__ASM_ALL_CURVES
100
AcDbLine
 62
40
  6
CONTINUOUS
 10
6.8818923252
 20
5.1403288314
 11
6.8885813877
 21
5.1135725814
  0
LINE
  5
3E2
100
AcDbEntity
  8
03__ASM_ALL_CURVES
100
AcDbLine
 62
40
  6
CONTINUOUS
 10
6.9220267002
 20
5.0868163314
 11
6.9153376377
 21
5.1135725814
  0
LINE
  5
3E3
100
AcDbEntity
  8
03__ASM_ALL_CURVES
100
AcDbLine
 62
40
  6
CONTINUOUS
 10
7.2120304413
 20
3.6397699548
 11
7.2120304413
 21
3.626391833
  0
LINE
  5
3E4
100
AcDbEntity
  8
0
100
AcDbLine
 62
7
  6
CONTINUOUS
 10
7.2204257621
 20
4.3361480814
 11
7.2204257621
 21
3.9701480814
  0
LINE
  5
3E5
100
AcDbEntity
  8
0
100
AcDbLine
 62
7
  6
CONTINUOUS
 10
7.2264257621
 20
3.9789414934
 11
7.2264257621
 21
4.3273546694
  0
LINE
  5
3E6
100
AcDbEntity
  8
0
100
AcDbLine
 62
7
  6
CONTINUOUS
 10
7.2354257621
 20
4.3656479383
 11
7.2354257621
 21
3.9406482245
  0
LINE
  5
3E7
100
AcDbEntity
  8
0
100
AcDbLine
 62
7
  6
CONTINUOUS
 10
7.2404257621
 20
4.3706480814
 11
7.2404257621
 21
3.9356480814
  0
LINE
  5
3E8
100
AcDbEntity
  8
0
100
AcDbLine
 62
7
  6
CONTINUOUS
 10
7.2754257621
 20
3.9356480814
 11
7.2754257621
 21
4.3706480814
  0
LINE
  5
3E9
100
AcDbEntity
  8
03__ASM_ALL_CURVES
100
AcDbLine
 62
40
  6
CONTINUOUS
 10
7.2765470127
 20
5.1670850814
 11
7.2765470127
 21
5.0600600814
  0
LINE
  5
3EA
100
AcDbEntity
  8
0
100
AcDbLine
 62
7
  6
CONTINUOUS
 10
7.2854257621
 20
3.9456480814
 11
7.2854257621
 21
4.3606480814
  0
LINE
  5
3EB
100
AcDbEntity
  8
03__ASM_ALL_CURVES
100
AcDbLine
 62
40
  6
CONTINUOUS
 10
7.3568157627
 20
5.0600600814
 11
7.3568157627
 21
5.1670850814
  0
LINE
  5
3EC
100
AcDbEntity
  8
03__ASM_ALL_CURVES
100
AcDbLine
 62
40
  6
CONTINUOUS
 10
7.4504626377
 20
5.1135725814
 11
7.4571517002
 21
5.1403288314
  0
LINE
  5
3ED
100
AcDbEntity
  8
03__ASM_ALL_CURVES
100
AcDbLine
 62
40
  6
CONTINUOUS
 10
7.1769128631
 20
3.5929465189
 11
7.1718960663
 21
3.5728793314
  0
LINE
  5
3EE
100
AcDbEntity
  8
03__ASM_ALL_CURVES
100
AcDbLine
 62
40
  6
CONTINUOUS
 10
7.1142028982
 20
3.4498005814
 11
7.1392868826
 21
3.5300693314
  0
LINE
  5
3EF
100
AcDbEntity
  8
03__ASM_ALL_CURVES
100
AcDbLine
 62
40
  6
CONTINUOUS
 10
7.0514929413
 20
3.626391833
 11
7.0464761444
 21
3.6197027673
  0
LINE
  5
3F0
100
AcDbEntity
  8
03__ASM_ALL_CURVES
100
AcDbLine
 62
40
  6
CONTINUOUS
 10
7.5875601375
 20
4.228065583
 11
7.5825433407
 21
4.2213765173
  0
LINE
  5
3F1
100
AcDbEntity
  8
03__ASM_ALL_CURVES
100
AcDbLine
 62
40
  6
CONTINUOUS
 10
7.1718960663
 20
3.6397699548
 11
7.1769128631
 21
3.6464590205
  0
LINE
  5
3F2
100
AcDbEntity
  8
03__ASM_ALL_CURVES
100
AcDbLine
 62
40
  6
CONTINUOUS
 10
7.6226777157
 20
4.2347546439
 11
7.6327113094
 21
4.2481327705
  0
LINE
  5
3F3
100
AcDbEntity
  8
03__ASM_ALL_CURVES
100
AcDbLine
 62
40
  6
CONTINUOUS
 10
8.2665282627
 20
5.0868163314
 11
8.2531501377
 21
5.0689788317
  0
LINE
  5
3F4
100
AcDbEntity
  8
03__ASM_ALL_CURVES
100
AcDbLine
 62
40
  6
CONTINUOUS
 10
7.1869464569
 20
3.6063246431
 11
7.1769128631
 21
3.5929465189
  0
LINE
  5
3F5
100
AcDbEntity
  8
03__ASM_ALL_CURVES
100
AcDbLine
 62
40
  6
CONTINUOUS
 10
7.2120304413
 20
3.626391833
 11
7.2070136444
 21
3.6197027673
  0
LINE
  5
3F6
100
AcDbEntity
  8
03__ASM_ALL_CURVES
100
AcDbLine
 62
40
  6
CONTINUOUS
 10
7.6728456844
 20
4.1946202689
 11
7.6628120907
 21
4.1812421441
  0
LINE
  5
3F7
100
AcDbEntity
  8
03__ASM_ALL_CURVES
100
AcDbLine
 62
40
  6
CONTINUOUS
 10
7.4839079502
 20
5.0600600814
 11
7.4705298252
 21
5.0689788317
  0
LINE
  5
3F8
100
AcDbEntity
  8
03__ASM_ALL_CURVES
100
AcDbLine
 62
40
  6
CONTINUOUS
 10
7.6327113094
 20
4.1812421441
 11
7.6226777157
 21
4.1946202689
  0
LINE
  5
3F9
100
AcDbEntity
  8
03__ASM_ALL_CURVES
100
AcDbLine
 62
40
  6
CONTINUOUS
 10
7.5825433407
 20
4.2481327705
 11
7.5875601375
 21
4.2414437048
  0
LINE
  5
3FA
100
AcDbEntity
  8
03__ASM_ALL_CURVES
100
AcDbLine
 62
40
  6
CONTINUOUS
 10
6.9755392002
 20
5.1581663335
 11
6.9822282627
 21
5.1492475793
  0
LINE
  5
3FB
100
AcDbEntity
  8
03__ASM_ALL_CURVES
100
AcDbLine
 62
40
  6
CONTINUOUS
 10
7.6628120907
 20
4.2481327705
 11
7.6728456844
 21
4.2347546439
  0
LINE
  5
3FC
100
AcDbEntity
  8
03__ASM_ALL_CURVES
100
AcDbLine
 62
40
  6
CONTINUOUS
 10
7.7430808407
 20
4.2481327705
 11
7.7480976375
 21
4.2414437048
  0
LINE
  5
3FD
100
AcDbEntity
  8
03__ASM_ALL_CURVES
100
AcDbLine
 62
40
  6
CONTINUOUS
 10
7.0624970127
 20
5.1670850814
 11
7.0959423252
 21
5.0600600814
  0
LINE
  5
3FE
100
AcDbEntity
  8
03__ASM_ALL_CURVES
100
AcDbLine
 62
40
  6
CONTINUOUS
 10
7.4103282627
 20
5.0600600814
 11
7.4103282627
 21
5.1670850814
  0
LINE
  5
3FF
100
AcDbEntity
  8
03__ASM_ALL_CURVES
100
AcDbLine
 62
40
  6
CONTINUOUS
 10
7.5173532627
 20
5.1135725814
 11
7.5173532627
 21
5.0778975819
  0
LINE
  5
400
100
AcDbEntity
  8
03__ASM_ALL_CURVES
100
AcDbLine
 62
40
  6
CONTINUOUS
 10
7.5474257625
 20
4.1745530814
 11
7.5474257625
 21
4.2548218314
  0
LINE
  5
401
100
AcDbEntity
  8
03__ASM_ALL_CURVES
100
AcDbLine
 62
40
  6
CONTINUOUS
 10
7.6176609188
 20
4.2146874564
 11
7.6226777157
 21
4.2347546439
  0
LINE
  5
402
100
AcDbEntity
  8
03__ASM_ALL_CURVES
100
AcDbLine
 62
40
  6
CONTINUOUS
 10
7.5725097463
 20
4.0514743314
 11
7.5975937307
 21
4.1317430814
  0
LINE
  5
403
100
AcDbEntity
  8
03__ASM_ALL_CURVES
100
AcDbLine
 62
40
  6
CONTINUOUS
 10
7.7480976375
 20
4.228065583
 11
7.7430808407
 21
4.2213765173
  0
LINE
  5
404
100
AcDbEntity
  8
03__ASM_ALL_CURVES
100
AcDbLine
 62
40
  6
CONTINUOUS
 10
8.4805782627
 20
5.1314100835
 11
8.4738892002
 21
5.1224913293
  0
LINE
  5
405
100
AcDbEntity
  8
03__ASM_ALL_CURVES
100
AcDbLine
 62
40
  6
CONTINUOUS
 10
7.4972860752
 20
5.1670850814
 11
7.5106642002
 21
5.1581663335
  0
LINE
  5
406
100
AcDbEntity
  8
03__ASM_ALL_CURVES
100
AcDbLine
 62
40
  6
CONTINUOUS
 10
7.6979579502
 20
5.0600600814
 11
7.6845798252
 21
5.0689788317
  0
LINE
  5
407
100
AcDbEntity
  8
03__ASM_ALL_CURVES
100
AcDbLine
 62
40
  6
CONTINUOUS
 10
7.6845798252
 20
5.1314100835
 11
7.7247142002
 21
5.1046538303
  0
LINE
  5
408
100
AcDbEntity
  8
03__ASM_ALL_CURVES
100
AcDbLine
 62
40
  6
CONTINUOUS
 10
7.3568157627
 20
5.1670850814
 11
7.4103282627
 21
5.0600600814
  0
LINE
  5
409
100
AcDbEntity
  8
03__ASM_ALL_CURVES
100
AcDbLine
 62
40
  6
CONTINUOUS
 10
7.7330472469
 20
4.2146874564
 11
7.7480976375
 21
4.1745530814
  0
LINE
  5
40A
100
AcDbEntity
  8
03__ASM_ALL_CURVES
100
AcDbLine
 62
40
  6
CONTINUOUS
 10
7.547425762
 20
4.1317430814
 11
7.5725097463
 21
4.0514743314
  0
LINE
  5
40B
100
AcDbEntity
  8
03__ASM_ALL_CURVES
100
AcDbLine
 62
40
  6
CONTINUOUS
 10
7.6527784963
 20
4.1317430814
 11
7.6778624807
 21
4.0514743314
  0
LINE
  5
40C
100
AcDbEntity
  8
03__ASM_ALL_CURVES
100
AcDbLine
 62
40
  6
CONTINUOUS
 10
7.6226777157
 20
4.1946202689
 11
7.6176609188
 21
4.2146874564
  0
LINE
  5
40D
100
AcDbEntity
  8
03__ASM_ALL_CURVES
100
AcDbLine
 62
40
  6
CONTINUOUS
 10
7.5875601375
 20
4.2414437048
 11
7.5875601375
 21
4.228065583
  0
LINE
  5
40E
100
AcDbEntity
  8
03__ASM_ALL_CURVES
100
AcDbLine
 62
40
  6
CONTINUOUS
 10
7.6778907627
 20
5.1492475793
 11
7.6778907627
 21
5.1403288314
  0
LINE
  5
40F
100
AcDbEntity
  8
03__ASM_ALL_CURVES
100
AcDbLine
 62
40
  6
CONTINUOUS
 10
7.7079632625
 20
4.1745530814
 11
7.7079632625
 21
4.2548218314
  0
LINE
  5
410
100
AcDbEntity
  8
03__ASM_ALL_CURVES
100
AcDbLine
 62
40
  6
CONTINUOUS
 10
7.7129800588
 20
4.1317430814
 11
7.7129800588
 21
4.0514743314
  0
LINE
  5
411
100
AcDbEntity
  8
03__ASM_ALL_CURVES
100
AcDbLine
 62
40
  6
CONTINUOUS
 10
7.7314032627
 20
5.0957350825
 11
7.7314032627
 21
5.0778975819
  0
LINE
  5
412
100
AcDbEntity
  8
03__ASM_ALL_CURVES
100
AcDbLine
 62
40
  6
CONTINUOUS
 10
7.7480976375
 20
4.2414437048
 11
7.7480976375
 21
4.228065583
  0
LINE
  5
413
100
AcDbEntity
  8
03__ASM_ALL_CURVES
100
AcDbLine
 62
40
  6
CONTINUOUS
 10
7.8785626377
 20
5.1135725814
 11
7.8852517002
 21
5.1403288314
  0
LINE
  5
414
100
AcDbEntity
  8
03__ASM_ALL_CURVES
100
AcDbLine
 62
40
  6
CONTINUOUS
 10
7.6778624813
 20
4.2146874564
 11
7.6728456844
 21
4.1946202689
  0
LINE
  5
415
100
AcDbEntity
  8
03__ASM_ALL_CURVES
100
AcDbLine
 62
40
  6
CONTINUOUS
 10
7.9588313877
 20
5.1135725814
 11
7.9521423252
 21
5.0868163314
  0
LINE
  5
416
100
AcDbEntity
  8
03__ASM_ALL_CURVES
100
AcDbLine
 62
40
  6
CONTINUOUS
 10
7.627694512
 20
4.0514743314
 11
7.6527784963
 21
4.1317430814
  0
LINE
  5
417
100
AcDbEntity
  8
03__ASM_ALL_CURVES
100
AcDbLine
 62
40
  6
CONTINUOUS
 10
7.7247142002
 20
5.1581663335
 11
7.7113360752
 21
5.1670850814
  0
LINE
  5
418
100
AcDbEntity
  8
03__ASM_ALL_CURVES
100
AcDbLine
 62
40
  6
CONTINUOUS
 10
7.9120079502
 20
5.0600600814
 11
7.8986298252
 21
5.0689788317
  0
LINE
  5
419
100
AcDbEntity
  8
03__ASM_ALL_CURVES
100
AcDbLine
 62
40
  6
CONTINUOUS
 10
8.0190329502
 20
5.0600600814
 11
8.0056548252
 21
5.0689788317
  0
LINE
  5
41A
100
AcDbEntity
  8
03__ASM_ALL_CURVES
100
AcDbLine
 62
40
  6
CONTINUOUS
 10
7.9253860752
 20
5.1670850814
 11
7.9387642002
 21
5.1581663335
  0
LINE
  5
41B
100
AcDbEntity
  8
03__ASM_ALL_CURVES
100
AcDbLine
 62
40
  6
CONTINUOUS
 10
7.4705298252
 20
5.0689788317
 11
7.4571517002
 21
5.0868163314
  0
LINE
  5
41C
100
AcDbEntity
  8
03__ASM_ALL_CURVES
100
AcDbLine
 62
40
  6
CONTINUOUS
 10
7.5106642002
 20
5.1581663335
 11
7.5173532627
 21
5.1492475793
  0
LINE
  5
41D
100
AcDbEntity
  8
03__ASM_ALL_CURVES
100
AcDbLine
 62
40
  6
CONTINUOUS
 10
7.6845798252
 20
5.0689788317
 11
7.6712017002
 21
5.0868163314
  0
LINE
  5
41E
100
AcDbEntity
  8
03__ASM_ALL_CURVES
100
AcDbLine
 62
40
  6
CONTINUOUS
 10
7.788232012
 20
4.1317430814
 11
7.8133159963
 21
4.0514743314
  0
LINE
  5
41F
100
AcDbEntity
  8
03__ASM_ALL_CURVES
100
AcDbLine
 62
40
  6
CONTINUOUS
 10
7.4571517002
 20
5.0868163314
 11
7.4504626377
 21
5.1135725814
  0
LINE
  5
420
100
AcDbEntity
  8
03__ASM_ALL_CURVES
100
AcDbLine
 62
40
  6
CONTINUOUS
 10
7.6728456844
 20
4.2347546439
 11
7.6778624813
 21
4.2146874564
  0
LINE
  5
421
100
AcDbEntity
  8
03__ASM_ALL_CURVES
100
AcDbLine
 62
40
  6
CONTINUOUS
 10
7.7849157627
 20
5.1670850814
 11
7.7849157627
 21
5.0600600814
  0
LINE
  5
422
100
AcDbEntity
  8
03__ASM_ALL_CURVES
100
AcDbLine
 62
40
  6
CONTINUOUS
 10
7.8082992
 20
4.2548218314
 11
7.8082992
 21
4.1745530814
  0
LINE
  5
423
100
AcDbEntity
  8
03__ASM_ALL_CURVES
100
AcDbLine
 62
40
  6
CONTINUOUS
 10
7.8384282627
 20
5.1670850814
 11
7.8384282627
 21
5.0600600814
  0
LINE
  5
424
100
AcDbEntity
  8
03__ASM_ALL_CURVES
100
AcDbLine
 62
40
  6
CONTINUOUS
 10
7.8735175588
 20
4.0514743314
 11
7.8735175588
 21
4.1317430814
  0
LINE
  5
425
100
AcDbEntity
  8
03__ASM_ALL_CURVES
100
AcDbLine
 62
40
  6
CONTINUOUS
 10
7.88856795
 20
4.2548218314
 11
7.88856795
 21
4.1745530814
  0
LINE
  5
426
100
AcDbEntity
  8
03__ASM_ALL_CURVES
100
AcDbLine
 62
40
  6
CONTINUOUS
 10
7.8133159963
 20
4.0514743314
 11
7.8383999807
 21
4.1317430814
  0
LINE
  5
427
100
AcDbEntity
  8
03__ASM_ALL_CURVES
100
AcDbLine
 62
40
  6
CONTINUOUS
 10
8.2397720127
 20
5.1670850814
 11
8.2531501377
 21
5.1581663335
  0
LINE
  5
428
100
AcDbEntity
  8
03__ASM_ALL_CURVES
100
AcDbLine
 62
40
  6
CONTINUOUS
 10
7.6778907627
 20
5.1403288314
 11
7.6845798252
 21
5.1314100835
  0
LINE
  5
429
100
AcDbEntity
  8
03__ASM_ALL_CURVES
100
AcDbLine
 62
40
  6
CONTINUOUS
 10
7.7247142002
 20
5.1046538303
 11
7.7314032627
 21
5.0957350825
  0
LINE
  5
42A
100
AcDbEntity
  8
03__ASM_ALL_CURVES
100
AcDbLine
 62
40
  6
CONTINUOUS
 10
7.7314032627
 20
5.1492475793
 11
7.7247142002
 21
5.1581663335
  0
LINE
  5
42B
100
AcDbEntity
  8
03__ASM_ALL_CURVES
100
AcDbLine
 62
40
  6
CONTINUOUS
 10
7.8986298252
 20
5.0689788317
 11
7.8852517002
 21
5.0868163314
  0
LINE
  5
42C
100
AcDbEntity
  8
03__ASM_ALL_CURVES
100
AcDbLine
 62
40
  6
CONTINUOUS
 10
7.9989657627
 20
5.0778975819
 11
7.9989657627
 21
5.1670850814
  0
LINE
  5
42D
100
AcDbEntity
  8
03__ASM_ALL_CURVES
100
AcDbLine
 62
40
  6
CONTINUOUS
 10
8.0524782627
 20
5.1670850814
 11
8.0524782627
 21
5.0778975819
  0
LINE
  5
42E
100
AcDbEntity
  8
03__ASM_ALL_CURVES
100
AcDbLine
 62
40
  6
CONTINUOUS
 10
8.1059907627
 20
5.1670850814
 11
8.1059907627
 21
5.0600600814
  0
LINE
  5
42F
100
AcDbEntity
  8
03__ASM_ALL_CURVES
100
AcDbLine
 62
40
  6
CONTINUOUS
 10
8.2732173252
 20
5.1135725814
 11
8.2665282627
 21
5.0868163314
  0
LINE
  5
430
100
AcDbEntity
  8
03__ASM_ALL_CURVES
100
AcDbLine
 62
40
  6
CONTINUOUS
 10
8.4605110752
 20
5.1670850814
 11
8.4738892002
 21
5.1581663335
  0
LINE
  5
431
100
AcDbEntity
  8
03__ASM_ALL_CURVES
100
AcDbLine
 62
40
  6
CONTINUOUS
 10
8.0056548252
 20
5.0689788317
 11
7.9989657627
 21
5.0778975819
  0
LINE
  5
432
100
AcDbEntity
  8
03__ASM_ALL_CURVES
100
AcDbLine
 62
40
  6
CONTINUOUS
 10
7.9387642002
 20
5.1581663335
 11
7.9521423252
 21
5.1403288314
  0
LINE
  5
433
100
AcDbEntity
  8
03__ASM_ALL_CURVES
100
AcDbLine
 62
40
  6
CONTINUOUS
 10
7.8852517002
 20
5.0868163314
 11
7.8785626377
 21
5.1135725814
  0
LINE
  5
434
100
AcDbEntity
  8
03__ASM_ALL_CURVES
100
AcDbLine
 62
40
  6
CONTINUOUS
 10
7.9521423252
 20
5.1403288314
 11
7.9588313877
 21
5.1135725814
  0
LINE
  5
435
100
AcDbEntity
  8
03__ASM_ALL_CURVES
100
AcDbLine
 62
40
  6
CONTINUOUS
 10
8.2130157627
 20
5.0600600814
 11
8.2130157627
 21
5.1670850814
  0
LINE
  5
436
100
AcDbEntity
  8
03__ASM_ALL_CURVES
100
AcDbLine
 62
40
  6
CONTINUOUS
 10
8.3200407627
 20
5.0600600814
 11
8.3200407627
 21
5.1670850814
  0
LINE
  5
437
100
AcDbEntity
  8
03__ASM_ALL_CURVES
100
AcDbLine
 62
40
  6
CONTINUOUS
 10
8.2531501377
 20
5.1581663335
 11
8.2665282627
 21
5.1403288314
  0
LINE
  5
438
100
AcDbEntity
  8
03__ASM_ALL_CURVES
100
AcDbLine
 62
40
  6
CONTINUOUS
 10
8.4270657627
 20
5.0600600814
 11
8.4270657627
 21
5.1670850814
  0
LINE
  5
439
100
AcDbEntity
  8
03__ASM_ALL_CURVES
100
AcDbLine
 62
40
  6
CONTINUOUS
 10
8.4805782627
 20
5.1492475793
 11
8.4805782627
 21
5.1314100835
  0
LINE
  5
43A
100
AcDbEntity
  8
03__ASM_ALL_CURVES
100
AcDbLine
 62
40
  6
CONTINUOUS
 10
8.4738892002
 20
5.1581663335
 11
8.4805782627
 21
5.1492475793
  0
LINE
  5
43B
100
AcDbEntity
  8
03__ASM_ALL_CURVES
100
AcDbLine
 62
40
  6
CONTINUOUS
 10
8.4605110752
 20
5.1135725814
 11
8.4805782627
 21
5.0600600814
  0
LINE
  5
43C
100
AcDbEntity
  8
03__ASM_ALL_CURVES
100
AcDbLine
 62
40
  6
CONTINUOUS
 10
8.2665282627
 20
5.1403288314
 11
8.2732173252
 21
5.1135725814
  0
CIRCLE
  5
43D
100
AcDbEntity
  8
0
100
AcDbCircle
 62
7
  6
CONTINUOUS
 10
6.9934257621
 20
4.1531480814
 40
0.0465
  0
ARC
  5
43E
100
AcDbEntity
  8
0
100
AcDbCircle
 62
7
  6
CONTINUOUS
 10
7.2104257621
 20
4.3361480814
 40
0.025
100
AcDbArc
 50
310.139696962
 51
360.0
  0
ARC
  5
43F
100
AcDbEntity
  8
0
100
AcDbCircle
 62
7
  6
CONTINUOUS
 10
7.2104257621
 20
3.9701480814
 40
0.025
100
AcDbArc
 50
0.0
 51
49.860303038
  0
ARC
  5
440
100
AcDbEntity
  8
0
100
AcDbCircle
 62
7
  6
CONTINUOUS
 10
6.7130409858
 20
3.8686480814
 40
0.013
100
AcDbArc
 50
44.9999999997
 51
90.0
  0
ARC
  5
441
100
AcDbEntity
  8
0
100
AcDbCircle
 62
7
  6
CONTINUOUS
 10
6.7130409858
 20
4.4376480814
 40
0.013
100
AcDbArc
 50
270.0
 51
315.0000000003
  0
ARC
  5
442
100
AcDbEntity
  8
0
100
AcDbCircle
 62
7
  6
CONTINUOUS
 10
7.1654257621
 20
4.3656480814
 40
0.005
100
AcDbArc
 50
0.0
 51
90.0
  0
ARC
  5
443
100
AcDbEntity
  8
0
100
AcDbCircle
 62
7
  6
CONTINUOUS
 10
7.1654257621
 20
3.9406480814
 40
0.005
100
AcDbArc
 50
270.0
 51
360.0
  0
ARC
  5
444
100
AcDbEntity
  8
0
100
AcDbCircle
 62
7
  6
CONTINUOUS
 10
7.2404257621
 20
3.9406480814
 40
0.005
100
AcDbArc
 50
180.0
 51
270.0
  0
ARC
  5
445
100
AcDbEntity
  8
0
100
AcDbCircle
 62
7
  6
CONTINUOUS
 10
7.2404257621
 20
4.3656480814
 40
0.005
100
AcDbArc
 50
90.0
 51
180.0
  0
ARC
  5
446
100
AcDbEntity
  8
0
100
AcDbCircle
 62
7
  6
CONTINUOUS
 10
6.5664161431
 20
3.8211480814
 40
0.005
100
AcDbArc
 50
90.0
 51
120.0000000001
  0
ARC
  5
447
100
AcDbEntity
  8
0
100
AcDbCircle
 62
7
  6
CONTINUOUS
 10
6.5484257621
 20
3.81076133
 40
0.005
100
AcDbArc
 50
120.0000000001
 51
180.0
  0
ARC
  5
448
100
AcDbEntity
  8
0
100
AcDbCircle
 62
7
  6
CONTINUOUS
 10
6.5484257621
 20
4.4955348327
 40
0.005
100
AcDbArc
 50
180.0
 51
239.9999999999
  0
ARC
  5
449
100
AcDbEntity
  8
0
100
AcDbCircle
 62
7
  6
CONTINUOUS
 10
6.5664161431
 20
4.4851480814
 40
0.005
100
AcDbArc
 50
239.9999999999
 51
270.0
  0
ARC
  5
44A
100
AcDbEntity
  8
0
100
AcDbCircle
 62
7
  6
CONTINUOUS
 10
6.5404257621
 20
4.5001480814
 40
0.003
100
AcDbArc
 50
0.0
 51
90.0
  0
ARC
  5
44B
100
AcDbEntity
  8
0
100
AcDbCircle
 62
7
  6
CONTINUOUS
 10
6.5404257621
 20
3.8061480814
 40
0.003
100
AcDbArc
 50
270.0
 51
360.0
  0
SPLINE
  5
44C
100
AcDbEntity
  8
0
100
AcDbSpline
 62
7
  6
CONTINUOUS
 70
0
 71
3
 72
15
 73
11
 74
9
 42
0.0000001
 43
0.0000001
 44
0.0000000001
 12
0.0
 22
0.0785292475
 32
0.0
 13
0.0
 23
-0.0785292475
 33
0.0
 40
0.0
 40
0.0
 40
0.0
 40
0.0
 40
0.125
 40
0.25
 40
0.375
 40
0.5
 40
0.625
 40
0.75
 40
0.875
 40
1.0
 40
1.0
 40
1.0
 40
1.0
 10
7.2204257621
 20
4.3361480814
 30
0.0
 10
7.2204257621
 20
4.3394201334
 30
0.0
 10
7.2191240589
 20
4.3459642373
 30
0.0
 10
7.2135636532
 20
4.3542859725
 30
0.0
 10
7.205241918
 20
4.3598463782
 30
0.0
 10
7.1954257621
 20
4.361798933
 30
0.0
 10
7.1856096061
 20
4.3598463782
 30
0.0
 10
7.177287871
 20
4.3542859725
 30
0.0
 10
7.1717274653
 20
4.3459642373
 30
0.0
 10
7.1704257621
 20
4.3394201334
 30
0.0
 10
7.1704257621
 20
4.3361480814
 30
0.0
 11
7.2204257621
 21
4.3361480814
 31
0.0
 11
7.2185227504
 21
4.3457151672
 31
0.0
 11
7.2131034316
 21
4.3538257509
 31
0.0
 11
7.2049928479
 21
4.3592450697
 31
0.0
 11
7.1954257621
 21
4.3611480814
 31
0.0
 11
7.1858586763
 21
4.3592450697
 31
0.0
 11
7.1777480925
 21
4.3538257509
 31
0.0
 11
7.1723287738
 21
4.3457151672
 31
0.0
 11
7.1704257621
 21
4.3361480814
 31
0.0
  0
SPLINE
  5
44D
100
AcDbEntity
  8
0
100
AcDbSpline
 62
7
  6
CONTINUOUS
 70
0
 71
3
 72
15
 73
11
 74
9
 42
0.0000001
 43
0.0000001
 44
0.0000000001
 12
0.0
 22
-0.0785292475
 32
0.0
 13
0.0
 23
0.0785292475
 33
0.0
 40
0.0
 40
0.0
 40
0.0
 40
0.0
 40
0.125
 40
0.25
 40
0.375
 40
0.5
 40
0.625
 40
0.75
 40
0.875
 40
1.0
 40
1.0
 40
1.0
 40
1.0
 10
7.2204257621
 20
3.9701480814
 30
0.0
 10
7.2204257621
 20
3.9668760294
 30
0.0
 10
7.2191240589
 20
3.9603319255
 30
0.0
 10
7.2135636532
 20
3.9520101903
 30
0.0
 10
7.205241918
 20
3.9464497846
 30
0.0
 10
7.1954257621
 20
3.9444972298
 30
0.0
 10
7.1856096061
 20
3.9464497846
 30
0.0
 10
7.177287871
 20
3.9520101903
 30
0.0
 10
7.1717274653
 20
3.9603319255
 30
0.0
 10
7.1704257621
 20
3.9668760294
 30
0.0
 10
7.1704257621
 20
3.9701480814
 30
0.0
 11
7.2204257621
 21
3.9701480814
 31
0.0
 11
7.2185227504
 21
3.9605809956
 31
0.0
 11
7.2131034316
 21
3.9524704119
 31
0.0
 11
7.2049928479
 21
3.9470510931
 31
0.0
 11
7.1954257621
 21
3.9451480814
 31
0.0
 11
7.1858586763
 21
3.9470510931
 31
0.0
 11
7.1777480925
 21
3.9524704119
 31
0.0
 11
7.1723287738
 21
3.9605809956
 31
0.0
 11
7.1704257621
 21
3.9701480814
 31
0.0
  0
SPLINE
  5
44E
100
AcDbEntity
  8
0
100
AcDbSpline
 62
7
  6
CONTINUOUS
 70
0
 71
3
 72
15
 73
11
 74
9
 42
0.0000001
 43
0.0000001
 44
0.0000000001
 12
0.0
 22
0.1099409465
 32
0.0
 13
-0.0
 23
-0.1099409465
 33
0.0
 40
0.0
 40
0.0
 40
0.0
 40
0.0
 40
0.125
 40
0.25
 40
0.375
 40
0.5
 40
0.625
 40
0.75
 40
0.875
 40
1.0
 40
1.0
 40
1.0
 40
1.0
 10
6.6504257621
 20
4.4596480814
 30
0.0
 10
6.6504257621
 20
4.4642289542
 30
0.0
 10
6.6486033776
 20
4.4733906997
 30
0.0
 10
6.6408188096
 20
4.485041129
 30
0.0
 10
6.6291683804
 20
4.4928256969
 30
0.0
 10
6.6154257621
 20
4.4955592736
 30
0.0
 10
6.6016831438
 20
4.4928256969
 30
0.0
 10
6.5900327145
 20
4.485041129
 30
0.0
 10
6.5822481466
 20
4.4733906997
 30
0.0
 10
6.5804257621
 20
4.4642289542
 30
0.0
 10
6.5804257621
 20
4.4596480814
 30
0.0
 11
6.6504257621
 21
4.4596480814
 31
0.0
 11
6.6477615457
 21
4.4730420015
 31
0.0
 11
6.6401744994
 21
4.4843968187
 31
0.0
 11
6.6288196822
 21
4.491983865
 31
0.0
 11
6.6154257621
 21
4.4946480814
 31
0.0
 11
6.6020318419
 21
4.491983865
 31
0.0
 11
6.5906770247
 21
4.4843968187
 31
0.0
 11
6.5830899784
 21
4.4730420015
 31
0.0
 11
6.5804257621
 21
4.4596480814
 31
0.0
  0
SPLINE
  5
44F
100
AcDbEntity
  8
0
100
AcDbSpline
 62
7
  6
CONTINUOUS
 70
0
 71
3
 72
15
 73
11
 74
9
 42
0.0000001
 43
0.0000001
 44
0.0000000001
 12
0.0
 22
-0.1099409465
 32
0.0
 13
-0.0
 23
0.1099409465
 33
0.0
 40
0.0
 40
0.0
 40
0.0
 40
0.0
 40
0.125
 40
0.25
 40
0.375
 40
0.5
 40
0.625
 40
0.75
 40
0.875
 40
1.0
 40
1.0
 40
1.0
 40
1.0
 10
6.6504257621
 20
3.8466480814
 30
0.0
 10
6.6504257621
 20
3.8420672086
 30
0.0
 10
6.6486033776
 20
3.8329054631
 30
0.0
 10
6.6408188096
 20
3.8212550338
 30
0.0
 10
6.6291683804
 20
3.8134704659
 30
0.0
 10
6.6154257621
 20
3.8107368891
 30
0.0
 10
6.6016831438
 20
3.8134704659
 30
0.0
 10
6.5900327145
 20
3.8212550338
 30
0.0
 10
6.5822481466
 20
3.8329054631
 30
0.0
 10
6.5804257621
 20
3.8420672086
 30
0.0
 10
6.5804257621
 20
3.8466480814
 30
0.0
 11
6.6504257621
 21
3.8466480814
 31
0.0
 11
6.6477615457
 21
3.8332541613
 31
0.0
 11
6.6401744994
 21
3.8218993441
 31
0.0
 11
6.6288196822
 21
3.8143122978
 31
0.0
 11
6.6154257621
 21
3.8116480814
 31
0.0
 11
6.6020318419
 21
3.8143122978
 31
0.0
 11
6.5906770247
 21
3.8218993441
 31
0.0
 11
6.5830899784
 21
3.8332541613
 31
0.0
 11
6.5804257621
 21
3.8466480814
 31
0.0
  0
SPLINE
  5
450
100
AcDbEntity
  8
0
100
AcDbSpline
 62
7
  6
CONTINUOUS
 70
0
 71
3
 72
8
 73
4
 74
2
 42
0.0000001
 43
0.0000001
 44
0.0000000001
 12
-0.0011482644
 22
0.0002452012
 32
0.0
 13
-0.0011493956
 23
0.0002398775
 33
0.0
 40
0.0
 40
0.0
 40
0.0
 40
0.0
 40
1.0
 40
1.0
 40
1.0
 40
1.0
 10
7.0399257621
 20
3.9356480814
 30
0.0
 10
7.0395430073
 20
3.9357298151
 30
0.0
 10
7.0391600638
 20
3.9358106726
 30
0.0
 10
7.0387769319
 20
3.9358906318
 30
0.0
 11
7.0399257621
 21
3.9356480814
 31
0.0
 11
7.0387769319
 21
3.9358906318
 31
0.0
  0
SPLINE
  5
451
100
AcDbEntity
  8
0
100
AcDbSpline
 62
7
  6
CONTINUOUS
 70
0
 71
3
 72
19
 73
15
 74
13
 42
0.0000001
 43
0.0000001
 44
0.0000000001
 12
-0.089436023
 22
0.0186651888
 32
0.0
 13
-0.0894360794
 23
-0.0186649326
 33
0.0
 40
0.0
 40
0.0
 40
0.0
 40
0.0
 40
0.0383552589
 40
0.1002554363
 40
0.1815862794
 40
0.2787636383
 40
0.3863680552
 40
0.4988064324
 40
0.6111516121
 40
0.7186649831
 40
0.8161508081
 40
0.8982727907
 40
0.9610000272
 40
1.0
 40
1.0
 40
1.0
 40
1.0
 10
7.0387769319
 20
3.9358906318
 30
0.0
 10
7.0376334847
 20
3.9361292678
 30
0.0
 10
7.0346402823
 20
3.9367321144
 30
0.0
 10
7.0291981994
 20
3.9377177004
 30
0.0
 10
7.0219588534
 20
3.9388196496
 30
0.0
 10
7.0133003667
 20
3.9398166228
 30
0.0
 10
7.0036611796
 20
3.9405093899
 30
0.0
 10
6.9935377003
 20
3.94075966
 30
0.0
 10
6.9834167446
 20
3.9405200406
 30
0.0
 10
6.9737730475
 20
3.9398373597
 30
0.0
 10
6.965083027
 20
3.9388455393
 30
0.0
 10
6.957784806
 20
3.9377402214
 30
0.0
 10
6.9522744817
 20
3.9367446021
 30
0.0
 10
6.949237261
 20
3.9361332731
 30
0.0
 10
6.9480745928
 20
3.9358906291
 30
0.0
 11
7.0387769319
 21
3.9358906318
 31
0.0
 11
7.0353415621
 21
3.9365819454
 31
0.0
 11
7.0297767042
 21
3.9375896597
 31
0.0
 11
7.0224304835
 21
3.9387062867
 31
0.0
 11
7.0136102014
 21
3.9397203089
 31
0.0
 11
7.0038043625
 21
3.9404235376
 31
0.0
 11
6.9935348196
 21
3.9406768262
 31
0.0
 11
6.9832735303
 21
3.9404344568
 31
0.0
 11
6.9734752419
 21
3.9397423096
 31
0.0
 11
6.9646259504
 21
3.9387339061
 31
0.0
 11
6.9572074258
 21
3.9376119845
 31
0.0
 11
6.9515677944
 21
3.9365931307
 31
0.0
 11
6.9480745928
 21
3.9358906291
 31
0.0
  0
SPLINE
  5
452
100
AcDbEntity
  8
0
100
AcDbSpline
 62
7
  6
CONTINUOUS
 70
0
 71
3
 72
8
 73
4
 74
2
 42
0.0000001
 43
0.0000001
 44
0.0000000001
 12
-0.0011493963
 22
-0.0002398742
 32
0.0
 13
-0.0011482647
 23
-0.0002451995
 33
0.0
 40
0.0
 40
0.0
 40
0.0
 40
0.0
 40
1.0
 40
1.0
 40
1.0
 40
1.0
 10
6.9480745928
 20
3.9358906291
 30
0.0
 10
6.9476914606
 20
3.9358106711
 30
0.0
 10
6.947308517
 20
3.9357298146
 30
0.0
 10
6.9469257621
 20
3.9356480814
 30
0.0
 11
6.9480745928
 21
3.9358906291
 31
0.0
 11
6.9469257621
 21
3.9356480814
 31
0.0
  0
SPLINE
  5
453
100
AcDbEntity
  8
0
100
AcDbSpline
 62
7
  6
CONTINUOUS
 70
0
 71
3
 72
8
 73
4
 74
2
 42
0.0000001
 43
0.0000001
 44
0.0000000001
 12
0.0011482644
 22
-0.0002452012
 32
0.0
 13
0.0011493956
 23
-0.0002398775
 33
0.0
 40
0.0
 40
0.0
 40
0.0
 40
0.0
 40
1.0
 40
1.0
 40
1.0
 40
1.0
 10
6.9469257621
 20
4.3706480814
 30
0.0
 10
6.9473085169
 20
4.3705663477
 30
0.0
 10
6.9476914603
 20
4.3704854902
 30
0.0
 10
6.9480745922
 20
4.370405531
 30
0.0
 11
6.9469257621
 21
4.3706480814
 31
0.0
 11
6.9480745922
 21
4.370405531
 31
0.0
  0
SPLINE
  5
454
100
AcDbEntity
  8
0
100
AcDbSpline
 62
7
  6
CONTINUOUS
 70
0
 71
3
 72
19
 73
15
 74
13
 42
0.0000001
 43
0.0000001
 44
0.0000000001
 12
0.089436023
 22
-0.0186651888
 32
0.0
 13
0.0894360794
 23
0.0186649326
 33
0.0
 40
0.0
 40
0.0
 40
0.0
 40
0.0
 40
0.0383552589
 40
0.1002554363
 40
0.1815862794
 40
0.2787636383
 40
0.3863680552
 40
0.4988064324
 40
0.6111516121
 40
0.7186649831
 40
0.8161508081
 40
0.8982727907
 40
0.9610000272
 40
1.0
 40
1.0
 40
1.0
 40
1.0
 10
6.9480745922
 20
4.370405531
 30
0.0
 10
6.9492180395
 20
4.3701668949
 30
0.0
 10
6.9522112418
 20
4.3695640484
 30
0.0
 10
6.9576533248
 20
4.3685784624
 30
0.0
 10
6.9648926707
 20
4.3674765132
 30
0.0
 10
6.9735511574
 20
4.36647954
 30
0.0
 10
6.9831903445
 20
4.3657867729
 30
0.0
 10
6.9933138238
 20
4.3655365028
 30
0.0
 10
7.0034347796
 20
4.3657761222
 30
0.0
 10
7.0130784766
 20
4.366458803
 30
0.0
 10
7.0217684971
 20
4.3674506235
 30
0.0
 10
7.0290667181
 20
4.3685559414
 30
0.0
 10
7.0345770424
 20
4.3695515607
 30
0.0
 10
7.0376142632
 20
4.3701628897
 30
0.0
 10
7.0387769314
 20
4.3704055336
 30
0.0
 11
6.9480745922
 21
4.370405531
 31
0.0
 11
6.951509962
 21
4.3697142174
 31
0.0
 11
6.9570748199
 21
4.3687065031
 31
0.0
 11
6.9644210406
 21
4.3675898761
 31
0.0
 11
6.9732413227
 21
4.3665758539
 31
0.0
 11
6.9830471616
 21
4.3658726251
 31
0.0
 11
6.9933167045
 21
4.3656193366
 31
0.0
 11
7.0035779938
 21
4.365861706
 31
0.0
 11
7.0133762822
 21
4.3665538532
 31
0.0
 11
7.0222255737
 21
4.3675622567
 31
0.0
 11
7.0296440983
 21
4.3686841783
 31
0.0
 11
7.0352837297
 21
4.3697030321
 31
0.0
 11
7.0387769314
 21
4.3704055336
 31
0.0
  0
SPLINE
  5
455
100
AcDbEntity
  8
0
100
AcDbSpline
 62
7
  6
CONTINUOUS
 70
0
 71
3
 72
8
 73
4
 74
2
 42
0.0000001
 43
0.0000001
 44
0.0000000001
 12
0.0011493963
 22
0.0002398742
 32
0.0
 13
0.0011482647
 23
0.0002451995
 33
0.0
 40
0.0
 40
0.0
 40
0.0
 40
0.0
 40
1.0
 40
1.0
 40
1.0
 40
1.0
 10
7.0387769314
 20
4.3704055336
 30
0.0
 10
7.0391600635
 20
4.3704854917
 30
0.0
 10
7.0395430072
 20
4.3705663482
 30
0.0
 10
7.0399257621
 20
4.3706480814
 30
0.0
 11
7.0387769314
 21
4.3704055336
 31
0.0
 11
7.0399257621
 21
4.3706480814
 31
0.0
  0
SPLINE
  5
456
100
AcDbEntity
  8
0
100
AcDbSpline
 62
7
  6
CONTINUOUS
 70
0
 71
3
 72
10
 73
6
 74
4
 42
0.0000001
 43
0.0000001
 44
0.0000000001
 12
0.0037209155
 22
0.0000078511
 32
0.0
 13
0.0033406705
 23
0.0015893564
 33
0.0
 40
0.0
 40
0.0
 40
0.0
 40
0.0
 40
0.0923191113
 40
0.4766850905
 40
1.0
 40
1.0
 40
1.0
 40
1.0
 10
3.6653422576
 20
3.6517526557
 30
0.0
 10
3.6654567615
 20
3.6517528974
 30
0.0
 10
3.6660486739
 20
3.651784041
 30
0.0
 10
3.6672549699
 20
3.6520703916
 30
0.0
 10
3.6682913883
 20
3.6525041933
 30
0.0
 10
3.6688741292
 20
3.6527814379
 30
0.0
 11
3.6653422576
 21
3.6517526557
 31
0.0
 11
3.6656853981
 21
3.6517689121
 31
0.0
 11
3.6670768639
 21
3.6520617845
 31
0.0
 11
3.6688741292
 21
3.6527814379
 31
0.0
  0
SPLINE
  5
457
100
AcDbEntity
  8
0
100
AcDbSpline
 62
7
  6
CONTINUOUS
 70
0
 71
3
 72
9
 73
5
 74
3
 42
0.0000001
 43
0.0000001
 44
0.0000000001
 12
-0.0023885818
 22
-0.000316622
 32
0.0
 13
-0.0017641559
 23
0.0014537349
 33
0.0
 40
0.0
 40
0.0
 40
0.0
 40
0.0
 40
0.1173583013
 40
1.0
 40
1.0
 40
1.0
 40
1.0
 10
3.3756144314
 20
3.6517956517
 30
0.0
 10
3.3755209914
 20
3.6517832656
 30
0.0
 10
3.3747199108
 20
3.6517502012
 30
0.0
 10
3.3741004552
 20
3.6523537289
 30
0.0
 10
3.373581416
 20
3.6527814379
 30
0.0
 11
3.3756144314
 21
3.6517956517
 31
0.0
 11
3.375335466
 21
3.6517842726
 31
0.0
 11
3.373581416
 21
3.6527814379
 31
0.0
  0
SPLINE
  5
458
100
AcDbEntity
  8
0
100
AcDbSpline
 62
7
  6
CONTINUOUS
 70
0
 71
3
 72
10
 73
6
 74
4
 42
0.0000001
 43
0.0000001
 44
0.0000000001
 12
0.0037209191
 22
-0.000007871
 32
0.0
 13
0.0033406465
 23
-0.0015893802
 33
0.0
 40
0.0
 40
0.0
 40
0.0
 40
0.0
 40
0.0923042647
 40
0.4766718308
 40
1.0
 40
1.0
 40
1.0
 40
1.0
 10
3.6653422679
 20
4.6545435074
 30
0.0
 10
3.6654567534
 20
4.6545432652
 30
0.0
 10
3.6660486499
 20
4.6545121247
 30
0.0
 10
3.6672549409
 20
4.654225781
 30
0.0
 10
3.6682913777
 20
4.6537919806
 30
0.0
 10
3.6688741292
 20
4.6535147248
 30
0.0
 11
3.6653422679
 21
4.6545435074
 31
0.0
 11
3.6656853535
 21
4.6545272545
 31
0.0
 11
3.6670768226
 21
4.6542343912
 31
0.0
 11
3.6688741292
 21
4.6535147248
 31
0.0
  0
SPLINE
  5
459
100
AcDbEntity
  8
0
100
AcDbSpline
 62
7
  6
CONTINUOUS
 70
0
 71
3
 72
11
 73
7
 74
5
 42
0.0000001
 43
0.0000001
 44
0.0000000001
 12
0.0334912023
 22
0.0003745075
 32
0.0
 13
0.0250023589
 23
0.0206029426
 33
0.0
 40
0.0
 40
0.0
 40
0.0
 40
0.0
 40
0.0471747592
 40
0.2609389755
 40
0.5731904472
 40
1.0
 40
1.0
 40
1.0
 40
1.0
 10
3.3454970519
 20
4.6380901048
 30
0.0
 10
3.3460236984
 20
4.6380959939
 30
0.0
 10
3.3489643852
 20
4.6383576172
 30
0.0
 10
3.3547404566
 20
4.640486612
 30
0.0
 10
3.3636830495
 20
4.6457332874
 30
0.0
 10
3.3700243341
 20
4.6505835473
 30
0.0
 10
3.373581416
 20
4.6535147248
 30
0.0
 11
3.3454970519
 21
4.6380901048
 31
0.0
 11
3.3470768118
 21
4.6382137177
 31
0.0
 11
3.353687906
 21
4.6402764867
 31
0.0
 11
3.3625016622
 21
4.645241832
 31
0.0
 11
3.373581416
 21
4.6535147248
 31
0.0
  0
SPLINE
  5
45A
100
AcDbEntity
  8
0
100
AcDbSpline
 62
7
  6
CONTINUOUS
 70
0
 71
3
 72
11
 73
7
 74
5
 42
0.0000001
 43
0.0000001
 44
0.0000000001
 12
-0.0250140544
 22
0.0206125801
 32
0.0
 13
-0.0337681638
 23
-0.0008622377
 33
0.0
 40
0.0
 40
0.0
 40
0.0
 40
0.0
 40
0.464636035
 40
0.7845590621
 40
0.9912652677
 40
1.0
 40
1.0
 40
1.0
 40
1.0
 10
3.373581416
 20
3.6527814379
 30
0.0
 10
3.3697072723
 20
3.6559738871
 30
0.0
 10
3.3629544318
 20
3.6611378013
 30
0.0
 10
3.3535476996
 20
3.6663537388
 30
0.0
 10
3.3480292643
 20
3.6682159667
 30
0.0
 10
3.3456087548
 20
3.6681873045
 30
0.0
 10
3.3455104362
 20
3.668184794
 30
0.0
 11
3.373581416
 21
3.6527814379
 31
0.0
 11
3.3614660399
 21
3.6617270598
 31
0.0
 11
3.3523142974
 21
3.6666028566
 31
0.0
 11
3.3458046983
 21
3.6681883497
 31
0.0
 11
3.3455104362
 21
3.668184794
 31
0.0
  0
SPLINE
  5
45B
100
AcDbEntity
  8
0
100
AcDbSpline
 62
7
  6
CONTINUOUS
 70
0
 71
3
 72
9
 73
5
 74
3
 42
0.0000001
 43
0.0000001
 44
0.0000000001
 12
0.0017645245
 22
0.0014540387
 32
0.0
 13
0.0023873916
 23
-0.0003200148
 33
0.0
 40
0.0
 40
0.0
 40
0.0
 40
0.0
 40
0.8840070991
 40
1.0
 40
1.0
 40
1.0
 40
1.0
 10
3.373581416
 20
4.6535147248
 30
0.0
 10
3.3741013668
 20
4.653943185
 30
0.0
 10
3.3747218967
 20
4.6545479907
 30
0.0
 10
3.3755224044
 20
4.6545131582
 30
0.0
 10
3.3756147113
 20
4.654500785
 30
0.0
 11
3.373581416
 21
4.6535147248
 31
0.0
 11
3.3753391195
 21
4.6545126329
 31
0.0
 11
3.3756147113
 21
4.654500785
 31
0.0
  0
SPLINE
  5
45C
100
AcDbEntity
  8
0
100
AcDbSpline
 62
7
  6
CONTINUOUS
 70
0
 71
3
 72
10
 73
6
 74
4
 42
0.0000001
 43
0.0000001
 44
0.0000000001
 12
0.0143733635
 22
0.0068382669
 32
0.0
 13
0.0147426396
 23
0.0060008375
 33
0.0
 40
0.0
 40
0.0
 40
0.0
 40
0.0
 40
0.3509709685
 40
0.6842366634
 40
1.0
 40
1.0
 40
1.0
 40
1.0
 10
3.6688741292
 20
3.6527814379
 30
0.0
 10
3.6705556736
 20
3.653581449
 30
0.0
 10
3.6738473359
 20
3.6551131838
 30
0.0
 10
3.6786985518
 20
3.6572624515
 30
0.0
 10
3.6818740337
 20
3.6585952742
 30
0.0
 10
3.6834257621
 20
3.659226889
 30
0.0
 11
3.6688741292
 21
3.6527814379
 31
0.0
 11
3.6739398034
 21
3.6551367361
 31
0.0
 11
3.6787905526
 21
3.6572836913
 31
0.0
 11
3.6834257621
 21
3.659226889
 31
0.0
  0
SPLINE
  5
45D
100
AcDbEntity
  8
0
100
AcDbSpline
 62
7
  6
CONTINUOUS
 70
0
 71
3
 72
10
 73
6
 74
4
 42
0.0000001
 43
0.0000001
 44
0.0000000001
 12
-0.014743496
 22
0.0060011922
 32
0.0
 13
-0.0143741417
 23
0.0068387887
 33
0.0
 40
0.0
 40
0.0
 40
0.0
 40
0.0
 40
0.3170704933
 40
0.6503319267
 40
1.0
 40
1.0
 40
1.0
 40
1.0
 10
3.6834257621
 20
4.6470692747
 30
0.0
 10
3.6818675195
 20
4.6477035416
 30
0.0
 10
3.6786850706
 20
4.6490381961
 30
0.0
 10
3.6738351491
 20
4.6511911209
 30
0.0
 10
3.6705484858
 20
4.6527176228
 30
0.0
 10
3.668873093
 20
4.6535147248
 30
0.0
 11
3.6834257621
 21
4.6470692747
 31
0.0
 11
3.6787710508
 21
4.6490205286
 31
0.0
 11
3.6739207903
 21
4.6511691831
 31
0.0
 11
3.668873093
 21
4.6535147248
 31
0.0
  0
SPLINE
  5
45E
100
AcDbEntity
  8
0
100
AcDbSpline
 62
7
  6
CONTINUOUS
 70
0
 71
3
 72
10
 73
6
 74
4
 42
0.0000001
 43
0.0000001
 44
0.0000000001
 12
0.0070443852
 22
-0.0099721558
 32
0.0
 13
-0.0
 23
-0.0122093101
 33
0.0
 40
0.0
 40
0.0
 40
0.0
 40
0.0
 40
0.3143061736
 40
0.6534857418
 40
1.0
 40
1.0
 40
1.0
 40
1.0
 10
3.373581416
 20
4.1677115537
 30
0.0
 10
3.3743194473
 20
4.1666667836
 30
0.0
 10
3.3755082195
 20
4.164247828
 30
0.0
 10
3.3765072185
 20
4.1602838807
 30
0.0
 10
3.3767270323
 20
4.1574869512
 30
0.0
 10
3.3767270323
 20
4.1560767178
 30
0.0
 11
3.373581416
 21
4.1677115537
 31
0.0
 11
3.3753389921
 21
4.1643002434
 31
0.0
 11
3.3763860675
 21
4.1602936558
 31
0.0
 11
3.3767270323
 21
4.1560767178
 31
0.0
  0
SPLINE
  5
45F
100
AcDbEntity
  8
0
100
AcDbSpline
 62
7
  6
CONTINUOUS
 70
0
 71
3
 72
10
 73
6
 74
4
 42
0.0000001
 43
0.0000001
 44
0.0000000001
 12
0.0
 22
-0.0122093411
 32
0.0
 13
-0.007044403
 23
-0.0099721811
 33
0.0
 40
0.0
 40
0.0
 40
0.0
 40
0.0
 40
0.3475028895
 40
0.6865401579
 40
1.0
 40
1.0
 40
1.0
 40
1.0
 10
3.3767270323
 20
4.150219445
 30
0.0
 10
3.3767270323
 20
4.1488051845
 30
0.0
 10
3.3765063427
 20
4.1460047538
 30
0.0
 10
3.3755053289
 20
4.142041253
 30
0.0
 10
3.3743174618
 20
4.1396265686
 30
0.0
 10
3.373581416
 20
4.1385846091
 30
0.0
 11
3.3767270323
 21
4.150219445
 31
0.0
 11
3.3763840906
 21
4.1459905463
 31
0.0
 11
3.3753353629
 21
4.1419861759
 31
0.0
 11
3.373581416
 21
4.1385846091
 31
0.0
  0
SPLINE
  5
460
100
AcDbEntity
  8
0
100
AcDbSpline
 62
7
  6
CONTINUOUS
 70
0
 71
3
 72
18
 73
14
 74
12
 42
0.0000001
 43
0.0000001
 44
0.0000000001
 12
-0.1555407896
 22
-0.2201862836
 32
0.0
 13
0.1154376687
 23
-0.2436166689
 33
0.0
 40
0.0
 40
0.0
 40
0.0
 40
0.0
 40
0.0855843219
 40
0.167805549
 40
0.2485003755
 40
0.3323385662
 40
0.4236542589
 40
0.516992932
 40
0.6129062661
 40
0.7033601252
 40
0.7958209521
 40
0.8939270005
 40
1.0
 40
1.0
 40
1.0
 40
1.0
 10
3.373581416
 20
4.1385846091
 30
0.0
 10
3.3691441317
 20
4.1323031112
 30
0.0
 10
3.3613312767
 20
4.1193394315
 30
0.0
 10
3.3522904071
 20
4.0988684839
 30
0.0
 10
3.3456654381
 20
4.0776617677
 30
0.0
 10
3.3411660644
 20
4.0550732335
 30
0.0
 10
3.3389687548
 20
4.0310006149
 30
0.0
 10
3.3392540219
 20
4.0057494584
 30
0.0
 10
3.3419350369
 20
3.9807220697
 30
0.0
 10
3.3467090518
 20
3.9561000542
 30
0.0
 10
3.3533651303
 20
3.9317169793
 30
0.0
 10
3.3622136677
 20
3.9065501275
 30
0.0
 10
3.3694998094
 20
3.8896914313
 30
0.0
 10
3.373581416
 20
3.8810777144
 30
0.0
 11
3.373581416
 21
4.1385846091
 31
0.0
 11
3.3616189299
 21
4.1188559675
 31
0.0
 11
3.3526304643
 21
4.098594821
 31
0.0
 11
3.3461164059
 21
4.077839071
 31
0.0
 11
3.34167487
 21
4.0556784433
 31
0.0
 11
3.3394007892
 21
4.031166557
 31
0.0
 11
3.3396458443
 21
4.0060052407
 31
0.0
 11
3.3423593845
 21
3.980291428
 31
0.0
 11
3.3469682855
 21
3.9563461333
 31
0.0
 11
3.3535070404
 21
3.9322932115
 31
0.0
 11
3.362252058
 21
3.9073331202
 31
0.0
 11
3.373581416
 21
3.8810777144
 31
0.0
  0
SPLINE
  5
461
100
AcDbEntity
  8
0
100
AcDbSpline
 62
7
  6
CONTINUOUS
 70
0
 71
3
 72
10
 73
6
 74
4
 42
0.0000001
 43
0.0000001
 44
0.0000000001
 12
0.0057195418
 22
-0.0120703731
 32
0.0
 13
-0.0
 23
-0.0133569107
 33
0.0
 40
0.0
 40
0.0
 40
0.0
 40
0.0
 40
0.3627475415
 40
0.7020055529
 40
1.0
 40
1.0
 40
1.0
 40
1.0
 10
3.373581416
 20
3.8810777144
 30
0.0
 10
3.3742729993
 20
3.879618215
 30
0.0
 10
3.3754077419
 20
3.8766925213
 30
0.0
 10
3.3764548295
 20
3.8723537467
 30
0.0
 10
3.3767270323
 20
3.8695148458
 30
0.0
 10
3.3767270323
 20
3.868188084
 30
0.0
 11
3.373581416
 21
3.8810777144
 31
0.0
 11
3.3753389921
 21
3.8765625445
 31
0.0
 11
3.3763860675
 21
3.8721537383
 31
0.0
 11
3.3767270323
 21
3.868188084
 31
0.0
  0
SPLINE
  5
462
100
AcDbEntity
  8
0
100
AcDbSpline
 62
7
  6
CONTINUOUS
 70
0
 71
3
 72
10
 73
6
 74
4
 42
0.0000001
 43
0.0000001
 44
0.0000000001
 12
0.0
 22
-0.0083375991
 32
0.0
 13
-0.0078900828
 23
-0.0026948383
 33
0.0
 40
0.0
 40
0.0
 40
0.0
 40
0.0
 40
0.4035202233
 40
0.7317176537
 40
1.0
 40
1.0
 40
1.0
 40
1.0
 10
3.3767270323
 20
3.863115537
 30
0.0
 10
3.3767270323
 20
3.8619940737
 30
0.0
 10
3.3765553633
 20
3.8599544025
 30
0.0
 10
3.3756305006
 20
3.8572757842
 30
0.0
 10
3.374287006
 20
3.856094033
 30
0.0
 10
3.373581416
 20
3.8558530405
 30
0.0
 11
3.3767270323
 21
3.863115537
 31
0.0
 11
3.3763840906
 21
3.8597686713
 31
0.0
 11
3.3753353629
 21
3.8572412342
 31
0.0
 11
3.373581416
 21
3.8558530405
 31
0.0
  0
SPLINE
  5
463
100
AcDbEntity
  8
0
100
AcDbSpline
 62
7
  6
CONTINUOUS
 70
0
 71
3
 72
18
 73
14
 74
12
 42
0.0000001
 43
0.0000001
 44
0.0000000001
 12
-0.1964706709
 22
-0.0671040729
 32
0.0
 13
0.0846449167
 23
-0.1895756292
 33
0.0
 40
0.0
 40
0.0
 40
0.0
 40
0.0
 40
0.0659894081
 40
0.1285040047
 40
0.1912553192
 40
0.2603676112
 40
0.3406656057
 40
0.4296515399
 40
0.5296542799
 40
0.6281725449
 40
0.7385888975
 40
0.862459733
 40
1.0
 40
1.0
 40
1.0
 40
1.0
 10
3.373581416
 20
3.8558530405
 30
0.0
 10
3.3692597549
 20
3.8543769878
 30
0.0
 10
3.3612283285
 20
3.8501537247
 30
0.0
 10
3.3518423214
 20
3.8405770173
 30
0.0
 10
3.3451712873
 20
3.8287528506
 30
0.0
 10
3.3408391146
 20
3.8146267082
 30
0.0
 10
3.338895279
 20
3.7981690117
 30
0.0
 10
3.3394032661
 20
3.7794901814
 30
0.0
 10
3.3422211067
 20
3.759758635
 30
0.0
 10
3.3470520284
 20
3.7389130354
 30
0.0
 10
3.353766654
 20
3.7168661107
 30
0.0
 10
3.3626455414
 20
3.6927024326
 30
0.0
 10
3.3697007212
 20
3.6760363377
 30
0.0
 10
3.373581416
 20
3.6673449102
 30
0.0
 11
3.373581416
 21
3.8558530405
 31
0.0
 11
3.3614660399
 21
3.8494563979
 31
0.0
 11
3.3523142974
 21
3.8402532452
 31
0.0
 11
3.3458046983
 21
3.8289680483
 31
0.0
 11
3.3414596317
 21
3.8152930524
 31
0.0
 11
3.3393485355
 21
3.7987562509
 31
0.0
 11
3.3397140972
 21
3.780285119
 31
0.0
 11
3.3425296597
 21
3.7597149212
 31
0.0
 11
3.3470768118
 21
3.7397729752
 31
0.0
 11
3.353687906
 21
3.7178229493
 31
0.0
 11
3.3625016622
 21
3.6936630675
 31
0.0
 11
3.373581416
 21
3.6673449102
 31
0.0
  0
SPLINE
  5
464
100
AcDbEntity
  8
0
100
AcDbSpline
 62
7
  6
CONTINUOUS
 70
0
 71
3
 72
10
 73
6
 74
4
 42
0.0000001
 43
0.0000001
 44
0.0000000001
 12
0.0045654112
 22
-0.0102249578
 32
0.0
 13
0.0
 23
-0.01119789
 33
0.0
 40
0.0
 40
0.0
 40
0.0
 40
0.0
 40
0.423881998
 40
0.761240077
 40
1.0
 40
1.0
 40
1.0
 40
1.0
 10
3.373581416
 20
3.6673449102
 30
0.0
 10
3.3742264812
 20
3.665900185
 30
0.0
 10
3.3752952079
 20
3.6632611546
 30
0.0
 10
3.3763699874
 20
3.6596864472
 30
0.0
 10
3.3767270323
 20
3.6575454539
 30
0.0
 10
3.3767270323
 20
3.6566542514
 30
0.0
 11
3.373581416
 21
3.6673449102
 31
0.0
 11
3.3753389921
 21
3.6629357168
 31
0.0
 11
3.3763860675
 21
3.6593060281
 31
0.0
 11
3.3767270323
 21
3.6566542514
 31
0.0
  0
SPLINE
  5
465
100
AcDbEntity
  8
0
100
AcDbSpline
 62
7
  6
CONTINUOUS
 70
0
 71
3
 72
10
 73
6
 74
4
 42
0.0000001
 43
0.0000001
 44
0.0000000001
 12
0.0
 22
-0.006446737
 32
0.0
 13
-0.003172713
 23
-0.0056119792
 33
0.0
 40
0.0
 40
0.0
 40
0.0
 40
0.0
 40
0.1113920167
 40
0.4454386856
 40
1.0
 40
1.0
 40
1.0
 40
1.0
 10
3.3767270323
 20
4.7281406232
 30
0.0
 10
3.3767270323
 20
4.7279012515
 30
0.0
 10
3.3759929988
 20
4.7271300945
 30
0.0
 10
3.3752132006
 20
4.7251880021
 30
0.0
 10
3.374167904
 20
4.7235508849
 30
0.0
 10
3.373581416
 20
4.7225134893
 30
0.0
 11
3.3767270323
 21
4.7281406232
 31
0.0
 11
3.3763840906
 21
4.7275096872
 31
0.0
 11
3.3753353629
 21
4.7256287885
 31
0.0
 11
3.373581416
 21
4.7225134893
 31
0.0
  0
SPLINE
  5
466
100
AcDbEntity
  8
0
100
AcDbSpline
 62
7
  6
CONTINUOUS
 70
0
 71
3
 72
15
 73
11
 74
9
 42
0.0000001
 43
0.0000001
 44
0.0000000001
 12
-0.0471132464
 22
-0.0833351631
 32
0.0
 13
0.0989626208
 23
0.0011066264
 33
0.0
 40
0.0
 40
0.0
 40
0.0
 40
0.0
 40
0.2613563465
 40
0.4690222386
 40
0.6305983462
 40
0.758994221
 40
0.8573228078
 40
0.9224311104
 40
0.9682035486
 40
1.0
 40
1.0
 40
1.0
 40
1.0
 10
3.373581416
 20
4.7225134893
 30
0.0
 10
3.3694769674
 20
4.7152534314
 30
0.0
 10
3.3621966941
 20
4.7021777889
 30
0.0
 10
3.352853262
 20
4.6843447617
 30
0.0
 10
3.3460931672
 20
4.6699860237
 30
0.0
 10
3.3415181773
 20
4.6584124438
 30
0.0
 10
3.3392666292
 20
4.6494285533
 30
0.0
 10
3.3388486022
 20
4.642513998
 30
0.0
 10
3.3419377013
 20
4.6384504691
 30
0.0
 10
3.3444481652
 20
4.6380783758
 30
0.0
 10
3.3454970519
 20
4.6380901048
 30
0.0
 11
3.373581416
 21
4.7225134893
 31
0.0
 11
3.3614660399
 21
4.7006225753
 31
0.0
 11
3.3523142974
 21
4.6829742948
 31
0.0
 11
3.3458046983
 21
4.6689429433
 31
0.0
 11
3.3414596317
 21
4.657445107
 31
0.0
 11
3.3393485355
 21
4.6482718062
 31
0.0
 11
3.3397140972
 21
4.6420496585
 31
0.0
 11
3.3425296597
 21
4.638692114
 31
0.0
 11
3.3454970519
 21
4.6380901048
 31
0.0
  0
SPLINE
  5
467
100
AcDbEntity
  8
0
100
AcDbSpline
 62
7
  6
CONTINUOUS
 70
0
 71
3
 72
9
 73
5
 74
3
 42
0.0000001
 43
0.0000001
 44
0.0000000001
 12
0.0
 22
-0.0024499443
 32
0.0
 13
-0.0025599331
 23
-0.0003393357
 33
0.0
 40
0.0
 40
0.0
 40
0.0
 40
0.0
 40
0.6552374533
 40
1.0
 40
1.0
 40
1.0
 40
1.0
 10
3.3767270323
 20
3.653725615
 30
0.0
 10
3.3767270323
 20
3.6531905166
 30
0.0
 10
3.3767454429
 20
3.6521923166
 30
0.0
 10
3.3759086211
 20
3.6518346485
 30
0.0
 10
3.3756144314
 20
3.6517956517
 30
0.0
 11
3.3767270323
 21
3.653725615
 31
0.0
 11
3.3763839767
 21
3.652157404
 31
0.0
 11
3.3756144314
 21
3.6517956517
 31
0.0
  0
SPLINE
  5
468
100
AcDbEntity
  8
0
100
AcDbSpline
 62
7
  6
CONTINUOUS
 70
0
 71
3
 72
10
 73
6
 74
4
 42
0.0000001
 43
0.0000001
 44
0.0000000001
 12
-0.0
 22
-0.0111978726
 32
0.0
 13
-0.0045654041
 23
-0.0102249419
 33
0.0
 40
0.0
 40
0.0
 40
0.0
 40
0.0
 40
0.2395870041
 40
0.5771068634
 40
1.0
 40
1.0
 40
1.0
 40
1.0
 10
3.3767270323
 20
4.6496419113
 30
0.0
 10
3.3767270323
 20
4.6487476231
 30
0.0
 10
3.3763684201
 20
4.6466030242
 30
0.0
 10
3.3752927464
 20
4.6430286704
 30
0.0
 10
3.3742249754
 20
4.6403926052
 30
0.0
 10
3.373581416
 20
4.6389512526
 30
0.0
 11
3.3767270323
 21
4.6496419113
 31
0.0
 11
3.3763840906
 21
4.6469810554
 31
0.0
 11
3.3753353629
 21
4.6433499642
 31
0.0
 11
3.373581416
 21
4.6389512526
 31
0.0
  0
SPLINE
  5
469
100
AcDbEntity
  8
0
100
AcDbSpline
 62
7
  6
CONTINUOUS
 70
0
 71
3
 72
18
 73
14
 74
12
 42
0.0000001
 43
0.0000001
 44
0.0000000001
 12
-0.0846529397
 22
-0.1895935978
 32
0.0
 13
0.196489293
 23
-0.0671104332
 33
0.0
 40
0.0
 40
0.0
 40
0.0
 40
0.0
 40
0.1512365288
 40
0.2825890089
 40
0.3964035981
 40
0.5004958689
 40
0.5980246446
 40
0.6840066063
 40
0.7610787967
 40
0.8231797999
 40
0.882088979
 40
0.9401177634
 40
1.0
 40
1.0
 40
1.0
 40
1.0
 10
3.373581416
 20
4.6389512526
 30
0.0
 10
3.3693138771
 20
4.6293934267
 30
0.0
 10
3.3617218218
 20
4.6113585969
 30
0.0
 10
3.3524356147
 20
4.5855267862
 30
0.0
 10
3.3456907071
 20
4.5622949599
 30
0.0
 10
3.3412001521
 20
4.5409044211
 30
0.0
 10
3.3389945361
 20
4.5210807397
 30
0.0
 10
3.3392210113
 20
4.5029920068
 30
0.0
 10
3.3418268634
 20
4.487545992
 30
0.0
 10
3.3465768852
 20
4.4745993001
 30
0.0
 10
3.3532487793
 20
4.464024919
 30
0.0
 10
3.3622589552
 20
4.4555329801
 30
0.0
 10
3.3696593432
 20
4.4517826966
 30
0.0
 10
3.373581416
 20
4.4504431223
 30
0.0
 11
3.373581416
 21
4.6389512526
 31
0.0
 11
3.3614660399
 21
4.609980699
 31
0.0
 11
3.3523142974
 21
4.5842887774
 31
0.0
 11
3.3458046983
 21
4.5615712568
 31
0.0
 11
3.3414596317
 21
4.5403994364
 31
0.0
 11
3.3393485355
 21
4.5202594943
 31
0.0
 11
3.3397140972
 21
4.502410464
 31
0.0
 11
3.3425296597
 21
4.4866572963
 31
0.0
 11
3.3470768118
 21
4.4745914039
 31
0.0
 11
3.353687906
 21
4.464300431
 31
0.0
 11
3.3625016622
 21
4.4560852037
 31
0.0
 11
3.373581416
 21
4.4504431223
 31
0.0
  0
SPLINE
  5
46A
100
AcDbEntity
  8
0
100
AcDbSpline
 62
7
  6
CONTINUOUS
 70
0
 71
3
 72
10
 73
6
 74
4
 42
0.0000001
 43
0.0000001
 44
0.0000000001
 12
0.0078899201
 22
-0.0026947828
 32
0.0
 13
-0.0
 23
-0.0083374273
 33
0.0
 40
0.0
 40
0.0
 40
0.0
 40
0.0
 40
0.2690162857
 40
0.5975180439
 40
1.0
 40
1.0
 40
1.0
 40
1.0
 10
3.373581416
 20
4.4504431223
 30
0.0
 10
3.3742889217
 20
4.4502014755
 30
0.0
 10
3.3756338307
 20
4.4490158708
 30
0.0
 10
3.3765558025
 20
4.4463366818
 30
0.0
 10
3.3767270323
 20
4.4442991805
 30
0.0
 10
3.3767270323
 20
4.4431806258
 30
0.0
 11
3.373581416
 21
4.4504431223
 31
0.0
 11
3.3753389921
 21
4.4490497295
 31
0.0
 11
3.3763860675
 21
4.4465189224
 31
0.0
 11
3.3767270323
 21
4.4431806258
 31
0.0
  0
SPLINE
  5
46B
100
AcDbEntity
  8
0
100
AcDbSpline
 62
7
  6
CONTINUOUS
 70
0
 71
3
 72
10
 73
6
 74
4
 42
0.0000001
 43
0.0000001
 44
0.0000000001
 12
0.0
 22
-0.0133569093
 32
0.0
 13
-0.0057195412
 23
-0.0120703718
 33
0.0
 40
0.0
 40
0.0
 40
0.0
 40
0.0
 40
0.2989132732
 40
0.6381656633
 40
1.0
 40
1.0
 40
1.0
 40
1.0
 10
3.3767270323
 20
4.4381080787
 30
0.0
 10
3.3767270323
 20
4.4367772263
 30
0.0
 10
3.3764536525
 20
4.4339342524
 30
0.0
 10
3.375405006
 20
4.429595882
 30
0.0
 10
3.3742712582
 20
4.4266742734
 30
0.0
 10
3.373581416
 20
4.4252184484
 30
0.0
 11
3.3767270323
 21
4.4381080787
 31
0.0
 11
3.3763840906
 21
4.4341302771
 31
0.0
 11
3.3753353629
 21
4.4297219412
 31
0.0
 11
3.373581416
 21
4.4252184484
 31
0.0
  0
SPLINE
  5
46C
100
AcDbEntity
  8
0
100
AcDbSpline
 62
7
  6
CONTINUOUS
 70
0
 71
3
 72
18
 73
14
 74
12
 42
0.0000001
 43
0.0000001
 44
0.0000000001
 12
-0.1154387226
 22
-0.243618893
 32
0.0
 13
0.1555422095
 23
-0.2201882938
 33
0.0
 40
0.0
 40
0.0
 40
0.0
 40
0.0
 40
0.1124419583
 40
0.2150367132
 40
0.310691778
 40
0.4049002224
 40
0.5014805114
 40
0.5942462858
 40
0.6838453319
 40
0.7636943609
 40
0.841239405
 40
0.9195006474
 40
1.0
 40
1.0
 40
1.0
 40
1.0
 10
3.373581416
 20
4.4252184484
 30
0.0
 10
3.3692546973
 20
4.4160874533
 30
0.0
 10
3.3616147498
 20
4.3983147979
 30
0.0
 10
3.3525105007
 20
4.3718960799
 30
0.0
 10
3.3458287572
 20
4.3464525025
 30
0.0
 10
3.3412742038
 20
4.3210888777
 30
0.0
 10
3.3390010984
 20
4.2956712506
 30
0.0
 10
3.3392064787
 20
4.2705641338
 30
0.0
 10
3.3418198728
 20
4.2471016834
 30
0.0
 10
3.3465536493
 20
4.2253793643
 30
0.0
 10
3.3531683464
 20
4.2052208906
 30
0.0
 10
3.3619679215
 20
4.1858487725
 30
0.0
 10
3.3694077336
 20
4.173619892
 30
0.0
 10
3.373581416
 20
4.1677115537
 30
0.0
 11
3.373581416
 21
4.4252184484
 31
0.0
 11
3.3616309194
 21
4.3973608511
 31
0.0
 11
3.3526499318
 21
4.3712015463
 31
0.0
 11
3.3461304713
 21
4.3462520662
 31
0.0
 11
3.3416786639
 21
4.3212480657
 31
0.0
 11
3.3394017057
 21
4.2953111877
 31
0.0
 11
3.3396443762
 21
4.2703040709
 31
0.0
 11
3.34235287
 21
4.2463018145
 31
0.0
 11
3.3469584882
 21
4.2252741541
 31
0.0
 11
3.3535021041
 21
4.2054196719
 31
0.0
 11
3.3622558519
 21
4.1862232899
 31
0.0
 11
3.373581416
 21
4.1677115537
 31
0.0
  0
SPLINE
  5
46D
100
AcDbEntity
  8
0
100
AcDbSpline
 62
7
  6
CONTINUOUS
 70
0
 71
3
 72
10
 73
6
 74
4
 42
0.0000001
 43
0.0000001
 44
0.0000000001
 12
0.0031727131
 22
-0.0056119792
 32
0.0
 13
-0.0
 23
-0.0064467371
 33
0.0
 40
0.0
 40
0.0
 40
0.0
 40
0.0
 40
0.5557130946
 40
0.8892421045
 40
1.0
 40
1.0
 40
1.0
 40
1.0
 10
3.373581416
 20
3.5837826734
 30
0.0
 10
3.3741691221
 20
3.5827431233
 30
0.0
 10
3.3752153972
 20
3.5811048892
 30
0.0
 10
3.3759951201
 20
3.5791627832
 30
0.0
 10
3.3767270323
 20
3.5783935486
 30
0.0
 10
3.3767270323
 20
3.5781555396
 30
0.0
 11
3.373581416
 21
3.5837826734
 31
0.0
 11
3.3753389921
 21
3.5806608964
 31
0.0
 11
3.3763860675
 21
3.5787828973
 31
0.0
 11
3.3767270323
 21
3.5781555396
 31
0.0
  0
SPLINE
  5
46E
100
AcDbEntity
  8
0
100
AcDbSpline
 62
7
  6
CONTINUOUS
 70
0
 71
3
 72
13
 73
9
 74
7
 42
0.0000001
 43
0.0000001
 44
0.0000000001
 12
-0.0
 22
0.007832751
 32
0.0
 13
0.0054800455
 23
0.0055965247
 33
0.0
 40
0.0
 40
0.0
 40
0.0
 40
0.0
 40
0.0251699325
 40
0.0999150913
 40
0.2284938252
 40
0.4168072368
 40
0.6716376741
 40
1.0
 40
1.0
 40
1.0
 40
1.0
 10
3.6634257621
 20
3.5781555396
 30
0.0
 10
3.6634257621
 20
3.5782212562
 30
0.0
 10
3.6637066222
 20
3.5783743778
 30
0.0
 10
3.6640187167
 20
3.5788422338
 30
0.0
 10
3.6647869774
 20
3.5795573873
 30
0.0
 10
3.6657974507
 20
3.5806399993
 30
0.0
 10
3.6672137024
 20
3.5820797237
 30
0.0
 10
3.6682743157
 20
3.5831701108
 30
0.0
 10
3.6688741292
 20
3.5837826734
 30
0.0
 11
3.6634257621
 21
3.5781555396
 31
0.0
 11
3.6635581039
 21
3.5783016686
 31
0.0
 11
3.6639615574
 21
3.5787259197
 31
0.0
 11
3.6646596642
 21
3.5794518316
 31
0.0
 11
3.6656853511
 21
3.5805118443
 31
0.0
 11
3.6670768199
 21
3.5819429011
 31
0.0
 11
3.6688741292
 21
3.5837826734
 31
0.0
  0
SPLINE
  5
46F
100
AcDbEntity
  8
0
100
AcDbSpline
 62
7
  6
CONTINUOUS
 70
0
 71
3
 72
13
 73
9
 74
7
 42
0.0000001
 43
0.0000001
 44
0.0000000001
 12
0.0
 22
0.0121490765
 32
0.0
 13
0.0074321973
 23
0.0096105413
 33
0.0
 40
0.0
 40
0.0
 40
0.0
 40
0.0
 40
0.0939228488
 40
0.2115771773
 40
0.3575255348
 40
0.53549313
 40
0.7487703467
 40
1.0
 40
1.0
 40
1.0
 40
1.0
 10
3.6634257621
 20
3.6566542514
 30
0.0
 10
3.6634257621
 20
3.6570346101
 30
0.0
 10
3.663545151
 20
3.6578906579
 30
0.0
 10
3.663972796
 20
3.6592770828
 30
0.0
 10
3.6646910463
 20
3.6609182383
 30
0.0
 10
3.6657339299
 20
3.6628297628
 30
0.0
 10
3.6671396896
 20
3.665021307
 30
0.0
 10
3.6682517331
 20
3.6665400925
 30
0.0
 10
3.6688741292
 20
3.6673449102
 30
0.0
 11
3.6634257621
 21
3.6566542514
 31
0.0
 11
3.6635581039
 21
3.6577876268
 31
0.0
 11
3.6639615574
 21
3.6591588982
 31
0.0
 11
3.6646596642
 21
3.660788826
 31
0.0
 11
3.6656853511
 21
3.6626921977
 31
0.0
 11
3.6670768199
 21
3.6648779982
 31
0.0
 11
3.6688741292
 21
3.6673449102
 31
0.0
  0
SPLINE
  5
470
100
AcDbEntity
  8
0
100
AcDbSpline
 62
7
  6
CONTINUOUS
 70
0
 71
3
 72
13
 73
9
 74
7
 42
0.0000001
 43
0.0000001
 44
0.0000000001
 12
0.0
 22
0.0142450641
 32
0.0
 13
0.009037201
 23
0.0110113964
 33
0.0
 40
0.0
 40
0.0
 40
0.0
 40
0.0
 40
0.1278862711
 40
0.2677341904
 40
0.4228998669
 40
0.595639304
 40
0.7876526873
 40
1.0
 40
1.0
 40
1.0
 40
1.0
 10
3.6634257621
 20
3.868188084
 30
0.0
 10
3.6634257621
 20
3.8687953334
 30
0.0
 10
3.6635251033
 20
3.8700677345
 30
0.0
 10
3.6639412069
 20
3.8720369315
 30
0.0
 10
3.6646513743
 20
3.8741463571
 30
0.0
 10
3.6656883725
 20
3.8763917616
 30
0.0
 10
3.6670893017
 20
3.8787521097
 30
0.0
 10
3.6682344541
 20
3.8802983009
 30
0.0
 10
3.6688741292
 20
3.8810777144
 30
0.0
 11
3.6634257621
 21
3.868188084
 31
0.0
 11
3.6635581039
 21
3.8700050188
 31
0.0
 11
3.6639615574
 21
3.8719558795
 31
0.0
 11
3.6646596642
 21
3.8740530852
 31
0.0
 11
3.6656853511
 21
3.8762898091
 31
0.0
 11
3.6670768199
 21
3.8786446698
 31
0.0
 11
3.6688741292
 21
3.8810777144
 31
0.0
  0
SPLINE
  5
471
100
AcDbEntity
  8
0
100
AcDbSpline
 62
7
  6
CONTINUOUS
 70
0
 71
3
 72
13
 73
9
 74
7
 42
0.0000001
 43
0.0000001
 44
0.0000000001
 12
0.0
 22
0.0132642339
 32
0.0
 13
0.0102702604
 23
0.008394144
 33
0.0
 40
0.0
 40
0.0
 40
0.0
 40
0.0
 40
0.1521378584
 40
0.3065270605
 40
0.4664107642
 40
0.6339051025
 40
0.8110235186
 40
1.0
 40
1.0
 40
1.0
 40
1.0
 10
3.6634257621
 20
4.1560767178
 30
0.0
 10
3.6634257621
 20
4.1567493818
 30
0.0
 10
3.663514772
 20
4.1581063439
 30
0.0
 10
3.6639218992
 20
4.1601339606
 30
0.0
 10
3.6646248049
 20
4.1621521736
 30
0.0
 10
3.6656578417
 20
4.1641385291
 30
0.0
 10
3.6670599283
 20
4.1660476135
 30
0.0
 10
3.6682271833
 20
4.1671827884
 30
0.0
 10
3.6688741292
 20
4.1677115537
 30
0.0
 11
3.6634257621
 21
4.1560767178
 31
0.0
 11
3.6635581039
 21
4.1580903657
 31
0.0
 11
3.6639615574
 21
4.1600980841
 31
0.0
 11
3.6646596642
 21
4.1621006233
 31
0.0
 11
3.6656853511
 21
4.164071371
 31
0.0
 11
3.6670768199
 21
4.1659643088
 31
0.0
 11
3.6688741292
 21
4.1677115537
 31
0.0
  0
SPLINE
  5
472
100
AcDbEntity
  8
0
100
AcDbSpline
 62
7
  6
CONTINUOUS
 70
0
 71
3
 72
13
 73
9
 74
7
 42
0.0000001
 43
0.0000001
 44
0.0000000001
 12
0.0
 22
0.0099177185
 32
0.0
 13
0.0097303329
 23
0.0019187918
 33
0.0
 40
0.0
 40
0.0
 40
0.0
 40
0.0
 40
0.1689943936
 40
0.3282066566
 40
0.4833598508
 40
0.6407536923
 40
0.8091602904
 40
1.0
 40
1.0
 40
1.0
 40
1.0
 10
3.6634257621
 20
4.4431806258
 30
0.0
 10
3.6634257621
 20
4.4437393054
 30
0.0
 10
3.6635047436
 20
4.4448270735
 30
0.0
 10
3.663904395
 20
4.4463842753
 30
0.0
 10
3.6646092553
 20
4.4477911237
 30
0.0
 10
3.665663536
 20
4.4490061669
 30
0.0
 10
3.6671082953
 20
4.4499560154
 30
0.0
 10
3.6682551512
 20
4.4503210618
 30
0.0
 10
3.6688741292
 20
4.4504431223
 30
0.0
 11
3.6634257621
 21
4.4431806258
 31
0.0
 11
3.6635581039
 21
4.4448514315
 31
0.0
 11
3.6639615574
 21
4.4463780412
 31
0.0
 11
3.6646596642
 21
4.447749335
 31
0.0
 11
3.6656853511
 21
4.4489260463
 31
0.0
 11
3.6670768199
 21
4.44984985
 31
0.0
 11
3.6688741292
 21
4.4504431223
 31
0.0
  0
SPLINE
  5
473
100
AcDbEntity
  8
0
100
AcDbSpline
 62
7
  6
CONTINUOUS
 70
0
 71
3
 72
11
 73
7
 74
5
 42
0.0000001
 43
0.0000001
 44
0.0000000001
 12
0.0
 22
0.0031214631
 32
0.0
 13
0.0031395644
 23
-0.0000066413
 33
0.0
 40
0.0
 40
0.0
 40
0.0
 40
0.0
 40
0.2851782277
 40
0.5265878878
 40
0.7800974783
 40
1.0
 40
1.0
 40
1.0
 40
1.0
 10
3.6634257621
 20
4.6525705478
 30
0.0
 10
3.6634257621
 20
4.6528672722
 30
0.0
 10
3.6634844988
 20
4.6534234606
 30
0.0
 10
3.6639186542
 20
4.6541521376
 30
0.0
 10
3.6646178403
 20
4.6544946931
 30
0.0
 10
3.6651121352
 20
4.6545439942
 30
0.0
 10
3.6653422679
 20
4.6545435074
 30
0.0
 11
3.6634257621
 21
4.6525705478
 31
0.0
 11
3.6635581066
 21
4.6534508281
 31
0.0
 11
3.6639615635
 21
4.654087273
 31
0.0
 11
3.6646596698
 21
4.6544598803
 31
0.0
 11
3.6653422679
 21
4.6545435074
 31
0.0
  0
SPLINE
  5
474
100
AcDbEntity
  8
0
100
AcDbSpline
 62
7
  6
CONTINUOUS
 70
0
 71
3
 72
9
 73
5
 74
3
 42
0.0000001
 43
0.0000001
 44
0.0000000001
 12
0.0025575839
 22
-0.000342828
 32
0.0
 13
0.0
 23
-0.002449428
 33
0.0
 40
0.0
 40
0.0
 40
0.0
 40
0.0
 40
0.3459096093
 40
1.0
 40
1.0
 40
1.0
 40
1.0
 10
3.3756147113
 20
4.654500785
 30
0.0
 10
3.3759096089
 20
4.6544612559
 30
0.0
 10
3.3767460152
 20
4.6541011105
 30
0.0
 10
3.3767270323
 20
4.6531045969
 30
0.0
 10
3.3767270323
 20
4.6525705478
 30
0.0
 11
3.3756147113
 21
4.654500785
 31
0.0
 11
3.3763859005
 21
4.6541359567
 31
0.0
 11
3.3767270323
 21
4.6525705478
 31
0.0
  0
SPLINE
  5
475
100
AcDbEntity
  8
0
100
AcDbSpline
 62
7
  6
CONTINUOUS
 70
0
 71
3
 72
15
 73
11
 74
9
 42
0.0000001
 43
0.0000001
 44
0.0000000001
 12
-0.0997051676
 22
-0.0025458759
 32
0.0
 13
0.047099458
 23
-0.0833107737
 33
0.0
 40
0.0
 40
0.0
 40
0.0
 40
0.0
 40
0.0443049739
 40
0.0939024735
 40
0.167896017
 40
0.2758225886
 40
0.4024898621
 40
0.5629803648
 40
0.7613579383
 40
1.0
 40
1.0
 40
1.0
 40
1.0
 10
3.3455104362
 20
3.668184794
 30
0.0
 10
3.3440379579
 20
3.6681471957
 30
0.0
 10
3.3408302657
 20
3.6674264883
 30
0.0
 10
3.3386978217
 20
3.6618349013
 30
0.0
 10
3.3397221795
 20
3.654504401
 30
0.0
 10
3.3425440993
 20
3.6450338377
 30
0.0
 10
3.3474057537
 20
3.6333970129
 30
0.0
 10
3.3541387613
 20
3.6194421913
 30
0.0
 10
3.3630450162
 20
3.602586902
 30
0.0
 10
3.3698347788
 20
3.590409825
 30
0.0
 10
3.373581416
 20
3.5837826734
 30
0.0
 11
3.3455104362
 21
3.668184794
 31
0.0
 11
3.3414596317
 21
3.666931366
 31
0.0
 11
3.3393485355
 21
3.6626800468
 31
0.0
 11
3.3397140972
 21
3.6556080925
 31
0.0
 11
3.3425296597
 21
3.6456703625
 31
0.0
 11
3.3470768118
 21
3.6344330769
 31
0.0
 11
3.353687906
 21
3.6205692833
 31
0.0
 11
3.3625016622
 21
3.6037538255
 31
0.0
 11
3.373581416
 21
3.5837826734
 31
0.0
  0
SPLINE
  5
476
100
AcDbEntity
  8
0
100
AcDbSpline
 62
7
  6
CONTINUOUS
 70
0
 71
3
 72
13
 73
9
 74
7
 42
0.0000001
 43
0.0000001
 44
0.0000000001
 12
0.0
 22
-0.014245064
 32
0.0
 13
0.0090373207
 23
-0.011011298
 33
0.0
 40
0.0
 40
0.0
 40
0.0
 40
0.0
 40
0.12790952
 40
0.2677639568
 40
0.4229263863
 40
0.5956464184
 40
0.7876582687
 40
1.0
 40
1.0
 40
1.0
 40
1.0
 10
3.6634257621
 20
4.4381080787
 30
0.0
 10
3.6634257621
 20
4.437500719
 30
0.0
 10
3.6635251322
 20
4.4362281761
 30
0.0
 10
3.6639413079
 20
4.4342588656
 30
0.0
 10
3.6646514931
 20
4.4321495276
 30
0.0
 10
3.6656884632
 20
4.429904238
 30
0.0
 10
3.6670893403
 20
4.4275440066
 30
0.0
 10
3.6682344624
 20
4.4259978345
 30
0.0
 10
3.6688741292
 20
4.4252184484
 30
0.0
 11
3.6634257621
 21
4.4381080787
 31
0.0
 11
3.6635581503
 21
4.4362908153
 31
0.0
 11
3.663961668
 21
4.4343398732
 31
0.0
 11
3.6646598031
 21
4.4322427256
 31
0.0
 11
3.6656853981
 21
4.4300062637
 31
0.0
 11
3.6670768639
 21
4.4276514266
 31
0.0
 11
3.6688741292
 21
4.4252184484
 31
0.0
  0
SPLINE
  5
477
100
AcDbEntity
  8
0
100
AcDbSpline
 62
7
  6
CONTINUOUS
 70
0
 71
3
 72
13
 73
9
 74
7
 42
0.0000001
 43
0.0000001
 44
0.0000000001
 12
0.0
 22
-0.0132642342
 32
0.0
 13
0.0102703517
 23
-0.0083940326
 33
0.0
 40
0.0
 40
0.0
 40
0.0
 40
0.0
 40
0.1521644893
 40
0.3065587749
 40
0.4664372279
 40
0.6339118196
 40
0.8110285608
 40
1.0
 40
1.0
 40
1.0
 40
1.0
 10
3.6634257621
 20
4.150219445
 30
0.0
 10
3.6634257621
 20
4.1495466632
 30
0.0
 10
3.663514797
 20
4.14818956
 30
0.0
 10
3.6639219987
 20
4.1461618383
 30
0.0
 10
3.664624927
 20
4.1441437271
 30
0.0
 10
3.6656579369
 20
4.1421574929
 30
0.0
 10
3.6670599673
 20
4.1402485143
 30
0.0
 10
3.6682271948
 20
4.1391133533
 30
0.0
 10
3.6688741292
 20
4.1385846091
 30
0.0
 11
3.6634257621
 21
4.150219445
 31
0.0
 11
3.6635581503
 21
4.1482054461
 31
0.0
 11
3.663961668
 21
4.1461976717
 31
0.0
 11
3.6646598031
 21
4.1441952161
 31
0.0
 11
3.6656853981
 21
4.1422247158
 31
0.0
 11
3.6670768639
 21
4.1403318033
 31
0.0
 11
3.6688741292
 21
4.1385846091
 31
0.0
  0
SPLINE
  5
478
100
AcDbEntity
  8
0
100
AcDbSpline
 62
7
  6
CONTINUOUS
 70
0
 71
3
 72
10
 73
6
 74
4
 42
0.0000001
 43
0.0000001
 44
0.0000000001
 12
-0.0139032225
 22
-0.0194422567
 32
0.0
 13
-0.015163589
 23
-0.0184761064
 33
0.0
 40
0.0
 40
0.0
 40
0.0
 40
0.0
 40
0.3294834173
 40
0.66285394
 40
1.0
 40
1.0
 40
1.0
 40
1.0
 10
3.6834257621
 20
3.900033765
 30
0.0
 10
3.6818988017
 20
3.8978984646
 30
0.0
 10
3.6787748156
 20
3.8936397389
 30
0.0
 10
3.6739270368
 20
3.8873162364
 30
0.0
 10
3.6705772077
 20
3.8831540965
 30
0.0
 10
3.668873093
 20
3.8810777144
 30
0.0
 11
3.6834257621
 21
3.900033765
 31
0.0
 11
3.6787710508
 21
3.8936813083
 31
0.0
 11
3.6739207903
 21
3.8873593608
 31
0.0
 11
3.668873093
 21
3.8810777144
 31
0.0
  0
SPLINE
  5
479
100
AcDbEntity
  8
0
100
AcDbSpline
 62
7
  6
CONTINUOUS
 70
0
 71
3
 72
10
 73
6
 74
4
 42
0.0000001
 43
0.0000001
 44
0.0000000001
 12
0.0152149767
 22
-0.0124353103
 32
0.0
 13
0.0138426235
 23
-0.013946836
 33
0.0
 40
0.0
 40
0.0
 40
0.0
 40
0.0
 40
0.3376879031
 40
0.6709457584
 40
1.0
 40
1.0
 40
1.0
 40
1.0
 10
3.6688741292
 20
4.1385846091
 30
0.0
 10
3.6705867671
 20
4.1371848578
 30
0.0
 10
3.6739429226
 20
4.1343460043
 30
0.0
 10
3.6787963139
 20
4.1299455929
 30
0.0
 10
3.6819074374
 20
4.1269206659
 30
0.0
 10
3.6834257621
 20
4.1253909107
 30
0.0
 11
3.6688741292
 21
4.1385846091
 31
0.0
 11
3.6739398034
 21
4.1342984881
 31
0.0
 11
3.6787905526
 21
4.1298991232
 31
0.0
 11
3.6834257621
 21
4.1253909107
 31
0.0
  0
SPLINE
  5
47A
100
AcDbEntity
  8
0
100
AcDbSpline
 62
7
  6
CONTINUOUS
 70
0
 71
3
 72
13
 73
9
 74
7
 42
0.0000001
 43
0.0000001
 44
0.0000000001
 12
0.0
 22
-0.0099177195
 32
0.0
 13
0.009730342
 23
-0.001918751
 33
0.0
 40
0.0
 40
0.0
 40
0.0
 40
0.0
 40
0.1690228176
 40
0.3282382152
 40
0.4833849091
 40
0.6407599916
 40
0.8091651892
 40
1.0
 40
1.0
 40
1.0
 40
1.0
 10
3.6634257621
 20
3.863115537
 30
0.0
 10
3.6634257621
 20
3.8625567633
 30
0.0
 10
3.6635047645
 20
3.8614688891
 30
0.0
 10
3.6639044936
 20
3.8599116199
 30
0.0
 10
3.6646093815
 20
3.8585048677
 30
0.0
 10
3.6656636332
 20
3.8572899233
 30
0.0
 10
3.6671083312
 20
3.8563401351
 30
0.0
 10
3.6682551665
 20
3.8559750953
 30
0.0
 10
3.6688741292
 20
3.8558530405
 30
0.0
 11
3.6634257621
 21
3.863115537
 31
0.0
 11
3.6635581503
 21
3.861444452
 31
0.0
 11
3.663961668
 21
3.859917827
 31
0.0
 11
3.6646598031
 21
3.8585466197
 31
0.0
 11
3.6656853981
 21
3.857370075
 31
0.0
 11
3.6670768639
 21
3.8564462914
 31
0.0
 11
3.6688741292
 21
3.8558530405
 31
0.0
  0
SPLINE
  5
47B
100
AcDbEntity
  8
0
100
AcDbSpline
 62
7
  6
CONTINUOUS
 70
0
 71
3
 72
10
 73
6
 74
4
 42
0.0000001
 43
0.0000001
 44
0.0000000001
 12
-0.0141109729
 22
-0.0199609494
 32
0.0
 13
-0.0149542411
 23
-0.0193372627
 33
0.0
 40
0.0
 40
0.0
 40
0.0
 40
0.0
 40
0.3262870694
 40
0.6596777142
 40
1.0
 40
1.0
 40
1.0
 40
1.0
 10
3.6834257621
 20
3.6869840574
 30
0.0
 10
3.6818910194
 20
3.6848130575
 30
0.0
 10
3.6787514955
 20
3.6804496395
 30
0.0
 10
3.6739040074
 20
3.6738997051
 30
0.0
 10
3.670569514
 20
3.669538544
 30
0.0
 10
3.6688730934
 20
3.6673449102
 30
0.0
 11
3.6834257621
 21
3.6869840574
 31
0.0
 11
3.6787710506
 21
3.680507041
 31
0.0
 11
3.6739207904
 21
3.6739577464
 31
0.0
 11
3.6688730934
 21
3.6673449102
 31
0.0
  0
SPLINE
  5
47C
100
AcDbEntity
  8
0
100
AcDbSpline
 62
7
  6
CONTINUOUS
 70
0
 71
3
 72
10
 73
6
 74
4
 42
0.0000001
 43
0.0000001
 44
0.0000000001
 12
0.0147901398
 22
-0.0029165055
 32
0.0
 13
0.0142432489
 23
-0.0049380259
 33
0.0
 40
0.0
 40
0.0
 40
0.0
 40
0.0
 40
0.3440728407
 40
0.6772108287
 40
1.0
 40
1.0
 40
1.0
 40
1.0
 10
3.6688741292
 20
3.8558530405
 30
0.0
 10
3.6705704243
 20
3.8555185437
 30
0.0
 10
3.6738955834
 20
3.8547887145
 30
0.0
 10
3.6787514855
 20
3.8534899202
 30
0.0
 10
3.6818932399
 20
3.8524882518
 30
0.0
 10
3.6834257621
 20
3.851956938
 30
0.0
 11
3.6688741292
 21
3.8558530405
 31
0.0
 11
3.6739398034
 21
3.8547382793
 31
0.0
 11
3.6787905526
 21
3.85343785
 31
0.0
 11
3.6834257621
 21
3.851956938
 31
0.0
  0
SPLINE
  5
47D
100
AcDbEntity
  8
0
100
AcDbSpline
 62
7
  6
CONTINUOUS
 70
0
 71
3
 72
11
 73
7
 74
5
 42
0.0000001
 43
0.0000001
 44
0.0000000001
 12
0.0
 22
-0.0031214517
 32
0.0
 13
0.0031395402
 23
0.0000066244
 33
0.0
 40
0.0
 40
0.0
 40
0.0
 40
0.0
 40
0.2852209146
 40
0.5266345279
 40
0.7801437647
 40
1.0
 40
1.0
 40
1.0
 40
1.0
 10
3.6634257621
 20
3.653725615
 30
0.0
 10
3.6634257621
 20
3.6534288473
 30
0.0
 10
3.6634845113
 20
3.6528726052
 30
0.0
 10
3.6639187625
 20
3.6521439257
 30
0.0
 10
3.6646179323
 20
3.6518014588
 30
0.0
 10
3.6651121751
 20
3.6517521703
 30
0.0
 10
3.6653422576
 20
3.6517526557
 30
0.0
 11
3.6634257621
 21
3.653725615
 31
0.0
 11
3.6635581503
 21
3.6528452098
 31
0.0
 11
3.663961668
 21
3.6522087921
 31
0.0
 11
3.6646598031
 21
3.651836247
 31
0.0
 11
3.6653422576
 21
3.6517526557
 31
0.0
  0
SPLINE
  5
47E
100
AcDbEntity
  8
0
100
AcDbSpline
 62
7
  6
CONTINUOUS
 70
0
 71
3
 72
10
 73
6
 74
4
 42
0.0000001
 43
0.0000001
 44
0.0000000001
 12
-0.0144308205
 22
-0.0151769892
 32
0.0
 13
-0.0146520706
 23
-0.0149635025
 33
0.0
 40
0.0
 40
0.0
 40
0.0
 40
0.0
 40
0.3215400932
 40
0.6549108951
 40
1.0
 40
1.0
 40
1.0
 40
1.0
 10
3.6834257621
 20
3.5988426223
 30
0.0
 10
3.6818790663
 20
3.5972159521
 30
0.0
 10
3.678717028
 20
3.5939139293
 30
0.0
 10
3.6738692061
 20
3.5888908608
 30
0.0
 10
3.6705585163
 20
3.5855039207
 30
0.0
 10
3.668873093
 20
3.5837826734
 30
0.0
 11
3.6834257621
 21
3.5988426223
 31
0.0
 11
3.6787710508
 21
3.5939765586
 31
0.0
 11
3.6739207903
 21
3.5889547954
 31
0.0
 11
3.668873093
 21
3.5837826734
 31
0.0
  0
SPLINE
  5
47F
100
AcDbEntity
  8
0
100
AcDbSpline
 62
7
  6
CONTINUOUS
 70
0
 71
3
 72
10
 73
6
 74
4
 42
0.0000001
 43
0.0000001
 44
0.0000000001
 12
0.0151633614
 22
-0.0184754197
 32
0.0
 13
0.0139028386
 23
-0.0194417011
 33
0.0
 40
0.0
 40
0.0
 40
0.0
 40
0.0
 40
0.3385194405
 40
0.6718303986
 40
1.0
 40
1.0
 40
1.0
 40
1.0
 10
3.6688741292
 20
4.4252184484
 30
0.0
 10
3.6705851601
 20
4.4231336855
 30
0.0
 10
3.6739371852
 20
4.4189601047
 30
0.0
 10
3.6787895735
 20
4.4126404584
 30
0.0
 10
3.6819049324
 20
4.40838912
 30
0.0
 10
3.6834257621
 20
4.4062623949
 30
0.0
 11
3.6688741292
 21
4.4252184484
 31
0.0
 11
3.6739398034
 21
4.4189094301
 31
0.0
 11
3.6787905526
 21
4.412589936
 31
0.0
 11
3.6834257621
 21
4.4062623949
 31
0.0
  0
SPLINE
  5
480
100
AcDbEntity
  8
0
100
AcDbSpline
 62
7
  6
CONTINUOUS
 70
0
 71
3
 72
13
 73
9
 74
7
 42
0.0000001
 43
0.0000001
 44
0.0000000001
 12
-0.0
 22
-0.007832751
 32
0.0
 13
0.0054801075
 23
-0.005596464
 33
0.0
 40
0.0
 40
0.0
 40
0.0
 40
0.0
 40
0.0251785808
 40
0.0999355145
 40
0.2285193607
 40
0.4168158573
 40
0.6716457062
 40
1.0
 40
1.0
 40
1.0
 40
1.0
 10
3.6634257621
 20
4.7281406232
 30
0.0
 10
3.6634257621
 20
4.728074884
 30
0.0
 10
3.6637066844
 20
4.727921734
 30
0.0
 10
3.6640188151
 20
4.7274538256
 30
0.0
 10
3.6647870733
 20
4.7267386721
 30
0.0
 10
3.6657975279
 20
4.7256560843
 30
0.0
 10
3.6672137348
 20
4.7242164103
 30
0.0
 10
3.6682743236
 20
4.7231260303
 30
0.0
 10
3.6688741292
 20
4.7225134893
 30
0.0
 11
3.6634257621
 21
4.7281406232
 31
0.0
 11
3.6635581503
 21
4.7279944447
 31
0.0
 11
3.663961668
 21
4.7275701276
 31
0.0
 11
3.6646598031
 21
4.7268441873
 31
0.0
 11
3.6656853981
 21
4.7257842701
 31
0.0
 11
3.6670768639
 21
4.7243532166
 31
0.0
 11
3.6688741292
 21
4.7225134893
 31
0.0
  0
SPLINE
  5
481
100
AcDbEntity
  8
0
100
AcDbSpline
 62
7
  6
CONTINUOUS
 70
0
 71
3
 72
10
 73
6
 74
4
 42
0.0000001
 43
0.0000001
 44
0.0000000001
 12
0.0149540539
 22
-0.0193365921
 32
0.0
 13
0.0141106098
 23
-0.0199604161
 33
0.0
 40
0.0
 40
0.0
 40
0.0
 40
0.0
 40
0.3417069886
 40
0.67502056
 40
1.0
 40
1.0
 40
1.0
 40
1.0
 10
3.6688741292
 20
4.6389512526
 30
0.0
 10
3.6705774308
 20
4.6367487697
 30
0.0
 10
3.6739139546
 20
4.6323759573
 30
0.0
 10
3.6787663944
 20
4.6258299806
 30
0.0
 10
3.6818972094
 20
4.6214743448
 30
0.0
 10
3.6834257621
 20
4.6193121031
 30
0.0
 11
3.6688741292
 21
4.6389512526
 31
0.0
 11
3.6739398034
 21
4.6323098334
 31
0.0
 11
3.6787905526
 21
4.6257635133
 31
0.0
 11
3.6834257621
 21
4.6193121031
 31
0.0
  0
SPLINE
  5
482
100
AcDbEntity
  8
0
100
AcDbSpline
 62
7
  6
CONTINUOUS
 70
0
 71
3
 72
10
 73
6
 74
4
 42
0.0000001
 43
0.0000001
 44
0.0000000001
 12
-0.0142442181
 22
-0.0049383664
 32
0.0
 13
-0.0147911354
 23
-0.0029167665
 33
0.0
 40
0.0
 40
0.0
 40
0.0
 40
0.0
 40
0.3241100329
 40
0.6571897994
 40
1.0
 40
1.0
 40
1.0
 40
1.0
 10
3.6834257621
 20
4.454339224
 30
0.0
 10
3.6818868641
 20
4.4538056993
 30
0.0
 10
3.6787385237
 20
4.4528030847
 30
0.0
 10
3.6738825779
 20
4.4515030852
 30
0.0
 10
3.670563277
 20
4.4507764214
 30
0.0
 10
3.668873093
 20
4.4504431223
 30
0.0
 11
3.6834257621
 21
4.454339224
 31
0.0
 11
3.6787710508
 21
4.4528528311
 31
0.0
 11
3.6739207903
 21
4.4515526468
 31
0.0
 11
3.668873093
 21
4.4504431223
 31
0.0
  0
SPLINE
  5
483
100
AcDbEntity
  8
0
100
AcDbSpline
 62
7
  6
CONTINUOUS
 70
0
 71
3
 72
13
 73
9
 74
7
 42
0.0000001
 43
0.0000001
 44
0.0000000001
 12
0.0
 22
-0.012149076
 32
0.0
 13
0.0074323
 23
-0.0096104612
 33
0.0
 40
0.0
 40
0.0
 40
0.0
 40
0.0
 40
0.0939411406
 40
0.2116036994
 40
0.3575516776
 40
0.5355007389
 40
0.7487767466
 40
1.0
 40
1.0
 40
1.0
 40
1.0
 10
3.6634257621
 20
4.6496419113
 30
0.0
 10
3.6634257621
 20
4.6492614787
 30
0.0
 10
3.6635451873
 20
4.6484053243
 30
0.0
 10
3.6639728984
 20
4.6470188101
 30
0.0
 10
3.6646911595
 20
4.6453777071
 30
0.0
 10
3.665734015
 20
4.643466261
 30
0.0
 10
3.6671397263
 20
4.6412748121
 30
0.0
 10
3.6682517403
 20
4.639756043
 30
0.0
 10
3.6688741292
 20
4.6389512526
 30
0.0
 11
3.6634257621
 21
4.6496419113
 31
0.0
 11
3.6635581503
 21
4.6485083177
 31
0.0
 11
3.663961668
 21
4.6471369611
 31
0.0
 11
3.6646598031
 21
4.6455070505
 31
0.0
 11
3.6656853981
 21
4.6436038851
 31
0.0
 11
3.6670768639
 21
4.6414181002
 31
0.0
 11
3.6688741292
 21
4.6389512526
 31
0.0
  0
SPLINE
  5
484
100
AcDbEntity
  8
0
100
AcDbSpline
 62
7
  6
CONTINUOUS
 70
0
 71
3
 72
10
 73
6
 74
4
 42
0.0000001
 43
0.0000001
 44
0.0000000001
 12
0.0146517273
 22
-0.0149628203
 32
0.0
 13
0.0144303265
 23
-0.0151764548
 33
0.0
 40
0.0
 40
0.0
 40
0.0
 40
0.0
 40
0.346457124
 40
0.6797630626
 40
1.0
 40
1.0
 40
1.0
 40
1.0
 10
3.6688741292
 20
4.7225134893
 30
0.0
 10
3.6705661943
 20
4.7207854975
 30
0.0
 10
3.6738796788
 20
4.7173888124
 30
0.0
 10
3.6787316066
 20
4.7123700552
 30
0.0
 10
3.6818853875
 20
4.7090735587
 30
0.0
 10
3.6834257621
 20
4.7074535382
 30
0.0
 11
3.6688741292
 21
4.7225134893
 31
0.0
 11
3.6739398034
 21
4.7173192322
 31
0.0
 11
3.6787905526
 21
4.7123001673
 31
0.0
 11
3.6834257621
 21
4.7074535382
 31
0.0
  0
SPLINE
  5
485
100
AcDbEntity
  8
0
100
AcDbSpline
 62
7
  6
CONTINUOUS
 70
0
 71
3
 72
10
 73
6
 74
4
 42
0.0000001
 43
0.0000001
 44
0.0000000001
 12
-0.0138431994
 22
-0.0139474296
 32
0.0
 13
-0.015215482
 23
-0.0124359989
 33
0.0
 40
0.0
 40
0.0
 40
0.0
 40
0.0
 40
0.3303744625
 40
0.6636434644
 40
1.0
 40
1.0
 40
1.0
 40
1.0
 10
3.6834257621
 20
4.1809052499
 30
0.0
 10
3.6819012822
 20
4.1793692917
 30
0.0
 10
3.6787821989
 20
4.1763398362
 30
0.0
 10
3.6739317604
 20
4.1719357055
 30
0.0
 10
3.6705790353
 20
4.1691058635
 30
0.0
 10
3.668873093
 20
4.1677115537
 30
0.0
 11
3.6834257621
 21
4.1809052499
 31
0.0
 11
3.6787710508
 21
4.1763794881
 31
0.0
 11
3.6739207903
 21
4.1719788481
 31
0.0
 11
3.668873093
 21
4.1677115537
 31
0.0
  0
SPLINE
  5
486
100
AcDbEntity
  8
0
100
AcDbSpline
 62
7
  6
CONTINUOUS
 70
0
 71
3
 72
15
 73
11
 74
9
 42
0.0000001
 43
0.0000001
 44
0.0000000001
 12
0.0985887243
 22
0.1829583798
 32
0.0
 13
-0.0985887243
 23
0.1829583798
 33
0.0
 40
0.0
 40
0.0
 40
0.0
 40
0.0
 40
0.1358116783
 40
0.2619497726
 40
0.3823028784
 40
0.4999827602
 40
0.6176816317
 40
0.738050558
 40
0.864173484
 40
1.0
 40
1.0
 40
1.0
 40
1.0
 10
6.2357018421
 20
4.3789745496
 30
0.0
 10
6.2401650088
 20
4.3872571778
 30
0.0
 10
6.2481301425
 20
4.4035977023
 30
0.0
 10
6.2571815932
 20
4.4285487277
 30
0.0
 10
6.2627319918
 20
4.453240011
 30
0.0
 10
6.26461439
 20
4.477905316
 30
0.0
 10
6.2627326871
 20
4.5025718154
 30
0.0
 10
6.2571821679
 20
4.5272644933
 30
0.0
 10
6.2481305661
 20
4.5522165887
 30
0.0
 10
6.2401654965
 20
4.5685571329
 30
0.0
 10
6.2357018421
 20
4.576840666
 30
0.0
 11
6.2357018421
 21
4.3789745496
 31
0.0
 11
6.2479503362
 21
4.4044042661
 31
0.0
 11
6.2567740903
 21
4.4290899988
 31
0.0
 11
6.2621672804
 21
4.4535146956
 31
0.0
 11
6.2639917512
 21
4.4779040154
 31
0.0
 11
6.2621677521
 21
4.5022973282
 31
0.0
 11
6.2567740652
 21
4.5267252825
 31
0.0
 11
6.2479515407
 21
4.551408107
 31
0.0
 11
6.2357018421
 21
4.576840666
 31
0.0
  0
SPLINE
  5
487
100
AcDbEntity
  8
0
100
AcDbSpline
 62
7
  6
CONTINUOUS
 70
0
 71
3
 72
11
 73
7
 74
5
 42
0.0000001
 43
0.0000001
 44
0.0000000001
 12
0.0
 22
-0.2004334329
 32
0.0
 13
0.0521432139
 23
-0.193532029
 33
0.0
 40
0.0
 40
0.0
 40
0.0
 40
0.0
 40
0.2432177101
 40
0.4917829944
 40
0.7390555462
 40
1.0
 40
1.0
 40
1.0
 40
1.0
 10
5.6777351631
 20
4.1531480814
 30
0.0
 10
5.6777351631
 20
4.1368984279
 30
0.0
 10
5.6789763296
 20
4.1040291997
 30
0.0
 10
5.6844760922
 20
4.0549185247
 30
0.0
 10
5.6934751759
 20
4.0051315851
 30
0.0
 10
5.7014898322
 20
3.9721156682
 30
0.0
 10
5.7060253263
 20
3.955281965
 30
0.0
 11
5.6777351631
 21
4.1531480814
 31
0.0
 11
5.6795543783
 21
4.1044330774
 31
0.0
 11
5.6850401665
 21
4.0549152264
 31
0.0
 11
5.6937792715
 21
4.0061300975
 31
0.0
 11
5.7060253263
 21
3.955281965
 31
0.0
  0
SPLINE
  5
488
100
AcDbEntity
  8
0
100
AcDbSpline
 62
7
  6
CONTINUOUS
 70
0
 71
3
 72
15
 73
11
 74
9
 42
0.0000001
 43
0.0000001
 44
0.0000000001
 12
-0.0985887243
 22
-0.1829583798
 32
0.0
 13
0.0985887243
 23
-0.1829583798
 33
0.0
 40
0.0
 40
0.0
 40
0.0
 40
0.0
 40
0.1358265152
 40
0.2619494407
 40
0.3823183666
 40
0.5000172381
 40
0.61769712
 40
0.7380502261
 40
0.8641883209
 40
1.0
 40
1.0
 40
1.0
 40
1.0
 10
5.7060253263
 20
4.576840666
 30
0.0
 10
5.701561672
 20
4.5685571329
 30
0.0
 10
5.6935966025
 20
4.5522165888
 30
0.0
 10
5.6845450007
 20
4.5272644935
 30
0.0
 10
5.6789944815
 20
4.5025718157
 30
0.0
 10
5.6771127785
 20
4.4779053163
 30
0.0
 10
5.6789951766
 20
4.4532400114
 30
0.0
 10
5.6845455752
 20
4.428548728
 30
0.0
 10
5.6935970259
 20
4.4035977024
 30
0.0
 10
5.7015621596
 20
4.3872571779
 30
0.0
 10
5.7060253263
 20
4.3789745496
 30
0.0
 11
5.7060253263
 21
4.576840666
 31
0.0
 11
5.6937756278
 21
4.5514081071
 31
0.0
 11
5.6849531034
 21
4.5267252827
 31
0.0
 11
5.6795594165
 21
4.5022973285
 31
0.0
 11
5.6777354172
 21
4.4779040158
 31
0.0
 11
5.679559888
 21
4.4535146959
 31
0.0
 11
5.6849530781
 21
4.429089999
 31
0.0
 11
5.6937768322
 21
4.4044042662
 31
0.0
 11
5.7060253263
 21
4.3789745496
 31
0.0
  0
SPLINE
  5
489
100
AcDbEntity
  8
0
100
AcDbSpline
 62
7
  6
CONTINUOUS
 70
0
 71
3
 72
11
 73
7
 74
5
 42
0.0000001
 43
0.0000001
 44
0.0000000001
 12
-0.0521432152
 22
-0.1935320338
 32
0.0
 13
0.0
 23
-0.2004334378
 33
0.0
 40
0.0
 40
0.0
 40
0.0
 40
0.0
 40
0.2610525264
 40
0.5083731192
 40
0.7568966287
 40
1.0
 40
1.0
 40
1.0
 40
1.0
 10
5.7060253263
 20
4.3510141977
 30
0.0
 10
5.7014879536
 20
4.3341735223
 30
0.0
 10
5.6934711721
 20
4.3011473611
 30
0.0
 10
5.6844723712
 20
4.2513525824
 30
0.0
 10
5.6789753415
 20
4.2022488782
 30
0.0
 10
5.6777351631
 20
4.1693900962
 30
0.0
 10
5.6777351631
 20
4.1531480814
 30
0.0
 11
5.7060253263
 21
4.3510141977
 31
0.0
 11
5.693774803
 21
4.3001448594
 31
0.0
 11
5.6850356354
 21
4.2513499582
 31
0.0
 11
5.6795526767
 21
4.2018402168
 31
0.0
 11
5.6777351631
 21
4.1531480814
 31
0.0
  0
SPLINE
  5
48A
100
AcDbEntity
  8
0
100
AcDbSpline
 62
7
  6
CONTINUOUS
 70
0
 71
3
 72
15
 73
11
 74
9
 42
0.0000001
 43
0.0000001
 44
0.0000000001
 12
0.0985887243
 22
0.1829583798
 32
0.0
 13
-0.0985887243
 23
0.1829583798
 33
0.0
 40
0.0
 40
0.0
 40
0.0
 40
0.0
 40
0.1358116783
 40
0.2619497725
 40
0.3823028784
 40
0.4999827602
 40
0.6176816317
 40
0.738050558
 40
0.864173484
 40
1.0
 40
1.0
 40
1.0
 40
1.0
 10
6.2357018421
 20
3.7294554968
 30
0.0
 10
6.2401650088
 20
3.737738125
 30
0.0
 10
6.2481301425
 20
3.7540786494
 30
0.0
 10
6.2571815932
 20
3.7790296749
 30
0.0
 10
6.2627319918
 20
3.8037209582
 30
0.0
 10
6.26461439
 20
3.8283862631
 30
0.0
 10
6.2627326871
 20
3.8530527625
 30
0.0
 10
6.2571821679
 20
3.8777454404
 30
0.0
 10
6.2481305661
 20
3.9026975358
 30
0.0
 10
6.2401654965
 20
3.91903808
 30
0.0
 10
6.2357018421
 20
3.9273216131
 30
0.0
 11
6.2357018421
 21
3.7294554968
 31
0.0
 11
6.2479503362
 21
3.7548852132
 31
0.0
 11
6.2567740903
 21
3.7795709459
 31
0.0
 11
6.2621672804
 21
3.8039956427
 31
0.0
 11
6.2639917512
 21
3.8283849626
 31
0.0
 11
6.2621677521
 21
3.8527782754
 31
0.0
 11
6.2567740652
 21
3.8772062296
 31
0.0
 11
6.2479515407
 21
3.9018890541
 31
0.0
 11
6.2357018421
 21
3.9273216131
 31
0.0
  0
SPLINE
  5
48B
100
AcDbEntity
  8
0
100
AcDbSpline
 62
7
  6
CONTINUOUS
 70
0
 71
3
 72
11
 73
7
 74
5
 42
0.0000001
 43
0.0000001
 44
0.0000000001
 12
0.0521432152
 22
0.193532034
 32
0.0
 13
0.0
 23
0.200433438
 33
0.0
 40
0.0
 40
0.0
 40
0.0
 40
0.0
 40
0.26106555
 40
0.5083739835
 40
0.756903592
 40
1.0
 40
1.0
 40
1.0
 40
1.0
 10
6.2357018421
 20
3.955281965
 30
0.0
 10
6.2402394412
 20
3.9721234807
 30
0.0
 10
6.2482561965
 20
4.0051497109
 30
0.0
 10
6.2572549863
 20
4.0549449605
 30
0.0
 10
6.2627518644
 20
4.1040478087
 30
0.0
 10
6.2639920053
 20
4.1369065318
 30
0.0
 10
6.2639920053
 20
4.1531480814
 30
0.0
 11
6.2357018421
 21
3.955281965
 31
0.0
 11
6.2479529045
 21
4.0061538586
 31
0.0
 11
6.2566915585
 21
4.054946376
 31
0.0
 11
6.2621745949
 21
4.1044573387
 31
0.0
 11
6.2639920053
 21
4.1531480814
 31
0.0
  0
SPLINE
  5
48C
100
AcDbEntity
  8
0
100
AcDbSpline
 62
7
  6
CONTINUOUS
 70
0
 71
3
 72
11
 73
7
 74
5
 42
0.0000001
 43
0.0000001
 44
0.0000000001
 12
0.0
 22
0.2004334326
 32
0.0
 13
-0.0521432138
 23
0.1935320288
 33
0.0
 40
0.0
 40
0.0
 40
0.0
 40
0.0
 40
0.243224011
 40
0.491783019
 40
0.7390679061
 40
1.0
 40
1.0
 40
1.0
 40
1.0
 10
6.2639920053
 20
4.1531480814
 30
0.0
 10
6.2639920053
 20
4.1693981559
 30
0.0
 10
6.2627508069
 20
4.2022673867
 30
0.0
 10
6.2572509085
 20
4.2513788748
 30
0.0
 10
6.2482518151
 20
4.3011653889
 30
0.0
 10
6.2402371215
 20
4.3341812919
 30
0.0
 10
6.2357018421
 20
4.3510141977
 30
0.0
 11
6.2639920053
 21
4.1531480814
 31
0.0
 11
6.2621726969
 21
4.2018643456
 31
0.0
 11
6.2566870008
 21
4.2513809411
 31
0.0
 11
6.2479473853
 21
4.3001684903
 31
0.0
 11
6.2357018421
 21
4.3510141977
 31
0.0
  0
SPLINE
  5
48D
100
AcDbEntity
  8
0
100
AcDbSpline
 62
7
  6
CONTINUOUS
 70
0
 71
3
 72
15
 73
11
 74
9
 42
0.0000001
 43
0.0000001
 44
0.0000000001
 12
-0.0985887243
 22
-0.1829583798
 32
0.0
 13
0.0985887243
 23
-0.1829583798
 33
0.0
 40
0.0
 40
0.0
 40
0.0
 40
0.0
 40
0.1358265152
 40
0.2619494407
 40
0.3823183666
 40
0.5000172381
 40
0.61769712
 40
0.7380502261
 40
0.8641883209
 40
1.0
 40
1.0
 40
1.0
 40
1.0
 10
5.7060253263
 20
3.9273216131
 30
0.0
 10
5.701561672
 20
3.9190380801
 30
0.0
 10
5.6935966025
 20
3.902697536
 30
0.0
 10
5.6845450007
 20
3.8777454407
 30
0.0
 10
5.6789944815
 20
3.8530527629
 30
0.0
 10
5.6771127785
 20
3.8283862635
 30
0.0
 10
5.6789951766
 20
3.8037209585
 30
0.0
 10
5.6845455752
 20
3.7790296751
 30
0.0
 10
5.6935970259
 20
3.7540786496
 30
0.0
 10
5.7015621596
 20
3.7377381251
 30
0.0
 10
5.7060253263
 20
3.7294554968
 30
0.0
 11
5.7060253263
 21
3.9273216131
 31
0.0
 11
5.6937756278
 21
3.9018890543
 31
0.0
 11
5.6849531034
 21
3.8772062299
 31
0.0
 11
5.6795594165
 21
3.8527782757
 31
0.0
 11
5.6777354172
 21
3.8283849629
 31
0.0
 11
5.679559888
 21
3.8039956431
 31
0.0
 11
5.6849530781
 21
3.7795709462
 31
0.0
 11
5.6937768322
 21
3.7548852134
 31
0.0
 11
5.7060253263
 21
3.7294554968
 31
0.0
  0
ENDSEC
  0
SECTION
  2
OBJECTS
  0
DICTIONARY
  5
C
100
AcDbDictionary
280
0
281
1
  3
ACAD_GROUP
350
D
  3
ACAD_MLINESTYLE
350
17
  3
ACAD_LAYOUT
350
1A
  3
ACAD_PLOTSETTINGS
350
19
  3
ACAD_PLOTSTYLENAME
350
E
  0
DICTIONARY
  5
D
102
{ACAD_REACTORS
330
C
102
}
100
AcDbDictionary
280
0
281
1
  0
ACDBDICTIONARYWDFLT
  5
E
102
{ACAD_REACTORS
330
C
102
}
100
AcDbDictionary
281
1
  3
Normal
350
F
100
AcDbDictionaryWithDefault
340
F
  0
DICTIONARY
  5
17
102
{ACAD_REACTORS
330
C
102
}
100
AcDbDictionary
280
0
281
1
  3
Standard
350
18
  0
DICTIONARY
  5
19
102
{ACAD_REACTORS
330
C
102
}
100
AcDbDictionary
281
1
  0
DICTIONARY
  5
1A
102
{ACAD_REACTORS
330
C
102
}
100
AcDbDictionary
281
1
  3
Layout1
350
1E
  3
Model
350
22
  0
ACDBPLACEHOLDER
  5
F
102
{ACAD_REACTORS
330
E
102
}
  0
MLINESTYLE
  5
18
102
{ACAD_REACTORS
330
17
102
}
100
AcDbMlineStyle
  2
STANDARD
 70
0
  3

 62
256
 51
90.0
 52
90.0
 71
2
 49
0.5
 62
256
  6
BYLAYER
 49
-0.5
 62
256
  6
BYLAYER
  0
LAYOUT
  5
1E
102
{ACAD_REACTORS
330
1A
102
}
100
AcDbPlotSettings
  1

  2

  4

  6

 40
0.0
 41
0.0
 42
0.0
 43
0.0
 44
0.0
 45
0.0
 46
0.0
 47
0.0
 48
0.0
 49
0.0
140
0.0
141
0.0
142
1.0
143
1.0
 70
0
 72
0
 73
0
 74
0
  7

 75
0
147
1.0
148
0.0
149
0.0
100
AcDbLayout
  1
Layout1
 70
0
 71
0
 10
0.0
 20
0.0
 11
0.0
 21
0.0
 12
0.0
 22
0.0
 32
0.0
 14
0.0
 24
0.0
 34
0.0
 15
0.0
 25
0.0
 35
0.0
146
0.0
 13
0.0
 23
0.0
 33
0.0
 16
0.0
 26
0.0
 36
0.0
 17
0.0
 27
0.0
 37
0.0
 76
0
330
1B
331
0
345
0
346
0
  0
LAYOUT
  5
22
102
{ACAD_REACTORS
330
1A
102
}
100
AcDbPlotSettings
  1

  2

  4

  6

 40
0.0
 41
0.0
 42
0.0
 43
0.0
 44
0.0
 45
0.0
 46
0.0
 47
0.0
 48
0.0
 49
0.0
140
0.0
141
0.0
142
1.0
143
1.0
 70
0
 72
0
 73
0
 74
0
  7

 75
0
147
1.0
148
0.0
149
0.0
100
AcDbLayout
  1
Model
 70
0
 71
0
 10
0.0
 20
0.0
 11
0.0
 21
0.0
 12
0.0
 22
0.0
 32
0.0
 14
0.0
 24
0.0
 34
0.0
 15
0.0
 25
0.0
 35
0.0
146
0.0
 13
0.0
 23
0.0
 33
0.0
 16
0.0
 26
0.0
 36
0.0
 17
0.0
 27
0.0
 37
0.0
 76
0
330
1F
331
0
345
0
346
0
  0
ENDSEC
  0
EOF
