999
DXF file: DTAF-MHN.dxf
999
Pro/ENGINEER 2006240 by Parametric Technology Corporation
  0
SECTION
  2
HEADER
  9
$ACADVER
  1
AC1015
  9
$DWGCODEPAGE
  3
ANSI_1252
  9
$EXTMAX
 10
11.6929133858
 20
8.2677165354
 30
0.0
  9
$EXTMIN
 10
0.0
 20
0.0
 30
0.0
  9
$LIMMIN
 10
0.0
 20
0.0
  9
$LIMMAX
 10
11.6929133858
 20
8.2677165354
  9
$VIEWCTR
 10
5.8464566929
 20
4.1338582677
  9
$VIEWSIZE
 40
8.2677165354
  9
$CLAYER
  8
0
  9
$LTSCALE
 40
0.6431102362
  9
$CELTYPE
  6
BYLAYER
  9
$DIMSCALE
 40
1.0
  9
$DIMASZ
 40
0.1875
  9
$DIMEXO
 40
0.0730807087
  9
$DIMDLI
 40
0.4443307087
  9
$DIMEXE
 40
0.2104724409
  9
$DIMCEN
 40
0.1052362205
  9
$DIMLFAC
 40
1.0
  9
$DIMBLK
  1
_CLOSED
  9
$DIMTXT
 40
0.15625
  9
$DIMTOL
 70
0
  9
$DIMLIM
 70
0
  9
$DIMTFAC
 40
1.0
  9
$PDMODE
 70
3
  9
$PDSIZE
 40
0.3125
  9
$HANDSEED
  5
48D
  9
$MEASUREMENT
 70
0
  9
$INSUNITS
 70
1
  0
ENDSEC
  0
SECTION
  2
CLASSES
  0
CLASS
  1
ACDBDICTIONARYWDFLT
  2
AcDbDictionaryWithDefault
  3
AutoCAD 2000
 90
0
280
0
281
0
  0
CLASS
  1
ACDBPLACEHOLDER
  2
AcDbPlaceHolder
  3
AutoCAD 2000
 90
0
280
0
281
0
  0
CLASS
  1
LAYOUT
  2
AcDbLayout
  3
AutoCAD 2000
 90
0
280
0
281
0
  0
ENDSEC
  0
SECTION
  2
TABLES
  0
TABLE
  2
VPORT
  5
8
100
AcDbSymbolTable
 70
2
  0
VPORT
  5
1F4
100
AcDbSymbolTableRecord
100
AcDbViewportTableRecord
  2
*ACTIVE
 70
0
 10
0.0
 20
0.0
 11
1.0
 21
1.0
 12
5.8464566929
 22
4.1338582677
 13
0.0
 23
0.0
 14
1.0
 24
1.0
 15
0.0
 25
0.0
 16
0.0
 26
0.0
 36
1.0
 17
0.0
 27
0.0
 37
0.0
 40
8.2677165354
 41
1.4142857143
 42
50.0
 43
0.0
 44
0.0
 50
0.0
 51
0.0
 71
0
 72
100
 73
1
 74
1
 75
0
 76
0
 77
0
 78
0
  0
ENDTAB
  0
TABLE
  2
LTYPE
  5
5
100
AcDbSymbolTable
 70
6
  0
LTYPE
  5
14
100
AcDbSymbolTableRecord
100
AcDbLinetypeTableRecord
  2
BYBLOCK
 70
0
  3

 72
65
 73
0
 40
0.0
  0
LTYPE
  5
15
100
AcDbSymbolTableRecord
100
AcDbLinetypeTableRecord
  2
BYLAYER
 70
0
  3

 72
65
 73
0
 40
0.0
  0
LTYPE
  5
16
100
AcDbSymbolTableRecord
100
AcDbLinetypeTableRecord
  2
CONTINUOUS
 70
64
  3
Solid line
 72
65
 73
0
 40
0.0
  0
LTYPE
  5
1F5
100
AcDbSymbolTableRecord
100
AcDbLinetypeTableRecord
  2
CENTER
 70
64
  3
____ _ ____ _ ____ _ ____ _ ____ _ ____ _ ____
 72
65
 73
4
 40
0.6
 49
0.375
 74
0
 49
-0.075
 74
0
 49
0.075
 74
0
 49
-0.075
 74
0
  0
LTYPE
  5
1F6
100
AcDbSymbolTableRecord
100
AcDbLinetypeTableRecord
  2
HIDDEN
 70
64
  3
- - - - - - - - - - - - - - - - - - - -
 72
65
 73
2
 40
0.2
 49
0.1
 74
0
 49
-0.1
 74
0
  0
LTYPE
  5
1F7
100
AcDbSymbolTableRecord
100
AcDbLinetypeTableRecord
  2
PHANTOM
 70
64
  3
_____ _ _ _____ _ _ _____ _ _ _____
 72
65
 73
6
 40
0.8
 49
0.45
 74
0
 49
-0.05
 74
0
 49
0.1
 74
0
 49
-0.05
 74
0
 49
0.1
 74
0
 49
-0.05
 74
0
  0
LTYPE
  5
1F8
100
AcDbSymbolTableRecord
100
AcDbLinetypeTableRecord
  2
DOT
 70
64
  3
. . . . . . . . . . . . . . . . . . . .
 72
65
 73
2
 40
0.2
 49
0.1
 74
0
 49
-0.1
 74
0
  0
LTYPE
  5
1F9
100
AcDbSymbolTableRecord
100
AcDbLinetypeTableRecord
  2
DASHED
 70
64
  3
- - - - - - - - - - - - - - - - - - - -
 72
65
 73
2
 40
0.2
 49
0.1
 74
0
 49
-0.1
 74
0
  0
ENDTAB
  0
TABLE
  2
LAYER
  5
2
100
AcDbSymbolTable
 70
36
  0
LAYER
  5
10
100
AcDbSymbolTableRecord
100
AcDbLayerTableRecord
  2
0
 70
0
 62
7
  6
CONTINUOUS
370
-3
390
F
  0
LAYER
  5
1FA
100
AcDbSymbolTableRecord
100
AcDbLayerTableRecord
  2
DEFAULT_1
 70
0
 62
7
  6
CENTER
370
-3
390
F
  0
LAYER
  5
1FB
100
AcDbSymbolTableRecord
100
AcDbLayerTableRecord
  2
DEFAULT_2
 70
0
 62
8
  6
HIDDEN
370
-3
390
F
  0
LAYER
  5
1FC
100
AcDbSymbolTableRecord
100
AcDbLayerTableRecord
  2
DEFAULT_3
 70
0
 62
7
  6
PHANTOM
370
-3
390
F
  0
LAYER
  5
1FD
100
AcDbSymbolTableRecord
100
AcDbLayerTableRecord
  2
_BLACK_HOLE
 70
0
 62
7
  6
CONTINUOUS
370
-3
390
F
  0
LAYER
  5
1FE
100
AcDbSymbolTableRecord
100
AcDbLayerTableRecord
  2
01_ALL_DTM_PLN
 70
0
 62
7
  6
CONTINUOUS
370
-3
390
F
  0
LAYER
  5
1FF
100
AcDbSymbolTableRecord
100
AcDbLayerTableRecord
  2
01__ASM_ALL_DTM_PLN
 70
0
 62
7
  6
CONTINUOUS
370
-3
390
F
  0
LAYER
  5
200
100
AcDbSymbolTableRecord
100
AcDbLayerTableRecord
  2
01__ASM_DEF_DTM_PLN
 70
0
 62
7
  6
CONTINUOUS
370
-3
390
F
  0
LAYER
  5
201
100
AcDbSymbolTableRecord
100
AcDbLayerTableRecord
  2
01___PRT_ALL_DTM_PLN
 70
0
 62
7
  6
CONTINUOUS
370
-3
390
F
  0
LAYER
  5
202
100
AcDbSymbolTableRecord
100
AcDbLayerTableRecord
  2
01___PRT_DEF_DTM_PLN
 70
0
 62
7
  6
CONTINUOUS
370
-3
390
F
  0
LAYER
  5
203
100
AcDbSymbolTableRecord
100
AcDbLayerTableRecord
  2
02_ALL_AXES
 70
0
 62
7
  6
CONTINUOUS
370
-3
390
F
  0
LAYER
  5
204
100
AcDbSymbolTableRecord
100
AcDbLayerTableRecord
  2
02__ASM_ALL_AXES
 70
0
 62
7
  6
CONTINUOUS
370
-3
390
F
  0
LAYER
  5
205
100
AcDbSymbolTableRecord
100
AcDbLayerTableRecord
  2
02___PRT_ALL_AXES
 70
0
 62
7
  6
CONTINUOUS
370
-3
390
F
  0
LAYER
  5
206
100
AcDbSymbolTableRecord
100
AcDbLayerTableRecord
  2
03_ALL_CURVES
 70
0
 62
7
  6
CONTINUOUS
370
-3
390
F
  0
LAYER
  5
207
100
AcDbSymbolTableRecord
100
AcDbLayerTableRecord
  2
03__ASM_ALL_CURVES
 70
0
 62
7
  6
CONTINUOUS
370
-3
390
F
  0
LAYER
  5
208
100
AcDbSymbolTableRecord
100
AcDbLayerTableRecord
  2
03___PRT_ALL_CURVES
 70
0
 62
7
  6
CONTINUOUS
370
-3
390
F
  0
LAYER
  5
209
100
AcDbSymbolTableRecord
100
AcDbLayerTableRecord
  2
04_ALL_DTM_PNT
 70
0
 62
7
  6
CONTINUOUS
370
-3
390
F
  0
LAYER
  5
20A
100
AcDbSymbolTableRecord
100
AcDbLayerTableRecord
  2
04__ASM_ALL_DTM_PNT
 70
0
 62
7
  6
CONTINUOUS
370
-3
390
F
  0
LAYER
  5
20B
100
AcDbSymbolTableRecord
100
AcDbLayerTableRecord
  2
04___PRT_ALL_DTM_PNT
 70
0
 62
7
  6
CONTINUOUS
370
-3
390
F
  0
LAYER
  5
20C
100
AcDbSymbolTableRecord
100
AcDbLayerTableRecord
  2
05_ALL_DTM_CSYS
 70
0
 62
7
  6
CONTINUOUS
370
-3
390
F
  0
LAYER
  5
20D
100
AcDbSymbolTableRecord
100
AcDbLayerTableRecord
  2
05__ASM_ALL_DTM_CSYS
 70
0
 62
7
  6
CONTINUOUS
370
-3
390
F
  0
LAYER
  5
20E
100
AcDbSymbolTableRecord
100
AcDbLayerTableRecord
  2
05__ASM_DEF_DTM_CSYS
 70
0
 62
7
  6
CONTINUOUS
370
-3
390
F
  0
LAYER
  5
20F
100
AcDbSymbolTableRecord
100
AcDbLayerTableRecord
  2
05___PRT_ALL_DTM_CSYS
 70
0
 62
7
  6
CONTINUOUS
370
-3
390
F
  0
LAYER
  5
210
100
AcDbSymbolTableRecord
100
AcDbLayerTableRecord
  2
05___PRT_DEF_DTM_CSYS
 70
0
 62
7
  6
CONTINUOUS
370
-3
390
F
  0
LAYER
  5
211
100
AcDbSymbolTableRecord
100
AcDbLayerTableRecord
  2
06_ALL_SURFS
 70
0
 62
7
  6
CONTINUOUS
370
-3
390
F
  0
LAYER
  5
212
100
AcDbSymbolTableRecord
100
AcDbLayerTableRecord
  2
06__ASM_ALL_SURFS
 70
0
 62
7
  6
CONTINUOUS
370
-3
390
F
  0
LAYER
  5
213
100
AcDbSymbolTableRecord
100
AcDbLayerTableRecord
  2
06___PRT_ALL_SURFS
 70
0
 62
7
  6
CONTINUOUS
370
-3
390
F
  0
LAYER
  5
214
100
AcDbSymbolTableRecord
100
AcDbLayerTableRecord
  2
07__ASM_ALL_SKELETONS
 70
0
 62
7
  6
CONTINUOUS
370
-3
390
F
  0
LAYER
  5
215
100
AcDbSymbolTableRecord
100
AcDbLayerTableRecord
  2
COPY_GEO_FET
 70
0
 62
7
  6
CONTINUOUS
370
-3
390
F
  0
LAYER
  5
216
100
AcDbSymbolTableRecord
100
AcDbLayerTableRecord
  2
COSMETIC
 70
0
 62
7
  6
CONTINUOUS
370
-3
390
F
  0
LAYER
  5
217
100
AcDbSymbolTableRecord
100
AcDbLayerTableRecord
  2
CUT_REF_SURF
 70
0
 62
7
  6
CONTINUOUS
370
-3
390
F
  0
LAYER
  5
218
100
AcDbSymbolTableRecord
100
AcDbLayerTableRecord
  2
DATUM
 70
0
 62
7
  6
CONTINUOUS
370
-3
390
F
  0
LAYER
  5
219
100
AcDbSymbolTableRecord
100
AcDbLayerTableRecord
  2
DATUMCURVES
 70
0
 62
7
  6
CONTINUOUS
370
-3
390
F
  0
LAYER
  5
21A
100
AcDbSymbolTableRecord
100
AcDbLayerTableRecord
  2
DIMENSIONS
 70
0
 62
7
  6
CONTINUOUS
370
-3
390
F
  0
LAYER
  5
21B
100
AcDbSymbolTableRecord
100
AcDbLayerTableRecord
  2
DTM_500001
 70
0
 62
7
  6
CONTINUOUS
370
-3
390
F
  0
LAYER
  5
21C
100
AcDbSymbolTableRecord
100
AcDbLayerTableRecord
  2
DTM_500002
 70
0
 62
7
  6
CONTINUOUS
370
-3
390
F
  0
LAYER
  5
21D
100
AcDbSymbolTableRecord
100
AcDbLayerTableRecord
  2
DTM_500051
 70
0
 62
7
  6
CONTINUOUS
370
-3
390
F
  0
LAYER
  5
21E
100
AcDbSymbolTableRecord
100
AcDbLayerTableRecord
  2
DTM_515002
 70
0
 62
7
  6
CONTINUOUS
370
-3
390
F
  0
LAYER
  5
21F
100
AcDbSymbolTableRecord
100
AcDbLayerTableRecord
  2
DTM_530002
 70
0
 62
7
  6
CONTINUOUS
370
-3
390
F
  0
LAYER
  5
220
100
AcDbSymbolTableRecord
100
AcDbLayerTableRecord
  2
DTM_SPRING_RH
 70
0
 62
7
  6
CONTINUOUS
370
-3
390
F
  0
LAYER
  5
221
100
AcDbSymbolTableRecord
100
AcDbLayerTableRecord
  2
DTM_SP_RH_CONSTR
 70
0
 62
7
  6
CONTINUOUS
370
-3
390
F
  0
LAYER
  5
222
100
AcDbSymbolTableRecord
100
AcDbLayerTableRecord
  2
PARAMETERDIMENSIONS
 70
0
 62
7
  6
CONTINUOUS
370
-3
390
F
  0
LAYER
  5
223
100
AcDbSymbolTableRecord
100
AcDbLayerTableRecord
  2
PLANE
 70
0
 62
7
  6
CONTINUOUS
370
-3
390
F
  0
LAYER
  5
224
100
AcDbSymbolTableRecord
100
AcDbLayerTableRecord
  2
TEXT
 70
0
 62
7
  6
CONTINUOUS
370
-3
390
F
  0
LAYER
  5
225
100
AcDbSymbolTableRecord
100
AcDbLayerTableRecord
  2
THREAD
 70
0
 62
7
  6
CONTINUOUS
370
-3
390
F
  0
ENDTAB
  0
TABLE
  2
STYLE
  5
3
100
AcDbSymbolTable
 70
1
  0
STYLE
  5
11
100
AcDbSymbolTableRecord
100
AcDbTextStyleTableRecord
  2
STANDARD
 70
0
 40
0.0
 41
0.8
 50
0.0
 71
0
 42
0.2
  3
txt
  4

  0
ENDTAB
  0
TABLE
  2
VIEW
  5
6
100
AcDbSymbolTable
 70
0
  0
ENDTAB
  0
TABLE
  2
UCS
  5
7
100
AcDbSymbolTable
 70
0
  0
ENDTAB
  0
TABLE
  2
APPID
  5
9
100
AcDbSymbolTable
 70
1
  0
APPID
  5
226
100
AcDbSymbolTableRecord
100
AcDbRegAppTableRecord
  2
ACAD
 70
0
  0
ENDTAB
  0
TABLE
  2
BLOCK_RECORD
  5
1
100
AcDbSymbolTable
 70
0
  0
BLOCK_RECORD
  5
1F
100
AcDbSymbolTableRecord
100
AcDbBlockTableRecord
  2
*MODEL_SPACE
  0
BLOCK_RECORD
  5
1B
100
AcDbSymbolTableRecord
100
AcDbBlockTableRecord
  2
*PAPER_SPACE
  0
ENDTAB
  0
TABLE
  2
DIMSTYLE
  5
A
100
AcDbSymbolTable
 70
1
100
AcDbDimStyleTable
 71
0
  0
DIMSTYLE
105
227
100
AcDbSymbolTableRecord
100
AcDbDimStyleTableRecord
  2
STANDARD
 70
0
  3

  4

 40
1.0
 41
0.1875
 42
0.0625
 43
0.38
 44
0.18
 45
0.0
 46
0.0
 47
0.01
 48
0.01
140
0.15625
141
0.09
142
0.0
143
25.4
144
1.0
145
0.0
146
1.0
147
0.09
 71
0.0
 72
0.0
 73
1
 74
1
 75
0
 76
0
 77
0
 78
4
170
0
171
2
172
0
173
0
174
0
175
0
176
0
177
0
178
0
270
2
271
2
272
2
273
2
274
2
275
0
280
0
281
0
282
0
283
1
284
4
285
0
286
0
287
3
288
0
340
11
  0
ENDTAB
  0
ENDSEC
  0
SECTION
  2
BLOCKS
  0
BLOCK
  5
20
100
AcDbEntity
  8
0
100
AcDbBlockBegin
  2
*MODEL_SPACE
 70
0
 10
0.0
 20
0.0
 30
0.0
  3
*MODEL_SPACE
  1

  0
ENDBLK
  5
21
100
AcDbEntity
  8
0
100
AcDbBlockEnd
  0
BLOCK
  5
1C
100
AcDbEntity
  8
0
100
AcDbBlockBegin
  2
*PAPER_SPACE
 70
0
 10
0.0
 20
0.0
 30
0.0
  3
*PAPER_SPACE
  1

  0
ENDBLK
  5
1D
100
AcDbEntity
  8
0
100
AcDbBlockEnd
  0
ENDSEC
  0
SECTION
  2
ENTITIES
  0
LINE
  5
228
100
AcDbEntity
  8
0
100
AcDbLine
 62
7
  6
CONTINUOUS
 10
3.0044257621
 20
4.4899971582
 11
3.0044257621
 21
3.9449982069
  0
LINE
  5
229
100
AcDbEntity
  8
03__ASM_ALL_CURVES
100
AcDbLine
 62
40
  6
CONTINUOUS
 10
3.0044257621
 20
4.4899971582
 11
3.0044257621
 21
4.9531596826
  0
LINE
  5
22A
100
AcDbEntity
  8
03__ASM_ALL_CURVES
100
AcDbLine
 62
40
  6
CONTINUOUS
 10
3.1328557621
 20
4.9317546826
 11
3.1328557621
 21
4.8889446826
  0
LINE
  5
22B
100
AcDbEntity
  8
0
100
AcDbLine
 62
7
  6
CONTINUOUS
 10
3.3124257621
 20
4.4954976826
 11
3.3124257621
 21
3.9394976826
  0
LINE
  5
22C
100
AcDbEntity
  8
0
100
AcDbLine
 62
7
  6
CONTINUOUS
 10
3.3184257621
 20
4.6831198426
 11
3.3184257621
 21
4.6828122014
  0
LINE
  5
22D
100
AcDbEntity
  8
0
100
AcDbLine
 62
7
  6
CONTINUOUS
 10
3.3184257621
 20
4.6825023313
 11
3.3184257621
 21
4.5193349161
  0
LINE
  5
22E
100
AcDbEntity
  8
0
100
AcDbLine
 62
7
  6
CONTINUOUS
 10
3.3184257621
 20
4.4329975529
 11
3.3184257621
 21
4.289365716
  0
LINE
  5
22F
100
AcDbEntity
  8
0
100
AcDbLine
 62
7
  6
CONTINUOUS
 10
3.3184257621
 20
4.2643911434
 11
3.3184257621
 21
4.1631665668
  0
LINE
  5
230
100
AcDbEntity
  8
0
100
AcDbLine
 62
7
  6
CONTINUOUS
 10
3.3184257621
 20
4.1395707044
 11
3.3184257621
 21
4.0011295922
  0
LINE
  5
231
100
AcDbEntity
  8
0
100
AcDbLine
 62
7
  6
CONTINUOUS
 10
3.3184257621
 20
3.915660449
 11
3.3184257621
 21
3.7515734549
  0
LINE
  5
232
100
AcDbEntity
  8
0
100
AcDbLine
 62
7
  6
CONTINUOUS
 10
3.3334257621
 20
4.7174974053
 11
3.3334257621
 21
3.7174979599
  0
LINE
  5
233
100
AcDbEntity
  8
0
100
AcDbLine
 62
7
  6
CONTINUOUS
 10
3.3767270323
 20
4.716920149
 11
3.3767270323
 21
4.7139915125
  0
LINE
  5
234
100
AcDbEntity
  8
0
100
AcDbLine
 62
7
  6
CONTINUOUS
 10
3.3767270323
 20
4.507530227
 11
3.3767270323
 21
4.50245768
  0
LINE
  5
235
100
AcDbEntity
  8
0
100
AcDbLine
 62
7
  6
CONTINUOUS
 10
3.3767270323
 20
4.220426319
 11
3.3767270323
 21
4.2145690462
  0
LINE
  5
236
100
AcDbEntity
  8
0
100
AcDbLine
 62
7
  6
CONTINUOUS
 10
3.3767270323
 20
3.9325376852
 11
3.3767270323
 21
3.9274651382
  0
LINE
  5
237
100
AcDbEntity
  8
0
100
AcDbLine
 62
7
  6
CONTINUOUS
 10
3.3767270323
 20
3.7210038526
 11
3.3767270323
 21
3.7180752162
  0
LINE
  5
238
100
AcDbEntity
  8
0
100
AcDbLine
 62
7
  6
CONTINUOUS
 10
3.3334257621
 20
4.7174976826
 11
3.3735007783
 21
4.7869096468
  0
LINE
  5
239
100
AcDbEntity
  8
0
100
AcDbLine
 62
7
  6
CONTINUOUS
 10
3.3334257621
 20
3.7174976826
 11
3.3735007783
 21
3.6480857184
  0
LINE
  5
23A
100
AcDbEntity
  8
0
100
AcDbLine
 62
7
  6
CONTINUOUS
 10
3.6634257621
 20
3.7180752162
 11
3.6634257621
 21
3.7210038526
  0
LINE
  5
23B
100
AcDbEntity
  8
0
100
AcDbLine
 62
7
  6
CONTINUOUS
 10
3.6634257621
 20
3.9274651382
 11
3.6634257621
 21
3.9325376852
  0
LINE
  5
23C
100
AcDbEntity
  8
0
100
AcDbLine
 62
7
  6
CONTINUOUS
 10
3.6634257621
 20
4.2145690462
 11
3.6634257621
 21
4.220426319
  0
LINE
  5
23D
100
AcDbEntity
  8
0
100
AcDbLine
 62
7
  6
CONTINUOUS
 10
3.6634257621
 20
4.50245768
 11
3.6634257621
 21
4.507530227
  0
LINE
  5
23E
100
AcDbEntity
  8
0
100
AcDbLine
 62
7
  6
CONTINUOUS
 10
3.6634257621
 20
4.7139915125
 11
3.6634257621
 21
4.716920149
  0
LINE
  5
23F
100
AcDbEntity
  8
0
100
AcDbLine
 62
7
  6
CONTINUOUS
 10
3.6834257621
 20
3.6624976996
 11
3.6834257621
 21
4.7724976656
  0
LINE
  5
240
100
AcDbEntity
  8
0
100
AcDbLine
 62
7
  6
CONTINUOUS
 10
3.6984257621
 20
4.5804976826
 11
3.6984257621
 21
3.8544976826
  0
LINE
  5
241
100
AcDbEntity
  8
0
100
AcDbLine
 62
7
  6
CONTINUOUS
 10
3.3124257621
 20
3.9394976826
 11
3.3334257621
 21
3.9184976826
  0
LINE
  5
242
100
AcDbEntity
  8
0
100
AcDbLine
 62
7
  6
CONTINUOUS
 10
3.3124257621
 20
4.4954976826
 11
3.3334257621
 21
4.5164976826
  0
LINE
  5
243
100
AcDbEntity
  8
03__ASM_ALL_CURVES
100
AcDbLine
 62
40
  6
CONTINUOUS
 10
4.2655570121
 20
5.0423471805
 11
4.2655570121
 21
5.0334284326
  0
LINE
  5
244
100
AcDbEntity
  8
03__ASM_ALL_CURVES
100
AcDbLine
 62
40
  6
CONTINUOUS
 10
4.2722460746
 20
4.9888346837
 11
4.2722460746
 21
4.9799159326
  0
LINE
  5
245
100
AcDbEntity
  8
03__ASM_ALL_CURVES
100
AcDbLine
 62
40
  6
CONTINUOUS
 10
4.2655570121
 20
5.0334284326
 11
4.2588679496
 21
5.0245096847
  0
LINE
  5
246
100
AcDbEntity
  8
03__ASM_ALL_CURVES
100
AcDbLine
 62
40
  6
CONTINUOUS
 10
4.2722460746
 20
4.9799159326
 11
4.2588679496
 21
4.9620784329
  0
LINE
  5
247
100
AcDbEntity
  8
03__ASM_ALL_CURVES
100
AcDbLine
 62
40
  6
CONTINUOUS
 10
4.3391366996
 20
4.9531596826
 11
4.3391366996
 21
4.9620784329
  0
LINE
  5
248
100
AcDbEntity
  8
03__ASM_ALL_CURVES
100
AcDbLine
 62
40
  6
CONTINUOUS
 10
4.4394726371
 20
5.0601846826
 11
4.4327835746
 21
5.0155909305
  0
LINE
  5
249
100
AcDbEntity
  8
03__ASM_ALL_CURVES
100
AcDbLine
 62
40
  6
CONTINUOUS
 10
4.4862960746
 20
4.9888346837
 11
4.4796070121
 21
4.9709971831
  0
LINE
  5
24A
100
AcDbEntity
  8
03__ASM_ALL_CURVES
100
AcDbLine
 62
40
  6
CONTINUOUS
 10
4.4796070121
 20
4.9709971831
 11
4.4729179496
 21
4.9620784329
  0
LINE
  5
24B
100
AcDbEntity
  8
03__ASM_ALL_CURVES
100
AcDbLine
 62
40
  6
CONTINUOUS
 10
4.5866320121
 20
5.0334284326
 11
4.5799429496
 21
5.0245096847
  0
LINE
  5
24C
100
AcDbEntity
  8
03__ASM_ALL_CURVES
100
AcDbLine
 62
40
  6
CONTINUOUS
 10
4.5933210746
 20
4.9799159326
 11
4.5799429496
 21
4.9620784329
  0
LINE
  5
24D
100
AcDbEntity
  8
03__ASM_ALL_CURVES
100
AcDbLine
 62
40
  6
CONTINUOUS
 10
4.6735898246
 20
5.0601846826
 11
4.6602116996
 21
5.0423471805
  0
LINE
  5
24E
100
AcDbEntity
  8
03__ASM_ALL_CURVES
100
AcDbLine
 62
40
  6
CONTINUOUS
 10
4.2187335746
 20
5.0512659347
 11
4.2321116996
 21
5.0601846826
  0
LINE
  5
24F
100
AcDbEntity
  8
03__ASM_ALL_CURVES
100
AcDbLine
 62
40
  6
CONTINUOUS
 10
4.2588679496
 20
5.0245096847
 11
4.2454898246
 21
5.0155909305
  0
LINE
  5
250
100
AcDbEntity
  8
03__ASM_ALL_CURVES
100
AcDbLine
 62
40
  6
CONTINUOUS
 10
4.2588679496
 20
4.9620784329
 11
4.2454898246
 21
4.9531596826
  0
LINE
  5
251
100
AcDbEntity
  8
03__ASM_ALL_CURVES
100
AcDbLine
 62
40
  6
CONTINUOUS
 10
4.4327835746
 20
5.0155909305
 11
4.4461616996
 21
5.0245096847
  0
LINE
  5
252
100
AcDbEntity
  8
03__ASM_ALL_CURVES
100
AcDbLine
 62
40
  6
CONTINUOUS
 10
4.5398085746
 20
5.0512659347
 11
4.5531866996
 21
5.0601846826
  0
LINE
  5
253
100
AcDbEntity
  8
03__ASM_ALL_CURVES
100
AcDbLine
 62
40
  6
CONTINUOUS
 10
4.5866320121
 20
5.0423471805
 11
4.5866320121
 21
5.0334284326
  0
LINE
  5
254
100
AcDbEntity
  8
03__ASM_ALL_CURVES
100
AcDbLine
 62
40
  6
CONTINUOUS
 10
4.5933210746
 20
4.9888346837
 11
4.5933210746
 21
4.9799159326
  0
LINE
  5
255
100
AcDbEntity
  8
03__ASM_ALL_CURVES
100
AcDbLine
 62
40
  6
CONTINUOUS
 10
4.6535226371
 20
5.0155909305
 11
4.6535226371
 21
4.9977534315
  0
LINE
  5
256
100
AcDbEntity
  8
03__ASM_ALL_CURVES
100
AcDbLine
 62
40
  6
CONTINUOUS
 10
4.6602116996
 20
5.0423471805
 11
4.6535226371
 21
5.0155909305
  0
LINE
  5
257
100
AcDbEntity
  8
03__ASM_ALL_CURVES
100
AcDbLine
 62
40
  6
CONTINUOUS
 10
4.8541945121
 20
5.0245096847
 11
4.8608835746
 21
5.0423471805
  0
LINE
  5
258
100
AcDbEntity
  8
03__ASM_ALL_CURVES
100
AcDbLine
 62
40
  6
CONTINUOUS
 10
4.7471695121
 20
5.0423471805
 11
4.7538585746
 21
5.0512659347
  0
LINE
  5
259
100
AcDbEntity
  8
03__ASM_ALL_CURVES
100
AcDbLine
 62
40
  6
CONTINUOUS
 10
4.7404804496
 20
4.9888346837
 11
4.7538585746
 21
5.0066721826
  0
LINE
  5
25A
100
AcDbEntity
  8
03__ASM_ALL_CURVES
100
AcDbLine
 62
40
  6
CONTINUOUS
 10
4.8006820121
 20
5.0334284326
 11
4.7939929496
 21
5.0245096847
  0
LINE
  5
25B
100
AcDbEntity
  8
03__ASM_ALL_CURVES
100
AcDbLine
 62
40
  6
CONTINUOUS
 10
4.8073710746
 20
4.9799159326
 11
4.7939929496
 21
4.9620784329
  0
LINE
  5
25C
100
AcDbEntity
  8
03__ASM_ALL_CURVES
100
AcDbLine
 62
40
  6
CONTINUOUS
 10
4.8608835746
 20
5.0423471805
 11
4.8675726371
 21
5.0512659347
  0
LINE
  5
25D
100
AcDbEntity
  8
03__ASM_ALL_CURVES
100
AcDbLine
 62
40
  6
CONTINUOUS
 10
4.4729179496
 20
4.9620784329
 11
4.4595398246
 21
4.9531596826
  0
LINE
  5
25E
100
AcDbEntity
  8
03__ASM_ALL_CURVES
100
AcDbLine
 62
40
  6
CONTINUOUS
 10
4.5799429496
 20
5.0245096847
 11
4.5665648246
 21
5.0155909305
  0
LINE
  5
25F
100
AcDbEntity
  8
03__ASM_ALL_CURVES
100
AcDbLine
 62
40
  6
CONTINUOUS
 10
4.5799429496
 20
4.9620784329
 11
4.5665648246
 21
4.9531596826
  0
LINE
  5
260
100
AcDbEntity
  8
03__ASM_ALL_CURVES
100
AcDbLine
 62
40
  6
CONTINUOUS
 10
4.7538585746
 20
5.0512659347
 11
4.7672366996
 21
5.0601846826
  0
LINE
  5
261
100
AcDbEntity
  8
03__ASM_ALL_CURVES
100
AcDbLine
 62
40
  6
CONTINUOUS
 10
4.7538585746
 20
5.0066721826
 11
4.7672366996
 21
5.0155909305
  0
LINE
  5
262
100
AcDbEntity
  8
03__ASM_ALL_CURVES
100
AcDbLine
 62
40
  6
CONTINUOUS
 10
4.7939929496
 20
5.0245096847
 11
4.7806148246
 21
5.0155909305
  0
LINE
  5
263
100
AcDbEntity
  8
03__ASM_ALL_CURVES
100
AcDbLine
 62
40
  6
CONTINUOUS
 10
4.8675726371
 20
5.0512659347
 11
4.8809507621
 21
5.0601846826
  0
LINE
  5
264
100
AcDbEntity
  8
0
100
AcDbLine
 62
7
  6
CONTINUOUS
 10
3.6834257621
 20
4.7724976826
 11
3.6689672417
 21
4.786956203
  0
LINE
  5
265
100
AcDbEntity
  8
03__ASM_ALL_CURVES
100
AcDbLine
 62
40
  6
CONTINUOUS
 10
4.7404804496
 20
4.9799159326
 11
4.7404804496
 21
4.9888346837
  0
LINE
  5
266
100
AcDbEntity
  8
03__ASM_ALL_CURVES
100
AcDbLine
 62
40
  6
CONTINUOUS
 10
4.7471695121
 20
5.0334284326
 11
4.7471695121
 21
5.0423471805
  0
LINE
  5
267
100
AcDbEntity
  8
03__ASM_ALL_CURVES
100
AcDbLine
 62
40
  6
CONTINUOUS
 10
4.8006820121
 20
5.0423471805
 11
4.8006820121
 21
5.0334284326
  0
LINE
  5
268
100
AcDbEntity
  8
03__ASM_ALL_CURVES
100
AcDbLine
 62
40
  6
CONTINUOUS
 10
4.8073710746
 20
4.9888346837
 11
4.8073710746
 21
4.9799159326
  0
LINE
  5
269
100
AcDbEntity
  8
03__ASM_ALL_CURVES
100
AcDbLine
 62
40
  6
CONTINUOUS
 10
4.9077070121
 20
5.0245096847
 11
4.9010179496
 21
5.0066721826
  0
LINE
  5
26A
100
AcDbEntity
  8
03__ASM_ALL_CURVES
100
AcDbLine
 62
40
  6
CONTINUOUS
 10
4.9077070121
 20
4.9888346837
 11
4.9010179496
 21
4.9709971831
  0
LINE
  5
26B
100
AcDbEntity
  8
03__ASM_ALL_CURVES
100
AcDbLine
 62
40
  6
CONTINUOUS
 10
5.0682445121
 20
5.0245096847
 11
5.0749335746
 21
5.0423471805
  0
LINE
  5
26C
100
AcDbEntity
  8
03__ASM_ALL_CURVES
100
AcDbLine
 62
40
  6
CONTINUOUS
 10
4.9010179496
 20
4.9709971831
 11
4.8943288871
 21
4.9620784329
  0
LINE
  5
26D
100
AcDbEntity
  8
03__ASM_ALL_CURVES
100
AcDbLine
 62
40
  6
CONTINUOUS
 10
5.0749335746
 20
5.0423471805
 11
5.0816226371
 21
5.0512659347
  0
LINE
  5
26E
100
AcDbEntity
  8
03__ASM_ALL_CURVES
100
AcDbLine
 62
40
  6
CONTINUOUS
 10
5.1150679496
 20
4.9709971831
 11
5.1083788871
 21
4.9620784329
  0
LINE
  5
26F
100
AcDbEntity
  8
03__ASM_ALL_CURVES
100
AcDbLine
 62
40
  6
CONTINUOUS
 10
5.1819585746
 20
5.0423471805
 11
5.1886476371
 21
5.0512659347
  0
LINE
  5
270
100
AcDbEntity
  8
0
100
AcDbLine
 62
7
  6
CONTINUOUS
 10
3.6834257621
 20
3.6624976826
 11
3.6689672417
 21
3.6480391622
  0
LINE
  5
271
100
AcDbEntity
  8
03__ASM_ALL_CURVES
100
AcDbLine
 62
40
  6
CONTINUOUS
 10
4.7939929496
 20
4.9620784329
 11
4.7806148246
 21
4.9531596826
  0
LINE
  5
272
100
AcDbEntity
  8
03__ASM_ALL_CURVES
100
AcDbLine
 62
40
  6
CONTINUOUS
 10
4.8943288871
 20
4.9620784329
 11
4.8809507621
 21
4.9531596826
  0
LINE
  5
273
100
AcDbEntity
  8
03__ASM_ALL_CURVES
100
AcDbLine
 62
40
  6
CONTINUOUS
 10
5.0816226371
 20
5.0512659347
 11
5.0950007621
 21
5.0601846826
  0
LINE
  5
274
100
AcDbEntity
  8
03__ASM_ALL_CURVES
100
AcDbLine
 62
40
  6
CONTINUOUS
 10
5.1886476371
 20
5.0512659347
 11
5.2020257621
 21
5.0601846826
  0
LINE
  5
275
100
AcDbEntity
  8
03__ASM_ALL_CURVES
100
AcDbLine
 62
40
  6
CONTINUOUS
 10
5.1083788871
 20
4.9620784329
 11
5.0950007621
 21
4.9531596826
  0
LINE
  5
276
100
AcDbEntity
  8
03__ASM_ALL_CURVES
100
AcDbLine
 62
40
  6
CONTINUOUS
 10
4.9010179496
 20
5.0066721826
 11
4.8809507621
 21
4.9977534315
  0
LINE
  5
277
100
AcDbEntity
  8
03__ASM_ALL_CURVES
100
AcDbLine
 62
40
  6
CONTINUOUS
 10
5.0749335746
 20
5.0066721826
 11
5.0950007621
 21
5.0155909305
  0
LINE
  5
278
100
AcDbEntity
  8
03__ASM_ALL_CURVES
100
AcDbLine
 62
40
  6
CONTINUOUS
 10
4.4796070121
 20
5.0066721826
 11
4.4862960746
 21
4.9888346837
  0
LINE
  5
279
100
AcDbEntity
  8
03__ASM_ALL_CURVES
100
AcDbLine
 62
40
  6
CONTINUOUS
 10
4.9077070121
 20
5.0245096847
 11
4.9077070121
 21
4.9888346837
  0
LINE
  5
27A
100
AcDbEntity
  8
03__ASM_ALL_CURVES
100
AcDbLine
 62
40
  6
CONTINUOUS
 10
4.9812866996
 20
4.9531596826
 11
4.9812866996
 21
4.9620784329
  0
LINE
  5
27B
100
AcDbEntity
  8
03__ASM_ALL_CURVES
100
AcDbLine
 62
40
  6
CONTINUOUS
 10
5.0682445121
 20
4.9888346837
 11
5.0749335746
 21
5.0066721826
  0
LINE
  5
27C
100
AcDbEntity
  8
03__ASM_ALL_CURVES
100
AcDbLine
 62
40
  6
CONTINUOUS
 10
5.1217570121
 20
4.9888346837
 11
5.1150679496
 21
4.9709971831
  0
LINE
  5
27D
100
AcDbEntity
  8
03__ASM_ALL_CURVES
100
AcDbLine
 62
40
  6
CONTINUOUS
 10
5.1752695121
 20
5.0245096847
 11
5.1819585746
 21
5.0423471805
  0
LINE
  5
27E
100
AcDbEntity
  8
03__ASM_ALL_CURVES
100
AcDbLine
 62
40
  6
CONTINUOUS
 10
5.1752695121
 20
4.9888346837
 11
5.1819585746
 21
5.0066721826
  0
LINE
  5
27F
100
AcDbEntity
  8
03__ASM_ALL_CURVES
100
AcDbLine
 62
40
  6
CONTINUOUS
 10
5.2287820121
 20
4.9888346837
 11
5.2220929496
 21
4.9709971831
  0
LINE
  5
280
100
AcDbEntity
  8
03__ASM_ALL_CURVES
100
AcDbLine
 62
40
  6
CONTINUOUS
 10
5.2220929496
 20
4.9709971831
 11
5.2154038871
 21
4.9620784329
  0
LINE
  5
281
100
AcDbEntity
  8
03__ASM_ALL_CURVES
100
AcDbLine
 62
40
  6
CONTINUOUS
 10
5.3157398246
 20
4.9709971831
 11
5.3023616996
 21
4.9531596826
  0
LINE
  5
282
100
AcDbEntity
  8
03__ASM_ALL_CURVES
100
AcDbLine
 62
40
  6
CONTINUOUS
 10
5.2154038871
 20
4.9620784329
 11
5.2020257621
 21
4.9531596826
  0
LINE
  5
283
100
AcDbEntity
  8
03__ASM_ALL_CURVES
100
AcDbLine
 62
40
  6
CONTINUOUS
 10
5.1819585746
 20
5.0066721826
 11
5.2020257621
 21
5.0155909305
  0
LINE
  5
284
100
AcDbEntity
  8
03__ASM_ALL_CURVES
100
AcDbLine
 62
40
  6
CONTINUOUS
 10
7.2145388357
 20
3.5141501826
 11
7.1744044607
 21
3.5141501826
  0
LINE
  5
285
100
AcDbEntity
  8
03__ASM_ALL_CURVES
100
AcDbLine
 62
40
  6
CONTINUOUS
 10
7.0138669607
 20
3.5141501826
 11
7.0540013357
 21
3.5141501826
  0
LINE
  5
286
100
AcDbEntity
  8
03__ASM_ALL_CURVES
100
AcDbLine
 62
40
  6
CONTINUOUS
 10
4.2187335746
 20
4.9620784329
 11
4.2120445121
 21
4.9709971831
  0
LINE
  5
287
100
AcDbEntity
  8
03__ASM_ALL_CURVES
100
AcDbLine
 62
40
  6
CONTINUOUS
 10
4.2588679496
 20
5.0066721826
 11
4.2722460746
 21
4.9888346837
  0
LINE
  5
288
100
AcDbEntity
  8
03__ASM_ALL_CURVES
100
AcDbLine
 62
40
  6
CONTINUOUS
 10
4.2588679496
 20
5.0512659347
 11
4.2655570121
 21
5.0423471805
  0
LINE
  5
289
100
AcDbEntity
  8
03__ASM_ALL_CURVES
100
AcDbLine
 62
40
  6
CONTINUOUS
 10
4.3391366996
 20
4.9620784329
 11
4.3458257621
 21
4.9531596826
  0
LINE
  5
28A
100
AcDbEntity
  8
03__ASM_ALL_CURVES
100
AcDbLine
 62
40
  6
CONTINUOUS
 10
4.6535226371
 20
4.9977534315
 11
4.6602116996
 21
4.9709971831
  0
LINE
  5
28B
100
AcDbEntity
  8
03__ASM_ALL_CURVES
100
AcDbLine
 62
40
  6
CONTINUOUS
 10
5.0682445121
 20
4.9888346837
 11
5.0682445121
 21
5.0245096847
  0
LINE
  5
28C
100
AcDbEntity
  8
03__ASM_ALL_CURVES
100
AcDbLine
 62
40
  6
CONTINUOUS
 10
5.1752695121
 20
4.9888346837
 11
5.1752695121
 21
5.0245096847
  0
LINE
  5
28D
100
AcDbEntity
  8
03__ASM_ALL_CURVES
100
AcDbLine
 62
40
  6
CONTINUOUS
 10
5.3224288871
 20
4.9977534315
 11
5.3157398246
 21
4.9709971831
  0
LINE
  5
28E
100
AcDbEntity
  8
03__ASM_ALL_CURVES
100
AcDbLine
 62
40
  6
CONTINUOUS
 10
6.9386150076
 20
3.5409064334
 11
6.9687157888
 21
3.5409064334
  0
LINE
  5
28F
100
AcDbEntity
  8
03__ASM_ALL_CURVES
100
AcDbLine
 62
40
  6
CONTINUOUS
 10
7.1744044607
 20
3.5542845576
 11
7.1994884451
 21
3.5542845576
  0
LINE
  5
290
100
AcDbEntity
  8
03__ASM_ALL_CURVES
100
AcDbLine
 62
40
  6
CONTINUOUS
 10
7.1744044607
 20
3.5944189326
 11
7.2145388357
 21
3.5944189326
  0
LINE
  5
291
100
AcDbEntity
  8
03__ASM_ALL_CURVES
100
AcDbLine
 62
40
  6
CONTINUOUS
 10
6.9561738006
 20
3.6372289326
 11
6.9461402069
 21
3.6372289326
  0
LINE
  5
292
100
AcDbEntity
  8
03__ASM_ALL_CURVES
100
AcDbLine
 62
40
  6
CONTINUOUS
 10
7.1718960663
 20
3.6372289326
 11
7.2120304413
 21
3.6372289326
  0
LINE
  5
293
100
AcDbEntity
  8
0
100
AcDbLine
 62
7
  6
CONTINUOUS
 10
3.3767270323
 20
3.6425051408
 11
3.6634257621
 21
3.6425051408
  0
LINE
  5
294
100
AcDbEntity
  8
0
100
AcDbLine
 62
7
  6
CONTINUOUS
 10
3.373581416
 20
3.6481322746
 11
3.6688741292
 21
3.6481322746
  0
LINE
  5
295
100
AcDbEntity
  8
03__ASM_ALL_CURVES
100
AcDbLine
 62
40
  6
CONTINUOUS
 10
7.0364425506
 20
3.6773633076
 11
7.0113585663
 21
3.6773633076
  0
LINE
  5
296
100
AcDbEntity
  8
03__ASM_ALL_CURVES
100
AcDbLine
 62
40
  6
CONTINUOUS
 10
6.8759050506
 20
3.6773633076
 11
6.8508210663
 21
3.6773633076
  0
LINE
  5
297
100
AcDbEntity
  8
0
100
AcDbLine
 62
7
  6
CONTINUOUS
 10
3.3755604889
 20
3.7161036284
 11
3.6653793542
 21
3.7161036284
  0
LINE
  5
298
100
AcDbEntity
  8
03__ASM_ALL_CURVES
100
AcDbLine
 62
40
  6
CONTINUOUS
 10
6.8508210663
 20
3.7174976826
 11
6.8759050506
 21
3.7174976826
  0
LINE
  5
299
100
AcDbEntity
  8
03__ASM_ALL_CURVES
100
AcDbLine
 62
40
  6
CONTINUOUS
 10
6.9461402069
 20
3.7174976826
 11
6.9561738006
 21
3.7174976826
  0
LINE
  5
29A
100
AcDbEntity
  8
03__ASM_ALL_CURVES
100
AcDbLine
 62
40
  6
CONTINUOUS
 10
7.0113585663
 20
3.7174976826
 11
7.0364425506
 21
3.7174976826
  0
LINE
  5
29B
100
AcDbEntity
  8
03__ASM_ALL_CURVES
100
AcDbLine
 62
40
  6
CONTINUOUS
 10
7.0866105194
 20
3.7174976826
 11
7.1367784881
 21
3.7174976826
  0
LINE
  5
29C
100
AcDbEntity
  8
03__ASM_ALL_CURVES
100
AcDbLine
 62
40
  6
CONTINUOUS
 10
7.1869464569
 20
3.7174976826
 11
7.1969800506
 21
3.7174976826
  0
LINE
  5
29D
100
AcDbEntity
  8
0
100
AcDbLine
 62
7
  6
CONTINUOUS
 10
3.6634257621
 20
3.7180752162
 11
3.3767270323
 21
3.7180752162
  0
LINE
  5
29E
100
AcDbEntity
  8
0
100
AcDbLine
 62
7
  6
CONTINUOUS
 10
3.3767270323
 20
3.7210038526
 11
3.6634257621
 21
3.7210038526
  0
LINE
  5
29F
100
AcDbEntity
  8
0
100
AcDbLine
 62
7
  6
CONTINUOUS
 10
3.373581416
 20
3.7316945114
 11
3.6688741292
 21
3.7316945114
  0
LINE
  5
2A0
100
AcDbEntity
  8
03__ASM_ALL_CURVES
100
AcDbLine
 62
40
  6
CONTINUOUS
 10
4.4327835746
 20
4.9620784329
 11
4.4260945121
 21
4.9709971831
  0
LINE
  5
2A1
100
AcDbEntity
  8
03__ASM_ALL_CURVES
100
AcDbLine
 62
40
  6
CONTINUOUS
 10
4.4729179496
 20
5.0155909305
 11
4.4796070121
 21
5.0066721826
  0
LINE
  5
2A2
100
AcDbEntity
  8
03__ASM_ALL_CURVES
100
AcDbLine
 62
40
  6
CONTINUOUS
 10
4.5398085746
 20
4.9620784329
 11
4.5331195121
 21
4.9709971831
  0
LINE
  5
2A3
100
AcDbEntity
  8
03__ASM_ALL_CURVES
100
AcDbLine
 62
40
  6
CONTINUOUS
 10
4.8608835746
 20
5.0066721826
 11
4.8541945121
 21
5.0245096847
  0
LINE
  5
2A4
100
AcDbEntity
  8
03__ASM_ALL_CURVES
100
AcDbLine
 62
40
  6
CONTINUOUS
 10
4.9010179496
 20
5.0423471805
 11
4.9077070121
 21
5.0245096847
  0
LINE
  5
2A5
100
AcDbEntity
  8
03__ASM_ALL_CURVES
100
AcDbLine
 62
40
  6
CONTINUOUS
 10
5.3224288871
 20
5.0155909305
 11
5.3224288871
 21
4.9977534315
  0
LINE
  5
2A6
100
AcDbEntity
  8
0
100
AcDbLine
 62
7
  6
CONTINUOUS
 10
7.2204257621
 20
4.0423943886
 11
7.2264257621
 21
4.0432910946
  0
LINE
  5
2A7
100
AcDbEntity
  8
0
100
AcDbLine
 62
7
  6
CONTINUOUS
 10
3.3184257621
 20
3.7515734549
 11
3.3334257621
 21
3.7515734549
  0
LINE
  5
2A8
100
AcDbEntity
  8
0
100
AcDbLine
 62
7
  6
CONTINUOUS
 10
3.3184257621
 20
3.7632810955
 11
3.3334257621
 21
3.7632810955
  0
LINE
  5
2A9
100
AcDbEntity
  8
0
100
AcDbLine
 62
7
  6
CONTINUOUS
 10
6.2357018421
 20
3.7934976826
 11
5.7060253263
 21
3.7934976826
  0
LINE
  5
2AA
100
AcDbEntity
  8
0
100
AcDbLine
 62
7
  6
CONTINUOUS
 10
5.7060253263
 20
3.793805098
 11
6.2357018421
 21
3.793805098
  0
LINE
  5
2AB
100
AcDbEntity
  8
0
100
AcDbLine
 62
7
  6
CONTINUOUS
 10
3.3184257621
 20
3.8014216549
 11
3.3334257621
 21
3.8014216549
  0
LINE
  5
2AC
100
AcDbEntity
  8
0
100
AcDbLine
 62
7
  6
CONTINUOUS
 10
3.3184257621
 20
3.8668840156
 11
3.3334257621
 21
3.8668840156
  0
LINE
  5
2AD
100
AcDbEntity
  8
0
100
AcDbLine
 62
7
  6
CONTINUOUS
 10
6.5404257621
 20
3.8674976826
 11
6.2784257621
 21
3.8674976826
  0
LINE
  5
2AE
100
AcDbEntity
  8
0
100
AcDbLine
 62
7
  6
CONTINUOUS
 10
6.5804257621
 20
3.8904976826
 11
6.5664161431
 21
3.8904976826
  0
LINE
  5
2AF
100
AcDbEntity
  8
0
100
AcDbLine
 62
7
  6
CONTINUOUS
 10
6.6504257621
 20
3.8919976826
 11
6.7004257621
 21
3.8919976826
  0
LINE
  5
2B0
100
AcDbEntity
  8
0
100
AcDbLine
 62
7
  6
CONTINUOUS
 10
3.3184257621
 20
3.8922974762
 11
3.3334257621
 21
3.8922974762
  0
LINE
  5
2B1
100
AcDbEntity
  8
0
100
AcDbLine
 62
7
  6
CONTINUOUS
 10
5.6754257621
 20
3.9034976826
 11
3.6984257621
 21
3.9034976826
  0
LINE
  5
2B2
100
AcDbEntity
  8
0
100
AcDbLine
 62
7
  6
CONTINUOUS
 10
6.9044257621
 20
3.9089976826
 11
6.7554257621
 21
3.9089976826
  0
LINE
  5
2B3
100
AcDbEntity
  8
0
100
AcDbLine
 62
7
  6
CONTINUOUS
 10
3.3184257621
 20
3.9152149746
 11
3.3334257621
 21
3.9152149746
  0
LINE
  5
2B4
100
AcDbEntity
  8
0
100
AcDbLine
 62
7
  6
CONTINUOUS
 10
3.3184257621
 20
3.915660449
 11
3.3334257621
 21
3.915660449
  0
LINE
  5
2B5
100
AcDbEntity
  8
0
100
AcDbLine
 62
7
  6
CONTINUOUS
 10
3.6688741292
 20
3.9202026417
 11
3.373581416
 21
3.9202026417
  0
LINE
  5
2B6
100
AcDbEntity
  8
03__ASM_ALL_CURVES
100
AcDbLine
 62
40
  6
CONTINUOUS
 10
4.5799429496
 20
5.0066721826
 11
4.5933210746
 21
4.9888346837
  0
LINE
  5
2B7
100
AcDbEntity
  8
03__ASM_ALL_CURVES
100
AcDbLine
 62
40
  6
CONTINUOUS
 10
4.5799429496
 20
5.0512659347
 11
4.5866320121
 21
5.0423471805
  0
LINE
  5
2B8
100
AcDbEntity
  8
03__ASM_ALL_CURVES
100
AcDbLine
 62
40
  6
CONTINUOUS
 10
4.6602116996
 20
4.9709971831
 11
4.6735898246
 21
4.9531596826
  0
LINE
  5
2B9
100
AcDbEntity
  8
03__ASM_ALL_CURVES
100
AcDbLine
 62
40
  6
CONTINUOUS
 10
4.7538585746
 20
4.9620784329
 11
4.7404804496
 21
4.9799159326
  0
LINE
  5
2BA
100
AcDbEntity
  8
03__ASM_ALL_CURVES
100
AcDbLine
 62
40
  6
CONTINUOUS
 10
4.7538585746
 20
5.0245096847
 11
4.7471695121
 21
5.0334284326
  0
LINE
  5
2BB
100
AcDbEntity
  8
03__ASM_ALL_CURVES
100
AcDbLine
 62
40
  6
CONTINUOUS
 10
4.7939929496
 20
5.0066721826
 11
4.8073710746
 21
4.9888346837
  0
LINE
  5
2BC
100
AcDbEntity
  8
03__ASM_ALL_CURVES
100
AcDbLine
 62
40
  6
CONTINUOUS
 10
5.0749335746
 20
4.9709971831
 11
5.0682445121
 21
4.9888346837
  0
LINE
  5
2BD
100
AcDbEntity
  8
03__ASM_ALL_CURVES
100
AcDbLine
 62
40
  6
CONTINUOUS
 10
5.1150679496
 20
5.0066721826
 11
5.1217570121
 21
4.9888346837
  0
LINE
  5
2BE
100
AcDbEntity
  8
0
100
AcDbLine
 62
7
  6
CONTINUOUS
 10
5.6754257621
 20
4.5884976826
 11
5.7058922116
 21
4.641267121
  0
LINE
  5
2BF
100
AcDbEntity
  8
0
100
AcDbLine
 62
7
  6
CONTINUOUS
 10
3.6634257621
 20
3.9274651382
 11
3.3767270323
 21
3.9274651382
  0
LINE
  5
2C0
100
AcDbEntity
  8
0
100
AcDbLine
 62
7
  6
CONTINUOUS
 10
3.3767270323
 20
3.9325376852
 11
3.6634257621
 21
3.9325376852
  0
LINE
  5
2C1
100
AcDbEntity
  8
0
100
AcDbLine
 62
7
  6
CONTINUOUS
 10
3.3124257621
 20
3.9449976826
 11
3.0044257621
 21
3.9449976826
  0
LINE
  5
2C2
100
AcDbEntity
  8
0
100
AcDbLine
 62
7
  6
CONTINUOUS
 10
3.373581416
 20
3.9454273156
 11
3.6688741292
 21
3.9454273156
  0
LINE
  5
2C3
100
AcDbEntity
  8
0
100
AcDbLine
 62
7
  6
CONTINUOUS
 10
6.7130409858
 20
3.9459976826
 11
6.7004257621
 21
3.9459976826
  0
LINE
  5
2C4
100
AcDbEntity
  8
0
100
AcDbLine
 62
7
  6
CONTINUOUS
 10
6.2357018421
 20
3.9916712144
 11
5.7060253263
 21
3.9916712144
  0
LINE
  5
2C5
100
AcDbEntity
  8
0
100
AcDbLine
 62
7
  6
CONTINUOUS
 10
6.9414257621
 20
3.9999976826
 11
6.9469257621
 21
3.9999976826
  0
LINE
  5
2C6
100
AcDbEntity
  8
0
100
AcDbLine
 62
7
  6
CONTINUOUS
 10
7.0399257621
 20
3.9999976826
 11
7.1654257621
 21
3.9999976826
  0
LINE
  5
2C7
100
AcDbEntity
  8
0
100
AcDbLine
 62
7
  6
CONTINUOUS
 10
7.2404257621
 20
3.9999976826
 11
7.2754257621
 21
3.9999976826
  0
LINE
  5
2C8
100
AcDbEntity
  8
0
100
AcDbLine
 62
7
  6
CONTINUOUS
 10
3.3184257621
 20
4.0011295922
 11
3.3334257621
 21
4.0011295922
  0
LINE
  5
2C9
100
AcDbEntity
  8
0
100
AcDbLine
 62
7
  6
CONTINUOUS
 10
5.7060253263
 20
4.0196315662
 11
6.2357018421
 21
4.0196315662
  0
LINE
  5
2CA
100
AcDbEntity
  8
0
100
AcDbLine
 62
7
  6
CONTINUOUS
 10
3.3184257621
 20
4.0954349743
 11
3.3334257621
 21
4.0954349743
  0
LINE
  5
2CB
100
AcDbEntity
  8
03__ASM_ALL_CURVES
100
AcDbLine
 62
40
  6
CONTINUOUS
 10
7.9136519338
 20
4.1158239326
 11
7.8735175588
 21
4.1158239326
  0
LINE
  5
2CC
100
AcDbEntity
  8
03__ASM_ALL_CURVES
100
AcDbLine
 62
40
  6
CONTINUOUS
 10
7.7129800588
 20
4.1158239326
 11
7.7531144338
 21
4.1158239326
  0
LINE
  5
2CD
100
AcDbEntity
  8
03__ASM_ALL_CURVES
100
AcDbLine
 62
40
  6
CONTINUOUS
 10
4.2321116996
 20
4.9531596826
 11
4.2187335746
 21
4.9620784329
  0
LINE
  5
2CE
100
AcDbEntity
  8
03__ASM_ALL_CURVES
100
AcDbLine
 62
40
  6
CONTINUOUS
 10
4.2454898246
 20
5.0155909305
 11
4.2588679496
 21
5.0066721826
  0
LINE
  5
2CF
100
AcDbEntity
  8
03__ASM_ALL_CURVES
100
AcDbLine
 62
40
  6
CONTINUOUS
 10
4.2454898246
 20
5.0601846826
 11
4.2588679496
 21
5.0512659347
  0
LINE
  5
2D0
100
AcDbEntity
  8
03__ASM_ALL_CURVES
100
AcDbLine
 62
40
  6
CONTINUOUS
 10
4.4461616996
 20
4.9531596826
 11
4.4327835746
 21
4.9620784329
  0
LINE
  5
2D1
100
AcDbEntity
  8
03__ASM_ALL_CURVES
100
AcDbLine
 62
40
  6
CONTINUOUS
 10
4.7939929496
 20
5.0512659347
 11
4.8006820121
 21
5.0423471805
  0
LINE
  5
2D2
100
AcDbEntity
  8
03__ASM_ALL_CURVES
100
AcDbLine
 62
40
  6
CONTINUOUS
 10
4.8675726371
 20
4.9620784329
 11
4.8608835746
 21
4.9709971831
  0
LINE
  5
2D3
100
AcDbEntity
  8
03__ASM_ALL_CURVES
100
AcDbLine
 62
40
  6
CONTINUOUS
 10
4.8943288871
 20
5.0512659347
 11
4.9010179496
 21
5.0423471805
  0
LINE
  5
2D4
100
AcDbEntity
  8
03__ASM_ALL_CURVES
100
AcDbLine
 62
40
  6
CONTINUOUS
 10
4.9812866996
 20
4.9620784329
 11
4.9879757621
 21
4.9531596826
  0
LINE
  5
2D5
100
AcDbEntity
  8
03__ASM_ALL_CURVES
100
AcDbLine
 62
40
  6
CONTINUOUS
 10
5.0816226371
 20
4.9620784329
 11
5.0749335746
 21
4.9709971831
  0
LINE
  5
2D6
100
AcDbEntity
  8
0
100
AcDbLine
 62
7
  6
CONTINUOUS
 10
5.6754257621
 20
3.8464976826
 11
5.7060253263
 21
3.7934976826
  0
LINE
  5
2D7
100
AcDbEntity
  8
03__ASM_ALL_CURVES
100
AcDbLine
 62
40
  6
CONTINUOUS
 10
5.1819585746
 20
4.9709971831
 11
5.1752695121
 21
4.9888346837
  0
LINE
  5
2D8
100
AcDbEntity
  8
03__ASM_ALL_CURVES
100
AcDbLine
 62
40
  6
CONTINUOUS
 10
5.2220929496
 20
5.0066721826
 11
5.2287820121
 21
4.9888346837
  0
LINE
  5
2D9
100
AcDbEntity
  8
03__ASM_ALL_CURVES
100
AcDbLine
 62
40
  6
CONTINUOUS
 10
5.3157398246
 20
5.0423471805
 11
5.3224288871
 21
5.0155909305
  0
LINE
  5
2DA
100
AcDbEntity
  8
0
100
AcDbLine
 62
7
  6
CONTINUOUS
 10
5.6754257621
 20
4.5884927721
 11
5.6754257621
 21
3.8465025931
  0
LINE
  5
2DB
100
AcDbEntity
  8
0
100
AcDbLine
 62
7
  6
CONTINUOUS
 10
5.7060253263
 20
4.6414976826
 11
5.7060253263
 21
4.6411902672
  0
LINE
  5
2DC
100
AcDbEntity
  8
0
100
AcDbLine
 62
7
  6
CONTINUOUS
 10
5.7060253263
 20
4.4433241508
 11
5.7060253263
 21
4.4153637989
  0
LINE
  5
2DD
100
AcDbEntity
  8
0
100
AcDbLine
 62
7
  6
CONTINUOUS
 10
5.7060253263
 20
4.0196315662
 11
5.7060253263
 21
3.9916712144
  0
LINE
  5
2DE
100
AcDbEntity
  8
0
100
AcDbLine
 62
7
  6
CONTINUOUS
 10
5.7060253263
 20
3.793805098
 11
5.7060253263
 21
3.7934976826
  0
LINE
  5
2DF
100
AcDbEntity
  8
03__ASM_ALL_CURVES
100
AcDbLine
 62
40
  6
CONTINUOUS
 10
6.8283798252
 20
5.0512659347
 11
6.8417579502
 21
5.0601846826
  0
LINE
  5
2E0
100
AcDbEntity
  8
03__ASM_ALL_CURVES
100
AcDbLine
 62
40
  6
CONTINUOUS
 10
6.9354048252
 20
5.0512659347
 11
6.9487829502
 21
5.0601846826
  0
LINE
  5
2E1
100
AcDbEntity
  8
0
100
AcDbLine
 62
7
  6
CONTINUOUS
 10
3.3184257621
 20
4.1395707044
 11
3.3334257621
 21
4.1395707044
  0
LINE
  5
2E2
100
AcDbEntity
  8
03__ASM_ALL_CURVES
100
AcDbLine
 62
40
  6
CONTINUOUS
 10
7.6377281057
 20
4.1425801834
 11
7.667828887
 21
4.1425801834
  0
LINE
  5
2E3
100
AcDbEntity
  8
03__ASM_ALL_CURVES
100
AcDbLine
 62
40
  6
CONTINUOUS
 10
7.8735175588
 20
4.1559583076
 11
7.8986015432
 21
4.1559583076
  0
LINE
  5
2E4
100
AcDbEntity
  8
0
100
AcDbLine
 62
7
  6
CONTINUOUS
 10
3.3184257621
 20
4.1631665668
 11
3.3334257621
 21
4.1631665668
  0
LINE
  5
2E5
100
AcDbEntity
  8
03__ASM_ALL_CURVES
100
AcDbLine
 62
40
  6
CONTINUOUS
 10
7.8735175588
 20
4.1960926826
 11
7.9136519338
 21
4.1960926826
  0
LINE
  5
2E6
100
AcDbEntity
  8
0
100
AcDbLine
 62
7
  6
CONTINUOUS
 10
3.3184257621
 20
4.1969039461
 11
3.3334257621
 21
4.1969039461
  0
LINE
  5
2E7
100
AcDbEntity
  8
0
100
AcDbLine
 62
7
  6
CONTINUOUS
 10
3.3184257621
 20
4.1977833982
 11
3.3334257621
 21
4.1977833982
  0
LINE
  5
2E8
100
AcDbEntity
  8
0
100
AcDbLine
 62
7
  6
CONTINUOUS
 10
3.6688741292
 20
4.2029342103
 11
3.373581416
 21
4.2029342103
  0
LINE
  5
2E9
100
AcDbEntity
  8
0
100
AcDbLine
 62
7
  6
CONTINUOUS
 10
3.6634257621
 20
4.2145690462
 11
3.3767270323
 21
4.2145690462
  0
LINE
  5
2EA
100
AcDbEntity
  8
0
100
AcDbLine
 62
7
  6
CONTINUOUS
 10
3.3767270323
 20
4.220426319
 11
3.6634257621
 21
4.220426319
  0
LINE
  5
2EB
100
AcDbEntity
  8
0
100
AcDbLine
 62
7
  6
CONTINUOUS
 10
3.3184257621
 20
4.2303986445
 11
3.3334257621
 21
4.2303986445
  0
LINE
  5
2EC
100
AcDbEntity
  8
0
100
AcDbLine
 62
7
  6
CONTINUOUS
 10
3.373581416
 20
4.2320611549
 11
3.6688741292
 21
4.2320611549
  0
LINE
  5
2ED
100
AcDbEntity
  8
03__ASM_ALL_CURVES
100
AcDbLine
 62
40
  6
CONTINUOUS
 10
7.6527784969
 20
4.2389026826
 11
7.6427449032
 21
4.2389026826
  0
LINE
  5
2EE
100
AcDbEntity
  8
0
100
AcDbLine
 62
7
  6
CONTINUOUS
 10
3.3184257621
 20
4.2632865338
 11
3.3334257621
 21
4.2632865338
  0
LINE
  5
2EF
100
AcDbEntity
  8
0
100
AcDbLine
 62
7
  6
CONTINUOUS
 10
3.3184257621
 20
4.2643911434
 11
3.3334257621
 21
4.2643911434
  0
LINE
  5
2F0
100
AcDbEntity
  8
03__ASM_ALL_CURVES
100
AcDbLine
 62
40
  6
CONTINUOUS
 10
7.7330472469
 20
4.2790370576
 11
7.7079632625
 21
4.2790370576
  0
LINE
  5
2F1
100
AcDbEntity
  8
03__ASM_ALL_CURVES
100
AcDbLine
 62
40
  6
CONTINUOUS
 10
7.5725097469
 20
4.2790370576
 11
7.5474257625
 21
4.2790370576
  0
LINE
  5
2F2
100
AcDbEntity
  8
0
100
AcDbLine
 62
7
  6
CONTINUOUS
 10
3.3184257621
 20
4.289365716
 11
3.3334257621
 21
4.289365716
  0
LINE
  5
2F3
100
AcDbEntity
  8
03__ASM_ALL_CURVES
100
AcDbLine
 62
40
  6
CONTINUOUS
 10
4.5531866996
 20
4.9531596826
 11
4.5398085746
 21
4.9620784329
  0
LINE
  5
2F4
100
AcDbEntity
  8
03__ASM_ALL_CURVES
100
AcDbLine
 62
40
  6
CONTINUOUS
 10
4.4595398246
 20
5.0245096847
 11
4.4729179496
 21
5.0155909305
  0
LINE
  5
2F5
100
AcDbEntity
  8
03__ASM_ALL_CURVES
100
AcDbLine
 62
40
  6
CONTINUOUS
 10
4.5665648246
 20
5.0155909305
 11
4.5799429496
 21
5.0066721826
  0
LINE
  5
2F6
100
AcDbEntity
  8
03__ASM_ALL_CURVES
100
AcDbLine
 62
40
  6
CONTINUOUS
 10
4.5665648246
 20
5.0601846826
 11
4.5799429496
 21
5.0512659347
  0
LINE
  5
2F7
100
AcDbEntity
  8
03__ASM_ALL_CURVES
100
AcDbLine
 62
40
  6
CONTINUOUS
 10
4.7672366996
 20
4.9531596826
 11
4.7538585746
 21
4.9620784329
  0
LINE
  5
2F8
100
AcDbEntity
  8
03__ASM_ALL_CURVES
100
AcDbLine
 62
40
  6
CONTINUOUS
 10
5.1083788871
 20
5.0512659347
 11
5.1150679496
 21
5.0423471805
  0
LINE
  5
2F9
100
AcDbEntity
  8
03__ASM_ALL_CURVES
100
AcDbLine
 62
40
  6
CONTINUOUS
 10
5.1886476371
 20
4.9620784329
 11
5.1819585746
 21
4.9709971831
  0
LINE
  5
2FA
100
AcDbEntity
  8
03__ASM_ALL_CURVES
100
AcDbLine
 62
40
  6
CONTINUOUS
 10
5.2154038871
 20
5.0512659347
 11
5.2220929496
 21
5.0423471805
  0
LINE
  5
2FB
100
AcDbEntity
  8
03__ASM_ALL_CURVES
100
AcDbLine
 62
40
  6
CONTINUOUS
 10
6.8685142002
 20
4.9620784329
 11
6.8551360752
 21
4.9531596826
  0
LINE
  5
2FC
100
AcDbEntity
  8
03__ASM_ALL_CURVES
100
AcDbLine
 62
40
  6
CONTINUOUS
 10
6.9755392002
 20
4.9620784329
 11
6.9621610752
 21
4.9531596826
  0
LINE
  5
2FD
100
AcDbEntity
  8
0
100
AcDbLine
 62
7
  6
CONTINUOUS
 10
3.3184257621
 20
4.3171199768
 11
3.3334257621
 21
4.3171199768
  0
LINE
  5
2FE
100
AcDbEntity
  8
03__ASM_ALL_CURVES
100
AcDbLine
 62
40
  6
CONTINUOUS
 10
7.5474257625
 20
4.3191714326
 11
7.5725097469
 21
4.3191714326
  0
LINE
  5
2FF
100
AcDbEntity
  8
03__ASM_ALL_CURVES
100
AcDbLine
 62
40
  6
CONTINUOUS
 10
7.6427449032
 20
4.3191714326
 11
7.6527784969
 21
4.3191714326
  0
LINE
  5
300
100
AcDbEntity
  8
03__ASM_ALL_CURVES
100
AcDbLine
 62
40
  6
CONTINUOUS
 10
7.7079632625
 20
4.3191714326
 11
7.7330472469
 21
4.3191714326
  0
LINE
  5
301
100
AcDbEntity
  8
03__ASM_ALL_CURVES
100
AcDbLine
 62
40
  6
CONTINUOUS
 10
7.7832152157
 20
4.3191714326
 11
7.8333831844
 21
4.3191714326
  0
LINE
  5
302
100
AcDbEntity
  8
0
100
AcDbLine
 62
7
  6
CONTINUOUS
 10
3.3184257621
 20
4.3238861525
 11
3.3334257621
 21
4.3238861525
  0
LINE
  5
303
100
AcDbEntity
  8
0
100
AcDbLine
 62
7
  6
CONTINUOUS
 10
3.3184257621
 20
4.3325916839
 11
3.3334257621
 21
4.3325916839
  0
LINE
  5
304
100
AcDbEntity
  8
0
100
AcDbLine
 62
7
  6
CONTINUOUS
 10
6.2357018421
 20
4.4153637989
 11
5.7060253263
 21
4.4153637989
  0
LINE
  5
305
100
AcDbEntity
  8
0
100
AcDbLine
 62
7
  6
CONTINUOUS
 10
3.3184257621
 20
4.4329975529
 11
3.3334257621
 21
4.4329975529
  0
LINE
  5
306
100
AcDbEntity
  8
0
100
AcDbLine
 62
7
  6
CONTINUOUS
 10
6.9414257621
 20
4.4349976826
 11
6.9469257621
 21
4.4349976826
  0
LINE
  5
307
100
AcDbEntity
  8
0
100
AcDbLine
 62
7
  6
CONTINUOUS
 10
7.0399257621
 20
4.4349976826
 11
7.1654257621
 21
4.4349976826
  0
LINE
  5
308
100
AcDbEntity
  8
0
100
AcDbLine
 62
7
  6
CONTINUOUS
 10
7.2404257621
 20
4.4349976826
 11
7.2754257621
 21
4.4349976826
  0
LINE
  5
309
100
AcDbEntity
  8
0
100
AcDbLine
 62
7
  6
CONTINUOUS
 10
5.7060253263
 20
4.4433241508
 11
6.2357018421
 21
4.4433241508
  0
LINE
  5
30A
100
AcDbEntity
  8
0
100
AcDbLine
 62
7
  6
CONTINUOUS
 10
6.7130409858
 20
4.4889976826
 11
6.7004257621
 21
4.4889976826
  0
LINE
  5
30B
100
AcDbEntity
  8
0
100
AcDbLine
 62
7
  6
CONTINUOUS
 10
3.6688741292
 20
4.4895680496
 11
3.373581416
 21
4.4895680496
  0
LINE
  5
30C
100
AcDbEntity
  8
0
100
AcDbLine
 62
7
  6
CONTINUOUS
 10
3.3124257621
 20
4.4899976826
 11
3.0044257621
 21
4.4899976826
  0
LINE
  5
30D
100
AcDbEntity
  8
0
100
AcDbLine
 62
7
  6
CONTINUOUS
 10
3.6634257621
 20
4.50245768
 11
3.3767270323
 21
4.50245768
  0
LINE
  5
30E
100
AcDbEntity
  8
03__ASM_ALL_CURVES
100
AcDbLine
 62
40
  6
CONTINUOUS
 10
3.1328557621
 20
4.8889446826
 11
3.0044257621
 21
4.9103496826
  0
LINE
  5
30F
100
AcDbEntity
  8
03__ASM_ALL_CURVES
100
AcDbLine
 62
40
  6
CONTINUOUS
 10
4.7672366996
 20
5.0155909305
 11
4.7538585746
 21
5.0245096847
  0
LINE
  5
310
100
AcDbEntity
  8
03__ASM_ALL_CURVES
100
AcDbLine
 62
40
  6
CONTINUOUS
 10
4.7806148246
 20
5.0155909305
 11
4.7939929496
 21
5.0066721826
  0
LINE
  5
311
100
AcDbEntity
  8
03__ASM_ALL_CURVES
100
AcDbLine
 62
40
  6
CONTINUOUS
 10
4.8809507621
 20
4.9531596826
 11
4.8675726371
 21
4.9620784329
  0
LINE
  5
312
100
AcDbEntity
  8
03__ASM_ALL_CURVES
100
AcDbLine
 62
40
  6
CONTINUOUS
 10
4.7806148246
 20
5.0601846826
 11
4.7939929496
 21
5.0512659347
  0
LINE
  5
313
100
AcDbEntity
  8
03__ASM_ALL_CURVES
100
AcDbLine
 62
40
  6
CONTINUOUS
 10
6.9461402069
 20
3.6372289326
 11
6.9361066131
 21
3.6439179953
  0
LINE
  5
314
100
AcDbEntity
  8
03__ASM_ALL_CURVES
100
AcDbLine
 62
40
  6
CONTINUOUS
 10
6.8759050506
 20
3.7174976826
 11
6.8859386444
 21
3.7108086217
  0
LINE
  5
315
100
AcDbEntity
  8
03__ASM_ALL_CURVES
100
AcDbLine
 62
40
  6
CONTINUOUS
 10
4.8809507621
 20
5.0601846826
 11
4.8943288871
 21
5.0512659347
  0
LINE
  5
316
100
AcDbEntity
  8
03__ASM_ALL_CURVES
100
AcDbLine
 62
40
  6
CONTINUOUS
 10
5.0950007621
 20
4.9531596826
 11
5.0816226371
 21
4.9620784329
  0
LINE
  5
317
100
AcDbEntity
  8
03__ASM_ALL_CURVES
100
AcDbLine
 62
40
  6
CONTINUOUS
 10
6.9561738006
 20
3.7174976826
 11
6.9662073944
 21
3.7108086217
  0
LINE
  5
318
100
AcDbEntity
  8
03__ASM_ALL_CURVES
100
AcDbLine
 62
40
  6
CONTINUOUS
 10
7.0364425506
 20
3.7174976826
 11
7.0464761444
 21
3.7108086217
  0
LINE
  5
319
100
AcDbEntity
  8
03__ASM_ALL_CURVES
100
AcDbLine
 62
40
  6
CONTINUOUS
 10
5.3023616996
 20
5.0601846826
 11
5.3157398246
 21
5.0423471805
  0
LINE
  5
31A
100
AcDbEntity
  8
03__ASM_ALL_CURVES
100
AcDbLine
 62
40
  6
CONTINUOUS
 10
6.8150017002
 20
5.0334284326
 11
6.8283798252
 21
5.0512659347
  0
LINE
  5
31B
100
AcDbEntity
  8
03__ASM_ALL_CURVES
100
AcDbLine
 62
40
  6
CONTINUOUS
 10
7.4705298252
 20
5.0512659347
 11
7.4839079502
 21
5.0601846826
  0
LINE
  5
31C
100
AcDbEntity
  8
03__ASM_ALL_CURVES
100
AcDbLine
 62
40
  6
CONTINUOUS
 10
7.5106642002
 20
4.9620784329
 11
7.4972860752
 21
4.9531596826
  0
LINE
  5
31D
100
AcDbEntity
  8
03__ASM_ALL_CURVES
100
AcDbLine
 62
40
  6
CONTINUOUS
 10
7.6979579502
 20
5.0601846826
 11
7.6845798252
 21
5.0512659347
  0
LINE
  5
31E
100
AcDbEntity
  8
0
100
AcDbLine
 62
7
  6
CONTINUOUS
 10
3.3767270323
 20
4.507530227
 11
3.6634257621
 21
4.507530227
  0
LINE
  5
31F
100
AcDbEntity
  8
0
100
AcDbLine
 62
7
  6
CONTINUOUS
 10
3.373581416
 20
4.5147927235
 11
3.6688741292
 21
4.5147927235
  0
LINE
  5
320
100
AcDbEntity
  8
0
100
AcDbLine
 62
7
  6
CONTINUOUS
 10
3.3184257621
 20
4.5193349161
 11
3.3334257621
 21
4.5193349161
  0
LINE
  5
321
100
AcDbEntity
  8
0
100
AcDbLine
 62
7
  6
CONTINUOUS
 10
6.9044257621
 20
4.5259976826
 11
6.7554257621
 21
4.5259976826
  0
LINE
  5
322
100
AcDbEntity
  8
0
100
AcDbLine
 62
7
  6
CONTINUOUS
 10
5.6754257621
 20
4.5314976826
 11
3.6984257621
 21
4.5314976826
  0
LINE
  5
323
100
AcDbEntity
  8
0
100
AcDbLine
 62
7
  6
CONTINUOUS
 10
6.6504257621
 20
4.5429976826
 11
6.7004257621
 21
4.5429976826
  0
LINE
  5
324
100
AcDbEntity
  8
0
100
AcDbLine
 62
7
  6
CONTINUOUS
 10
6.5804257621
 20
4.5444976826
 11
6.5664161431
 21
4.5444976826
  0
LINE
  5
325
100
AcDbEntity
  8
0
100
AcDbLine
 62
7
  6
CONTINUOUS
 10
6.5404257621
 20
4.5674976826
 11
6.2784257621
 21
4.5674976826
  0
LINE
  5
326
100
AcDbEntity
  8
0
100
AcDbLine
 62
7
  6
CONTINUOUS
 10
3.3184257621
 20
4.6327268726
 11
3.3334257621
 21
4.6327268726
  0
LINE
  5
327
100
AcDbEntity
  8
0
100
AcDbLine
 62
7
  6
CONTINUOUS
 10
6.2357018421
 20
4.6411902672
 11
5.7060253263
 21
4.6411902672
  0
LINE
  5
328
100
AcDbEntity
  8
0
100
AcDbLine
 62
7
  6
CONTINUOUS
 10
6.2357018421
 20
4.6414976826
 11
5.7060253263
 21
4.6414976826
  0
LINE
  5
329
100
AcDbEntity
  8
0
100
AcDbLine
 62
7
  6
CONTINUOUS
 10
3.3184257621
 20
4.6691527715
 11
3.3334257621
 21
4.6691527715
  0
LINE
  5
32A
100
AcDbEntity
  8
0
100
AcDbLine
 62
7
  6
CONTINUOUS
 10
3.3184257621
 20
4.6825023313
 11
3.3334257621
 21
4.6825023313
  0
LINE
  5
32B
100
AcDbEntity
  8
0
100
AcDbLine
 62
7
  6
CONTINUOUS
 10
3.3184257621
 20
4.6828122014
 11
3.3334257621
 21
4.6828122014
  0
LINE
  5
32C
100
AcDbEntity
  8
0
100
AcDbLine
 62
7
  6
CONTINUOUS
 10
3.3184257621
 20
4.6831198426
 11
3.3334257621
 21
4.6831198426
  0
LINE
  5
32D
100
AcDbEntity
  8
0
100
AcDbLine
 62
7
  6
CONTINUOUS
 10
3.3184257621
 20
4.6834219103
 11
3.3334257621
 21
4.6834219103
  0
LINE
  5
32E
100
AcDbEntity
  8
03__ASM_ALL_CURVES
100
AcDbLine
 62
40
  6
CONTINUOUS
 10
3.1328557621
 20
4.8996471826
 11
3.0044257621
 21
4.9103496826
  0
LINE
  5
32F
100
AcDbEntity
  8
03__ASM_ALL_CURVES
100
AcDbLine
 62
40
  6
CONTINUOUS
 10
3.1328557621
 20
4.8960796826
 11
3.0044257621
 21
4.9103496826
  0
LINE
  5
330
100
AcDbEntity
  8
03__ASM_ALL_CURVES
100
AcDbLine
 62
40
  6
CONTINUOUS
 10
3.1328557621
 20
4.8925121826
 11
3.0044257621
 21
4.9103496826
  0
LINE
  5
331
100
AcDbEntity
  8
0
100
AcDbLine
 62
7
  6
CONTINUOUS
 10
7.2204257621
 20
4.3926009766
 11
7.2264257621
 21
4.3917042706
  0
LINE
  5
332
100
AcDbEntity
  8
03__ASM_ALL_CURVES
100
AcDbLine
 62
40
  6
CONTINUOUS
 10
4.8809507621
 20
4.9977534315
 11
4.8608835746
 21
5.0066721826
  0
LINE
  5
333
100
AcDbEntity
  8
03__ASM_ALL_CURVES
100
AcDbLine
 62
40
  6
CONTINUOUS
 10
5.0950007621
 20
5.0155909305
 11
5.1150679496
 21
5.0066721826
  0
LINE
  5
334
100
AcDbEntity
  8
03__ASM_ALL_CURVES
100
AcDbLine
 62
40
  6
CONTINUOUS
 10
5.2020257621
 20
4.9531596826
 11
5.1886476371
 21
4.9620784329
  0
LINE
  5
335
100
AcDbEntity
  8
03__ASM_ALL_CURVES
100
AcDbLine
 62
40
  6
CONTINUOUS
 10
5.0950007621
 20
5.0601846826
 11
5.1083788871
 21
5.0512659347
  0
LINE
  5
336
100
AcDbEntity
  8
03__ASM_ALL_CURVES
100
AcDbLine
 62
40
  6
CONTINUOUS
 10
7.1969800506
 20
3.7174976826
 11
7.2070136444
 21
3.7108086217
  0
LINE
  5
337
100
AcDbEntity
  8
03__ASM_ALL_CURVES
100
AcDbLine
 62
40
  6
CONTINUOUS
 10
5.2020257621
 20
5.0601846826
 11
5.2154038871
 21
5.0512659347
  0
LINE
  5
338
100
AcDbEntity
  8
0
100
AcDbLine
 62
7
  6
CONTINUOUS
 10
6.7222333739
 20
3.9421900708
 11
6.7554257621
 21
3.9089976826
  0
LINE
  5
339
100
AcDbEntity
  8
0
100
AcDbLine
 62
7
  6
CONTINUOUS
 10
6.2357018421
 20
3.7934976826
 11
6.2357018421
 21
3.793805098
  0
LINE
  5
33A
100
AcDbEntity
  8
0
100
AcDbLine
 62
7
  6
CONTINUOUS
 10
6.2357018421
 20
3.9916712144
 11
6.2357018421
 21
4.0196315662
  0
LINE
  5
33B
100
AcDbEntity
  8
0
100
AcDbLine
 62
7
  6
CONTINUOUS
 10
6.2357018421
 20
4.4153637989
 11
6.2357018421
 21
4.4433241508
  0
LINE
  5
33C
100
AcDbEntity
  8
0
100
AcDbLine
 62
7
  6
CONTINUOUS
 10
6.2357018421
 20
4.6411902672
 11
6.2357018421
 21
4.6414976826
  0
LINE
  5
33D
100
AcDbEntity
  8
0
100
AcDbLine
 62
7
  6
CONTINUOUS
 10
6.2784257621
 20
4.5674976826
 11
6.2784257621
 21
3.8674976826
  0
LINE
  5
33E
100
AcDbEntity
  8
03__ASM_ALL_CURVES
100
AcDbLine
 62
40
  6
CONTINUOUS
 10
6.8818923252
 20
4.9799159326
 11
6.8685142002
 21
4.9620784329
  0
LINE
  5
33F
100
AcDbEntity
  8
03__ASM_ALL_CURVES
100
AcDbLine
 62
40
  6
CONTINUOUS
 10
6.9220267002
 20
5.0334284326
 11
6.9354048252
 21
5.0512659347
  0
LINE
  5
340
100
AcDbEntity
  8
03__ASM_ALL_CURVES
100
AcDbLine
 62
40
  6
CONTINUOUS
 10
6.9822282627
 20
4.9709971831
 11
6.9755392002
 21
4.9620784329
  0
LINE
  5
341
100
AcDbEntity
  8
0
100
AcDbLine
 62
7
  6
CONTINUOUS
 10
6.7222333739
 20
4.4928052944
 11
6.7554257621
 21
4.5259976826
  0
LINE
  5
342
100
AcDbEntity
  8
03__ASM_ALL_CURVES
100
AcDbLine
 62
40
  6
CONTINUOUS
 10
7.7247142002
 20
4.9620784329
 11
7.7113360752
 21
4.9531596826
  0
LINE
  5
343
100
AcDbEntity
  8
03__ASM_ALL_CURVES
100
AcDbLine
 62
40
  6
CONTINUOUS
 10
7.8986298252
 20
5.0512659347
 11
7.9120079502
 21
5.0601846826
  0
LINE
  5
344
100
AcDbEntity
  8
03__ASM_ALL_CURVES
100
AcDbLine
 62
40
  6
CONTINUOUS
 10
6.4149957621
 20
4.8889446826
 11
6.6718557621
 21
4.9317546826
  0
LINE
  5
345
100
AcDbEntity
  8
03__ASM_ALL_CURVES
100
AcDbLine
 62
40
  6
CONTINUOUS
 10
6.4149957621
 20
4.8925121826
 11
6.6718557621
 21
4.9281871826
  0
LINE
  5
346
100
AcDbEntity
  8
03__ASM_ALL_CURVES
100
AcDbLine
 62
40
  6
CONTINUOUS
 10
6.4149957621
 20
4.8960796826
 11
6.6718557621
 21
4.9246196826
  0
LINE
  5
347
100
AcDbEntity
  8
03__ASM_ALL_CURVES
100
AcDbLine
 62
40
  6
CONTINUOUS
 10
6.4149957621
 20
4.8996471826
 11
6.6718557621
 21
4.9210521826
  0
LINE
  5
348
100
AcDbEntity
  8
03__ASM_ALL_CURVES
100
AcDbLine
 62
40
  6
CONTINUOUS
 10
6.4149957621
 20
4.9032146826
 11
6.6718557621
 21
4.9174846826
  0
LINE
  5
349
100
AcDbEntity
  8
03__ASM_ALL_CURVES
100
AcDbLine
 62
40
  6
CONTINUOUS
 10
6.4149957621
 20
4.9067821826
 11
6.6718557621
 21
4.9139171826
  0
LINE
  5
34A
100
AcDbEntity
  8
0
100
AcDbLine
 62
7
  6
CONTINUOUS
 10
3.6688741292
 20
4.7033008538
 11
3.373581416
 21
4.7033008538
  0
LINE
  5
34B
100
AcDbEntity
  8
0
100
AcDbLine
 62
7
  6
CONTINUOUS
 10
3.6634257621
 20
4.7139915125
 11
3.3767270323
 21
4.7139915125
  0
LINE
  5
34C
100
AcDbEntity
  8
0
100
AcDbLine
 62
7
  6
CONTINUOUS
 10
3.3767270323
 20
4.716920149
 11
3.6634257621
 21
4.716920149
  0
LINE
  5
34D
100
AcDbEntity
  8
0
100
AcDbLine
 62
7
  6
CONTINUOUS
 10
3.665379357
 20
4.7188917368
 11
3.3755609762
 21
4.7188917368
  0
LINE
  5
34E
100
AcDbEntity
  8
0
100
AcDbLine
 62
7
  6
CONTINUOUS
 10
3.6688741292
 20
4.7868630906
 11
3.373581416
 21
4.7868630906
  0
LINE
  5
34F
100
AcDbEntity
  8
0
100
AcDbLine
 62
7
  6
CONTINUOUS
 10
3.6634257621
 20
4.7924902244
 11
3.3767270323
 21
4.7924902244
  0
LINE
  5
350
100
AcDbEntity
  8
03__ASM_ALL_CURVES
100
AcDbLine
 62
40
  6
CONTINUOUS
 10
3.1328557621
 20
4.9067821826
 11
3.0044257621
 21
4.9103496826
  0
LINE
  5
351
100
AcDbEntity
  8
03__ASM_ALL_CURVES
100
AcDbLine
 62
40
  6
CONTINUOUS
 10
3.1328557621
 20
4.9032146826
 11
3.0044257621
 21
4.9103496826
  0
LINE
  5
352
100
AcDbEntity
  8
03__ASM_ALL_CURVES
100
AcDbLine
 62
40
  6
CONTINUOUS
 10
5.2020257621
 20
5.0155909305
 11
5.2220929496
 21
5.0066721826
  0
LINE
  5
353
100
AcDbEntity
  8
0
100
AcDbLine
 62
7
  6
CONTINUOUS
 10
6.5639161431
 20
4.5451675556
 11
6.5459257621
 21
4.5555543069
  0
LINE
  5
354
100
AcDbEntity
  8
03__ASM_ALL_CURVES
100
AcDbLine
 62
40
  6
CONTINUOUS
 10
6.9361066131
 20
3.6439179953
 11
6.9260730194
 21
3.6572961201
  0
LINE
  5
355
100
AcDbEntity
  8
03__ASM_ALL_CURVES
100
AcDbLine
 62
40
  6
CONTINUOUS
 10
6.8859386444
 20
3.7108086217
 11
6.8909554413
 21
3.704119556
  0
LINE
  5
356
100
AcDbEntity
  8
03__ASM_ALL_CURVES
100
AcDbLine
 62
40
  6
CONTINUOUS
 10
6.9662073944
 20
3.7108086217
 11
6.9762409881
 21
3.6974304951
  0
LINE
  5
357
100
AcDbEntity
  8
0
100
AcDbLine
 62
7
  6
CONTINUOUS
 10
6.2784257621
 20
4.5674976826
 11
6.2358349569
 21
4.641267121
  0
LINE
  5
358
100
AcDbEntity
  8
03__ASM_ALL_CURVES
100
AcDbLine
 62
40
  6
CONTINUOUS
 10
6.4149957621
 20
4.9317546826
 11
6.4149957621
 21
4.8889446826
  0
LINE
  5
359
100
AcDbEntity
  8
0
100
AcDbLine
 62
7
  6
CONTINUOUS
 10
6.5404257621
 20
3.8674976826
 11
6.5404257621
 21
4.5674976826
  0
LINE
  5
35A
100
AcDbEntity
  8
0
100
AcDbLine
 62
7
  6
CONTINUOUS
 10
6.5434257621
 20
3.8704979126
 11
6.5434257621
 21
4.5644974526
  0
LINE
  5
35B
100
AcDbEntity
  8
03__ASM_ALL_CURVES
100
AcDbLine
 62
40
  6
CONTINUOUS
 10
6.5434257621
 20
4.5644976826
 11
6.5434257621
 21
4.9531596826
  0
LINE
  5
35C
100
AcDbEntity
  8
0
100
AcDbLine
 62
7
  6
CONTINUOUS
 10
6.5459257621
 20
4.5555543069
 11
6.5459257621
 21
3.8794410583
  0
LINE
  5
35D
100
AcDbEntity
  8
0
100
AcDbLine
 62
7
  6
CONTINUOUS
 10
6.5639161431
 20
3.8898278096
 11
6.5639161431
 21
4.5451675556
  0
LINE
  5
35E
100
AcDbEntity
  8
0
100
AcDbLine
 62
7
  6
CONTINUOUS
 10
6.5664161431
 20
4.5444976826
 11
6.5664161431
 21
3.8904976826
  0
LINE
  5
35F
100
AcDbEntity
  8
0
100
AcDbLine
 62
7
  6
CONTINUOUS
 10
6.5804257621
 20
3.8904980339
 11
6.5804257621
 21
4.5444973313
  0
LINE
  5
360
100
AcDbEntity
  8
0
100
AcDbLine
 62
7
  6
CONTINUOUS
 10
6.2784257621
 20
3.8674976826
 11
6.2358349569
 21
3.7937282441
  0
LINE
  5
361
100
AcDbEntity
  8
03__ASM_ALL_CURVES
100
AcDbLine
 62
40
  6
CONTINUOUS
 10
7.9387642002
 20
4.9620784329
 11
7.9253860752
 21
4.9531596826
  0
LINE
  5
362
100
AcDbEntity
  8
03__ASM_ALL_CURVES
100
AcDbLine
 62
40
  6
CONTINUOUS
 10
8.0457892002
 20
4.9620784329
 11
8.0324110752
 21
4.9531596826
  0
LINE
  5
363
100
AcDbEntity
  8
03__ASM_ALL_CURVES
100
AcDbLine
 62
40
  6
CONTINUOUS
 10
8.2531501377
 20
4.9620784329
 11
8.2397720127
 21
4.9531596826
  0
LINE
  5
364
100
AcDbEntity
  8
0
100
AcDbLine
 62
7
  6
CONTINUOUS
 10
6.5639161431
 20
3.8898278096
 11
6.5459257621
 21
3.8794410583
  0
LINE
  5
365
100
AcDbEntity
  8
03__ASM_ALL_CURVES
100
AcDbLine
 62
40
  6
CONTINUOUS
 10
3.1328557621
 20
4.9174846826
 11
3.0044257621
 21
4.9103496826
  0
LINE
  5
366
100
AcDbEntity
  8
03__ASM_ALL_CURVES
100
AcDbLine
 62
40
  6
CONTINUOUS
 10
3.1328557621
 20
4.9139171826
 11
3.0044257621
 21
4.9103496826
  0
LINE
  5
367
100
AcDbEntity
  8
03__ASM_ALL_CURVES
100
AcDbLine
 62
40
  6
CONTINUOUS
 10
3.0044257621
 20
4.9103496826
 11
8.5983057621
 21
4.9103496826
  0
LINE
  5
368
100
AcDbEntity
  8
03__ASM_ALL_CURVES
100
AcDbLine
 62
40
  6
CONTINUOUS
 10
8.3735532627
 20
4.9531596826
 11
8.3200407627
 21
4.9531596826
  0
LINE
  5
369
100
AcDbEntity
  8
03__ASM_ALL_CURVES
100
AcDbLine
 62
40
  6
CONTINUOUS
 10
8.2397720127
 20
4.9531596826
 11
8.2130157627
 21
4.9531596826
  0
LINE
  5
36A
100
AcDbEntity
  8
03__ASM_ALL_CURVES
100
AcDbLine
 62
40
  6
CONTINUOUS
 10
8.0324110752
 20
4.9531596826
 11
8.0190329502
 21
4.9531596826
  0
LINE
  5
36B
100
AcDbEntity
  8
03__ASM_ALL_CURVES
100
AcDbLine
 62
40
  6
CONTINUOUS
 10
7.9253860752
 20
4.9531596826
 11
7.9120079502
 21
4.9531596826
  0
LINE
  5
36C
100
AcDbEntity
  8
03__ASM_ALL_CURVES
100
AcDbLine
 62
40
  6
CONTINUOUS
 10
7.7113360752
 20
4.9531596826
 11
7.6979579502
 21
4.9531596826
  0
LINE
  5
36D
100
AcDbEntity
  8
03__ASM_ALL_CURVES
100
AcDbLine
 62
40
  6
CONTINUOUS
 10
7.4972860752
 20
4.9531596826
 11
7.4839079502
 21
4.9531596826
  0
LINE
  5
36E
100
AcDbEntity
  8
03__ASM_ALL_CURVES
100
AcDbLine
 62
40
  6
CONTINUOUS
 10
6.9621610752
 20
4.9531596826
 11
6.9487829502
 21
4.9531596826
  0
LINE
  5
36F
100
AcDbEntity
  8
03__ASM_ALL_CURVES
100
AcDbLine
 62
40
  6
CONTINUOUS
 10
6.8551360752
 20
4.9531596826
 11
6.8417579502
 21
4.9531596826
  0
LINE
  5
370
100
AcDbEntity
  8
03__ASM_ALL_CURVES
100
AcDbLine
 62
40
  6
CONTINUOUS
 10
4.9879757621
 20
4.9531596826
 11
4.9812866996
 21
4.9531596826
  0
LINE
  5
371
100
AcDbEntity
  8
03__ASM_ALL_CURVES
100
AcDbLine
 62
40
  6
CONTINUOUS
 10
4.7806148246
 20
4.9531596826
 11
4.7672366996
 21
4.9531596826
  0
LINE
  5
372
100
AcDbEntity
  8
03__ASM_ALL_CURVES
100
AcDbLine
 62
40
  6
CONTINUOUS
 10
4.5665648246
 20
4.9531596826
 11
4.5531866996
 21
4.9531596826
  0
LINE
  5
373
100
AcDbEntity
  8
03__ASM_ALL_CURVES
100
AcDbLine
 62
40
  6
CONTINUOUS
 10
4.4595398246
 20
4.9531596826
 11
4.4461616996
 21
4.9531596826
  0
LINE
  5
374
100
AcDbEntity
  8
03__ASM_ALL_CURVES
100
AcDbLine
 62
40
  6
CONTINUOUS
 10
4.3458257621
 20
4.9531596826
 11
4.3391366996
 21
4.9531596826
  0
LINE
  5
375
100
AcDbEntity
  8
03__ASM_ALL_CURVES
100
AcDbLine
 62
40
  6
CONTINUOUS
 10
4.2454898246
 20
4.9531596826
 11
4.2321116996
 21
4.9531596826
  0
LINE
  5
376
100
AcDbEntity
  8
03__ASM_ALL_CURVES
100
AcDbLine
 62
40
  6
CONTINUOUS
 10
6.7146657627
 20
4.9531596826
 11
6.7681782627
 21
4.9531596826
  0
LINE
  5
377
100
AcDbEntity
  8
03__ASM_ALL_CURVES
100
AcDbLine
 62
40
  6
CONTINUOUS
 10
8.1059907627
 20
4.9531596826
 11
8.1595032627
 21
4.9531596826
  0
LINE
  5
378
100
AcDbEntity
  8
03__ASM_ALL_CURVES
100
AcDbLine
 62
40
  6
CONTINUOUS
 10
7.0424298252
 20
4.9888346837
 11
7.0825642002
 21
4.9888346837
  0
LINE
  5
379
100
AcDbEntity
  8
03__ASM_ALL_CURVES
100
AcDbLine
 62
40
  6
CONTINUOUS
 10
8.4605110752
 20
5.0066721826
 11
8.4270657627
 21
5.0066721826
  0
LINE
  5
37A
100
AcDbEntity
  8
03__ASM_ALL_CURVES
100
AcDbLine
 62
40
  6
CONTINUOUS
 10
7.4905970127
 20
5.0066721826
 11
7.5173532627
 21
5.0066721826
  0
LINE
  5
37B
100
AcDbEntity
  8
03__ASM_ALL_CURVES
100
AcDbLine
 62
40
  6
CONTINUOUS
 10
7.7849157627
 20
5.0066721826
 11
7.8384282627
 21
5.0066721826
  0
LINE
  5
37C
100
AcDbEntity
  8
03__ASM_ALL_CURVES
100
AcDbLine
 62
40
  6
CONTINUOUS
 10
8.3200407627
 20
5.0066721826
 11
8.3534860752
 21
5.0066721826
  0
LINE
  5
37D
100
AcDbEntity
  8
03__ASM_ALL_CURVES
100
AcDbLine
 62
40
  6
CONTINUOUS
 10
4.2321116996
 20
5.0155909305
 11
4.2454898246
 21
5.0155909305
  0
LINE
  5
37E
100
AcDbEntity
  8
03__ASM_ALL_CURVES
100
AcDbLine
 62
40
  6
CONTINUOUS
 10
4.5531866996
 20
5.0155909305
 11
4.5665648246
 21
5.0155909305
  0
LINE
  5
37F
100
AcDbEntity
  8
03__ASM_ALL_CURVES
100
AcDbLine
 62
40
  6
CONTINUOUS
 10
4.7672366996
 20
5.0155909305
 11
4.7806148246
 21
5.0155909305
  0
LINE
  5
380
100
AcDbEntity
  8
03__ASM_ALL_CURVES
100
AcDbLine
 62
40
  6
CONTINUOUS
 10
4.4461616996
 20
5.0245096847
 11
4.4595398246
 21
5.0245096847
  0
LINE
  5
381
100
AcDbEntity
  8
03__ASM_ALL_CURVES
100
AcDbLine
 62
40
  6
CONTINUOUS
 10
7.7113360752
 20
5.0601846826
 11
7.6979579502
 21
5.0601846826
  0
LINE
  5
382
100
AcDbEntity
  8
03__ASM_ALL_CURVES
100
AcDbLine
 62
40
  6
CONTINUOUS
 10
4.4796070121
 20
5.0601846826
 11
4.4394726371
 21
5.0601846826
  0
LINE
  5
383
100
AcDbEntity
  8
03__ASM_ALL_CURVES
100
AcDbLine
 62
40
  6
CONTINUOUS
 10
4.2321116996
 20
5.0601846826
 11
4.2454898246
 21
5.0601846826
  0
LINE
  5
384
100
AcDbEntity
  8
03__ASM_ALL_CURVES
100
AcDbLine
 62
40
  6
CONTINUOUS
 10
4.5531866996
 20
5.0601846826
 11
4.5665648246
 21
5.0601846826
  0
LINE
  5
385
100
AcDbEntity
  8
03__ASM_ALL_CURVES
100
AcDbLine
 62
40
  6
CONTINUOUS
 10
4.7672366996
 20
5.0601846826
 11
4.7806148246
 21
5.0601846826
  0
LINE
  5
386
100
AcDbEntity
  8
03__ASM_ALL_CURVES
100
AcDbLine
 62
40
  6
CONTINUOUS
 10
6.8417579502
 20
5.0601846826
 11
6.8551360752
 21
5.0601846826
  0
LINE
  5
387
100
AcDbEntity
  8
03__ASM_ALL_CURVES
100
AcDbLine
 62
40
  6
CONTINUOUS
 10
6.9487829502
 20
5.0601846826
 11
6.9621610752
 21
5.0601846826
  0
LINE
  5
388
100
AcDbEntity
  8
03__ASM_ALL_CURVES
100
AcDbLine
 62
40
  6
CONTINUOUS
 10
7.1360767002
 20
5.0601846826
 11
7.2029673252
 21
5.0601846826
  0
LINE
  5
389
100
AcDbEntity
  8
03__ASM_ALL_CURVES
100
AcDbLine
 62
40
  6
CONTINUOUS
 10
7.4839079502
 20
5.0601846826
 11
7.4972860752
 21
5.0601846826
  0
LINE
  5
38A
100
AcDbEntity
  8
03__ASM_ALL_CURVES
100
AcDbLine
 62
40
  6
CONTINUOUS
 10
7.9120079502
 20
5.0601846826
 11
7.9253860752
 21
5.0601846826
  0
LINE
  5
38B
100
AcDbEntity
  8
03__ASM_ALL_CURVES
100
AcDbLine
 62
40
  6
CONTINUOUS
 10
8.2130157627
 20
5.0601846826
 11
8.2397720127
 21
5.0601846826
  0
LINE
  5
38C
100
AcDbEntity
  8
03__ASM_ALL_CURVES
100
AcDbLine
 62
40
  6
CONTINUOUS
 10
8.3200407627
 20
5.0601846826
 11
8.3735532627
 21
5.0601846826
  0
LINE
  5
38D
100
AcDbEntity
  8
03__ASM_ALL_CURVES
100
AcDbLine
 62
40
  6
CONTINUOUS
 10
8.4270657627
 20
5.0601846826
 11
8.4605110752
 21
5.0601846826
  0
LINE
  5
38E
100
AcDbEntity
  8
03__ASM_ALL_CURVES
100
AcDbLine
 62
40
  6
CONTINUOUS
 10
6.4149957621
 20
4.9139171826
 11
6.6718557621
 21
4.9067821826
  0
LINE
  5
38F
100
AcDbEntity
  8
03__ASM_ALL_CURVES
100
AcDbLine
 62
40
  6
CONTINUOUS
 10
6.4149957621
 20
4.9174846826
 11
6.6718557621
 21
4.9032146826
  0
LINE
  5
390
100
AcDbEntity
  8
03__ASM_ALL_CURVES
100
AcDbLine
 62
40
  6
CONTINUOUS
 10
6.4149957621
 20
4.9210521826
 11
6.6718557621
 21
4.8996471826
  0
LINE
  5
391
100
AcDbEntity
  8
03__ASM_ALL_CURVES
100
AcDbLine
 62
40
  6
CONTINUOUS
 10
6.4149957621
 20
4.9246196826
 11
6.6718557621
 21
4.8960796826
  0
LINE
  5
392
100
AcDbEntity
  8
03__ASM_ALL_CURVES
100
AcDbLine
 62
40
  6
CONTINUOUS
 10
6.4149957621
 20
4.9281871826
 11
6.6718557621
 21
4.8925121826
  0
LINE
  5
393
100
AcDbEntity
  8
03__ASM_ALL_CURVES
100
AcDbLine
 62
40
  6
CONTINUOUS
 10
6.6718557621
 20
4.8889446826
 11
6.4149957621
 21
4.9317546826
  0
LINE
  5
394
100
AcDbEntity
  8
03__ASM_ALL_CURVES
100
AcDbLine
 62
40
  6
CONTINUOUS
 10
7.0464761444
 20
3.7108086217
 11
7.0514929413
 21
3.704119556
  0
LINE
  5
395
100
AcDbEntity
  8
03__ASM_ALL_CURVES
100
AcDbLine
 62
40
  6
CONTINUOUS
 10
7.2070136444
 20
3.7108086217
 11
7.2120304413
 21
3.704119556
  0
LINE
  5
396
100
AcDbEntity
  8
03__ASM_ALL_CURVES
100
AcDbLine
 62
40
  6
CONTINUOUS
 10
6.8483126638
 20
3.5944189326
 11
6.8733966482
 21
3.5141501826
  0
LINE
  5
397
100
AcDbEntity
  8
0
100
AcDbLine
 62
7
  6
CONTINUOUS
 10
6.6504257621
 20
3.8919981775
 11
6.6504257621
 21
4.5429971877
  0
LINE
  5
398
100
AcDbEntity
  8
03__ASM_ALL_CURVES
100
AcDbLine
 62
40
  6
CONTINUOUS
 10
6.6718557621
 20
4.9317546826
 11
6.6718557621
 21
4.8889446826
  0
LINE
  5
399
100
AcDbEntity
  8
0
100
AcDbLine
 62
7
  6
CONTINUOUS
 10
6.7004257621
 20
3.8919981775
 11
6.7004257621
 21
4.5429971877
  0
LINE
  5
39A
100
AcDbEntity
  8
0
100
AcDbLine
 62
7
  6
CONTINUOUS
 10
6.7130409858
 20
3.9459976826
 11
6.7130409858
 21
4.4889976826
  0
LINE
  5
39B
100
AcDbEntity
  8
03__ASM_ALL_CURVES
100
AcDbLine
 62
40
  6
CONTINUOUS
 10
6.7146657627
 20
5.0601846826
 11
6.7146657627
 21
4.9531596826
  0
LINE
  5
39C
100
AcDbEntity
  8
0
100
AcDbLine
 62
7
  6
CONTINUOUS
 10
6.7222333739
 20
4.4928052944
 11
6.7222333739
 21
3.9421900708
  0
LINE
  5
39D
100
AcDbEntity
  8
0
100
AcDbLine
 62
7
  6
CONTINUOUS
 10
6.7554257621
 20
4.5259976826
 11
6.7554257621
 21
3.9089976826
  0
LINE
  5
39E
100
AcDbEntity
  8
03__ASM_ALL_CURVES
100
AcDbLine
 62
40
  6
CONTINUOUS
 10
6.8083126377
 20
5.0066721826
 11
6.8150017002
 21
5.0334284326
  0
LINE
  5
39F
100
AcDbEntity
  8
03__ASM_ALL_CURVES
100
AcDbLine
 62
40
  6
CONTINUOUS
 10
6.8885813877
 20
5.0066721826
 11
6.8818923252
 21
4.9799159326
  0
LINE
  5
3A0
100
AcDbEntity
  8
03__ASM_ALL_CURVES
100
AcDbLine
 62
40
  6
CONTINUOUS
 10
6.9153376377
 20
5.0066721826
 11
6.9220267002
 21
5.0334284326
  0
LINE
  5
3A1
100
AcDbEntity
  8
03__ASM_ALL_CURVES
100
AcDbLine
 62
40
  6
CONTINUOUS
 10
7.0290517002
 20
4.9531596826
 11
7.0624970127
 21
5.0601846826
  0
LINE
  5
3A2
100
AcDbEntity
  8
03__ASM_ALL_CURVES
100
AcDbLine
 62
40
  6
CONTINUOUS
 10
7.4571517002
 20
5.0334284326
 11
7.4705298252
 21
5.0512659347
  0
LINE
  5
3A3
100
AcDbEntity
  8
03__ASM_ALL_CURVES
100
AcDbLine
 62
40
  6
CONTINUOUS
 10
7.5173532627
 20
4.9709971831
 11
7.5106642002
 21
4.9620784329
  0
LINE
  5
3A4
100
AcDbEntity
  8
03__ASM_ALL_CURVES
100
AcDbLine
 62
40
  6
CONTINUOUS
 10
8.4738892002
 20
5.0155909305
 11
8.4605110752
 21
5.0066721826
  0
LINE
  5
3A5
100
AcDbEntity
  8
03__ASM_ALL_CURVES
100
AcDbLine
 62
40
  6
CONTINUOUS
 10
7.5825433407
 20
4.2857261185
 11
7.5725097469
 21
4.2790370576
  0
LINE
  5
3A6
100
AcDbEntity
  8
03__ASM_ALL_CURVES
100
AcDbLine
 62
40
  6
CONTINUOUS
 10
3.1328557621
 20
4.9246196826
 11
3.0044257621
 21
4.9103496826
  0
LINE
  5
3A7
100
AcDbEntity
  8
03__ASM_ALL_CURVES
100
AcDbLine
 62
40
  6
CONTINUOUS
 10
3.1328557621
 20
4.9210521826
 11
3.0044257621
 21
4.9103496826
  0
LINE
  5
3A8
100
AcDbEntity
  8
03__ASM_ALL_CURVES
100
AcDbLine
 62
40
  6
CONTINUOUS
 10
7.6427449032
 20
4.2389026826
 11
7.6327113094
 21
4.2455917453
  0
LINE
  5
3A9
100
AcDbEntity
  8
0
100
AcDbLine
 62
7
  6
CONTINUOUS
 10
6.9414257621
 20
4.4889976826
 11
6.9044257621
 21
4.5259976826
  0
LINE
  5
3AA
100
AcDbEntity
  8
03__ASM_ALL_CURVES
100
AcDbLine
 62
40
  6
CONTINUOUS
 10
7.0364425506
 20
3.6773633076
 11
7.0514929413
 21
3.6372289326
  0
LINE
  5
3AB
100
AcDbEntity
  8
03__ASM_ALL_CURVES
100
AcDbLine
 62
40
  6
CONTINUOUS
 10
6.9536653982
 20
3.5944189326
 11
6.9787493826
 21
3.5141501826
  0
LINE
  5
3AC
100
AcDbEntity
  8
03__ASM_ALL_CURVES
100
AcDbLine
 62
40
  6
CONTINUOUS
 10
6.9260730194
 20
3.6572961201
 11
6.9210562225
 21
3.6773633076
  0
LINE
  5
3AD
100
AcDbEntity
  8
03__ASM_ALL_CURVES
100
AcDbLine
 62
40
  6
CONTINUOUS
 10
6.8508210663
 20
3.6372289326
 11
6.8508210663
 21
3.7174976826
  0
LINE
  5
3AE
100
AcDbEntity
  8
03__ASM_ALL_CURVES
100
AcDbLine
 62
40
  6
CONTINUOUS
 10
6.8909554413
 20
3.704119556
 11
6.8909554413
 21
3.6907414342
  0
LINE
  5
3AF
100
AcDbEntity
  8
0
100
AcDbLine
 62
7
  6
CONTINUOUS
 10
6.9044257621
 20
3.9089976826
 11
6.9044257621
 21
4.5259976826
  0
LINE
  5
3B0
100
AcDbEntity
  8
0
100
AcDbLine
 62
7
  6
CONTINUOUS
 10
6.9414257621
 20
3.9460021639
 11
6.9414257621
 21
4.4889932013
  0
LINE
  5
3B1
100
AcDbEntity
  8
03__ASM_ALL_CURVES
100
AcDbLine
 62
40
  6
CONTINUOUS
 10
7.6845798252
 20
5.0512659347
 11
7.6778907627
 21
5.0423471805
  0
LINE
  5
3B2
100
AcDbEntity
  8
03__ASM_ALL_CURVES
100
AcDbLine
 62
40
  6
CONTINUOUS
 10
7.7314032627
 20
4.9709971831
 11
7.7247142002
 21
4.9620784329
  0
LINE
  5
3B3
100
AcDbEntity
  8
0
100
AcDbLine
 62
7
  6
CONTINUOUS
 10
6.9414257621
 20
3.9459976826
 11
6.9044257621
 21
3.9089976826
  0
LINE
  5
3B4
100
AcDbEntity
  8
03__ASM_ALL_CURVES
100
AcDbLine
 62
40
  6
CONTINUOUS
 10
7.6327113094
 20
4.3124823717
 11
7.6427449032
 21
4.3191714326
  0
LINE
  5
3B5
100
AcDbEntity
  8
03__ASM_ALL_CURVES
100
AcDbLine
 62
40
  6
CONTINUOUS
 10
7.6628120907
 20
4.2455917453
 11
7.6527784969
 21
4.2389026826
  0
LINE
  5
3B6
100
AcDbEntity
  8
03__ASM_ALL_CURVES
100
AcDbLine
 62
40
  6
CONTINUOUS
 10
7.7430808407
 20
4.2857261185
 11
7.7330472469
 21
4.2790370576
  0
LINE
  5
3B7
100
AcDbEntity
  8
03__ASM_ALL_CURVES
100
AcDbLine
 62
40
  6
CONTINUOUS
 10
6.8859386444
 20
3.6840523685
 11
6.8759050506
 21
3.6773633076
  0
LINE
  5
3B8
100
AcDbEntity
  8
03__ASM_ALL_CURVES
100
AcDbLine
 62
40
  6
CONTINUOUS
 10
6.9361066131
 20
3.7108086217
 11
6.9461402069
 21
3.7174976826
  0
LINE
  5
3B9
100
AcDbEntity
  8
03__ASM_ALL_CURVES
100
AcDbLine
 62
40
  6
CONTINUOUS
 10
6.9662073944
 20
3.6439179953
 11
6.9561738006
 21
3.6372289326
  0
LINE
  5
3BA
100
AcDbEntity
  8
03__ASM_ALL_CURVES
100
AcDbLine
 62
40
  6
CONTINUOUS
 10
3.0044257621
 20
4.9103496826
 11
3.1328557621
 21
4.9317546826
  0
LINE
  5
3BB
100
AcDbEntity
  8
03__ASM_ALL_CURVES
100
AcDbLine
 62
40
  6
CONTINUOUS
 10
3.1328557621
 20
4.9281871826
 11
3.0044257621
 21
4.9103496826
  0
LINE
  5
3BC
100
AcDbEntity
  8
03__ASM_ALL_CURVES
100
AcDbLine
 62
40
  6
CONTINUOUS
 10
7.5725097469
 20
4.3191714326
 11
7.5825433407
 21
4.3124823717
  0
LINE
  5
3BD
100
AcDbEntity
  8
03__ASM_ALL_CURVES
100
AcDbLine
 62
40
  6
CONTINUOUS
 10
7.6527784969
 20
4.3191714326
 11
7.6628120907
 21
4.3124823717
  0
LINE
  5
3BE
100
AcDbEntity
  8
03__ASM_ALL_CURVES
100
AcDbLine
 62
40
  6
CONTINUOUS
 10
7.7330472469
 20
4.3191714326
 11
7.7430808407
 21
4.3124823717
  0
LINE
  5
3BF
100
AcDbEntity
  8
03__ASM_ALL_CURVES
100
AcDbLine
 62
40
  6
CONTINUOUS
 10
6.8417579502
 20
4.9531596826
 11
6.8283798252
 21
4.9620784329
  0
LINE
  5
3C0
100
AcDbEntity
  8
0
100
AcDbLine
 62
7
  6
CONTINUOUS
 10
7.2854257621
 20
4.4249976826
 11
7.2754257621
 21
4.4349976826
  0
LINE
  5
3C1
100
AcDbEntity
  8
03__ASM_ALL_CURVES
100
AcDbLine
 62
40
  6
CONTINUOUS
 10
7.0891189138
 20
3.5944189326
 11
7.1142028982
 21
3.5141501826
  0
LINE
  5
3C2
100
AcDbEntity
  8
03__ASM_ALL_CURVES
100
AcDbLine
 62
40
  6
CONTINUOUS
 10
6.9762409881
 20
3.6974304951
 11
6.981257785
 21
3.6773633076
  0
LINE
  5
3C3
100
AcDbEntity
  8
03__ASM_ALL_CURVES
100
AcDbLine
 62
40
  6
CONTINUOUS
 10
6.8150017002
 20
4.9799159326
 11
6.8083126377
 21
5.0066721826
  0
LINE
  5
3C4
100
AcDbEntity
  8
0
100
AcDbLine
 62
7
  6
CONTINUOUS
 10
6.9964257621
 20
4.1713386997
 11
6.9964257621
 21
4.2636687939
  0
LINE
  5
3C5
100
AcDbEntity
  8
0
100
AcDbLine
 62
7
  6
CONTINUOUS
 10
7.0014257621
 20
4.1718823072
 11
7.0014257621
 21
4.2630950872
  0
LINE
  5
3C6
100
AcDbEntity
  8
03__ASM_ALL_CURVES
100
AcDbLine
 62
40
  6
CONTINUOUS
 10
7.0113585663
 20
3.6372289326
 11
7.0113585663
 21
3.7174976826
  0
LINE
  5
3C7
100
AcDbEntity
  8
03__ASM_ALL_CURVES
100
AcDbLine
 62
40
  6
CONTINUOUS
 10
7.0138669607
 20
3.5944189326
 11
7.0138669607
 21
3.5141501826
  0
LINE
  5
3C8
100
AcDbEntity
  8
03__ASM_ALL_CURVES
100
AcDbLine
 62
40
  6
CONTINUOUS
 10
7.0514929413
 20
3.704119556
 11
7.0514929413
 21
3.6907414342
  0
LINE
  5
3C9
100
AcDbEntity
  8
03__ASM_ALL_CURVES
100
AcDbLine
 62
40
  6
CONTINUOUS
 10
7.1116945038
 20
3.7174976826
 11
7.1116945038
 21
3.6372289326
  0
LINE
  5
3CA
100
AcDbEntity
  8
0
100
AcDbLine
 62
7
  6
CONTINUOUS
 10
7.1654257621
 20
3.9999976826
 11
7.1654257621
 21
4.4349976826
  0
LINE
  5
3CB
100
AcDbEntity
  8
03__ASM_ALL_CURVES
100
AcDbLine
 62
40
  6
CONTINUOUS
 10
7.1695220127
 20
5.0601846826
 11
7.1695220127
 21
4.9531596826
  0
LINE
  5
3CC
100
AcDbEntity
  8
0
100
AcDbLine
 62
7
  6
CONTINUOUS
 10
7.1704257621
 20
4.4299976826
 11
7.1704257621
 21
4.0049978309
  0
LINE
  5
3CD
100
AcDbEntity
  8
03__ASM_ALL_CURVES
100
AcDbLine
 62
40
  6
CONTINUOUS
 10
7.1744044607
 20
3.5141501826
 11
7.1744044607
 21
3.5944189326
  0
LINE
  5
3CE
100
AcDbEntity
  8
03__ASM_ALL_CURVES
100
AcDbLine
 62
40
  6
CONTINUOUS
 10
6.9210562225
 20
3.6773633076
 11
6.9260730194
 21
3.6974304951
  0
LINE
  5
3CF
100
AcDbEntity
  8
03__ASM_ALL_CURVES
100
AcDbLine
 62
40
  6
CONTINUOUS
 10
6.981257785
 20
3.6773633076
 11
6.9762409881
 21
3.6572961201
  0
LINE
  5
3D0
100
AcDbEntity
  8
03__ASM_ALL_CURVES
100
AcDbLine
 62
40
  6
CONTINUOUS
 10
6.8733966482
 20
3.5141501826
 11
6.8984806326
 21
3.5944189326
  0
LINE
  5
3D1
100
AcDbEntity
  8
03__ASM_ALL_CURVES
100
AcDbLine
 62
40
  6
CONTINUOUS
 10
6.9285814138
 20
3.5141501826
 11
6.9536653982
 21
3.5944189326
  0
LINE
  5
3D2
100
AcDbEntity
  8
03__ASM_ALL_CURVES
100
AcDbLine
 62
40
  6
CONTINUOUS
 10
7.8852517002
 20
5.0334284326
 11
7.8986298252
 21
5.0512659347
  0
LINE
  5
3D3
100
AcDbEntity
  8
03__ASM_ALL_CURVES
100
AcDbLine
 62
40
  6
CONTINUOUS
 10
6.8909554413
 20
3.6907414342
 11
6.8859386444
 21
3.6840523685
  0
LINE
  5
3D4
100
AcDbEntity
  8
03__ASM_ALL_CURVES
100
AcDbLine
 62
40
  6
CONTINUOUS
 10
6.9260730194
 20
3.6974304951
 11
6.9361066131
 21
3.7108086217
  0
LINE
  5
3D5
100
AcDbEntity
  8
03__ASM_ALL_CURVES
100
AcDbLine
 62
40
  6
CONTINUOUS
 10
7.9521423252
 20
4.9799159326
 11
7.9387642002
 21
4.9620784329
  0
LINE
  5
3D6
100
AcDbEntity
  8
03__ASM_ALL_CURVES
100
AcDbLine
 62
40
  6
CONTINUOUS
 10
6.9762409881
 20
3.6572961201
 11
6.9662073944
 21
3.6439179953
  0
LINE
  5
3D7
100
AcDbEntity
  8
03__ASM_ALL_CURVES
100
AcDbLine
 62
40
  6
CONTINUOUS
 10
7.0514929413
 20
3.6907414342
 11
7.0464761444
 21
3.6840523685
  0
LINE
  5
3D8
100
AcDbEntity
  8
0
100
AcDbLine
 62
7
  6
CONTINUOUS
 10
7.2854257621
 20
4.0099976826
 11
7.2754257621
 21
3.9999976826
  0
LINE
  5
3D9
100
AcDbEntity
  8
03__ASM_ALL_CURVES
100
AcDbLine
 62
40
  6
CONTINUOUS
 10
7.0464761444
 20
3.6840523685
 11
7.0364425506
 21
3.6773633076
  0
LINE
  5
3DA
100
AcDbEntity
  8
03__ASM_ALL_CURVES
100
AcDbLine
 62
40
  6
CONTINUOUS
 10
7.1769128631
 20
3.7108086217
 11
7.1869464569
 21
3.7174976826
  0
LINE
  5
3DB
100
AcDbEntity
  8
03__ASM_ALL_CURVES
100
AcDbLine
 62
40
  6
CONTINUOUS
 10
7.2070136444
 20
3.6840523685
 11
7.1869464569
 21
3.6706742443
  0
LINE
  5
3DC
100
AcDbEntity
  8
03__ASM_ALL_CURVES
100
AcDbLine
 62
40
  6
CONTINUOUS
 10
6.9487829502
 20
4.9531596826
 11
6.9354048252
 21
4.9620784329
  0
LINE
  5
3DD
100
AcDbEntity
  8
03__ASM_ALL_CURVES
100
AcDbLine
 62
40
  6
CONTINUOUS
 10
6.8551360752
 20
5.0601846826
 11
6.8685142002
 21
5.0512659347
  0
LINE
  5
3DE
100
AcDbEntity
  8
03__ASM_ALL_CURVES
100
AcDbLine
 62
40
  6
CONTINUOUS
 10
6.9621610752
 20
5.0601846826
 11
6.9755392002
 21
5.0512659347
  0
LINE
  5
3DF
100
AcDbEntity
  8
03__ASM_ALL_CURVES
100
AcDbLine
 62
40
  6
CONTINUOUS
 10
6.8283798252
 20
4.9620784329
 11
6.8150017002
 21
4.9799159326
  0
LINE
  5
3E0
100
AcDbEntity
  8
03__ASM_ALL_CURVES
100
AcDbLine
 62
40
  6
CONTINUOUS
 10
6.8685142002
 20
5.0512659347
 11
6.8818923252
 21
5.0334284326
  0
LINE
  5
3E1
100
AcDbEntity
  8
03__ASM_ALL_CURVES
100
AcDbLine
 62
40
  6
CONTINUOUS
 10
6.9354048252
 20
4.9620784329
 11
6.9220267002
 21
4.9799159326
  0
LINE
  5
3E2
100
AcDbEntity
  8
03__ASM_ALL_CURVES
100
AcDbLine
 62
40
  6
CONTINUOUS
 10
6.8818923252
 20
5.0334284326
 11
6.8885813877
 21
5.0066721826
  0
LINE
  5
3E3
100
AcDbEntity
  8
03__ASM_ALL_CURVES
100
AcDbLine
 62
40
  6
CONTINUOUS
 10
6.9220267002
 20
4.9799159326
 11
6.9153376377
 21
5.0066721826
  0
LINE
  5
3E4
100
AcDbEntity
  8
03__ASM_ALL_CURVES
100
AcDbLine
 62
40
  6
CONTINUOUS
 10
7.2120304413
 20
3.704119556
 11
7.2120304413
 21
3.6907414342
  0
LINE
  5
3E5
100
AcDbEntity
  8
0
100
AcDbLine
 62
7
  6
CONTINUOUS
 10
7.2204257621
 20
4.4004976826
 11
7.2204257621
 21
4.0344976826
  0
LINE
  5
3E6
100
AcDbEntity
  8
0
100
AcDbLine
 62
7
  6
CONTINUOUS
 10
7.2264257621
 20
4.0432910946
 11
7.2264257621
 21
4.3917042706
  0
LINE
  5
3E7
100
AcDbEntity
  8
0
100
AcDbLine
 62
7
  6
CONTINUOUS
 10
7.2354257621
 20
4.4299975395
 11
7.2354257621
 21
4.0049978257
  0
LINE
  5
3E8
100
AcDbEntity
  8
0
100
AcDbLine
 62
7
  6
CONTINUOUS
 10
7.2404257621
 20
4.4349976826
 11
7.2404257621
 21
3.9999976826
  0
LINE
  5
3E9
100
AcDbEntity
  8
0
100
AcDbLine
 62
7
  6
CONTINUOUS
 10
7.2754257621
 20
3.9999976826
 11
7.2754257621
 21
4.4349976826
  0
LINE
  5
3EA
100
AcDbEntity
  8
03__ASM_ALL_CURVES
100
AcDbLine
 62
40
  6
CONTINUOUS
 10
7.2765470127
 20
5.0601846826
 11
7.2765470127
 21
4.9531596826
  0
LINE
  5
3EB
100
AcDbEntity
  8
0
100
AcDbLine
 62
7
  6
CONTINUOUS
 10
7.2854257621
 20
4.0099976826
 11
7.2854257621
 21
4.4249976826
  0
LINE
  5
3EC
100
AcDbEntity
  8
03__ASM_ALL_CURVES
100
AcDbLine
 62
40
  6
CONTINUOUS
 10
7.3568157627
 20
4.9531596826
 11
7.3568157627
 21
5.0601846826
  0
LINE
  5
3ED
100
AcDbEntity
  8
03__ASM_ALL_CURVES
100
AcDbLine
 62
40
  6
CONTINUOUS
 10
7.4504626377
 20
5.0066721826
 11
7.4571517002
 21
5.0334284326
  0
LINE
  5
3EE
100
AcDbEntity
  8
03__ASM_ALL_CURVES
100
AcDbLine
 62
40
  6
CONTINUOUS
 10
7.1769128631
 20
3.6572961201
 11
7.1718960663
 21
3.6372289326
  0
LINE
  5
3EF
100
AcDbEntity
  8
03__ASM_ALL_CURVES
100
AcDbLine
 62
40
  6
CONTINUOUS
 10
7.1142028982
 20
3.5141501826
 11
7.1392868826
 21
3.5944189326
  0
LINE
  5
3F0
100
AcDbEntity
  8
03__ASM_ALL_CURVES
100
AcDbLine
 62
40
  6
CONTINUOUS
 10
8.0524782627
 20
4.9709971831
 11
8.0457892002
 21
4.9620784329
  0
LINE
  5
3F1
100
AcDbEntity
  8
03__ASM_ALL_CURVES
100
AcDbLine
 62
40
  6
CONTINUOUS
 10
7.5875601375
 20
4.2924151842
 11
7.5825433407
 21
4.2857261185
  0
LINE
  5
3F2
100
AcDbEntity
  8
03__ASM_ALL_CURVES
100
AcDbLine
 62
40
  6
CONTINUOUS
 10
7.1718960663
 20
3.704119556
 11
7.1769128631
 21
3.7108086217
  0
LINE
  5
3F3
100
AcDbEntity
  8
03__ASM_ALL_CURVES
100
AcDbLine
 62
40
  6
CONTINUOUS
 10
7.6226777157
 20
4.2991042451
 11
7.6327113094
 21
4.3124823717
  0
LINE
  5
3F4
100
AcDbEntity
  8
03__ASM_ALL_CURVES
100
AcDbLine
 62
40
  6
CONTINUOUS
 10
7.1869464569
 20
3.6706742443
 11
7.1769128631
 21
3.6572961201
  0
LINE
  5
3F5
100
AcDbEntity
  8
03__ASM_ALL_CURVES
100
AcDbLine
 62
40
  6
CONTINUOUS
 10
7.2120304413
 20
3.6907414342
 11
7.2070136444
 21
3.6840523685
  0
LINE
  5
3F6
100
AcDbEntity
  8
03__ASM_ALL_CURVES
100
AcDbLine
 62
40
  6
CONTINUOUS
 10
7.6728456844
 20
4.2589698701
 11
7.6628120907
 21
4.2455917453
  0
LINE
  5
3F7
100
AcDbEntity
  8
03__ASM_ALL_CURVES
100
AcDbLine
 62
40
  6
CONTINUOUS
 10
7.7480976375
 20
4.2924151842
 11
7.7430808407
 21
4.2857261185
  0
LINE
  5
3F8
100
AcDbEntity
  8
03__ASM_ALL_CURVES
100
AcDbLine
 62
40
  6
CONTINUOUS
 10
8.2665282627
 20
4.9799159326
 11
8.2531501377
 21
4.9620784329
  0
LINE
  5
3F9
100
AcDbEntity
  8
03__ASM_ALL_CURVES
100
AcDbLine
 62
40
  6
CONTINUOUS
 10
7.4839079502
 20
4.9531596826
 11
7.4705298252
 21
4.9620784329
  0
LINE
  5
3FA
100
AcDbEntity
  8
03__ASM_ALL_CURVES
100
AcDbLine
 62
40
  6
CONTINUOUS
 10
6.9755392002
 20
5.0512659347
 11
6.9822282627
 21
5.0423471805
  0
LINE
  5
3FB
100
AcDbEntity
  8
03__ASM_ALL_CURVES
100
AcDbLine
 62
40
  6
CONTINUOUS
 10
7.6327113094
 20
4.2455917453
 11
7.6226777157
 21
4.2589698701
  0
LINE
  5
3FC
100
AcDbEntity
  8
03__ASM_ALL_CURVES
100
AcDbLine
 62
40
  6
CONTINUOUS
 10
7.5825433407
 20
4.3124823717
 11
7.5875601375
 21
4.305793306
  0
LINE
  5
3FD
100
AcDbEntity
  8
03__ASM_ALL_CURVES
100
AcDbLine
 62
40
  6
CONTINUOUS
 10
7.6628120907
 20
4.3124823717
 11
7.6728456844
 21
4.2991042451
  0
LINE
  5
3FE
100
AcDbEntity
  8
03__ASM_ALL_CURVES
100
AcDbLine
 62
40
  6
CONTINUOUS
 10
7.7430808407
 20
4.3124823717
 11
7.7480976375
 21
4.305793306
  0
LINE
  5
3FF
100
AcDbEntity
  8
03__ASM_ALL_CURVES
100
AcDbLine
 62
40
  6
CONTINUOUS
 10
7.0624970127
 20
5.0601846826
 11
7.0959423252
 21
4.9531596826
  0
LINE
  5
400
100
AcDbEntity
  8
03__ASM_ALL_CURVES
100
AcDbLine
 62
40
  6
CONTINUOUS
 10
7.4103282627
 20
4.9531596826
 11
7.4103282627
 21
5.0601846826
  0
LINE
  5
401
100
AcDbEntity
  8
03__ASM_ALL_CURVES
100
AcDbLine
 62
40
  6
CONTINUOUS
 10
7.5173532627
 20
5.0066721826
 11
7.5173532627
 21
4.9709971831
  0
LINE
  5
402
100
AcDbEntity
  8
03__ASM_ALL_CURVES
100
AcDbLine
 62
40
  6
CONTINUOUS
 10
7.5474257625
 20
4.2389026826
 11
7.5474257625
 21
4.3191714326
  0
LINE
  5
403
100
AcDbEntity
  8
03__ASM_ALL_CURVES
100
AcDbLine
 62
40
  6
CONTINUOUS
 10
7.6176609188
 20
4.2790370576
 11
7.6226777157
 21
4.2991042451
  0
LINE
  5
404
100
AcDbEntity
  8
03__ASM_ALL_CURVES
100
AcDbLine
 62
40
  6
CONTINUOUS
 10
7.5725097463
 20
4.1158239326
 11
7.5975937307
 21
4.1960926826
  0
LINE
  5
405
100
AcDbEntity
  8
03__ASM_ALL_CURVES
100
AcDbLine
 62
40
  6
CONTINUOUS
 10
8.4805782627
 20
5.0245096847
 11
8.4738892002
 21
5.0155909305
  0
LINE
  5
406
100
AcDbEntity
  8
03__ASM_ALL_CURVES
100
AcDbLine
 62
40
  6
CONTINUOUS
 10
7.4972860752
 20
5.0601846826
 11
7.5106642002
 21
5.0512659347
  0
LINE
  5
407
100
AcDbEntity
  8
03__ASM_ALL_CURVES
100
AcDbLine
 62
40
  6
CONTINUOUS
 10
7.6979579502
 20
4.9531596826
 11
7.6845798252
 21
4.9620784329
  0
LINE
  5
408
100
AcDbEntity
  8
03__ASM_ALL_CURVES
100
AcDbLine
 62
40
  6
CONTINUOUS
 10
7.6845798252
 20
5.0245096847
 11
7.7247142002
 21
4.9977534315
  0
LINE
  5
409
100
AcDbEntity
  8
03__ASM_ALL_CURVES
100
AcDbLine
 62
40
  6
CONTINUOUS
 10
7.7247142002
 20
5.0512659347
 11
7.7113360752
 21
5.0601846826
  0
LINE
  5
40A
100
AcDbEntity
  8
03__ASM_ALL_CURVES
100
AcDbLine
 62
40
  6
CONTINUOUS
 10
7.9120079502
 20
4.9531596826
 11
7.8986298252
 21
4.9620784329
  0
LINE
  5
40B
100
AcDbEntity
  8
03__ASM_ALL_CURVES
100
AcDbLine
 62
40
  6
CONTINUOUS
 10
7.4705298252
 20
4.9620784329
 11
7.4571517002
 21
4.9799159326
  0
LINE
  5
40C
100
AcDbEntity
  8
03__ASM_ALL_CURVES
100
AcDbLine
 62
40
  6
CONTINUOUS
 10
7.3568157627
 20
5.0601846826
 11
7.4103282627
 21
4.9531596826
  0
LINE
  5
40D
100
AcDbEntity
  8
03__ASM_ALL_CURVES
100
AcDbLine
 62
40
  6
CONTINUOUS
 10
7.547425762
 20
4.1960926826
 11
7.5725097463
 21
4.1158239326
  0
LINE
  5
40E
100
AcDbEntity
  8
03__ASM_ALL_CURVES
100
AcDbLine
 62
40
  6
CONTINUOUS
 10
7.6527784963
 20
4.1960926826
 11
7.6778624807
 21
4.1158239326
  0
LINE
  5
40F
100
AcDbEntity
  8
03__ASM_ALL_CURVES
100
AcDbLine
 62
40
  6
CONTINUOUS
 10
7.6226777157
 20
4.2589698701
 11
7.6176609188
 21
4.2790370576
  0
LINE
  5
410
100
AcDbEntity
  8
03__ASM_ALL_CURVES
100
AcDbLine
 62
40
  6
CONTINUOUS
 10
7.5875601375
 20
4.305793306
 11
7.5875601375
 21
4.2924151842
  0
LINE
  5
411
100
AcDbEntity
  8
03__ASM_ALL_CURVES
100
AcDbLine
 62
40
  6
CONTINUOUS
 10
7.6778907627
 20
5.0423471805
 11
7.6778907627
 21
5.0334284326
  0
LINE
  5
412
100
AcDbEntity
  8
03__ASM_ALL_CURVES
100
AcDbLine
 62
40
  6
CONTINUOUS
 10
7.7079632625
 20
4.2389026826
 11
7.7079632625
 21
4.3191714326
  0
LINE
  5
413
100
AcDbEntity
  8
03__ASM_ALL_CURVES
100
AcDbLine
 62
40
  6
CONTINUOUS
 10
7.7129800588
 20
4.1960926826
 11
7.7129800588
 21
4.1158239326
  0
LINE
  5
414
100
AcDbEntity
  8
03__ASM_ALL_CURVES
100
AcDbLine
 62
40
  6
CONTINUOUS
 10
7.7314032627
 20
4.9888346837
 11
7.7314032627
 21
4.9709971831
  0
LINE
  5
415
100
AcDbEntity
  8
03__ASM_ALL_CURVES
100
AcDbLine
 62
40
  6
CONTINUOUS
 10
7.7480976375
 20
4.305793306
 11
7.7480976375
 21
4.2924151842
  0
LINE
  5
416
100
AcDbEntity
  8
03__ASM_ALL_CURVES
100
AcDbLine
 62
40
  6
CONTINUOUS
 10
7.6778624813
 20
4.2790370576
 11
7.6728456844
 21
4.2589698701
  0
LINE
  5
417
100
AcDbEntity
  8
03__ASM_ALL_CURVES
100
AcDbLine
 62
40
  6
CONTINUOUS
 10
7.8785626377
 20
5.0066721826
 11
7.8852517002
 21
5.0334284326
  0
LINE
  5
418
100
AcDbEntity
  8
03__ASM_ALL_CURVES
100
AcDbLine
 62
40
  6
CONTINUOUS
 10
7.9588313877
 20
5.0066721826
 11
7.9521423252
 21
4.9799159326
  0
LINE
  5
419
100
AcDbEntity
  8
03__ASM_ALL_CURVES
100
AcDbLine
 62
40
  6
CONTINUOUS
 10
7.627694512
 20
4.1158239326
 11
7.6527784963
 21
4.1960926826
  0
LINE
  5
41A
100
AcDbEntity
  8
03__ASM_ALL_CURVES
100
AcDbLine
 62
40
  6
CONTINUOUS
 10
8.0190329502
 20
4.9531596826
 11
8.0056548252
 21
4.9620784329
  0
LINE
  5
41B
100
AcDbEntity
  8
03__ASM_ALL_CURVES
100
AcDbLine
 62
40
  6
CONTINUOUS
 10
7.9253860752
 20
5.0601846826
 11
7.9387642002
 21
5.0512659347
  0
LINE
  5
41C
100
AcDbEntity
  8
03__ASM_ALL_CURVES
100
AcDbLine
 62
40
  6
CONTINUOUS
 10
7.5106642002
 20
5.0512659347
 11
7.5173532627
 21
5.0423471805
  0
LINE
  5
41D
100
AcDbEntity
  8
03__ASM_ALL_CURVES
100
AcDbLine
 62
40
  6
CONTINUOUS
 10
7.6845798252
 20
4.9620784329
 11
7.6712017002
 21
4.9799159326
  0
LINE
  5
41E
100
AcDbEntity
  8
03__ASM_ALL_CURVES
100
AcDbLine
 62
40
  6
CONTINUOUS
 10
7.6778907627
 20
5.0334284326
 11
7.6845798252
 21
5.0245096847
  0
LINE
  5
41F
100
AcDbEntity
  8
03__ASM_ALL_CURVES
100
AcDbLine
 62
40
  6
CONTINUOUS
 10
7.7330472469
 20
4.2790370576
 11
7.7480976375
 21
4.2389026826
  0
LINE
  5
420
100
AcDbEntity
  8
03__ASM_ALL_CURVES
100
AcDbLine
 62
40
  6
CONTINUOUS
 10
7.788232012
 20
4.1960926826
 11
7.8133159963
 21
4.1158239326
  0
LINE
  5
421
100
AcDbEntity
  8
03__ASM_ALL_CURVES
100
AcDbLine
 62
40
  6
CONTINUOUS
 10
7.4571517002
 20
4.9799159326
 11
7.4504626377
 21
5.0066721826
  0
LINE
  5
422
100
AcDbEntity
  8
03__ASM_ALL_CURVES
100
AcDbLine
 62
40
  6
CONTINUOUS
 10
7.6728456844
 20
4.2991042451
 11
7.6778624813
 21
4.2790370576
  0
LINE
  5
423
100
AcDbEntity
  8
03__ASM_ALL_CURVES
100
AcDbLine
 62
40
  6
CONTINUOUS
 10
7.7849157627
 20
5.0601846826
 11
7.7849157627
 21
4.9531596826
  0
LINE
  5
424
100
AcDbEntity
  8
03__ASM_ALL_CURVES
100
AcDbLine
 62
40
  6
CONTINUOUS
 10
7.8082992
 20
4.3191714326
 11
7.8082992
 21
4.2389026826
  0
LINE
  5
425
100
AcDbEntity
  8
03__ASM_ALL_CURVES
100
AcDbLine
 62
40
  6
CONTINUOUS
 10
7.8384282627
 20
5.0601846826
 11
7.8384282627
 21
4.9531596826
  0
LINE
  5
426
100
AcDbEntity
  8
03__ASM_ALL_CURVES
100
AcDbLine
 62
40
  6
CONTINUOUS
 10
7.8735175588
 20
4.1158239326
 11
7.8735175588
 21
4.1960926826
  0
LINE
  5
427
100
AcDbEntity
  8
03__ASM_ALL_CURVES
100
AcDbLine
 62
40
  6
CONTINUOUS
 10
7.88856795
 20
4.3191714326
 11
7.88856795
 21
4.2389026826
  0
LINE
  5
428
100
AcDbEntity
  8
03__ASM_ALL_CURVES
100
AcDbLine
 62
40
  6
CONTINUOUS
 10
7.8133159963
 20
4.1158239326
 11
7.8383999807
 21
4.1960926826
  0
LINE
  5
429
100
AcDbEntity
  8
03__ASM_ALL_CURVES
100
AcDbLine
 62
40
  6
CONTINUOUS
 10
8.2397720127
 20
5.0601846826
 11
8.2531501377
 21
5.0512659347
  0
LINE
  5
42A
100
AcDbEntity
  8
03__ASM_ALL_CURVES
100
AcDbLine
 62
40
  6
CONTINUOUS
 10
8.4605110752
 20
5.0601846826
 11
8.4738892002
 21
5.0512659347
  0
LINE
  5
42B
100
AcDbEntity
  8
03__ASM_ALL_CURVES
100
AcDbLine
 62
40
  6
CONTINUOUS
 10
7.7247142002
 20
4.9977534315
 11
7.7314032627
 21
4.9888346837
  0
LINE
  5
42C
100
AcDbEntity
  8
03__ASM_ALL_CURVES
100
AcDbLine
 62
40
  6
CONTINUOUS
 10
7.7314032627
 20
5.0423471805
 11
7.7247142002
 21
5.0512659347
  0
LINE
  5
42D
100
AcDbEntity
  8
03__ASM_ALL_CURVES
100
AcDbLine
 62
40
  6
CONTINUOUS
 10
7.8986298252
 20
4.9620784329
 11
7.8852517002
 21
4.9799159326
  0
LINE
  5
42E
100
AcDbEntity
  8
03__ASM_ALL_CURVES
100
AcDbLine
 62
40
  6
CONTINUOUS
 10
7.9989657627
 20
4.9709971831
 11
7.9989657627
 21
5.0601846826
  0
LINE
  5
42F
100
AcDbEntity
  8
03__ASM_ALL_CURVES
100
AcDbLine
 62
40
  6
CONTINUOUS
 10
8.0524782627
 20
5.0601846826
 11
8.0524782627
 21
4.9709971831
  0
LINE
  5
430
100
AcDbEntity
  8
03__ASM_ALL_CURVES
100
AcDbLine
 62
40
  6
CONTINUOUS
 10
8.1059907627
 20
5.0601846826
 11
8.1059907627
 21
4.9531596826
  0
LINE
  5
431
100
AcDbEntity
  8
03__ASM_ALL_CURVES
100
AcDbLine
 62
40
  6
CONTINUOUS
 10
8.2732173252
 20
5.0066721826
 11
8.2665282627
 21
4.9799159326
  0
LINE
  5
432
100
AcDbEntity
  8
03__ASM_ALL_CURVES
100
AcDbLine
 62
40
  6
CONTINUOUS
 10
8.0056548252
 20
4.9620784329
 11
7.9989657627
 21
4.9709971831
  0
LINE
  5
433
100
AcDbEntity
  8
03__ASM_ALL_CURVES
100
AcDbLine
 62
40
  6
CONTINUOUS
 10
7.9387642002
 20
5.0512659347
 11
7.9521423252
 21
5.0334284326
  0
LINE
  5
434
100
AcDbEntity
  8
03__ASM_ALL_CURVES
100
AcDbLine
 62
40
  6
CONTINUOUS
 10
7.8852517002
 20
4.9799159326
 11
7.8785626377
 21
5.0066721826
  0
LINE
  5
435
100
AcDbEntity
  8
03__ASM_ALL_CURVES
100
AcDbLine
 62
40
  6
CONTINUOUS
 10
7.9521423252
 20
5.0334284326
 11
7.9588313877
 21
5.0066721826
  0
LINE
  5
436
100
AcDbEntity
  8
03__ASM_ALL_CURVES
100
AcDbLine
 62
40
  6
CONTINUOUS
 10
8.2130157627
 20
4.9531596826
 11
8.2130157627
 21
5.0601846826
  0
LINE
  5
437
100
AcDbEntity
  8
03__ASM_ALL_CURVES
100
AcDbLine
 62
40
  6
CONTINUOUS
 10
8.3200407627
 20
4.9531596826
 11
8.3200407627
 21
5.0601846826
  0
LINE
  5
438
100
AcDbEntity
  8
03__ASM_ALL_CURVES
100
AcDbLine
 62
40
  6
CONTINUOUS
 10
8.2531501377
 20
5.0512659347
 11
8.2665282627
 21
5.0334284326
  0
LINE
  5
439
100
AcDbEntity
  8
03__ASM_ALL_CURVES
100
AcDbLine
 62
40
  6
CONTINUOUS
 10
8.4270657627
 20
4.9531596826
 11
8.4270657627
 21
5.0601846826
  0
LINE
  5
43A
100
AcDbEntity
  8
03__ASM_ALL_CURVES
100
AcDbLine
 62
40
  6
CONTINUOUS
 10
8.4805782627
 20
5.0423471805
 11
8.4805782627
 21
5.0245096847
  0
LINE
  5
43B
100
AcDbEntity
  8
03__ASM_ALL_CURVES
100
AcDbLine
 62
40
  6
CONTINUOUS
 10
8.4738892002
 20
5.0512659347
 11
8.4805782627
 21
5.0423471805
  0
LINE
  5
43C
100
AcDbEntity
  8
03__ASM_ALL_CURVES
100
AcDbLine
 62
40
  6
CONTINUOUS
 10
8.4605110752
 20
5.0066721826
 11
8.4805782627
 21
4.9531596826
  0
LINE
  5
43D
100
AcDbEntity
  8
03__ASM_ALL_CURVES
100
AcDbLine
 62
40
  6
CONTINUOUS
 10
8.2665282627
 20
5.0334284326
 11
8.2732173252
 21
5.0066721826
  0
CIRCLE
  5
43E
100
AcDbEntity
  8
0
100
AcDbCircle
 62
7
  6
CONTINUOUS
 10
6.9934257621
 20
4.2174976826
 40
0.0465
  0
ARC
  5
43F
100
AcDbEntity
  8
0
100
AcDbCircle
 62
7
  6
CONTINUOUS
 10
7.2104257621
 20
4.4004976826
 40
0.025
100
AcDbArc
 50
310.139696962
 51
360.0
  0
ARC
  5
440
100
AcDbEntity
  8
0
100
AcDbCircle
 62
7
  6
CONTINUOUS
 10
7.2104257621
 20
4.0344976826
 40
0.025
100
AcDbArc
 50
0.0
 51
49.860303038
  0
ARC
  5
441
100
AcDbEntity
  8
0
100
AcDbCircle
 62
7
  6
CONTINUOUS
 10
6.7130409858
 20
3.9329976826
 40
0.013
100
AcDbArc
 50
44.9999999997
 51
90.0
  0
ARC
  5
442
100
AcDbEntity
  8
0
100
AcDbCircle
 62
7
  6
CONTINUOUS
 10
6.7130409858
 20
4.5019976826
 40
0.013
100
AcDbArc
 50
270.0
 51
315.0000000003
  0
ARC
  5
443
100
AcDbEntity
  8
0
100
AcDbCircle
 62
7
  6
CONTINUOUS
 10
7.1654257621
 20
4.4299976826
 40
0.005
100
AcDbArc
 50
0.0
 51
90.0
  0
ARC
  5
444
100
AcDbEntity
  8
0
100
AcDbCircle
 62
7
  6
CONTINUOUS
 10
7.1654257621
 20
4.0049976826
 40
0.005
100
AcDbArc
 50
270.0
 51
360.0
  0
ARC
  5
445
100
AcDbEntity
  8
0
100
AcDbCircle
 62
7
  6
CONTINUOUS
 10
7.2404257621
 20
4.0049976826
 40
0.005
100
AcDbArc
 50
180.0
 51
270.0
  0
ARC
  5
446
100
AcDbEntity
  8
0
100
AcDbCircle
 62
7
  6
CONTINUOUS
 10
7.2404257621
 20
4.4299976826
 40
0.005
100
AcDbArc
 50
90.0
 51
180.0
  0
ARC
  5
447
100
AcDbEntity
  8
0
100
AcDbCircle
 62
7
  6
CONTINUOUS
 10
6.5664161431
 20
3.8854976826
 40
0.005
100
AcDbArc
 50
90.0
 51
120.0000000001
  0
ARC
  5
448
100
AcDbEntity
  8
0
100
AcDbCircle
 62
7
  6
CONTINUOUS
 10
6.5484257621
 20
3.8751109312
 40
0.005
100
AcDbArc
 50
120.0000000001
 51
180.0
  0
ARC
  5
449
100
AcDbEntity
  8
0
100
AcDbCircle
 62
7
  6
CONTINUOUS
 10
6.5484257621
 20
4.5598844339
 40
0.005
100
AcDbArc
 50
180.0
 51
239.9999999999
  0
ARC
  5
44A
100
AcDbEntity
  8
0
100
AcDbCircle
 62
7
  6
CONTINUOUS
 10
6.5664161431
 20
4.5494976826
 40
0.005
100
AcDbArc
 50
239.9999999999
 51
270.0
  0
ARC
  5
44B
100
AcDbEntity
  8
0
100
AcDbCircle
 62
7
  6
CONTINUOUS
 10
6.5404257621
 20
4.5644976826
 40
0.003
100
AcDbArc
 50
0.0
 51
90.0
  0
ARC
  5
44C
100
AcDbEntity
  8
0
100
AcDbCircle
 62
7
  6
CONTINUOUS
 10
6.5404257621
 20
3.8704976826
 40
0.003
100
AcDbArc
 50
270.0
 51
360.0
  0
SPLINE
  5
44D
100
AcDbEntity
  8
0
100
AcDbSpline
 62
7
  6
CONTINUOUS
 70
0
 71
3
 72
15
 73
11
 74
9
 42
0.0000001
 43
0.0000001
 44
0.0000000001
 12
0.0
 22
0.0785292475
 32
0.0
 13
0.0
 23
-0.0785292475
 33
0.0
 40
0.0
 40
0.0
 40
0.0
 40
0.0
 40
0.125
 40
0.25
 40
0.375
 40
0.5
 40
0.625
 40
0.75
 40
0.875
 40
1.0
 40
1.0
 40
1.0
 40
1.0
 10
7.2204257621
 20
4.4004976826
 30
0.0
 10
7.2204257621
 20
4.4037697346
 30
0.0
 10
7.2191240589
 20
4.4103138385
 30
0.0
 10
7.2135636532
 20
4.4186355737
 30
0.0
 10
7.205241918
 20
4.4241959794
 30
0.0
 10
7.1954257621
 20
4.4261485342
 30
0.0
 10
7.1856096061
 20
4.4241959794
 30
0.0
 10
7.177287871
 20
4.4186355737
 30
0.0
 10
7.1717274653
 20
4.4103138385
 30
0.0
 10
7.1704257621
 20
4.4037697346
 30
0.0
 10
7.1704257621
 20
4.4004976826
 30
0.0
 11
7.2204257621
 21
4.4004976826
 31
0.0
 11
7.2185227504
 21
4.4100647684
 31
0.0
 11
7.2131034316
 21
4.4181753521
 31
0.0
 11
7.2049928479
 21
4.4235946709
 31
0.0
 11
7.1954257621
 21
4.4254976826
 31
0.0
 11
7.1858586763
 21
4.4235946709
 31
0.0
 11
7.1777480925
 21
4.4181753521
 31
0.0
 11
7.1723287738
 21
4.4100647684
 31
0.0
 11
7.1704257621
 21
4.4004976826
 31
0.0
  0
SPLINE
  5
44E
100
AcDbEntity
  8
0
100
AcDbSpline
 62
7
  6
CONTINUOUS
 70
0
 71
3
 72
15
 73
11
 74
9
 42
0.0000001
 43
0.0000001
 44
0.0000000001
 12
0.0
 22
-0.0785292475
 32
0.0
 13
0.0
 23
0.0785292475
 33
0.0
 40
0.0
 40
0.0
 40
0.0
 40
0.0
 40
0.125
 40
0.25
 40
0.375
 40
0.5
 40
0.625
 40
0.75
 40
0.875
 40
1.0
 40
1.0
 40
1.0
 40
1.0
 10
7.2204257621
 20
4.0344976826
 30
0.0
 10
7.2204257621
 20
4.0312256306
 30
0.0
 10
7.2191240589
 20
4.0246815267
 30
0.0
 10
7.2135636532
 20
4.0163597915
 30
0.0
 10
7.205241918
 20
4.0107993858
 30
0.0
 10
7.1954257621
 20
4.008846831
 30
0.0
 10
7.1856096061
 20
4.0107993858
 30
0.0
 10
7.177287871
 20
4.0163597915
 30
0.0
 10
7.1717274653
 20
4.0246815267
 30
0.0
 10
7.1704257621
 20
4.0312256306
 30
0.0
 10
7.1704257621
 20
4.0344976826
 30
0.0
 11
7.2204257621
 21
4.0344976826
 31
0.0
 11
7.2185227504
 21
4.0249305968
 31
0.0
 11
7.2131034316
 21
4.0168200131
 31
0.0
 11
7.2049928479
 21
4.0114006943
 31
0.0
 11
7.1954257621
 21
4.0094976826
 31
0.0
 11
7.1858586763
 21
4.0114006943
 31
0.0
 11
7.1777480925
 21
4.0168200131
 31
0.0
 11
7.1723287738
 21
4.0249305968
 31
0.0
 11
7.1704257621
 21
4.0344976826
 31
0.0
  0
SPLINE
  5
44F
100
AcDbEntity
  8
0
100
AcDbSpline
 62
7
  6
CONTINUOUS
 70
0
 71
3
 72
15
 73
11
 74
9
 42
0.0000001
 43
0.0000001
 44
0.0000000001
 12
0.0
 22
0.1099409465
 32
0.0
 13
-0.0
 23
-0.1099409465
 33
0.0
 40
0.0
 40
0.0
 40
0.0
 40
0.0
 40
0.125
 40
0.25
 40
0.375
 40
0.5
 40
0.625
 40
0.75
 40
0.875
 40
1.0
 40
1.0
 40
1.0
 40
1.0
 10
6.6504257621
 20
4.5239976826
 30
0.0
 10
6.6504257621
 20
4.5285785554
 30
0.0
 10
6.6486033776
 20
4.5377403009
 30
0.0
 10
6.6408188096
 20
4.5493907302
 30
0.0
 10
6.6291683804
 20
4.5571752981
 30
0.0
 10
6.6154257621
 20
4.5599088748
 30
0.0
 10
6.6016831438
 20
4.5571752981
 30
0.0
 10
6.5900327145
 20
4.5493907302
 30
0.0
 10
6.5822481466
 20
4.5377403009
 30
0.0
 10
6.5804257621
 20
4.5285785554
 30
0.0
 10
6.5804257621
 20
4.5239976826
 30
0.0
 11
6.6504257621
 21
4.5239976826
 31
0.0
 11
6.6477615457
 21
4.5373916027
 31
0.0
 11
6.6401744994
 21
4.5487464199
 31
0.0
 11
6.6288196822
 21
4.5563334662
 31
0.0
 11
6.6154257621
 21
4.5589976826
 31
0.0
 11
6.6020318419
 21
4.5563334662
 31
0.0
 11
6.5906770247
 21
4.5487464199
 31
0.0
 11
6.5830899784
 21
4.5373916027
 31
0.0
 11
6.5804257621
 21
4.5239976826
 31
0.0
  0
SPLINE
  5
450
100
AcDbEntity
  8
0
100
AcDbSpline
 62
7
  6
CONTINUOUS
 70
0
 71
3
 72
15
 73
11
 74
9
 42
0.0000001
 43
0.0000001
 44
0.0000000001
 12
0.0
 22
-0.1099409465
 32
0.0
 13
-0.0
 23
0.1099409465
 33
0.0
 40
0.0
 40
0.0
 40
0.0
 40
0.0
 40
0.125
 40
0.25
 40
0.375
 40
0.5
 40
0.625
 40
0.75
 40
0.875
 40
1.0
 40
1.0
 40
1.0
 40
1.0
 10
6.6504257621
 20
3.9109976826
 30
0.0
 10
6.6504257621
 20
3.9064168098
 30
0.0
 10
6.6486033776
 20
3.8972550643
 30
0.0
 10
6.6408188096
 20
3.885604635
 30
0.0
 10
6.6291683804
 20
3.8778200671
 30
0.0
 10
6.6154257621
 20
3.8750864903
 30
0.0
 10
6.6016831438
 20
3.8778200671
 30
0.0
 10
6.5900327145
 20
3.885604635
 30
0.0
 10
6.5822481466
 20
3.8972550643
 30
0.0
 10
6.5804257621
 20
3.9064168098
 30
0.0
 10
6.5804257621
 20
3.9109976826
 30
0.0
 11
6.6504257621
 21
3.9109976826
 31
0.0
 11
6.6477615457
 21
3.8976037625
 31
0.0
 11
6.6401744994
 21
3.8862489453
 31
0.0
 11
6.6288196822
 21
3.878661899
 31
0.0
 11
6.6154257621
 21
3.8759976826
 31
0.0
 11
6.6020318419
 21
3.878661899
 31
0.0
 11
6.5906770247
 21
3.8862489453
 31
0.0
 11
6.5830899784
 21
3.8976037625
 31
0.0
 11
6.5804257621
 21
3.9109976826
 31
0.0
  0
SPLINE
  5
451
100
AcDbEntity
  8
0
100
AcDbSpline
 62
7
  6
CONTINUOUS
 70
0
 71
3
 72
10
 73
6
 74
4
 42
0.0000001
 43
0.0000001
 44
0.0000000001
 12
0.0
 22
0.0336409594
 32
0.0
 13
-0.0275910923
 23
0.0192577945
 33
0.0
 40
0.0
 40
0.0
 40
0.0
 40
0.0
 40
0.4085085128
 40
0.8170170256
 40
1.0
 40
1.0
 40
1.0
 40
1.0
 10
3.6984257621
 20
4.5804976826
 30
0.0
 10
3.6984257621
 20
4.5850785554
 30
0.0
 10
3.6966033776
 20
4.5942403009
 30
0.0
 10
3.6902513533
 20
4.603746777
 30
0.0
 10
3.685143389
 20
4.6080189806
 30
0.0
 10
3.6834604889
 20
4.6091935968
 30
0.0
 11
3.6984257621
 21
4.5804976826
 31
0.0
 11
3.6957615457
 21
4.5938916027
 31
0.0
 11
3.6881744994
 21
4.6052464199
 31
0.0
 11
3.6834604889
 21
4.6091935968
 31
0.0
  0
SPLINE
  5
452
100
AcDbEntity
  8
0
100
AcDbSpline
 62
7
  6
CONTINUOUS
 70
0
 71
3
 72
10
 73
6
 74
4
 42
0.0000001
 43
0.0000001
 44
0.0000000001
 12
0.0
 22
-0.0336409594
 32
0.0
 13
-0.0275910923
 23
-0.0192577945
 33
0.0
 40
0.0
 40
0.0
 40
0.0
 40
0.0
 40
0.4085085128
 40
0.8170170256
 40
1.0
 40
1.0
 40
1.0
 40
1.0
 10
3.6984257621
 20
3.8544976826
 30
0.0
 10
3.6984257621
 20
3.8499168098
 30
0.0
 10
3.6966033776
 20
3.8407550643
 30
0.0
 10
3.6902513533
 20
3.8312485882
 30
0.0
 10
3.685143389
 20
3.8269763846
 30
0.0
 10
3.6834604889
 20
3.8258017684
 30
0.0
 11
3.6984257621
 21
3.8544976826
 31
0.0
 11
3.6957615457
 21
3.8411037625
 31
0.0
 11
3.6881744994
 21
3.8297489453
 31
0.0
 11
3.6834604889
 21
3.8258017684
 31
0.0
  0
SPLINE
  5
453
100
AcDbEntity
  8
0
100
AcDbSpline
 62
7
  6
CONTINUOUS
 70
0
 71
3
 72
21
 73
17
 74
15
 42
0.0000001
 43
0.0000001
 44
0.0000000001
 12
-0.0916445329
 22
0.0195698363
 32
0.0
 13
-0.0916445562
 23
-0.0195697064
 33
0.0
 40
0.0
 40
0.0
 40
0.0
 40
0.0
 40
0.0124960268
 40
0.0499236573
 40
0.1102726724
 40
0.1895654383
 40
0.2843076208
 40
0.3892155686
 40
0.4988363421
 40
0.6083662535
 40
0.713185437
 40
0.8082283556
 40
0.8882924359
 40
0.9494477847
 40
0.9873797006
 40
1.0
 40
1.0
 40
1.0
 40
1.0
 10
7.0399257621
 20
3.9999976826
 30
0.0
 10
7.0395440312
 20
4.0000791977
 30
0.0
 10
7.0380182048
 20
4.0004013817
 30
0.0
 10
7.0346413127
 20
4.001081529
 30
0.0
 10
7.0291981994
 20
4.0020673016
 30
0.0
 10
7.0219588534
 20
4.0031692508
 30
0.0
 10
7.0133003667
 20
4.004166224
 30
0.0
 10
7.0036611796
 20
4.0048589911
 30
0.0
 10
6.9935377003
 20
4.0051092612
 30
0.0
 10
6.9834167446
 20
4.0048696418
 30
0.0
 10
6.9737730475
 20
4.0041869609
 30
0.0
 10
6.965083027
 20
4.0031951405
 30
0.0
 10
6.957784806
 20
4.0020898226
 30
0.0
 10
6.9522772717
 20
4.0010947074
 30
0.0
 10
6.9488563349
 20
4.0004062091
 30
0.0
 10
6.9473112893
 20
4.0000800078
 30
0.0
 10
6.9469257621
 20
3.9999976826
 30
0.0
 11
7.0399257621
 21
3.9999976826
 31
0.0
 11
7.0387800068
 21
4.0002395912
 31
0.0
 11
7.0353415621
 21
4.0009315466
 31
0.0
 11
7.0297767042
 21
4.0019392609
 31
0.0
 11
7.0224304835
 21
4.0030558879
 31
0.0
 11
7.0136102014
 21
4.0040699101
 31
0.0
 11
7.0038043625
 21
4.0047731388
 31
0.0
 11
6.9935348196
 21
4.0050264274
 31
0.0
 11
6.9832735303
 21
4.004784058
 31
0.0
 11
6.9734752419
 21
4.0040919108
 31
0.0
 11
6.9646259504
 21
4.0030835073
 31
0.0
 11
6.9572074258
 21
4.0019615857
 31
0.0
 11
6.9515677944
 21
4.0009427319
 31
0.0
 11
6.948082918
 21
4.0002419676
 31
0.0
 11
6.9469257621
 21
3.9999976826
 31
0.0
  0
SPLINE
  5
454
100
AcDbEntity
  8
0
100
AcDbSpline
 62
7
  6
CONTINUOUS
 70
0
 71
3
 72
21
 73
17
 74
15
 42
0.0000001
 43
0.0000001
 44
0.0000000001
 12
0.0916445329
 22
-0.0195698363
 32
0.0
 13
0.0916445562
 23
0.0195697064
 33
0.0
 40
0.0
 40
0.0
 40
0.0
 40
0.0
 40
0.0124960268
 40
0.0499236573
 40
0.1102726724
 40
0.1895654383
 40
0.2843076208
 40
0.3892155686
 40
0.4988363421
 40
0.6083662535
 40
0.713185437
 40
0.8082283556
 40
0.8882924359
 40
0.9494477847
 40
0.9873797006
 40
1.0
 40
1.0
 40
1.0
 40
1.0
 10
6.9469257621
 20
4.4349976826
 30
0.0
 10
6.9473074929
 20
4.4349161675
 30
0.0
 10
6.9488333193
 20
4.4345939835
 30
0.0
 10
6.9522102114
 20
4.4339138362
 30
0.0
 10
6.9576533248
 20
4.4329280636
 30
0.0
 10
6.9648926707
 20
4.4318261144
 30
0.0
 10
6.9735511574
 20
4.4308291412
 30
0.0
 10
6.9831903445
 20
4.4301363741
 30
0.0
 10
6.9933138238
 20
4.429886104
 30
0.0
 10
7.0034347796
 20
4.4301257234
 30
0.0
 10
7.0130784766
 20
4.4308084042
 30
0.0
 10
7.0217684971
 20
4.4318002247
 30
0.0
 10
7.0290667181
 20
4.4329055426
 30
0.0
 10
7.0345742525
 20
4.4339006578
 30
0.0
 10
7.0379951893
 20
4.4345891561
 30
0.0
 10
7.0395402348
 20
4.4349153574
 30
0.0
 10
7.0399257621
 20
4.4349976826
 30
0.0
 11
6.9469257621
 21
4.4349976826
 31
0.0
 11
6.9480715173
 21
4.4347557739
 31
0.0
 11
6.951509962
 21
4.4340638186
 31
0.0
 11
6.9570748199
 21
4.4330561043
 31
0.0
 11
6.9644210406
 21
4.4319394773
 31
0.0
 11
6.9732413227
 21
4.4309254551
 31
0.0
 11
6.9830471616
 21
4.4302222263
 31
0.0
 11
6.9933167045
 21
4.4299689378
 31
0.0
 11
7.0035779938
 21
4.4302113072
 31
0.0
 11
7.0133762822
 21
4.4309034544
 31
0.0
 11
7.0222255737
 21
4.4319118579
 31
0.0
 11
7.0296440983
 21
4.4330337795
 31
0.0
 11
7.0352837297
 21
4.4340526333
 31
0.0
 11
7.0387686061
 21
4.4347533976
 31
0.0
 11
7.0399257621
 21
4.4349976826
 31
0.0
  0
SPLINE
  5
455
100
AcDbEntity
  8
0
100
AcDbSpline
 62
7
  6
CONTINUOUS
 70
0
 71
3
 72
10
 73
6
 74
4
 42
0.0000001
 43
0.0000001
 44
0.0000000001
 12
0.0037209155
 22
0.0000078511
 32
0.0
 13
0.0033406705
 23
0.0015893564
 33
0.0
 40
0.0
 40
0.0
 40
0.0
 40
0.0
 40
0.0923191113
 40
0.4766850905
 40
1.0
 40
1.0
 40
1.0
 40
1.0
 10
3.6653422576
 20
3.716102257
 30
0.0
 10
3.6654567615
 20
3.7161024986
 30
0.0
 10
3.6660486739
 20
3.7161336422
 30
0.0
 10
3.6672549699
 20
3.7164199928
 30
0.0
 10
3.6682913883
 20
3.7168537945
 30
0.0
 10
3.6688741292
 20
3.7171310391
 30
0.0
 11
3.6653422576
 21
3.716102257
 31
0.0
 11
3.6656853981
 21
3.7161185133
 31
0.0
 11
3.6670768639
 21
3.7164113857
 31
0.0
 11
3.6688741292
 21
3.7171310391
 31
0.0
  0
SPLINE
  5
456
100
AcDbEntity
  8
0
100
AcDbSpline
 62
7
  6
CONTINUOUS
 70
0
 71
3
 72
9
 73
5
 74
3
 42
0.0000001
 43
0.0000001
 44
0.0000000001
 12
-0.0023885818
 22
-0.000316622
 32
0.0
 13
-0.0017641559
 23
0.0014537349
 33
0.0
 40
0.0
 40
0.0
 40
0.0
 40
0.0
 40
0.1173583013
 40
1.0
 40
1.0
 40
1.0
 40
1.0
 10
3.3756144314
 20
3.7161452529
 30
0.0
 10
3.3755209914
 20
3.7161328669
 30
0.0
 10
3.3747199108
 20
3.7160998024
 30
0.0
 10
3.3741004552
 20
3.7167033301
 30
0.0
 10
3.373581416
 20
3.7171310391
 30
0.0
 11
3.3756144314
 21
3.7161452529
 31
0.0
 11
3.375335466
 21
3.7161338738
 31
0.0
 11
3.373581416
 21
3.7171310391
 31
0.0
  0
SPLINE
  5
457
100
AcDbEntity
  8
0
100
AcDbSpline
 62
7
  6
CONTINUOUS
 70
0
 71
3
 72
10
 73
6
 74
4
 42
0.0000001
 43
0.0000001
 44
0.0000000001
 12
0.0037209191
 22
-0.000007871
 32
0.0
 13
0.0033406465
 23
-0.0015893802
 33
0.0
 40
0.0
 40
0.0
 40
0.0
 40
0.0
 40
0.0923042647
 40
0.4766718308
 40
1.0
 40
1.0
 40
1.0
 40
1.0
 10
3.6653422679
 20
4.7188931086
 30
0.0
 10
3.6654567534
 20
4.7188928665
 30
0.0
 10
3.6660486499
 20
4.7188617259
 30
0.0
 10
3.6672549409
 20
4.7185753822
 30
0.0
 10
3.6682913777
 20
4.7181415819
 30
0.0
 10
3.6688741292
 20
4.717864326
 30
0.0
 11
3.6653422679
 21
4.7188931086
 31
0.0
 11
3.6656853535
 21
4.7188768557
 31
0.0
 11
3.6670768226
 21
4.7185839924
 31
0.0
 11
3.6688741292
 21
4.717864326
 31
0.0
  0
SPLINE
  5
458
100
AcDbEntity
  8
0
100
AcDbSpline
 62
7
  6
CONTINUOUS
 70
0
 71
3
 72
11
 73
7
 74
5
 42
0.0000001
 43
0.0000001
 44
0.0000000001
 12
0.0334912023
 22
0.0003745075
 32
0.0
 13
0.0250023589
 23
0.0206029426
 33
0.0
 40
0.0
 40
0.0
 40
0.0
 40
0.0
 40
0.0471747592
 40
0.2609389755
 40
0.5731904472
 40
1.0
 40
1.0
 40
1.0
 40
1.0
 10
3.3454970519
 20
4.702439706
 30
0.0
 10
3.3460236984
 20
4.7024455951
 30
0.0
 10
3.3489643852
 20
4.7027072184
 30
0.0
 10
3.3547404566
 20
4.7048362132
 30
0.0
 10
3.3636830495
 20
4.7100828886
 30
0.0
 10
3.3700243341
 20
4.7149331485
 30
0.0
 10
3.373581416
 20
4.717864326
 30
0.0
 11
3.3454970519
 21
4.702439706
 31
0.0
 11
3.3470768118
 21
4.7025633189
 31
0.0
 11
3.353687906
 21
4.7046260879
 31
0.0
 11
3.3625016622
 21
4.7095914332
 31
0.0
 11
3.373581416
 21
4.717864326
 31
0.0
  0
SPLINE
  5
459
100
AcDbEntity
  8
0
100
AcDbSpline
 62
7
  6
CONTINUOUS
 70
0
 71
3
 72
11
 73
7
 74
5
 42
0.0000001
 43
0.0000001
 44
0.0000000001
 12
-0.0250140544
 22
0.0206125801
 32
0.0
 13
-0.0337681638
 23
-0.0008622377
 33
0.0
 40
0.0
 40
0.0
 40
0.0
 40
0.0
 40
0.464636035
 40
0.7845590621
 40
0.9912652677
 40
1.0
 40
1.0
 40
1.0
 40
1.0
 10
3.373581416
 20
3.7171310391
 30
0.0
 10
3.3697072723
 20
3.7203234883
 30
0.0
 10
3.3629544318
 20
3.7254874025
 30
0.0
 10
3.3535476996
 20
3.73070334
 30
0.0
 10
3.3480292643
 20
3.7325655679
 30
0.0
 10
3.3456087548
 20
3.7325369057
 30
0.0
 10
3.3455104362
 20
3.7325343952
 30
0.0
 11
3.373581416
 21
3.7171310391
 31
0.0
 11
3.3614660399
 21
3.726076661
 31
0.0
 11
3.3523142974
 21
3.7309524578
 31
0.0
 11
3.3458046983
 21
3.7325379509
 31
0.0
 11
3.3455104362
 21
3.7325343952
 31
0.0
  0
SPLINE
  5
45A
100
AcDbEntity
  8
0
100
AcDbSpline
 62
7
  6
CONTINUOUS
 70
0
 71
3
 72
9
 73
5
 74
3
 42
0.0000001
 43
0.0000001
 44
0.0000000001
 12
0.0017645245
 22
0.0014540387
 32
0.0
 13
0.0023873916
 23
-0.0003200148
 33
0.0
 40
0.0
 40
0.0
 40
0.0
 40
0.0
 40
0.8840070991
 40
1.0
 40
1.0
 40
1.0
 40
1.0
 10
3.373581416
 20
4.717864326
 30
0.0
 10
3.3741013668
 20
4.7182927862
 30
0.0
 10
3.3747218967
 20
4.7188975919
 30
0.0
 10
3.3755224044
 20
4.7188627594
 30
0.0
 10
3.3756147113
 20
4.7188503862
 30
0.0
 11
3.373581416
 21
4.717864326
 31
0.0
 11
3.3753391195
 21
4.7188622341
 31
0.0
 11
3.3756147113
 21
4.7188503862
 31
0.0
  0
SPLINE
  5
45B
100
AcDbEntity
  8
0
100
AcDbSpline
 62
7
  6
CONTINUOUS
 70
0
 71
3
 72
10
 73
6
 74
4
 42
0.0000001
 43
0.0000001
 44
0.0000000001
 12
0.0143733635
 22
0.0068382669
 32
0.0
 13
0.0147426396
 23
0.0060008375
 33
0.0
 40
0.0
 40
0.0
 40
0.0
 40
0.0
 40
0.3509709685
 40
0.6842366634
 40
1.0
 40
1.0
 40
1.0
 40
1.0
 10
3.6688741292
 20
3.7171310391
 30
0.0
 10
3.6705556736
 20
3.7179310502
 30
0.0
 10
3.6738473359
 20
3.719462785
 30
0.0
 10
3.6786985518
 20
3.7216120527
 30
0.0
 10
3.6818740337
 20
3.7229448754
 30
0.0
 10
3.6834257621
 20
3.7235764902
 30
0.0
 11
3.6688741292
 21
3.7171310391
 31
0.0
 11
3.6739398034
 21
3.7194863373
 31
0.0
 11
3.6787905526
 21
3.7216332925
 31
0.0
 11
3.6834257621
 21
3.7235764902
 31
0.0
  0
SPLINE
  5
45C
100
AcDbEntity
  8
0
100
AcDbSpline
 62
7
  6
CONTINUOUS
 70
0
 71
3
 72
10
 73
6
 74
4
 42
0.0000001
 43
0.0000001
 44
0.0000000001
 12
-0.014743496
 22
0.0060011922
 32
0.0
 13
-0.0143741417
 23
0.0068387887
 33
0.0
 40
0.0
 40
0.0
 40
0.0
 40
0.0
 40
0.3170704933
 40
0.6503319267
 40
1.0
 40
1.0
 40
1.0
 40
1.0
 10
3.6834257621
 20
4.7114188759
 30
0.0
 10
3.6818675195
 20
4.7120531428
 30
0.0
 10
3.6786850706
 20
4.7133877973
 30
0.0
 10
3.6738351491
 20
4.7155407221
 30
0.0
 10
3.6705484858
 20
4.717067224
 30
0.0
 10
3.668873093
 20
4.717864326
 30
0.0
 11
3.6834257621
 21
4.7114188759
 31
0.0
 11
3.6787710508
 21
4.7133701298
 31
0.0
 11
3.6739207903
 21
4.7155187843
 31
0.0
 11
3.668873093
 21
4.717864326
 31
0.0
  0
SPLINE
  5
45D
100
AcDbEntity
  8
0
100
AcDbSpline
 62
7
  6
CONTINUOUS
 70
0
 71
3
 72
10
 73
6
 74
4
 42
0.0000001
 43
0.0000001
 44
0.0000000001
 12
0.0070443852
 22
-0.0099721558
 32
0.0
 13
-0.0
 23
-0.0122093101
 33
0.0
 40
0.0
 40
0.0
 40
0.0
 40
0.0
 40
0.3143061736
 40
0.6534857418
 40
1.0
 40
1.0
 40
1.0
 40
1.0
 10
3.373581416
 20
4.2320611549
 30
0.0
 10
3.3743194473
 20
4.2310163848
 30
0.0
 10
3.3755082195
 20
4.2285974292
 30
0.0
 10
3.3765072185
 20
4.2246334819
 30
0.0
 10
3.3767270323
 20
4.2218365524
 30
0.0
 10
3.3767270323
 20
4.220426319
 30
0.0
 11
3.373581416
 21
4.2320611549
 31
0.0
 11
3.3753389921
 21
4.2286498446
 31
0.0
 11
3.3763860675
 21
4.224643257
 31
0.0
 11
3.3767270323
 21
4.220426319
 31
0.0
  0
SPLINE
  5
45E
100
AcDbEntity
  8
0
100
AcDbSpline
 62
7
  6
CONTINUOUS
 70
0
 71
3
 72
10
 73
6
 74
4
 42
0.0000001
 43
0.0000001
 44
0.0000000001
 12
0.0
 22
-0.0122093411
 32
0.0
 13
-0.007044403
 23
-0.0099721811
 33
0.0
 40
0.0
 40
0.0
 40
0.0
 40
0.0
 40
0.3475028895
 40
0.6865401579
 40
1.0
 40
1.0
 40
1.0
 40
1.0
 10
3.3767270323
 20
4.2145690462
 30
0.0
 10
3.3767270323
 20
4.2131547858
 30
0.0
 10
3.3765063427
 20
4.210354355
 30
0.0
 10
3.3755053289
 20
4.2063908542
 30
0.0
 10
3.3743174618
 20
4.2039761698
 30
0.0
 10
3.373581416
 20
4.2029342103
 30
0.0
 11
3.3767270323
 21
4.2145690462
 31
0.0
 11
3.3763840906
 21
4.2103401475
 31
0.0
 11
3.3753353629
 21
4.2063357771
 31
0.0
 11
3.373581416
 21
4.2029342103
 31
0.0
  0
SPLINE
  5
45F
100
AcDbEntity
  8
0
100
AcDbSpline
 62
7
  6
CONTINUOUS
 70
0
 71
3
 72
18
 73
14
 74
12
 42
0.0000001
 43
0.0000001
 44
0.0000000001
 12
-0.1555407896
 22
-0.2201862836
 32
0.0
 13
0.1154376687
 23
-0.2436166689
 33
0.0
 40
0.0
 40
0.0
 40
0.0
 40
0.0
 40
0.0855843219
 40
0.167805549
 40
0.2485003755
 40
0.3323385662
 40
0.4236542589
 40
0.516992932
 40
0.6129062661
 40
0.7033601252
 40
0.7958209521
 40
0.8939270005
 40
1.0
 40
1.0
 40
1.0
 40
1.0
 10
3.373581416
 20
4.2029342103
 30
0.0
 10
3.3691441317
 20
4.1966527124
 30
0.0
 10
3.3613312767
 20
4.1836890327
 30
0.0
 10
3.3522904071
 20
4.1632180851
 30
0.0
 10
3.3456654381
 20
4.142011369
 30
0.0
 10
3.3411660644
 20
4.1194228347
 30
0.0
 10
3.3389687548
 20
4.0953502161
 30
0.0
 10
3.3392540219
 20
4.0700990596
 30
0.0
 10
3.3419350369
 20
4.0450716709
 30
0.0
 10
3.3467090518
 20
4.0204496554
 30
0.0
 10
3.3533651303
 20
3.9960665805
 30
0.0
 10
3.3622136677
 20
3.9708997287
 30
0.0
 10
3.3694998094
 20
3.9540410325
 30
0.0
 10
3.373581416
 20
3.9454273156
 30
0.0
 11
3.373581416
 21
4.2029342103
 31
0.0
 11
3.3616189299
 21
4.1832055687
 31
0.0
 11
3.3526304643
 21
4.1629444222
 31
0.0
 11
3.3461164059
 21
4.1421886722
 31
0.0
 11
3.34167487
 21
4.1200280445
 31
0.0
 11
3.3394007892
 21
4.0955161582
 31
0.0
 11
3.3396458443
 21
4.0703548419
 31
0.0
 11
3.3423593845
 21
4.0446410292
 31
0.0
 11
3.3469682855
 21
4.0206957345
 31
0.0
 11
3.3535070404
 21
3.9966428127
 31
0.0
 11
3.362252058
 21
3.9716827214
 31
0.0
 11
3.373581416
 21
3.9454273156
 31
0.0
  0
SPLINE
  5
460
100
AcDbEntity
  8
0
100
AcDbSpline
 62
7
  6
CONTINUOUS
 70
0
 71
3
 72
10
 73
6
 74
4
 42
0.0000001
 43
0.0000001
 44
0.0000000001
 12
0.0057195418
 22
-0.0120703731
 32
0.0
 13
-0.0
 23
-0.0133569107
 33
0.0
 40
0.0
 40
0.0
 40
0.0
 40
0.0
 40
0.3627475415
 40
0.7020055529
 40
1.0
 40
1.0
 40
1.0
 40
1.0
 10
3.373581416
 20
3.9454273156
 30
0.0
 10
3.3742729993
 20
3.9439678162
 30
0.0
 10
3.3754077419
 20
3.9410421225
 30
0.0
 10
3.3764548295
 20
3.9367033479
 30
0.0
 10
3.3767270323
 20
3.933864447
 30
0.0
 10
3.3767270323
 20
3.9325376852
 30
0.0
 11
3.373581416
 21
3.9454273156
 31
0.0
 11
3.3753389921
 21
3.9409121457
 31
0.0
 11
3.3763860675
 21
3.9365033395
 31
0.0
 11
3.3767270323
 21
3.9325376852
 31
0.0
  0
SPLINE
  5
461
100
AcDbEntity
  8
0
100
AcDbSpline
 62
7
  6
CONTINUOUS
 70
0
 71
3
 72
10
 73
6
 74
4
 42
0.0000001
 43
0.0000001
 44
0.0000000001
 12
0.0
 22
-0.0083375991
 32
0.0
 13
-0.0078900828
 23
-0.0026948383
 33
0.0
 40
0.0
 40
0.0
 40
0.0
 40
0.0
 40
0.4035202233
 40
0.7317176537
 40
1.0
 40
1.0
 40
1.0
 40
1.0
 10
3.3767270323
 20
3.9274651382
 30
0.0
 10
3.3767270323
 20
3.9263436749
 30
0.0
 10
3.3765553633
 20
3.9243040037
 30
0.0
 10
3.3756305006
 20
3.9216253854
 30
0.0
 10
3.374287006
 20
3.9204436342
 30
0.0
 10
3.373581416
 20
3.9202026417
 30
0.0
 11
3.3767270323
 21
3.9274651382
 31
0.0
 11
3.3763840906
 21
3.9241182725
 31
0.0
 11
3.3753353629
 21
3.9215908354
 31
0.0
 11
3.373581416
 21
3.9202026417
 31
0.0
  0
SPLINE
  5
462
100
AcDbEntity
  8
0
100
AcDbSpline
 62
7
  6
CONTINUOUS
 70
0
 71
3
 72
18
 73
14
 74
12
 42
0.0000001
 43
0.0000001
 44
0.0000000001
 12
-0.1964706709
 22
-0.0671040729
 32
0.0
 13
0.0846449167
 23
-0.1895756292
 33
0.0
 40
0.0
 40
0.0
 40
0.0
 40
0.0
 40
0.0659894081
 40
0.1285040047
 40
0.1912553192
 40
0.2603676112
 40
0.3406656057
 40
0.4296515399
 40
0.5296542799
 40
0.6281725449
 40
0.7385888975
 40
0.862459733
 40
1.0
 40
1.0
 40
1.0
 40
1.0
 10
3.373581416
 20
3.9202026417
 30
0.0
 10
3.3692597549
 20
3.918726589
 30
0.0
 10
3.3612283285
 20
3.9145033259
 30
0.0
 10
3.3518423214
 20
3.9049266185
 30
0.0
 10
3.3451712873
 20
3.8931024518
 30
0.0
 10
3.3408391146
 20
3.8789763094
 30
0.0
 10
3.338895279
 20
3.8625186129
 30
0.0
 10
3.3394032661
 20
3.8438397826
 30
0.0
 10
3.3422211067
 20
3.8241082362
 30
0.0
 10
3.3470520284
 20
3.8032626366
 30
0.0
 10
3.353766654
 20
3.7812157119
 30
0.0
 10
3.3626455414
 20
3.7570520338
 30
0.0
 10
3.3697007212
 20
3.740385939
 30
0.0
 10
3.373581416
 20
3.7316945114
 30
0.0
 11
3.373581416
 21
3.9202026417
 31
0.0
 11
3.3614660399
 21
3.9138059991
 31
0.0
 11
3.3523142974
 21
3.9046028464
 31
0.0
 11
3.3458046983
 21
3.8933176495
 31
0.0
 11
3.3414596317
 21
3.8796426536
 31
0.0
 11
3.3393485355
 21
3.8631058521
 31
0.0
 11
3.3397140972
 21
3.8446347202
 31
0.0
 11
3.3425296597
 21
3.8240645224
 31
0.0
 11
3.3470768118
 21
3.8041225764
 31
0.0
 11
3.353687906
 21
3.7821725505
 31
0.0
 11
3.3625016622
 21
3.7580126687
 31
0.0
 11
3.373581416
 21
3.7316945114
 31
0.0
  0
SPLINE
  5
463
100
AcDbEntity
  8
0
100
AcDbSpline
 62
7
  6
CONTINUOUS
 70
0
 71
3
 72
10
 73
6
 74
4
 42
0.0000001
 43
0.0000001
 44
0.0000000001
 12
0.0045654112
 22
-0.0102249578
 32
0.0
 13
0.0
 23
-0.01119789
 33
0.0
 40
0.0
 40
0.0
 40
0.0
 40
0.0
 40
0.423881998
 40
0.761240077
 40
1.0
 40
1.0
 40
1.0
 40
1.0
 10
3.373581416
 20
3.7316945114
 30
0.0
 10
3.3742264812
 20
3.7302497862
 30
0.0
 10
3.3752952079
 20
3.7276107558
 30
0.0
 10
3.3763699874
 20
3.7240360484
 30
0.0
 10
3.3767270323
 20
3.7218950551
 30
0.0
 10
3.3767270323
 20
3.7210038526
 30
0.0
 11
3.373581416
 21
3.7316945114
 31
0.0
 11
3.3753389921
 21
3.727285318
 31
0.0
 11
3.3763860675
 21
3.7236556293
 31
0.0
 11
3.3767270323
 21
3.7210038526
 31
0.0
  0
SPLINE
  5
464
100
AcDbEntity
  8
0
100
AcDbSpline
 62
7
  6
CONTINUOUS
 70
0
 71
3
 72
10
 73
6
 74
4
 42
0.0000001
 43
0.0000001
 44
0.0000000001
 12
0.0
 22
-0.006446737
 32
0.0
 13
-0.003172713
 23
-0.0056119792
 33
0.0
 40
0.0
 40
0.0
 40
0.0
 40
0.0
 40
0.1113920167
 40
0.4454386856
 40
1.0
 40
1.0
 40
1.0
 40
1.0
 10
3.3767270323
 20
4.7924902244
 30
0.0
 10
3.3767270323
 20
4.7922508527
 30
0.0
 10
3.3759929988
 20
4.7914796957
 30
0.0
 10
3.3752132006
 20
4.7895376033
 30
0.0
 10
3.374167904
 20
4.7879004861
 30
0.0
 10
3.373581416
 20
4.7868630906
 30
0.0
 11
3.3767270323
 21
4.7924902244
 31
0.0
 11
3.3763840906
 21
4.7918592884
 31
0.0
 11
3.3753353629
 21
4.7899783897
 31
0.0
 11
3.373581416
 21
4.7868630906
 31
0.0
  0
SPLINE
  5
465
100
AcDbEntity
  8
0
100
AcDbSpline
 62
7
  6
CONTINUOUS
 70
0
 71
3
 72
15
 73
11
 74
9
 42
0.0000001
 43
0.0000001
 44
0.0000000001
 12
-0.0471132464
 22
-0.0833351631
 32
0.0
 13
0.0989626208
 23
0.0011066264
 33
0.0
 40
0.0
 40
0.0
 40
0.0
 40
0.0
 40
0.2613563465
 40
0.4690222386
 40
0.6305983462
 40
0.758994221
 40
0.8573228078
 40
0.9224311104
 40
0.9682035486
 40
1.0
 40
1.0
 40
1.0
 40
1.0
 10
3.373581416
 20
4.7868630906
 30
0.0
 10
3.3694769674
 20
4.7796030326
 30
0.0
 10
3.3621966941
 20
4.7665273901
 30
0.0
 10
3.352853262
 20
4.7486943629
 30
0.0
 10
3.3460931672
 20
4.7343356249
 30
0.0
 10
3.3415181773
 20
4.7227620451
 30
0.0
 10
3.3392666292
 20
4.7137781545
 30
0.0
 10
3.3388486022
 20
4.7068635992
 30
0.0
 10
3.3419377013
 20
4.7028000703
 30
0.0
 10
3.3444481652
 20
4.702427977
 30
0.0
 10
3.3454970519
 20
4.702439706
 30
0.0
 11
3.373581416
 21
4.7868630906
 31
0.0
 11
3.3614660399
 21
4.7649721765
 31
0.0
 11
3.3523142974
 21
4.747323896
 31
0.0
 11
3.3458046983
 21
4.7332925445
 31
0.0
 11
3.3414596317
 21
4.7217947082
 31
0.0
 11
3.3393485355
 21
4.7126214075
 31
0.0
 11
3.3397140972
 21
4.7063992597
 31
0.0
 11
3.3425296597
 21
4.7030417152
 31
0.0
 11
3.3454970519
 21
4.702439706
 31
0.0
  0
SPLINE
  5
466
100
AcDbEntity
  8
0
100
AcDbSpline
 62
7
  6
CONTINUOUS
 70
0
 71
3
 72
9
 73
5
 74
3
 42
0.0000001
 43
0.0000001
 44
0.0000000001
 12
0.0
 22
-0.0024499443
 32
0.0
 13
-0.0025599331
 23
-0.0003393357
 33
0.0
 40
0.0
 40
0.0
 40
0.0
 40
0.0
 40
0.6552374533
 40
1.0
 40
1.0
 40
1.0
 40
1.0
 10
3.3767270323
 20
3.7180752162
 30
0.0
 10
3.3767270323
 20
3.7175401178
 30
0.0
 10
3.3767454429
 20
3.7165419178
 30
0.0
 10
3.3759086211
 20
3.7161842497
 30
0.0
 10
3.3756144314
 20
3.7161452529
 30
0.0
 11
3.3767270323
 21
3.7180752162
 31
0.0
 11
3.3763839767
 21
3.7165070052
 31
0.0
 11
3.3756144314
 21
3.7161452529
 31
0.0
  0
SPLINE
  5
467
100
AcDbEntity
  8
0
100
AcDbSpline
 62
7
  6
CONTINUOUS
 70
0
 71
3
 72
10
 73
6
 74
4
 42
0.0000001
 43
0.0000001
 44
0.0000000001
 12
-0.0
 22
-0.0111978726
 32
0.0
 13
-0.0045654041
 23
-0.0102249419
 33
0.0
 40
0.0
 40
0.0
 40
0.0
 40
0.0
 40
0.2395870041
 40
0.5771068634
 40
1.0
 40
1.0
 40
1.0
 40
1.0
 10
3.3767270323
 20
4.7139915125
 30
0.0
 10
3.3767270323
 20
4.7130972243
 30
0.0
 10
3.3763684201
 20
4.7109526254
 30
0.0
 10
3.3752927464
 20
4.7073782716
 30
0.0
 10
3.3742249754
 20
4.7047422064
 30
0.0
 10
3.373581416
 20
4.7033008538
 30
0.0
 11
3.3767270323
 21
4.7139915125
 31
0.0
 11
3.3763840906
 21
4.7113306566
 31
0.0
 11
3.3753353629
 21
4.7076995654
 31
0.0
 11
3.373581416
 21
4.7033008538
 31
0.0
  0
SPLINE
  5
468
100
AcDbEntity
  8
0
100
AcDbSpline
 62
7
  6
CONTINUOUS
 70
0
 71
3
 72
18
 73
14
 74
12
 42
0.0000001
 43
0.0000001
 44
0.0000000001
 12
-0.0846529397
 22
-0.1895935978
 32
0.0
 13
0.196489293
 23
-0.0671104332
 33
0.0
 40
0.0
 40
0.0
 40
0.0
 40
0.0
 40
0.1512365288
 40
0.2825890089
 40
0.3964035981
 40
0.5004958689
 40
0.5980246446
 40
0.6840066063
 40
0.7610787967
 40
0.8231797999
 40
0.882088979
 40
0.9401177634
 40
1.0
 40
1.0
 40
1.0
 40
1.0
 10
3.373581416
 20
4.7033008538
 30
0.0
 10
3.3693138771
 20
4.6937430279
 30
0.0
 10
3.3617218218
 20
4.6757081981
 30
0.0
 10
3.3524356147
 20
4.6498763874
 30
0.0
 10
3.3456907071
 20
4.6266445611
 30
0.0
 10
3.3412001521
 20
4.6052540223
 30
0.0
 10
3.3389945361
 20
4.5854303409
 30
0.0
 10
3.3392210113
 20
4.567341608
 30
0.0
 10
3.3418268634
 20
4.5518955932
 30
0.0
 10
3.3465768852
 20
4.5389489013
 30
0.0
 10
3.3532487793
 20
4.5283745202
 30
0.0
 10
3.3622589552
 20
4.5198825813
 30
0.0
 10
3.3696593432
 20
4.5161322978
 30
0.0
 10
3.373581416
 20
4.5147927235
 30
0.0
 11
3.373581416
 21
4.7033008538
 31
0.0
 11
3.3614660399
 21
4.6743303002
 31
0.0
 11
3.3523142974
 21
4.6486383786
 31
0.0
 11
3.3458046983
 21
4.625920858
 31
0.0
 11
3.3414596317
 21
4.6047490376
 31
0.0
 11
3.3393485355
 21
4.5846090955
 31
0.0
 11
3.3397140972
 21
4.5667600653
 31
0.0
 11
3.3425296597
 21
4.5510068975
 31
0.0
 11
3.3470768118
 21
4.5389410051
 31
0.0
 11
3.353687906
 21
4.5286500322
 31
0.0
 11
3.3625016622
 21
4.5204348049
 31
0.0
 11
3.373581416
 21
4.5147927235
 31
0.0
  0
SPLINE
  5
469
100
AcDbEntity
  8
0
100
AcDbSpline
 62
7
  6
CONTINUOUS
 70
0
 71
3
 72
10
 73
6
 74
4
 42
0.0000001
 43
0.0000001
 44
0.0000000001
 12
0.0078899201
 22
-0.0026947828
 32
0.0
 13
0.0
 23
-0.0083374273
 33
0.0
 40
0.0
 40
0.0
 40
0.0
 40
0.0
 40
0.2690162857
 40
0.5975180439
 40
1.0
 40
1.0
 40
1.0
 40
1.0
 10
3.373581416
 20
4.5147927235
 30
0.0
 10
3.3742889217
 20
4.5145510767
 30
0.0
 10
3.3756338307
 20
4.513365472
 30
0.0
 10
3.3765558025
 20
4.510686283
 30
0.0
 10
3.3767270323
 20
4.5086487817
 30
0.0
 10
3.3767270323
 20
4.507530227
 30
0.0
 11
3.373581416
 21
4.5147927235
 31
0.0
 11
3.3753389921
 21
4.5133993307
 31
0.0
 11
3.3763860675
 21
4.5108685236
 31
0.0
 11
3.3767270323
 21
4.507530227
 31
0.0
  0
SPLINE
  5
46A
100
AcDbEntity
  8
0
100
AcDbSpline
 62
7
  6
CONTINUOUS
 70
0
 71
3
 72
10
 73
6
 74
4
 42
0.0000001
 43
0.0000001
 44
0.0000000001
 12
0.0
 22
-0.0133569093
 32
0.0
 13
-0.0057195412
 23
-0.0120703718
 33
0.0
 40
0.0
 40
0.0
 40
0.0
 40
0.0
 40
0.2989132732
 40
0.6381656633
 40
1.0
 40
1.0
 40
1.0
 40
1.0
 10
3.3767270323
 20
4.50245768
 30
0.0
 10
3.3767270323
 20
4.5011268275
 30
0.0
 10
3.3764536525
 20
4.4982838536
 30
0.0
 10
3.375405006
 20
4.4939454832
 30
0.0
 10
3.3742712582
 20
4.4910238746
 30
0.0
 10
3.373581416
 20
4.4895680496
 30
0.0
 11
3.3767270323
 21
4.50245768
 31
0.0
 11
3.3763840906
 21
4.4984798783
 31
0.0
 11
3.3753353629
 21
4.4940715424
 31
0.0
 11
3.373581416
 21
4.4895680496
 31
0.0
  0
SPLINE
  5
46B
100
AcDbEntity
  8
0
100
AcDbSpline
 62
7
  6
CONTINUOUS
 70
0
 71
3
 72
18
 73
14
 74
12
 42
0.0000001
 43
0.0000001
 44
0.0000000001
 12
-0.1154387226
 22
-0.243618893
 32
0.0
 13
0.1555422095
 23
-0.2201882938
 33
0.0
 40
0.0
 40
0.0
 40
0.0
 40
0.0
 40
0.1124419583
 40
0.2150367132
 40
0.310691778
 40
0.4049002224
 40
0.5014805114
 40
0.5942462858
 40
0.6838453319
 40
0.7636943609
 40
0.841239405
 40
0.9195006474
 40
1.0
 40
1.0
 40
1.0
 40
1.0
 10
3.373581416
 20
4.4895680496
 30
0.0
 10
3.3692546973
 20
4.4804370545
 30
0.0
 10
3.3616147498
 20
4.4626643991
 30
0.0
 10
3.3525105007
 20
4.4362456811
 30
0.0
 10
3.3458287572
 20
4.4108021037
 30
0.0
 10
3.3412742038
 20
4.3854384789
 30
0.0
 10
3.3390010984
 20
4.3600208518
 30
0.0
 10
3.3392064787
 20
4.334913735
 30
0.0
 10
3.3418198728
 20
4.3114512846
 30
0.0
 10
3.3465536493
 20
4.2897289655
 30
0.0
 10
3.3531683464
 20
4.2695704918
 30
0.0
 10
3.3619679215
 20
4.2501983737
 30
0.0
 10
3.3694077336
 20
4.2379694932
 30
0.0
 10
3.373581416
 20
4.2320611549
 30
0.0
 11
3.373581416
 21
4.4895680496
 31
0.0
 11
3.3616309194
 21
4.4617104523
 31
0.0
 11
3.3526499318
 21
4.4355511475
 31
0.0
 11
3.3461304713
 21
4.4106016674
 31
0.0
 11
3.3416786639
 21
4.3855976669
 31
0.0
 11
3.3394017057
 21
4.3596607889
 31
0.0
 11
3.3396443762
 21
4.3346536721
 31
0.0
 11
3.34235287
 21
4.3106514157
 31
0.0
 11
3.3469584882
 21
4.2896237553
 31
0.0
 11
3.3535021041
 21
4.2697692731
 31
0.0
 11
3.3622558519
 21
4.2505728911
 31
0.0
 11
3.373581416
 21
4.2320611549
 31
0.0
  0
SPLINE
  5
46C
100
AcDbEntity
  8
0
100
AcDbSpline
 62
7
  6
CONTINUOUS
 70
0
 71
3
 72
10
 73
6
 74
4
 42
0.0000001
 43
0.0000001
 44
0.0000000001
 12
0.0031727131
 22
-0.0056119792
 32
0.0
 13
-0.0
 23
-0.0064467371
 33
0.0
 40
0.0
 40
0.0
 40
0.0
 40
0.0
 40
0.5557130946
 40
0.8892421045
 40
1.0
 40
1.0
 40
1.0
 40
1.0
 10
3.373581416
 20
3.6481322746
 30
0.0
 10
3.3741691221
 20
3.6470927245
 30
0.0
 10
3.3752153972
 20
3.6454544904
 30
0.0
 10
3.3759951201
 20
3.6435123844
 30
0.0
 10
3.3767270323
 20
3.6427431498
 30
0.0
 10
3.3767270323
 20
3.6425051408
 30
0.0
 11
3.373581416
 21
3.6481322746
 31
0.0
 11
3.3753389921
 21
3.6450104976
 31
0.0
 11
3.3763860675
 21
3.6431324985
 31
0.0
 11
3.3767270323
 21
3.6425051408
 31
0.0
  0
SPLINE
  5
46D
100
AcDbEntity
  8
0
100
AcDbSpline
 62
7
  6
CONTINUOUS
 70
0
 71
3
 72
13
 73
9
 74
7
 42
0.0000001
 43
0.0000001
 44
0.0000000001
 12
-0.0
 22
0.007832751
 32
0.0
 13
0.0054800455
 23
0.0055965247
 33
0.0
 40
0.0
 40
0.0
 40
0.0
 40
0.0
 40
0.0251699325
 40
0.0999150913
 40
0.2284938252
 40
0.4168072368
 40
0.6716376741
 40
1.0
 40
1.0
 40
1.0
 40
1.0
 10
3.6634257621
 20
3.6425051408
 30
0.0
 10
3.6634257621
 20
3.6425708574
 30
0.0
 10
3.6637066222
 20
3.642723979
 30
0.0
 10
3.6640187167
 20
3.643191835
 30
0.0
 10
3.6647869774
 20
3.6439069885
 30
0.0
 10
3.6657974507
 20
3.6449896005
 30
0.0
 10
3.6672137024
 20
3.6464293249
 30
0.0
 10
3.6682743157
 20
3.647519712
 30
0.0
 10
3.6688741292
 20
3.6481322746
 30
0.0
 11
3.6634257621
 21
3.6425051408
 31
0.0
 11
3.6635581039
 21
3.6426512699
 31
0.0
 11
3.6639615574
 21
3.6430755209
 31
0.0
 11
3.6646596642
 21
3.6438014328
 31
0.0
 11
3.6656853511
 21
3.6448614455
 31
0.0
 11
3.6670768199
 21
3.6462925023
 31
0.0
 11
3.6688741292
 21
3.6481322746
 31
0.0
  0
SPLINE
  5
46E
100
AcDbEntity
  8
0
100
AcDbSpline
 62
7
  6
CONTINUOUS
 70
0
 71
3
 72
13
 73
9
 74
7
 42
0.0000001
 43
0.0000001
 44
0.0000000001
 12
0.0
 22
0.0121490765
 32
0.0
 13
0.0074321973
 23
0.0096105413
 33
0.0
 40
0.0
 40
0.0
 40
0.0
 40
0.0
 40
0.0939228488
 40
0.2115771773
 40
0.3575255348
 40
0.53549313
 40
0.7487703467
 40
1.0
 40
1.0
 40
1.0
 40
1.0
 10
3.6634257621
 20
3.7210038526
 30
0.0
 10
3.6634257621
 20
3.7213842113
 30
0.0
 10
3.663545151
 20
3.7222402591
 30
0.0
 10
3.663972796
 20
3.723626684
 30
0.0
 10
3.6646910463
 20
3.7252678395
 30
0.0
 10
3.6657339299
 20
3.727179364
 30
0.0
 10
3.6671396896
 20
3.7293709082
 30
0.0
 10
3.6682517331
 20
3.7308896937
 30
0.0
 10
3.6688741292
 20
3.7316945114
 30
0.0
 11
3.6634257621
 21
3.7210038526
 31
0.0
 11
3.6635581039
 21
3.722137228
 31
0.0
 11
3.6639615574
 21
3.7235084994
 31
0.0
 11
3.6646596642
 21
3.7251384272
 31
0.0
 11
3.6656853511
 21
3.7270417989
 31
0.0
 11
3.6670768199
 21
3.7292275994
 31
0.0
 11
3.6688741292
 21
3.7316945114
 31
0.0
  0
SPLINE
  5
46F
100
AcDbEntity
  8
0
100
AcDbSpline
 62
7
  6
CONTINUOUS
 70
0
 71
3
 72
13
 73
9
 74
7
 42
0.0000001
 43
0.0000001
 44
0.0000000001
 12
0.0
 22
0.0142450641
 32
0.0
 13
0.009037201
 23
0.0110113964
 33
0.0
 40
0.0
 40
0.0
 40
0.0
 40
0.0
 40
0.1278862711
 40
0.2677341904
 40
0.4228998669
 40
0.595639304
 40
0.7876526873
 40
1.0
 40
1.0
 40
1.0
 40
1.0
 10
3.6634257621
 20
3.9325376852
 30
0.0
 10
3.6634257621
 20
3.9331449346
 30
0.0
 10
3.6635251033
 20
3.9344173357
 30
0.0
 10
3.6639412069
 20
3.9363865327
 30
0.0
 10
3.6646513743
 20
3.9384959583
 30
0.0
 10
3.6656883725
 20
3.9407413628
 30
0.0
 10
3.6670893017
 20
3.9431017109
 30
0.0
 10
3.6682344541
 20
3.9446479021
 30
0.0
 10
3.6688741292
 20
3.9454273156
 30
0.0
 11
3.6634257621
 21
3.9325376852
 31
0.0
 11
3.6635581039
 21
3.93435462
 31
0.0
 11
3.6639615574
 21
3.9363054807
 31
0.0
 11
3.6646596642
 21
3.9384026864
 31
0.0
 11
3.6656853511
 21
3.9406394103
 31
0.0
 11
3.6670768199
 21
3.942994271
 31
0.0
 11
3.6688741292
 21
3.9454273156
 31
0.0
  0
SPLINE
  5
470
100
AcDbEntity
  8
0
100
AcDbSpline
 62
7
  6
CONTINUOUS
 70
0
 71
3
 72
13
 73
9
 74
7
 42
0.0000001
 43
0.0000001
 44
0.0000000001
 12
0.0
 22
0.0132642339
 32
0.0
 13
0.0102702604
 23
0.008394144
 33
0.0
 40
0.0
 40
0.0
 40
0.0
 40
0.0
 40
0.1521378584
 40
0.3065270605
 40
0.4664107642
 40
0.6339051025
 40
0.8110235186
 40
1.0
 40
1.0
 40
1.0
 40
1.0
 10
3.6634257621
 20
4.220426319
 30
0.0
 10
3.6634257621
 20
4.2210989831
 30
0.0
 10
3.663514772
 20
4.2224559451
 30
0.0
 10
3.6639218992
 20
4.2244835618
 30
0.0
 10
3.6646248049
 20
4.2265017748
 30
0.0
 10
3.6656578417
 20
4.2284881304
 30
0.0
 10
3.6670599283
 20
4.2303972147
 30
0.0
 10
3.6682271833
 20
4.2315323896
 30
0.0
 10
3.6688741292
 20
4.2320611549
 30
0.0
 11
3.6634257621
 21
4.220426319
 31
0.0
 11
3.6635581039
 21
4.2224399669
 31
0.0
 11
3.6639615574
 21
4.2244476853
 31
0.0
 11
3.6646596642
 21
4.2264502245
 31
0.0
 11
3.6656853511
 21
4.2284209722
 31
0.0
 11
3.6670768199
 21
4.23031391
 31
0.0
 11
3.6688741292
 21
4.2320611549
 31
0.0
  0
SPLINE
  5
471
100
AcDbEntity
  8
0
100
AcDbSpline
 62
7
  6
CONTINUOUS
 70
0
 71
3
 72
13
 73
9
 74
7
 42
0.0000001
 43
0.0000001
 44
0.0000000001
 12
0.0
 22
0.0099177185
 32
0.0
 13
0.0097303329
 23
0.0019187918
 33
0.0
 40
0.0
 40
0.0
 40
0.0
 40
0.0
 40
0.1689943936
 40
0.3282066566
 40
0.4833598508
 40
0.6407536923
 40
0.8091602904
 40
1.0
 40
1.0
 40
1.0
 40
1.0
 10
3.6634257621
 20
4.507530227
 30
0.0
 10
3.6634257621
 20
4.5080889066
 30
0.0
 10
3.6635047436
 20
4.5091766747
 30
0.0
 10
3.663904395
 20
4.5107338765
 30
0.0
 10
3.6646092553
 20
4.5121407249
 30
0.0
 10
3.665663536
 20
4.5133557681
 30
0.0
 10
3.6671082953
 20
4.5143056166
 30
0.0
 10
3.6682551512
 20
4.514670663
 30
0.0
 10
3.6688741292
 20
4.5147927235
 30
0.0
 11
3.6634257621
 21
4.507530227
 31
0.0
 11
3.6635581039
 21
4.5092010327
 31
0.0
 11
3.6639615574
 21
4.5107276424
 31
0.0
 11
3.6646596642
 21
4.5120989362
 31
0.0
 11
3.6656853511
 21
4.5132756475
 31
0.0
 11
3.6670768199
 21
4.5141994512
 31
0.0
 11
3.6688741292
 21
4.5147927235
 31
0.0
  0
SPLINE
  5
472
100
AcDbEntity
  8
0
100
AcDbSpline
 62
7
  6
CONTINUOUS
 70
0
 71
3
 72
11
 73
7
 74
5
 42
0.0000001
 43
0.0000001
 44
0.0000000001
 12
0.0
 22
0.0031214631
 32
0.0
 13
0.0031395644
 23
-0.0000066413
 33
0.0
 40
0.0
 40
0.0
 40
0.0
 40
0.0
 40
0.2851782277
 40
0.5265878878
 40
0.7800974783
 40
1.0
 40
1.0
 40
1.0
 40
1.0
 10
3.6634257621
 20
4.716920149
 30
0.0
 10
3.6634257621
 20
4.7172168734
 30
0.0
 10
3.6634844988
 20
4.7177730618
 30
0.0
 10
3.6639186542
 20
4.7185017388
 30
0.0
 10
3.6646178403
 20
4.7188442943
 30
0.0
 10
3.6651121352
 20
4.7188935954
 30
0.0
 10
3.6653422679
 20
4.7188931086
 30
0.0
 11
3.6634257621
 21
4.716920149
 31
0.0
 11
3.6635581066
 21
4.7178004293
 31
0.0
 11
3.6639615635
 21
4.7184368742
 31
0.0
 11
3.6646596698
 21
4.7188094815
 31
0.0
 11
3.6653422679
 21
4.7188931086
 31
0.0
  0
SPLINE
  5
473
100
AcDbEntity
  8
0
100
AcDbSpline
 62
7
  6
CONTINUOUS
 70
0
 71
3
 72
9
 73
5
 74
3
 42
0.0000001
 43
0.0000001
 44
0.0000000001
 12
0.0025575839
 22
-0.000342828
 32
0.0
 13
-0.0
 23
-0.002449428
 33
0.0
 40
0.0
 40
0.0
 40
0.0
 40
0.0
 40
0.3459096093
 40
1.0
 40
1.0
 40
1.0
 40
1.0
 10
3.3756147113
 20
4.7188503862
 30
0.0
 10
3.3759096089
 20
4.7188108571
 30
0.0
 10
3.3767460152
 20
4.7184507118
 30
0.0
 10
3.3767270323
 20
4.7174541981
 30
0.0
 10
3.3767270323
 20
4.716920149
 30
0.0
 11
3.3756147113
 21
4.7188503862
 31
0.0
 11
3.3763859005
 21
4.7184855579
 31
0.0
 11
3.3767270323
 21
4.716920149
 31
0.0
  0
SPLINE
  5
474
100
AcDbEntity
  8
0
100
AcDbSpline
 62
7
  6
CONTINUOUS
 70
0
 71
3
 72
15
 73
11
 74
9
 42
0.0000001
 43
0.0000001
 44
0.0000000001
 12
-0.0997051676
 22
-0.0025458759
 32
0.0
 13
0.047099458
 23
-0.0833107737
 33
0.0
 40
0.0
 40
0.0
 40
0.0
 40
0.0
 40
0.0443049739
 40
0.0939024735
 40
0.167896017
 40
0.2758225886
 40
0.4024898621
 40
0.5629803648
 40
0.7613579383
 40
1.0
 40
1.0
 40
1.0
 40
1.0
 10
3.3455104362
 20
3.7325343952
 30
0.0
 10
3.3440379579
 20
3.7324967969
 30
0.0
 10
3.3408302657
 20
3.7317760895
 30
0.0
 10
3.3386978217
 20
3.7261845025
 30
0.0
 10
3.3397221795
 20
3.7188540022
 30
0.0
 10
3.3425440993
 20
3.7093834389
 30
0.0
 10
3.3474057537
 20
3.6977466141
 30
0.0
 10
3.3541387613
 20
3.6837917925
 30
0.0
 10
3.3630450162
 20
3.6669365032
 30
0.0
 10
3.3698347788
 20
3.6547594262
 30
0.0
 10
3.373581416
 20
3.6481322746
 30
0.0
 11
3.3455104362
 21
3.7325343952
 31
0.0
 11
3.3414596317
 21
3.7312809672
 31
0.0
 11
3.3393485355
 21
3.727029648
 31
0.0
 11
3.3397140972
 21
3.7199576937
 31
0.0
 11
3.3425296597
 21
3.7100199637
 31
0.0
 11
3.3470768118
 21
3.6987826781
 31
0.0
 11
3.353687906
 21
3.6849188845
 31
0.0
 11
3.3625016622
 21
3.6681034267
 31
0.0
 11
3.373581416
 21
3.6481322746
 31
0.0
  0
SPLINE
  5
475
100
AcDbEntity
  8
0
100
AcDbSpline
 62
7
  6
CONTINUOUS
 70
0
 71
3
 72
13
 73
9
 74
7
 42
0.0000001
 43
0.0000001
 44
0.0000000001
 12
0.0
 22
-0.014245064
 32
0.0
 13
0.0090373207
 23
-0.011011298
 33
0.0
 40
0.0
 40
0.0
 40
0.0
 40
0.0
 40
0.12790952
 40
0.2677639568
 40
0.4229263863
 40
0.5956464184
 40
0.7876582687
 40
1.0
 40
1.0
 40
1.0
 40
1.0
 10
3.6634257621
 20
4.50245768
 30
0.0
 10
3.6634257621
 20
4.5018503202
 30
0.0
 10
3.6635251322
 20
4.5005777773
 30
0.0
 10
3.6639413079
 20
4.4986084668
 30
0.0
 10
3.6646514931
 20
4.4964991288
 30
0.0
 10
3.6656884632
 20
4.4942538392
 30
0.0
 10
3.6670893403
 20
4.4918936078
 30
0.0
 10
3.6682344624
 20
4.4903474357
 30
0.0
 10
3.6688741292
 20
4.4895680496
 30
0.0
 11
3.6634257621
 21
4.50245768
 31
0.0
 11
3.6635581503
 21
4.5006404165
 31
0.0
 11
3.663961668
 21
4.4986894744
 31
0.0
 11
3.6646598031
 21
4.4965923268
 31
0.0
 11
3.6656853981
 21
4.4943558649
 31
0.0
 11
3.6670768639
 21
4.4920010278
 31
0.0
 11
3.6688741292
 21
4.4895680496
 31
0.0
  0
SPLINE
  5
476
100
AcDbEntity
  8
0
100
AcDbSpline
 62
7
  6
CONTINUOUS
 70
0
 71
3
 72
13
 73
9
 74
7
 42
0.0000001
 43
0.0000001
 44
0.0000000001
 12
0.0
 22
-0.0132642342
 32
0.0
 13
0.0102703517
 23
-0.0083940326
 33
0.0
 40
0.0
 40
0.0
 40
0.0
 40
0.0
 40
0.1521644893
 40
0.3065587749
 40
0.4664372279
 40
0.6339118196
 40
0.8110285608
 40
1.0
 40
1.0
 40
1.0
 40
1.0
 10
3.6634257621
 20
4.2145690462
 30
0.0
 10
3.6634257621
 20
4.2138962644
 30
0.0
 10
3.663514797
 20
4.2125391612
 30
0.0
 10
3.6639219987
 20
4.2105114395
 30
0.0
 10
3.664624927
 20
4.2084933283
 30
0.0
 10
3.6656579369
 20
4.2065070941
 30
0.0
 10
3.6670599673
 20
4.2045981155
 30
0.0
 10
3.6682271948
 20
4.2034629545
 30
0.0
 10
3.6688741292
 20
4.2029342103
 30
0.0
 11
3.6634257621
 21
4.2145690462
 31
0.0
 11
3.6635581503
 21
4.2125550473
 31
0.0
 11
3.663961668
 21
4.210547273
 31
0.0
 11
3.6646598031
 21
4.2085448173
 31
0.0
 11
3.6656853981
 21
4.206574317
 31
0.0
 11
3.6670768639
 21
4.2046814045
 31
0.0
 11
3.6688741292
 21
4.2029342103
 31
0.0
  0
SPLINE
  5
477
100
AcDbEntity
  8
0
100
AcDbSpline
 62
7
  6
CONTINUOUS
 70
0
 71
3
 72
10
 73
6
 74
4
 42
0.0000001
 43
0.0000001
 44
0.0000000001
 12
-0.0139032225
 22
-0.0194422567
 32
0.0
 13
-0.015163589
 23
-0.0184761064
 33
0.0
 40
0.0
 40
0.0
 40
0.0
 40
0.0
 40
0.3294834173
 40
0.66285394
 40
1.0
 40
1.0
 40
1.0
 40
1.0
 10
3.6834257621
 20
3.9643833662
 30
0.0
 10
3.6818988017
 20
3.9622480658
 30
0.0
 10
3.6787748156
 20
3.9579893401
 30
0.0
 10
3.6739270368
 20
3.9516658376
 30
0.0
 10
3.6705772077
 20
3.9475036977
 30
0.0
 10
3.668873093
 20
3.9454273156
 30
0.0
 11
3.6834257621
 21
3.9643833662
 31
0.0
 11
3.6787710508
 21
3.9580309095
 31
0.0
 11
3.6739207903
 21
3.951708962
 31
0.0
 11
3.668873093
 21
3.9454273156
 31
0.0
  0
SPLINE
  5
478
100
AcDbEntity
  8
0
100
AcDbSpline
 62
7
  6
CONTINUOUS
 70
0
 71
3
 72
10
 73
6
 74
4
 42
0.0000001
 43
0.0000001
 44
0.0000000001
 12
0.0152149767
 22
-0.0124353103
 32
0.0
 13
0.0138426235
 23
-0.013946836
 33
0.0
 40
0.0
 40
0.0
 40
0.0
 40
0.0
 40
0.3376879031
 40
0.6709457584
 40
1.0
 40
1.0
 40
1.0
 40
1.0
 10
3.6688741292
 20
4.2029342103
 30
0.0
 10
3.6705867671
 20
4.201534459
 30
0.0
 10
3.6739429226
 20
4.1986956055
 30
0.0
 10
3.6787963139
 20
4.1942951941
 30
0.0
 10
3.6819074374
 20
4.1912702671
 30
0.0
 10
3.6834257621
 20
4.1897405119
 30
0.0
 11
3.6688741292
 21
4.2029342103
 31
0.0
 11
3.6739398034
 21
4.1986480893
 31
0.0
 11
3.6787905526
 21
4.1942487244
 31
0.0
 11
3.6834257621
 21
4.1897405119
 31
0.0
  0
SPLINE
  5
479
100
AcDbEntity
  8
0
100
AcDbSpline
 62
7
  6
CONTINUOUS
 70
0
 71
3
 72
13
 73
9
 74
7
 42
0.0000001
 43
0.0000001
 44
0.0000000001
 12
0.0
 22
-0.0099177195
 32
0.0
 13
0.009730342
 23
-0.001918751
 33
0.0
 40
0.0
 40
0.0
 40
0.0
 40
0.0
 40
0.1690228176
 40
0.3282382152
 40
0.4833849091
 40
0.6407599916
 40
0.8091651892
 40
1.0
 40
1.0
 40
1.0
 40
1.0
 10
3.6634257621
 20
3.9274651382
 30
0.0
 10
3.6634257621
 20
3.9269063646
 30
0.0
 10
3.6635047645
 20
3.9258184903
 30
0.0
 10
3.6639044936
 20
3.9242612211
 30
0.0
 10
3.6646093815
 20
3.9228544689
 30
0.0
 10
3.6656636332
 20
3.9216395245
 30
0.0
 10
3.6671083312
 20
3.9206897363
 30
0.0
 10
3.6682551665
 20
3.9203246965
 30
0.0
 10
3.6688741292
 20
3.9202026417
 30
0.0
 11
3.6634257621
 21
3.9274651382
 31
0.0
 11
3.6635581503
 21
3.9257940532
 31
0.0
 11
3.663961668
 21
3.9242674282
 31
0.0
 11
3.6646598031
 21
3.9228962209
 31
0.0
 11
3.6656853981
 21
3.9217196762
 31
0.0
 11
3.6670768639
 21
3.9207958926
 31
0.0
 11
3.6688741292
 21
3.9202026417
 31
0.0
  0
SPLINE
  5
47A
100
AcDbEntity
  8
0
100
AcDbSpline
 62
7
  6
CONTINUOUS
 70
0
 71
3
 72
10
 73
6
 74
4
 42
0.0000001
 43
0.0000001
 44
0.0000000001
 12
-0.0141109729
 22
-0.0199609494
 32
0.0
 13
-0.0149542411
 23
-0.0193372627
 33
0.0
 40
0.0
 40
0.0
 40
0.0
 40
0.0
 40
0.3262870694
 40
0.6596777142
 40
1.0
 40
1.0
 40
1.0
 40
1.0
 10
3.6834257621
 20
3.7513336586
 30
0.0
 10
3.6818910194
 20
3.7491626587
 30
0.0
 10
3.6787514955
 20
3.7447992407
 30
0.0
 10
3.6739040074
 20
3.7382493063
 30
0.0
 10
3.670569514
 20
3.7338881452
 30
0.0
 10
3.6688730934
 20
3.7316945114
 30
0.0
 11
3.6834257621
 21
3.7513336586
 31
0.0
 11
3.6787710506
 21
3.7448566422
 31
0.0
 11
3.6739207904
 21
3.7383073476
 31
0.0
 11
3.6688730934
 21
3.7316945114
 31
0.0
  0
SPLINE
  5
47B
100
AcDbEntity
  8
0
100
AcDbSpline
 62
7
  6
CONTINUOUS
 70
0
 71
3
 72
10
 73
6
 74
4
 42
0.0000001
 43
0.0000001
 44
0.0000000001
 12
0.0147901398
 22
-0.0029165055
 32
0.0
 13
0.0142432489
 23
-0.0049380259
 33
0.0
 40
0.0
 40
0.0
 40
0.0
 40
0.0
 40
0.3440728407
 40
0.6772108287
 40
1.0
 40
1.0
 40
1.0
 40
1.0
 10
3.6688741292
 20
3.9202026417
 30
0.0
 10
3.6705704243
 20
3.9198681449
 30
0.0
 10
3.6738955834
 20
3.9191383157
 30
0.0
 10
3.6787514855
 20
3.9178395214
 30
0.0
 10
3.6818932399
 20
3.916837853
 30
0.0
 10
3.6834257621
 20
3.9163065392
 30
0.0
 11
3.6688741292
 21
3.9202026417
 31
0.0
 11
3.6739398034
 21
3.9190878805
 31
0.0
 11
3.6787905526
 21
3.9177874512
 31
0.0
 11
3.6834257621
 21
3.9163065392
 31
0.0
  0
SPLINE
  5
47C
100
AcDbEntity
  8
0
100
AcDbSpline
 62
7
  6
CONTINUOUS
 70
0
 71
3
 72
11
 73
7
 74
5
 42
0.0000001
 43
0.0000001
 44
0.0000000001
 12
0.0
 22
-0.0031214517
 32
0.0
 13
0.0031395402
 23
0.0000066244
 33
0.0
 40
0.0
 40
0.0
 40
0.0
 40
0.0
 40
0.2852209146
 40
0.5266345279
 40
0.7801437647
 40
1.0
 40
1.0
 40
1.0
 40
1.0
 10
3.6634257621
 20
3.7180752162
 30
0.0
 10
3.6634257621
 20
3.7177784485
 30
0.0
 10
3.6634845113
 20
3.7172222064
 30
0.0
 10
3.6639187625
 20
3.7164935269
 30
0.0
 10
3.6646179323
 20
3.71615106
 30
0.0
 10
3.6651121751
 20
3.7161017715
 30
0.0
 10
3.6653422576
 20
3.716102257
 30
0.0
 11
3.6634257621
 21
3.7180752162
 31
0.0
 11
3.6635581503
 21
3.717194811
 31
0.0
 11
3.663961668
 21
3.7165583933
 31
0.0
 11
3.6646598031
 21
3.7161858482
 31
0.0
 11
3.6653422576
 21
3.716102257
 31
0.0
  0
SPLINE
  5
47D
100
AcDbEntity
  8
0
100
AcDbSpline
 62
7
  6
CONTINUOUS
 70
0
 71
3
 72
10
 73
6
 74
4
 42
0.0000001
 43
0.0000001
 44
0.0000000001
 12
-0.0144308205
 22
-0.0151769892
 32
0.0
 13
-0.0146520706
 23
-0.0149635025
 33
0.0
 40
0.0
 40
0.0
 40
0.0
 40
0.0
 40
0.3215400932
 40
0.6549108951
 40
1.0
 40
1.0
 40
1.0
 40
1.0
 10
3.6834257621
 20
3.6631922235
 30
0.0
 10
3.6818790663
 20
3.6615655533
 30
0.0
 10
3.678717028
 20
3.6582635305
 30
0.0
 10
3.6738692061
 20
3.653240462
 30
0.0
 10
3.6705585163
 20
3.6498535219
 30
0.0
 10
3.668873093
 20
3.6481322746
 30
0.0
 11
3.6834257621
 21
3.6631922235
 31
0.0
 11
3.6787710508
 21
3.6583261598
 31
0.0
 11
3.6739207903
 21
3.6533043966
 31
0.0
 11
3.668873093
 21
3.6481322746
 31
0.0
  0
SPLINE
  5
47E
100
AcDbEntity
  8
0
100
AcDbSpline
 62
7
  6
CONTINUOUS
 70
0
 71
3
 72
10
 73
6
 74
4
 42
0.0000001
 43
0.0000001
 44
0.0000000001
 12
0.0151633614
 22
-0.0184754197
 32
0.0
 13
0.0139028386
 23
-0.0194417011
 33
0.0
 40
0.0
 40
0.0
 40
0.0
 40
0.0
 40
0.3385194405
 40
0.6718303986
 40
1.0
 40
1.0
 40
1.0
 40
1.0
 10
3.6688741292
 20
4.4895680496
 30
0.0
 10
3.6705851601
 20
4.4874832867
 30
0.0
 10
3.6739371852
 20
4.4833097059
 30
0.0
 10
3.6787895735
 20
4.4769900596
 30
0.0
 10
3.6819049324
 20
4.4727387212
 30
0.0
 10
3.6834257621
 20
4.4706119961
 30
0.0
 11
3.6688741292
 21
4.4895680496
 31
0.0
 11
3.6739398034
 21
4.4832590313
 31
0.0
 11
3.6787905526
 21
4.4769395372
 31
0.0
 11
3.6834257621
 21
4.4706119961
 31
0.0
  0
SPLINE
  5
47F
100
AcDbEntity
  8
0
100
AcDbSpline
 62
7
  6
CONTINUOUS
 70
0
 71
3
 72
13
 73
9
 74
7
 42
0.0000001
 43
0.0000001
 44
0.0000000001
 12
-0.0
 22
-0.007832751
 32
0.0
 13
0.0054801075
 23
-0.005596464
 33
0.0
 40
0.0
 40
0.0
 40
0.0
 40
0.0
 40
0.0251785808
 40
0.0999355145
 40
0.2285193607
 40
0.4168158573
 40
0.6716457062
 40
1.0
 40
1.0
 40
1.0
 40
1.0
 10
3.6634257621
 20
4.7924902244
 30
0.0
 10
3.6634257621
 20
4.7924244852
 30
0.0
 10
3.6637066844
 20
4.7922713352
 30
0.0
 10
3.6640188151
 20
4.7918034268
 30
0.0
 10
3.6647870733
 20
4.7910882733
 30
0.0
 10
3.6657975279
 20
4.7900056855
 30
0.0
 10
3.6672137348
 20
4.7885660115
 30
0.0
 10
3.6682743236
 20
4.7874756315
 30
0.0
 10
3.6688741292
 20
4.7868630906
 30
0.0
 11
3.6634257621
 21
4.7924902244
 31
0.0
 11
3.6635581503
 21
4.7923440459
 31
0.0
 11
3.663961668
 21
4.7919197288
 31
0.0
 11
3.6646598031
 21
4.7911937885
 31
0.0
 11
3.6656853981
 21
4.7901338713
 31
0.0
 11
3.6670768639
 21
4.7887028178
 31
0.0
 11
3.6688741292
 21
4.7868630906
 31
0.0
  0
SPLINE
  5
480
100
AcDbEntity
  8
0
100
AcDbSpline
 62
7
  6
CONTINUOUS
 70
0
 71
3
 72
10
 73
6
 74
4
 42
0.0000001
 43
0.0000001
 44
0.0000000001
 12
0.0149540539
 22
-0.0193365921
 32
0.0
 13
0.0141106098
 23
-0.0199604161
 33
0.0
 40
0.0
 40
0.0
 40
0.0
 40
0.0
 40
0.3417069886
 40
0.67502056
 40
1.0
 40
1.0
 40
1.0
 40
1.0
 10
3.6688741292
 20
4.7033008538
 30
0.0
 10
3.6705774308
 20
4.7010983709
 30
0.0
 10
3.6739139546
 20
4.6967255585
 30
0.0
 10
3.6787663944
 20
4.6901795818
 30
0.0
 10
3.6818972094
 20
4.685823946
 30
0.0
 10
3.6834257621
 20
4.6836617043
 30
0.0
 11
3.6688741292
 21
4.7033008538
 31
0.0
 11
3.6739398034
 21
4.6966594346
 31
0.0
 11
3.6787905526
 21
4.6901131145
 31
0.0
 11
3.6834257621
 21
4.6836617043
 31
0.0
  0
SPLINE
  5
481
100
AcDbEntity
  8
0
100
AcDbSpline
 62
7
  6
CONTINUOUS
 70
0
 71
3
 72
10
 73
6
 74
4
 42
0.0000001
 43
0.0000001
 44
0.0000000001
 12
-0.0142442181
 22
-0.0049383664
 32
0.0
 13
-0.0147911354
 23
-0.0029167665
 33
0.0
 40
0.0
 40
0.0
 40
0.0
 40
0.0
 40
0.3241100329
 40
0.6571897994
 40
1.0
 40
1.0
 40
1.0
 40
1.0
 10
3.6834257621
 20
4.5186888252
 30
0.0
 10
3.6818868641
 20
4.5181553005
 30
0.0
 10
3.6787385237
 20
4.5171526859
 30
0.0
 10
3.6738825779
 20
4.5158526864
 30
0.0
 10
3.670563277
 20
4.5151260226
 30
0.0
 10
3.668873093
 20
4.5147927235
 30
0.0
 11
3.6834257621
 21
4.5186888252
 31
0.0
 11
3.6787710508
 21
4.5172024323
 31
0.0
 11
3.6739207903
 21
4.515902248
 31
0.0
 11
3.668873093
 21
4.5147927235
 31
0.0
  0
SPLINE
  5
482
100
AcDbEntity
  8
0
100
AcDbSpline
 62
7
  6
CONTINUOUS
 70
0
 71
3
 72
13
 73
9
 74
7
 42
0.0000001
 43
0.0000001
 44
0.0000000001
 12
0.0
 22
-0.012149076
 32
0.0
 13
0.0074323
 23
-0.0096104612
 33
0.0
 40
0.0
 40
0.0
 40
0.0
 40
0.0
 40
0.0939411406
 40
0.2116036994
 40
0.3575516776
 40
0.5355007389
 40
0.7487767466
 40
1.0
 40
1.0
 40
1.0
 40
1.0
 10
3.6634257621
 20
4.7139915125
 30
0.0
 10
3.6634257621
 20
4.7136110799
 30
0.0
 10
3.6635451873
 20
4.7127549255
 30
0.0
 10
3.6639728984
 20
4.7113684113
 30
0.0
 10
3.6646911595
 20
4.7097273083
 30
0.0
 10
3.665734015
 20
4.7078158622
 30
0.0
 10
3.6671397263
 20
4.7056244133
 30
0.0
 10
3.6682517403
 20
4.7041056442
 30
0.0
 10
3.6688741292
 20
4.7033008538
 30
0.0
 11
3.6634257621
 21
4.7139915125
 31
0.0
 11
3.6635581503
 21
4.7128579189
 31
0.0
 11
3.663961668
 21
4.7114865623
 31
0.0
 11
3.6646598031
 21
4.7098566517
 31
0.0
 11
3.6656853981
 21
4.7079534863
 31
0.0
 11
3.6670768639
 21
4.7057677014
 31
0.0
 11
3.6688741292
 21
4.7033008538
 31
0.0
  0
SPLINE
  5
483
100
AcDbEntity
  8
0
100
AcDbSpline
 62
7
  6
CONTINUOUS
 70
0
 71
3
 72
10
 73
6
 74
4
 42
0.0000001
 43
0.0000001
 44
0.0000000001
 12
0.0146517273
 22
-0.0149628203
 32
0.0
 13
0.0144303265
 23
-0.0151764548
 33
0.0
 40
0.0
 40
0.0
 40
0.0
 40
0.0
 40
0.346457124
 40
0.6797630626
 40
1.0
 40
1.0
 40
1.0
 40
1.0
 10
3.6688741292
 20
4.7868630906
 30
0.0
 10
3.6705661943
 20
4.7851350987
 30
0.0
 10
3.6738796788
 20
4.7817384136
 30
0.0
 10
3.6787316066
 20
4.7767196564
 30
0.0
 10
3.6818853875
 20
4.7734231599
 30
0.0
 10
3.6834257621
 20
4.7718031394
 30
0.0
 11
3.6688741292
 21
4.7868630906
 31
0.0
 11
3.6739398034
 21
4.7816688334
 31
0.0
 11
3.6787905526
 21
4.7766497685
 31
0.0
 11
3.6834257621
 21
4.7718031394
 31
0.0
  0
SPLINE
  5
484
100
AcDbEntity
  8
0
100
AcDbSpline
 62
7
  6
CONTINUOUS
 70
0
 71
3
 72
10
 73
6
 74
4
 42
0.0000001
 43
0.0000001
 44
0.0000000001
 12
-0.0138431994
 22
-0.0139474296
 32
0.0
 13
-0.015215482
 23
-0.0124359989
 33
0.0
 40
0.0
 40
0.0
 40
0.0
 40
0.0
 40
0.3303744625
 40
0.6636434644
 40
1.0
 40
1.0
 40
1.0
 40
1.0
 10
3.6834257621
 20
4.2452548511
 30
0.0
 10
3.6819012822
 20
4.2437188929
 30
0.0
 10
3.6787821989
 20
4.2406894374
 30
0.0
 10
3.6739317604
 20
4.2362853067
 30
0.0
 10
3.6705790353
 20
4.2334554647
 30
0.0
 10
3.668873093
 20
4.2320611549
 30
0.0
 11
3.6834257621
 21
4.2452548511
 31
0.0
 11
3.6787710508
 21
4.2407290893
 31
0.0
 11
3.6739207903
 21
4.2363284493
 31
0.0
 11
3.668873093
 21
4.2320611549
 31
0.0
  0
SPLINE
  5
485
100
AcDbEntity
  8
0
100
AcDbSpline
 62
7
  6
CONTINUOUS
 70
0
 71
3
 72
15
 73
11
 74
9
 42
0.0000001
 43
0.0000001
 44
0.0000000001
 12
0.0985887243
 22
0.1829583798
 32
0.0
 13
-0.0985887243
 23
0.1829583798
 33
0.0
 40
0.0
 40
0.0
 40
0.0
 40
0.0
 40
0.1358116783
 40
0.2619497726
 40
0.3823028784
 40
0.4999827602
 40
0.6176816317
 40
0.738050558
 40
0.864173484
 40
1.0
 40
1.0
 40
1.0
 40
1.0
 10
6.2357018421
 20
4.4433241508
 30
0.0
 10
6.2401650088
 20
4.451606779
 30
0.0
 10
6.2481301425
 20
4.4679473035
 30
0.0
 10
6.2571815932
 20
4.4928983289
 30
0.0
 10
6.2627319918
 20
4.5175896122
 30
0.0
 10
6.26461439
 20
4.5422549172
 30
0.0
 10
6.2627326871
 20
4.5669214166
 30
0.0
 10
6.2571821679
 20
4.5916140945
 30
0.0
 10
6.2481305661
 20
4.6165661899
 30
0.0
 10
6.2401654965
 20
4.6329067341
 30
0.0
 10
6.2357018421
 20
4.6411902672
 30
0.0
 11
6.2357018421
 21
4.4433241508
 31
0.0
 11
6.2479503362
 21
4.4687538673
 31
0.0
 11
6.2567740903
 21
4.4934396
 31
0.0
 11
6.2621672804
 21
4.5178642968
 31
0.0
 11
6.2639917512
 21
4.5422536166
 31
0.0
 11
6.2621677521
 21
4.5666469294
 31
0.0
 11
6.2567740652
 21
4.5910748837
 31
0.0
 11
6.2479515407
 21
4.6157577082
 31
0.0
 11
6.2357018421
 21
4.6411902672
 31
0.0
  0
SPLINE
  5
486
100
AcDbEntity
  8
0
100
AcDbSpline
 62
7
  6
CONTINUOUS
 70
0
 71
3
 72
11
 73
7
 74
5
 42
0.0000001
 43
0.0000001
 44
0.0000000001
 12
0.0
 22
-0.2004334329
 32
0.0
 13
0.0521432139
 23
-0.193532029
 33
0.0
 40
0.0
 40
0.0
 40
0.0
 40
0.0
 40
0.2432177101
 40
0.4917829944
 40
0.7390555462
 40
1.0
 40
1.0
 40
1.0
 40
1.0
 10
5.6777351631
 20
4.2174976826
 30
0.0
 10
5.6777351631
 20
4.2012480291
 30
0.0
 10
5.6789763296
 20
4.1683788009
 30
0.0
 10
5.6844760922
 20
4.1192681259
 30
0.0
 10
5.6934751759
 20
4.0694811863
 30
0.0
 10
5.7014898322
 20
4.0364652694
 30
0.0
 10
5.7060253263
 20
4.0196315662
 30
0.0
 11
5.6777351631
 21
4.2174976826
 31
0.0
 11
5.6795543783
 21
4.1687826786
 31
0.0
 11
5.6850401665
 21
4.1192648276
 31
0.0
 11
5.6937792715
 21
4.0704796987
 31
0.0
 11
5.7060253263
 21
4.0196315662
 31
0.0
  0
SPLINE
  5
487
100
AcDbEntity
  8
0
100
AcDbSpline
 62
7
  6
CONTINUOUS
 70
0
 71
3
 72
15
 73
11
 74
9
 42
0.0000001
 43
0.0000001
 44
0.0000000001
 12
-0.0985887243
 22
-0.1829583798
 32
0.0
 13
0.0985887243
 23
-0.1829583798
 33
0.0
 40
0.0
 40
0.0
 40
0.0
 40
0.0
 40
0.1358265152
 40
0.2619494407
 40
0.3823183666
 40
0.5000172381
 40
0.61769712
 40
0.7380502261
 40
0.8641883209
 40
1.0
 40
1.0
 40
1.0
 40
1.0
 10
5.7060253263
 20
4.6411902672
 30
0.0
 10
5.701561672
 20
4.6329067341
 30
0.0
 10
5.6935966025
 20
4.61656619
 30
0.0
 10
5.6845450007
 20
4.5916140947
 30
0.0
 10
5.6789944815
 20
4.5669214169
 30
0.0
 10
5.6771127785
 20
4.5422549175
 30
0.0
 10
5.6789951766
 20
4.5175896126
 30
0.0
 10
5.6845455752
 20
4.4928983292
 30
0.0
 10
5.6935970259
 20
4.4679473036
 30
0.0
 10
5.7015621596
 20
4.4516067791
 30
0.0
 10
5.7060253263
 20
4.4433241508
 30
0.0
 11
5.7060253263
 21
4.6411902672
 31
0.0
 11
5.6937756278
 21
4.6157577083
 31
0.0
 11
5.6849531034
 21
4.5910748839
 31
0.0
 11
5.6795594165
 21
4.5666469297
 31
0.0
 11
5.6777354172
 21
4.542253617
 31
0.0
 11
5.679559888
 21
4.5178642971
 31
0.0
 11
5.6849530781
 21
4.4934396002
 31
0.0
 11
5.6937768322
 21
4.4687538674
 31
0.0
 11
5.7060253263
 21
4.4433241508
 31
0.0
  0
SPLINE
  5
488
100
AcDbEntity
  8
0
100
AcDbSpline
 62
7
  6
CONTINUOUS
 70
0
 71
3
 72
11
 73
7
 74
5
 42
0.0000001
 43
0.0000001
 44
0.0000000001
 12
-0.0521432152
 22
-0.1935320338
 32
0.0
 13
0.0
 23
-0.2004334378
 33
0.0
 40
0.0
 40
0.0
 40
0.0
 40
0.0
 40
0.2610525264
 40
0.5083731192
 40
0.7568966287
 40
1.0
 40
1.0
 40
1.0
 40
1.0
 10
5.7060253263
 20
4.4153637989
 30
0.0
 10
5.7014879536
 20
4.3985231235
 30
0.0
 10
5.6934711721
 20
4.3654969623
 30
0.0
 10
5.6844723712
 20
4.3157021836
 30
0.0
 10
5.6789753415
 20
4.2665984794
 30
0.0
 10
5.6777351631
 20
4.2337396974
 30
0.0
 10
5.6777351631
 20
4.2174976826
 30
0.0
 11
5.7060253263
 21
4.4153637989
 31
0.0
 11
5.693774803
 21
4.3644944606
 31
0.0
 11
5.6850356354
 21
4.3156995594
 31
0.0
 11
5.6795526767
 21
4.266189818
 31
0.0
 11
5.6777351631
 21
4.2174976826
 31
0.0
  0
SPLINE
  5
489
100
AcDbEntity
  8
0
100
AcDbSpline
 62
7
  6
CONTINUOUS
 70
0
 71
3
 72
15
 73
11
 74
9
 42
0.0000001
 43
0.0000001
 44
0.0000000001
 12
0.0985887243
 22
0.1829583798
 32
0.0
 13
-0.0985887243
 23
0.1829583798
 33
0.0
 40
0.0
 40
0.0
 40
0.0
 40
0.0
 40
0.1358116783
 40
0.2619497725
 40
0.3823028784
 40
0.4999827602
 40
0.6176816317
 40
0.738050558
 40
0.864173484
 40
1.0
 40
1.0
 40
1.0
 40
1.0
 10
6.2357018421
 20
3.793805098
 30
0.0
 10
6.2401650088
 20
3.8020877262
 30
0.0
 10
6.2481301425
 20
3.8184282506
 30
0.0
 10
6.2571815932
 20
3.8433792761
 30
0.0
 10
6.2627319918
 20
3.8680705594
 30
0.0
 10
6.26461439
 20
3.8927358643
 30
0.0
 10
6.2627326871
 20
3.9174023637
 30
0.0
 10
6.2571821679
 20
3.9420950416
 30
0.0
 10
6.2481305661
 20
3.967047137
 30
0.0
 10
6.2401654965
 20
3.9833876812
 30
0.0
 10
6.2357018421
 20
3.9916712144
 30
0.0
 11
6.2357018421
 21
3.793805098
 31
0.0
 11
6.2479503362
 21
3.8192348144
 31
0.0
 11
6.2567740903
 21
3.8439205471
 31
0.0
 11
6.2621672804
 21
3.8683452439
 31
0.0
 11
6.2639917512
 21
3.8927345638
 31
0.0
 11
6.2621677521
 21
3.9171278766
 31
0.0
 11
6.2567740652
 21
3.9415558308
 31
0.0
 11
6.2479515407
 21
3.9662386553
 31
0.0
 11
6.2357018421
 21
3.9916712144
 31
0.0
  0
SPLINE
  5
48A
100
AcDbEntity
  8
0
100
AcDbSpline
 62
7
  6
CONTINUOUS
 70
0
 71
3
 72
11
 73
7
 74
5
 42
0.0000001
 43
0.0000001
 44
0.0000000001
 12
0.0521432152
 22
0.193532034
 32
0.0
 13
0.0
 23
0.200433438
 33
0.0
 40
0.0
 40
0.0
 40
0.0
 40
0.0
 40
0.26106555
 40
0.5083739835
 40
0.756903592
 40
1.0
 40
1.0
 40
1.0
 40
1.0
 10
6.2357018421
 20
4.0196315662
 30
0.0
 10
6.2402394412
 20
4.0364730819
 30
0.0
 10
6.2482561965
 20
4.0694993121
 30
0.0
 10
6.2572549863
 20
4.1192945617
 30
0.0
 10
6.2627518644
 20
4.1683974099
 30
0.0
 10
6.2639920053
 20
4.201256133
 30
0.0
 10
6.2639920053
 20
4.2174976826
 30
0.0
 11
6.2357018421
 21
4.0196315662
 31
0.0
 11
6.2479529045
 21
4.0705034598
 31
0.0
 11
6.2566915585
 21
4.1192959772
 31
0.0
 11
6.2621745949
 21
4.1688069399
 31
0.0
 11
6.2639920053
 21
4.2174976826
 31
0.0
  0
SPLINE
  5
48B
100
AcDbEntity
  8
0
100
AcDbSpline
 62
7
  6
CONTINUOUS
 70
0
 71
3
 72
11
 73
7
 74
5
 42
0.0000001
 43
0.0000001
 44
0.0000000001
 12
0.0
 22
0.2004334326
 32
0.0
 13
-0.0521432138
 23
0.1935320288
 33
0.0
 40
0.0
 40
0.0
 40
0.0
 40
0.0
 40
0.243224011
 40
0.491783019
 40
0.7390679061
 40
1.0
 40
1.0
 40
1.0
 40
1.0
 10
6.2639920053
 20
4.2174976826
 30
0.0
 10
6.2639920053
 20
4.2337477571
 30
0.0
 10
6.2627508069
 20
4.2666169879
 30
0.0
 10
6.2572509085
 20
4.315728476
 30
0.0
 10
6.2482518151
 20
4.3655149901
 30
0.0
 10
6.2402371215
 20
4.3985308931
 30
0.0
 10
6.2357018421
 20
4.4153637989
 30
0.0
 11
6.2639920053
 21
4.2174976826
 31
0.0
 11
6.2621726969
 21
4.2662139468
 31
0.0
 11
6.2566870008
 21
4.3157305423
 31
0.0
 11
6.2479473853
 21
4.3645180915
 31
0.0
 11
6.2357018421
 21
4.4153637989
 31
0.0
  0
SPLINE
  5
48C
100
AcDbEntity
  8
0
100
AcDbSpline
 62
7
  6
CONTINUOUS
 70
0
 71
3
 72
15
 73
11
 74
9
 42
0.0000001
 43
0.0000001
 44
0.0000000001
 12
-0.0985887243
 22
-0.1829583798
 32
0.0
 13
0.0985887243
 23
-0.1829583798
 33
0.0
 40
0.0
 40
0.0
 40
0.0
 40
0.0
 40
0.1358265152
 40
0.2619494407
 40
0.3823183666
 40
0.5000172381
 40
0.61769712
 40
0.7380502261
 40
0.8641883209
 40
1.0
 40
1.0
 40
1.0
 40
1.0
 10
5.7060253263
 20
3.9916712144
 30
0.0
 10
5.701561672
 20
3.9833876813
 30
0.0
 10
5.6935966025
 20
3.9670471372
 30
0.0
 10
5.6845450007
 20
3.9420950419
 30
0.0
 10
5.6789944815
 20
3.9174023641
 30
0.0
 10
5.6771127785
 20
3.8927358647
 30
0.0
 10
5.6789951766
 20
3.8680705597
 30
0.0
 10
5.6845455752
 20
3.8433792763
 30
0.0
 10
5.6935970259
 20
3.8184282508
 30
0.0
 10
5.7015621596
 20
3.8020877263
 30
0.0
 10
5.7060253263
 20
3.793805098
 30
0.0
 11
5.7060253263
 21
3.9916712144
 31
0.0
 11
5.6937756278
 21
3.9662386555
 31
0.0
 11
5.6849531034
 21
3.9415558311
 31
0.0
 11
5.6795594165
 21
3.9171278769
 31
0.0
 11
5.6777354172
 21
3.8927345641
 31
0.0
 11
5.679559888
 21
3.8683452443
 31
0.0
 11
5.6849530781
 21
3.8439205474
 31
0.0
 11
5.6937768322
 21
3.8192348146
 31
0.0
 11
5.7060253263
 21
3.793805098
 31
0.0
  0
ENDSEC
  0
SECTION
  2
OBJECTS
  0
DICTIONARY
  5
C
100
AcDbDictionary
280
0
281
1
  3
ACAD_GROUP
350
D
  3
ACAD_MLINESTYLE
350
17
  3
ACAD_LAYOUT
350
1A
  3
ACAD_PLOTSETTINGS
350
19
  3
ACAD_PLOTSTYLENAME
350
E
  0
DICTIONARY
  5
D
102
{ACAD_REACTORS
330
C
102
}
100
AcDbDictionary
280
0
281
1
  0
ACDBDICTIONARYWDFLT
  5
E
102
{ACAD_REACTORS
330
C
102
}
100
AcDbDictionary
281
1
  3
Normal
350
F
100
AcDbDictionaryWithDefault
340
F
  0
DICTIONARY
  5
17
102
{ACAD_REACTORS
330
C
102
}
100
AcDbDictionary
280
0
281
1
  3
Standard
350
18
  0
DICTIONARY
  5
19
102
{ACAD_REACTORS
330
C
102
}
100
AcDbDictionary
281
1
  0
DICTIONARY
  5
1A
102
{ACAD_REACTORS
330
C
102
}
100
AcDbDictionary
281
1
  3
Layout1
350
1E
  3
Model
350
22
  0
ACDBPLACEHOLDER
  5
F
102
{ACAD_REACTORS
330
E
102
}
  0
MLINESTYLE
  5
18
102
{ACAD_REACTORS
330
17
102
}
100
AcDbMlineStyle
  2
STANDARD
 70
0
  3

 62
256
 51
90.0
 52
90.0
 71
2
 49
0.5
 62
256
  6
BYLAYER
 49
-0.5
 62
256
  6
BYLAYER
  0
LAYOUT
  5
1E
102
{ACAD_REACTORS
330
1A
102
}
100
AcDbPlotSettings
  1

  2

  4

  6

 40
0.0
 41
0.0
 42
0.0
 43
0.0
 44
0.0
 45
0.0
 46
0.0
 47
0.0
 48
0.0
 49
0.0
140
0.0
141
0.0
142
1.0
143
1.0
 70
0
 72
0
 73
0
 74
0
  7

 75
0
147
1.0
148
0.0
149
0.0
100
AcDbLayout
  1
Layout1
 70
0
 71
0
 10
0.0
 20
0.0
 11
0.0
 21
0.0
 12
0.0
 22
0.0
 32
0.0
 14
0.0
 24
0.0
 34
0.0
 15
0.0
 25
0.0
 35
0.0
146
0.0
 13
0.0
 23
0.0
 33
0.0
 16
0.0
 26
0.0
 36
0.0
 17
0.0
 27
0.0
 37
0.0
 76
0
330
1B
331
0
345
0
346
0
  0
LAYOUT
  5
22
102
{ACAD_REACTORS
330
1A
102
}
100
AcDbPlotSettings
  1

  2

  4

  6

 40
0.0
 41
0.0
 42
0.0
 43
0.0
 44
0.0
 45
0.0
 46
0.0
 47
0.0
 48
0.0
 49
0.0
140
0.0
141
0.0
142
1.0
143
1.0
 70
0
 72
0
 73
0
 74
0
  7

 75
0
147
1.0
148
0.0
149
0.0
100
AcDbLayout
  1
Model
 70
0
 71
0
 10
0.0
 20
0.0
 11
0.0
 21
0.0
 12
0.0
 22
0.0
 32
0.0
 14
0.0
 24
0.0
 34
0.0
 15
0.0
 25
0.0
 35
0.0
146
0.0
 13
0.0
 23
0.0
 33
0.0
 16
0.0
 26
0.0
 36
0.0
 17
0.0
 27
0.0
 37
0.0
 76
0
330
1F
331
0
345
0
346
0
  0
ENDSEC
  0
EOF
