999
DXF file: DSIH-XHN.dxf
999
Pro/ENGINEER 2006240 by Parametric Technology Corporation
  0
SECTION
  2
HEADER
  9
$ACADVER
  1
AC1015
  9
$DWGCODEPAGE
  3
ANSI_1252
  9
$EXTMAX
 10
11.6929133858
 20
8.2677165354
 30
0.0
  9
$EXTMIN
 10
0.0
 20
0.0
 30
0.0
  9
$LIMMIN
 10
0.0
 20
0.0
  9
$LIMMAX
 10
11.6929133858
 20
8.2677165354
  9
$VIEWCTR
 10
5.8464566929
 20
4.1338582677
  9
$VIEWSIZE
 40
8.2677165354
  9
$CLAYER
  8
0
  9
$LTSCALE
 40
0.6431102362
  9
$CELTYPE
  6
BYLAYER
  9
$DIMSCALE
 40
1.0
  9
$DIMASZ
 40
0.1875
  9
$DIMEXO
 40
0.0730807087
  9
$DIMDLI
 40
0.4443307087
  9
$DIMEXE
 40
0.2104724409
  9
$DIMCEN
 40
0.1052362205
  9
$DIMLFAC
 40
1.0
  9
$DIMBLK
  1
_CLOSED
  9
$DIMTXT
 40
0.15625
  9
$DIMTOL
 70
0
  9
$DIMLIM
 70
0
  9
$DIMTFAC
 40
1.0
  9
$PDMODE
 70
3
  9
$PDSIZE
 40
0.3125
  9
$HANDSEED
  5
552
  9
$MEASUREMENT
 70
0
  9
$INSUNITS
 70
1
  0
ENDSEC
  0
SECTION
  2
CLASSES
  0
CLASS
  1
ACDBDICTIONARYWDFLT
  2
AcDbDictionaryWithDefault
  3
AutoCAD 2000
 90
0
280
0
281
0
  0
CLASS
  1
ACDBPLACEHOLDER
  2
AcDbPlaceHolder
  3
AutoCAD 2000
 90
0
280
0
281
0
  0
CLASS
  1
LAYOUT
  2
AcDbLayout
  3
AutoCAD 2000
 90
0
280
0
281
0
  0
ENDSEC
  0
SECTION
  2
TABLES
  0
TABLE
  2
VPORT
  5
8
100
AcDbSymbolTable
 70
2
  0
VPORT
  5
1F4
100
AcDbSymbolTableRecord
100
AcDbViewportTableRecord
  2
*ACTIVE
 70
0
 10
0.0
 20
0.0
 11
1.0
 21
1.0
 12
5.8464566929
 22
4.1338582677
 13
0.0
 23
0.0
 14
1.0
 24
1.0
 15
0.0
 25
0.0
 16
0.0
 26
0.0
 36
1.0
 17
0.0
 27
0.0
 37
0.0
 40
8.2677165354
 41
1.4142857143
 42
50.0
 43
0.0
 44
0.0
 50
0.0
 51
0.0
 71
0
 72
100
 73
1
 74
1
 75
0
 76
0
 77
0
 78
0
  0
ENDTAB
  0
TABLE
  2
LTYPE
  5
5
100
AcDbSymbolTable
 70
6
  0
LTYPE
  5
14
100
AcDbSymbolTableRecord
100
AcDbLinetypeTableRecord
  2
BYBLOCK
 70
0
  3

 72
65
 73
0
 40
0.0
  0
LTYPE
  5
15
100
AcDbSymbolTableRecord
100
AcDbLinetypeTableRecord
  2
BYLAYER
 70
0
  3

 72
65
 73
0
 40
0.0
  0
LTYPE
  5
16
100
AcDbSymbolTableRecord
100
AcDbLinetypeTableRecord
  2
CONTINUOUS
 70
64
  3
Solid line
 72
65
 73
0
 40
0.0
  0
LTYPE
  5
1F5
100
AcDbSymbolTableRecord
100
AcDbLinetypeTableRecord
  2
CENTER
 70
64
  3
____ _ ____ _ ____ _ ____ _ ____ _ ____ _ ____
 72
65
 73
4
 40
0.6
 49
0.375
 74
0
 49
-0.075
 74
0
 49
0.075
 74
0
 49
-0.075
 74
0
  0
LTYPE
  5
1F6
100
AcDbSymbolTableRecord
100
AcDbLinetypeTableRecord
  2
HIDDEN
 70
64
  3
- - - - - - - - - - - - - - - - - - - -
 72
65
 73
2
 40
0.2
 49
0.1
 74
0
 49
-0.1
 74
0
  0
LTYPE
  5
1F7
100
AcDbSymbolTableRecord
100
AcDbLinetypeTableRecord
  2
PHANTOM
 70
64
  3
_____ _ _ _____ _ _ _____ _ _ _____
 72
65
 73
6
 40
0.8
 49
0.45
 74
0
 49
-0.05
 74
0
 49
0.1
 74
0
 49
-0.05
 74
0
 49
0.1
 74
0
 49
-0.05
 74
0
  0
LTYPE
  5
1F8
100
AcDbSymbolTableRecord
100
AcDbLinetypeTableRecord
  2
DOT
 70
64
  3
. . . . . . . . . . . . . . . . . . . .
 72
65
 73
2
 40
0.2
 49
0.1
 74
0
 49
-0.1
 74
0
  0
LTYPE
  5
1F9
100
AcDbSymbolTableRecord
100
AcDbLinetypeTableRecord
  2
DASHED
 70
64
  3
- - - - - - - - - - - - - - - - - - - -
 72
65
 73
2
 40
0.2
 49
0.1
 74
0
 49
-0.1
 74
0
  0
ENDTAB
  0
TABLE
  2
LAYER
  5
2
100
AcDbSymbolTable
 70
36
  0
LAYER
  5
10
100
AcDbSymbolTableRecord
100
AcDbLayerTableRecord
  2
0
 70
0
 62
7
  6
CONTINUOUS
370
-3
390
F
  0
LAYER
  5
1FA
100
AcDbSymbolTableRecord
100
AcDbLayerTableRecord
  2
DEFAULT_1
 70
0
 62
7
  6
CENTER
370
-3
390
F
  0
LAYER
  5
1FB
100
AcDbSymbolTableRecord
100
AcDbLayerTableRecord
  2
DEFAULT_2
 70
0
 62
8
  6
HIDDEN
370
-3
390
F
  0
LAYER
  5
1FC
100
AcDbSymbolTableRecord
100
AcDbLayerTableRecord
  2
DEFAULT_3
 70
0
 62
7
  6
PHANTOM
370
-3
390
F
  0
LAYER
  5
1FD
100
AcDbSymbolTableRecord
100
AcDbLayerTableRecord
  2
_BLACK_HOLE
 70
0
 62
7
  6
CONTINUOUS
370
-3
390
F
  0
LAYER
  5
1FE
100
AcDbSymbolTableRecord
100
AcDbLayerTableRecord
  2
01_ALL_DTM_PLN
 70
0
 62
7
  6
CONTINUOUS
370
-3
390
F
  0
LAYER
  5
1FF
100
AcDbSymbolTableRecord
100
AcDbLayerTableRecord
  2
01__ASM_ALL_DTM_PLN
 70
0
 62
7
  6
CONTINUOUS
370
-3
390
F
  0
LAYER
  5
200
100
AcDbSymbolTableRecord
100
AcDbLayerTableRecord
  2
01__ASM_DEF_DTM_PLN
 70
0
 62
7
  6
CONTINUOUS
370
-3
390
F
  0
LAYER
  5
201
100
AcDbSymbolTableRecord
100
AcDbLayerTableRecord
  2
01___PRT_ALL_DTM_PLN
 70
0
 62
7
  6
CONTINUOUS
370
-3
390
F
  0
LAYER
  5
202
100
AcDbSymbolTableRecord
100
AcDbLayerTableRecord
  2
01___PRT_DEF_DTM_PLN
 70
0
 62
7
  6
CONTINUOUS
370
-3
390
F
  0
LAYER
  5
203
100
AcDbSymbolTableRecord
100
AcDbLayerTableRecord
  2
02_ALL_AXES
 70
0
 62
7
  6
CONTINUOUS
370
-3
390
F
  0
LAYER
  5
204
100
AcDbSymbolTableRecord
100
AcDbLayerTableRecord
  2
02__ASM_ALL_AXES
 70
0
 62
7
  6
CONTINUOUS
370
-3
390
F
  0
LAYER
  5
205
100
AcDbSymbolTableRecord
100
AcDbLayerTableRecord
  2
02___PRT_ALL_AXES
 70
0
 62
7
  6
CONTINUOUS
370
-3
390
F
  0
LAYER
  5
206
100
AcDbSymbolTableRecord
100
AcDbLayerTableRecord
  2
03_ALL_CURVES
 70
0
 62
7
  6
CONTINUOUS
370
-3
390
F
  0
LAYER
  5
207
100
AcDbSymbolTableRecord
100
AcDbLayerTableRecord
  2
03__ASM_ALL_CURVES
 70
0
 62
7
  6
CONTINUOUS
370
-3
390
F
  0
LAYER
  5
208
100
AcDbSymbolTableRecord
100
AcDbLayerTableRecord
  2
03___PRT_ALL_CURVES
 70
0
 62
7
  6
CONTINUOUS
370
-3
390
F
  0
LAYER
  5
209
100
AcDbSymbolTableRecord
100
AcDbLayerTableRecord
  2
04_ALL_DTM_PNT
 70
0
 62
7
  6
CONTINUOUS
370
-3
390
F
  0
LAYER
  5
20A
100
AcDbSymbolTableRecord
100
AcDbLayerTableRecord
  2
04__ASM_ALL_DTM_PNT
 70
0
 62
7
  6
CONTINUOUS
370
-3
390
F
  0
LAYER
  5
20B
100
AcDbSymbolTableRecord
100
AcDbLayerTableRecord
  2
04___PRT_ALL_DTM_PNT
 70
0
 62
7
  6
CONTINUOUS
370
-3
390
F
  0
LAYER
  5
20C
100
AcDbSymbolTableRecord
100
AcDbLayerTableRecord
  2
05_ALL_DTM_CSYS
 70
0
 62
7
  6
CONTINUOUS
370
-3
390
F
  0
LAYER
  5
20D
100
AcDbSymbolTableRecord
100
AcDbLayerTableRecord
  2
05__ASM_ALL_DTM_CSYS
 70
0
 62
7
  6
CONTINUOUS
370
-3
390
F
  0
LAYER
  5
20E
100
AcDbSymbolTableRecord
100
AcDbLayerTableRecord
  2
05__ASM_DEF_DTM_CSYS
 70
0
 62
7
  6
CONTINUOUS
370
-3
390
F
  0
LAYER
  5
20F
100
AcDbSymbolTableRecord
100
AcDbLayerTableRecord
  2
05___PRT_ALL_DTM_CSYS
 70
0
 62
7
  6
CONTINUOUS
370
-3
390
F
  0
LAYER
  5
210
100
AcDbSymbolTableRecord
100
AcDbLayerTableRecord
  2
05___PRT_DEF_DTM_CSYS
 70
0
 62
7
  6
CONTINUOUS
370
-3
390
F
  0
LAYER
  5
211
100
AcDbSymbolTableRecord
100
AcDbLayerTableRecord
  2
06_ALL_SURFS
 70
0
 62
7
  6
CONTINUOUS
370
-3
390
F
  0
LAYER
  5
212
100
AcDbSymbolTableRecord
100
AcDbLayerTableRecord
  2
06__ASM_ALL_SURFS
 70
0
 62
7
  6
CONTINUOUS
370
-3
390
F
  0
LAYER
  5
213
100
AcDbSymbolTableRecord
100
AcDbLayerTableRecord
  2
06___PRT_ALL_SURFS
 70
0
 62
7
  6
CONTINUOUS
370
-3
390
F
  0
LAYER
  5
214
100
AcDbSymbolTableRecord
100
AcDbLayerTableRecord
  2
07__ASM_ALL_SKELETONS
 70
0
 62
7
  6
CONTINUOUS
370
-3
390
F
  0
LAYER
  5
215
100
AcDbSymbolTableRecord
100
AcDbLayerTableRecord
  2
129-007_FEATURES
 70
0
 62
7
  6
CONTINUOUS
370
-3
390
F
  0
LAYER
  5
216
100
AcDbSymbolTableRecord
100
AcDbLayerTableRecord
  2
129-007_REF_GEOMETRY
 70
0
 62
7
  6
CONTINUOUS
370
-3
390
F
  0
LAYER
  5
217
100
AcDbSymbolTableRecord
100
AcDbLayerTableRecord
  2
129-009_FEATURES
 70
0
 62
7
  6
CONTINUOUS
370
-3
390
F
  0
LAYER
  5
218
100
AcDbSymbolTableRecord
100
AcDbLayerTableRecord
  2
129-009_REF_GEOMETRY
 70
0
 62
7
  6
CONTINUOUS
370
-3
390
F
  0
LAYER
  5
219
100
AcDbSymbolTableRecord
100
AcDbLayerTableRecord
  2
129-100_FEATURES
 70
0
 62
7
  6
CONTINUOUS
370
-3
390
F
  0
LAYER
  5
21A
100
AcDbSymbolTableRecord
100
AcDbLayerTableRecord
  2
129-100_REF_GEOMETRY
 70
0
 62
7
  6
CONTINUOUS
370
-3
390
F
  0
LAYER
  5
21B
100
AcDbSymbolTableRecord
100
AcDbLayerTableRecord
  2
129-101_FEATURES
 70
0
 62
7
  6
CONTINUOUS
370
-3
390
F
  0
LAYER
  5
21C
100
AcDbSymbolTableRecord
100
AcDbLayerTableRecord
  2
129-101_REF_GEOMETRY
 70
0
 62
7
  6
CONTINUOUS
370
-3
390
F
  0
LAYER
  5
21D
100
AcDbSymbolTableRecord
100
AcDbLayerTableRecord
  2
129-102_FEATURES
 70
0
 62
7
  6
CONTINUOUS
370
-3
390
F
  0
LAYER
  5
21E
100
AcDbSymbolTableRecord
100
AcDbLayerTableRecord
  2
129-102_REF_GEOMETRY
 70
0
 62
7
  6
CONTINUOUS
370
-3
390
F
  0
LAYER
  5
21F
100
AcDbSymbolTableRecord
100
AcDbLayerTableRecord
  2
129-103_FEATURES
 70
0
 62
7
  6
CONTINUOUS
370
-3
390
F
  0
LAYER
  5
220
100
AcDbSymbolTableRecord
100
AcDbLayerTableRecord
  2
129-103_REF_GEOMETRY
 70
0
 62
7
  6
CONTINUOUS
370
-3
390
F
  0
LAYER
  5
221
100
AcDbSymbolTableRecord
100
AcDbLayerTableRecord
  2
129-104_FEATURES
 70
0
 62
7
  6
CONTINUOUS
370
-3
390
F
  0
LAYER
  5
222
100
AcDbSymbolTableRecord
100
AcDbLayerTableRecord
  2
129-104_REF_GEOMETRY
 70
0
 62
7
  6
CONTINUOUS
370
-3
390
F
  0
LAYER
  5
223
100
AcDbSymbolTableRecord
100
AcDbLayerTableRecord
  2
COPY_GEO_FET
 70
0
 62
7
  6
CONTINUOUS
370
-3
390
F
  0
LAYER
  5
224
100
AcDbSymbolTableRecord
100
AcDbLayerTableRecord
  2
COSMETIC
 70
0
 62
7
  6
CONTINUOUS
370
-3
390
F
  0
LAYER
  5
225
100
AcDbSymbolTableRecord
100
AcDbLayerTableRecord
  2
CURVES
 70
0
 62
7
  6
CONTINUOUS
370
-3
390
F
  0
LAYER
  5
226
100
AcDbSymbolTableRecord
100
AcDbLayerTableRecord
  2
CUT_REF_SURF
 70
0
 62
7
  6
CONTINUOUS
370
-3
390
F
  0
LAYER
  5
227
100
AcDbSymbolTableRecord
100
AcDbLayerTableRecord
  2
DATUM
 70
0
 62
7
  6
CONTINUOUS
370
-3
390
F
  0
LAYER
  5
228
100
AcDbSymbolTableRecord
100
AcDbLayerTableRecord
  2
DATUMCURVES
 70
0
 62
7
  6
CONTINUOUS
370
-3
390
F
  0
LAYER
  5
229
100
AcDbSymbolTableRecord
100
AcDbLayerTableRecord
  2
DIMENSIONS
 70
0
 62
7
  6
CONTINUOUS
370
-3
390
F
  0
LAYER
  5
22A
100
AcDbSymbolTableRecord
100
AcDbLayerTableRecord
  2
DTM
 70
0
 62
7
  6
CONTINUOUS
370
-3
390
F
  0
LAYER
  5
22B
100
AcDbSymbolTableRecord
100
AcDbLayerTableRecord
  2
DTM230
 70
0
 62
7
  6
CONTINUOUS
370
-3
390
F
  0
LAYER
  5
22C
100
AcDbSymbolTableRecord
100
AcDbLayerTableRecord
  2
DTM_500001
 70
0
 62
7
  6
CONTINUOUS
370
-3
390
F
  0
LAYER
  5
22D
100
AcDbSymbolTableRecord
100
AcDbLayerTableRecord
  2
DTM_500002
 70
0
 62
7
  6
CONTINUOUS
370
-3
390
F
  0
LAYER
  5
22E
100
AcDbSymbolTableRecord
100
AcDbLayerTableRecord
  2
DTM_515002
 70
0
 62
7
  6
CONTINUOUS
370
-3
390
F
  0
LAYER
  5
22F
100
AcDbSymbolTableRecord
100
AcDbLayerTableRecord
  2
DTM_SPRING_RH
 70
0
 62
7
  6
CONTINUOUS
370
-3
390
F
  0
LAYER
  5
230
100
AcDbSymbolTableRecord
100
AcDbLayerTableRecord
  2
DTM_SP_RH_CONSTR
 70
0
 62
7
  6
CONTINUOUS
370
-3
390
F
  0
LAYER
  5
231
100
AcDbSymbolTableRecord
100
AcDbLayerTableRecord
  2
GEOMETRICTOLERANCES
 70
0
 62
7
  6
CONTINUOUS
370
-3
390
F
  0
LAYER
  5
232
100
AcDbSymbolTableRecord
100
AcDbLayerTableRecord
  2
PARAMETERDIMENSIONS
 70
0
 62
7
  6
CONTINUOUS
370
-3
390
F
  0
LAYER
  5
233
100
AcDbSymbolTableRecord
100
AcDbLayerTableRecord
  2
PLANE
 70
0
 62
7
  6
CONTINUOUS
370
-3
390
F
  0
LAYER
  5
234
100
AcDbSymbolTableRecord
100
AcDbLayerTableRecord
  2
T-8A_CAVITY
 70
0
 62
7
  6
CONTINUOUS
370
-3
390
F
  0
LAYER
  5
235
100
AcDbSymbolTableRecord
100
AcDbLayerTableRecord
  2
TEXT
 70
0
 62
7
  6
CONTINUOUS
370
-3
390
F
  0
LAYER
  5
236
100
AcDbSymbolTableRecord
100
AcDbLayerTableRecord
  2
THREAD
 70
0
 62
7
  6
CONTINUOUS
370
-3
390
F
  0
LAYER
  5
237
100
AcDbSymbolTableRecord
100
AcDbLayerTableRecord
  2
XSEC_DATUMS
 70
0
 62
7
  6
CONTINUOUS
370
-3
390
F
  0
ENDTAB
  0
TABLE
  2
STYLE
  5
3
100
AcDbSymbolTable
 70
1
  0
STYLE
  5
11
100
AcDbSymbolTableRecord
100
AcDbTextStyleTableRecord
  2
STANDARD
 70
0
 40
0.0
 41
0.8
 50
0.0
 71
0
 42
0.2
  3
txt
  4

  0
ENDTAB
  0
TABLE
  2
VIEW
  5
6
100
AcDbSymbolTable
 70
0
  0
ENDTAB
  0
TABLE
  2
UCS
  5
7
100
AcDbSymbolTable
 70
0
  0
ENDTAB
  0
TABLE
  2
APPID
  5
9
100
AcDbSymbolTable
 70
1
  0
APPID
  5
238
100
AcDbSymbolTableRecord
100
AcDbRegAppTableRecord
  2
ACAD
 70
0
  0
ENDTAB
  0
TABLE
  2
BLOCK_RECORD
  5
1
100
AcDbSymbolTable
 70
0
  0
BLOCK_RECORD
  5
1F
100
AcDbSymbolTableRecord
100
AcDbBlockTableRecord
  2
*MODEL_SPACE
  0
BLOCK_RECORD
  5
1B
100
AcDbSymbolTableRecord
100
AcDbBlockTableRecord
  2
*PAPER_SPACE
  0
ENDTAB
  0
TABLE
  2
DIMSTYLE
  5
A
100
AcDbSymbolTable
 70
1
100
AcDbDimStyleTable
 71
0
  0
DIMSTYLE
105
239
100
AcDbSymbolTableRecord
100
AcDbDimStyleTableRecord
  2
STANDARD
 70
0
  3

  4

 40
1.0
 41
0.1875
 42
0.0625
 43
0.38
 44
0.18
 45
0.0
 46
0.0
 47
0.01
 48
0.01
140
0.15625
141
0.09
142
0.0
143
25.4
144
1.0
145
0.0
146
1.0
147
0.09
 71
0.0
 72
0.0
 73
1
 74
1
 75
0
 76
0
 77
0
 78
4
170
0
171
2
172
0
173
0
174
0
175
0
176
0
177
0
178
0
270
2
271
2
272
2
273
2
274
2
275
0
280
0
281
0
282
0
283
1
284
4
285
0
286
0
287
3
288
0
340
11
  0
ENDTAB
  0
ENDSEC
  0
SECTION
  2
BLOCKS
  0
BLOCK
  5
20
100
AcDbEntity
  8
0
100
AcDbBlockBegin
  2
*MODEL_SPACE
 70
0
 10
0.0
 20
0.0
 30
0.0
  3
*MODEL_SPACE
  1

  0
ENDBLK
  5
21
100
AcDbEntity
  8
0
100
AcDbBlockEnd
  0
BLOCK
  5
1C
100
AcDbEntity
  8
0
100
AcDbBlockBegin
  2
*PAPER_SPACE
 70
0
 10
0.0
 20
0.0
 30
0.0
  3
*PAPER_SPACE
  1

  0
ENDBLK
  5
1D
100
AcDbEntity
  8
0
100
AcDbBlockEnd
  0
ENDSEC
  0
SECTION
  2
ENTITIES
  0
LINE
  5
23A
100
AcDbEntity
  8
0
100
AcDbLine
 62
7
  6
CONTINUOUS
 10
1.0044575587
 20
3.4380379951
 11
1.0044575587
 21
5.0520379951
  0
LINE
  5
23B
100
AcDbEntity
  8
03__ASM_ALL_CURVES
100
AcDbLine
 62
40
  6
CONTINUOUS
 10
1.0044575587
 20
5.0520379951
 11
1.0044575587
 21
5.6566249951
  0
LINE
  5
23C
100
AcDbEntity
  8
0
100
AcDbLine
 62
7
  6
CONTINUOUS
 10
1.0714301899
 20
3.3220379951
 11
1.0714301899
 21
3.3224333365
  0
LINE
  5
23D
100
AcDbEntity
  8
0
100
AcDbLine
 62
7
  6
CONTINUOUS
 10
1.0714301899
 20
3.7603426536
 11
1.0714301899
 21
3.807128678
  0
LINE
  5
23E
100
AcDbEntity
  8
0
100
AcDbLine
 62
7
  6
CONTINUOUS
 10
1.0714301899
 20
4.6829473122
 11
1.0714301899
 21
4.7297333365
  0
LINE
  5
23F
100
AcDbEntity
  8
0
100
AcDbLine
 62
7
  6
CONTINUOUS
 10
1.0714301899
 20
5.1676426536
 11
1.0714301899
 21
5.1680379951
  0
LINE
  5
240
100
AcDbEntity
  8
03__ASM_ALL_CURVES
100
AcDbLine
 62
40
  6
CONTINUOUS
 10
1.0782661525
 20
5.7042968701
 11
1.0663481837
 21
5.6566249951
  0
LINE
  5
241
100
AcDbEntity
  8
03__ASM_ALL_CURVES
100
AcDbLine
 62
40
  6
CONTINUOUS
 10
1.0663481837
 20
5.8155312413
 11
1.0782661525
 21
5.8314218739
  0
LINE
  5
242
100
AcDbEntity
  8
03__ASM_ALL_CURVES
100
AcDbLine
 62
40
  6
CONTINUOUS
 10
1.1616919337
 20
5.8155312413
 11
1.1616919337
 21
5.7837499989
  0
LINE
  5
243
100
AcDbEntity
  8
03__ASM_ALL_CURVES
100
AcDbLine
 62
40
  6
CONTINUOUS
 10
1.2332825587
 20
5.6184874951
 11
1.2332825587
 21
5.5422124951
  0
LINE
  5
244
100
AcDbEntity
  8
03__ASM_ALL_CURVES
100
AcDbLine
 62
40
  6
CONTINUOUS
 10
1.29278959
 20
5.6566249951
 11
1.29278959
 21
5.6725156206
  0
LINE
  5
245
100
AcDbEntity
  8
03__ASM_ALL_CURVES
100
AcDbLine
 62
40
  6
CONTINUOUS
 10
1.6503286525
 20
5.7042968701
 11
1.6384106837
 21
5.6566249951
  0
LINE
  5
246
100
AcDbEntity
  8
0
100
AcDbLine
 62
7
  6
CONTINUOUS
 10
1.0714301899
 20
5.1680379951
 11
1.0044575587
 21
5.0520379951
  0
LINE
  5
247
100
AcDbEntity
  8
03__ASM_ALL_CURVES
100
AcDbLine
 62
40
  6
CONTINUOUS
 10
1.10210209
 20
5.7360781182
 11
1.0782661525
 21
5.7042968701
  0
LINE
  5
248
100
AcDbEntity
  8
03__ASM_ALL_CURVES
100
AcDbLine
 62
40
  6
CONTINUOUS
 10
1.1616919337
 20
5.7837499989
 11
1.149773965
 21
5.7678593663
  0
LINE
  5
249
100
AcDbEntity
  8
0
100
AcDbLine
 62
7
  6
CONTINUOUS
 10
1.0714301899
 20
3.3220379951
 11
1.0044575587
 21
3.4380379951
  0
LINE
  5
24A
100
AcDbEntity
  8
03__ASM_ALL_CURVES
100
AcDbLine
 62
40
  6
CONTINUOUS
 10
1.4953950587
 20
5.8473124951
 11
1.4953950587
 21
5.6566249951
  0
LINE
  5
24B
100
AcDbEntity
  8
03__ASM_ALL_CURVES
100
AcDbLine
 62
40
  6
CONTINUOUS
 10
1.7337544337
 20
5.8155312413
 11
1.7337544337
 21
5.7837499989
  0
LINE
  5
24C
100
AcDbEntity
  8
03__ASM_ALL_CURVES
100
AcDbLine
 62
40
  6
CONTINUOUS
 10
1.86485209
 20
5.8155312413
 11
1.8529341212
 21
5.7678593663
  0
LINE
  5
24D
100
AcDbEntity
  8
03__ASM_ALL_CURVES
100
AcDbLine
 62
40
  6
CONTINUOUS
 10
1.6384106837
 20
5.8155312413
 11
1.6503286525
 21
5.8314218739
  0
LINE
  5
24E
100
AcDbEntity
  8
03__ASM_ALL_CURVES
100
AcDbLine
 62
40
  6
CONTINUOUS
 10
1.67416459
 20
5.7360781182
 11
1.6503286525
 21
5.7042968701
  0
LINE
  5
24F
100
AcDbEntity
  8
03__ASM_ALL_CURVES
100
AcDbLine
 62
40
  6
CONTINUOUS
 10
1.7337544337
 20
5.7837499989
 11
1.721836465
 21
5.7678593663
  0
LINE
  5
250
100
AcDbEntity
  8
03__ASM_ALL_CURVES
100
AcDbLine
 62
40
  6
CONTINUOUS
 10
1.8886880275
 20
5.8473124951
 11
1.86485209
 21
5.8155312413
  0
LINE
  5
251
100
AcDbEntity
  8
03__ASM_ALL_CURVES
100
AcDbLine
 62
40
  6
CONTINUOUS
 10
1.8529341212
 20
5.7678593663
 11
1.8529341212
 21
5.7360781182
  0
LINE
  5
252
100
AcDbEntity
  8
0
100
AcDbLine
 62
7
  6
CONTINUOUS
 10
2.003969755
 20
3.3220379951
 11
2.003969755
 21
5.1680379951
  0
LINE
  5
253
100
AcDbEntity
  8
0
100
AcDbLine
 62
7
  6
CONTINUOUS
 10
2.0654575587
 20
3.2155379951
 11
2.0654575587
 21
5.2745379951
  0
LINE
  5
254
100
AcDbEntity
  8
03__ASM_ALL_CURVES
100
AcDbLine
 62
40
  6
CONTINUOUS
 10
2.0436216212
 20
5.8473124951
 11
2.0317036525
 21
5.7678593663
  0
LINE
  5
255
100
AcDbEntity
  8
03__ASM_ALL_CURVES
100
AcDbLine
 62
40
  6
CONTINUOUS
 10
2.1270474025
 20
5.720187497
 11
2.1151294337
 21
5.688406246
  0
LINE
  5
256
100
AcDbEntity
  8
0
100
AcDbLine
 62
7
  6
CONTINUOUS
 10
2.0654575587
 20
5.2745379951
 11
2.003969755
 21
5.1680379951
  0
LINE
  5
257
100
AcDbEntity
  8
03__ASM_ALL_CURVES
100
AcDbLine
 62
40
  6
CONTINUOUS
 10
2.1151294337
 20
5.688406246
 11
2.103211465
 21
5.6725156206
  0
LINE
  5
258
100
AcDbEntity
  8
03__ASM_ALL_CURVES
100
AcDbLine
 62
40
  6
CONTINUOUS
 10
2.3058169337
 20
5.7996406201
 11
2.293898965
 21
5.7837499989
  0
LINE
  5
259
100
AcDbEntity
  8
03__ASM_ALL_CURVES
100
AcDbLine
 62
40
  6
CONTINUOUS
 10
1.0782661525
 20
5.8314218739
 11
1.10210209
 21
5.8473124951
  0
LINE
  5
25A
100
AcDbEntity
  8
03__ASM_ALL_CURVES
100
AcDbLine
 62
40
  6
CONTINUOUS
 10
1.149773965
 20
5.7678593663
 11
1.10210209
 21
5.7360781182
  0
LINE
  5
25B
100
AcDbEntity
  8
0
100
AcDbLine
 62
7
  6
CONTINUOUS
 10
2.0654575587
 20
3.2155379951
 11
2.003969755
 21
3.3220379951
  0
LINE
  5
25C
100
AcDbEntity
  8
03__ASM_ALL_CURVES
100
AcDbLine
 62
40
  6
CONTINUOUS
 10
2.3058169337
 20
5.8155312413
 11
2.3058169337
 21
5.7996406201
  0
LINE
  5
25D
100
AcDbEntity
  8
03__ASM_ALL_CURVES
100
AcDbLine
 62
40
  6
CONTINUOUS
 10
2.3177349025
 20
5.720187497
 11
2.3177349025
 21
5.7042968701
  0
LINE
  5
25E
100
AcDbEntity
  8
03__ASM_ALL_CURVES
100
AcDbLine
 62
40
  6
CONTINUOUS
 10
2.43691459
 20
5.6566249951
 11
2.43691459
 21
5.6725156206
  0
LINE
  5
25F
100
AcDbEntity
  8
03__ASM_ALL_CURVES
100
AcDbLine
 62
40
  6
CONTINUOUS
 10
2.865961465
 20
5.8473124951
 11
2.7825356837
 21
5.7042968701
  0
LINE
  5
260
100
AcDbEntity
  8
03__ASM_ALL_CURVES
100
AcDbLine
 62
40
  6
CONTINUOUS
 10
2.3177349025
 20
5.7042968701
 11
2.293898965
 21
5.6725156206
  0
LINE
  5
261
100
AcDbEntity
  8
03__ASM_ALL_CURVES
100
AcDbLine
 62
40
  6
CONTINUOUS
 10
2.5918481837
 20
5.8155312413
 11
2.6037661525
 21
5.8314218739
  0
LINE
  5
262
100
AcDbEntity
  8
03__ASM_ALL_CURVES
100
AcDbLine
 62
40
  6
CONTINUOUS
 10
2.579930215
 20
5.720187497
 11
2.6037661525
 21
5.7519687451
  0
LINE
  5
263
100
AcDbEntity
  8
03__ASM_ALL_CURVES
100
AcDbLine
 62
40
  6
CONTINUOUS
 10
2.6871919337
 20
5.7996406201
 11
2.675273965
 21
5.7837499989
  0
LINE
  5
264
100
AcDbEntity
  8
03__ASM_ALL_CURVES
100
AcDbLine
 62
40
  6
CONTINUOUS
 10
2.6991099025
 20
5.7042968701
 11
2.675273965
 21
5.6725156206
  0
LINE
  5
265
100
AcDbEntity
  8
03__ASM_ALL_CURVES
100
AcDbLine
 62
40
  6
CONTINUOUS
 10
1.6503286525
 20
5.8314218739
 11
1.67416459
 21
5.8473124951
  0
LINE
  5
266
100
AcDbEntity
  8
03__ASM_ALL_CURVES
100
AcDbLine
 62
40
  6
CONTINUOUS
 10
1.721836465
 20
5.7678593663
 11
1.67416459
 21
5.7360781182
  0
LINE
  5
267
100
AcDbEntity
  8
03__ASM_ALL_CURVES
100
AcDbLine
 62
40
  6
CONTINUOUS
 10
2.0317036525
 20
5.7678593663
 11
2.05553959
 21
5.7837499989
  0
LINE
  5
268
100
AcDbEntity
  8
03__ASM_ALL_CURVES
100
AcDbLine
 62
40
  6
CONTINUOUS
 10
1.8529341212
 20
5.7360781182
 11
1.86485209
 21
5.688406246
  0
LINE
  5
269
100
AcDbEntity
  8
03__ASM_ALL_CURVES
100
AcDbLine
 62
40
  6
CONTINUOUS
 10
2.579930215
 20
5.7042968701
 11
2.579930215
 21
5.720187497
  0
LINE
  5
26A
100
AcDbEntity
  8
03__ASM_ALL_CURVES
100
AcDbLine
 62
40
  6
CONTINUOUS
 10
2.5918481837
 20
5.7996406201
 11
2.5918481837
 21
5.8155312413
  0
LINE
  5
26B
100
AcDbEntity
  8
03__ASM_ALL_CURVES
100
AcDbLine
 62
40
  6
CONTINUOUS
 10
2.6871919337
 20
5.8155312413
 11
2.6871919337
 21
5.7996406201
  0
LINE
  5
26C
100
AcDbEntity
  8
03__ASM_ALL_CURVES
100
AcDbLine
 62
40
  6
CONTINUOUS
 10
2.6991099025
 20
5.720187497
 11
2.6991099025
 21
5.7042968701
  0
LINE
  5
26D
100
AcDbEntity
  8
03__ASM_ALL_CURVES
100
AcDbLine
 62
40
  6
CONTINUOUS
 10
3.0447309962
 20
5.7360781182
 11
3.0328130275
 21
5.688406246
  0
LINE
  5
26E
100
AcDbEntity
  8
03__ASM_ALL_CURVES
100
AcDbLine
 62
40
  6
CONTINUOUS
 10
3.0328130275
 20
5.688406246
 11
3.00897709
 21
5.6566249951
  0
LINE
  5
26F
100
AcDbEntity
  8
03__ASM_ALL_CURVES
100
AcDbLine
 62
40
  6
CONTINUOUS
 10
2.2223911525
 20
5.8314218739
 11
2.24622709
 21
5.8473124951
  0
LINE
  5
270
100
AcDbEntity
  8
03__ASM_ALL_CURVES
100
AcDbLine
 62
40
  6
CONTINUOUS
 10
2.103211465
 20
5.6725156206
 11
2.0793755275
 21
5.6566249951
  0
LINE
  5
271
100
AcDbEntity
  8
03__ASM_ALL_CURVES
100
AcDbLine
 62
40
  6
CONTINUOUS
 10
2.293898965
 20
5.7837499989
 11
2.2700630275
 21
5.7678593663
  0
LINE
  5
272
100
AcDbEntity
  8
03__ASM_ALL_CURVES
100
AcDbLine
 62
40
  6
CONTINUOUS
 10
2.293898965
 20
5.6725156206
 11
2.2700630275
 21
5.6566249951
  0
LINE
  5
273
100
AcDbEntity
  8
03__ASM_ALL_CURVES
100
AcDbLine
 62
40
  6
CONTINUOUS
 10
2.6037661525
 20
5.8314218739
 11
2.62760209
 21
5.8473124951
  0
LINE
  5
274
100
AcDbEntity
  8
03__ASM_ALL_CURVES
100
AcDbLine
 62
40
  6
CONTINUOUS
 10
2.6037661525
 20
5.7519687451
 11
2.62760209
 21
5.7678593663
  0
LINE
  5
275
100
AcDbEntity
  8
03__ASM_ALL_CURVES
100
AcDbLine
 62
40
  6
CONTINUOUS
 10
2.865961465
 20
5.6566249951
 11
2.865961465
 21
5.8473124951
  0
LINE
  5
276
100
AcDbEntity
  8
03__ASM_ALL_CURVES
100
AcDbLine
 62
40
  6
CONTINUOUS
 10
2.9016325587
 20
5.6184874951
 11
2.9016325587
 21
5.5422124951
  0
LINE
  5
277
100
AcDbEntity
  8
03__ASM_ALL_CURVES
100
AcDbLine
 62
40
  6
CONTINUOUS
 10
3.0447309962
 20
5.7678593663
 11
3.0447309962
 21
5.7360781182
  0
LINE
  5
278
100
AcDbEntity
  8
0
100
AcDbLine
 62
7
  6
CONTINUOUS
 10
3.1304575587
 20
3.2155379951
 11
3.1304575587
 21
5.2745379951
  0
LINE
  5
279
100
AcDbEntity
  8
03__ASM_ALL_CURVES
100
AcDbLine
 62
40
  6
CONTINUOUS
 10
3.1304575587
 20
5.3126754951
 11
3.1304575587
 21
5.6566249951
  0
LINE
  5
27A
100
AcDbEntity
  8
03__ASM_ALL_CURVES
100
AcDbLine
 62
40
  6
CONTINUOUS
 10
3.6143270881
 20
5.7996406201
 11
3.6381630256
 21
5.8314218739
  0
LINE
  5
27B
100
AcDbEntity
  8
03__ASM_ALL_CURVES
100
AcDbLine
 62
40
  6
CONTINUOUS
 10
2.675273965
 20
5.7837499989
 11
2.6514380275
 21
5.7678593663
  0
LINE
  5
27C
100
AcDbEntity
  8
03__ASM_ALL_CURVES
100
AcDbLine
 62
40
  6
CONTINUOUS
 10
2.675273965
 20
5.6725156206
 11
2.6514380275
 21
5.6566249951
  0
LINE
  5
27D
100
AcDbEntity
  8
03__ASM_ALL_CURVES
100
AcDbLine
 62
40
  6
CONTINUOUS
 10
1.149773965
 20
5.8314218739
 11
1.1616919337
 21
5.8155312413
  0
LINE
  5
27E
100
AcDbEntity
  8
03__ASM_ALL_CURVES
100
AcDbLine
 62
40
  6
CONTINUOUS
 10
1.29278959
 20
5.6725156206
 11
1.3047075587
 21
5.6566249951
  0
LINE
  5
27F
100
AcDbEntity
  8
03__ASM_ALL_CURVES
100
AcDbLine
 62
40
  6
CONTINUOUS
 10
2.1151294337
 20
5.7519687451
 11
2.1270474025
 21
5.720187497
  0
LINE
  5
280
100
AcDbEntity
  8
THREAD
100
AcDbLine
 62
7
  6
CONTINUOUS
 10
3.1774575587
 20
3.2915379951
 11
3.1774575587
 21
5.1985379951
  0
LINE
  5
281
100
AcDbEntity
  8
0
100
AcDbLine
 62
7
  6
CONTINUOUS
 10
3.2804575587
 20
3.2910379951
 11
3.2804575587
 21
5.1990379951
  0
LINE
  5
282
100
AcDbEntity
  8
0
100
AcDbLine
 62
7
  6
CONTINUOUS
 10
3.3304575587
 20
3.2910379951
 11
3.3304575587
 21
5.1990379951
  0
LINE
  5
283
100
AcDbEntity
  8
0
100
AcDbLine
 62
7
  6
CONTINUOUS
 10
3.3514575587
 20
3.3555379951
 11
3.3514575587
 21
5.1345379951
  0
LINE
  5
284
100
AcDbEntity
  8
03__ASM_ALL_CURVES
100
AcDbLine
 62
40
  6
CONTINUOUS
 10
3.3592825587
 20
5.6184874951
 11
3.3592825587
 21
5.5422124951
  0
LINE
  5
285
100
AcDbEntity
  8
THREAD
100
AcDbLine
 62
7
  6
CONTINUOUS
 10
3.3814797727
 20
3.3035379951
 11
3.3814797727
 21
5.1865379951
  0
LINE
  5
286
100
AcDbEntity
  8
03__ASM_ALL_CURVES
100
AcDbLine
 62
40
  6
CONTINUOUS
 10
3.4355575569
 20
5.8473124951
 11
3.4355575569
 21
5.6566249951
  0
LINE
  5
287
100
AcDbEntity
  8
03__ASM_ALL_CURVES
100
AcDbLine
 62
40
  6
CONTINUOUS
 10
3.6024091194
 20
5.7519687451
 11
3.6143270881
 21
5.7996406201
  0
LINE
  5
288
100
AcDbEntity
  8
03__ASM_ALL_CURVES
100
AcDbLine
 62
40
  6
CONTINUOUS
 10
3.7454247444
 20
5.7519687451
 11
3.7335067756
 21
5.7042968701
  0
LINE
  5
289
100
AcDbEntity
  8
THREAD
100
AcDbLine
 62
7
  6
CONTINUOUS
 10
3.3814797727
 20
5.1865379951
 11
3.3514575587
 21
5.1345379951
  0
LINE
  5
28A
100
AcDbEntity
  8
03__ASM_ALL_CURVES
100
AcDbLine
 62
40
  6
CONTINUOUS
 10
3.7335067756
 20
5.7042968701
 11
3.7096708381
 21
5.6725156206
  0
LINE
  5
28B
100
AcDbEntity
  8
03__ASM_ALL_CURVES
100
AcDbLine
 62
40
  6
CONTINUOUS
 10
3.8050145881
 20
5.7996406201
 11
3.8288505256
 21
5.8314218739
  0
LINE
  5
28C
100
AcDbEntity
  8
03__ASM_ALL_CURVES
100
AcDbLine
 62
40
  6
CONTINUOUS
 10
3.9122763069
 20
5.688406246
 11
3.9003583381
 21
5.6725156206
  0
LINE
  5
28D
100
AcDbEntity
  8
03__ASM_ALL_CURVES
100
AcDbLine
 62
40
  6
CONTINUOUS
 10
3.6381630256
 20
5.8314218739
 11
3.6619989631
 21
5.8473124951
  0
LINE
  5
28E
100
AcDbEntity
  8
03__ASM_ALL_CURVES
100
AcDbLine
 62
40
  6
CONTINUOUS
 10
3.8288505256
 20
5.8314218739
 11
3.8526864631
 21
5.8473124951
  0
LINE
  5
28F
100
AcDbEntity
  8
03__ASM_ALL_CURVES
100
AcDbLine
 62
40
  6
CONTINUOUS
 10
3.7096708381
 20
5.6725156206
 11
3.6858349006
 21
5.6566249951
  0
LINE
  5
290
100
AcDbEntity
  8
03__ASM_ALL_CURVES
100
AcDbLine
 62
40
  6
CONTINUOUS
 10
1.721836465
 20
5.8314218739
 11
1.7337544337
 21
5.8155312413
  0
LINE
  5
291
100
AcDbEntity
  8
THREAD
100
AcDbLine
 62
7
  6
CONTINUOUS
 10
3.3814797727
 20
3.3035379951
 11
3.3514575587
 21
3.3555379951
  0
LINE
  5
292
100
AcDbEntity
  8
03__ASM_ALL_CURVES
100
AcDbLine
 62
40
  6
CONTINUOUS
 10
3.0328130275
 20
5.8155312413
 11
3.0447309962
 21
5.7678593663
  0
LINE
  5
293
100
AcDbEntity
  8
03__ASM_ALL_CURVES
100
AcDbLine
 62
40
  6
CONTINUOUS
 10
3.7930966194
 20
5.7519687451
 11
3.8050145881
 21
5.7996406201
  0
LINE
  5
294
100
AcDbEntity
  8
03__ASM_ALL_CURVES
100
AcDbLine
 62
40
  6
CONTINUOUS
 10
3.9957020881
 20
5.6566249951
 11
4.0552919319
 21
5.8473124951
  0
LINE
  5
295
100
AcDbEntity
  8
03__ASM_ALL_CURVES
100
AcDbLine
 62
40
  6
CONTINUOUS
 10
3.9003583381
 20
5.6725156206
 11
3.8765224006
 21
5.6566249951
  0
LINE
  5
296
100
AcDbEntity
  8
03__ASM_ALL_CURVES
100
AcDbLine
 62
40
  6
CONTINUOUS
 10
4.524034246
 20
2.7270223701
 11
4.5061572929
 21
2.7389403392
  0
LINE
  5
297
100
AcDbEntity
  8
03__ASM_ALL_CURVES
100
AcDbLine
 62
40
  6
CONTINUOUS
 10
1.86485209
 20
5.688406246
 11
1.8886880275
 21
5.6566249951
  0
LINE
  5
298
100
AcDbEntity
  8
03__ASM_ALL_CURVES
100
AcDbLine
 62
40
  6
CONTINUOUS
 10
2.0317036525
 20
5.6725156206
 11
2.0197856837
 21
5.688406246
  0
LINE
  5
299
100
AcDbEntity
  8
03__ASM_ALL_CURVES
100
AcDbLine
 62
40
  6
CONTINUOUS
 10
2.103211465
 20
5.7678593663
 11
2.1151294337
 21
5.7519687451
  0
LINE
  5
29A
100
AcDbEntity
  8
03__ASM_ALL_CURVES
100
AcDbLine
 62
40
  6
CONTINUOUS
 10
2.2223911525
 20
5.6725156206
 11
2.2104731837
 21
5.688406246
  0
LINE
  5
29B
100
AcDbEntity
  8
THREAD
100
AcDbLine
 62
7
  6
CONTINUOUS
 10
3.8509575587
 20
3.3035379951
 11
3.8509575587
 21
5.1865379951
  0
LINE
  5
29C
100
AcDbEntity
  8
THREAD
100
AcDbLine
 62
7
  6
CONTINUOUS
 10
3.9484575587
 20
3.4010379951
 11
3.9484575587
 21
5.0890379951
  0
LINE
  5
29D
100
AcDbEntity
  8
03__ASM_ALL_CURVES
100
AcDbLine
 62
40
  6
CONTINUOUS
 10
4.7584520881
 20
5.7996406201
 11
4.7822880256
 21
5.8314218739
  0
LINE
  5
29E
100
AcDbEntity
  8
03__ASM_ALL_CURVES
100
AcDbLine
 62
40
  6
CONTINUOUS
 10
4.7822880256
 20
5.8314218739
 11
4.8061239631
 21
5.8473124951
  0
LINE
  5
29F
100
AcDbEntity
  8
03__ASM_ALL_CURVES
100
AcDbLine
 62
40
  6
CONTINUOUS
 10
4.8537958381
 20
5.6725156206
 11
4.8299599006
 21
5.6566249951
  0
LINE
  5
2A0
100
AcDbEntity
  8
03__ASM_ALL_CURVES
100
AcDbLine
 62
40
  6
CONTINUOUS
 10
5.1874989631
 20
5.8473124951
 11
5.1636630256
 21
5.8314218739
  0
LINE
  5
2A1
100
AcDbEntity
  8
03__ASM_ALL_CURVES
100
AcDbLine
 62
40
  6
CONTINUOUS
 10
4.3988955742
 20
2.8700379951
 11
4.4167725273
 21
2.8581200292
  0
LINE
  5
2A2
100
AcDbEntity
  8
03__ASM_ALL_CURVES
100
AcDbLine
 62
40
  6
CONTINUOUS
 10
4.5419111992
 20
2.8700379951
 11
4.5597881523
 21
2.8581200292
  0
LINE
  5
2A3
100
AcDbEntity
  8
03__ASM_ALL_CURVES
100
AcDbLine
 62
40
  6
CONTINUOUS
 10
4.6849268242
 20
2.8700379951
 11
4.7028037773
 21
2.8581200292
  0
LINE
  5
2A4
100
AcDbEntity
  8
03__ASM_ALL_CURVES
100
AcDbLine
 62
40
  6
CONTINUOUS
 10
4.4167725273
 20
2.8581200292
 11
4.4257110039
 21
2.8462020548
  0
LINE
  5
2A5
100
AcDbEntity
  8
03__ASM_ALL_CURVES
100
AcDbLine
 62
40
  6
CONTINUOUS
 10
4.5061572929
 20
2.7389403392
 11
4.4882803398
 21
2.7627762763
  0
LINE
  5
2A6
100
AcDbEntity
  8
03__ASM_ALL_CURVES
100
AcDbLine
 62
40
  6
CONTINUOUS
 10
2.293898965
 20
5.7519687451
 11
2.3177349025
 21
5.720187497
  0
LINE
  5
2A7
100
AcDbEntity
  8
03__ASM_ALL_CURVES
100
AcDbLine
 62
40
  6
CONTINUOUS
 10
2.293898965
 20
5.8314218739
 11
2.3058169337
 21
5.8155312413
  0
LINE
  5
2A8
100
AcDbEntity
  8
03__ASM_ALL_CURVES
100
AcDbLine
 62
40
  6
CONTINUOUS
 10
2.43691459
 20
5.6725156206
 11
2.4488325587
 21
5.6566249951
  0
LINE
  5
2A9
100
AcDbEntity
  8
03__ASM_ALL_CURVES
100
AcDbLine
 62
40
  6
CONTINUOUS
 10
4.5597881523
 20
2.8581200292
 11
4.5776651054
 21
2.8342840888
  0
LINE
  5
2AA
100
AcDbEntity
  8
03__ASM_ALL_CURVES
100
AcDbLine
 62
40
  6
CONTINUOUS
 10
4.7028037773
 20
2.8581200292
 11
4.7117422539
 21
2.8462020548
  0
LINE
  5
2AB
100
AcDbEntity
  8
03__ASM_ALL_CURVES
100
AcDbLine
 62
40
  6
CONTINUOUS
 10
2.6037661525
 20
5.6725156206
 11
2.579930215
 21
5.7042968701
  0
LINE
  5
2AC
100
AcDbEntity
  8
03__ASM_ALL_CURVES
100
AcDbLine
 62
40
  6
CONTINUOUS
 10
2.6037661525
 20
5.7837499989
 11
2.5918481837
 21
5.7996406201
  0
LINE
  5
2AD
100
AcDbEntity
  8
03__ASM_ALL_CURVES
100
AcDbLine
 62
40
  6
CONTINUOUS
 10
3.6143270881
 20
5.7042968701
 11
3.6024091194
 21
5.7519687451
  0
LINE
  5
2AE
100
AcDbEntity
  8
03__ASM_ALL_CURVES
100
AcDbLine
 62
40
  6
CONTINUOUS
 10
4.4882803398
 20
2.7627762763
 11
4.4793418632
 21
2.7985301826
  0
LINE
  5
2AF
100
AcDbEntity
  8
03__ASM_ALL_CURVES
100
AcDbLine
 62
40
  6
CONTINUOUS
 10
3.7335067756
 20
5.7996406201
 11
3.7454247444
 21
5.7519687451
  0
LINE
  5
2B0
100
AcDbEntity
  8
0
100
AcDbLine
 62
7
  6
CONTINUOUS
 10
4.1794575587
 20
3.4010379951
 11
4.1794575587
 21
5.0890379951
  0
LINE
  5
2B1
100
AcDbEntity
  8
0
100
AcDbLine
 62
7
  6
CONTINUOUS
 10
4.1924575587
 20
3.4140379951
 11
4.1924575587
 21
5.0760379951
  0
LINE
  5
2B2
100
AcDbEntity
  8
03__ASM_ALL_CURVES
100
AcDbLine
 62
40
  6
CONTINUOUS
 10
4.2459794319
 20
5.8473124951
 11
4.2459794319
 21
5.6566249951
  0
LINE
  5
2B3
100
AcDbEntity
  8
03__ASM_ALL_CURVES
100
AcDbLine
 62
40
  6
CONTINUOUS
 10
4.3542031914
 20
2.7270223701
 11
4.3542031914
 21
2.8700379951
  0
LINE
  5
2B4
100
AcDbEntity
  8
03__ASM_ALL_CURVES
100
AcDbLine
 62
40
  6
CONTINUOUS
 10
4.4257110039
 20
2.8462020548
 11
4.4257110039
 21
2.8223661229
  0
LINE
  5
2B5
100
AcDbEntity
  8
03__ASM_ALL_CURVES
100
AcDbLine
 62
40
  6
CONTINUOUS
 10
4.4366669319
 20
5.8473124951
 11
4.4366669319
 21
5.6566249951
  0
LINE
  5
2B6
100
AcDbEntity
  8
03__ASM_ALL_CURVES
100
AcDbLine
 62
40
  6
CONTINUOUS
 10
4.7465341194
 20
5.7519687451
 11
4.7584520881
 21
5.7996406201
  0
LINE
  5
2B7
100
AcDbEntity
  8
03__ASM_ALL_CURVES
100
AcDbLine
 62
40
  6
CONTINUOUS
 10
4.8657138069
 20
5.688406246
 11
4.8537958381
 21
5.6725156206
  0
LINE
  5
2B8
100
AcDbEntity
  8
03__ASM_ALL_CURVES
100
AcDbLine
 62
40
  6
CONTINUOUS
 10
5.1636630256
 20
5.8314218739
 11
5.1517450569
 21
5.8155312413
  0
LINE
  5
2B9
100
AcDbEntity
  8
03__ASM_ALL_CURVES
100
AcDbLine
 62
40
  6
CONTINUOUS
 10
5.2351708381
 20
5.6725156206
 11
5.2113349006
 21
5.6566249951
  0
LINE
  5
2BA
100
AcDbEntity
  8
03__ASM_ALL_CURVES
100
AcDbLine
 62
40
  6
CONTINUOUS
 10
5.5450380256
 20
5.8314218739
 11
5.5688739631
 21
5.8473124951
  0
LINE
  5
2BB
100
AcDbEntity
  8
03__ASM_ALL_CURVES
100
AcDbLine
 62
40
  6
CONTINUOUS
 10
7.6463803554
 20
2.7270223701
 11
7.6285034023
 21
2.7270223701
  0
LINE
  5
2BC
100
AcDbEntity
  8
03__ASM_ALL_CURVES
100
AcDbLine
 62
40
  6
CONTINUOUS
 10
6.330957955
 20
2.7270223701
 11
6.3130810018
 21
2.7270223701
  0
LINE
  5
2BD
100
AcDbEntity
  8
03__ASM_ALL_CURVES
100
AcDbLine
 62
40
  6
CONTINUOUS
 10
5.90191108
 20
2.7270223701
 11
5.8840341268
 21
2.7270223701
  0
LINE
  5
2BE
100
AcDbEntity
  8
03__ASM_ALL_CURVES
100
AcDbLine
 62
40
  6
CONTINUOUS
 10
4.5419111992
 20
2.7270223701
 11
4.524034246
 21
2.7270223701
  0
LINE
  5
2BF
100
AcDbEntity
  8
03__ASM_ALL_CURVES
100
AcDbLine
 62
40
  6
CONTINUOUS
 10
8.0307348476
 20
2.7270223701
 11
8.1022426601
 21
2.7270223701
  0
LINE
  5
2C0
100
AcDbEntity
  8
03__ASM_ALL_CURVES
100
AcDbLine
 62
40
  6
CONTINUOUS
 10
4.9262656914
 20
2.7627762763
 11
5.0067119804
 21
2.7627762763
  0
LINE
  5
2C1
100
AcDbEntity
  8
03__ASM_ALL_CURVES
100
AcDbLine
 62
40
  6
CONTINUOUS
 10
7.7893959804
 20
2.7985301826
 11
7.7447035976
 21
2.7985301826
  0
LINE
  5
2C2
100
AcDbEntity
  8
03__ASM_ALL_CURVES
100
AcDbLine
 62
40
  6
CONTINUOUS
 10
7.5033647304
 20
2.7985301826
 11
7.4586723476
 21
2.7985301826
  0
LINE
  5
2C3
100
AcDbEntity
  8
03__ASM_ALL_CURVES
100
AcDbLine
 62
40
  6
CONTINUOUS
 10
6.044926705
 20
2.7985301826
 11
6.0002343221
 21
2.7985301826
  0
LINE
  5
2C4
100
AcDbEntity
  8
03__ASM_ALL_CURVES
100
AcDbLine
 62
40
  6
CONTINUOUS
 10
5.758895455
 20
2.7985301826
 11
5.7142030721
 21
2.7985301826
  0
LINE
  5
2C5
100
AcDbEntity
  8
03__ASM_ALL_CURVES
100
AcDbLine
 62
40
  6
CONTINUOUS
 10
4.6849268242
 20
2.7985301826
 11
4.6402344414
 21
2.7985301826
  0
LINE
  5
2C6
100
AcDbEntity
  8
03__ASM_ALL_CURVES
100
AcDbLine
 62
40
  6
CONTINUOUS
 10
4.3988955742
 20
2.7985301826
 11
4.3542031914
 21
2.7985301826
  0
LINE
  5
2C7
100
AcDbEntity
  8
03__ASM_ALL_CURVES
100
AcDbLine
 62
40
  6
CONTINUOUS
 10
6.3130810018
 20
2.8104481485
 11
6.330957955
 21
2.8104481485
  0
LINE
  5
2C8
100
AcDbEntity
  8
03__ASM_ALL_CURVES
100
AcDbLine
 62
40
  6
CONTINUOUS
 10
4.3542031914
 20
2.8700379951
 11
4.3988955742
 21
2.8700379951
  0
LINE
  5
2C9
100
AcDbEntity
  8
03__ASM_ALL_CURVES
100
AcDbLine
 62
40
  6
CONTINUOUS
 10
4.524034246
 20
2.8700379951
 11
4.5419111992
 21
2.8700379951
  0
LINE
  5
2CA
100
AcDbEntity
  8
03__ASM_ALL_CURVES
100
AcDbLine
 62
40
  6
CONTINUOUS
 10
4.6402344414
 20
2.8700379951
 11
4.6849268242
 21
2.8700379951
  0
LINE
  5
2CB
100
AcDbEntity
  8
03__ASM_ALL_CURVES
100
AcDbLine
 62
40
  6
CONTINUOUS
 10
4.7743115898
 20
2.8700379951
 11
4.8636963554
 21
2.8700379951
  0
LINE
  5
2CC
100
AcDbEntity
  8
03__ASM_ALL_CURVES
100
AcDbLine
 62
40
  6
CONTINUOUS
 10
5.7142030721
 20
2.8700379951
 11
5.758895455
 21
2.8700379951
  0
LINE
  5
2CD
100
AcDbEntity
  8
03__ASM_ALL_CURVES
100
AcDbLine
 62
40
  6
CONTINUOUS
 10
5.8840341268
 20
2.8700379951
 11
5.90191108
 21
2.8700379951
  0
LINE
  5
2CE
100
AcDbEntity
  8
03__ASM_ALL_CURVES
100
AcDbLine
 62
40
  6
CONTINUOUS
 10
6.0002343221
 20
2.8700379951
 11
6.044926705
 21
2.8700379951
  0
LINE
  5
2CF
100
AcDbEntity
  8
03__ASM_ALL_CURVES
100
AcDbLine
 62
40
  6
CONTINUOUS
 10
6.1343114706
 20
2.8700379951
 11
6.2236962362
 21
2.8700379951
  0
LINE
  5
2D0
100
AcDbEntity
  8
03__ASM_ALL_CURVES
100
AcDbLine
 62
40
  6
CONTINUOUS
 10
6.3130810018
 20
2.8700379951
 11
6.330957955
 21
2.8700379951
  0
LINE
  5
2D1
100
AcDbEntity
  8
03__ASM_ALL_CURVES
100
AcDbLine
 62
40
  6
CONTINUOUS
 10
7.4586723476
 20
2.8700379951
 11
7.5033647304
 21
2.8700379951
  0
LINE
  5
2D2
100
AcDbEntity
  8
03__ASM_ALL_CURVES
100
AcDbLine
 62
40
  6
CONTINUOUS
 10
7.6285034023
 20
2.8700379951
 11
7.6463803554
 21
2.8700379951
  0
LINE
  5
2D3
100
AcDbEntity
  8
03__ASM_ALL_CURVES
100
AcDbLine
 62
40
  6
CONTINUOUS
 10
7.7447035976
 20
2.8700379951
 11
7.7893959804
 21
2.8700379951
  0
LINE
  5
2D4
100
AcDbEntity
  8
03__ASM_ALL_CURVES
100
AcDbLine
 62
40
  6
CONTINUOUS
 10
7.8787807461
 20
2.8700379951
 11
7.9681655117
 21
2.8700379951
  0
LINE
  5
2D5
100
AcDbEntity
  8
03__ASM_ALL_CURVES
100
AcDbLine
 62
40
  6
CONTINUOUS
 10
8.0575502773
 20
2.8700379951
 11
8.0754272304
 21
2.8700379951
  0
LINE
  5
2D6
100
AcDbEntity
  8
03__ASM_ALL_CURVES
100
AcDbLine
 62
40
  6
CONTINUOUS
 10
2.675273965
 20
5.7519687451
 11
2.6991099025
 21
5.720187497
  0
LINE
  5
2D7
100
AcDbEntity
  8
03__ASM_ALL_CURVES
100
AcDbLine
 62
40
  6
CONTINUOUS
 10
2.675273965
 20
5.8314218739
 11
2.6871919337
 21
5.8155312413
  0
LINE
  5
2D8
100
AcDbEntity
  8
03__ASM_ALL_CURVES
100
AcDbLine
 62
40
  6
CONTINUOUS
 10
4.6849268242
 20
2.7985301826
 11
4.7117422539
 21
2.7270223701
  0
LINE
  5
2D9
100
AcDbEntity
  8
03__ASM_ALL_CURVES
100
AcDbLine
 62
40
  6
CONTINUOUS
 10
3.8050145881
 20
5.7042968701
 11
3.7930966194
 21
5.7519687451
  0
LINE
  5
2DA
100
AcDbEntity
  8
03__ASM_ALL_CURVES
100
AcDbLine
 62
40
  6
CONTINUOUS
 10
4.5776651054
 20
2.8342840888
 11
4.586603582
 21
2.7985301826
  0
LINE
  5
2DB
100
AcDbEntity
  8
03__ASM_ALL_CURVES
100
AcDbLine
 62
40
  6
CONTINUOUS
 10
4.5796825569
 20
5.6566249951
 11
4.5796825569
 21
5.8473124951
  0
LINE
  5
2DC
100
AcDbEntity
  8
03__ASM_ALL_CURVES
100
AcDbLine
 62
40
  6
CONTINUOUS
 10
4.6402344414
 20
2.7270223701
 11
4.6402344414
 21
2.8700379951
  0
LINE
  5
2DD
100
AcDbEntity
  8
03__ASM_ALL_CURVES
100
AcDbLine
 62
40
  6
CONTINUOUS
 10
4.6750263069
 20
5.6566249951
 11
4.6750263069
 21
5.8473124951
  0
LINE
  5
2DE
100
AcDbEntity
  8
0
100
AcDbLine
 62
7
  6
CONTINUOUS
 10
4.6754575587
 20
4.5659205851
 11
4.6754575587
 21
4.5304399622
  0
LINE
  5
2DF
100
AcDbEntity
  8
0
100
AcDbLine
 62
7
  6
CONTINUOUS
 10
4.6754575587
 20
3.959636028
 11
4.6754575587
 21
3.9240816308
  0
LINE
  5
2E0
100
AcDbEntity
  8
03__ASM_ALL_CURVES
100
AcDbLine
 62
40
  6
CONTINUOUS
 10
4.7117422539
 20
2.8462020548
 11
4.7117422539
 21
2.8223661229
  0
LINE
  5
2E1
100
AcDbEntity
  8
0
100
AcDbLine
 62
7
  6
CONTINUOUS
 10
4.7404575587
 20
4.6409002427
 11
4.7404575587
 21
4.4433280164
  0
LINE
  5
2E2
100
AcDbEntity
  8
0
100
AcDbLine
 62
7
  6
CONTINUOUS
 10
4.7404575587
 20
4.0467479738
 11
4.7404575587
 21
3.8491280468
  0
LINE
  5
2E3
100
AcDbEntity
  8
03__ASM_ALL_CURVES
100
AcDbLine
 62
40
  6
CONTINUOUS
 10
4.8190039726
 20
2.8700379951
 11
4.8190039726
 21
2.7270223701
  0
LINE
  5
2E4
100
AcDbEntity
  8
0
100
AcDbLine
 62
7
  6
CONTINUOUS
 10
4.8344575587
 20
4.672633826
 11
4.8344575587
 21
4.4017742974
  0
LINE
  5
2E5
100
AcDbEntity
  8
0
100
AcDbLine
 62
7
  6
CONTINUOUS
 10
4.8344575587
 20
4.0883016928
 11
4.8344575587
 21
3.8174658367
  0
LINE
  5
2E6
100
AcDbEntity
  8
03__ASM_ALL_CURVES
100
AcDbLine
 62
40
  6
CONTINUOUS
 10
5.2470888069
 20
5.688406246
 11
5.2351708381
 21
5.6725156206
  0
LINE
  5
2E7
100
AcDbEntity
  8
03__ASM_ALL_CURVES
100
AcDbLine
 62
40
  6
CONTINUOUS
 10
5.5212020881
 20
5.7996406201
 11
5.5450380256
 21
5.8314218739
  0
LINE
  5
2E8
100
AcDbEntity
  8
03__ASM_ALL_CURVES
100
AcDbLine
 62
40
  6
CONTINUOUS
 10
5.6403817756
 20
5.7042968701
 11
5.6165458381
 21
5.6725156206
  0
LINE
  5
2E9
100
AcDbEntity
  8
03__ASM_ALL_CURVES
100
AcDbLine
 62
40
  6
CONTINUOUS
 10
5.6165458381
 20
5.6725156206
 11
5.5927099006
 21
5.6566249951
  0
LINE
  5
2EA
100
AcDbEntity
  8
03__ASM_ALL_CURVES
100
AcDbLine
 62
40
  6
CONTINUOUS
 10
5.8072333381
 20
5.6725156206
 11
5.7833974006
 21
5.6566249951
  0
LINE
  5
2EB
100
AcDbEntity
  8
0
100
AcDbLine
 62
7
  6
CONTINUOUS
 10
3.1304575587
 20
3.2155379951
 11
2.0654575587
 21
3.2155379951
  0
LINE
  5
2EC
100
AcDbEntity
  8
0
100
AcDbLine
 62
7
  6
CONTINUOUS
 10
3.2804575587
 20
3.2910379951
 11
3.3304575587
 21
3.2910379951
  0
LINE
  5
2ED
100
AcDbEntity
  8
THREAD
100
AcDbLine
 62
7
  6
CONTINUOUS
 10
3.1774575587
 20
3.2915379951
 11
3.1304575587
 21
3.2915379951
  0
LINE
  5
2EE
100
AcDbEntity
  8
THREAD
100
AcDbLine
 62
7
  6
CONTINUOUS
 10
3.8509575587
 20
3.3035379951
 11
3.3814797727
 21
3.3035379951
  0
LINE
  5
2EF
100
AcDbEntity
  8
0
100
AcDbLine
 62
7
  6
CONTINUOUS
 10
2.003969755
 20
3.3220379951
 11
1.0714301899
 21
3.3220379951
  0
LINE
  5
2F0
100
AcDbEntity
  8
0
100
AcDbLine
 62
7
  6
CONTINUOUS
 10
2.003969755
 20
3.3224333365
 11
1.0714301899
 21
3.3224333365
  0
LINE
  5
2F1
100
AcDbEntity
  8
03__ASM_ALL_CURVES
100
AcDbLine
 62
40
  6
CONTINUOUS
 10
1.1259380275
 20
5.8473124951
 11
1.149773965
 21
5.8314218739
  0
LINE
  5
2F2
100
AcDbEntity
  8
03__ASM_ALL_CURVES
100
AcDbLine
 62
40
  6
CONTINUOUS
 10
5.8840341268
 20
2.7270223701
 11
5.8661571737
 21
2.7389403392
  0
LINE
  5
2F3
100
AcDbEntity
  8
03__ASM_ALL_CURVES
100
AcDbLine
 62
40
  6
CONTINUOUS
 10
5.758895455
 20
2.8700379951
 11
5.7767724081
 21
2.8581200292
  0
LINE
  5
2F4
100
AcDbEntity
  8
03__ASM_ALL_CURVES
100
AcDbLine
 62
40
  6
CONTINUOUS
 10
5.90191108
 20
2.8700379951
 11
5.9197880331
 21
2.8581200292
  0
LINE
  5
2F5
100
AcDbEntity
  8
03__ASM_ALL_CURVES
100
AcDbLine
 62
40
  6
CONTINUOUS
 10
6.044926705
 20
2.8700379951
 11
6.0628036581
 21
2.8581200292
  0
LINE
  5
2F6
100
AcDbEntity
  8
03__ASM_ALL_CURVES
100
AcDbLine
 62
40
  6
CONTINUOUS
 10
6.3130810018
 20
2.7270223701
 11
6.2952040487
 21
2.7389403392
  0
LINE
  5
2F7
100
AcDbEntity
  8
03__ASM_ALL_CURVES
100
AcDbLine
 62
40
  6
CONTINUOUS
 10
1.6980005275
 20
5.8473124951
 11
1.721836465
 21
5.8314218739
  0
LINE
  5
2F8
100
AcDbEntity
  8
03__ASM_ALL_CURVES
100
AcDbLine
 62
40
  6
CONTINUOUS
 10
3.00897709
 20
5.8473124951
 11
3.0328130275
 21
5.8155312413
  0
LINE
  5
2F9
100
AcDbEntity
  8
03__ASM_ALL_CURVES
100
AcDbLine
 62
40
  6
CONTINUOUS
 10
4.0552919319
 20
5.8473124951
 11
4.1148817756
 21
5.6566249951
  0
LINE
  5
2FA
100
AcDbEntity
  8
03__ASM_ALL_CURVES
100
AcDbLine
 62
40
  6
CONTINUOUS
 10
4.8657138069
 20
5.7519687451
 11
4.8657138069
 21
5.688406246
  0
LINE
  5
2FB
100
AcDbEntity
  8
0
100
AcDbLine
 62
7
  6
CONTINUOUS
 10
4.8944575587
 20
4.6762285052
 11
4.8944575587
 21
4.3970850156
  0
LINE
  5
2FC
100
AcDbEntity
  8
0
100
AcDbLine
 62
7
  6
CONTINUOUS
 10
4.8944575587
 20
4.0929909746
 11
4.8944575587
 21
3.8140281747
  0
LINE
  5
2FD
100
AcDbEntity
  8
0
100
AcDbLine
 62
7
  6
CONTINUOUS
 10
4.9014575587
 20
4.6762411215
 11
4.9014575587
 21
4.3987656571
  0
LINE
  5
2FE
100
AcDbEntity
  8
0
100
AcDbLine
 62
7
  6
CONTINUOUS
 10
4.9014575587
 20
3.8140950581
 11
4.9014575587
 21
4.0913098228
  0
LINE
  5
2FF
100
AcDbEntity
  8
0
100
AcDbLine
 62
7
  6
CONTINUOUS
 10
4.9114575587
 20
4.6753516645
 11
4.9114575587
 21
4.4001323284
  0
LINE
  5
300
100
AcDbEntity
  8
0
100
AcDbLine
 62
7
  6
CONTINUOUS
 10
4.9114575587
 20
3.8144714562
 11
4.9114575587
 21
4.0899427366
  0
LINE
  5
301
100
AcDbEntity
  8
0
100
AcDbLine
 62
7
  6
CONTINUOUS
 10
4.9184575587
 20
4.6744536039
 11
4.9184575587
 21
4.4010889983
  0
LINE
  5
302
100
AcDbEntity
  8
0
100
AcDbLine
 62
7
  6
CONTINUOUS
 10
4.9184575587
 20
4.0889857762
 11
4.9184575587
 21
3.8155023694
  0
LINE
  5
303
100
AcDbEntity
  8
0
100
AcDbLine
 62
7
  6
CONTINUOUS
 10
4.9694575587
 20
4.6646277767
 11
4.9694575587
 21
4.4159273516
  0
LINE
  5
304
100
AcDbEntity
  8
0
100
AcDbLine
 62
7
  6
CONTINUOUS
 10
4.9694575587
 20
4.0741491087
 11
4.9694575587
 21
3.8254970614
  0
LINE
  5
305
100
AcDbEntity
  8
0
100
AcDbLine
 62
7
  6
CONTINUOUS
 10
4.9764575587
 20
4.6626939326
 11
4.9764575587
 21
4.4185004341
  0
LINE
  5
306
100
AcDbEntity
  8
0
100
AcDbLine
 62
7
  6
CONTINUOUS
 10
4.9764575587
 20
3.8276543637
 11
4.9764575587
 21
4.0715757086
  0
LINE
  5
307
100
AcDbEntity
  8
0
100
AcDbLine
 62
7
  6
CONTINUOUS
 10
4.9864575587
 20
4.659931298
 11
4.9864575587
 21
4.4236422896
  0
LINE
  5
308
100
AcDbEntity
  8
0
100
AcDbLine
 62
7
  6
CONTINUOUS
 10
4.9864575587
 20
3.8307362242
 11
4.9864575587
 21
4.0664337921
  0
LINE
  5
309
100
AcDbEntity
  8
03__ASM_ALL_CURVES
100
AcDbLine
 62
40
  6
CONTINUOUS
 10
4.9888350273
 20
2.7270223701
 11
4.9888350273
 21
2.8700379951
  0
LINE
  5
30A
100
AcDbEntity
  8
0
100
AcDbLine
 62
7
  6
CONTINUOUS
 10
4.9934575587
 20
4.6569050615
 11
4.9934575587
 21
4.4277614926
  0
LINE
  5
30B
100
AcDbEntity
  8
0
100
AcDbLine
 62
7
  6
CONTINUOUS
 10
4.9934575587
 20
4.0623146856
 11
4.9934575587
 21
3.8328935265
  0
LINE
  5
30C
100
AcDbEntity
  8
0
100
AcDbLine
 62
7
  6
CONTINUOUS
 10
5.0444575587
 20
4.628236842
 11
5.0444575587
 21
4.4653536979
  0
LINE
  5
30D
100
AcDbEntity
  8
0
100
AcDbLine
 62
7
  6
CONTINUOUS
 10
5.0444575587
 20
4.0247231369
 11
5.0444575587
 21
3.8625044262
  0
LINE
  5
30E
100
AcDbEntity
  8
0
100
AcDbLine
 62
7
  6
CONTINUOUS
 10
5.0514575587
 20
4.6227498265
 11
5.0514575587
 21
4.4717332138
  0
LINE
  5
30F
100
AcDbEntity
  8
0
100
AcDbLine
 62
7
  6
CONTINUOUS
 10
5.0514575587
 20
3.868292523
 11
5.0514575587
 21
4.0183440755
  0
LINE
  5
310
100
AcDbEntity
  8
0
100
AcDbLine
 62
7
  6
CONTINUOUS
 10
5.0614575587
 20
4.6124571549
 11
5.0614575587
 21
4.484021792
  0
LINE
  5
311
100
AcDbEntity
  8
0
100
AcDbLine
 62
7
  6
CONTINUOUS
 10
5.0614575587
 20
3.8765612329
 11
5.0614575587
 21
4.0060532774
  0
LINE
  5
312
100
AcDbEntity
  8
0
100
AcDbLine
 62
7
  6
CONTINUOUS
 10
5.0684575587
 20
4.6052522848
 11
5.0684575587
 21
4.4940053156
  0
LINE
  5
313
100
AcDbEntity
  8
0
100
AcDbLine
 62
7
  6
CONTINUOUS
 10
5.0684575587
 20
3.9960710441
 11
5.0684575587
 21
3.8857709285
  0
LINE
  5
314
100
AcDbEntity
  8
0
100
AcDbLine
 62
7
  6
CONTINUOUS
 10
5.0834575587
 20
3.5353755749
 11
5.0834575587
 21
3.7986146209
  0
LINE
  5
315
100
AcDbEntity
  8
0
100
AcDbLine
 62
7
  6
CONTINUOUS
 10
5.0834575587
 20
3.9817989491
 11
5.0834575587
 21
4.5082770411
  0
LINE
  5
316
100
AcDbEntity
  8
0
100
AcDbLine
 62
7
  6
CONTINUOUS
 10
5.0834575587
 20
4.6914613693
 11
5.0834575587
 21
4.9547004153
  0
LINE
  5
317
100
AcDbEntity
  8
03__ASM_ALL_CURVES
100
AcDbLine
 62
40
  6
CONTINUOUS
 10
5.1517450569
 20
5.8155312413
 11
5.1517450569
 21
5.7996406201
  0
LINE
  5
318
100
AcDbEntity
  8
03__ASM_ALL_CURVES
100
AcDbLine
 62
40
  6
CONTINUOUS
 10
4.4793418632
 20
2.7985301826
 11
4.4882803398
 21
2.8342840888
  0
LINE
  5
319
100
AcDbEntity
  8
03__ASM_ALL_CURVES
100
AcDbLine
 62
40
  6
CONTINUOUS
 10
4.586603582
 20
2.7985301826
 11
4.5776651054
 21
2.7627762763
  0
LINE
  5
31A
100
AcDbEntity
  8
03__ASM_ALL_CURVES
100
AcDbLine
 62
40
  6
CONTINUOUS
 10
5.5092841194
 20
5.7519687451
 11
5.5212020881
 21
5.7996406201
  0
LINE
  5
31B
100
AcDbEntity
  8
03__ASM_ALL_CURVES
100
AcDbLine
 62
40
  6
CONTINUOUS
 10
5.8191513069
 20
5.688406246
 11
5.8072333381
 21
5.6725156206
  0
LINE
  5
31C
100
AcDbEntity
  8
THREAD
100
AcDbLine
 62
7
  6
CONTINUOUS
 10
3.9484575587
 20
3.4010379951
 11
3.8509575587
 21
3.3035379951
  0
LINE
  5
31D
100
AcDbEntity
  8
03__ASM_ALL_CURVES
100
AcDbLine
 62
40
  6
CONTINUOUS
 10
6.1766903694
 20
5.6725156206
 11
6.1528544319
 21
5.6566249951
  0
LINE
  5
31E
100
AcDbEntity
  8
03__ASM_ALL_CURVES
100
AcDbLine
 62
40
  6
CONTINUOUS
 10
6.5699833381
 20
5.7678593663
 11
6.5461474006
 21
5.7519687451
  0
LINE
  5
31F
100
AcDbEntity
  8
0
100
AcDbLine
 62
7
  6
CONTINUOUS
 10
5.2714575587
 20
3.3607879951
 11
5.3214575587
 21
3.3607879951
  0
LINE
  5
320
100
AcDbEntity
  8
0
100
AcDbLine
 62
7
  6
CONTINUOUS
 10
5.4244575587
 20
3.3607879951
 11
5.4744575587
 21
3.3607879951
  0
LINE
  5
321
100
AcDbEntity
  8
0
100
AcDbLine
 62
7
  6
CONTINUOUS
 10
5.1774575587
 20
3.3635379951
 11
5.2714575587
 21
3.3635379951
  0
LINE
  5
322
100
AcDbEntity
  8
0
100
AcDbLine
 62
7
  6
CONTINUOUS
 10
5.5089575587
 20
3.3635379951
 11
5.6029575587
 21
3.3635379951
  0
LINE
  5
323
100
AcDbEntity
  8
0
100
AcDbLine
 62
7
  6
CONTINUOUS
 10
7.1029575587
 20
3.3870379951
 11
7.0089575587
 21
3.3870379951
  0
LINE
  5
324
100
AcDbEntity
  8
0
100
AcDbLine
 62
7
  6
CONTINUOUS
 10
6.7714575587
 20
3.3870379951
 11
6.6774575587
 21
3.3870379951
  0
LINE
  5
325
100
AcDbEntity
  8
THREAD
100
AcDbLine
 62
7
  6
CONTINUOUS
 10
4.1794575587
 20
3.4010379951
 11
3.9484575587
 21
3.4010379951
  0
LINE
  5
326
100
AcDbEntity
  8
0
100
AcDbLine
 62
7
  6
CONTINUOUS
 10
6.7714575587
 20
3.4082879951
 11
6.8214575587
 21
3.4082879951
  0
LINE
  5
327
100
AcDbEntity
  8
0
100
AcDbLine
 62
7
  6
CONTINUOUS
 10
6.9244575587
 20
3.4082879951
 11
6.9744575587
 21
3.4082879951
  0
LINE
  5
328
100
AcDbEntity
  8
0
100
AcDbLine
 62
7
  6
CONTINUOUS
 10
8.2694575587
 20
3.4082879951
 11
8.3194575587
 21
3.4082879951
  0
LINE
  5
329
100
AcDbEntity
  8
0
100
AcDbLine
 62
7
  6
CONTINUOUS
 10
8.4224575587
 20
3.4082879951
 11
8.4724575587
 21
3.4082879951
  0
LINE
  5
32A
100
AcDbEntity
  8
0
100
AcDbLine
 62
7
  6
CONTINUOUS
 10
8.6094575587
 20
3.4105379951
 11
8.5069575587
 21
3.4105379951
  0
LINE
  5
32B
100
AcDbEntity
  8
0
100
AcDbLine
 62
7
  6
CONTINUOUS
 10
8.2694575587
 20
3.4105379951
 11
8.1904575587
 21
3.4105379951
  0
LINE
  5
32C
100
AcDbEntity
  8
0
100
AcDbLine
 62
7
  6
CONTINUOUS
 10
5.5089575587
 20
3.4487879951
 11
5.4744575587
 21
3.4487879951
  0
LINE
  5
32D
100
AcDbEntity
  8
0
100
AcDbLine
 62
7
  6
CONTINUOUS
 10
7.0089575587
 20
3.4717879951
 11
6.9744575587
 21
3.4717879951
  0
LINE
  5
32E
100
AcDbEntity
  8
0
100
AcDbLine
 62
7
  6
CONTINUOUS
 10
8.5069575587
 20
3.4962879951
 11
8.4724575587
 21
3.4962879951
  0
LINE
  5
32F
100
AcDbEntity
  8
0
100
AcDbLine
 62
7
  6
CONTINUOUS
 10
5.1053024821
 20
3.5275379951
 11
5.0984666983
 21
3.5275379951
  0
LINE
  5
330
100
AcDbEntity
  8
0
100
AcDbLine
 62
7
  6
CONTINUOUS
 10
4.634742379
 20
3.5275379951
 11
4.1924575587
 21
3.5275379951
  0
LINE
  5
331
100
AcDbEntity
  8
0
100
AcDbLine
 62
7
  6
CONTINUOUS
 10
6.5834575587
 20
3.5422879951
 11
6.2726645542
 21
3.5422879951
  0
LINE
  5
332
100
AcDbEntity
  8
0
100
AcDbLine
 62
7
  6
CONTINUOUS
 10
5.79425091
 20
3.5422879951
 11
5.6969575587
 21
3.5422879951
  0
LINE
  5
333
100
AcDbEntity
  8
0
100
AcDbLine
 62
7
  6
CONTINUOUS
 10
8.0964575587
 20
3.5577879951
 11
7.7136751937
 21
3.5577879951
  0
LINE
  5
334
100
AcDbEntity
  8
0
100
AcDbLine
 62
7
  6
CONTINUOUS
 10
7.2352399243
 20
3.5577879951
 11
7.1969575587
 21
3.5577879951
  0
LINE
  5
335
100
AcDbEntity
  8
03__ASM_ALL_CURVES
100
AcDbLine
 62
40
  6
CONTINUOUS
 10
2.05553959
 20
5.6566249951
 11
2.0317036525
 21
5.6725156206
  0
LINE
  5
336
100
AcDbEntity
  8
03__ASM_ALL_CURVES
100
AcDbLine
 62
40
  6
CONTINUOUS
 10
6.330957955
 20
2.8104481485
 11
6.3488349081
 21
2.7985301826
  0
LINE
  5
337
100
AcDbEntity
  8
03__ASM_ALL_CURVES
100
AcDbLine
 62
40
  6
CONTINUOUS
 10
6.330957955
 20
2.8700379951
 11
6.3488349081
 21
2.8581200292
  0
LINE
  5
338
100
AcDbEntity
  8
03__ASM_ALL_CURVES
100
AcDbLine
 62
40
  6
CONTINUOUS
 10
2.24622709
 20
5.6566249951
 11
2.2223911525
 21
5.6725156206
  0
LINE
  5
339
100
AcDbEntity
  8
03__ASM_ALL_CURVES
100
AcDbLine
 62
40
  6
CONTINUOUS
 10
2.0793755275
 20
5.7837499989
 11
2.103211465
 21
5.7678593663
  0
LINE
  5
33A
100
AcDbEntity
  8
03__ASM_ALL_CURVES
100
AcDbLine
 62
40
  6
CONTINUOUS
 10
2.2700630275
 20
5.7678593663
 11
2.293898965
 21
5.7519687451
  0
LINE
  5
33B
100
AcDbEntity
  8
03__ASM_ALL_CURVES
100
AcDbLine
 62
40
  6
CONTINUOUS
 10
2.2700630275
 20
5.8473124951
 11
2.293898965
 21
5.8314218739
  0
LINE
  5
33C
100
AcDbEntity
  8
THREAD
100
AcDbLine
 62
7
  6
CONTINUOUS
 10
3.9484575587
 20
5.0890379951
 11
3.8509575587
 21
5.1865379951
  0
LINE
  5
33D
100
AcDbEntity
  8
03__ASM_ALL_CURVES
100
AcDbLine
 62
40
  6
CONTINUOUS
 10
3.6381630256
 20
5.6725156206
 11
3.6143270881
 21
5.7042968701
  0
LINE
  5
33E
100
AcDbEntity
  8
03__ASM_ALL_CURVES
100
AcDbLine
 62
40
  6
CONTINUOUS
 10
5.8661571737
 20
2.7389403392
 11
5.8482802206
 21
2.7627762763
  0
LINE
  5
33F
100
AcDbEntity
  8
03__ASM_ALL_CURVES
100
AcDbLine
 62
40
  6
CONTINUOUS
 10
5.7767724081
 20
2.8581200292
 11
5.7857108846
 21
2.8462020548
  0
LINE
  5
340
100
AcDbEntity
  8
03__ASM_ALL_CURVES
100
AcDbLine
 62
40
  6
CONTINUOUS
 10
5.9197880331
 20
2.8581200292
 11
5.9376649862
 21
2.8342840888
  0
LINE
  5
341
100
AcDbEntity
  8
03__ASM_ALL_CURVES
100
AcDbLine
 62
40
  6
CONTINUOUS
 10
3.8288505256
 20
5.6725156206
 11
3.8050145881
 21
5.7042968701
  0
LINE
  5
342
100
AcDbEntity
  8
03__ASM_ALL_CURVES
100
AcDbLine
 62
40
  6
CONTINUOUS
 10
3.7096708381
 20
5.8314218739
 11
3.7335067756
 21
5.7996406201
  0
LINE
  5
343
100
AcDbEntity
  8
03__ASM_ALL_CURVES
100
AcDbLine
 62
40
  6
CONTINUOUS
 10
6.0628036581
 20
2.8581200292
 11
6.0717421346
 21
2.8462020548
  0
LINE
  5
344
100
AcDbEntity
  8
03__ASM_ALL_CURVES
100
AcDbLine
 62
40
  6
CONTINUOUS
 10
4.7584520881
 20
5.7042968701
 11
4.7465341194
 21
5.7519687451
  0
LINE
  5
345
100
AcDbEntity
  8
0
100
AcDbLine
 62
7
  6
CONTINUOUS
 10
5.1774575587
 20
5.1265225877
 11
5.1774575587
 21
3.3635534025
  0
LINE
  5
346
100
AcDbEntity
  8
03__ASM_ALL_CURVES
100
AcDbLine
 62
40
  6
CONTINUOUS
 10
5.2470888069
 20
5.720187497
 11
5.2470888069
 21
5.688406246
  0
LINE
  5
347
100
AcDbEntity
  8
0
100
AcDbLine
 62
7
  6
CONTINUOUS
 10
5.2714575587
 20
3.3607879951
 11
5.2714575587
 21
5.1292879951
  0
LINE
  5
348
100
AcDbEntity
  8
0
100
AcDbLine
 62
7
  6
CONTINUOUS
 10
5.3214575587
 20
3.3607879951
 11
5.3214575587
 21
5.1292879951
  0
LINE
  5
349
100
AcDbEntity
  8
03__ASM_ALL_CURVES
100
AcDbLine
 62
40
  6
CONTINUOUS
 10
5.3424325569
 20
5.8473124951
 11
5.3424325569
 21
5.6566249951
  0
LINE
  5
34A
100
AcDbEntity
  8
0
100
AcDbLine
 62
7
  6
CONTINUOUS
 10
5.4244575587
 20
3.3607879951
 11
5.4244575587
 21
5.1292879951
  0
LINE
  5
34B
100
AcDbEntity
  8
03__ASM_ALL_CURVES
100
AcDbLine
 62
40
  6
CONTINUOUS
 10
5.4377763069
 20
5.8473124951
 11
5.4377763069
 21
5.6566249951
  0
LINE
  5
34C
100
AcDbEntity
  8
0
100
AcDbLine
 62
7
  6
CONTINUOUS
 10
5.4744575587
 20
3.3607879951
 11
5.4744575587
 21
5.1292879951
  0
LINE
  5
34D
100
AcDbEntity
  8
0
100
AcDbLine
 62
7
  6
CONTINUOUS
 10
5.5089575587
 20
5.1265225877
 11
5.5089575587
 21
3.3635534025
  0
LINE
  5
34E
100
AcDbEntity
  8
03__ASM_ALL_CURVES
100
AcDbLine
 62
40
  6
CONTINUOUS
 10
5.6522997444
 20
5.7519687451
 11
5.6403817756
 21
5.7042968701
  0
LINE
  5
34F
100
AcDbEntity
  8
03__ASM_ALL_CURVES
100
AcDbLine
 62
40
  6
CONTINUOUS
 10
6.2005263069
 20
5.7042968701
 11
6.1766903694
 21
5.6725156206
  0
LINE
  5
350
100
AcDbEntity
  8
0
100
AcDbLine
 62
7
  6
CONTINUOUS
 10
4.1924575587
 20
3.4140379951
 11
4.1794575587
 21
3.4010379951
  0
LINE
  5
351
100
AcDbEntity
  8
0
100
AcDbLine
 62
7
  6
CONTINUOUS
 10
2.003969755
 20
3.7603426536
 11
1.0714301899
 21
3.7603426536
  0
LINE
  5
352
100
AcDbEntity
  8
0
100
AcDbLine
 62
7
  6
CONTINUOUS
 10
2.003969755
 20
3.807128678
 11
1.0714301899
 21
3.807128678
  0
LINE
  5
353
100
AcDbEntity
  8
0
100
AcDbLine
 62
7
  6
CONTINUOUS
 10
6.3365869233
 20
3.9640379951
 11
5.9303282243
 21
3.9640379951
  0
LINE
  5
354
100
AcDbEntity
  8
03__ASM_ALL_CURVES
100
AcDbLine
 62
40
  6
CONTINUOUS
 10
2.62760209
 20
5.6566249951
 11
2.6037661525
 21
5.6725156206
  0
LINE
  5
355
100
AcDbEntity
  8
03__ASM_ALL_CURVES
100
AcDbLine
 62
40
  6
CONTINUOUS
 10
2.62760209
 20
5.7678593663
 11
2.6037661525
 21
5.7837499989
  0
LINE
  5
356
100
AcDbEntity
  8
03__ASM_ALL_CURVES
100
AcDbLine
 62
40
  6
CONTINUOUS
 10
2.6514380275
 20
5.7678593663
 11
2.675273965
 21
5.7519687451
  0
LINE
  5
357
100
AcDbEntity
  8
03__ASM_ALL_CURVES
100
AcDbLine
 62
40
  6
CONTINUOUS
 10
2.6514380275
 20
5.8473124951
 11
2.675273965
 21
5.8314218739
  0
LINE
  5
358
100
AcDbEntity
  8
0
100
AcDbLine
 62
7
  6
CONTINUOUS
 10
4.1924575587
 20
5.0760379951
 11
4.1794575587
 21
5.0890379951
  0
LINE
  5
359
100
AcDbEntity
  8
03__ASM_ALL_CURVES
100
AcDbLine
 62
40
  6
CONTINUOUS
 10
3.9003583381
 20
5.8314218739
 11
3.9122763069
 21
5.8155312413
  0
LINE
  5
35A
100
AcDbEntity
  8
03__ASM_ALL_CURVES
100
AcDbLine
 62
40
  6
CONTINUOUS
 10
6.2952040487
 20
2.7389403392
 11
6.2862655721
 21
2.7508583083
  0
LINE
  5
35B
100
AcDbEntity
  8
03__ASM_ALL_CURVES
100
AcDbLine
 62
40
  6
CONTINUOUS
 10
6.3488349081
 20
2.7985301826
 11
6.3667118612
 21
2.7746942465
  0
LINE
  5
35C
100
AcDbEntity
  8
03__ASM_ALL_CURVES
100
AcDbLine
 62
40
  6
CONTINUOUS
 10
6.3488349081
 20
2.8581200292
 11
6.3577733846
 21
2.8462020548
  0
LINE
  5
35D
100
AcDbEntity
  8
03__ASM_ALL_CURVES
100
AcDbLine
 62
40
  6
CONTINUOUS
 10
4.5796825569
 20
5.8473124951
 11
4.6750263069
 21
5.6566249951
  0
LINE
  5
35E
100
AcDbEntity
  8
03__ASM_ALL_CURVES
100
AcDbLine
 62
40
  6
CONTINUOUS
 10
6.044926705
 20
2.7985301826
 11
6.0717421346
 21
2.7270223701
  0
LINE
  5
35F
100
AcDbEntity
  8
03__ASM_ALL_CURVES
100
AcDbLine
 62
40
  6
CONTINUOUS
 10
5.8482802206
 20
2.7627762763
 11
5.839341744
 21
2.7985301826
  0
LINE
  5
360
100
AcDbEntity
  8
0
100
AcDbLine
 62
7
  6
CONTINUOUS
 10
5.6029575587
 20
5.1265225877
 11
5.6029575587
 21
3.3635534025
  0
LINE
  5
361
100
AcDbEntity
  8
0
100
AcDbLine
 62
7
  6
CONTINUOUS
 10
5.6969575587
 20
3.5422879951
 11
5.6969575587
 21
4.9477879951
  0
LINE
  5
362
100
AcDbEntity
  8
03__ASM_ALL_CURVES
100
AcDbLine
 62
40
  6
CONTINUOUS
 10
5.7142030721
 20
2.7270223701
 11
5.7142030721
 21
2.8700379951
  0
LINE
  5
363
100
AcDbEntity
  8
03__ASM_ALL_CURVES
100
AcDbLine
 62
40
  6
CONTINUOUS
 10
5.7238075569
 20
5.688406246
 11
5.7238075569
 21
5.8473124951
  0
LINE
  5
364
100
AcDbEntity
  8
03__ASM_ALL_CURVES
100
AcDbLine
 62
40
  6
CONTINUOUS
 10
5.7857108846
 20
2.8462020548
 11
5.7857108846
 21
2.8223661229
  0
LINE
  5
365
100
AcDbEntity
  8
03__ASM_ALL_CURVES
100
AcDbLine
 62
40
  6
CONTINUOUS
 10
5.8191513069
 20
5.8473124951
 11
5.8191513069
 21
5.688406246
  0
LINE
  5
366
100
AcDbEntity
  8
03__ASM_ALL_CURVES
100
AcDbLine
 62
40
  6
CONTINUOUS
 10
6.2124442756
 20
5.7519687451
 11
6.2005263069
 21
5.7042968701
  0
LINE
  5
367
100
AcDbEntity
  8
03__ASM_ALL_CURVES
100
AcDbLine
 62
40
  6
CONTINUOUS
 10
4.9888350273
 20
2.8700379951
 11
4.9262656914
 21
2.7627762763
  0
LINE
  5
368
100
AcDbEntity
  8
03__ASM_ALL_CURVES
100
AcDbLine
 62
40
  6
CONTINUOUS
 10
6.5819013069
 20
5.7837499989
 11
6.5699833381
 21
5.7678593663
  0
LINE
  5
369
100
AcDbEntity
  8
03__ASM_ALL_CURVES
100
AcDbLine
 62
40
  6
CONTINUOUS
 10
4.4257110039
 20
2.8223661229
 11
4.4167725273
 21
2.8104481485
  0
LINE
  5
36A
100
AcDbEntity
  8
03__ASM_ALL_CURVES
100
AcDbLine
 62
40
  6
CONTINUOUS
 10
4.4882803398
 20
2.8342840888
 11
4.5061572929
 21
2.8581200292
  0
LINE
  5
36B
100
AcDbEntity
  8
03__ASM_ALL_CURVES
100
AcDbLine
 62
40
  6
CONTINUOUS
 10
4.5776651054
 20
2.7627762763
 11
4.5597881523
 21
2.7389403392
  0
LINE
  5
36C
100
AcDbEntity
  8
03__ASM_ALL_CURVES
100
AcDbLine
 62
40
  6
CONTINUOUS
 10
4.7117422539
 20
2.8223661229
 11
4.7028037773
 21
2.8104481485
  0
LINE
  5
36D
100
AcDbEntity
  8
03__ASM_ALL_CURVES
100
AcDbLine
 62
40
  6
CONTINUOUS
 10
10.178165567
 20
4.2831754951
 11
10.1602886139
 21
4.2831754951
  0
LINE
  5
36E
100
AcDbEntity
  8
03__ASM_ALL_CURVES
100
AcDbLine
 62
40
  6
CONTINUOUS
 10
7.6285034023
 20
2.7270223701
 11
7.6106264492
 21
2.7389403392
  0
LINE
  5
36F
100
AcDbEntity
  8
03__ASM_ALL_CURVES
100
AcDbLine
 62
40
  6
CONTINUOUS
 10
7.5033647304
 20
2.8700379951
 11
7.5212416836
 21
2.8581200292
  0
LINE
  5
370
100
AcDbEntity
  8
03__ASM_ALL_CURVES
100
AcDbLine
 62
40
  6
CONTINUOUS
 10
7.6463803554
 20
2.8700379951
 11
7.6642573086
 21
2.8581200292
  0
LINE
  5
371
100
AcDbEntity
  8
03__ASM_ALL_CURVES
100
AcDbLine
 62
40
  6
CONTINUOUS
 10
7.7893959804
 20
2.8700379951
 11
7.8072729336
 21
2.8581200292
  0
LINE
  5
372
100
AcDbEntity
  8
03__ASM_ALL_CURVES
100
AcDbLine
 62
40
  6
CONTINUOUS
 10
3.6619989631
 20
5.6566249951
 11
3.6381630256
 21
5.6725156206
  0
LINE
  5
373
100
AcDbEntity
  8
03__ASM_ALL_CURVES
100
AcDbLine
 62
40
  6
CONTINUOUS
 10
4.7822880256
 20
5.6725156206
 11
4.7584520881
 21
5.7042968701
  0
LINE
  5
374
100
AcDbEntity
  8
03__ASM_ALL_CURVES
100
AcDbLine
 62
40
  6
CONTINUOUS
 10
5.9376649862
 20
2.8342840888
 11
5.9466034628
 21
2.7985301826
  0
LINE
  5
375
100
AcDbEntity
  8
03__ASM_ALL_CURVES
100
AcDbLine
 62
40
  6
CONTINUOUS
 10
5.9144950569
 20
5.8473124951
 11
5.9144950569
 21
5.6566249951
  0
LINE
  5
376
100
AcDbEntity
  8
03__ASM_ALL_CURVES
100
AcDbLine
 62
40
  6
CONTINUOUS
 10
6.0002343221
 20
2.7270223701
 11
6.0002343221
 21
2.8700379951
  0
LINE
  5
377
100
AcDbEntity
  8
03__ASM_ALL_CURVES
100
AcDbLine
 62
40
  6
CONTINUOUS
 10
6.0717421346
 20
2.8462020548
 11
6.0717421346
 21
2.8223661229
  0
LINE
  5
378
100
AcDbEntity
  8
03__ASM_ALL_CURVES
100
AcDbLine
 62
40
  6
CONTINUOUS
 10
6.1051825569
 20
5.6566249951
 11
6.1051825569
 21
5.8473124951
  0
LINE
  5
379
100
AcDbEntity
  8
03__ASM_ALL_CURVES
100
AcDbLine
 62
40
  6
CONTINUOUS
 10
6.1790038534
 20
2.8700379951
 11
6.1790038534
 21
2.7270223701
  0
LINE
  5
37A
100
AcDbEntity
  8
03__ASM_ALL_CURVES
100
AcDbLine
 62
40
  6
CONTINUOUS
 10
10.321181192
 20
4.3546833076
 11
10.2764888092
 21
4.3546833076
  0
LINE
  5
37B
100
AcDbEntity
  8
03__ASM_ALL_CURVES
100
AcDbLine
 62
40
  6
CONTINUOUS
 10
10.035149942
 20
4.3546833076
 11
9.9904575592
 21
4.3546833076
  0
LINE
  5
37C
100
AcDbEntity
  8
03__ASM_ALL_CURVES
100
AcDbLine
 62
40
  6
CONTINUOUS
 10
9.9904575592
 20
4.4261911201
 11
10.035149942
 21
4.4261911201
  0
LINE
  5
37D
100
AcDbEntity
  8
03__ASM_ALL_CURVES
100
AcDbLine
 62
40
  6
CONTINUOUS
 10
10.1602886139
 20
4.4261911201
 11
10.178165567
 21
4.4261911201
  0
LINE
  5
37E
100
AcDbEntity
  8
03__ASM_ALL_CURVES
100
AcDbLine
 62
40
  6
CONTINUOUS
 10
10.2764888092
 20
4.4261911201
 11
10.321181192
 21
4.4261911201
  0
LINE
  5
37F
100
AcDbEntity
  8
03__ASM_ALL_CURVES
100
AcDbLine
 62
40
  6
CONTINUOUS
 10
10.4105659576
 20
4.4261911201
 11
10.4999507232
 21
4.4261911201
  0
LINE
  5
380
100
AcDbEntity
  8
0
100
AcDbLine
 62
7
  6
CONTINUOUS
 10
6.2426547818
 20
4.5260379951
 11
5.8242249409
 21
4.5260379951
  0
LINE
  5
381
100
AcDbEntity
  8
03__ASM_ALL_CURVES
100
AcDbLine
 62
40
  6
CONTINUOUS
 10
3.8526864631
 20
5.6566249951
 11
3.8288505256
 21
5.6725156206
  0
LINE
  5
382
100
AcDbEntity
  8
03__ASM_ALL_CURVES
100
AcDbLine
 62
40
  6
CONTINUOUS
 10
8.0754272304
 20
2.8700379951
 11
8.0933041836
 21
2.8581200292
  0
LINE
  5
383
100
AcDbEntity
  8
03__ASM_ALL_CURVES
100
AcDbLine
 62
40
  6
CONTINUOUS
 10
3.6858349006
 20
5.8473124951
 11
3.7096708381
 21
5.8314218739
  0
LINE
  5
384
100
AcDbEntity
  8
03__ASM_ALL_CURVES
100
AcDbLine
 62
40
  6
CONTINUOUS
 10
3.8765224006
 20
5.8473124951
 11
3.9003583381
 21
5.8314218739
  0
LINE
  5
385
100
AcDbEntity
  8
03__ASM_ALL_CURVES
100
AcDbLine
 62
40
  6
CONTINUOUS
 10
4.8537958381
 20
5.8314218739
 11
4.8657138069
 21
5.8155312413
  0
LINE
  5
386
100
AcDbEntity
  8
03__ASM_ALL_CURVES
100
AcDbLine
 62
40
  6
CONTINUOUS
 10
5.1636630256
 20
5.6725156206
 11
5.1398270881
 21
5.7042968701
  0
LINE
  5
387
100
AcDbEntity
  8
03__ASM_ALL_CURVES
100
AcDbLine
 62
40
  6
CONTINUOUS
 10
5.5212020881
 20
5.7042968701
 11
5.5092841194
 21
5.7519687451
  0
LINE
  5
388
100
AcDbEntity
  8
03__ASM_ALL_CURVES
100
AcDbLine
 62
40
  6
CONTINUOUS
 10
5.6403817756
 20
5.7996406201
 11
5.6522997444
 21
5.7519687451
  0
LINE
  5
389
100
AcDbEntity
  8
03__ASM_ALL_CURVES
100
AcDbLine
 62
40
  6
CONTINUOUS
 10
6.2958700569
 20
5.6566249951
 11
6.2958700569
 21
5.8473124951
  0
LINE
  5
38A
100
AcDbEntity
  8
03__ASM_ALL_CURVES
100
AcDbLine
 62
40
  6
CONTINUOUS
 10
6.3577733846
 20
2.8462020548
 11
6.3577733846
 21
2.8342840888
  0
LINE
  5
38B
100
AcDbEntity
  8
03__ASM_ALL_CURVES
100
AcDbLine
 62
40
  6
CONTINUOUS
 10
6.3667118612
 20
2.7746942465
 11
6.3667118612
 21
2.7627762763
  0
LINE
  5
38C
100
AcDbEntity
  8
03__ASM_ALL_CURVES
100
AcDbLine
 62
40
  6
CONTINUOUS
 10
6.4865575569
 20
5.6566249951
 11
6.4865575569
 21
5.8473124951
  0
LINE
  5
38D
100
AcDbEntity
  8
03__ASM_ALL_CURVES
100
AcDbLine
 62
40
  6
CONTINUOUS
 10
5.839341744
 20
2.7985301826
 11
5.8482802206
 21
2.8342840888
  0
LINE
  5
38E
100
AcDbEntity
  8
03__ASM_ALL_CURVES
100
AcDbLine
 62
40
  6
CONTINUOUS
 10
5.9466034628
 20
2.7985301826
 11
5.9376649862
 21
2.7627762763
  0
LINE
  5
38F
100
AcDbEntity
  8
03__ASM_ALL_CURVES
100
AcDbLine
 62
40
  6
CONTINUOUS
 10
4.4167725273
 20
2.8104481485
 11
4.3988955742
 21
2.7985301826
  0
LINE
  5
390
100
AcDbEntity
  8
03__ASM_ALL_CURVES
100
AcDbLine
 62
40
  6
CONTINUOUS
 10
4.5061572929
 20
2.8581200292
 11
4.524034246
 21
2.8700379951
  0
LINE
  5
391
100
AcDbEntity
  8
03__ASM_ALL_CURVES
100
AcDbLine
 62
40
  6
CONTINUOUS
 10
4.5597881523
 20
2.7389403392
 11
4.5419111992
 21
2.7270223701
  0
LINE
  5
392
100
AcDbEntity
  8
03__ASM_ALL_CURVES
100
AcDbLine
 62
40
  6
CONTINUOUS
 10
4.7028037773
 20
2.8104481485
 11
4.6849268242
 21
2.7985301826
  0
LINE
  5
393
100
AcDbEntity
  8
0
100
AcDbLine
 62
7
  6
CONTINUOUS
 10
2.003969755
 20
4.6829473122
 11
1.0714301899
 21
4.6829473122
  0
LINE
  5
394
100
AcDbEntity
  8
0
100
AcDbLine
 62
7
  6
CONTINUOUS
 10
2.003969755
 20
4.7297333365
 11
1.0714301899
 21
4.7297333365
  0
LINE
  5
395
100
AcDbEntity
  8
0
100
AcDbLine
 62
7
  6
CONTINUOUS
 10
8.0964575587
 20
4.9322879951
 11
7.7136751937
 21
4.9322879951
  0
LINE
  5
396
100
AcDbEntity
  8
0
100
AcDbLine
 62
7
  6
CONTINUOUS
 10
7.2352399243
 20
4.9322879951
 11
7.1969575587
 21
4.9322879951
  0
LINE
  5
397
100
AcDbEntity
  8
0
100
AcDbLine
 62
7
  6
CONTINUOUS
 10
6.5834575587
 20
4.9477879951
 11
6.3524575587
 21
4.9477879951
  0
LINE
  5
398
100
AcDbEntity
  8
0
100
AcDbLine
 62
7
  6
CONTINUOUS
 10
5.9144575587
 20
4.9477879951
 11
5.6969575587
 21
4.9477879951
  0
LINE
  5
399
100
AcDbEntity
  8
0
100
AcDbLine
 62
7
  6
CONTINUOUS
 10
4.634742379
 20
4.9625379951
 11
4.1924575587
 21
4.9625379951
  0
LINE
  5
39A
100
AcDbEntity
  8
0
100
AcDbLine
 62
7
  6
CONTINUOUS
 10
5.0984666983
 20
4.9625379951
 11
5.1053024821
 21
4.9625379951
  0
LINE
  5
39B
100
AcDbEntity
  8
0
100
AcDbLine
 62
7
  6
CONTINUOUS
 10
8.5069575587
 20
4.9937879951
 11
8.4724575587
 21
4.9937879951
  0
LINE
  5
39C
100
AcDbEntity
  8
03__ASM_ALL_CURVES
100
AcDbLine
 62
40
  6
CONTINUOUS
 10
1.2332825587
 20
5.5485687451
 11
1.0044575587
 21
5.5803499951
  0
LINE
  5
39D
100
AcDbEntity
  8
03__ASM_ALL_CURVES
100
AcDbLine
 62
40
  6
CONTINUOUS
 10
1.2332825587
 20
5.5422124951
 11
1.0044575587
 21
5.5803499951
  0
LINE
  5
39E
100
AcDbEntity
  8
03__ASM_ALL_CURVES
100
AcDbLine
 62
40
  6
CONTINUOUS
 10
4.8061239631
 20
5.6566249951
 11
4.7822880256
 21
5.6725156206
  0
LINE
  5
39F
100
AcDbEntity
  8
03__ASM_ALL_CURVES
100
AcDbLine
 62
40
  6
CONTINUOUS
 10
5.1517450569
 20
5.7996406201
 11
5.1636630256
 21
5.7837499989
  0
LINE
  5
3A0
100
AcDbEntity
  8
03__ASM_ALL_CURVES
100
AcDbLine
 62
40
  6
CONTINUOUS
 10
5.2351708381
 20
5.7360781182
 11
5.2470888069
 21
5.720187497
  0
LINE
  5
3A1
100
AcDbEntity
  8
03__ASM_ALL_CURVES
100
AcDbLine
 62
40
  6
CONTINUOUS
 10
5.2470888069
 20
5.8155312413
 11
5.2351708381
 21
5.8314218739
  0
LINE
  5
3A2
100
AcDbEntity
  8
03__ASM_ALL_CURVES
100
AcDbLine
 62
40
  6
CONTINUOUS
 10
7.6106264492
 20
2.7389403392
 11
7.5927494961
 21
2.7627762763
  0
LINE
  5
3A3
100
AcDbEntity
  8
03__ASM_ALL_CURVES
100
AcDbLine
 62
40
  6
CONTINUOUS
 10
7.5212416836
 20
2.8581200292
 11
7.5301801601
 21
2.8462020548
  0
LINE
  5
3A4
100
AcDbEntity
  8
03__ASM_ALL_CURVES
100
AcDbLine
 62
40
  6
CONTINUOUS
 10
5.5450380256
 20
5.6725156206
 11
5.5212020881
 21
5.7042968701
  0
LINE
  5
3A5
100
AcDbEntity
  8
03__ASM_ALL_CURVES
100
AcDbLine
 62
40
  6
CONTINUOUS
 10
7.6642573086
 20
2.8581200292
 11
7.6821342617
 21
2.8342840888
  0
LINE
  5
3A6
100
AcDbEntity
  8
03__ASM_ALL_CURVES
100
AcDbLine
 62
40
  6
CONTINUOUS
 10
6.5819013069
 20
5.8155312413
 11
6.5819013069
 21
5.7837499989
  0
LINE
  5
3A7
100
AcDbEntity
  8
0
100
AcDbLine
 62
7
  6
CONTINUOUS
 10
6.5834575587
 20
3.5422879951
 11
6.5834575587
 21
4.9477879951
  0
LINE
  5
3A8
100
AcDbEntity
  8
0
100
AcDbLine
 62
7
  6
CONTINUOUS
 10
6.6774575587
 20
3.3870529917
 11
6.6774575587
 21
5.1030229984
  0
LINE
  5
3A9
100
AcDbEntity
  8
0
100
AcDbLine
 62
7
  6
CONTINUOUS
 10
6.7714575587
 20
3.3870529917
 11
6.7714575587
 21
5.1030229984
  0
LINE
  5
3AA
100
AcDbEntity
  8
0
100
AcDbLine
 62
7
  6
CONTINUOUS
 10
6.8214575587
 20
3.4082879951
 11
6.8214575587
 21
5.0817879951
  0
LINE
  5
3AB
100
AcDbEntity
  8
03__ASM_ALL_CURVES
100
AcDbLine
 62
40
  6
CONTINUOUS
 10
5.7857108846
 20
2.8223661229
 11
5.7767724081
 21
2.8104481485
  0
LINE
  5
3AC
100
AcDbEntity
  8
03__ASM_ALL_CURVES
100
AcDbLine
 62
40
  6
CONTINUOUS
 10
5.8482802206
 20
2.8342840888
 11
5.8661571737
 21
2.8581200292
  0
LINE
  5
3AD
100
AcDbEntity
  8
03__ASM_ALL_CURVES
100
AcDbLine
 62
40
  6
CONTINUOUS
 10
5.9376649862
 20
2.7627762763
 11
5.9197880331
 21
2.7389403392
  0
LINE
  5
3AE
100
AcDbEntity
  8
0
100
AcDbLine
 62
7
  6
CONTINUOUS
 10
7.0089575587
 20
5.0182879951
 11
6.9744575587
 21
5.0182879951
  0
LINE
  5
3AF
100
AcDbEntity
  8
0
100
AcDbLine
 62
7
  6
CONTINUOUS
 10
5.5089575587
 20
5.0412879951
 11
5.4744575587
 21
5.0412879951
  0
LINE
  5
3B0
100
AcDbEntity
  8
0
100
AcDbLine
 62
7
  6
CONTINUOUS
 10
8.6094575587
 20
5.0795379951
 11
8.5069575587
 21
5.0795379951
  0
LINE
  5
3B1
100
AcDbEntity
  8
0
100
AcDbLine
 62
7
  6
CONTINUOUS
 10
8.2694575587
 20
5.0795379951
 11
8.1904575587
 21
5.0795379951
  0
LINE
  5
3B2
100
AcDbEntity
  8
0
100
AcDbLine
 62
7
  6
CONTINUOUS
 10
6.7714575587
 20
5.0817879951
 11
6.8214575587
 21
5.0817879951
  0
LINE
  5
3B3
100
AcDbEntity
  8
0
100
AcDbLine
 62
7
  6
CONTINUOUS
 10
6.9244575587
 20
5.0817879951
 11
6.9744575587
 21
5.0817879951
  0
LINE
  5
3B4
100
AcDbEntity
  8
0
100
AcDbLine
 62
7
  6
CONTINUOUS
 10
8.2694575587
 20
5.0817879951
 11
8.3194575587
 21
5.0817879951
  0
LINE
  5
3B5
100
AcDbEntity
  8
0
100
AcDbLine
 62
7
  6
CONTINUOUS
 10
8.4224575587
 20
5.0817879951
 11
8.4724575587
 21
5.0817879951
  0
LINE
  5
3B6
100
AcDbEntity
  8
THREAD
100
AcDbLine
 62
7
  6
CONTINUOUS
 10
4.1794575587
 20
5.0890379951
 11
3.9484575587
 21
5.0890379951
  0
LINE
  5
3B7
100
AcDbEntity
  8
0
100
AcDbLine
 62
7
  6
CONTINUOUS
 10
7.1029575587
 20
5.1030379951
 11
7.0089575587
 21
5.1030379951
  0
LINE
  5
3B8
100
AcDbEntity
  8
0
100
AcDbLine
 62
7
  6
CONTINUOUS
 10
6.7714575587
 20
5.1030379951
 11
6.6774575587
 21
5.1030379951
  0
LINE
  5
3B9
100
AcDbEntity
  8
0
100
AcDbLine
 62
7
  6
CONTINUOUS
 10
5.1774575587
 20
5.1265379951
 11
5.2714575587
 21
5.1265379951
  0
LINE
  5
3BA
100
AcDbEntity
  8
0
100
AcDbLine
 62
7
  6
CONTINUOUS
 10
5.5089575587
 20
5.1265379951
 11
5.6029575587
 21
5.1265379951
  0
LINE
  5
3BB
100
AcDbEntity
  8
0
100
AcDbLine
 62
7
  6
CONTINUOUS
 10
5.2714575587
 20
5.1292879951
 11
5.3214575587
 21
5.1292879951
  0
LINE
  5
3BC
100
AcDbEntity
  8
0
100
AcDbLine
 62
7
  6
CONTINUOUS
 10
5.4244575587
 20
5.1292879951
 11
5.4744575587
 21
5.1292879951
  0
LINE
  5
3BD
100
AcDbEntity
  8
0
100
AcDbLine
 62
7
  6
CONTINUOUS
 10
2.003969755
 20
5.1676426536
 11
1.0714301899
 21
5.1676426536
  0
LINE
  5
3BE
100
AcDbEntity
  8
0
100
AcDbLine
 62
7
  6
CONTINUOUS
 10
2.003969755
 20
5.1680379951
 11
1.0714301899
 21
5.1680379951
  0
LINE
  5
3BF
100
AcDbEntity
  8
THREAD
100
AcDbLine
 62
7
  6
CONTINUOUS
 10
3.8509575587
 20
5.1865379951
 11
3.3814797727
 21
5.1865379951
  0
LINE
  5
3C0
100
AcDbEntity
  8
THREAD
100
AcDbLine
 62
7
  6
CONTINUOUS
 10
3.1774575587
 20
5.1985379951
 11
3.1304575587
 21
5.1985379951
  0
LINE
  5
3C1
100
AcDbEntity
  8
0
100
AcDbLine
 62
7
  6
CONTINUOUS
 10
3.2804575587
 20
5.1990379951
 11
3.3304575587
 21
5.1990379951
  0
LINE
  5
3C2
100
AcDbEntity
  8
0
100
AcDbLine
 62
7
  6
CONTINUOUS
 10
3.1304575587
 20
5.2745379951
 11
2.0654575587
 21
5.2745379951
  0
LINE
  5
3C3
100
AcDbEntity
  8
03__ASM_ALL_CURVES
100
AcDbLine
 62
40
  6
CONTINUOUS
 10
1.2332825587
 20
5.5676374951
 11
1.0044575587
 21
5.5803499951
  0
LINE
  5
3C4
100
AcDbEntity
  8
03__ASM_ALL_CURVES
100
AcDbLine
 62
40
  6
CONTINUOUS
 10
1.2332825587
 20
5.5612812451
 11
1.0044575587
 21
5.5803499951
  0
LINE
  5
3C5
100
AcDbEntity
  8
03__ASM_ALL_CURVES
100
AcDbLine
 62
40
  6
CONTINUOUS
 10
1.2332825587
 20
5.5549249951
 11
1.0044575587
 21
5.5803499951
  0
LINE
  5
3C6
100
AcDbEntity
  8
03__ASM_ALL_CURVES
100
AcDbLine
 62
40
  6
CONTINUOUS
 10
2.9016325587
 20
5.6057749951
 11
3.3592825587
 21
5.5549249951
  0
LINE
  5
3C7
100
AcDbEntity
  8
03__ASM_ALL_CURVES
100
AcDbLine
 62
40
  6
CONTINUOUS
 10
2.9016325587
 20
5.6121312451
 11
3.3592825587
 21
5.5485687451
  0
LINE
  5
3C8
100
AcDbEntity
  8
03__ASM_ALL_CURVES
100
AcDbLine
 62
40
  6
CONTINUOUS
 10
3.3592825587
 20
5.5422124951
 11
2.9016325587
 21
5.6184874951
  0
LINE
  5
3C9
100
AcDbEntity
  8
03__ASM_ALL_CURVES
100
AcDbLine
 62
40
  6
CONTINUOUS
 10
4.8299599006
 20
5.8473124951
 11
4.8537958381
 21
5.8314218739
  0
LINE
  5
3CA
100
AcDbEntity
  8
03__ASM_ALL_CURVES
100
AcDbLine
 62
40
  6
CONTINUOUS
 10
5.1874989631
 20
5.6566249951
 11
5.1636630256
 21
5.6725156206
  0
LINE
  5
3CB
100
AcDbEntity
  8
03__ASM_ALL_CURVES
100
AcDbLine
 62
40
  6
CONTINUOUS
 10
5.1636630256
 20
5.7837499989
 11
5.2351708381
 21
5.7360781182
  0
LINE
  5
3CC
100
AcDbEntity
  8
03__ASM_ALL_CURVES
100
AcDbLine
 62
40
  6
CONTINUOUS
 10
5.2351708381
 20
5.8314218739
 11
5.2113349006
 21
5.8473124951
  0
LINE
  5
3CD
100
AcDbEntity
  8
03__ASM_ALL_CURVES
100
AcDbLine
 62
40
  6
CONTINUOUS
 10
5.5688739631
 20
5.6566249951
 11
5.5450380256
 21
5.6725156206
  0
LINE
  5
3CE
100
AcDbEntity
  8
03__ASM_ALL_CURVES
100
AcDbLine
 62
40
  6
CONTINUOUS
 10
7.8072729336
 20
2.8581200292
 11
7.8162114101
 21
2.8462020548
  0
LINE
  5
3CF
100
AcDbEntity
  8
03__ASM_ALL_CURVES
100
AcDbLine
 62
40
  6
CONTINUOUS
 10
5.7357255256
 20
5.6725156206
 11
5.7238075569
 21
5.688406246
  0
LINE
  5
3D0
100
AcDbEntity
  8
03__ASM_ALL_CURVES
100
AcDbLine
 62
40
  6
CONTINUOUS
 10
5.6165458381
 20
5.8314218739
 11
5.6403817756
 21
5.7996406201
  0
LINE
  5
3D1
100
AcDbEntity
  8
03__ASM_ALL_CURVES
100
AcDbLine
 62
40
  6
CONTINUOUS
 10
8.0933041836
 20
2.8581200292
 11
8.1022426601
 21
2.8462020548
  0
LINE
  5
3D2
100
AcDbEntity
  8
03__ASM_ALL_CURVES
100
AcDbLine
 62
40
  6
CONTINUOUS
 10
6.2005263069
 20
5.7996406201
 11
6.2124442756
 21
5.7519687451
  0
LINE
  5
3D3
100
AcDbEntity
  8
0
100
AcDbLine
 62
7
  6
CONTINUOUS
 10
6.9244575587
 20
3.4082879951
 11
6.9244575587
 21
5.0817879951
  0
LINE
  5
3D4
100
AcDbEntity
  8
0
100
AcDbLine
 62
7
  6
CONTINUOUS
 10
6.9744575587
 20
3.4082879951
 11
6.9744575587
 21
5.0817879951
  0
LINE
  5
3D5
100
AcDbEntity
  8
0
100
AcDbLine
 62
7
  6
CONTINUOUS
 10
7.0089575587
 20
3.3870529917
 11
7.0089575587
 21
5.1030229984
  0
LINE
  5
3D6
100
AcDbEntity
  8
0
100
AcDbLine
 62
7
  6
CONTINUOUS
 10
7.1029575587
 20
3.3870529917
 11
7.1029575587
 21
5.1030229984
  0
LINE
  5
3D7
100
AcDbEntity
  8
03__ASM_ALL_CURVES
100
AcDbLine
 62
40
  6
CONTINUOUS
 10
6.0717421346
 20
2.8223661229
 11
6.0628036581
 21
2.8104481485
  0
LINE
  5
3D8
100
AcDbEntity
  8
03__ASM_ALL_CURVES
100
AcDbLine
 62
40
  6
CONTINUOUS
 10
6.3577733846
 20
2.8342840888
 11
6.3488349081
 21
2.8223661229
  0
LINE
  5
3D9
100
AcDbEntity
  8
03__ASM_ALL_CURVES
100
AcDbLine
 62
40
  6
CONTINUOUS
 10
6.3667118612
 20
2.7627762763
 11
6.3488349081
 21
2.7389403392
  0
LINE
  5
3DA
100
AcDbEntity
  8
03__ASM_ALL_CURVES
100
AcDbLine
 62
40
  6
CONTINUOUS
 10
5.7767724081
 20
2.8104481485
 11
5.758895455
 21
2.7985301826
  0
LINE
  5
3DB
100
AcDbEntity
  8
03__ASM_ALL_CURVES
100
AcDbLine
 62
40
  6
CONTINUOUS
 10
5.8661571737
 20
2.8581200292
 11
5.8840341268
 21
2.8700379951
  0
LINE
  5
3DC
100
AcDbEntity
  8
03__ASM_ALL_CURVES
100
AcDbLine
 62
40
  6
CONTINUOUS
 10
5.9197880331
 20
2.7389403392
 11
5.90191108
 21
2.7270223701
  0
LINE
  5
3DD
100
AcDbEntity
  8
03__ASM_ALL_CURVES
100
AcDbLine
 62
40
  6
CONTINUOUS
 10
6.0628036581
 20
2.8104481485
 11
6.044926705
 21
2.7985301826
  0
LINE
  5
3DE
100
AcDbEntity
  8
03__ASM_ALL_CURVES
100
AcDbLine
 62
40
  6
CONTINUOUS
 10
2.9016325587
 20
5.5739937451
 11
3.3592825587
 21
5.5867062451
  0
LINE
  5
3DF
100
AcDbEntity
  8
03__ASM_ALL_CURVES
100
AcDbLine
 62
40
  6
CONTINUOUS
 10
1.0044575587
 20
5.5803499951
 11
6.7916575587
 21
5.5803499951
  0
LINE
  5
3E0
100
AcDbEntity
  8
03__ASM_ALL_CURVES
100
AcDbLine
 62
40
  6
CONTINUOUS
 10
6.3912138069
 20
5.6566249951
 11
6.2958700569
 21
5.6566249951
  0
LINE
  5
3E1
100
AcDbEntity
  8
03__ASM_ALL_CURVES
100
AcDbLine
 62
40
  6
CONTINUOUS
 10
6.1528544319
 20
5.6566249951
 11
6.1051825569
 21
5.6566249951
  0
LINE
  5
3E2
100
AcDbEntity
  8
03__ASM_ALL_CURVES
100
AcDbLine
 62
40
  6
CONTINUOUS
 10
5.7833974006
 20
5.6566249951
 11
5.7595614631
 21
5.6566249951
  0
LINE
  5
3E3
100
AcDbEntity
  8
03__ASM_ALL_CURVES
100
AcDbLine
 62
40
  6
CONTINUOUS
 10
5.5927099006
 20
5.6566249951
 11
5.5688739631
 21
5.6566249951
  0
LINE
  5
3E4
100
AcDbEntity
  8
03__ASM_ALL_CURVES
100
AcDbLine
 62
40
  6
CONTINUOUS
 10
5.2113349006
 20
5.6566249951
 11
5.1874989631
 21
5.6566249951
  0
LINE
  5
3E5
100
AcDbEntity
  8
03__ASM_ALL_CURVES
100
AcDbLine
 62
40
  6
CONTINUOUS
 10
4.8299599006
 20
5.6566249951
 11
4.8061239631
 21
5.6566249951
  0
LINE
  5
3E6
100
AcDbEntity
  8
03__ASM_ALL_CURVES
100
AcDbLine
 62
40
  6
CONTINUOUS
 10
3.8765224006
 20
5.6566249951
 11
3.8526864631
 21
5.6566249951
  0
LINE
  5
3E7
100
AcDbEntity
  8
03__ASM_ALL_CURVES
100
AcDbLine
 62
40
  6
CONTINUOUS
 10
3.6858349006
 20
5.6566249951
 11
3.6619989631
 21
5.6566249951
  0
LINE
  5
3E8
100
AcDbEntity
  8
03__ASM_ALL_CURVES
100
AcDbLine
 62
40
  6
CONTINUOUS
 10
2.6514380275
 20
5.6566249951
 11
2.62760209
 21
5.6566249951
  0
LINE
  5
3E9
100
AcDbEntity
  8
03__ASM_ALL_CURVES
100
AcDbLine
 62
40
  6
CONTINUOUS
 10
2.4488325587
 20
5.6566249951
 11
2.43691459
 21
5.6566249951
  0
LINE
  5
3EA
100
AcDbEntity
  8
03__ASM_ALL_CURVES
100
AcDbLine
 62
40
  6
CONTINUOUS
 10
2.2700630275
 20
5.6566249951
 11
2.24622709
 21
5.6566249951
  0
LINE
  5
3EB
100
AcDbEntity
  8
03__ASM_ALL_CURVES
100
AcDbLine
 62
40
  6
CONTINUOUS
 10
2.0793755275
 20
5.6566249951
 11
2.05553959
 21
5.6566249951
  0
LINE
  5
3EC
100
AcDbEntity
  8
03__ASM_ALL_CURVES
100
AcDbLine
 62
40
  6
CONTINUOUS
 10
1.3047075587
 20
5.6566249951
 11
1.29278959
 21
5.6566249951
  0
LINE
  5
3ED
100
AcDbEntity
  8
03__ASM_ALL_CURVES
100
AcDbLine
 62
40
  6
CONTINUOUS
 10
1.0663481837
 20
5.6566249951
 11
1.1616919337
 21
5.6566249951
  0
LINE
  5
3EE
100
AcDbEntity
  8
03__ASM_ALL_CURVES
100
AcDbLine
 62
40
  6
CONTINUOUS
 10
1.6384106837
 20
5.6566249951
 11
1.7337544337
 21
5.6566249951
  0
LINE
  5
3EF
100
AcDbEntity
  8
03__ASM_ALL_CURVES
100
AcDbLine
 62
40
  6
CONTINUOUS
 10
3.4355575569
 20
5.6566249951
 11
3.5309013069
 21
5.6566249951
  0
LINE
  5
3F0
100
AcDbEntity
  8
03__ASM_ALL_CURVES
100
AcDbLine
 62
40
  6
CONTINUOUS
 10
5.9144950569
 20
5.6566249951
 11
6.0098388069
 21
5.6566249951
  0
LINE
  5
3F1
100
AcDbEntity
  8
03__ASM_ALL_CURVES
100
AcDbLine
 62
40
  6
CONTINUOUS
 10
1.2332825587
 20
5.5739937451
 11
1.0044575587
 21
5.5803499951
  0
LINE
  5
3F2
100
AcDbEntity
  8
03__ASM_ALL_CURVES
100
AcDbLine
 62
40
  6
CONTINUOUS
 10
2.9016325587
 20
5.5867062451
 11
3.3592825587
 21
5.5739937451
  0
LINE
  5
3F3
100
AcDbEntity
  8
03__ASM_ALL_CURVES
100
AcDbLine
 62
40
  6
CONTINUOUS
 10
2.9016325587
 20
5.5930624951
 11
3.3592825587
 21
5.5676374951
  0
LINE
  5
3F4
100
AcDbEntity
  8
03__ASM_ALL_CURVES
100
AcDbLine
 62
40
  6
CONTINUOUS
 10
2.9016325587
 20
5.5994187451
 11
3.3592825587
 21
5.5612812451
  0
LINE
  5
3F5
100
AcDbEntity
  8
03__ASM_ALL_CURVES
100
AcDbLine
 62
40
  6
CONTINUOUS
 10
5.7595614631
 20
5.6566249951
 11
5.7357255256
 21
5.6725156206
  0
LINE
  5
3F6
100
AcDbEntity
  8
03__ASM_ALL_CURVES
100
AcDbLine
 62
40
  6
CONTINUOUS
 10
5.5927099006
 20
5.8473124951
 11
5.6165458381
 21
5.8314218739
  0
LINE
  5
3F7
100
AcDbEntity
  8
03__ASM_ALL_CURVES
100
AcDbLine
 62
40
  6
CONTINUOUS
 10
6.1766903694
 20
5.8314218739
 11
6.2005263069
 21
5.7996406201
  0
LINE
  5
3F8
100
AcDbEntity
  8
03__ASM_ALL_CURVES
100
AcDbLine
 62
40
  6
CONTINUOUS
 10
6.5461474006
 20
5.7519687451
 11
6.5819013069
 21
5.6566249951
  0
LINE
  5
3F9
100
AcDbEntity
  8
03__ASM_ALL_CURVES
100
AcDbLine
 62
40
  6
CONTINUOUS
 10
7.7893959804
 20
2.7985301826
 11
7.8162114101
 21
2.7270223701
  0
LINE
  5
3FA
100
AcDbEntity
  8
03__ASM_ALL_CURVES
100
AcDbLine
 62
40
  6
CONTINUOUS
 10
7.5927494961
 20
2.7627762763
 11
7.5838110195
 21
2.7985301826
  0
LINE
  5
3FB
100
AcDbEntity
  8
0
100
AcDbLine
 62
7
  6
CONTINUOUS
 10
7.1969575587
 20
3.5577879951
 11
7.1969575587
 21
4.9322879951
  0
LINE
  5
3FC
100
AcDbEntity
  8
0
100
AcDbLine
 62
7
  6
CONTINUOUS
 10
7.2894575587
 20
4.605200914
 11
7.2894575587
 21
4.4710317803
  0
LINE
  5
3FD
100
AcDbEntity
  8
0
100
AcDbLine
 62
7
  6
CONTINUOUS
 10
7.2894575587
 20
4.0190442099
 11
7.2894575587
 21
3.884958551
  0
LINE
  5
3FE
100
AcDbEntity
  8
0
100
AcDbLine
 62
7
  6
CONTINUOUS
 10
7.2964575587
 20
4.6124588888
 11
7.2964575587
 21
4.4610317977
  0
LINE
  5
3FF
100
AcDbEntity
  8
0
100
AcDbLine
 62
7
  6
CONTINUOUS
 10
7.2964575587
 20
3.8775990635
 11
7.2964575587
 21
4.0290441925
  0
LINE
  5
400
100
AcDbEntity
  8
0
100
AcDbLine
 62
7
  6
CONTINUOUS
 10
7.3064575587
 20
4.6228274243
 11
7.3064575587
 21
4.4509631747
  0
LINE
  5
401
100
AcDbEntity
  8
0
100
AcDbLine
 62
7
  6
CONTINUOUS
 10
7.3064575587
 20
3.8670855099
 11
7.3064575587
 21
4.0391128155
  0
LINE
  5
402
100
AcDbEntity
  8
0
100
AcDbLine
 62
7
  6
CONTINUOUS
 10
7.3134575587
 20
4.6281989816
 11
7.3134575587
 21
4.4439151386
  0
LINE
  5
403
100
AcDbEntity
  8
0
100
AcDbLine
 62
7
  6
CONTINUOUS
 10
7.3134575587
 20
4.0461608516
 11
7.3134575587
 21
3.8619579057
  0
LINE
  5
404
100
AcDbEntity
  8
0
100
AcDbLine
 62
7
  6
CONTINUOUS
 10
7.3644575587
 20
4.6569790815
 11
7.3644575587
 21
4.4077097223
  0
LINE
  5
405
100
AcDbEntity
  8
0
100
AcDbLine
 62
7
  6
CONTINUOUS
 10
7.3644575587
 20
4.0823662679
 11
7.3644575587
 21
3.8330543584
  0
LINE
  5
406
100
AcDbEntity
  8
0
100
AcDbLine
 62
7
  6
CONTINUOUS
 10
7.3714575587
 20
4.6598475589
 11
7.3714575587
 21
4.4047455267
  0
LINE
  5
407
100
AcDbEntity
  8
0
100
AcDbLine
 62
7
  6
CONTINUOUS
 10
7.3714575587
 20
3.8302827183
 11
7.3714575587
 21
4.0853304635
  0
LINE
  5
408
100
AcDbEntity
  8
0
100
AcDbLine
 62
7
  6
CONTINUOUS
 10
7.3814575587
 20
4.6626556835
 11
7.3814575587
 21
4.4005109616
  0
LINE
  5
409
100
AcDbEntity
  8
0
100
AcDbLine
 62
7
  6
CONTINUOUS
 10
7.3814575587
 20
3.8274600855
 11
7.3814575587
 21
4.0895650286
  0
LINE
  5
40A
100
AcDbEntity
  8
0
100
AcDbLine
 62
7
  6
CONTINUOUS
 10
7.3884575587
 20
4.6646213707
 11
7.3884575587
 21
4.397546766
  0
LINE
  5
40B
100
AcDbEntity
  8
0
100
AcDbLine
 62
7
  6
CONTINUOUS
 10
7.3884575587
 20
4.0925292242
 11
7.3884575587
 21
3.8254842426
  0
LINE
  5
40C
100
AcDbEntity
  8
0
100
AcDbLine
 62
7
  6
CONTINUOUS
 10
7.4394575587
 20
4.674483756
 11
7.4394575587
 21
4.3836479957
  0
LINE
  5
40D
100
AcDbEntity
  8
0
100
AcDbLine
 62
7
  6
CONTINUOUS
 10
7.4394575587
 20
4.1064279945
 11
7.4394575587
 21
3.8156309258
  0
LINE
  5
40E
100
AcDbEntity
  8
0
100
AcDbLine
 62
7
  6
CONTINUOUS
 10
7.4464575587
 20
4.6754087211
 11
7.4464575587
 21
4.3836479957
  0
LINE
  5
40F
100
AcDbEntity
  8
0
100
AcDbLine
 62
7
  6
CONTINUOUS
 10
7.4464575587
 20
3.8147148111
 11
7.4464575587
 21
4.1064279945
  0
LINE
  5
410
100
AcDbEntity
  8
0
100
AcDbLine
 62
7
  6
CONTINUOUS
 10
7.4564575587
 20
4.6761762378
 11
7.4564575587
 21
4.3824924721
  0
LINE
  5
411
100
AcDbEntity
  8
0
100
AcDbLine
 62
7
  6
CONTINUOUS
 10
7.4564575587
 20
3.8138610609
 11
7.4564575587
 21
4.1075845579
  0
LINE
  5
412
100
AcDbEntity
  8
03__ASM_ALL_CURVES
100
AcDbLine
 62
40
  6
CONTINUOUS
 10
7.4586723476
 20
2.7270223701
 11
7.4586723476
 21
2.8700379951
  0
LINE
  5
413
100
AcDbEntity
  8
0
100
AcDbLine
 62
7
  6
CONTINUOUS
 10
7.4634575587
 20
4.6761888541
 11
7.4634575587
 21
4.381947433
  0
LINE
  5
414
100
AcDbEntity
  8
0
100
AcDbLine
 62
7
  6
CONTINUOUS
 10
7.4634575587
 20
4.1081300874
 11
7.4634575587
 21
3.8138744296
  0
LINE
  5
415
100
AcDbEntity
  8
0
100
AcDbLine
 62
7
  6
CONTINUOUS
 10
7.5234575587
 20
4.6726574826
 11
7.5234575587
 21
4.3872504054
  0
LINE
  5
416
100
AcDbEntity
  8
0
100
AcDbLine
 62
7
  6
CONTINUOUS
 10
7.5234575587
 20
4.1028255848
 11
7.5234575587
 21
3.817484739
  0
LINE
  5
417
100
AcDbEntity
  8
03__ASM_ALL_CURVES
100
AcDbLine
 62
40
  6
CONTINUOUS
 10
6.2952040487
 20
2.8581200292
 11
6.3130810018
 21
2.8700379951
  0
LINE
  5
418
100
AcDbEntity
  8
03__ASM_ALL_CURVES
100
AcDbLine
 62
40
  6
CONTINUOUS
 10
6.3488349081
 20
2.8223661229
 11
6.330957955
 21
2.8104481485
  0
LINE
  5
419
100
AcDbEntity
  8
03__ASM_ALL_CURVES
100
AcDbLine
 62
40
  6
CONTINUOUS
 10
6.3488349081
 20
2.7389403392
 11
6.330957955
 21
2.7270223701
  0
LINE
  5
41A
100
AcDbEntity
  8
03__ASM_ALL_CURVES
100
AcDbLine
 62
40
  6
CONTINUOUS
 10
2.9016325587
 20
5.5422124951
 11
3.3592825587
 21
5.6184874951
  0
LINE
  5
41B
100
AcDbEntity
  8
03__ASM_ALL_CURVES
100
AcDbLine
 62
40
  6
CONTINUOUS
 10
2.9016325587
 20
5.5485687451
 11
3.3592825587
 21
5.6121312451
  0
LINE
  5
41C
100
AcDbEntity
  8
03__ASM_ALL_CURVES
100
AcDbLine
 62
40
  6
CONTINUOUS
 10
2.9016325587
 20
5.5549249951
 11
3.3592825587
 21
5.6057749951
  0
LINE
  5
41D
100
AcDbEntity
  8
03__ASM_ALL_CURVES
100
AcDbLine
 62
40
  6
CONTINUOUS
 10
2.9016325587
 20
5.5612812451
 11
3.3592825587
 21
5.5994187451
  0
LINE
  5
41E
100
AcDbEntity
  8
03__ASM_ALL_CURVES
100
AcDbLine
 62
40
  6
CONTINUOUS
 10
1.2332825587
 20
5.5994187451
 11
1.0044575587
 21
5.5803499951
  0
LINE
  5
41F
100
AcDbEntity
  8
03__ASM_ALL_CURVES
100
AcDbLine
 62
40
  6
CONTINUOUS
 10
2.9016325587
 20
5.5676374951
 11
3.3592825587
 21
5.5930624951
  0
LINE
  5
420
100
AcDbEntity
  8
03__ASM_ALL_CURVES
100
AcDbLine
 62
40
  6
CONTINUOUS
 10
1.2332825587
 20
5.5930624951
 11
1.0044575587
 21
5.5803499951
  0
LINE
  5
421
100
AcDbEntity
  8
03__ASM_ALL_CURVES
100
AcDbLine
 62
40
  6
CONTINUOUS
 10
1.2332825587
 20
5.5867062451
 11
1.0044575587
 21
5.5803499951
  0
LINE
  5
422
100
AcDbEntity
  8
03__ASM_ALL_CURVES
100
AcDbLine
 62
40
  6
CONTINUOUS
 10
2.7825356837
 20
5.7042968701
 11
2.8897974025
 21
5.7042968701
  0
LINE
  5
423
100
AcDbEntity
  8
03__ASM_ALL_CURVES
100
AcDbLine
 62
40
  6
CONTINUOUS
 10
4.0195380256
 20
5.720187497
 11
4.0910458381
 21
5.720187497
  0
LINE
  5
424
100
AcDbEntity
  8
03__ASM_ALL_CURVES
100
AcDbLine
 62
40
  6
CONTINUOUS
 10
6.5461474006
 20
5.7519687451
 11
6.4865575569
 21
5.7519687451
  0
LINE
  5
425
100
AcDbEntity
  8
03__ASM_ALL_CURVES
100
AcDbLine
 62
40
  6
CONTINUOUS
 10
4.8180419319
 20
5.7519687451
 11
4.8657138069
 21
5.7519687451
  0
LINE
  5
426
100
AcDbEntity
  8
03__ASM_ALL_CURVES
100
AcDbLine
 62
40
  6
CONTINUOUS
 10
5.3424325569
 20
5.7519687451
 11
5.4377763069
 21
5.7519687451
  0
LINE
  5
427
100
AcDbEntity
  8
03__ASM_ALL_CURVES
100
AcDbLine
 62
40
  6
CONTINUOUS
 10
6.2958700569
 20
5.7519687451
 11
6.3554599006
 21
5.7519687451
  0
LINE
  5
428
100
AcDbEntity
  8
03__ASM_ALL_CURVES
100
AcDbLine
 62
40
  6
CONTINUOUS
 10
2.24622709
 20
5.7678593663
 11
2.2700630275
 21
5.7678593663
  0
LINE
  5
429
100
AcDbEntity
  8
03__ASM_ALL_CURVES
100
AcDbLine
 62
40
  6
CONTINUOUS
 10
2.62760209
 20
5.7678593663
 11
2.6514380275
 21
5.7678593663
  0
LINE
  5
42A
100
AcDbEntity
  8
03__ASM_ALL_CURVES
100
AcDbLine
 62
40
  6
CONTINUOUS
 10
2.05553959
 20
5.7837499989
 11
2.0793755275
 21
5.7837499989
  0
LINE
  5
42B
100
AcDbEntity
  8
03__ASM_ALL_CURVES
100
AcDbLine
 62
40
  6
CONTINUOUS
 10
5.2113349006
 20
5.8473124951
 11
5.1874989631
 21
5.8473124951
  0
LINE
  5
42C
100
AcDbEntity
  8
03__ASM_ALL_CURVES
100
AcDbLine
 62
40
  6
CONTINUOUS
 10
2.1151294337
 20
5.8473124951
 11
2.0436216212
 21
5.8473124951
  0
LINE
  5
42D
100
AcDbEntity
  8
03__ASM_ALL_CURVES
100
AcDbLine
 62
40
  6
CONTINUOUS
 10
1.10210209
 20
5.8473124951
 11
1.1259380275
 21
5.8473124951
  0
LINE
  5
42E
100
AcDbEntity
  8
03__ASM_ALL_CURVES
100
AcDbLine
 62
40
  6
CONTINUOUS
 10
1.67416459
 20
5.8473124951
 11
1.6980005275
 21
5.8473124951
  0
LINE
  5
42F
100
AcDbEntity
  8
03__ASM_ALL_CURVES
100
AcDbLine
 62
40
  6
CONTINUOUS
 10
2.24622709
 20
5.8473124951
 11
2.2700630275
 21
5.8473124951
  0
LINE
  5
430
100
AcDbEntity
  8
03__ASM_ALL_CURVES
100
AcDbLine
 62
40
  6
CONTINUOUS
 10
2.62760209
 20
5.8473124951
 11
2.6514380275
 21
5.8473124951
  0
LINE
  5
431
100
AcDbEntity
  8
03__ASM_ALL_CURVES
100
AcDbLine
 62
40
  6
CONTINUOUS
 10
3.6619989631
 20
5.8473124951
 11
3.6858349006
 21
5.8473124951
  0
LINE
  5
432
100
AcDbEntity
  8
03__ASM_ALL_CURVES
100
AcDbLine
 62
40
  6
CONTINUOUS
 10
3.8526864631
 20
5.8473124951
 11
3.8765224006
 21
5.8473124951
  0
LINE
  5
433
100
AcDbEntity
  8
03__ASM_ALL_CURVES
100
AcDbLine
 62
40
  6
CONTINUOUS
 10
4.1863895881
 20
5.8473124951
 11
4.3055692756
 21
5.8473124951
  0
LINE
  5
434
100
AcDbEntity
  8
03__ASM_ALL_CURVES
100
AcDbLine
 62
40
  6
CONTINUOUS
 10
4.8061239631
 20
5.8473124951
 11
4.8299599006
 21
5.8473124951
  0
LINE
  5
435
100
AcDbEntity
  8
03__ASM_ALL_CURVES
100
AcDbLine
 62
40
  6
CONTINUOUS
 10
5.5688739631
 20
5.8473124951
 11
5.5927099006
 21
5.8473124951
  0
LINE
  5
436
100
AcDbEntity
  8
03__ASM_ALL_CURVES
100
AcDbLine
 62
40
  6
CONTINUOUS
 10
6.1051825569
 20
5.8473124951
 11
6.1528544319
 21
5.8473124951
  0
LINE
  5
437
100
AcDbEntity
  8
03__ASM_ALL_CURVES
100
AcDbLine
 62
40
  6
CONTINUOUS
 10
6.2958700569
 20
5.8473124951
 11
6.3912138069
 21
5.8473124951
  0
LINE
  5
438
100
AcDbEntity
  8
03__ASM_ALL_CURVES
100
AcDbLine
 62
40
  6
CONTINUOUS
 10
6.4865575569
 20
5.8473124951
 11
6.5461474006
 21
5.8473124951
  0
LINE
  5
439
100
AcDbEntity
  8
03__ASM_ALL_CURVES
100
AcDbLine
 62
40
  6
CONTINUOUS
 10
6.1528544319
 20
5.8473124951
 11
6.1766903694
 21
5.8314218739
  0
LINE
  5
43A
100
AcDbEntity
  8
03__ASM_ALL_CURVES
100
AcDbLine
 62
40
  6
CONTINUOUS
 10
6.5461474006
 20
5.8473124951
 11
6.5699833381
 21
5.8314218739
  0
LINE
  5
43B
100
AcDbEntity
  8
03__ASM_ALL_CURVES
100
AcDbLine
 62
40
  6
CONTINUOUS
 10
6.5699833381
 20
5.8314218739
 11
6.5819013069
 21
5.8155312413
  0
LINE
  5
43C
100
AcDbEntity
  8
03__ASM_ALL_CURVES
100
AcDbLine
 62
40
  6
CONTINUOUS
 10
7.6821342617
 20
2.8342840888
 11
7.6910727382
 21
2.7985301826
  0
LINE
  5
43D
100
AcDbEntity
  8
03__ASM_ALL_CURVES
100
AcDbLine
 62
40
  6
CONTINUOUS
 10
7.5301801601
 20
2.8462020548
 11
7.5301801601
 21
2.8223661229
  0
LINE
  5
43E
100
AcDbEntity
  8
0
100
AcDbLine
 62
7
  6
CONTINUOUS
 10
7.6174575587
 20
4.6408242319
 11
7.6174575587
 21
4.4284010533
  0
LINE
  5
43F
100
AcDbEntity
  8
0
100
AcDbLine
 62
7
  6
CONTINUOUS
 10
7.6174575587
 20
4.0616749369
 11
7.6174575587
 21
3.8489864219
  0
LINE
  5
440
100
AcDbEntity
  8
0
100
AcDbLine
 62
7
  6
CONTINUOUS
 10
7.6824575587
 20
4.5658435751
 11
7.6824575587
 21
4.5150031237
  0
LINE
  5
441
100
AcDbEntity
  8
0
100
AcDbLine
 62
7
  6
CONTINUOUS
 10
7.6824575587
 20
3.9750728665
 11
7.6824575587
 21
3.9239553434
  0
LINE
  5
442
100
AcDbEntity
  8
0
100
AcDbLine
 62
7
  6
CONTINUOUS
 10
7.6894575587
 20
4.5452389095
 11
7.6894575587
 21
4.5371671269
  0
LINE
  5
443
100
AcDbEntity
  8
0
100
AcDbLine
 62
7
  6
CONTINUOUS
 10
7.6894575587
 20
3.9449971989
 11
7.6894575587
 21
3.9529088633
  0
LINE
  5
444
100
AcDbEntity
  8
03__ASM_ALL_CURVES
100
AcDbLine
 62
40
  6
CONTINUOUS
 10
7.7447035976
 20
2.7270223701
 11
7.7447035976
 21
2.8700379951
  0
LINE
  5
445
100
AcDbEntity
  8
03__ASM_ALL_CURVES
100
AcDbLine
 62
40
  6
CONTINUOUS
 10
7.8162114101
 20
2.8462020548
 11
7.8162114101
 21
2.8223661229
  0
LINE
  5
446
100
AcDbEntity
  8
03__ASM_ALL_CURVES
100
AcDbLine
 62
40
  6
CONTINUOUS
 10
1.2332825587
 20
5.6121312451
 11
1.0044575587
 21
5.5803499951
  0
LINE
  5
447
100
AcDbEntity
  8
03__ASM_ALL_CURVES
100
AcDbLine
 62
40
  6
CONTINUOUS
 10
1.2332825587
 20
5.6057749951
 11
1.0044575587
 21
5.5803499951
  0
LINE
  5
448
100
AcDbEntity
  8
03__ASM_ALL_CURVES
100
AcDbLine
 62
40
  6
CONTINUOUS
 10
7.9234731289
 20
2.8700379951
 11
7.9234731289
 21
2.7270223701
  0
LINE
  5
449
100
AcDbEntity
  8
0
100
AcDbLine
 62
7
  6
CONTINUOUS
 10
8.0964575587
 20
3.5577879951
 11
8.0964575587
 21
4.9322879951
  0
LINE
  5
44A
100
AcDbEntity
  8
03__ASM_ALL_CURVES
100
AcDbLine
 62
40
  6
CONTINUOUS
 10
8.1022426601
 20
2.8462020548
 11
8.1022426601
 21
2.8223661229
  0
LINE
  5
44B
100
AcDbEntity
  8
0
100
AcDbLine
 62
7
  6
CONTINUOUS
 10
8.1904575587
 20
3.410552581
 11
8.1904575587
 21
5.0795234092
  0
LINE
  5
44C
100
AcDbEntity
  8
03__ASM_ALL_CURVES
100
AcDbLine
 62
40
  6
CONTINUOUS
 10
7.5838110195
 20
2.7985301826
 11
7.5927494961
 21
2.8342840888
  0
LINE
  5
44D
100
AcDbEntity
  8
03__ASM_ALL_CURVES
100
AcDbLine
 62
40
  6
CONTINUOUS
 10
7.6910727382
 20
2.7985301826
 11
7.6821342617
 21
2.7627762763
  0
LINE
  5
44E
100
AcDbEntity
  8
03__ASM_ALL_CURVES
100
AcDbLine
 62
40
  6
CONTINUOUS
 10
7.5301801601
 20
2.8223661229
 11
7.5212416836
 21
2.8104481485
  0
LINE
  5
44F
100
AcDbEntity
  8
03__ASM_ALL_CURVES
100
AcDbLine
 62
40
  6
CONTINUOUS
 10
7.5927494961
 20
2.8342840888
 11
7.6106264492
 21
2.8581200292
  0
LINE
  5
450
100
AcDbEntity
  8
03__ASM_ALL_CURVES
100
AcDbLine
 62
40
  6
CONTINUOUS
 10
7.5212416836
 20
2.8104481485
 11
7.5033647304
 21
2.7985301826
  0
LINE
  5
451
100
AcDbEntity
  8
03__ASM_ALL_CURVES
100
AcDbLine
 62
40
  6
CONTINUOUS
 10
7.6106264492
 20
2.8581200292
 11
7.6285034023
 21
2.8700379951
  0
LINE
  5
452
100
AcDbEntity
  8
03__ASM_ALL_CURVES
100
AcDbLine
 62
40
  6
CONTINUOUS
 10
10.0530268951
 20
4.3666012735
 11
10.035149942
 21
4.3546833076
  0
LINE
  5
453
100
AcDbEntity
  8
03__ASM_ALL_CURVES
100
AcDbLine
 62
40
  6
CONTINUOUS
 10
10.1424116607
 20
4.4142731542
 11
10.1602886139
 21
4.4261911201
  0
LINE
  5
454
100
AcDbEntity
  8
03__ASM_ALL_CURVES
100
AcDbLine
 62
40
  6
CONTINUOUS
 10
7.6642573086
 20
2.7389403392
 11
7.6463803554
 21
2.7270223701
  0
LINE
  5
455
100
AcDbEntity
  8
03__ASM_ALL_CURVES
100
AcDbLine
 62
40
  6
CONTINUOUS
 10
7.8072729336
 20
2.8104481485
 11
7.7893959804
 21
2.7985301826
  0
LINE
  5
456
100
AcDbEntity
  8
03__ASM_ALL_CURVES
100
AcDbLine
 62
40
  6
CONTINUOUS
 10
1.0044575587
 20
5.5803499951
 11
1.2332825587
 21
5.6184874951
  0
LINE
  5
457
100
AcDbEntity
  8
0
100
AcDbLine
 62
7
  6
CONTINUOUS
 10
8.2694575587
 20
3.4082879951
 11
8.2694575587
 21
5.0817879951
  0
LINE
  5
458
100
AcDbEntity
  8
0
100
AcDbLine
 62
7
  6
CONTINUOUS
 10
8.3194575587
 20
3.4082879951
 11
8.3194575587
 21
5.0817879951
  0
LINE
  5
459
100
AcDbEntity
  8
0
100
AcDbLine
 62
7
  6
CONTINUOUS
 10
8.4224575587
 20
3.4082879951
 11
8.4224575587
 21
5.0817879951
  0
LINE
  5
45A
100
AcDbEntity
  8
0
100
AcDbLine
 62
7
  6
CONTINUOUS
 10
8.4724575587
 20
3.4082879951
 11
8.4724575587
 21
5.0817879951
  0
LINE
  5
45B
100
AcDbEntity
  8
0
100
AcDbLine
 62
7
  6
CONTINUOUS
 10
8.5069575587
 20
3.410552581
 11
8.5069575587
 21
5.0795234092
  0
LINE
  5
45C
100
AcDbEntity
  8
03__ASM_ALL_CURVES
100
AcDbLine
 62
40
  6
CONTINUOUS
 10
8.0396733242
 20
2.7627762763
 11
8.0307348476
 21
2.7270223701
  0
LINE
  5
45D
100
AcDbEntity
  8
03__ASM_ALL_CURVES
100
AcDbLine
 62
40
  6
CONTINUOUS
 10
7.6821342617
 20
2.7627762763
 11
7.6642573086
 21
2.7389403392
  0
LINE
  5
45E
100
AcDbEntity
  8
03__ASM_ALL_CURVES
100
AcDbLine
 62
40
  6
CONTINUOUS
 10
7.8162114101
 20
2.8223661229
 11
7.8072729336
 21
2.8104481485
  0
LINE
  5
45F
100
AcDbEntity
  8
03__ASM_ALL_CURVES
100
AcDbLine
 62
40
  6
CONTINUOUS
 10
8.0307348476
 20
2.8462020548
 11
8.0396733242
 21
2.8581200292
  0
LINE
  5
460
100
AcDbEntity
  8
03__ASM_ALL_CURVES
100
AcDbLine
 62
40
  6
CONTINUOUS
 10
8.0575502773
 20
2.7866122124
 11
8.0396733242
 21
2.7627762763
  0
LINE
  5
461
100
AcDbEntity
  8
03__ASM_ALL_CURVES
100
AcDbLine
 62
40
  6
CONTINUOUS
 10
8.1022426601
 20
2.8223661229
 11
8.0933041836
 21
2.8104481485
  0
LINE
  5
462
100
AcDbEntity
  8
0
100
AcDbLine
 62
7
  6
CONTINUOUS
 10
8.6319575587
 20
3.4330379951
 11
8.6094575587
 21
3.4105379951
  0
LINE
  5
463
100
AcDbEntity
  8
03__ASM_ALL_CURVES
100
AcDbLine
 62
40
  6
CONTINUOUS
 10
8.0396733242
 20
2.8581200292
 11
8.0575502773
 21
2.8700379951
  0
LINE
  5
464
100
AcDbEntity
  8
03__ASM_ALL_CURVES
100
AcDbLine
 62
40
  6
CONTINUOUS
 10
10.1960425201
 20
4.2950934642
 11
10.178165567
 21
4.2831754951
  0
LINE
  5
465
100
AcDbEntity
  8
03__ASM_ALL_CURVES
100
AcDbLine
 62
40
  6
CONTINUOUS
 10
10.3390581451
 20
4.3666012735
 11
10.321181192
 21
4.3546833076
  0
LINE
  5
466
100
AcDbEntity
  8
03__ASM_ALL_CURVES
100
AcDbLine
 62
40
  6
CONTINUOUS
 10
8.0933041836
 20
2.8104481485
 11
8.0575502773
 21
2.7866122124
  0
LINE
  5
467
100
AcDbEntity
  8
03__ASM_ALL_CURVES
100
AcDbLine
 62
40
  6
CONTINUOUS
 10
10.1602886139
 20
4.2831754951
 11
10.1424116607
 21
4.2950934642
  0
LINE
  5
468
100
AcDbEntity
  8
03__ASM_ALL_CURVES
100
AcDbLine
 62
40
  6
CONTINUOUS
 10
10.035149942
 20
4.4261911201
 11
10.0530268951
 21
4.4142731542
  0
LINE
  5
469
100
AcDbEntity
  8
03__ASM_ALL_CURVES
100
AcDbLine
 62
40
  6
CONTINUOUS
 10
10.178165567
 20
4.4261911201
 11
10.1960425201
 21
4.4142731542
  0
LINE
  5
46A
100
AcDbEntity
  8
03__ASM_ALL_CURVES
100
AcDbLine
 62
40
  6
CONTINUOUS
 10
10.321181192
 20
4.4261911201
 11
10.3390581451
 21
4.4142731542
  0
LINE
  5
46B
100
AcDbEntity
  8
0
100
AcDbLine
 62
7
  6
CONTINUOUS
 10
8.6319575587
 20
5.0570379951
 11
8.6094575587
 21
5.0795379951
  0
LINE
  5
46C
100
AcDbEntity
  8
0
100
AcDbLine
 62
7
  6
CONTINUOUS
 10
8.6094575587
 20
3.4105379951
 11
8.6094575587
 21
5.0795379951
  0
LINE
  5
46D
100
AcDbEntity
  8
0
100
AcDbLine
 62
7
  6
CONTINUOUS
 10
8.6319575587
 20
3.4330601278
 11
8.6319575587
 21
5.0570158624
  0
LINE
  5
46E
100
AcDbEntity
  8
03__ASM_ALL_CURVES
100
AcDbLine
 62
40
  6
CONTINUOUS
 10
10.0619653717
 20
4.3785192479
 11
10.0530268951
 21
4.3666012735
  0
LINE
  5
46F
100
AcDbEntity
  8
03__ASM_ALL_CURVES
100
AcDbLine
 62
40
  6
CONTINUOUS
 10
10.1245347076
 20
4.3904372138
 11
10.1424116607
 21
4.4142731542
  0
LINE
  5
470
100
AcDbEntity
  8
03__ASM_ALL_CURVES
100
AcDbLine
 62
40
  6
CONTINUOUS
 10
10.2139194732
 20
4.3189294013
 11
10.1960425201
 21
4.2950934642
  0
LINE
  5
471
100
AcDbEntity
  8
03__ASM_ALL_CURVES
100
AcDbLine
 62
40
  6
CONTINUOUS
 10
10.3479966217
 20
4.3785192479
 11
10.3390581451
 21
4.3666012735
  0
LINE
  5
472
100
AcDbEntity
  8
03__ASM_ALL_CURVES
100
AcDbLine
 62
40
  6
CONTINUOUS
 10
10.1424116607
 20
4.2950934642
 11
10.1245347076
 21
4.3189294013
  0
LINE
  5
473
100
AcDbEntity
  8
03__ASM_ALL_CURVES
100
AcDbLine
 62
40
  6
CONTINUOUS
 10
10.0530268951
 20
4.4142731542
 11
10.0619653717
 21
4.4023551798
  0
LINE
  5
474
100
AcDbEntity
  8
03__ASM_ALL_CURVES
100
AcDbLine
 62
40
  6
CONTINUOUS
 10
10.1960425201
 20
4.4142731542
 11
10.2139194732
 21
4.3904372138
  0
LINE
  5
475
100
AcDbEntity
  8
03__ASM_ALL_CURVES
100
AcDbLine
 62
40
  6
CONTINUOUS
 10
10.3390581451
 20
4.4142731542
 11
10.3479966217
 21
4.4023551798
  0
LINE
  5
476
100
AcDbEntity
  8
03__ASM_ALL_CURVES
100
AcDbLine
 62
40
  6
CONTINUOUS
 10
9.9904575592
 20
4.2831754951
 11
9.9904575592
 21
4.4261911201
  0
LINE
  5
477
100
AcDbEntity
  8
03__ASM_ALL_CURVES
100
AcDbLine
 62
40
  6
CONTINUOUS
 10
10.0619653717
 20
4.4023551798
 11
10.0619653717
 21
4.3785192479
  0
LINE
  5
478
100
AcDbEntity
  8
03__ASM_ALL_CURVES
100
AcDbLine
 62
40
  6
CONTINUOUS
 10
10.1155962311
 20
4.3546833076
 11
10.1245347076
 21
4.3904372138
  0
LINE
  5
479
100
AcDbEntity
  8
03__ASM_ALL_CURVES
100
AcDbLine
 62
40
  6
CONTINUOUS
 10
10.2228579498
 20
4.3546833076
 11
10.2139194732
 21
4.3189294013
  0
LINE
  5
47A
100
AcDbEntity
  8
03__ASM_ALL_CURVES
100
AcDbLine
 62
40
  6
CONTINUOUS
 10
10.321181192
 20
4.3546833076
 11
10.3479966217
 21
4.2831754951
  0
LINE
  5
47B
100
AcDbEntity
  8
03__ASM_ALL_CURVES
100
AcDbLine
 62
40
  6
CONTINUOUS
 10
10.1245347076
 20
4.3189294013
 11
10.1155962311
 21
4.3546833076
  0
LINE
  5
47C
100
AcDbEntity
  8
03__ASM_ALL_CURVES
100
AcDbLine
 62
40
  6
CONTINUOUS
 10
10.2139194732
 20
4.3904372138
 11
10.2228579498
 21
4.3546833076
  0
LINE
  5
47D
100
AcDbEntity
  8
03__ASM_ALL_CURVES
100
AcDbLine
 62
40
  6
CONTINUOUS
 10
10.2764888092
 20
4.2831754951
 11
10.2764888092
 21
4.4261911201
  0
LINE
  5
47E
100
AcDbEntity
  8
03__ASM_ALL_CURVES
100
AcDbLine
 62
40
  6
CONTINUOUS
 10
10.3479966217
 20
4.4023551798
 11
10.3479966217
 21
4.3785192479
  0
LINE
  5
47F
100
AcDbEntity
  8
03__ASM_ALL_CURVES
100
AcDbLine
 62
40
  6
CONTINUOUS
 10
10.4552583404
 20
4.4261911201
 11
10.4552583404
 21
4.2831754951
  0
LINE
  5
480
100
AcDbEntity
  8
03__ASM_ALL_CURVES
100
AcDbLine
 62
40
  6
CONTINUOUS
 10
10.5982739654
 20
4.4261911201
 11
10.5982739654
 21
4.2831754951
  0
ARC
  5
481
100
AcDbEntity
  8
0
100
AcDbCircle
 62
7
  6
CONTINUOUS
 10
5.0834575587
 20
3.4335379951
 40
0.094
100
AcDbArc
 50
0.0000066186
 51
78.6081293834
  0
ARC
  5
482
100
AcDbEntity
  8
0
100
AcDbCircle
 62
7
  6
CONTINUOUS
 10
5.0834575587
 20
5.0565379951
 40
0.094
100
AcDbArc
 50
281.3918706166
 51
359.9999933814
  0
ARC
  5
483
100
AcDbEntity
  8
0
100
AcDbCircle
 62
7
  6
CONTINUOUS
 10
8.0964575587
 20
5.0262879951
 40
0.094
100
AcDbArc
 50
270.0
 51
359.9999936477
  0
ARC
  5
484
100
AcDbEntity
  8
0
100
AcDbCircle
 62
7
  6
CONTINUOUS
 10
8.0964575587
 20
3.4637879951
 40
0.094
100
AcDbArc
 50
0.0000063523
 51
90.0
  0
ARC
  5
485
100
AcDbEntity
  8
0
100
AcDbCircle
 62
7
  6
CONTINUOUS
 10
7.1969575587
 20
5.0262879951
 40
0.094
100
AcDbArc
 50
180.000000275
 51
270.0
  0
ARC
  5
486
100
AcDbEntity
  8
0
100
AcDbCircle
 62
7
  6
CONTINUOUS
 10
7.1969575587
 20
3.4637879951
 40
0.094
100
AcDbArc
 50
90.0
 51
179.999999725
  0
ARC
  5
487
100
AcDbEntity
  8
0
100
AcDbCircle
 62
7
  6
CONTINUOUS
 10
6.5834575587
 20
5.0417879951
 40
0.094
100
AcDbArc
 50
270.0
 51
359.9999935119
  0
ARC
  5
488
100
AcDbEntity
  8
0
100
AcDbCircle
 62
7
  6
CONTINUOUS
 10
6.5834575587
 20
3.4482879951
 40
0.094
100
AcDbArc
 50
0.0000064881
 51
90.0
  0
ARC
  5
489
100
AcDbEntity
  8
0
100
AcDbCircle
 62
7
  6
CONTINUOUS
 10
5.6969575587
 20
5.0417879951
 40
0.094
100
AcDbArc
 50
180.0000002809
 51
270.0
  0
ARC
  5
48A
100
AcDbEntity
  8
0
100
AcDbCircle
 62
7
  6
CONTINUOUS
 10
5.6969575587
 20
3.4482879951
 40
0.094
100
AcDbArc
 50
90.0
 51
179.9999997191
  0
ARC
  5
48B
100
AcDbEntity
  8
0
100
AcDbCircle
 62
7
  6
CONTINUOUS
 10
3.3238215299
 20
3.3510379951
 40
0.028
100
AcDbArc
 50
9.2483578129
 51
76.1357483849
  0
ARC
  5
48C
100
AcDbEntity
  8
0
100
AcDbCircle
 62
7
  6
CONTINUOUS
 10
3.3238215299
 20
5.1390379951
 40
0.028
100
AcDbArc
 50
283.8642516151
 51
350.7516421871
  0
SPLINE
  5
48D
100
AcDbEntity
  8
0
100
AcDbSpline
 62
7
  6
CONTINUOUS
 70
0
 71
3
 72
15
 73
11
 74
9
 42
0.0000001
 43
0.0000001
 44
0.0000000001
 12
0.0
 22
0.1617702498
 32
0.0
 13
-0.0
 23
-0.1617702498
 33
0.0
 40
0.0
 40
0.0
 40
0.0
 40
0.0
 40
0.125
 40
0.25
 40
0.375
 40
0.5
 40
0.625
 40
0.75
 40
0.875
 40
1.0
 40
1.0
 40
1.0
 40
1.0
 10
8.4224575587
 20
5.0452879951
 30
0.0
 10
8.4224575587
 20
5.0520284222
 30
0.0
 10
8.4197760501
 20
5.0655092763
 30
0.0
 10
8.4083216144
 20
5.0826520508
 30
0.0
 10
8.3911788399
 20
5.0941064865
 30
0.0
 10
8.3709575587
 20
5.0981287494
 30
0.0
 10
8.3507362775
 20
5.0941064865
 30
0.0
 10
8.333593503
 20
5.0826520508
 30
0.0
 10
8.3221390673
 20
5.0655092763
 30
0.0
 10
8.3194575587
 20
5.0520284222
 30
0.0
 10
8.3194575587
 20
5.0452879951
 30
0.0
 11
8.4224575587
 21
5.0452879951
 31
0.0
 11
8.4185373546
 21
5.0649961919
 31
0.0
 11
8.4073735579
 21
5.0817039943
 31
0.0
 11
8.3906657555
 21
5.092867791
 31
0.0
 11
8.3709575587
 21
5.0967879951
 31
0.0
 11
8.3512493619
 21
5.092867791
 31
0.0
 11
8.3345415595
 21
5.0817039943
 31
0.0
 11
8.3233777628
 21
5.0649961919
 31
0.0
 11
8.3194575587
 21
5.0452879951
 31
0.0
  0
SPLINE
  5
48E
100
AcDbEntity
  8
0
100
AcDbSpline
 62
7
  6
CONTINUOUS
 70
0
 71
3
 72
15
 73
11
 74
9
 42
0.0000001
 43
0.0000001
 44
0.0000000001
 12
0.0
 22
-0.1617702498
 32
0.0
 13
-0.0
 23
0.1617702498
 33
0.0
 40
0.0
 40
0.0
 40
0.0
 40
0.0
 40
0.125
 40
0.25
 40
0.375
 40
0.5
 40
0.625
 40
0.75
 40
0.875
 40
1.0
 40
1.0
 40
1.0
 40
1.0
 10
8.4224575587
 20
3.4447879951
 30
0.0
 10
8.4224575587
 20
3.438047568
 30
0.0
 10
8.4197760501
 20
3.4245667139
 30
0.0
 10
8.4083216144
 20
3.4074239394
 30
0.0
 10
8.3911788399
 20
3.3959695037
 30
0.0
 10
8.3709575587
 20
3.3919472408
 30
0.0
 10
8.3507362775
 20
3.3959695037
 30
0.0
 10
8.333593503
 20
3.4074239394
 30
0.0
 10
8.3221390673
 20
3.4245667139
 30
0.0
 10
8.3194575587
 20
3.438047568
 30
0.0
 10
8.3194575587
 20
3.4447879951
 30
0.0
 11
8.4224575587
 21
3.4447879951
 31
0.0
 11
8.4185373546
 21
3.4250797983
 31
0.0
 11
8.4073735579
 21
3.4083719959
 31
0.0
 11
8.3906657555
 21
3.3972081992
 31
0.0
 11
8.3709575587
 21
3.3932879951
 31
0.0
 11
8.3512493619
 21
3.3972081992
 31
0.0
 11
8.3345415595
 21
3.4083719959
 31
0.0
 11
8.3233777628
 21
3.4250797983
 31
0.0
 11
8.3194575587
 21
3.4447879951
 31
0.0
  0
SPLINE
  5
48F
100
AcDbEntity
  8
0
100
AcDbSpline
 62
7
  6
CONTINUOUS
 70
0
 71
3
 72
15
 73
11
 74
9
 42
0.0000001
 43
0.0000001
 44
0.0000000001
 12
0.0
 22
0.1617702498
 32
0.0
 13
-0.0
 23
-0.1617702498
 33
0.0
 40
0.0
 40
0.0
 40
0.0
 40
0.0
 40
0.125
 40
0.25
 40
0.375
 40
0.5
 40
0.625
 40
0.75
 40
0.875
 40
1.0
 40
1.0
 40
1.0
 40
1.0
 10
6.9244575587
 20
5.0452879951
 30
0.0
 10
6.9244575587
 20
5.0520284222
 30
0.0
 10
6.9217760501
 20
5.0655092763
 30
0.0
 10
6.9103216144
 20
5.0826520508
 30
0.0
 10
6.8931788399
 20
5.0941064865
 30
0.0
 10
6.8729575587
 20
5.0981287494
 30
0.0
 10
6.8527362775
 20
5.0941064865
 30
0.0
 10
6.835593503
 20
5.0826520508
 30
0.0
 10
6.8241390673
 20
5.0655092763
 30
0.0
 10
6.8214575587
 20
5.0520284222
 30
0.0
 10
6.8214575587
 20
5.0452879951
 30
0.0
 11
6.9244575587
 21
5.0452879951
 31
0.0
 11
6.9205373546
 21
5.0649961919
 31
0.0
 11
6.9093735579
 21
5.0817039943
 31
0.0
 11
6.8926657555
 21
5.092867791
 31
0.0
 11
6.8729575587
 21
5.0967879951
 31
0.0
 11
6.8532493619
 21
5.092867791
 31
0.0
 11
6.8365415595
 21
5.0817039943
 31
0.0
 11
6.8253777628
 21
5.0649961919
 31
0.0
 11
6.8214575587
 21
5.0452879951
 31
0.0
  0
SPLINE
  5
490
100
AcDbEntity
  8
0
100
AcDbSpline
 62
7
  6
CONTINUOUS
 70
0
 71
3
 72
15
 73
11
 74
9
 42
0.0000001
 43
0.0000001
 44
0.0000000001
 12
0.0
 22
-0.1617702498
 32
0.0
 13
-0.0
 23
0.1617702498
 33
0.0
 40
0.0
 40
0.0
 40
0.0
 40
0.0
 40
0.125
 40
0.25
 40
0.375
 40
0.5
 40
0.625
 40
0.75
 40
0.875
 40
1.0
 40
1.0
 40
1.0
 40
1.0
 10
6.9244575587
 20
3.4447879951
 30
0.0
 10
6.9244575587
 20
3.438047568
 30
0.0
 10
6.9217760501
 20
3.4245667139
 30
0.0
 10
6.9103216144
 20
3.4074239394
 30
0.0
 10
6.8931788399
 20
3.3959695037
 30
0.0
 10
6.8729575587
 20
3.3919472408
 30
0.0
 10
6.8527362775
 20
3.3959695037
 30
0.0
 10
6.835593503
 20
3.4074239394
 30
0.0
 10
6.8241390673
 20
3.4245667139
 30
0.0
 10
6.8214575587
 20
3.438047568
 30
0.0
 10
6.8214575587
 20
3.4447879951
 30
0.0
 11
6.9244575587
 21
3.4447879951
 31
0.0
 11
6.9205373546
 21
3.4250797983
 31
0.0
 11
6.9093735579
 21
3.4083719959
 31
0.0
 11
6.8926657555
 21
3.3972081992
 31
0.0
 11
6.8729575587
 21
3.3932879951
 31
0.0
 11
6.8532493619
 21
3.3972081992
 31
0.0
 11
6.8365415595
 21
3.4083719959
 31
0.0
 11
6.8253777628
 21
3.4250797983
 31
0.0
 11
6.8214575587
 21
3.4447879951
 31
0.0
  0
SPLINE
  5
491
100
AcDbEntity
  8
0
100
AcDbSpline
 62
7
  6
CONTINUOUS
 70
0
 71
3
 72
15
 73
11
 74
9
 42
0.0000001
 43
0.0000001
 44
0.0000000001
 12
0.0
 22
0.1617702498
 32
0.0
 13
0.0
 23
-0.1617702498
 33
0.0
 40
0.0
 40
0.0
 40
0.0
 40
0.0
 40
0.125
 40
0.25
 40
0.375
 40
0.5
 40
0.625
 40
0.75
 40
0.875
 40
1.0
 40
1.0
 40
1.0
 40
1.0
 10
5.4244575587
 20
5.0927879951
 30
0.0
 10
5.4244575587
 20
5.0995284222
 30
0.0
 10
5.4217760501
 20
5.1130092763
 30
0.0
 10
5.4103216144
 20
5.1301520508
 30
0.0
 10
5.3931788399
 20
5.1416064865
 30
0.0
 10
5.3729575587
 20
5.1456287494
 30
0.0
 10
5.3527362775
 20
5.1416064865
 30
0.0
 10
5.335593503
 20
5.1301520508
 30
0.0
 10
5.3241390673
 20
5.1130092763
 30
0.0
 10
5.3214575587
 20
5.0995284222
 30
0.0
 10
5.3214575587
 20
5.0927879951
 30
0.0
 11
5.4244575587
 21
5.0927879951
 31
0.0
 11
5.4205373546
 21
5.1124961919
 31
0.0
 11
5.4093735579
 21
5.1292039943
 31
0.0
 11
5.3926657555
 21
5.140367791
 31
0.0
 11
5.3729575587
 21
5.1442879951
 31
0.0
 11
5.3532493619
 21
5.140367791
 31
0.0
 11
5.3365415595
 21
5.1292039943
 31
0.0
 11
5.3253777628
 21
5.1124961919
 31
0.0
 11
5.3214575587
 21
5.0927879951
 31
0.0
  0
SPLINE
  5
492
100
AcDbEntity
  8
0
100
AcDbSpline
 62
7
  6
CONTINUOUS
 70
0
 71
3
 72
15
 73
11
 74
9
 42
0.0000001
 43
0.0000001
 44
0.0000000001
 12
0.0
 22
-0.1617702498
 32
0.0
 13
0.0
 23
0.1617702498
 33
0.0
 40
0.0
 40
0.0
 40
0.0
 40
0.0
 40
0.125
 40
0.25
 40
0.375
 40
0.5
 40
0.625
 40
0.75
 40
0.875
 40
1.0
 40
1.0
 40
1.0
 40
1.0
 10
5.4244575587
 20
3.3972879951
 30
0.0
 10
5.4244575587
 20
3.390547568
 30
0.0
 10
5.4217760501
 20
3.3770667139
 30
0.0
 10
5.4103216144
 20
3.3599239394
 30
0.0
 10
5.3931788399
 20
3.3484695037
 30
0.0
 10
5.3729575587
 20
3.3444472408
 30
0.0
 10
5.3527362775
 20
3.3484695037
 30
0.0
 10
5.335593503
 20
3.3599239394
 30
0.0
 10
5.3241390673
 20
3.3770667139
 30
0.0
 10
5.3214575587
 20
3.390547568
 30
0.0
 10
5.3214575587
 20
3.3972879951
 30
0.0
 11
5.4244575587
 21
3.3972879951
 31
0.0
 11
5.4205373546
 21
3.3775797983
 31
0.0
 11
5.4093735579
 21
3.3608719959
 31
0.0
 11
5.3926657555
 21
3.3497081992
 31
0.0
 11
5.3729575587
 21
3.3457879951
 31
0.0
 11
5.3532493619
 21
3.3497081992
 31
0.0
 11
5.3365415595
 21
3.3608719959
 31
0.0
 11
5.3253777628
 21
3.3775797983
 31
0.0
 11
5.3214575587
 21
3.3972879951
 31
0.0
  0
SPLINE
  5
493
100
AcDbEntity
  8
0
100
AcDbSpline
 62
7
  6
CONTINUOUS
 70
0
 71
3
 72
15
 73
11
 74
9
 42
0.0000001
 43
0.0000001
 44
0.0000000001
 12
0.0
 22
0.1617702498
 32
0.0
 13
0.0
 23
-0.1617702498
 33
0.0
 40
0.0
 40
0.0
 40
0.0
 40
0.0
 40
0.125
 40
0.25
 40
0.375
 40
0.5
 40
0.625
 40
0.75
 40
0.875
 40
1.0
 40
1.0
 40
1.0
 40
1.0
 10
3.2804575587
 20
5.1625379951
 30
0.0
 10
3.2804575587
 20
5.1692784222
 30
0.0
 10
3.2777760501
 20
5.1827592763
 30
0.0
 10
3.2663216144
 20
5.1999020508
 30
0.0
 10
3.2491788399
 20
5.2113564865
 30
0.0
 10
3.2289575587
 20
5.2153787494
 30
0.0
 10
3.2087362775
 20
5.2113564865
 30
0.0
 10
3.191593503
 20
5.1999020508
 30
0.0
 10
3.1801390673
 20
5.1827592763
 30
0.0
 10
3.1774575587
 20
5.1692784222
 30
0.0
 10
3.1774575587
 20
5.1625379951
 30
0.0
 11
3.2804575587
 21
5.1625379951
 31
0.0
 11
3.2765373546
 21
5.1822461919
 31
0.0
 11
3.2653735579
 21
5.1989539943
 31
0.0
 11
3.2486657555
 21
5.210117791
 31
0.0
 11
3.2289575587
 21
5.2140379951
 31
0.0
 11
3.2092493619
 21
5.210117791
 31
0.0
 11
3.1925415595
 21
5.1989539943
 31
0.0
 11
3.1813777628
 21
5.1822461919
 31
0.0
 11
3.1774575587
 21
5.1625379951
 31
0.0
  0
SPLINE
  5
494
100
AcDbEntity
  8
0
100
AcDbSpline
 62
7
  6
CONTINUOUS
 70
0
 71
3
 72
15
 73
11
 74
9
 42
0.0000001
 43
0.0000001
 44
0.0000000001
 12
0.0
 22
-0.1617702498
 32
0.0
 13
-0.0
 23
0.1617702498
 33
0.0
 40
0.0
 40
0.0
 40
0.0
 40
0.0
 40
0.125
 40
0.25
 40
0.375
 40
0.5
 40
0.625
 40
0.75
 40
0.875
 40
1.0
 40
1.0
 40
1.0
 40
1.0
 10
3.2804575587
 20
3.3275379951
 30
0.0
 10
3.2804575587
 20
3.320797568
 30
0.0
 10
3.2777760501
 20
3.3073167139
 30
0.0
 10
3.2663216144
 20
3.2901739394
 30
0.0
 10
3.2491788399
 20
3.2787195037
 30
0.0
 10
3.2289575587
 20
3.2746972408
 30
0.0
 10
3.2087362775
 20
3.2787195037
 30
0.0
 10
3.191593503
 20
3.2901739394
 30
0.0
 10
3.1801390673
 20
3.3073167139
 30
0.0
 10
3.1774575587
 20
3.320797568
 30
0.0
 10
3.1774575587
 20
3.3275379951
 30
0.0
 11
3.2804575587
 21
3.3275379951
 31
0.0
 11
3.2765373546
 21
3.3078297983
 31
0.0
 11
3.2653735579
 21
3.2911219959
 31
0.0
 11
3.2486657555
 21
3.2799581992
 31
0.0
 11
3.2289575587
 21
3.2760379951
 31
0.0
 11
3.2092493619
 21
3.2799581992
 31
0.0
 11
3.1925415595
 21
3.2911219959
 31
0.0
 11
3.1813777628
 21
3.3078297983
 31
0.0
 11
3.1774575587
 21
3.3275379951
 31
0.0
  0
SPLINE
  5
495
100
AcDbEntity
  8
0
100
AcDbSpline
 62
7
  6
CONTINUOUS
 70
0
 71
3
 72
15
 73
11
 74
9
 42
0.0000001
 43
0.0000001
 44
0.0000000001
 12
-0.2213747391
 22
0.4040882383
 32
0.0
 13
0.2213747391
 23
0.4040882383
 33
0.0
 40
0.0
 40
0.0
 40
0.0
 40
0.0
 40
0.1363385306
 40
0.2625242499
 40
0.3826814249
 40
0.5000474403
 40
0.6174094987
 40
0.7375563123
 40
0.8636900968
 40
1.0
 40
1.0
 40
1.0
 40
1.0
 10
1.0714301899
 20
3.3224333365
 30
0.0
 10
1.0613695544
 20
3.3407976021
 30
0.0
 10
1.0434223509
 20
3.3769813778
 30
0.0
 10
1.0230009031
 20
3.4322320956
 30
0.0
 10
1.0104767237
 20
3.4868551382
 30
0.0
 10
1.0062305384
 20
3.5414093857
 30
0.0
 10
1.010483243
 20
3.5959614833
 30
0.0
 10
1.0230105123
 20
3.650573267
 30
0.0
 10
1.0434296792
 20
3.7058097431
 30
0.0
 10
1.0613716668
 20
3.7419822441
 30
0.0
 10
1.0714301899
 20
3.7603426536
 30
0.0
 11
1.0714301899
 21
3.3224333365
 31
0.0
 11
1.0437903409
 21
3.3788443503
 31
0.0
 11
1.0239027372
 21
3.4334777374
 31
0.0
 11
1.0117464206
 21
3.4874895149
 31
0.0
 11
1.0076358921
 21
3.5414099018
 31
0.0
 11
1.011752726
 21
3.5953279792
 31
0.0
 11
1.0239133069
 21
3.6493339033
 31
0.0
 11
1.0437955473
 21
3.7039437773
 31
0.0
 11
1.0714301899
 21
3.7603426536
 31
0.0
  0
SPLINE
  5
496
100
AcDbEntity
  8
0
100
AcDbSpline
 62
7
  6
CONTINUOUS
 70
0
 71
3
 72
15
 73
11
 74
9
 42
0.0000001
 43
0.0000001
 44
0.0000000001
 12
-0.2344928018
 22
0.8560668082
 32
0.0
 13
0.2344928018
 23
0.8560668082
 33
0.0
 40
0.0
 40
0.0
 40
0.0
 40
0.0
 40
0.130867655
 40
0.2559934432
 40
0.3784643323
 40
0.5000493322
 40
0.6216294027
 40
0.7440877225
 40
0.8691603039
 40
1.0
 40
1.0
 40
1.0
 40
1.0
 10
1.0714301899
 20
3.807128678
 30
0.0
 10
1.0612010156
 20
3.8444724966
 30
0.0
 10
1.0430283824
 20
3.9180475973
 30
0.0
 10
1.0227779839
 20
4.0282523809
 30
0.0
 10
1.0104203609
 20
4.1368752397
 30
0.0
 10
1.00624709
 20
4.2450803946
 30
0.0
 10
1.0104267829
 20
4.35328156
 30
0.0
 10
1.0227875979
 20
4.4618829517
 30
0.0
 10
1.0430359402
 20
4.5720598122
 30
0.0
 10
1.061203201
 20
4.6456114719
 30
0.0
 10
1.0714301899
 20
4.6829473122
 30
0.0
 11
1.0714301899
 21
3.807128678
 31
0.0
 11
1.0437903409
 21
3.9199507055
 31
0.0
 11
1.0239027372
 21
4.0292174797
 31
0.0
 11
1.0117464206
 21
4.1372410347
 31
0.0
 11
1.0076358921
 21
4.2450818086
 31
0.0
 11
1.011752726
 21
4.3529179634
 31
0.0
 11
1.0239133069
 21
4.4609298114
 31
0.0
 11
1.0437955473
 21
4.5701495595
 31
0.0
 11
1.0714301899
 21
4.6829473122
 31
0.0
  0
SPLINE
  5
497
100
AcDbEntity
  8
0
100
AcDbSpline
 62
7
  6
CONTINUOUS
 70
0
 71
3
 72
15
 73
11
 74
9
 42
0.0000001
 43
0.0000001
 44
0.0000000001
 12
-0.2213747391
 22
0.4040882383
 32
0.0
 13
0.2213747391
 23
0.4040882383
 33
0.0
 40
0.0
 40
0.0
 40
0.0
 40
0.0
 40
0.1363385306
 40
0.2625242499
 40
0.3826814249
 40
0.5000474403
 40
0.6174094987
 40
0.7375563123
 40
0.8636900968
 40
1.0
 40
1.0
 40
1.0
 40
1.0
 10
1.0714301899
 20
4.7297333365
 30
0.0
 10
1.0613695544
 20
4.7480976021
 30
0.0
 10
1.0434223509
 20
4.7842813778
 30
0.0
 10
1.0230009031
 20
4.8395320956
 30
0.0
 10
1.0104767237
 20
4.8941551382
 30
0.0
 10
1.0062305384
 20
4.9487093857
 30
0.0
 10
1.010483243
 20
5.0032614833
 30
0.0
 10
1.0230105123
 20
5.057873267
 30
0.0
 10
1.0434296792
 20
5.1131097431
 30
0.0
 10
1.0613716668
 20
5.1492822441
 30
0.0
 10
1.0714301899
 20
5.1676426536
 30
0.0
 11
1.0714301899
 21
4.7297333365
 31
0.0
 11
1.0437903409
 21
4.7861443503
 31
0.0
 11
1.0239027372
 21
4.8407777374
 31
0.0
 11
1.0117464206
 21
4.8947895149
 31
0.0
 11
1.0076358921
 21
4.9487099018
 31
0.0
 11
1.011752726
 21
5.0026279792
 31
0.0
 11
1.0239133069
 21
5.0566339033
 31
0.0
 11
1.0437955473
 21
5.1112437773
 31
0.0
 11
1.0714301899
 21
5.1676426536
 31
0.0
  0
SPLINE
  5
498
100
AcDbEntity
  8
0
100
AcDbSpline
 62
7
  6
CONTINUOUS
 70
0
 71
3
 72
9
 73
5
 74
3
 42
0.0000001
 43
0.0000001
 44
0.0000000001
 12
0.0939631041
 22
-0.0025117797
 32
0.0
 13
0.0842686285
 23
-0.0416433934
 33
0.0
 40
0.0
 40
0.0
 40
0.0
 40
0.0
 40
0.4965075226
 40
1.0
 40
1.0
 40
1.0
 40
1.0
 10
4.8891602234
 20
4.0929909746
 30
0.0
 10
4.9047113527
 20
4.0925752687
 30
0.0
 10
4.9360319129
 20
4.0882809012
 30
0.0
 10
4.9656773217
 20
4.0773285525
 30
0.0
 10
4.9798201952
 20
4.0703395074
 30
0.0
 11
4.8891602234
 21
4.0929909746
 31
0.0
 11
4.9354001824
 21
4.0866695735
 31
0.0
 11
4.9798201952
 21
4.0703395074
 31
0.0
  0
SPLINE
  5
499
100
AcDbEntity
  8
0
100
AcDbSpline
 62
7
  6
CONTINUOUS
 70
0
 71
3
 72
13
 73
9
 74
7
 42
0.0000001
 43
0.0000001
 44
0.0000000001
 12
0.1046669881
 22
-0.0135295894
 32
0.0
 13
0.1024375284
 23
-0.0253925374
 33
0.0
 40
0.0
 40
0.0
 40
0.0
 40
0.0
 40
0.2144739206
 40
0.4037967672
 40
0.5749993364
 40
0.7325356338
 40
0.8752619797
 40
1.0
 40
1.0
 40
1.0
 40
1.0
 10
4.9798201952
 20
3.5550155261
 30
0.0
 10
4.987302975
 20
3.5540482781
 30
0.0
 10
5.0013677323
 20
3.5520413562
 30
0.0
 10
5.0213195812
 20
3.5487005832
 30
0.0
 10
5.0392284049
 20
3.5453139219
 30
0.0
 10
5.0554659726
 20
3.5419288667
 30
0.0
 10
5.0700505648
 20
3.5386355563
 30
0.0
 10
5.0791982739
 20
3.5364313799
 30
0.0
 10
5.0834575587
 20
3.5353755749
 30
0.0
 11
4.9798201952
 21
3.5550155261
 31
0.0
 11
5.0022286972
 21
3.5518206717
 31
0.0
 11
5.0219354098
 21
3.5485230128
 31
0.0
 11
5.039689398
 21
3.5451672813
 31
0.0
 11
5.0559657867
 21
3.541775496
 31
0.0
 11
5.0706591022
 21
3.5384586893
 31
0.0
 11
5.0834575587
 21
3.5353755749
 31
0.0
  0
SPLINE
  5
49A
100
AcDbEntity
  8
0
100
AcDbSpline
 62
7
  6
CONTINUOUS
 70
0
 71
3
 72
9
 73
5
 74
3
 42
0.0000001
 43
0.0000001
 44
0.0000000001
 12
0.090955344
 22
-0.0007591096
 32
0.0
 13
0.0900843175
 23
-0.0125804053
 33
0.0
 40
0.0
 40
0.0
 40
0.0
 40
0.0
 40
0.5088139826
 40
1.0
 40
1.0
 40
1.0
 40
1.0
 10
4.8891602234
 20
3.5617534494
 30
0.0
 10
4.9045866737
 20
3.5616247009
 30
0.0
 10
4.9349054347
 20
3.5603419226
 30
0.0
 10
4.9650708095
 20
3.5570752992
 30
0.0
 10
4.9798201952
 20
3.5550155261
 30
0.0
 11
4.8891602234
 21
3.5617534494
 31
0.0
 11
4.9354001824
 21
3.5598057088
 31
0.0
 11
4.9798201952
 21
3.5550155261
 31
0.0
  0
SPLINE
  5
49B
100
AcDbEntity
  8
0
100
AcDbSpline
 62
7
  6
CONTINUOUS
 70
0
 71
3
 72
9
 73
5
 74
3
 42
0.0000001
 43
0.0000001
 44
0.0000000001
 12
-0.0900843184
 22
-0.0125804055
 32
0.0
 13
-0.090955345
 23
-0.0007591096
 33
0.0
 40
0.0
 40
0.0
 40
0.0
 40
0.0
 40
0.491373741
 40
1.0
 40
1.0
 40
1.0
 40
1.0
 10
4.9798201952
 20
4.9350604641
 30
0.0
 10
4.9650651724
 20
4.9329999038
 30
0.0
 10
4.934899735
 20
4.9297336366
 30
0.0
 10
4.9045809823
 20
4.9284512418
 30
0.0
 10
4.8891602234
 20
4.9283225408
 30
0.0
 11
4.9798201952
 21
4.9350604641
 31
0.0
 11
4.935383147
 21
4.9302689903
 31
0.0
 11
4.8891602234
 21
4.9283225408
 31
0.0
  0
SPLINE
  5
49C
100
AcDbEntity
  8
0
100
AcDbSpline
 62
7
  6
CONTINUOUS
 70
0
 71
3
 72
11
 73
7
 74
5
 42
0.0000001
 43
0.0000001
 44
0.0000000001
 12
-0.1024353982
 22
-0.0253920094
 32
0.0
 13
-0.1046648116
 23
-0.013529308
 33
0.0
 40
0.0
 40
0.0
 40
0.0
 40
0.0
 40
0.1902956493
 40
0.425888391
 40
0.6989046291
 40
1.0
 40
1.0
 40
1.0
 40
1.0
 10
5.0834575587
 20
4.9547004153
 30
0.0
 10
5.0769598885
 20
4.9530897523
 30
0.0
 10
5.0623815271
 20
4.9496300019
 30
0.0
 10
5.0383317314
 20
4.9445076533
 30
0.0
 10
5.010308594
 20
4.9393786157
 30
0.0
 10
4.990324892
 20
4.9364183348
 30
0.0
 10
4.9798201952
 20
4.9350604641
 30
0.0
 11
5.0834575587
 21
4.9547004153
 31
0.0
 11
5.063916744
 21
4.9500655323
 31
0.0
 11
5.0395978487
 21
4.9448904795
 31
0.0
 11
5.011254558
 21
4.9397094463
 31
0.0
 11
4.9798201952
 21
4.9350604641
 31
0.0
  0
SPLINE
  5
49D
100
AcDbEntity
  8
0
100
AcDbSpline
 62
7
  6
CONTINUOUS
 70
0
 71
3
 72
9
 73
5
 74
3
 42
0.0000001
 43
0.0000001
 44
0.0000000001
 12
-0.0842686294
 22
-0.0416433938
 32
0.0
 13
-0.0939631051
 23
-0.0025117798
 33
0.0
 40
0.0
 40
0.0
 40
0.0
 40
0.0
 40
0.5036781647
 40
1.0
 40
1.0
 40
1.0
 40
1.0
 10
4.9798201952
 20
4.4197364828
 30
0.0
 10
4.9656721057
 20
4.4127448601
 30
0.0
 10
4.9360260082
 20
4.4017935886
 30
0.0
 10
4.904705537
 20
4.397500566
 30
0.0
 10
4.8891602234
 20
4.3970850156
 30
0.0
 11
4.9798201952
 21
4.4197364828
 31
0.0
 11
4.935383147
 21
4.4034021699
 31
0.0
 11
4.8891602234
 21
4.3970850156
 31
0.0
  0
SPLINE
  5
49E
100
AcDbEntity
  8
0
100
AcDbSpline
 62
7
  6
CONTINUOUS
 70
0
 71
3
 72
23
 73
19
 74
17
 42
0.0000001
 43
0.0000001
 44
0.0000000001
 12
-0.4250665253
 22
-0.1324647495
 32
0.0
 13
-0.4250665296
 23
0.1324647505
 33
0.0
 40
0.0
 40
0.0
 40
0.0
 40
0.0
 40
0.0099529273
 40
0.0392910869
 40
0.0863486435
 40
0.1489327976
 40
0.2245158366
 40
0.3103115334
 40
0.4033294844
 40
0.5000780359
 40
0.5968738231
 40
0.6899808488
 40
0.7758392031
 40
0.8513992923
 40
0.9138880124
 40
0.9608241596
 40
0.9900758181
 40
1.0
 40
1.0
 40
1.0
 40
1.0
 10
6.3524575587
 20
4.9477879951
 30
0.0
 10
6.35104734
 20
4.9473485244
 30
0.0
 10
6.3454759183
 20
4.9456274166
 30
0.0
 10
6.3331946309
 20
4.9419660255
 30
0.0
 10
6.3133136385
 20
4.9364647568
 30
0.0
 10
6.2866086979
 20
4.9299222871
 30
0.0
 10
6.2540270837
 20
4.9232928402
 30
0.0
 10
6.2166888879
 20
4.9175788337
 30
0.0
 10
6.1759518593
 20
4.9137015927
 30
0.0
 10
6.1334157901
 20
4.9123282113
 30
0.0
 10
6.0908666341
 20
4.9137071195
 30
0.0
 10
6.050100775
 20
4.9175937586
 30
0.0
 10
6.012744814
 20
4.9233182112
 30
0.0
 10
5.980172662
 20
4.9299525984
 30
0.0
 10
5.9535033442
 20
4.9364907996
 30
0.0
 10
5.9336662643
 20
4.9419818928
 30
0.0
 10
5.921418772
 20
4.9456336945
 30
0.0
 10
5.9158637046
 20
4.9473497937
 30
0.0
 10
5.9144575587
 20
4.9477879951
 30
0.0
 11
6.3524575587
 21
4.9477879951
 31
0.0
 11
6.3482236321
 21
4.9464801016
 31
0.0
 11
6.3357056015
 21
4.942749134
 31
0.0
 11
6.3155119591
 21
4.9371654163
 31
0.0
 11
6.2884459183
 21
4.9305436144
 31
0.0
 11
6.2554669972
 21
4.9238478842
 31
0.0
 11
6.2177052381
 21
4.9180864584
 31
0.0
 11
6.1764758577
 21
4.9141770961
 31
0.0
 11
6.1334228244
 21
4.9127928631
 31
0.0
 11
6.0903489366
 21
4.914182909
 31
0.0
 11
6.0490807034
 21
4.91810264
 31
0.0
 11
6.011292526
 21
4.923875868
 31
0.0
 11
5.9783249739
 21
4.9305762372
 31
0.0
 11
5.9513012548
 21
4.9371922276
 31
0.0
 11
5.9311602329
 21
4.9427634214
 31
0.0
 11
5.9186792478
 21
4.9464838486
 31
0.0
 11
5.9144575587
 21
4.9477879951
 31
0.0
  0
SPLINE
  5
49F
100
AcDbEntity
  8
0
100
AcDbSpline
 62
7
  6
CONTINUOUS
 70
0
 71
3
 72
14
 73
10
 74
8
 42
0.0000001
 43
0.0000001
 44
0.0000000001
 12
-0.072070251
 22
-0.255647943
 32
0.0
 13
-0.2649430146
 23
0.0
 33
0.0
 40
0.0
 40
0.0
 40
0.0
 40
0.0
 40
0.119026535
 40
0.2497125852
 40
0.3818210262
 40
0.5236731001
 40
0.6760452424
 40
0.836741704
 40
1.0
 40
1.0
 40
1.0
 40
1.0
 10
6.3468511752
 20
3.9377449489
 30
0.0
 10
6.3439917511
 20
3.927601986
 30
0.0
 10
6.3356552677
 20
3.9069702424
 30
0.0
 10
6.3158613979
 20
3.8792659876
 30
0.0
 10
6.2888104627
 20
3.8554982695
 30
0.0
 10
6.2559138839
 20
3.8367278339
 30
0.0
 10
6.2179237358
 20
3.8231262588
 30
0.0
 10
6.1765203957
 20
3.8149762148
 30
0.0
 10
6.1478756071
 20
3.8131814251
 30
0.0
 10
6.1334575587
 20
3.8131814251
 30
0.0
 11
6.3468511752
 21
3.9377449489
 31
0.0
 11
6.3349973989
 21
3.9085045355
 31
0.0
 11
6.3149596409
 21
3.8802674271
 31
0.0
 11
6.288804971
 21
3.8570076368
 31
0.0
 11
6.2562915163
 21
3.8381572837
 31
0.0
 11
6.218365806
 21
3.8243235521
 31
0.0
 11
6.1766235004
 21
3.8159423212
 31
0.0
 11
6.1334575587
 21
3.8131814251
 31
0.0
  0
SPLINE
  5
4A0
100
AcDbEntity
  8
0
100
AcDbSpline
 62
7
  6
CONTINUOUS
 70
0
 71
3
 72
14
 73
10
 74
8
 42
0.0000001
 43
0.0000001
 44
0.0000000001
 12
0.0000639599
 22
0.3327933266
 32
0.0
 13
-0.3319091313
 23
-0.0
 33
0.0
 40
0.0
 40
0.0
 40
0.0
 40
0.0
 40
0.1286450596
 40
0.2648999831
 40
0.4089199989
 40
0.5579320075
 40
0.7075997657
 40
0.8549245954
 40
1.0
 40
1.0
 40
1.0
 40
1.0
 10
6.3524575588
 20
3.8936629915
 30
0.0
 10
6.3524603015
 20
3.9079337306
 30
0.0
 10
6.3486073447
 20
3.937282008
 30
0.0
 10
6.3323211411
 20
3.9799023754
 30
0.0
 10
6.3059240086
 20
4.0198279072
 30
0.0
 10
6.2706221064
 20
4.0543144656
 30
0.0
 10
6.2284593467
 20
4.0807024968
 30
0.0
 10
6.1819745049
 20
4.097114536
 30
0.0
 10
6.1495081759
 20
4.100820125
 30
0.0
 10
6.1334575587
 20
4.100820125
 30
0.0
 11
6.3524575588
 21
3.8936629915
 31
0.0
 11
6.3471385184
 21
3.9360288665
 31
0.0
 11
6.3311954286
 21
3.9783496766
 31
0.0
 11
6.3049390573
 21
4.018294538
 31
0.0
 11
6.2695747202
 21
4.052870564
 31
0.0
 11
6.2274369455
 21
4.0791787836
 31
0.0
 11
6.1813014503
 21
4.0953829531
 31
0.0
 11
6.1334575587
 21
4.100820125
 31
0.0
  0
SPLINE
  5
4A1
100
AcDbEntity
  8
0
100
AcDbSpline
 62
7
  6
CONTINUOUS
 70
0
 71
3
 72
14
 73
10
 74
8
 42
0.0000001
 43
0.0000001
 44
0.0000000001
 12
-0.331909131
 22
0.0
 32
0.0
 13
0.0000639589
 23
-0.3327933316
 33
0.0
 40
0.0
 40
0.0
 40
0.0
 40
0.0
 40
0.1450741504
 40
0.2923983592
 40
0.4420661428
 40
0.5910781462
 40
0.7350982615
 40
0.8713538042
 40
1.0
 40
1.0
 40
1.0
 40
1.0
 10
6.1334575587
 20
4.100820125
 30
0.0
 10
6.1174070803
 20
4.100820125
 30
0.0
 10
6.0849409617
 20
4.0971145926
 30
0.0
 10
6.0384562777
 20
4.0807027345
 30
0.0
 10
5.9962935026
 20
4.0543148529
 30
0.0
 10
5.9609914992
 20
4.0198283794
 30
0.0
 10
5.934594215
 20
3.979902853
 30
0.0
 10
5.9183078329
 20
3.9372823298
 30
0.0
 10
5.9144548159
 20
3.9079338578
 30
0.0
 10
5.9144575586
 20
3.8936629925
 30
0.0
 11
6.1334575587
 21
4.100820125
 31
0.0
 11
6.0856140754
 21
4.0953830468
 31
0.0
 11
6.0394787363
 21
4.0791790551
 31
0.0
 11
5.9973408827
 21
4.0528709461
 31
0.0
 11
5.9619764539
 21
4.0182950163
 31
0.0
 11
5.9357199553
 21
3.9783501993
 31
0.0
 11
5.919776691
 21
3.9360292353
 31
0.0
 11
5.9144575586
 21
3.8936629925
 31
0.0
  0
SPLINE
  5
4A2
100
AcDbEntity
  8
0
100
AcDbSpline
 62
7
  6
CONTINUOUS
 70
0
 71
3
 72
9
 73
5
 74
3
 42
0.0000001
 43
0.0000001
 44
0.0000000001
 12
0.0656187621
 22
0.0033038781
 32
0.0
 13
0.0656187621
 23
-0.0033038781
 33
0.0
 40
0.0
 40
0.0
 40
0.0
 40
0.0
 40
0.4997267735
 40
1.0
 40
1.0
 40
1.0
 40
1.0
 10
7.441617035
 20
3.5927879951
 30
0.0
 10
7.4525475191
 20
3.5933383406
 30
0.0
 10
7.4744515597
 20
3.5938919051
 30
0.0
 10
7.4963556458
 20
3.5933389424
 30
0.0
 10
7.5072980825
 20
3.5927879951
 30
0.0
 11
7.441617035
 21
3.5927879951
 31
0.0
 11
7.4744396015
 21
3.593615273
 31
0.0
 11
7.5072980825
 21
3.5927879951
 31
0.0
  0
SPLINE
  5
4A3
100
AcDbEntity
  8
0
100
AcDbSpline
 62
7
  6
CONTINUOUS
 70
0
 71
3
 72
9
 73
5
 74
3
 42
0.0000001
 43
0.0000001
 44
0.0000000001
 12
0.0650875106
 22
0.0101879128
 32
0.0
 13
0.0650875106
 23
-0.0101879128
 33
0.0
 40
0.0
 40
0.0
 40
0.0
 40
0.0
 40
0.4997764918
 40
1.0
 40
1.0
 40
1.0
 40
1.0
 10
7.441617035
 20
4.1064279945
 30
0.0
 10
7.4524601042
 20
4.1081252209
 30
0.0
 10
7.4744525313
 20
4.1098464153
 30
0.0
 10
7.4964453148
 20
4.108126739
 30
0.0
 10
7.5072980825
 20
4.1064279945
 30
0.0
 11
7.441617035
 21
4.1064279945
 31
0.0
 11
7.4744427894
 21
4.1089861971
 31
0.0
 11
7.5072980825
 21
4.1064279945
 31
0.0
  0
SPLINE
  5
4A4
100
AcDbEntity
  8
0
100
AcDbSpline
 62
7
  6
CONTINUOUS
 70
0
 71
3
 72
9
 73
5
 74
3
 42
0.0000001
 43
0.0000001
 44
0.0000000001
 12
-0.0650875106
 22
-0.0101879128
 32
0.0
 13
-0.0650875106
 23
0.0101879128
 33
0.0
 40
0.0
 40
0.0
 40
0.0
 40
0.0
 40
0.4997764918
 40
1.0
 40
1.0
 40
1.0
 40
1.0
 10
7.5072980825
 20
4.3836479957
 30
0.0
 10
7.4964550132
 20
4.3819507693
 30
0.0
 10
7.4744625861
 20
4.3802295749
 30
0.0
 10
7.4524698026
 20
4.3819492512
 30
0.0
 10
7.441617035
 20
4.3836479957
 30
0.0
 11
7.5072980825
 21
4.3836479957
 31
0.0
 11
7.474472328
 21
4.3810897931
 31
0.0
 11
7.441617035
 21
4.3836479957
 31
0.0
  0
SPLINE
  5
4A5
100
AcDbEntity
  8
0
100
AcDbSpline
 62
7
  6
CONTINUOUS
 70
0
 71
3
 72
9
 73
5
 74
3
 42
0.0000001
 43
0.0000001
 44
0.0000000001
 12
-0.0656187621
 22
-0.0033038781
 32
0.0
 13
-0.0656187621
 23
0.0033038781
 33
0.0
 40
0.0
 40
0.0
 40
0.0
 40
0.0
 40
0.4997692295
 40
1.0
 40
1.0
 40
1.0
 40
1.0
 10
7.5072980825
 20
4.8972879951
 30
0.0
 10
7.4963666697
 20
4.8967376029
 30
0.0
 10
7.4744626256
 20
4.8961840851
 30
0.0
 10
7.4525585429
 20
4.8967370946
 30
0.0
 10
7.441617035
 20
4.8972879951
 30
0.0
 11
7.5072980825
 21
4.8972879951
 31
0.0
 11
7.4744727256
 21
4.8964607171
 31
0.0
 11
7.441617035
 21
4.8972879951
 31
0.0
  0
SPLINE
  5
4A6
100
AcDbEntity
  8
0
100
AcDbSpline
 62
7
  6
CONTINUOUS
 70
0
 71
3
 72
13
 73
9
 74
7
 42
0.0000001
 43
0.0000001
 44
0.0000000001
 12
0.2082911088
 22
0.0087844863
 32
0.0
 13
0.0000000003
 23
-0.0000000009
 33
0.0
 40
0.0
 40
0.0
 40
0.0
 40
0.0
 40
0.2540715315
 40
0.4891561868
 40
0.6904460399
 40
0.8455789944
 40
0.9488946963
 40
1.0
 40
1.0
 40
1.0
 40
1.0
 10
7.5072980825
 20
4.8972879951
 30
0.0
 10
7.5249383628
 20
4.8980319577
 30
0.0
 10
7.5587803048
 20
4.9005941358
 30
0.0
 10
7.6066553059
 20
4.9073463839
 30
0.0
 10
7.6460628752
 20
4.9149190036
 30
0.0
 10
7.6795773232
 20
4.9229778639
 30
0.0
 10
7.6953986979
 20
4.9270750695
 30
0.0
 10
7.7123935895
 20
4.9319204337
 30
0.0
 10
7.7123935896
 20
4.9319204337
 30
0.0
 11
7.5072980825
 21
4.8972879951
 31
0.0
 11
7.5601143418
 21
4.901292927
 31
0.0
 11
7.6086545205
 21
4.9080596917
 31
0.0
 11
7.6498514745
 21
4.916047272
 31
0.0
 11
7.6813258243
 21
4.9234863882
 31
0.0
 11
7.7021416968
 21
4.9290201433
 31
0.0
 11
7.7123935896
 21
4.9319204337
 31
0.0
  0
SPLINE
  5
4A7
100
AcDbEntity
  8
0
100
AcDbSpline
 62
7
  6
CONTINUOUS
 70
0
 71
3
 72
13
 73
9
 74
7
 42
0.0000001
 43
0.0000001
 44
0.0000000001
 12
-0.2082911136
 22
-0.0087844865
 32
0.0
 13
-0.0000000003
 23
0.0000000012
 33
0.0
 40
0.0
 40
0.0
 40
0.0
 40
0.0
 40
0.2540717736
 40
0.4891564334
 40
0.6904463151
 40
0.8455791371
 40
0.948894625
 40
1.0
 40
1.0
 40
1.0
 40
1.0
 10
7.441617035
 20
3.5927879951
 30
0.0
 10
7.4239767374
 20
3.5920440317
 30
0.0
 10
7.3901347776
 20
3.5894818512
 30
0.0
 10
7.3422597567
 20
3.5827295972
 30
0.0
 10
7.302852194
 20
3.5751569761
 30
0.0
 10
7.2693377694
 20
3.5670981198
 30
0.0
 10
7.2535164047
 20
3.5630009165
 30
0.0
 10
7.2365215217
 20
3.5581555547
 30
0.0
 10
7.2365215217
 20
3.5581555547
 30
0.0
 11
7.441617035
 21
3.5927879951
 31
0.0
 11
7.3888007241
 21
3.5887830576
 31
0.0
 11
7.3402605439
 21
3.5820162895
 31
0.0
 11
7.2990635836
 21
3.5740287053
 31
0.0
 11
7.2675892604
 21
3.5665895936
 31
0.0
 11
7.2467734306
 21
3.5610558497
 31
0.0
 11
7.2365215217
 21
3.5581555547
 31
0.0
  0
SPLINE
  5
4A8
100
AcDbEntity
  8
0
100
AcDbSpline
 62
7
  6
CONTINUOUS
 70
0
 71
3
 72
8
 73
4
 74
2
 42
0.0000001
 43
0.0000001
 44
0.0000000001
 12
0.0004195244
 22
-0.0010148279
 32
0.0
 13
0.000419299
 23
-0.0010149211
 33
0.0
 40
0.0
 40
0.0
 40
0.0
 40
0.0
 40
1.0
 40
1.0
 40
1.0
 40
1.0
 10
5.0984666983
 20
4.5677456252
 30
0.0
 10
5.0986065397
 20
4.5674073492
 30
0.0
 10
5.0987463442
 20
4.5670690579
 30
0.0
 10
5.0988861105
 20
4.5667307509
 30
0.0
 11
5.0984666983
 21
4.5677456252
 31
0.0
 11
5.0988861105
 21
4.5667307509
 31
0.0
  0
SPLINE
  5
4A9
100
AcDbEntity
  8
0
100
AcDbSpline
 62
7
  6
CONTINUOUS
 70
0
 71
3
 72
9
 73
5
 74
3
 42
0.0000001
 43
0.0000001
 44
0.0000000001
 12
0.0064472705
 22
-0.0156057383
 32
0.0
 13
0.0063815777
 23
-0.0156327155
 33
0.0
 40
0.0
 40
0.0
 40
0.0
 40
0.0
 40
0.4686839231
 40
1.0
 40
1.0
 40
1.0
 40
1.0
 10
5.0988861105
 20
4.5667307509
 30
0.0
 10
5.0998933545
 20
4.564292698
 30
0.0
 10
5.1020382227
 20
4.5590890398
 30
0.0
 10
5.1041722705
 20
4.5538809313
 30
0.0
 10
5.1053024821
 20
4.5511122936
 30
0.0
 11
5.0988861105
 21
4.5667307509
 31
0.0
 11
5.1019015081
 21
4.5594139786
 31
0.0
 11
5.1053024821
 21
4.5511122936
 31
0.0
  0
SPLINE
  5
4AA
100
AcDbEntity
  8
0
100
AcDbSpline
 62
7
  6
CONTINUOUS
 70
0
 71
3
 72
9
 73
5
 74
3
 42
0.0000001
 43
0.0000001
 44
0.0000000001
 12
-0.0067966044
 22
-0.0166493911
 32
0.0
 13
-0.006870261
 23
-0.0166191326
 33
0.0
 40
0.0
 40
0.0
 40
0.0
 40
0.0
 40
0.4988365173
 40
1.0
 40
1.0
 40
1.0
 40
1.0
 10
5.1053024821
 20
4.6564636965
 30
0.0
 10
5.1041723506
 20
4.6536952551
 30
0.0
 10
5.1018995153
 20
4.6481484365
 30
0.0
 10
5.0996144062
 20
4.6426066658
 30
0.0
 10
5.0984666983
 20
4.639830365
 30
0.0
 11
5.1053024821
 21
4.6564636965
 31
0.0
 11
5.1019017499
 21
4.6481625999
 31
0.0
 11
5.0984666983
 21
4.639830365
 31
0.0
  0
SPLINE
  5
4AB
100
AcDbEntity
  8
0
100
AcDbSpline
 62
7
  6
CONTINUOUS
 70
0
 71
3
 72
10
 73
6
 74
4
 42
0.0000001
 43
0.0000001
 44
0.0000000001
 12
-0.0210223559
 22
-0.0099114711
 32
0.0
 13
-0.0225589542
 23
-0.0055919847
 33
0.0
 40
0.0
 40
0.0
 40
0.0
 40
0.0
 40
0.2955573044
 40
0.6309226135
 40
1.0
 40
1.0
 40
1.0
 40
1.0
 10
5.1053024821
 20
4.9625379951
 30
0.0
 10
5.1032313785
 20
4.9615615259
 30
0.0
 10
5.0987529355
 20
4.9595959213
 30
0.0
 10
5.0914801088
 20
4.9569122436
 30
0.0
 10
5.086232892
 20
4.9553883737
 30
0.0
 10
5.0834575587
 20
4.9547004153
 30
0.0
 11
5.1053024821
 21
4.9625379951
 31
0.0
 11
5.0990113308
 21
4.9597797211
 31
0.0
 11
5.0916972035
 21
4.95708581
 31
0.0
 11
5.0834575587
 21
4.9547004153
 31
0.0
  0
SPLINE
  5
4AC
100
AcDbEntity
  8
0
100
AcDbSpline
 62
7
  6
CONTINUOUS
 70
0
 71
3
 72
10
 73
6
 74
4
 42
0.0000001
 43
0.0000001
 44
0.0000000001
 12
0.0225589539
 22
-0.0055919846
 32
0.0
 13
0.0210223556
 23
-0.009911471
 33
0.0
 40
0.0
 40
0.0
 40
0.0
 40
0.0
 40
0.3690381629
 40
0.7045779472
 40
1.0
 40
1.0
 40
1.0
 40
1.0
 10
5.0834575587
 20
3.5353755749
 30
0.0
 10
5.086232597
 20
3.5346876897
 30
0.0
 10
5.0914808254
 20
3.5331635499
 30
0.0
 10
5.0987536325
 20
3.530479798
 30
0.0
 10
5.1032323263
 20
3.5285140175
 30
0.0
 10
5.1053024821
 20
3.5275379951
 30
0.0
 11
5.0834575587
 21
3.5353755749
 31
0.0
 11
5.0916963373
 21
3.532990467
 31
0.0
 11
5.0990142448
 21
3.5302950867
 31
0.0
 11
5.1053024821
 21
3.5275379951
 31
0.0
  0
SPLINE
  5
4AD
100
AcDbEntity
  8
0
100
AcDbSpline
 62
7
  6
CONTINUOUS
 70
0
 71
3
 72
9
 73
5
 74
3
 42
0.0000001
 43
0.0000001
 44
0.0000000001
 12
0.006870261
 22
-0.0166191326
 32
0.0
 13
0.0067966044
 23
-0.0166493911
 33
0.0
 40
0.0
 40
0.0
 40
0.0
 40
0.0
 40
0.5011657375
 40
1.0
 40
1.0
 40
1.0
 40
1.0
 10
5.0984666983
 20
3.8502456252
 30
0.0
 10
5.0996144114
 20
3.8474693119
 30
0.0
 10
5.1018995204
 20
3.8419275412
 30
0.0
 10
5.1041723557
 20
3.8363807226
 30
0.0
 10
5.1053024821
 20
3.8336122936
 30
0.0
 11
5.0984666983
 21
3.8502456252
 31
0.0
 11
5.1019017653
 21
3.8419133528
 31
0.0
 11
5.1053024821
 21
3.8336122936
 31
0.0
  0
SPLINE
  5
4AE
100
AcDbEntity
  8
0
100
AcDbSpline
 62
7
  6
CONTINUOUS
 70
0
 71
3
 72
9
 73
5
 74
3
 42
0.0000001
 43
0.0000001
 44
0.0000000001
 12
-0.0063822337
 22
-0.0156343223
 32
0.0
 13
-0.0064479388
 23
-0.01560734
 33
0.0
 40
0.0
 40
0.0
 40
0.0
 40
0.0
 40
0.5312614724
 40
1.0
 40
1.0
 40
1.0
 40
1.0
 10
5.1053024821
 20
3.9389636965
 30
0.0
 10
5.1041722705
 20
3.9361950589
 30
0.0
 10
5.1020380034
 20
3.9309864151
 30
0.0
 10
5.0998929136
 20
3.9257822225
 30
0.0
 10
5.0988854479
 20
3.9233436353
 30
0.0
 11
5.1053024821
 21
3.9389636965
 31
0.0
 11
5.1019015081
 21
3.9306620116
 31
0.0
 11
5.0988854479
 21
3.9233436353
 31
0.0
  0
SPLINE
  5
4AF
100
AcDbEntity
  8
0
100
AcDbSpline
 62
7
  6
CONTINUOUS
 70
0
 71
3
 72
8
 73
4
 74
2
 42
0.0000001
 43
0.0000001
 44
0.0000000001
 12
-0.0004186367
 22
-0.001013317
 32
0.0
 13
-0.0004188614
 23
-0.001013224
 33
0.0
 40
0.0
 40
0.0
 40
0.0
 40
0.0
 40
1.0
 40
1.0
 40
1.0
 40
1.0
 10
5.0988854479
 20
3.9233436353
 30
0.0
 10
5.0987459023
 20
3.923005863
 30
0.0
 10
5.0986063187
 20
3.9226681064
 30
0.0
 10
5.0984666983
 20
3.922330365
 30
0.0
 11
5.0988854479
 21
3.9233436353
 31
0.0
 11
5.0984666983
 21
3.922330365
 31
0.0
  0
SPLINE
  5
4B0
100
AcDbEntity
  8
0
100
AcDbSpline
 62
7
  6
CONTINUOUS
 70
0
 71
3
 72
9
 73
5
 74
3
 42
0.0000001
 43
0.0000001
 44
0.0000000001
 12
0.0071753654
 22
-0.0033127447
 32
0.0
 13
-0.0071753654
 23
0.0033127447
 33
0.0
 40
0.0
 40
0.0
 40
0.0
 40
0.0
 40
0.5
 40
1.0
 40
1.0
 40
1.0
 40
1.0
 10
5.0984666983
 20
3.5275379951
 30
0.0
 10
5.0996625925
 20
3.526985871
 30
0.0
 10
5.1043859567
 20
3.5246499523
 30
0.0
 10
5.0996625925
 20
3.526985871
 30
0.0
 10
5.0984666983
 20
3.5275379951
 30
0.0
 11
5.0984666983
 21
3.5275379951
 31
0.0
 11
5.1020242746
 21
3.5258179116
 31
0.0
 11
5.0984666983
 21
3.5275379951
 31
0.0
  0
SPLINE
  5
4B1
100
AcDbEntity
  8
0
100
AcDbSpline
 62
7
  6
CONTINUOUS
 70
0
 71
3
 72
9
 73
5
 74
3
 42
0.0000001
 43
0.0000001
 44
0.0000000001
 12
0.0071753654
 22
-0.0033127447
 32
0.0
 13
-0.0071753654
 23
0.0033127447
 33
0.0
 40
0.0
 40
0.0
 40
0.0
 40
0.0
 40
0.5
 40
1.0
 40
1.0
 40
1.0
 40
1.0
 10
5.0984666983
 20
3.5275379951
 30
0.0
 10
5.0996625925
 20
3.526985871
 30
0.0
 10
5.1043859567
 20
3.5246499523
 30
0.0
 10
5.0996625925
 20
3.526985871
 30
0.0
 10
5.0984666983
 20
3.5275379951
 30
0.0
 11
5.0984666983
 21
3.5275379951
 31
0.0
 11
5.1020242746
 21
3.5258179116
 31
0.0
 11
5.0984666983
 21
3.5275379951
 31
0.0
  0
SPLINE
  5
4B2
100
AcDbEntity
  8
0
100
AcDbSpline
 62
7
  6
CONTINUOUS
 70
0
 71
3
 72
14
 73
10
 74
8
 42
0.0000001
 43
0.0000001
 44
0.0000000001
 12
0.0
 22
-0.2879318159
 32
0.0
 13
0.2854796236
 23
-0.0374982017
 33
0.0
 40
0.0
 40
0.0
 40
0.0
 40
0.0
 40
0.1337762717
 40
0.2691935909
 40
0.407766285
 40
0.5502983461
 40
0.6969387414
 40
0.8471838078
 40
1.0
 40
1.0
 40
1.0
 40
1.0
 10
7.2554575587
 20
4.5711629951
 30
0.0
 10
7.2554575587
 20
4.5583235135
 30
0.0
 10
7.2585258719
 20
4.5323875728
 30
0.0
 10
7.2720764722
 20
4.4953256295
 30
0.0
 10
7.293946307
 20
4.4614795926
 30
0.0
 10
7.3231683278
 20
4.4322371631
 30
0.0
 10
7.3585087122
 20
4.4087376776
 30
0.0
 10
7.3985000784
 20
4.3918923385
 30
0.0
 10
7.4270750653
 20
4.3855581065
 30
0.0
 10
7.441617035
 20
4.3836479957
 30
0.0
 11
7.2554575587
 21
4.5711629951
 31
0.0
 11
7.2599586414
 21
4.5329084418
 31
0.0
 11
7.2732616383
 21
4.496257046
 31
0.0
 11
7.2948184466
 21
4.4626821578
 31
0.0
 11
7.3237383679
 21
4.4335637795
 31
0.0
 11
7.3588346867
 21
4.4100907641
 31
0.0
 11
7.39867061
 21
4.3932219829
 31
0.0
 11
7.441617035
 21
4.3836479957
 31
0.0
  0
SPLINE
  5
4B3
100
AcDbEntity
  8
0
100
AcDbSpline
 62
7
  6
CONTINUOUS
 70
0
 71
3
 72
8
 73
4
 74
2
 42
0.0000001
 43
0.0000001
 44
0.0000000001
 12
0.0052452983
 22
-0.0246787762
 32
0.0
 13
0.0017995144
 23
-0.0251904977
 33
0.0
 40
0.0
 40
0.0
 40
0.0
 40
0.0
 40
1.0
 40
1.0
 40
1.0
 40
1.0
 10
5.0984666983
 20
3.922330365
 30
0.0
 10
5.100215131
 20
3.9141041063
 30
0.0
 10
5.1014244384
 20
3.9057492315
 30
0.0
 10
5.1020242765
 20
3.897352399
 30
0.0
 11
5.0984666983
 21
3.922330365
 31
0.0
 11
5.1020242765
 21
3.897352399
 31
0.0
  0
SPLINE
  5
4B4
100
AcDbEntity
  8
0
100
AcDbSpline
 62
7
  6
CONTINUOUS
 70
0
 71
3
 72
8
 73
4
 74
2
 42
0.0000001
 43
0.0000001
 44
0.0000000001
 12
0.0007892776
 22
-0.0110487014
 32
0.0
 13
0.0000656269
 23
-0.0110746272
 33
0.0
 40
0.0
 40
0.0
 40
0.0
 40
0.0
 40
1.0
 40
1.0
 40
1.0
 40
1.0
 10
5.1020242765
 20
3.897352399
 30
0.0
 10
5.102287369
 20
3.8936694985
 30
0.0
 10
5.1024332148
 20
3.8899785264
 30
0.0
 10
5.1024550905
 20
3.886286984
 30
0.0
 11
5.1020242765
 21
3.897352399
 31
0.0
 11
5.1024550905
 21
3.886286984
 31
0.0
  0
SPLINE
  5
4B5
100
AcDbEntity
  8
0
100
AcDbSpline
 62
7
  6
CONTINUOUS
 70
0
 71
3
 72
8
 73
4
 74
2
 42
0.0000001
 43
0.0000001
 44
0.0000000001
 12
0.0000057275
 22
-0.0009665273
 32
0.0
 13
0.0000000486
 23
-0.0009665384
 33
0.0
 40
0.0
 40
0.0
 40
0.0
 40
0.0
 40
1.0
 40
1.0
 40
1.0
 40
1.0
 10
5.1024550905
 20
3.886286984
 30
0.0
 10
5.1024569997
 20
3.8859648082
 30
0.0
 10
5.1024579646
 20
3.8856426281
 30
0.0
 10
5.1024579808
 20
3.8853204486
 30
0.0
 11
5.1024550905
 21
3.886286984
 31
0.0
 11
5.1024579808
 21
3.8853204486
 31
0.0
  0
SPLINE
  5
4B6
100
AcDbEntity
  8
0
100
AcDbSpline
 62
7
  6
CONTINUOUS
 70
0
 71
3
 72
8
 73
4
 74
2
 42
0.0000001
 43
0.0000001
 44
0.0000000001
 12
-0.0038202698
 22
-0.0137802028
 32
0.0
 13
-0.0051709007
 23
-0.0133273955
 33
0.0
 40
0.0
 40
0.0
 40
0.0
 40
0.0
 40
1.0
 40
1.0
 40
1.0
 40
1.0
 10
5.097017476
 20
3.9383382229
 30
0.0
 10
5.0957440527
 20
3.9337448219
 30
0.0
 10
5.0942419405
 20
3.9292153462
 30
0.0
 10
5.092518307
 20
3.924772881
 30
0.0
 11
5.097017476
 21
3.9383382229
 31
0.0
 11
5.092518307
 21
3.924772881
 31
0.0
  0
SPLINE
  5
4B7
100
AcDbEntity
  8
0
100
AcDbSpline
 62
7
  6
CONTINUOUS
 70
0
 71
3
 72
9
 73
5
 74
3
 42
0.0000001
 43
0.0000001
 44
0.0000000001
 12
-0.0167066942
 22
-0.0430595627
 32
0.0
 13
-0.0294429005
 23
-0.0355662832
 33
0.0
 40
0.0
 40
0.0
 40
0.0
 40
0.0
 40
0.4578815
 40
1.0
 40
1.0
 40
1.0
 40
1.0
 10
5.092518307
 20
3.924772881
 30
0.0
 10
5.0899684116
 20
3.9182008219
 30
0.0
 10
5.0833407052
 20
3.9042635199
 30
0.0
 10
5.0745112799
 20
3.8915910028
 30
0.0
 10
5.0691907662
 20
3.885163956
 30
0.0
 11
5.092518307
 21
3.924772881
 31
0.0
 11
5.0834374009
 21
3.9057027255
 31
0.0
 11
5.0691907662
 21
3.885163956
 31
0.0
  0
SPLINE
  5
4B8
100
AcDbEntity
  8
0
100
AcDbSpline
 62
7
  6
CONTINUOUS
 70
0
 71
3
 72
9
 73
5
 74
3
 42
0.0000001
 43
0.0000001
 44
0.0000000001
 12
-0.0214968352
 22
-0.0259676363
 32
0.0
 13
-0.0264538147
 23
-0.0208654555
 33
0.0
 40
0.0
 40
0.0
 40
0.0
 40
0.0
 40
0.3353849907
 40
1.0
 40
1.0
 40
1.0
 40
1.0
 10
5.0691907662
 20
3.885163956
 30
0.0
 10
5.0667875276
 20
3.8822609042
 30
0.0
 10
5.0592971141
 20
3.8738744933
 30
0.0
 10
5.0509309599
 20
3.8663499143
 30
0.0
 10
5.0450704258
 20
3.861727416
 30
0.0
 11
5.0691907662
 21
3.885163956
 31
0.0
 11
5.0616646771
 21
3.876732493
 31
0.0
 11
5.0450704258
 21
3.861727416
 31
0.0
  0
SPLINE
  5
4B9
100
AcDbEntity
  8
0
100
AcDbSpline
 62
7
  6
CONTINUOUS
 70
0
 71
3
 72
10
 73
6
 74
4
 42
0.0000001
 43
0.0000001
 44
0.0000000001
 12
-0.0466253975
 22
-0.0367757983
 32
0.0
 13
-0.055229062
 23
-0.0216973732
 33
0.0
 40
0.0
 40
0.0
 40
0.0
 40
0.0
 40
0.2542163877
 40
0.957569255
 40
1.0
 40
1.0
 40
1.0
 40
1.0
 10
5.0450704258
 20
3.861727416
 30
0.0
 10
5.0411194457
 20
3.8586110791
 30
0.0
 10
5.0257230496
 20
3.8475205246
 30
0.0
 10
5.0080153494
 20
3.8384770308
 30
0.0
 10
4.9943130659
 20
3.8330111006
 30
0.0
 10
4.9935319292
 20
3.832704222
 30
0.0
 11
5.0450704258
 21
3.861727416
 31
0.0
 11
5.0328346005
 21
3.8528937393
 31
0.0
 11
4.9958706201
 21
3.8336371984
 31
0.0
 11
4.9935319292
 21
3.832704222
 31
0.0
  0
SPLINE
  5
4BA
100
AcDbEntity
  8
0
100
AcDbSpline
 62
7
  6
CONTINUOUS
 70
0
 71
3
 72
8
 73
4
 74
2
 42
0.0000001
 43
0.0000001
 44
0.0000000001
 12
-0.0234290546
 22
-0.009204374
 32
0.0
 13
-0.024214288
 23
-0.0068575226
 33
0.0
 40
0.0
 40
0.0
 40
0.0
 40
0.0
 40
1.0
 40
1.0
 40
1.0
 40
1.0
 10
4.9935319292
 20
3.832704222
 30
0.0
 10
4.9857222443
 20
3.8296360973
 30
0.0
 10
4.977756966
 20
3.8269778995
 30
0.0
 10
4.9696855367
 20
3.8246920586
 30
0.0
 11
4.9935319292
 21
3.832704222
 31
0.0
 11
4.9696855367
 21
3.8246920586
 31
0.0
  0
SPLINE
  5
4BB
100
AcDbEntity
  8
0
100
AcDbSpline
 62
7
  6
CONTINUOUS
 70
0
 71
3
 72
9
 73
5
 74
3
 42
0.0000001
 43
0.0000001
 44
0.0000000001
 12
-0.0501865593
 22
-0.0142129087
 32
0.0
 13
-0.0518649303
 23
-0.005404863
 33
0.0
 40
0.0
 40
0.0
 40
0.0
 40
0.0
 40
0.3097486105
 40
1.0
 40
1.0
 40
1.0
 40
1.0
 10
4.9696855367
 20
3.8246920586
 30
0.0
 10
4.9645037977
 20
3.8232245824
 30
0.0
 10
4.9476337022
 20
3.8189823967
 30
0.0
 10
4.9304439666
 20
3.8162361273
 30
0.0
 10
4.9185106866
 20
3.8149925558
 30
0.0
 11
4.9696855367
 21
3.8246920586
 31
0.0
 11
4.9540221528
 21
3.8207400846
 31
0.0
 11
4.9185106866
 21
3.8149925558
 31
0.0
  0
SPLINE
  5
4BC
100
AcDbEntity
  8
0
100
AcDbSpline
 62
7
  6
CONTINUOUS
 70
0
 71
3
 72
9
 73
5
 74
3
 42
0.0000001
 43
0.0000001
 44
0.0000000001
 12
-0.0239638029
 22
-0.0024972765
 32
0.0
 13
-0.0240778301
 23
-0.0007792565
 33
0.0
 40
0.0
 40
0.0
 40
0.0
 40
0.0
 40
0.3789330644
 40
1.0
 40
1.0
 40
1.0
 40
1.0
 10
4.9185106866
 20
3.8149925558
 30
0.0
 10
4.9154837941
 20
3.8146771223
 30
0.0
 10
4.9074843071
 20
3.8139554074
 30
0.0
 10
4.8994639081
 20
3.8135189601
 30
0.0
 10
4.89447926
 20
3.8133576366
 30
0.0
 11
4.9185106866
 21
3.8149925558
 31
0.0
 11
4.9094182511
 21
3.8141711207
 31
0.0
 11
4.89447926
 21
3.8133576366
 31
0.0
  0
SPLINE
  5
4BD
100
AcDbEntity
  8
0
100
AcDbSpline
 62
7
  6
CONTINUOUS
 70
0
 71
3
 72
9
 73
5
 74
3
 42
0.0000001
 43
0.0000001
 44
0.0000000001
 12
-0.0602688896
 22
-0.0019505463
 32
0.0
 13
-0.0596457686
 23
0.0088824257
 33
0.0
 40
0.0
 40
0.0
 40
0.0
 40
0.0
 40
0.5059070595
 40
1.0
 40
1.0
 40
1.0
 40
1.0
 10
4.89447926
 20
3.8133576366
 30
0.0
 10
4.8843157745
 20
3.8130287049
 30
0.0
 10
4.8641978482
 20
3.8132803197
 30
0.0
 10
4.8441770972
 20
3.815304698
 30
0.0
 10
4.8343535794
 20
3.8167676127
 30
0.0
 11
4.89447926
 21
3.8133576366
 31
0.0
 11
4.8639850438
 21
3.8137370169
 31
0.0
 11
4.8343535794
 21
3.8167676127
 31
0.0
  0
SPLINE
  5
4BE
100
AcDbEntity
  8
0
100
AcDbSpline
 62
7
  6
CONTINUOUS
 70
0
 71
3
 72
11
 73
7
 74
5
 42
0.0000001
 43
0.0000001
 44
0.0000000001
 12
-0.0988870188
 22
0.014726218
 32
0.0
 13
-0.0855499646
 23
0.0518544839
 33
0.0
 40
0.0
 40
0.0
 40
0.0
 40
0.0
 40
0.1517985897
 40
0.5829267302
 40
0.971588029
 40
1.0
 40
1.0
 40
1.0
 40
1.0
 10
4.8343535794
 20
3.8167676127
 30
0.0
 10
4.8293499428
 20
3.8175127524
 30
0.0
 10
4.8102036531
 20
3.8208351525
 30
0.0
 10
4.7788748885
 20
3.8294202667
 30
0.0
 10
4.7530956536
 20
3.8413205356
 30
0.0
 10
4.7411499814
 20
3.8484426171
 30
0.0
 10
4.740339767
 20
3.8489337132
 30
0.0
 11
4.8343535794
 21
3.8167676127
 31
0.0
 11
4.8194019871
 21
3.8193670996
 31
0.0
 11
4.7779254735
 21
3.8309731133
 31
0.0
 11
4.742780903
 21
3.8474781688
 31
0.0
 11
4.740339767
 21
3.8489337132
 31
0.0
  0
SPLINE
  5
4BF
100
AcDbEntity
  8
0
100
AcDbSpline
 62
7
  6
CONTINUOUS
 70
0
 71
3
 72
11
 73
7
 74
5
 42
0.0000001
 43
0.0000001
 44
0.0000000001
 12
-0.086628811
 22
0.0525084062
 32
0.0
 13
-0.0373175119
 23
0.0942425977
 33
0.0
 40
0.0
 40
0.0
 40
0.0
 40
0.0
 40
0.292291858
 40
0.597391828
 40
0.912660081
 40
1.0
 40
1.0
 40
1.0
 40
1.0
 10
4.740339767
 20
3.8489337132
 30
0.0
 10
4.7318994683
 20
3.8540496397
 30
0.0
 10
4.7154367902
 20
3.8658195565
 30
0.0
 10
4.6939174174
 20
3.8881029764
 30
0.0
 10
4.6812585603
 20
3.9085752035
 30
0.0
 10
4.6758567017
 20
3.9210657677
 30
0.0
 10
4.6747702655
 20
3.9238094813
 30
0.0
 11
4.740339767
 21
3.8489337132
 31
0.0
 11
4.7163587765
 21
3.8662413315
 31
0.0
 11
4.6950111983
 21
3.8885316718
 31
0.0
 11
4.6782851019
 21
3.9156862044
 31
0.0
 11
4.6747702655
 21
3.9238094813
 31
0.0
  0
SPLINE
  5
4C0
100
AcDbEntity
  8
0
100
AcDbSpline
 62
7
  6
CONTINUOUS
 70
0
 71
3
 72
8
 73
4
 74
2
 42
0.0000001
 43
0.0000001
 44
0.0000000001
 12
-0.0070456534
 22
0.0177932731
 32
0.0
 13
-0.0046287708
 23
0.0185771201
 33
0.0
 40
0.0
 40
0.0
 40
0.0
 40
0.0
 40
1.0
 40
1.0
 40
1.0
 40
1.0
 10
4.6747702655
 20
3.9238094813
 30
0.0
 10
4.6724217144
 20
3.9297405724
 30
0.0
 10
4.6704723158
 20
3.9358308687
 30
0.0
 10
4.6689293922
 20
3.942023242
 30
0.0
 11
4.6747702655
 21
3.9238094813
 31
0.0
 11
4.6689293922
 21
3.942023242
 31
0.0
  0
SPLINE
  5
4C1
100
AcDbEntity
  8
0
100
AcDbSpline
 62
7
  6
CONTINUOUS
 70
0
 71
3
 72
8
 73
4
 74
2
 42
0.0000001
 43
0.0000001
 44
0.0000000001
 12
0.0046148423
 22
0.0185323517
 32
0.0
 13
0.0070197912
 23
0.0177536376
 33
0.0
 40
0.0
 40
0.0
 40
0.0
 40
0.0
 40
1.0
 40
1.0
 40
1.0
 40
1.0
 10
4.6689240257
 20
4.5480309015
 30
0.0
 10
4.6704623065
 20
4.554208352
 30
0.0
 10
4.6724050873
 20
4.5602844447
 30
0.0
 10
4.6747450177
 20
4.5662023239
 30
0.0
 11
4.6689240257
 21
4.5480309015
 31
0.0
 11
4.6747450177
 21
4.5662023239
 31
0.0
  0
SPLINE
  5
4C2
100
AcDbEntity
  8
0
100
AcDbSpline
 62
7
  6
CONTINUOUS
 70
0
 71
3
 72
11
 73
7
 74
5
 42
0.0000001
 43
0.0000001
 44
0.0000000001
 12
0.0372885461
 22
0.0943058438
 32
0.0
 13
0.0866596773
 23
0.0525420118
 33
0.0
 40
0.0
 40
0.0
 40
0.0
 40
0.0
 40
0.0905243583
 40
0.4086581502
 40
0.7133166607
 40
1.0
 40
1.0
 40
1.0
 40
1.0
 10
4.6747450177
 20
4.5662023239
 30
0.0
 10
4.6758701917
 20
4.5690479825
 30
0.0
 10
4.6813641695
 20
4.5817291192
 30
0.0
 10
4.694191511
 20
4.6023379591
 30
0.0
 10
4.7157220263
 20
4.6244756397
 30
0.0
 10
4.7320373234
 20
4.6361084291
 30
0.0
 10
4.7403186186
 20
4.6411294022
 30
0.0
 11
4.6747450177
 21
4.5662023239
 31
0.0
 11
4.678395214
 21
4.57462323
 31
0.0
 11
4.6953586485
 21
4.6019877979
 31
0.0
 11
4.7167623339
 21
4.624180285
 31
0.0
 11
4.7403186186
 21
4.6411294022
 31
0.0
  0
SPLINE
  5
4C3
100
AcDbEntity
  8
0
100
AcDbSpline
 62
7
  6
CONTINUOUS
 70
0
 71
3
 72
11
 73
7
 74
5
 42
0.0000001
 43
0.0000001
 44
0.0000000001
 12
0.0855722859
 22
0.0518827232
 32
0.0
 13
0.0989145018
 23
0.0147264864
 33
0.0
 40
0.0
 40
0.0
 40
0.0
 40
0.0
 40
0.0342097834
 40
0.4212592414
 40
0.8386550702
 40
1.0
 40
1.0
 40
1.0
 40
1.0
 10
4.7403186186
 20
4.6411294022
 30
0.0
 10
4.7412944218
 20
4.6417210345
 30
0.0
 10
4.7533739969
 20
4.6489006263
 30
0.0
 10
4.7788946437
 20
4.6606160641
 30
0.0
 10
4.8100277352
 20
4.6691890521
 30
0.0
 10
4.829037288
 20
4.6725167549
 30
0.0
 10
4.8343570725
 20
4.6733087696
 30
0.0
 11
4.7403186186
 21
4.6411294022
 31
0.0
 11
4.7432612244
 21
4.6428785811
 31
0.0
 11
4.7783074049
 21
4.659243769
 31
0.0
 11
4.8184655486
 21
4.670520676
 31
0.0
 11
4.8343570725
 21
4.6733087696
 31
0.0
  0
SPLINE
  5
4C4
100
AcDbEntity
  8
0
100
AcDbSpline
 62
7
  6
CONTINUOUS
 70
0
 71
3
 72
9
 73
5
 74
3
 42
0.0000001
 43
0.0000001
 44
0.0000000001
 12
0.059637518
 22
0.0088788912
 32
0.0
 13
0.060260194
 23
-0.0019497476
 33
0.0
 40
0.0
 40
0.0
 40
0.0
 40
0.0
 40
0.4479637422
 40
1.0
 40
1.0
 40
1.0
 40
1.0
 10
4.8343570725
 20
4.6733087696
 30
0.0
 10
4.843262221
 20
4.6746345767
 30
0.0
 10
4.8632676497
 20
4.6767453379
 30
0.0
 10
4.8833847881
 20
4.6770766395
 30
0.0
 10
4.8944733921
 20
4.6767178624
 30
0.0
 11
4.8343570725
 21
4.6733087696
 31
0.0
 11
4.8612080514
 21
4.6761685788
 31
0.0
 11
4.8944733921
 21
4.6767178624
 31
0.0
  0
SPLINE
  5
4C5
100
AcDbEntity
  8
0
100
AcDbSpline
 62
7
  6
CONTINUOUS
 70
0
 71
3
 72
9
 73
5
 74
3
 42
0.0000001
 43
0.0000001
 44
0.0000000001
 12
0.0240964363
 22
-0.0007796518
 32
0.0
 13
0.0239808278
 23
-0.0025008895
 33
0.0
 40
0.0
 40
0.0
 40
0.0
 40
0.0
 40
0.4156087448
 40
1.0
 40
1.0
 40
1.0
 40
1.0
 10
4.8944733921
 20
4.6767178624
 30
0.0
 10
4.897811622
 20
4.6766098524
 30
0.0
 10
4.9058401069
 20
4.6762318475
 30
0.0
 10
4.9138517555
 20
4.6755697274
 30
0.0
 10
4.9185231508
 20
4.6750825614
 30
0.0
 11
4.8944733921
 21
4.6767178624
 31
0.0
 11
4.9044821309
 21
4.6762465727
 31
0.0
 11
4.9185231508
 21
4.6750825614
 31
0.0
  0
SPLINE
  5
4C6
100
AcDbEntity
  8
0
100
AcDbSpline
 62
7
  6
CONTINUOUS
 70
0
 71
3
 72
9
 73
5
 74
3
 42
0.0000001
 43
0.0000001
 44
0.0000000001
 12
0.0518382186
 22
-0.0054060543
 32
0.0
 13
0.0501546831
 23
-0.0142077231
 33
0.0
 40
0.0
 40
0.0
 40
0.0
 40
0.0
 40
0.5579949952
 40
1.0
 40
1.0
 40
1.0
 40
1.0
 10
4.9185231508
 20
4.6750825614
 30
0.0
 10
4.928164973
 20
4.6740770444
 30
0.0
 10
4.9453638937
 20
4.6715098046
 30
0.0
 10
4.9622832397
 20
4.6674808244
 30
0.0
 10
4.96967278
 20
4.6653875295
 30
0.0
 11
4.9185231508
 21
4.6750825614
 31
0.0
 11
4.9472717484
 21
4.6707569053
 31
0.0
 11
4.96967278
 21
4.6653875295
 31
0.0
  0
SPLINE
  5
4C7
100
AcDbEntity
  8
0
100
AcDbSpline
 62
7
  6
CONTINUOUS
 70
0
 71
3
 72
9
 73
5
 74
3
 42
0.0000001
 43
0.0000001
 44
0.0000000001
 12
0.0243203428
 22
-0.0068894204
 32
0.0
 13
0.0235359465
 23
-0.0092533032
 33
0.0
 40
0.0
 40
0.0
 40
0.0
 40
0.0
 40
0.7434828393
 40
1.0
 40
1.0
 40
1.0
 40
1.0
 10
4.96967278
 20
4.6653875295
 30
0.0
 10
4.9757000325
 20
4.6636801409
 30
0.0
 10
4.9837272686
 20
4.6611040688
 30
0.0
 10
4.9916138685
 20
4.658125536
 30
0.0
 10
4.9936263265
 20
4.6573343256
 30
0.0
 11
4.96967278
 21
4.6653875295
 31
0.0
 11
4.9875585181
 21
4.6596271432
 31
0.0
 11
4.9936263265
 21
4.6573343256
 31
0.0
  0
SPLINE
  5
4C8
100
AcDbEntity
  8
0
100
AcDbSpline
 62
7
  6
CONTINUOUS
 70
0
 71
3
 72
9
 73
5
 74
3
 42
0.0000001
 43
0.0000001
 44
0.0000000001
 12
0.0547716697
 22
-0.0215338212
 32
0.0
 13
0.0462893421
 23
-0.036329623
 33
0.0
 40
0.0
 40
0.0
 40
0.0
 40
0.0
 40
0.5515085664
 40
1.0
 40
1.0
 40
1.0
 40
1.0
 10
4.9936263265
 20
4.6573343256
 30
0.0
 10
5.0036953415
 20
4.65337563
 30
0.0
 10
5.0214718699
 20
4.6449646218
 30
0.0
 10
5.0378265979
 20
4.6340364544
 30
0.0
 10
5.0447467224
 20
4.6286052795
 30
0.0
 11
4.9936263265
 21
4.6573343256
 31
0.0
 11
5.0228706997
 21
4.6433325205
 31
0.0
 11
5.0447467224
 21
4.6286052795
 31
0.0
  0
SPLINE
  5
4C9
100
AcDbEntity
  8
0
100
AcDbSpline
 62
7
  6
CONTINUOUS
 70
0
 71
3
 72
9
 73
5
 74
3
 42
0.0000001
 43
0.0000001
 44
0.0000000001
 12
0.0262471601
 22
-0.020599762
 32
0.0
 13
0.0214197914
 23
-0.025601609
 33
0.0
 40
0.0
 40
0.0
 40
0.0
 40
0.0
 40
0.1901414948
 40
1.0
 40
1.0
 40
1.0
 40
1.0
 10
5.0447467224
 20
4.6286052795
 30
0.0
 10
5.0464102805
 20
4.6272996563
 30
0.0
 10
5.0550332549
 20
4.6202719914
 30
0.0
 10
5.0629436415
 20
4.6123880843
 30
0.0
 10
5.0687259749
 20
4.6054768573
 30
0.0
 11
5.0447467224
 21
4.6286052795
 31
0.0
 11
5.0496636882
 21
4.6245961985
 31
0.0
 11
5.0687259749
 21
4.6054768573
 31
0.0
  0
SPLINE
  5
4CA
100
AcDbEntity
  8
0
100
AcDbSpline
 62
7
  6
CONTINUOUS
 70
0
 71
3
 72
10
 73
6
 74
4
 42
0.0000001
 43
0.0000001
 44
0.0000000001
 12
0.0298040937
 22
-0.035622791
 32
0.0
 13
0.0169246958
 23
-0.0432731544
 33
0.0
 40
0.0
 40
0.0
 40
0.0
 40
0.0
 40
0.0857783726
 40
0.783100331
 40
1.0
 40
1.0
 40
1.0
 40
1.0
 10
5.0687259749
 20
4.6054768573
 30
0.0
 10
5.0695781571
 20
4.6044583023
 30
0.0
 10
5.0772342979
 20
4.5950551877
 30
0.0
 10
5.085515281
 20
4.5818428378
 30
0.0
 10
5.0911394702
 20
4.5688397417
 30
0.0
 10
5.0923631238
 20
4.5657110974
 30
0.0
 11
5.0687259749
 21
4.6054768573
 31
0.0
 11
5.0712413631
 21
4.6023870063
 31
0.0
 11
5.0883612228
 21
4.574957713
 31
0.0
 11
5.0923631238
 21
4.5657110974
 31
0.0
  0
SPLINE
  5
4CB
100
AcDbEntity
  8
0
100
AcDbSpline
 62
7
  6
CONTINUOUS
 70
0
 71
3
 72
8
 73
4
 74
2
 42
0.0000001
 43
0.0000001
 44
0.0000000001
 12
0.0055681363
 22
-0.0142366412
 32
0.0
 13
0.0040283711
 23
-0.0147516588
 33
0.0
 40
0.0
 40
0.0
 40
0.0
 40
0.0
 40
1.0
 40
1.0
 40
1.0
 40
1.0
 10
5.0923631238
 20
4.5657110974
 30
0.0
 10
5.0942191692
 20
4.5609655503
 30
0.0
 10
5.0958205527
 20
4.5561195745
 30
0.0
 10
5.0971633431
 20
4.5512023549
 30
0.0
 11
5.0923631238
 21
4.5657110974
 31
0.0
 11
5.0971633431
 21
4.5512023549
 31
0.0
  0
SPLINE
  5
4CC
100
AcDbEntity
  8
0
100
AcDbSpline
 62
7
  6
CONTINUOUS
 70
0
 71
3
 72
9
 73
5
 74
3
 42
0.0000001
 43
0.0000001
 44
0.0000000001
 12
0.0071753654
 22
0.0033127447
 32
0.0
 13
-0.0071753654
 23
-0.0033127447
 33
0.0
 40
0.0
 40
0.0
 40
0.0
 40
0.0
 40
0.5
 40
1.0
 40
1.0
 40
1.0
 40
1.0
 10
5.0984666983
 20
4.9625379951
 30
0.0
 10
5.0996625925
 20
4.9630901192
 30
0.0
 10
5.1043859567
 20
4.9654260379
 30
0.0
 10
5.0996625925
 20
4.9630901192
 30
0.0
 10
5.0984666983
 20
4.9625379951
 30
0.0
 11
5.0984666983
 21
4.9625379951
 31
0.0
 11
5.1020242746
 21
4.9642580785
 31
0.0
 11
5.0984666983
 21
4.9625379951
 31
0.0
  0
SPLINE
  5
4CD
100
AcDbEntity
  8
0
100
AcDbSpline
 62
7
  6
CONTINUOUS
 70
0
 71
3
 72
15
 73
11
 74
9
 42
0.0000001
 43
0.0000001
 44
0.0000000001
 12
0.0
 22
-0.3208839872
 32
0.0
 13
0.3208836852
 23
0.0004402095
 33
0.0
 40
0.0
 40
0.0
 40
0.0
 40
0.0
 40
0.1161974225
 40
0.2336593075
 40
0.3537121706
 40
0.477048107
 40
0.6038688593
 40
0.7338559293
 40
0.8662547719
 40
1.0
 40
1.0
 40
1.0
 40
1.0
 10
5.8144575587
 20
4.5789129951
 30
0.0
 10
5.8144575587
 20
4.5664843643
 30
0.0
 10
5.8173283483
 20
4.5414014724
 30
0.0
 10
5.8300191166
 20
4.5054468837
 30
0.0
 10
5.8505391351
 20
4.4724124846
 30
0.0
 10
5.8780445499
 20
4.4435614901
 30
0.0
 10
5.9114442532
 20
4.419952323
 30
0.0
 10
5.9494624372
 20
4.4024401923
 30
0.0
 10
5.990650231
 20
4.3916787522
 30
0.0
 10
6.0191778878
 20
4.3892338077
 30
0.0
 10
6.0334834417
 20
4.389253433
 30
0.0
 11
5.8144575587
 21
4.5789129951
 31
0.0
 11
5.8186760937
 21
4.5418665145
 31
0.0
 11
5.8311452887
 21
4.5062971632
 31
0.0
 11
5.8513846599
 21
4.4735192351
 31
0.0
 11
5.878610441
 21
4.4447954064
 31
0.0
 11
5.9117811025
 21
4.4212206364
 31
0.0
 11
5.9496321565
 21
4.4036967674
 31
0.0
 11
5.9907219044
 21
4.3928995604
 31
0.0
 11
6.0334834417
 21
4.389253433
 31
0.0
  0
SPLINE
  5
4CE
100
AcDbEntity
  8
0
100
AcDbSpline
 62
7
  6
CONTINUOUS
 70
0
 71
3
 72
14
 73
10
 74
8
 42
0.0000001
 43
0.0000001
 44
0.0000000001
 12
-0.245940849
 22
0.0014293267
 32
0.0
 13
0.000000012
 23
-0.0000000432
 33
0.0
 40
0.0
 40
0.0
 40
0.0
 40
0.0
 40
0.1747849401
 40
0.3857408016
 40
0.579947962
 40
0.7455156896
 40
0.8729412893
 40
0.9578882446
 40
1.0
 40
1.0
 40
1.0
 40
1.0
 10
4.8787223928
 20
3.561881662
 30
0.0
 10
4.864393474
 20
3.5619649369
 30
0.0
 10
4.8327523562
 20
3.5613076689
 30
0.0
 10
4.7854322114
 20
3.5575831464
 30
0.0
 10
4.7387581331
 20
3.5510567015
 30
0.0
 10
4.7004461515
 20
3.5438656597
 30
0.0
 10
4.6679017913
 20
3.5362827554
 30
0.0
 10
4.6525277984
 20
3.5324333894
 30
0.0
 10
4.6359910098
 20
3.5278840627
 30
0.0
 10
4.63599101
 20
3.5278840621
 30
0.0
 11
4.8787223928
 21
3.561881662
 31
0.0
 11
4.8357536458
 21
3.5609956261
 31
0.0
 11
4.7840452216
 21
3.5569249562
 31
0.0
 11
4.7367454546
 21
3.5503806651
 31
0.0
 11
4.6967476084
 21
3.5428064536
 31
0.0
 11
4.6662087039
 21
3.5358079876
 31
0.0
 11
4.6459794023
 21
3.5306110582
 31
0.0
 11
4.63599101
 21
3.5278840621
 31
0.0
  0
SPLINE
  5
4CF
100
AcDbEntity
  8
0
100
AcDbSpline
 62
7
  6
CONTINUOUS
 70
0
 71
3
 72
8
 73
4
 74
2
 42
0.0000001
 43
0.0000001
 44
0.0000000001
 12
-0.0104351731
 22
0.0001958583
 32
0.0
 13
-0.01043988
 23
0.0000606731
 33
0.0
 40
0.0
 40
0.0
 40
0.0
 40
0.0
 40
1.0
 40
1.0
 40
1.0
 40
1.0
 10
4.8891602234
 20
3.5617534494
 30
0.0
 10
4.8856818324
 20
3.5618187355
 30
0.0
 10
4.8822023528
 20
3.5618614376
 30
0.0
 10
4.8787223928
 20
3.561881662
 30
0.0
 11
4.8891602234
 21
3.5617534494
 31
0.0
 11
4.8787223928
 21
3.561881662
 31
0.0
  0
SPLINE
  5
4D0
100
AcDbEntity
  8
0
100
AcDbSpline
 62
7
  6
CONTINUOUS
 70
0
 71
3
 72
14
 73
10
 74
8
 42
0.0000001
 43
0.0000001
 44
0.0000000001
 12
-0.3159200559
 22
-0.00593553
 32
0.0
 13
0.0
 23
-0.3159758096
 33
0.0
 40
0.0
 40
0.0
 40
0.0
 40
0.0
 40
0.1527313173
 40
0.3034852597
 40
0.4507863522
 40
0.5937472317
 40
0.7322759268
 40
0.8671651993
 40
1.0
 40
1.0
 40
1.0
 40
1.0
 10
4.8787075587
 20
4.0934029421
 30
0.0
 10
4.8626239299
 20
4.0931007617
 30
0.0
 10
4.8306356554
 20
4.0894393785
 30
0.0
 10
4.7851063114
 20
4.0749724107
 30
0.0
 10
4.7442408852
 20
4.0521961419
 30
0.0
 10
4.7100426654
 20
4.0221476573
 30
0.0
 10
4.6842147073
 20
3.9862016071
 30
0.0
 10
4.668115414
 20
3.9461049769
 30
0.0
 10
4.6644575587
 20
3.9177788563
 30
0.0
 10
4.6644575587
 20
3.9037879951
 30
0.0
 11
4.8787075587
 21
4.0934029421
 31
0.0
 11
4.8307656805
 21
4.087876084
 31
0.0
 11
4.7853933334
 21
4.0733707353
 31
0.0
 11
4.7448035322
 21
4.0505941452
 31
0.0
 11
4.7109761237
 21
4.0206570069
 31
0.0
 11
4.6855612109
 21
3.9850193108
 31
0.0
 11
4.6697987028
 21
3.945419353
 31
0.0
 11
4.6644575587
 21
3.9037879951
 31
0.0
  0
SPLINE
  5
4D1
100
AcDbEntity
  8
0
100
AcDbSpline
 62
7
  6
CONTINUOUS
 70
0
 71
3
 72
9
 73
5
 74
3
 42
0.0000001
 43
0.0000001
 44
0.0000000001
 12
-0.0104425249
 22
0.0006270563
 32
0.0
 13
-0.0104594906
 23
0.0001964212
 33
0.0
 40
0.0
 40
0.0
 40
0.0
 40
0.0
 40
0.5001719915
 40
1.0
 40
1.0
 40
1.0
 40
1.0
 10
4.8891602234
 20
4.0929909746
 30
0.0
 10
4.8874192039
 20
4.0930955199
 30
0.0
 10
4.8839361209
 20
4.0932687561
 30
0.0
 10
4.8804502075
 20
4.0933702165
 30
0.0
 10
4.8787075587
 20
4.0934029421
 30
0.0
 11
4.8891602234
 21
4.0929909746
 31
0.0
 11
4.8839342147
 21
4.0932508594
 31
0.0
 11
4.8787075587
 21
4.0934029421
 31
0.0
  0
SPLINE
  5
4D2
100
AcDbEntity
  8
0
100
AcDbSpline
 62
7
  6
CONTINUOUS
 70
0
 71
3
 72
9
 73
5
 74
3
 42
0.0000001
 43
0.0000001
 44
0.0000000001
 12
0.0104594906
 22
0.0001964212
 32
0.0
 13
0.0104425249
 23
0.0006270563
 33
0.0
 40
0.0
 40
0.0
 40
0.0
 40
0.0
 40
0.4998228841
 40
1.0
 40
1.0
 40
1.0
 40
1.0
 10
4.8787075587
 20
4.3966730481
 30
0.0
 10
4.8804501896
 20
4.3967057734
 30
0.0
 10
4.883936103
 20
4.3968072334
 30
0.0
 10
4.8874191861
 20
4.3969804692
 30
0.0
 10
4.8891602234
 20
4.3970850156
 30
0.0
 11
4.8787075587
 21
4.3966730481
 31
0.0
 11
4.8839341611
 21
4.3968251287
 31
0.0
 11
4.8891602234
 21
4.3970850156
 31
0.0
  0
SPLINE
  5
4D3
100
AcDbEntity
  8
0
100
AcDbSpline
 62
7
  6
CONTINUOUS
 70
0
 71
3
 72
8
 73
4
 74
2
 42
0.0000001
 43
0.0000001
 44
0.0000000001
 12
0.0007995012
 22
0.0014474565
 32
0.0
 13
0.0007867526
 23
0.0014544851
 33
0.0
 40
0.0
 40
0.0
 40
0.0
 40
0.0
 40
1.0
 40
1.0
 40
1.0
 40
1.0
 10
5.0802716121
 20
4.5105349355
 30
0.0
 10
5.0805381125
 20
4.511017421
 30
0.0
 10
5.0808024974
 20
4.5115010835
 30
0.0
 10
5.0810647483
 20
4.5119859119
 30
0.0
 11
5.0802716121
 21
4.5105349355
 31
0.0
 11
5.0810647483
 21
4.5119859119
 31
0.0
  0
SPLINE
  5
4D4
100
AcDbEntity
  8
0
100
AcDbSpline
 62
7
  6
CONTINUOUS
 70
0
 71
3
 72
8
 73
4
 74
2
 42
0.0000001
 43
0.0000001
 44
0.0000000001
 12
0.0207263446
 22
0.0383172006
 32
0.0
 13
0.010929241
 23
0.0422183664
 33
0.0
 40
0.0
 40
0.0
 40
0.0
 40
0.0
 40
1.0
 40
1.0
 40
1.0
 40
1.0
 10
5.0810647483
 20
4.5119859119
 30
0.0
 10
5.0879735298
 20
4.5247583121
 30
0.0
 10
5.0934013119
 20
4.5383398307
 30
0.0
 10
5.0970443922
 20
4.5524126195
 30
0.0
 11
5.0810647483
 21
4.5119859119
 31
0.0
 11
5.0970443922
 21
4.5524126195
 31
0.0
  0
SPLINE
  5
4D5
100
AcDbEntity
  8
0
100
AcDbSpline
 62
7
  6
CONTINUOUS
 70
0
 71
3
 72
8
 73
4
 74
2
 42
0.0000001
 43
0.0000001
 44
0.0000000001
 12
0.0036177784
 22
0.0139750504
 32
0.0
 13
0.0024264717
 23
0.014236166
 33
0.0
 40
0.0
 40
0.0
 40
0.0
 40
0.0
 40
1.0
 40
1.0
 40
1.0
 40
1.0
 10
5.0970443922
 20
4.5524126195
 30
0.0
 10
5.0982503184
 20
4.5570709696
 30
0.0
 10
5.0992606892
 20
4.5617831497
 30
0.0
 10
5.1000695131
 20
4.5665285384
 30
0.0
 11
5.0970443922
 21
4.5524126195
 31
0.0
 11
5.1000695131
 21
4.5665285384
 31
0.0
  0
SPLINE
  5
4D6
100
AcDbEntity
  8
0
100
AcDbSpline
 62
7
  6
CONTINUOUS
 70
0
 71
3
 72
8
 73
4
 74
2
 42
0.0000001
 43
0.0000001
 44
0.0000000001
 12
-0.0000000486
 22
-0.0009665381
 32
0.0
 13
-0.0000057275
 23
-0.000966527
 33
0.0
 40
0.0
 40
0.0
 40
0.0
 40
0.0
 40
1.0
 40
1.0
 40
1.0
 40
1.0
 10
5.1024579808
 20
4.6047555413
 30
0.0
 10
5.1024579646
 20
4.6044333619
 30
0.0
 10
5.1024569997
 20
4.6041111819
 30
0.0
 10
5.1024550905
 20
4.6037890062
 30
0.0
 11
5.1024579808
 21
4.6047555413
 31
0.0
 11
5.1024550905
 21
4.6037890062
 31
0.0
  0
SPLINE
  5
4D7
100
AcDbEntity
  8
0
100
AcDbSpline
 62
7
  6
CONTINUOUS
 70
0
 71
3
 72
8
 73
4
 74
2
 42
0.0000001
 43
0.0000001
 44
0.0000000001
 12
-0.000065627
 22
-0.0110746363
 32
0.0
 13
-0.0007892789
 23
-0.0110487105
 33
0.0
 40
0.0
 40
0.0
 40
0.0
 40
0.0
 40
1.0
 40
1.0
 40
1.0
 40
1.0
 10
5.1024550905
 20
4.6037890062
 30
0.0
 10
5.1024332148
 20
4.6000974608
 30
0.0
 10
5.1022873688
 20
4.5964064856
 30
0.0
 10
5.1020242758
 20
4.5927235821
 30
0.0
 11
5.1024550905
 21
4.6037890062
 31
0.0
 11
5.1020242758
 21
4.5927235821
 31
0.0
  0
SPLINE
  5
4D8
100
AcDbEntity
  8
0
100
AcDbSpline
 62
7
  6
CONTINUOUS
 70
0
 71
3
 72
8
 73
4
 74
2
 42
0.0000001
 43
0.0000001
 44
0.0000000001
 12
-0.001799515
 22
-0.0251904885
 32
0.0
 13
-0.0052452964
 23
-0.0246787673
 33
0.0
 40
0.0
 40
0.0
 40
0.0
 40
0.0
 40
1.0
 40
1.0
 40
1.0
 40
1.0
 10
5.1020242758
 20
4.5927235821
 30
0.0
 10
5.1014244375
 20
4.5843267526
 30
0.0
 10
5.1002151304
 20
4.5759718809
 30
0.0
 10
5.0984666983
 20
4.5677456252
 30
0.0
 11
5.1020242758
 21
4.5927235821
 31
0.0
 11
5.0984666983
 21
4.5677456252
 31
0.0
  0
SPLINE
  5
4D9
100
AcDbEntity
  8
0
100
AcDbSpline
 62
7
  6
CONTINUOUS
 70
0
 71
3
 72
8
 73
4
 74
2
 42
0.0000001
 43
0.0000001
 44
0.0000000001
 12
-0.0104351668
 22
-0.0001958582
 32
0.0
 13
-0.0104398737
 23
-0.0000606732
 33
0.0
 40
0.0
 40
0.0
 40
0.0
 40
0.0
 40
1.0
 40
1.0
 40
1.0
 40
1.0
 10
4.8891602234
 20
4.9283225408
 30
0.0
 10
4.8856818345
 20
4.9282572547
 30
0.0
 10
4.882202357
 20
4.9282145526
 30
0.0
 10
4.8787223992
 20
4.9281943282
 30
0.0
 11
4.8891602234
 21
4.9283225408
 31
0.0
 11
4.8787223992
 21
4.9281943282
 31
0.0
  0
SPLINE
  5
4DA
100
AcDbEntity
  8
0
100
AcDbSpline
 62
7
  6
CONTINUOUS
 70
0
 71
3
 72
14
 73
10
 74
8
 42
0.0000001
 43
0.0000001
 44
0.0000000001
 12
-0.2459408553
 22
-0.0014293287
 32
0.0
 13
0.000000012
 23
0.0000000432
 33
0.0
 40
0.0
 40
0.0
 40
0.0
 40
0.0
 40
0.1747849613
 40
0.3857408174
 40
0.5799479728
 40
0.7455156961
 40
0.8729412926
 40
0.9578882456
 40
1.0
 40
1.0
 40
1.0
 40
1.0
 10
4.8787223992
 20
4.9281943282
 30
0.0
 10
4.8643934782
 20
4.9281110532
 30
0.0
 10
4.8327523583
 20
4.9287683211
 30
0.0
 10
4.7854322114
 20
4.9324928437
 30
0.0
 10
4.7387581331
 20
4.9390192887
 30
0.0
 10
4.7004461515
 20
4.9462103305
 30
0.0
 10
4.6679017913
 20
4.9537932348
 30
0.0
 10
4.6525277984
 20
4.9576426007
 30
0.0
 10
4.6359910098
 20
4.9621919275
 30
0.0
 10
4.63599101
 20
4.9621919281
 30
0.0
 11
4.8787223992
 21
4.9281943282
 31
0.0
 11
4.8357536458
 21
4.9290803641
 31
0.0
 11
4.7840452216
 21
4.933151034
 31
0.0
 11
4.7367454546
 21
4.9396953251
 31
0.0
 11
4.6967476084
 21
4.9472695366
 31
0.0
 11
4.6662087039
 21
4.9542680026
 31
0.0
 11
4.6459794023
 21
4.959464932
 31
0.0
 11
4.63599101
 21
4.9621919281
 31
0.0
  0
SPLINE
  5
4DB
100
AcDbEntity
  8
0
100
AcDbSpline
 62
7
  6
CONTINUOUS
 70
0
 71
3
 72
14
 73
10
 74
8
 42
0.0000001
 43
0.0000001
 44
0.0000000001
 12
0.0
 22
-0.3159758096
 32
0.0
 13
0.3159200559
 23
-0.00593553
 33
0.0
 40
0.0
 40
0.0
 40
0.0
 40
0.0
 40
0.1328348007
 40
0.2677240732
 40
0.4062527683
 40
0.5492136478
 40
0.6965147403
 40
0.8472686827
 40
1.0
 40
1.0
 40
1.0
 40
1.0
 10
4.6644575587
 20
4.5862879951
 30
0.0
 10
4.6644575587
 20
4.5722971339
 30
0.0
 10
4.668115414
 20
4.5439710132
 30
0.0
 10
4.6842147073
 20
4.5038743831
 30
0.0
 10
4.7100426654
 20
4.4679283329
 30
0.0
 10
4.7442408852
 20
4.4378798483
 30
0.0
 10
4.7851063114
 20
4.4151035795
 30
0.0
 10
4.8306356554
 20
4.4006366116
 30
0.0
 10
4.8626239299
 20
4.3969752285
 30
0.0
 10
4.8787075587
 20
4.3966730481
 30
0.0
 11
4.6644575587
 21
4.5862879951
 31
0.0
 11
4.6697987028
 21
4.5446566372
 31
0.0
 11
4.6855612109
 21
4.5050566794
 31
0.0
 11
4.7109761237
 21
4.4694189833
 31
0.0
 11
4.7448035322
 21
4.439481845
 31
0.0
 11
4.7853933334
 21
4.4167052549
 31
0.0
 11
4.8307656805
 21
4.4021999062
 31
0.0
 11
4.8787075587
 21
4.3966730481
 31
0.0
  0
SPLINE
  5
4DC
100
AcDbEntity
  8
0
100
AcDbSpline
 62
7
  6
CONTINUOUS
 70
0
 71
3
 72
8
 73
4
 74
2
 42
0.0000001
 43
0.0000001
 44
0.0000000001
 12
-0.0024283454
 22
0.0142478995
 32
0.0
 13
-0.0036215913
 23
0.0139863263
 33
0.0
 40
0.0
 40
0.0
 40
0.0
 40
0.0
 40
1.0
 40
1.0
 40
1.0
 40
1.0
 10
5.1000697545
 20
3.9235459907
 30
0.0
 10
5.099260306
 20
3.9282952905
 30
0.0
 10
5.0982489794
 20
3.933011331
 30
0.0
 10
5.0970417823
 20
3.9376734398
 30
0.0
 11
5.1000697545
 21
3.9235459907
 31
0.0
 11
5.0970417823
 21
3.9376734398
 31
0.0
  0
SPLINE
  5
4DD
100
AcDbEntity
  8
0
100
AcDbSpline
 62
7
  6
CONTINUOUS
 70
0
 71
3
 72
8
 73
4
 74
2
 42
0.0000001
 43
0.0000001
 44
0.0000000001
 12
-0.0109325295
 22
0.0422206462
 32
0.0
 13
-0.0207304883
 23
0.0383183379
 33
0.0
 40
0.0
 40
0.0
 40
0.0
 40
0.0
 40
1.0
 40
1.0
 40
1.0
 40
1.0
 10
5.0970417823
 20
3.9376734398
 30
0.0
 10
5.0933976058
 20
3.9517469885
 30
0.0
 10
5.0879685393
 20
3.9653290786
 30
0.0
 10
5.0810583766
 20
3.9781018579
 30
0.0
 11
5.0970417823
 21
3.9376734398
 31
0.0
 11
5.0810583766
 21
3.9781018579
 31
0.0
  0
SPLINE
  5
4DE
100
AcDbEntity
  8
0
100
AcDbSpline
 62
7
  6
CONTINUOUS
 70
0
 71
3
 72
8
 73
4
 74
2
 42
0.0000001
 43
0.0000001
 44
0.0000000001
 12
-0.0007804393
 22
0.0014425679
 32
0.0
 13
-0.0007929803
 23
0.0014356531
 33
0.0
 40
0.0
 40
0.0
 40
0.0
 40
0.0
 40
1.0
 40
1.0
 40
1.0
 40
1.0
 10
5.0810583766
 20
3.9781018579
 30
0.0
 10
5.0807982301
 20
3.9785827138
 30
0.0
 10
5.0805359845
 20
3.9790624228
 30
0.0
 10
5.0802716578
 20
3.9795409738
 30
0.0
 11
5.0810583766
 21
3.9781018579
 31
0.0
 11
5.0802716578
 21
3.9795409738
 31
0.0
  0
SPLINE
  5
4DF
100
AcDbEntity
  8
0
100
AcDbSpline
 62
7
  6
CONTINUOUS
 70
0
 71
3
 72
8
 73
4
 74
2
 42
0.0000001
 43
0.0000001
 44
0.0000000001
 12
0.0006045301
 22
0.0002975956
 32
0.0
 13
0.0
 23
0.0
 33
0.0
 40
0.0
 40
0.0
 40
0.0
 40
0.0
 40
1.0
 40
1.0
 40
1.0
 40
1.0
 10
5.1017014845
 20
4.9640989015
 30
0.0
 10
5.1019029945
 20
4.9641981
 30
0.0
 10
5.1020242746
 20
4.9642580785
 30
0.0
 10
5.1020242746
 20
4.9642580785
 30
0.0
 11
5.1017014845
 21
4.9640989015
 31
0.0
 11
5.1020242746
 21
4.9642580785
 31
0.0
  0
SPLINE
  5
4E0
100
AcDbEntity
  8
0
100
AcDbSpline
 62
7
  6
CONTINUOUS
 70
0
 71
3
 72
8
 73
4
 74
2
 42
0.0000001
 43
0.0000001
 44
0.0000000001
 12
0.0027746685
 22
0.0012810174
 32
0.0
 13
0.0020631504
 23
0.0010156393
 33
0.0
 40
0.0
 40
0.0
 40
0.0
 40
0.0
 40
1.0
 40
1.0
 40
1.0
 40
1.0
 10
5.0984666983
 20
4.9625379951
 30
0.0
 10
5.0993915878
 20
4.9629650009
 30
0.0
 10
5.1010137677
 20
4.963760355
 30
0.0
 10
5.1017014845
 20
4.9640989015
 30
0.0
 11
5.0984666983
 21
4.9625379951
 31
0.0
 11
5.1017014845
 21
4.9640989015
 31
0.0
  0
SPLINE
  5
4E1
100
AcDbEntity
  8
0
100
AcDbSpline
 62
7
  6
CONTINUOUS
 70
0
 71
3
 72
8
 73
4
 74
2
 42
0.0000001
 43
0.0000001
 44
0.0000000001
 12
0.0068503268
 22
0.0303795626
 32
0.0
 13
0.0132277189
 23
0.0281774744
 33
0.0
 40
0.0
 40
0.0
 40
0.0
 40
0.0
 40
1.0
 40
1.0
 40
1.0
 40
1.0
 10
5.8181737382
 20
4.5448680329
 30
0.0
 10
5.8204571805
 20
4.5549945537
 30
0.0
 10
5.8238194556
 20
4.564877309
 30
0.0
 10
5.8282286953
 20
4.5742698005
 30
0.0
 11
5.8181737382
 21
4.5448680329
 31
0.0
 11
5.8282286953
 21
4.5742698005
 31
0.0
  0
SPLINE
  5
4E2
100
AcDbEntity
  8
0
100
AcDbSpline
 62
7
  6
CONTINUOUS
 70
0
 71
3
 72
22
 73
18
 74
16
 42
0.0000001
 43
0.0000001
 44
0.0000000001
 12
0.2057559874
 22
0.4382981005
 32
0.0
 13
0.2056708964
 23
-0.4383465314
 33
0.0
 40
0.0
 40
0.0
 40
0.0
 40
0.0
 40
0.0008068977
 40
0.0674332976
 40
0.1312375847
 40
0.198351969
 40
0.2783941797
 40
0.3647120499
 40
0.4539324422
 40
0.5434841689
 40
0.632758962
 40
0.719251546
 40
0.7997315653
 40
0.8673891985
 40
0.9314687493
 40
0.9983798606
 40
1.0
 40
1.0
 40
1.0
 40
1.0
 10
5.8282286953
 20
4.5742698005
 30
0.0
 10
5.8282840366
 20
4.5743876877
 30
0.0
 10
5.832922755
 20
4.5842331954
 30
0.0
 10
5.844191511
 20
4.6023379591
 30
0.0
 10
5.8665217312
 20
4.6252978964
 30
0.0
 10
5.8945392382
 20
4.6448449663
 30
0.0
 10
5.9288946437
 20
4.6606160641
 30
0.0
 10
5.9687342011
 20
4.6715865148
 30
0.0
 10
6.0112039342
 20
4.6770866078
 30
0.0
 10
6.0544917241
 20
4.6771630801
 30
0.0
 10
6.0970176391
 20
4.671815945
 30
0.0
 10
6.137005458
 20
4.6609836721
 30
0.0
 10
6.1716025892
 20
4.645292296
 30
0.0
 10
6.1998729412
 20
4.6257498725
 30
0.0
 10
6.222414483
 20
4.6027452265
 30
0.0
 10
6.2338589586
 20
4.5844855086
 30
0.0
 10
6.2385853594
 20
4.5744851957
 30
0.0
 10
6.2386964312
 20
4.5742484682
 30
0.0
 11
5.8282286953
 21
4.5742698005
 31
0.0
 11
5.828395214
 21
4.57462323
 31
0.0
 11
5.8453586485
 21
4.6019877979
 31
0.0
 11
5.8667623339
 21
4.624180285
 31
0.0
 11
5.8932612244
 21
4.6428785811
 31
0.0
 11
5.9283074049
 21
4.659243769
 31
0.0
 11
5.9684655486
 21
4.670520676
 31
0.0
 11
6.0112080514
 21
4.6761685788
 31
0.0
 11
6.0544821309
 21
4.6762465727
 31
0.0
 11
6.0972717484
 21
4.6707569053
 31
0.0
 11
6.1375585181
 21
4.6596271432
 31
0.0
 11
6.1728706997
 21
4.6433325205
 31
0.0
 11
6.1996636882
 21
4.6245961985
 31
0.0
 11
6.2212413631
 21
4.6023870063
 31
0.0
 11
6.2383612228
 21
4.574957713
 31
0.0
 11
6.2386964312
 21
4.5742484682
 31
0.0
  0
SPLINE
  5
4E3
100
AcDbEntity
  8
0
100
AcDbSpline
 62
7
  6
CONTINUOUS
 70
0
 71
3
 72
8
 73
4
 74
2
 42
0.0000001
 43
0.0000001
 44
0.0000000001
 12
0.0126692897
 22
-0.0270020664
 32
0.0
 13
0.0068183652
 23
-0.0290512606
 33
0.0
 40
0.0
 40
0.0
 40
0.0
 40
0.0
 40
1.0
 40
1.0
 40
1.0
 40
1.0
 10
6.2386964312
 20
4.5742484682
 30
0.0
 10
6.2429195278
 20
4.5652477794
 30
0.0
 10
6.2461820742
 20
4.5557971391
 30
0.0
 10
6.2484548626
 20
4.5461133856
 30
0.0
 11
6.2386964312
 21
4.5742484682
 31
0.0
 11
6.2484548626
 21
4.5461133856
 31
0.0
  0
SPLINE
  5
4E4
100
AcDbEntity
  8
0
100
AcDbSpline
 62
7
  6
CONTINUOUS
 70
0
 71
3
 72
8
 73
4
 74
2
 42
0.0000001
 43
0.0000001
 44
0.0000000001
 12
-0.0050655776
 22
-0.0239059914
 32
0.0
 13
-0.0090117463
 23
-0.0227033543
 33
0.0
 40
0.0
 40
0.0
 40
0.0
 40
0.0
 40
1.0
 40
1.0
 40
1.0
 40
1.0
 10
7.6901472063
 20
3.9470639178
 30
0.0
 10
7.6884586805
 20
3.9390952541
 30
0.0
 10
7.6861054473
 20
3.9312675129
 30
0.0
 10
7.6831015318
 20
3.9236997282
 30
0.0
 11
7.6901472063
 21
3.9470639178
 31
0.0
 11
7.6831015318
 21
3.9236997282
 31
0.0
  0
SPLINE
  5
4E5
100
AcDbEntity
  8
0
100
AcDbSpline
 62
7
  6
CONTINUOUS
 70
0
 71
3
 72
8
 73
4
 74
2
 42
0.0000001
 43
0.0000001
 44
0.0000000001
 12
-0.0004854694
 22
-0.0012230464
 32
0.0
 13
-0.0004967927
 23
-0.0012184641
 33
0.0
 40
0.0
 40
0.0
 40
0.0
 40
0.0
 40
1.0
 40
1.0
 40
1.0
 40
1.0
 10
7.6831015318
 20
3.9236997282
 30
0.0
 10
7.6829397087
 20
3.923292046
 30
0.0
 10
7.6827759973
 20
3.9228851183
 30
0.0
 10
7.6826103997
 20
3.9224789636
 30
0.0
 11
7.6831015318
 21
3.9236997282
 31
0.0
 11
7.6826103997
 21
3.9224789636
 31
0.0
  0
SPLINE
  5
4E6
100
AcDbEntity
  8
0
100
AcDbSpline
 62
7
  6
CONTINUOUS
 70
0
 71
3
 72
11
 73
7
 74
5
 42
0.0000001
 43
0.0000001
 44
0.0000000001
 12
-0.0377542495
 22
-0.0925983736
 32
0.0
 13
-0.0854853215
 23
-0.0517726804
 33
0.0
 40
0.0
 40
0.0
 40
0.0
 40
0.0
 40
0.0679299285
 40
0.3851684257
 40
0.6892741295
 40
1.0
 40
1.0
 40
1.0
 40
1.0
 10
7.6826103997
 20
3.9224789636
 30
0.0
 10
7.6817555185
 20
3.92038223
 30
0.0
 10
7.6766232582
 20
3.908610384
 30
0.0
 10
7.6645642586
 20
3.888876759
 30
0.0
 10
7.6430506779
 20
3.8662699723
 30
0.0
 10
7.6263667544
 20
3.8542579308
 30
0.0
 10
7.6175125874
 20
3.8488955604
 30
0.0
 11
7.6826103997
 21
3.9224789636
 31
0.0
 11
7.6798952601
 21
3.9162531266
 31
0.0
 11
7.6634296759
 21
3.8892094302
 31
0.0
 11
7.6425936578
 21
3.8671400901
 31
0.0
 11
7.6175125874
 21
3.8488955604
 31
0.0
  0
SPLINE
  5
4E7
100
AcDbEntity
  8
0
100
AcDbSpline
 62
7
  6
CONTINUOUS
 70
0
 71
3
 72
11
 73
7
 74
5
 42
0.0000001
 43
0.0000001
 44
0.0000000001
 12
-0.0855028805
 22
-0.0517833147
 32
0.0
 13
-0.0988109797
 23
-0.0147122723
 33
0.0
 40
0.0
 40
0.0
 40
0.0
 40
0.0
 40
0.0126015698
 40
0.4020330035
 40
0.8257568675
 40
1.0
 40
1.0
 40
1.0
 40
1.0
 10
7.6175125874
 20
3.8488955604
 30
0.0
 10
7.6171534305
 20
3.8486780434
 30
0.0
 10
7.6056729313
 20
3.8417756921
 30
0.0
 10
7.5806694958
 20
3.8300305611
 30
0.0
 10
7.5489177771
 20
3.8210971736
 30
0.0
 10
7.5293033261
 20
3.8176224704
 30
0.0
 10
7.5235642812
 20
3.8167679663
 30
0.0
 11
7.6175125874
 21
3.8488955604
 31
0.0
 11
7.6164330462
 21
3.8482465036
 31
0.0
 11
7.5813576832
 21
3.831483678
 31
0.0
 11
7.5407015901
 21
3.8198118049
 31
0.0
 11
7.5235642812
 21
3.8167679663
 31
0.0
  0
SPLINE
  5
4E8
100
AcDbEntity
  8
0
100
AcDbSpline
 62
7
  6
CONTINUOUS
 70
0
 71
3
 72
9
 73
5
 74
3
 42
0.0000001
 43
0.0000001
 44
0.0000000001
 12
-0.0596445043
 22
-0.0088806547
 32
0.0
 13
-0.0602671997
 23
0.001950512
 33
0.0
 40
0.0
 40
0.0
 40
0.0
 40
0.0
 40
0.4401250504
 40
1.0
 40
1.0
 40
1.0
 40
1.0
 10
7.5235642812
 20
3.8167679663
 30
0.0
 10
7.5148139344
 20
3.8154651001
 30
0.0
 10
7.4948080964
 20
3.8133394238
 30
0.0
 10
7.4746882121
 20
3.8129940544
 30
0.0
 10
7.463440847
 20
3.8133580686
 30
0.0
 11
7.5235642812
 21
3.8167679663
 31
0.0
 11
7.4971817016
 21
3.8139388367
 31
0.0
 11
7.463440847
 21
3.8133580686
 31
0.0
  0
SPLINE
  5
4E9
100
AcDbEntity
  8
0
100
AcDbSpline
 62
7
  6
CONTINUOUS
 70
0
 71
3
 72
9
 73
5
 74
3
 42
0.0000001
 43
0.0000001
 44
0.0000000001
 12
-0.0240963514
 22
0.0007798641
 32
0.0
 13
-0.0239809399
 23
0.0025006976
 33
0.0
 40
0.0
 40
0.0
 40
0.0
 40
0.0
 40
0.4322771473
 40
1.0
 40
1.0
 40
1.0
 40
1.0
 10
7.463440847
 20
3.8133580686
 30
0.0
 10
7.4599687463
 20
3.8134704411
 30
0.0
 10
7.4519404329
 20
3.8138532728
 30
0.0
 10
7.4439292634
 20
3.814520253
 30
0.0
 10
7.4393910875
 20
3.8149934874
 30
0.0
 11
7.463440847
 21
3.8133580686
 31
0.0
 11
7.4530310371
 21
3.8138545169
 31
0.0
 11
7.4393910875
 21
3.8149934874
 31
0.0
  0
SPLINE
  5
4EA
100
AcDbEntity
  8
0
100
AcDbSpline
 62
7
  6
CONTINUOUS
 70
0
 71
3
 72
9
 73
5
 74
3
 42
0.0000001
 43
0.0000001
 44
0.0000000001
 12
-0.0518471668
 22
0.0054065474
 32
0.0
 13
-0.0501638662
 23
0.0142109481
 33
0.0
 40
0.0
 40
0.0
 40
0.0
 40
0.0
 40
0.5811387981
 40
1.0
 40
1.0
 40
1.0
 40
1.0
 10
7.4393910875
 20
3.8149934874
 30
0.0
 10
7.4293476208
 20
3.8160408055
 30
0.0
 10
7.4121490748
 20
3.8186400623
 30
0.0
 10
7.395236746
 20
3.8227068841
 30
0.0
 10
7.3882328469
 20
3.8246910224
 30
0.0
 11
7.4393910875
 21
3.8149934874
 31
0.0
 11
7.409454798
 21
3.8195574929
 31
0.0
 11
7.3882328469
 21
3.8246910224
 31
0.0
  0
SPLINE
  5
4EB
100
AcDbEntity
  8
0
100
AcDbSpline
 62
7
  6
CONTINUOUS
 70
0
 71
3
 72
9
 73
5
 74
3
 42
0.0000001
 43
0.0000001
 44
0.0000000001
 12
-0.0242707299
 22
0.0068756679
 32
0.0
 13
-0.0234888245
 23
0.0092306914
 33
0.0
 40
0.0
 40
0.0
 40
0.0
 40
0.0
 40
0.8166883115
 40
1.0
 40
1.0
 40
1.0
 40
1.0
 10
7.3882328469
 20
3.8246910224
 30
0.0
 10
7.3816256398
 20
3.8265627816
 30
0.0
 10
7.373622592
 20
3.8291605494
 30
0.0
 10
7.3657638257
 20
3.8321620892
 30
0.0
 10
7.364328567
 20
3.8327261204
 30
0.0
 11
7.3882328469
 21
3.8246910224
 31
0.0
 11
7.3686498814
 21
3.8310752225
 31
0.0
 11
7.364328567
 21
3.8327261204
 31
0.0
  0
SPLINE
  5
4EC
100
AcDbEntity
  8
0
100
AcDbSpline
 62
7
  6
CONTINUOUS
 70
0
 71
3
 72
9
 73
5
 74
3
 42
0.0000001
 43
0.0000001
 44
0.0000000001
 12
-0.0548823198
 22
0.0215677782
 32
0.0
 13
-0.0463643649
 23
0.0364188699
 33
0.0
 40
0.0
 40
0.0
 40
0.0
 40
0.0
 40
0.5857768222
 40
1.0
 40
1.0
 40
1.0
 40
1.0
 10
7.364328567
 20
3.8327261204
 30
0.0
 10
7.3536123033
 20
3.8369374219
 30
0.0
 10
7.3358268769
 20
3.8454413298
 30
0.0
 10
7.3195123797
 20
3.8564877453
 30
0.0
 10
7.3131106482
 20
3.8615162586
 30
0.0
 11
7.364328567
 21
3.8327261204
 31
0.0
 11
7.3332804487
 21
3.8477726282
 31
0.0
 11
7.3131106482
 21
3.8615162586
 31
0.0
  0
SPLINE
  5
4ED
100
AcDbEntity
  8
0
100
AcDbSpline
 62
7
  6
CONTINUOUS
 70
0
 71
3
 72
9
 73
5
 74
3
 42
0.0000001
 43
0.0000001
 44
0.0000000001
 12
-0.0262637253
 22
0.0206299644
 32
0.0
 13
-0.021422011
 23
0.0256380683
 33
0.0
 40
0.0
 40
0.0
 40
0.0
 40
0.0
 40
0.2445907411
 40
1.0
 40
1.0
 40
1.0
 40
1.0
 10
7.3131106482
 20
3.8615162586
 30
0.0
 10
7.3109693602
 20
3.8631982247
 30
0.0
 10
7.3023776776
 20
3.870282014
 30
0.0
 10
7.2945168605
 20
3.8782230402
 30
0.0
 10
7.289122732
 20
3.8846787849
 30
0.0
 11
7.3131106482
 21
3.8615162586
 31
0.0
 11
7.3068101919
 21
3.8667147671
 31
0.0
 11
7.289122732
 21
3.8846787849
 31
0.0
  0
SPLINE
  5
4EE
100
AcDbEntity
  8
0
100
AcDbSpline
 62
7
  6
CONTINUOUS
 70
0
 71
3
 72
10
 73
6
 74
4
 42
0.0000001
 43
0.0000001
 44
0.0000000001
 12
-0.0284270257
 22
0.0340217371
 32
0.0
 13
-0.0167377217
 23
0.0410708007
 33
0.0
 40
0.0
 40
0.0
 40
0.0
 40
0.0
 40
0.1196100763
 40
0.838015913
 40
1.0
 40
1.0
 40
1.0
 40
1.0
 10
7.289122732
 20
3.8846787849
 30
0.0
 10
7.2879893457
 20
3.8860352324
 30
0.0
 10
7.280216847
 20
3.8956801802
 30
0.0
 10
7.2724177432
 20
3.9083538314
 30
0.0
 10
7.2672004197
 20
3.9202814205
 30
0.0
 10
7.2662966715
 20
3.9224990259
 30
0.0
 11
7.289122732
 21
3.8846787849
 31
0.0
 11
7.2857958015
 21
3.8888083591
 31
0.0
 11
7.2691761248
 21
3.9159183363
 31
0.0
 11
7.2662966715
 21
3.9224990259
 31
0.0
  0
SPLINE
  5
4EF
100
AcDbEntity
  8
0
100
AcDbSpline
 62
7
  6
CONTINUOUS
 70
0
 71
3
 72
8
 73
4
 74
2
 42
0.0000001
 43
0.0000001
 44
0.0000000001
 12
-0.0097328557
 22
0.0238823529
 32
0.0
 13
-0.0053361532
 23
0.0252429812
 33
0.0
 40
0.0
 40
0.0
 40
0.0
 40
0.0
 40
1.0
 40
1.0
 40
1.0
 40
1.0
 10
7.2662966715
 20
3.9224990259
 30
0.0
 10
7.2630523863
 20
3.9304598102
 30
0.0
 10
7.2605322637
 20
3.9387174122
 30
0.0
 10
7.258753546
 20
3.9471317393
 30
0.0
 11
7.2662966715
 21
3.9224990259
 31
0.0
 11
7.258753546
 21
3.9471317393
 31
0.0
  0
SPLINE
  5
4F0
100
AcDbEntity
  8
0
100
AcDbSpline
 62
7
  6
CONTINUOUS
 70
0
 71
3
 72
9
 73
5
 74
3
 42
0.0000001
 43
0.0000001
 44
0.0000000001
 12
0.0053332349
 22
0.0253026718
 32
0.0
 13
0.0097499741
 23
0.023938204
 33
0.0
 40
0.0
 40
0.0
 40
0.0
 40
0.0
 40
0.0197419413
 40
1.0
 40
1.0
 40
1.0
 40
1.0
 10
7.2587359191
 20
4.5428607952
 30
0.0
 10
7.2587710152
 20
4.5430273031
 30
0.0
 10
7.2605634462
 20
4.5514584323
 30
0.0
 10
7.2631007757
 20
4.5597299211
 30
0.0
 10
7.2662866059
 20
4.5675517936
 30
0.0
 11
7.2587359191
 21
4.5428607952
 31
0.0
 11
7.2588420777
 21
4.5433601346
 31
0.0
 11
7.2662866059
 21
4.5675517936
 31
0.0
  0
SPLINE
  5
4F1
100
AcDbEntity
  8
0
100
AcDbSpline
 62
7
  6
CONTINUOUS
 70
0
 71
3
 72
10
 73
6
 74
4
 42
0.0000001
 43
0.0000001
 44
0.0000000001
 12
0.0167638579
 22
0.0411587403
 32
0.0
 13
0.0284991517
 23
0.0340801017
 33
0.0
 40
0.0
 40
0.0
 40
0.0
 40
0.0
 40
0.1738407506
 40
0.8997623015
 40
1.0
 40
1.0
 40
1.0
 40
1.0
 10
7.2662866059
 20
4.5675517936
 30
0.0
 10
7.2672580198
 20
4.5699368157
 30
0.0
 10
7.2726220224
 20
4.5821433945
 30
0.0
 10
7.2805028968
 20
4.5948050732
 30
0.0
 10
7.2882116068
 20
4.6043078326
 30
0.0
 10
7.2891638366
 20
4.6054465362
 30
0.0
 11
7.2662866059
 21
4.5675517936
 31
0.0
 11
7.269395214
 21
4.57462323
 31
0.0
 11
7.2863586485
 21
4.6019877979
 31
0.0
 11
7.2891638366
 21
4.6054465362
 31
0.0
  0
SPLINE
  5
4F2
100
AcDbEntity
  8
0
100
AcDbSpline
 62
7
  6
CONTINUOUS
 70
0
 71
3
 72
9
 73
5
 74
3
 42
0.0000001
 43
0.0000001
 44
0.0000000001
 12
0.0214237105
 22
0.0256190865
 32
0.0
 13
0.0262571963
 23
0.0206131521
 33
0.0
 40
0.0
 40
0.0
 40
0.0
 40
0.0
 40
0.7914205776
 40
1.0
 40
1.0
 40
1.0
 40
1.0
 10
7.2891638366
 20
4.6054465362
 30
0.0
 10
7.2948155584
 20
4.612205027
 30
0.0
 10
7.3027105459
 20
4.6201098215
 30
0.0
 10
7.3113244076
 20
4.6271576207
 30
0.0
 10
7.3131499778
 20
4.6285907805
 30
0.0
 11
7.2891638366
 21
4.6054465362
 31
0.0
 11
7.3077623339
 21
4.624180285
 31
0.0
 11
7.3131499778
 21
4.6285907805
 31
0.0
  0
SPLINE
  5
4F3
100
AcDbEntity
  8
0
100
AcDbSpline
 62
7
  6
CONTINUOUS
 70
0
 71
3
 72
9
 73
5
 74
3
 42
0.0000001
 43
0.0000001
 44
0.0000000001
 12
0.0463239867
 22
0.0363665402
 32
0.0
 13
0.0548202917
 23
0.0215467817
 33
0.0
 40
0.0
 40
0.0
 40
0.0
 40
0.0
 40
0.4331380253
 40
1.0
 40
1.0
 40
1.0
 40
1.0
 10
7.3131499778
 20
4.6285907805
 30
0.0
 10
7.3198382046
 20
4.6338413576
 30
0.0
 10
7.3361749729
 20
4.644821118
 30
0.0
 10
7.3539555386
 20
4.6532728485
 30
0.0
 10
7.3643140515
 20
4.6573441989
 30
0.0
 11
7.3131499778
 21
4.6285907805
 31
0.0
 11
7.3342612244
 21
4.6428785811
 31
0.0
 11
7.3643140515
 21
4.6573441989
 31
0.0
  0
SPLINE
  5
4F4
100
AcDbEntity
  8
0
100
AcDbSpline
 62
7
  6
CONTINUOUS
 70
0
 71
3
 72
9
 73
5
 74
3
 42
0.0000001
 43
0.0000001
 44
0.0000000001
 12
0.0235100921
 22
0.0092404985
 32
0.0
 13
0.0242933753
 23
0.0068814793
 33
0.0
 40
0.0
 40
0.0
 40
0.0
 40
0.0
 40
0.211511204
 40
1.0
 40
1.0
 40
1.0
 40
1.0
 10
7.3643140515
 20
4.6573441989
 30
0.0
 10
7.3659716008
 20
4.6579956886
 30
0.0
 10
7.373842121
 20
4.6609887374
 30
0.0
 10
7.3818556486
 20
4.6635783984
 30
0.0
 10
7.3882406667
 20
4.6653870548
 30
0.0
 11
7.3643140515
 21
4.6573441989
 31
0.0
 11
7.3693074049
 21
4.659243769
 31
0.0
 11
7.3882406667
 21
4.6653870548
 31
0.0
  0
SPLINE
  5
4F5
100
AcDbEntity
  8
0
100
AcDbSpline
 62
7
  6
CONTINUOUS
 70
0
 71
3
 72
9
 73
5
 74
3
 42
0.0000001
 43
0.0000001
 44
0.0000000001
 12
0.0501600629
 22
0.014208624
 32
0.0
 13
0.0518434509
 23
0.0054056186
 33
0.0
 40
0.0
 40
0.0
 40
0.0
 40
0.0
 40
0.4189517533
 40
1.0
 40
1.0
 40
1.0
 40
1.0
 10
7.3882406667
 20
4.6653870548
 30
0.0
 10
7.3952455488
 20
4.6673712974
 30
0.0
 10
7.4121564459
 20
4.6714373775
 30
0.0
 10
7.4293539181
 20
4.6740357997
 30
0.0
 10
7.4393951001
 20
4.6750827748
 30
0.0
 11
7.3882406667
 21
4.6653870548
 31
0.0
 11
7.4094655486
 21
4.670520676
 31
0.0
 11
7.4393951001
 21
4.6750827748
 31
0.0
  0
SPLINE
  5
4F6
100
AcDbEntity
  8
0
100
AcDbSpline
 62
7
  6
CONTINUOUS
 70
0
 71
3
 72
9
 73
5
 74
3
 42
0.0000001
 43
0.0000001
 44
0.0000000001
 12
0.0239766973
 22
0.0025000049
 32
0.0
 13
0.0240919433
 23
0.0007795131
 33
0.0
 40
0.0
 40
0.0
 40
0.0
 40
0.0
 40
0.533448744
 40
1.0
 40
1.0
 40
1.0
 40
1.0
 10
7.4393951001
 20
4.6750827748
 30
0.0
 10
7.4436585465
 20
4.6755273163
 30
0.0
 10
7.4516672107
 20
4.6762042342
 30
0.0
 10
7.4596937306
 20
4.6765967224
 30
0.0
 10
7.4634404394
 20
4.67671795
 30
0.0
 11
7.4393951001
 21
4.6750827748
 31
0.0
 11
7.4522080514
 21
4.6761685788
 31
0.0
 11
7.4634404394
 21
4.67671795
 31
0.0
  0
SPLINE
  5
4F7
100
AcDbEntity
  8
0
100
AcDbSpline
 62
7
  6
CONTINUOUS
 70
0
 71
3
 72
9
 73
5
 74
3
 42
0.0000001
 43
0.0000001
 44
0.0000000001
 12
0.060257744
 22
0.0019496849
 32
0.0
 13
0.0596352369
 23
-0.0088786569
 33
0.0
 40
0.0
 40
0.0
 40
0.0
 40
0.0
 40
0.5317185758
 40
1.0
 40
1.0
 40
1.0
 40
1.0
 10
7.4634404394
 20
4.67671795
 30
0.0
 10
7.4741204933
 20
4.6770635112
 30
0.0
 10
7.4942358379
 20
4.6767676628
 30
0.0
 10
7.5142458957
 20
4.6746950951
 30
0.0
 10
7.5235545869
 20
4.6733091917
 30
0.0
 11
7.4634404394
 21
4.67671795
 31
0.0
 11
7.4954821309
 21
4.6762465727
 31
0.0
 11
7.5235545869
 21
4.6733091917
 31
0.0
  0
SPLINE
  5
4F8
100
AcDbEntity
  8
0
100
AcDbSpline
 62
7
  6
CONTINUOUS
 70
0
 71
3
 72
11
 73
7
 74
5
 42
0.0000001
 43
0.0000001
 44
0.0000000001
 12
0.0989562734
 22
-0.0147328802
 32
0.0
 13
0.0856008979
 23
-0.0519232393
 33
0.0
 40
0.0
 40
0.0
 40
0.0
 40
0.0
 40
0.1493047132
 40
0.5673677795
 40
0.9563690334
 40
1.0
 40
1.0
 40
1.0
 40
1.0
 10
7.5235545869
 20
4.6733091917
 30
0.0
 10
7.5284794663
 20
4.6725759623
 30
0.0
 10
7.5471287614
 20
4.6693478393
 30
0.0
 10
7.578005458
 20
4.6609836721
 30
0.0
 10
7.6039572414
 20
4.6492133554
 30
0.0
 10
7.6163852648
 20
4.6418640273
 30
0.0
 10
7.6176302148
 20
4.6411088736
 30
0.0
 11
7.5235545869
 21
4.6733091917
 31
0.0
 11
7.5382717484
 21
4.6707569053
 31
0.0
 11
7.5785585181
 21
4.6596271432
 31
0.0
 11
7.6138706997
 21
4.6433325205
 31
0.0
 11
7.6176302148
 21
4.6411088736
 31
0.0
  0
SPLINE
  5
4F9
100
AcDbEntity
  8
0
100
AcDbSpline
 62
7
  6
CONTINUOUS
 70
0
 71
3
 72
11
 73
7
 74
5
 42
0.0000001
 43
0.0000001
 44
0.0000000001
 12
0.0853930899
 22
-0.0517971885
 32
0.0
 13
0.0376825146
 23
-0.0925609564
 33
0.0
 40
0.0
 40
0.0
 40
0.0
 40
0.0
 40
0.2840827623
 40
0.594565872
 40
0.918768674
 40
1.0
 40
1.0
 40
1.0
 40
1.0
 10
7.6176302148
 20
4.6411088736
 30
0.0
 10
7.6257164498
 20
4.6362039775
 30
0.0
 10
7.6418972495
 20
4.6247045204
 30
0.0
 10
7.663414483
 20
4.6027452265
 30
0.0
 10
7.6761659836
 20
4.5824001437
 30
0.0
 10
7.681616345
 20
4.5700376573
 30
0.0
 10
7.6826366786
 20
4.5675313742
 30
0.0
 11
7.6176302148
 21
4.6411088736
 31
0.0
 11
7.6406636882
 21
4.6245961985
 31
0.0
 11
7.6622413631
 21
4.6023870063
 31
0.0
 11
7.6793612228
 21
4.574957713
 31
0.0
 11
7.6826366786
 21
4.5675313742
 31
0.0
  0
SPLINE
  5
4FA
100
AcDbEntity
  8
0
100
AcDbSpline
 62
7
  6
CONTINUOUS
 70
0
 71
3
 72
8
 73
4
 74
2
 42
0.0000001
 43
0.0000001
 44
0.0000000001
 12
0.0005671391
 22
-0.0013930848
 32
0.0
 13
0.0005523637
 23
-0.0013990527
 33
0.0
 40
0.0
 40
0.0
 40
0.0
 40
0.0
 40
1.0
 40
1.0
 40
1.0
 40
1.0
 10
7.6826366786
 20
4.5675313742
 30
0.0
 10
7.682825725
 20
4.5670670126
 30
0.0
 10
7.6830123106
 20
4.5666016425
 30
0.0
 10
7.6831964318
 20
4.5661352916
 30
0.0
 11
7.6826366786
 21
4.5675313742
 31
0.0
 11
7.6831964318
 21
4.5661352916
 31
0.0
  0
SPLINE
  5
4FB
100
AcDbEntity
  8
0
100
AcDbSpline
 62
7
  6
CONTINUOUS
 70
0
 71
3
 72
9
 73
5
 74
3
 42
0.0000001
 43
0.0000001
 44
0.0000000001
 12
0.0089630221
 22
-0.0227019638
 32
0.0
 13
0.0050218029
 23
-0.0238950023
 33
0.0
 40
0.0
 40
0.0
 40
0.0
 40
0.0
 40
0.9679466561
 40
1.0
 40
1.0
 40
1.0
 40
1.0
 10
7.6831964318
 20
4.5661352916
 30
0.0
 10
7.6860883409
 20
4.5588105283
 30
0.0
 10
7.6884479148
 20
4.5509932476
 30
0.0
 10
7.6901431013
 20
4.5430327124
 30
0.0
 10
7.6901967565
 20
4.5427774075
 30
0.0
 11
7.6831964318
 21
4.5661352916
 31
0.0
 11
7.6900337459
 21
4.5435428888
 31
0.0
 11
7.6901967565
 21
4.5427774075
 31
0.0
  0
SPLINE
  5
4FC
100
AcDbEntity
  8
0
100
AcDbSpline
 62
7
  6
CONTINUOUS
 70
0
 71
3
 72
14
 73
10
 74
8
 42
0.0000001
 43
0.0000001
 44
0.0000000001
 12
0.2425130215
 22
0.0000918125
 32
0.0
 13
0.0000000138
 23
-0.00000007
 33
0.0
 40
0.0
 40
0.0
 40
0.0
 40
0.0
 40
0.2236946949
 40
0.440338662
 40
0.6345538353
 40
0.7935133666
 40
0.9086601613
 40
0.9773218696
 40
1.0
 40
1.0
 40
1.0
 40
1.0
 10
6.0334574073
 20
3.5772834404
 30
0.0
 10
6.0515403661
 20
3.5772902864
 30
0.0
 10
6.0871770637
 20
3.5760527909
 30
0.0
 10
6.1381248175
 20
3.5709367976
 30
0.0
 10
6.1840010772
 20
3.5635014771
 30
0.0
 10
6.2200230267
 20
3.5560013033
 30
0.0
 10
6.249327498
 20
3.5486784758
 30
0.0
 10
6.2612405722
 20
3.5455180445
 30
0.0
 10
6.272664818
 20
3.5422879956
 30
0.0
 10
6.2726648181
 20
3.5422879951
 30
0.0
 11
6.0334574073
 21
3.5772834404
 31
0.0
 11
6.0876748262
 21
3.5754361456
 31
0.0
 11
6.1399508718
 21
3.570186366
 31
0.0
 11
6.1864557666
 21
3.5627246217
 31
0.0
 11
6.2241835864
 21
3.5548065708
 31
0.0
 11
6.2512964
 21
3.5481223676
 31
0.0
 11
6.2673713146
 21
3.543778994
 31
0.0
 11
6.2726648181
 21
3.5422879951
 31
0.0
  0
SPLINE
  5
4FD
100
AcDbEntity
  8
0
100
AcDbSpline
 62
7
  6
CONTINUOUS
 70
0
 71
3
 72
14
 73
10
 74
8
 42
0.0000001
 43
0.0000001
 44
0.0000000001
 12
0.3206746058
 22
0.0001026967
 32
0.0
 13
-0.0
 23
0.3206746222
 33
0.0
 40
0.0
 40
0.0
 40
0.0
 40
0.0
 40
0.1526772361
 40
0.3034941036
 40
0.450900429
 40
0.5939404585
 40
0.732476893
 40
0.8672931851
 40
1.0
 40
1.0
 40
1.0
 40
1.0
 10
6.0334834417
 20
4.389253433
 30
0.0
 10
6.0498033458
 20
4.3892586595
 30
0.0
 10
6.082333825
 20
4.3924069666
 30
0.0
 10
6.1287741827
 20
4.4063987123
 30
0.0
 10
6.1705730786
 20
4.4289896876
 30
0.0
 10
6.2056276557
 20
4.4591285836
 30
0.0
 10
6.2321460426
 20
4.4954010212
 30
0.0
 10
6.2486949513
 20
4.5359985169
 30
0.0
 10
6.2524575587
 20
4.5647277592
 30
0.0
 10
6.2524575587
 20
4.5789129951
 30
0.0
 11
6.0334834417
 21
4.389253433
 31
0.0
 11
6.0822112721
 21
4.3940128692
 31
0.0
 11
6.1284947541
 21
4.4080425804
 31
0.0
 11
6.1700133884
 21
4.4306391639
 31
0.0
 11
6.2046855693
 21
4.4606697023
 31
0.0
 11
6.2307729493
 21
4.4966285647
 31
0.0
 11
6.2469675942
 21
4.5367128938
 31
0.0
 11
6.2524575587
 21
4.5789129951
 31
0.0
  0
SPLINE
  5
4FE
100
AcDbEntity
  8
0
100
AcDbSpline
 62
7
  6
CONTINUOUS
 70
0
 71
3
 72
14
 73
10
 74
8
 42
0.0000001
 43
0.0000001
 44
0.0000000001
 12
-0.0000002476
 22
-0.0000000216
 32
0.0
 13
0.2425126901
 23
0.0000127851
 33
0.0
 40
0.0
 40
0.0
 40
0.0
 40
0.0
 40
0.0226787301
 40
0.091342576
 40
0.2064883528
 40
0.3654484777
 40
0.5596641651
 40
0.7763058784
 40
1.0
 40
1.0
 40
1.0
 40
1.0
 10
5.7942502993
 20
3.5422879951
 30
0.0
 10
5.7942502975
 20
3.5422879949
 30
0.0
 10
5.8056749814
 20
3.5455181669
 30
0.0
 10
5.8175880001
 20
3.5486785778
 30
0.0
 10
5.8468926068
 20
3.5560013905
 30
0.0
 10
5.8829144958
 20
3.5635017338
 30
0.0
 10
5.9287906091
 20
3.5709360033
 30
0.0
 10
5.9797381038
 20
3.5760562998
 30
0.0
 10
6.0153745196
 20
3.5772824871
 30
0.0
 10
6.0334574073
 20
3.5772834404
 30
0.0
 11
5.7942502993
 21
3.5422879951
 31
0.0
 11
5.7995439796
 21
3.5437790433
 31
0.0
 11
5.8156193734
 21
3.5481225392
 31
0.0
 11
5.842731912
 21
3.5548066589
 31
0.0
 11
5.8804598223
 21
3.5627247104
 31
0.0
 11
5.9269647776
 21
3.5701864365
 31
0.0
 11
5.9792402057
 21
3.5754361398
 31
0.0
 11
6.0334574073
 21
3.5772834404
 31
0.0
  0
SPLINE
  5
4FF
100
AcDbEntity
  8
0
100
AcDbSpline
 62
7
  6
CONTINUOUS
 70
0
 71
3
 72
13
 73
9
 74
7
 42
0.0000001
 43
0.0000001
 44
0.0000000001
 12
0.2082911088
 22
-0.0087844863
 32
0.0
 13
0.0000000003
 23
0.0000000009
 33
0.0
 40
0.0
 40
0.0
 40
0.0
 40
0.0
 40
0.2540715315
 40
0.4891561868
 40
0.6904460399
 40
0.8455789944
 40
0.9488946963
 40
1.0
 40
1.0
 40
1.0
 40
1.0
 10
7.5072980825
 20
3.5927879951
 30
0.0
 10
7.5249383628
 20
3.5920440325
 30
0.0
 10
7.5587803048
 20
3.5894818544
 30
0.0
 10
7.6066553059
 20
3.5827296063
 30
0.0
 10
7.6460628752
 20
3.5751569866
 30
0.0
 10
7.6795773232
 20
3.5670981262
 30
0.0
 10
7.6953986979
 20
3.5630009207
 30
0.0
 10
7.7123935895
 20
3.5581555565
 30
0.0
 10
7.7123935896
 20
3.5581555565
 30
0.0
 11
7.5072980825
 21
3.5927879951
 31
0.0
 11
7.5601143418
 21
3.5887830632
 31
0.0
 11
7.6086545205
 21
3.5820162985
 31
0.0
 11
7.6498514745
 21
3.5740287182
 31
0.0
 11
7.6813258243
 21
3.566589602
 31
0.0
 11
7.7021416968
 21
3.5610558469
 31
0.0
 11
7.7123935896
 21
3.5581555565
 31
0.0
  0
SPLINE
  5
500
100
AcDbEntity
  8
0
100
AcDbSpline
 62
7
  6
CONTINUOUS
 70
0
 71
3
 72
14
 73
10
 74
8
 42
0.0000001
 43
0.0000001
 44
0.0000000001
 12
-0.2854796236
 22
-0.0374982017
 32
0.0
 13
0.0
 23
-0.2879318159
 33
0.0
 40
0.0
 40
0.0
 40
0.0
 40
0.0
 40
0.1528161922
 40
0.3030612586
 40
0.4497016539
 40
0.592233715
 40
0.7308064091
 40
0.8662237283
 40
1.0
 40
1.0
 40
1.0
 40
1.0
 10
7.441617035
 20
4.1064279945
 30
0.0
 10
7.4270750653
 20
4.1045178837
 30
0.0
 10
7.3985000784
 20
4.0981836517
 30
0.0
 10
7.3585087122
 20
4.0813383126
 30
0.0
 10
7.3231683278
 20
4.0578388271
 30
0.0
 10
7.293946307
 20
4.0285963976
 30
0.0
 10
7.2720764722
 20
3.9947503607
 30
0.0
 10
7.2585258719
 20
3.9576884174
 30
0.0
 10
7.2554575587
 20
3.9317524767
 30
0.0
 10
7.2554575587
 20
3.9189129951
 30
0.0
 11
7.441617035
 21
4.1064279945
 31
0.0
 11
7.39867061
 21
4.0968540072
 31
0.0
 11
7.3588346867
 21
4.0799852261
 31
0.0
 11
7.3237383679
 21
4.0565122107
 31
0.0
 11
7.2948184466
 21
4.0273938324
 31
0.0
 11
7.2732616383
 21
3.9938189442
 31
0.0
 11
7.2599586414
 21
3.9571675484
 31
0.0
 11
7.2554575587
 21
3.9189129951
 31
0.0
  0
SPLINE
  5
501
100
AcDbEntity
  8
0
100
AcDbSpline
 62
7
  6
CONTINUOUS
 70
0
 71
3
 72
14
 73
10
 74
8
 42
0.0000001
 43
0.0000001
 44
0.0000000001
 12
0.0
 22
0.2879318159
 32
0.0
 13
-0.2854796236
 23
0.0374982017
 33
0.0
 40
0.0
 40
0.0
 40
0.0
 40
0.0
 40
0.1337762717
 40
0.2691935909
 40
0.407766285
 40
0.5502983461
 40
0.6969387414
 40
0.8471838078
 40
1.0
 40
1.0
 40
1.0
 40
1.0
 10
7.6934575587
 20
3.9189129951
 30
0.0
 10
7.6934575587
 20
3.9317524767
 30
0.0
 10
7.6903892455
 20
3.9576884174
 30
0.0
 10
7.6768386452
 20
3.9947503607
 30
0.0
 10
7.6549688104
 20
4.0285963976
 30
0.0
 10
7.6257467896
 20
4.0578388271
 30
0.0
 10
7.5904064052
 20
4.0813383126
 30
0.0
 10
7.550415039
 20
4.0981836517
 30
0.0
 10
7.5218400521
 20
4.1045178837
 30
0.0
 10
7.5072980825
 20
4.1064279945
 30
0.0
 11
7.6934575587
 21
3.9189129951
 31
0.0
 11
7.688956476
 21
3.9571675484
 31
0.0
 11
7.6756534791
 21
3.9938189442
 31
0.0
 11
7.6540966708
 21
4.0273938324
 31
0.0
 11
7.6251767495
 21
4.0565122107
 31
0.0
 11
7.5900804308
 21
4.0799852261
 31
0.0
 11
7.5502445074
 21
4.0968540072
 31
0.0
 11
7.5072980825
 21
4.1064279945
 31
0.0
  0
SPLINE
  5
502
100
AcDbEntity
  8
0
100
AcDbSpline
 62
7
  6
CONTINUOUS
 70
0
 71
3
 72
14
 73
10
 74
8
 42
0.0000001
 43
0.0000001
 44
0.0000000001
 12
0.2854796236
 22
0.0374982017
 32
0.0
 13
0.0
 23
0.2879318159
 33
0.0
 40
0.0
 40
0.0
 40
0.0
 40
0.0
 40
0.1528161922
 40
0.3030612586
 40
0.4497016539
 40
0.592233715
 40
0.7308064091
 40
0.8662237283
 40
1.0
 40
1.0
 40
1.0
 40
1.0
 10
7.5072980825
 20
4.3836479957
 30
0.0
 10
7.5218400521
 20
4.3855581065
 30
0.0
 10
7.550415039
 20
4.3918923385
 30
0.0
 10
7.5904064052
 20
4.4087376776
 30
0.0
 10
7.6257467896
 20
4.4322371631
 30
0.0
 10
7.6549688104
 20
4.4614795926
 30
0.0
 10
7.6768386452
 20
4.4953256295
 30
0.0
 10
7.6903892455
 20
4.5323875728
 30
0.0
 10
7.6934575587
 20
4.5583235135
 30
0.0
 10
7.6934575587
 20
4.5711629951
 30
0.0
 11
7.5072980825
 21
4.3836479957
 31
0.0
 11
7.5502445074
 21
4.3932219829
 31
0.0
 11
7.5900804308
 21
4.4100907641
 31
0.0
 11
7.6251767495
 21
4.4335637795
 31
0.0
 11
7.6540966708
 21
4.4626821578
 31
0.0
 11
7.6756534791
 21
4.496257046
 31
0.0
 11
7.688956476
 21
4.5329084418
 31
0.0
 11
7.6934575587
 21
4.5711629951
 31
0.0
  0
SPLINE
  5
503
100
AcDbEntity
  8
0
100
AcDbSpline
 62
7
  6
CONTINUOUS
 70
0
 71
3
 72
13
 73
9
 74
7
 42
0.0000001
 43
0.0000001
 44
0.0000000001
 12
-0.2082911136
 22
0.0087844865
 32
0.0
 13
-0.0000000003
 23
-0.0000000012
 33
0.0
 40
0.0
 40
0.0
 40
0.0
 40
0.0
 40
0.2540717736
 40
0.4891564334
 40
0.6904463151
 40
0.8455791371
 40
0.948894625
 40
1.0
 40
1.0
 40
1.0
 40
1.0
 10
7.441617035
 20
4.8972879951
 30
0.0
 10
7.4239767374
 20
4.8980319585
 30
0.0
 10
7.3901347776
 20
4.900594139
 30
0.0
 10
7.3422597567
 20
4.907346393
 30
0.0
 10
7.302852194
 20
4.914919014
 30
0.0
 10
7.2693377694
 20
4.9229778704
 30
0.0
 10
7.2535164047
 20
4.9270750737
 30
0.0
 10
7.2365215217
 20
4.9319204355
 30
0.0
 10
7.2365215217
 20
4.9319204355
 30
0.0
 11
7.441617035
 21
4.8972879951
 31
0.0
 11
7.3888007241
 21
4.9012929326
 31
0.0
 11
7.3402605439
 21
4.9080597007
 31
0.0
 11
7.2990635836
 21
4.9160472849
 31
0.0
 11
7.2675892604
 21
4.9234863965
 31
0.0
 11
7.2467734306
 21
4.9290201405
 31
0.0
 11
7.2365215217
 21
4.9319204355
 31
0.0
  0
SPLINE
  5
504
100
AcDbEntity
  8
0
100
AcDbSpline
 62
7
  6
CONTINUOUS
 70
0
 71
3
 72
14
 73
10
 74
8
 42
0.0000001
 43
0.0000001
 44
0.0000000001
 12
-0.2649427769
 22
0.0
 32
0.0
 13
-0.0720707204
 23
0.2556482332
 33
0.0
 40
0.0
 40
0.0
 40
0.0
 40
0.0
 40
0.1632522461
 40
0.3238145687
 40
0.476052386
 40
0.6178628112
 40
0.7500962121
 40
0.880879671
 40
1.0
 40
1.0
 40
1.0
 40
1.0
 10
6.1334575587
 20
3.8131814251
 30
0.0
 10
6.1190400576
 20
3.8131814251
 30
0.0
 10
6.0904076703
 20
3.8149753666
 30
0.0
 10
6.0490279945
 20
3.8231182136
 30
0.0
 10
6.0110612989
 20
3.8367023469
 30
0.0
 10
5.9781617286
 20
3.8554574806
 30
0.0
 10
5.9510884141
 20
3.8792246117
 30
0.0
 10
5.9312704657
 20
3.9069468147
 30
0.0
 10
5.9229256665
 20
3.9275938853
 30
0.0
 10
5.9200639706
 20
3.9377448525
 30
0.0
 11
6.1334575587
 21
3.8131814251
 31
0.0
 11
6.0902932485
 21
3.8159421095
 31
0.0
 11
6.048585267
 21
3.8243135616
 31
0.0
 11
6.0106899092
 21
3.8381265421
 31
0.0
 11
5.9781785716
 21
3.8569584735
 31
0.0
 11
5.9519896883
 21
3.8802295604
 31
0.0
 11
5.9319296754
 21
3.908482482
 31
0.0
 11
5.9200639706
 21
3.9377448525
 31
0.0
  0
SPLINE
  5
505
100
AcDbEntity
  8
0
100
AcDbSpline
 62
7
  6
CONTINUOUS
 70
0
 71
3
 72
8
 73
4
 74
2
 42
0.0000001
 43
0.0000001
 44
0.0000000001
 12
0.005284323
 22
-0.0000971554
 32
0.0
 13
0.0052831309
 23
-0.0001872663
 33
0.0
 40
0.0
 40
0.0
 40
0.0
 40
0.0
 40
1.0
 40
1.0
 40
1.0
 40
1.0
 10
4.8891602234
 20
4.7762755203
 30
0.0
 10
4.8909216644
 20
4.7762431351
 30
0.0
 10
4.892683065
 20
4.7761957608
 30
0.0
 10
4.8944441087
 20
4.7761333387
 30
0.0
 11
4.8891602234
 21
4.7762755203
 31
0.0
 11
4.8944441087
 21
4.7761333387
 31
0.0
  0
SPLINE
  5
506
100
AcDbEntity
  8
0
100
AcDbSpline
 62
7
  6
CONTINUOUS
 70
0
 71
3
 72
8
 73
4
 74
2
 42
0.0000001
 43
0.0000001
 44
0.0000000001
 12
0.0239401047
 22
-0.0008485831
 32
0.0
 13
0.0238077276
 23
-0.0027188509
 33
0.0
 40
0.0
 40
0.0
 40
0.0
 40
0.0
 40
1.0
 40
1.0
 40
1.0
 40
1.0
 10
4.8944441087
 20
4.7761333387
 30
0.0
 10
4.9024241436
 20
4.7758504777
 30
0.0
 10
4.9103968477
 20
4.775258629
 30
0.0
 10
4.9183327569
 20
4.7743523454
 30
0.0
 11
4.8944441087
 21
4.7761333387
 31
0.0
 11
4.9183327569
 21
4.7743523454
 31
0.0
  0
SPLINE
  5
507
100
AcDbEntity
  8
0
100
AcDbSpline
 62
7
  6
CONTINUOUS
 70
0
 71
3
 72
8
 73
4
 74
2
 42
0.0000001
 43
0.0000001
 44
0.0000000001
 12
0.0015883323
 22
-0.0001813881
 32
0.0
 13
0.0015873234
 23
-0.00018979
 33
0.0
 40
0.0
 40
0.0
 40
0.0
 40
0.0
 40
1.0
 40
1.0
 40
1.0
 40
1.0
 10
4.9183327569
 20
4.7743523454
 30
0.0
 10
4.9188622009
 20
4.7742918827
 30
0.0
 10
4.9193914813
 20
4.7742300205
 30
0.0
 10
4.9199205891
 20
4.7741667571
 30
0.0
 11
4.9183327569
 21
4.7743523454
 31
0.0
 11
4.9199205891
 21
4.7741667571
 31
0.0
  0
SPLINE
  5
508
100
AcDbEntity
  8
0
100
AcDbSpline
 62
7
  6
CONTINUOUS
 70
0
 71
3
 72
9
 73
5
 74
3
 42
0.0000001
 43
0.0000001
 44
0.0000000001
 12
0.0468838911
 22
-0.0056057234
 32
0.0
 13
0.0453176513
 23
-0.0132796874
 33
0.0
 40
0.0
 40
0.0
 40
0.0
 40
0.0
 40
0.6562916462
 40
1.0
 40
1.0
 40
1.0
 40
1.0
 10
4.9199205891
 20
4.7741667571
 30
0.0
 10
4.9301770911
 20
4.7729404273
 30
0.0
 10
4.9457062789
 20
4.7702696343
 30
0.0
 10
4.9609512813
 20
4.7663042574
 30
0.0
 10
4.9661432998
 20
4.7647828109
 30
0.0
 11
4.9199205891
 21
4.7741667571
 31
0.0
 11
4.9504380396
 21
4.7688771875
 31
0.0
 11
4.9661432998
 21
4.7647828109
 31
0.0
  0
SPLINE
  5
509
100
AcDbEntity
  8
0
100
AcDbSpline
 62
7
  6
CONTINUOUS
 70
0
 71
3
 72
8
 73
4
 74
2
 42
0.0000001
 43
0.0000001
 44
0.0000000001
 12
0.0137993904
 22
-0.0040437133
 32
0.0
 13
0.013544496
 23
-0.0048018338
 33
0.0
 40
0.0
 40
0.0
 40
0.0
 40
0.0
 40
1.0
 40
1.0
 40
1.0
 40
1.0
 10
4.9661432998
 20
4.7647828109
 30
0.0
 10
4.9707430966
 20
4.7634349065
 30
0.0
 10
4.9753053632
 20
4.7619625876
 30
0.0
 10
4.9798201952
 20
4.7603619764
 30
0.0
 11
4.9661432998
 21
4.7647828109
 31
0.0
 11
4.9798201952
 21
4.7603619764
 31
0.0
  0
SPLINE
  5
50A
100
AcDbEntity
  8
0
100
AcDbSpline
 62
7
  6
CONTINUOUS
 70
0
 71
3
 72
20
 73
16
 74
14
 42
0.0000001
 43
0.0000001
 44
0.0000000001
 12
-0.5887895376
 22
-0.0188354809
 32
0.0
 13
0.5802172983
 23
-0.1048524918
 33
0.0
 40
0.0
 40
0.0
 40
0.0
 40
0.0
 40
0.062632718
 40
0.1460786192
 40
0.2276655332
 40
0.3068255813
 40
0.3834562763
 40
0.457984455
 40
0.531316359
 40
0.604648263
 40
0.6791764417
 40
0.7558071367
 40
0.8349671848
 40
0.9165540988
 40
1.0
 40
1.0
 40
1.0
 40
1.0
 10
4.865890398
 20
4.0933182267
 30
0.0
 10
4.8535979017
 20
4.0929249876
 30
0.0
 10
4.82495499
 20
4.0899143353
 30
0.0
 10
4.7817339298
 20
4.077607317
 30
0.0
 10
4.7389898805
 20
4.0552221736
 30
0.0
 10
4.7030629975
 20
4.0250036507
 30
0.0
 10
4.6758382991
 20
3.9884152257
 30
0.0
 10
4.6588279044
 20
3.9472893544
 30
0.0
 10
4.6530380425
 20
3.9037879951
 30
0.0
 10
4.6588279044
 20
3.8602866358
 30
0.0
 10
4.6758382991
 20
3.8191607645
 30
0.0
 10
4.7030629975
 20
3.7825723395
 30
0.0
 10
4.7389898805
 20
3.7523538166
 30
0.0
 10
4.7817339298
 20
3.7299686732
 30
0.0
 10
4.8130645099
 20
3.72104742
 30
0.0
 10
4.8292034284
 20
3.7181309164
 30
0.0
 11
4.865890398
 21
4.0933182267
 31
0.0
 11
4.8292034284
 21
4.0894450738
 31
0.0
 11
4.7820055669
 21
4.075919844
 31
0.0
 11
4.739546193
 21
4.0535242251
 31
0.0
 11
4.7040133493
 21
4.0234122998
 31
0.0
 11
4.6772381483
 21
3.9871357916
 31
0.0
 11
4.6606004181
 21
3.9465641322
 31
0.0
 11
4.6549575587
 21
3.9037879951
 31
0.0
 11
4.6606004181
 21
3.861011858
 31
0.0
 11
4.6772381483
 21
3.8204401986
 31
0.0
 11
4.7040133493
 21
3.7841636904
 31
0.0
 11
4.739546193
 21
3.7540517651
 31
0.0
 11
4.7820055669
 21
3.7316561462
 31
0.0
 11
4.8292034284
 21
3.7181309164
 31
0.0
  0
SPLINE
  5
50B
100
AcDbEntity
  8
0
100
AcDbSpline
 62
7
  6
CONTINUOUS
 70
0
 71
3
 72
8
 73
4
 74
2
 42
0.0000001
 43
0.0000001
 44
0.0000000001
 12
0.0054735188
 22
-0.000989133
 32
0.0
 13
0.0054947086
 23
-0.0008668799
 33
0.0
 40
0.0
 40
0.0
 40
0.0
 40
0.0
 40
1.0
 40
1.0
 40
1.0
 40
1.0
 10
4.8292034284
 20
3.7181309164
 30
0.0
 10
4.8310279347
 20
3.7178012054
 30
0.0
 10
4.8328562389
 20
3.717491871
 30
0.0
 10
4.8346878084
 20
3.717202911
 30
0.0
 11
4.8292034284
 21
3.7181309164
 31
0.0
 11
4.8346878084
 21
3.717202911
 31
0.0
  0
SPLINE
  5
50C
100
AcDbEntity
  8
0
100
AcDbSpline
 62
7
  6
CONTINUOUS
 70
0
 71
3
 72
8
 73
4
 74
2
 42
0.0000001
 43
0.0000001
 44
0.0000000001
 12
0.0436683502
 22
-0.0068893946
 32
0.0
 13
0.0441038278
 23
0.0008286261
 33
0.0
 40
0.0
 40
0.0
 40
0.0
 40
0.0
 40
1.0
 40
1.0
 40
1.0
 40
1.0
 10
4.8346878084
 20
3.717202911
 30
0.0
 10
4.8492439251
 20
3.7149064461
 30
0.0
 10
4.8640062828
 20
3.7138968394
 30
0.0
 10
4.8787075587
 20
3.7141730481
 30
0.0
 11
4.8346878084
 21
3.717202911
 31
0.0
 11
4.8787075587
 21
3.7141730481
 31
0.0
  0
SPLINE
  5
50D
100
AcDbEntity
  8
0
100
AcDbSpline
 62
7
  6
CONTINUOUS
 70
0
 71
3
 72
9
 73
5
 74
3
 42
0.0000001
 43
0.0000001
 44
0.0000000001
 12
0.0104432916
 22
-0.0005885357
 32
0.0
 13
0.0104586962
 23
-0.0001561609
 33
0.0
 40
0.0
 40
0.0
 40
0.0
 40
0.0
 40
0.5002101211
 40
1.0
 40
1.0
 40
1.0
 40
1.0
 10
4.8787075587
 20
3.7141730481
 30
0.0
 10
4.8804488388
 20
3.7140749176
 30
0.0
 10
4.8839320542
 20
3.7139146686
 30
0.0
 10
4.8874178399
 20
3.7138264858
 30
0.0
 10
4.8891602234
 20
3.7138004699
 30
0.0
 11
4.8787075587
 21
3.7141730481
 31
0.0
 11
4.8839341611
 21
3.7139326329
 31
0.0
 11
4.8891602234
 21
3.7138004699
 31
0.0
  0
SPLINE
  5
50E
100
AcDbEntity
  8
0
100
AcDbSpline
 62
7
  6
CONTINUOUS
 70
0
 71
3
 72
8
 73
4
 74
2
 42
0.0000001
 43
0.0000001
 44
0.0000000001
 12
-0.0533876298
 22
-0.0022074171
 32
0.0
 13
-0.0532047934
 23
0.0056011267
 33
0.0
 40
0.0
 40
0.0
 40
0.0
 40
0.0
 40
1.0
 40
1.0
 40
1.0
 40
1.0
 10
4.8891602234
 20
3.7138004699
 30
0.0
 10
4.8713643468
 20
3.7130646642
 30
0.0
 10
4.8534883826
 20
3.7136152172
 30
0.0
 10
4.8357534515
 20
3.7154822595
 30
0.0
 11
4.8891602234
 21
3.7138004699
 31
0.0
 11
4.8357534515
 21
3.7154822595
 31
0.0
  0
SPLINE
  5
50F
100
AcDbEntity
  8
0
100
AcDbSpline
 62
7
  6
CONTINUOUS
 70
0
 71
3
 72
8
 73
4
 74
2
 42
0.0000001
 43
0.0000001
 44
0.0000000001
 12
-0.0009724354
 22
0.000102373
 32
0.0
 13
-0.0009721484
 23
0.0001050146
 33
0.0
 40
0.0
 40
0.0
 40
0.0
 40
0.0
 40
1.0
 40
1.0
 40
1.0
 40
1.0
 10
4.8357534515
 20
3.7154822595
 30
0.0
 10
4.8354293063
 20
3.7155163838
 30
0.0
 10
4.8351052083
 20
3.7155509479
 30
0.0
 10
4.8347811589
 20
3.7155859528
 30
0.0
 11
4.8357534515
 21
3.7154822595
 31
0.0
 11
4.8347811589
 21
3.7155859528
 31
0.0
  0
SPLINE
  5
510
100
AcDbEntity
  8
0
100
AcDbSpline
 62
7
  6
CONTINUOUS
 70
0
 71
3
 72
21
 73
17
 74
15
 42
0.0000001
 43
0.0000001
 44
0.0000000001
 12
-0.625403667
 22
0.0675581506
 32
0.0
 13
0.6292341272
 23
0.020103374
 33
0.0
 40
0.0
 40
0.0
 40
0.0
 40
0.0
 40
0.0821220153
 40
0.1622293259
 40
0.2366778507
 40
0.3047440291
 40
0.3677465959
 40
0.4284197826
 40
0.4898486275
 40
0.5547267153
 40
0.624973917
 40
0.7012604939
 40
0.7826102776
 40
0.8668447897
 40
0.9519322974
 40
1.0
 40
1.0
 40
1.0
 40
1.0
 10
4.8347811589
 20
3.7155859528
 30
0.0
 10
4.8176613557
 20
3.71743529
 30
0.0
 10
4.7841096099
 20
3.7235188685
 30
0.0
 10
4.7371646251
 20
3.740226665
 30
0.0
 10
4.6967764272
 20
3.7642106224
 30
0.0
 10
4.6654550176
 20
3.7943746244
 30
0.0
 10
4.6445062598
 20
3.8292148955
 30
0.0
 10
4.6342473101
 20
3.8671049611
 30
0.0
 10
4.6344394915
 20
3.9067017851
 30
0.0
 10
4.6448723653
 20
3.9469209303
 30
0.0
 10
4.6655495388
 20
3.986472275
 30
0.0
 10
4.6963231699
 20
4.0234035485
 30
0.0
 10
4.7362991868
 20
4.0550897949
 30
0.0
 10
4.7835666786
 20
4.078794004
 30
0.0
 10
4.8279103397
 20
4.0904391224
 30
0.0
 10
4.8558085279
 20
4.0929937384
 30
0.0
 10
4.8658904742
 20
4.0933158461
 30
0.0
 11
4.8347811589
 21
3.7155859528
 31
0.0
 11
4.7840449186
 21
3.7249701316
 31
0.0
 11
4.73674511
 21
3.7421682354
 31
0.0
 11
4.6967470747
 21
3.7664164234
 31
0.0
 11
4.6662084946
 21
3.796352619
 31
0.0
 11
4.6459794964
 21
3.8303760547
 31
0.0
 11
4.635991101
 21
3.8671635785
 31
0.0
 11
4.6359910063
 21
3.9057577563
 31
0.0
 11
4.6459806071
 21
3.945275946
 31
0.0
 11
4.666212811
 21
3.9844998465
 31
0.0
 11
4.6967557347
 21
4.0214364196
 31
0.0
 11
4.736753015
 21
4.0532554275
 31
0.0
 11
4.7840519723
 21
4.0769954523
 31
0.0
 11
4.8357626181
 21
4.0905527496
 31
0.0
 11
4.8658904742
 21
4.0933158461
 31
0.0
  0
SPLINE
  5
511
100
AcDbEntity
  8
0
100
AcDbSpline
 62
7
  6
CONTINUOUS
 70
0
 71
3
 72
8
 73
4
 74
2
 42
0.0000001
 43
0.0000001
 44
0.0000000001
 12
0.0128748357
 22
0.0004113376
 32
0.0
 13
0.0128670923
 23
-0.0002418682
 33
0.0
 40
0.0
 40
0.0
 40
0.0
 40
0.0
 40
1.0
 40
1.0
 40
1.0
 40
1.0
 10
4.8658904742
 20
4.0933158461
 30
0.0
 10
4.8701820861
 20
4.0934529586
 30
0.0
 10
4.8744756873
 20
4.0934813376
 30
0.0
 10
4.8787647181
 20
4.0934007148
 30
0.0
 11
4.8658904742
 21
4.0933158461
 31
0.0
 11
4.8787647181
 21
4.0934007148
 31
0.0
  0
SPLINE
  5
512
100
AcDbEntity
  8
0
100
AcDbSpline
 62
7
  6
CONTINUOUS
 70
0
 71
3
 72
8
 73
4
 74
2
 42
0.0000001
 43
0.0000001
 44
0.0000000001
 12
0.0104079481
 22
-0.0001956426
 32
0.0
 13
0.0103795908
 23
-0.0006239798
 33
0.0
 40
0.0
 40
0.0
 40
0.0
 40
0.0
 40
1.0
 40
1.0
 40
1.0
 40
1.0
 10
4.8787647181
 20
4.0934007148
 30
0.0
 10
4.8822340341
 20
4.0933355006
 30
0.0
 10
4.8857003598
 20
4.0931989679
 30
0.0
 10
4.8891602234
 20
4.0929909746
 30
0.0
 11
4.8787647181
 21
4.0934007148
 31
0.0
 11
4.8891602234
 21
4.0929909746
 31
0.0
  0
SPLINE
  5
513
100
AcDbEntity
  8
0
100
AcDbSpline
 62
7
  6
CONTINUOUS
 70
0
 71
3
 72
11
 73
7
 74
5
 42
0.0000001
 43
0.0000001
 44
0.0000000001
 12
0.1503586856
 22
0.058265769
 32
0.0
 13
0.0559458844
 23
0.1517033324
 33
0.0
 40
0.0
 40
0.0
 40
0.0
 40
0.0
 40
0.2871200608
 40
0.5647941813
 40
0.8338038093
 40
1.0
 40
1.0
 40
1.0
 40
1.0
 10
4.9798201952
 20
3.7297140138
 30
0.0
 10
4.9942105269
 20
3.7352904375
 30
0.0
 10
5.0214928122
 20
3.7492211182
 30
0.0
 10
5.0562349687
 20
3.7781285611
 30
0.0
 10
5.0793416539
 20
3.8091845475
 30
0.0
 10
5.0892357267
 20
3.8305293914
 30
0.0
 10
5.0923350576
 20
3.8389335634
 30
0.0
 11
4.9798201952
 21
3.7297140138
 31
0.0
 11
5.0209802421
 21
3.7509143407
 31
0.0
 11
5.0552908438
 21
3.7796834484
 31
0.0
 11
5.0810647483
 21
3.8145749539
 31
0.0
 11
5.0923350576
 21
3.8389335634
 31
0.0
  0
SPLINE
  5
514
100
AcDbEntity
  8
0
100
AcDbSpline
 62
7
  6
CONTINUOUS
 70
0
 71
3
 72
8
 73
4
 74
2
 42
0.0000001
 43
0.0000001
 44
0.0000000001
 12
0.0044497011
 22
0.0120658472
 32
0.0
 13
0.0034953535
 23
0.0123823323
 33
0.0
 40
0.0
 40
0.0
 40
0.0
 40
0.0
 40
1.0
 40
1.0
 40
1.0
 40
1.0
 10
5.0923350576
 20
3.8389335634
 30
0.0
 10
5.0938182913
 20
3.8429555125
 30
0.0
 10
5.095146014
 20
3.8470354079
 30
0.0
 10
5.0963111318
 20
3.851162852
 30
0.0
 11
5.0923350576
 21
3.8389335634
 31
0.0
 11
5.0963111318
 21
3.851162852
 31
0.0
  0
SPLINE
  5
515
100
AcDbEntity
  8
0
100
AcDbSpline
 62
7
  6
CONTINUOUS
 70
0
 71
3
 72
8
 73
4
 74
2
 42
0.0000001
 43
0.0000001
 44
0.0000000001
 12
0.000756162
 22
0.0026787132
 32
0.0
 13
0.000710287
 23
0.002691749
 33
0.0
 40
0.0
 40
0.0
 40
0.0
 40
0.0
 40
1.0
 40
1.0
 40
1.0
 40
1.0
 10
5.0963111318
 20
3.851162852
 30
0.0
 10
5.0965631859
 20
3.8520557564
 30
0.0
 10
5.0968076299
 20
3.8529508861
 30
0.0
 10
5.0970443922
 20
3.8538481357
 30
0.0
 11
5.0963111318
 21
3.851162852
 31
0.0
 11
5.0970443922
 21
3.8538481357
 31
0.0
  0
SPLINE
  5
516
100
AcDbEntity
  8
0
100
AcDbSpline
 62
7
  6
CONTINUOUS
 70
0
 71
3
 72
8
 73
4
 74
2
 42
0.0000001
 43
0.0000001
 44
0.0000000001
 12
0.0081750997
 22
0.0309808826
 32
0.0
 13
0.0019928172
 23
0.0319360423
 33
0.0
 40
0.0
 40
0.0
 40
0.0
 40
0.0
 40
1.0
 40
1.0
 40
1.0
 40
1.0
 10
5.0970443922
 20
3.8538481357
 30
0.0
 10
5.0997694255
 20
3.8641750966
 30
0.0
 10
5.1014768544
 20
3.8747828962
 30
0.0
 10
5.1021411268
 20
3.8854282436
 30
0.0
 11
5.0970443922
 21
3.8538481357
 31
0.0
 11
5.1021411268
 21
3.8854282436
 31
0.0
  0
SPLINE
  5
517
100
AcDbEntity
  8
0
100
AcDbSpline
 62
7
  6
CONTINUOUS
 70
0
 71
3
 72
8
 73
4
 74
2
 42
0.0000001
 43
0.0000001
 44
0.0000000001
 12
-0.0439365656
 22
-0.0008254835
 32
0.0
 13
-0.0432098447
 23
-0.008486898
 33
0.0
 40
0.0
 40
0.0
 40
0.0
 40
0.0
 40
1.0
 40
1.0
 40
1.0
 40
1.0
 10
4.8787075587
 20
4.7759029421
 30
0.0
 10
4.8640620368
 20
4.7756277809
 30
0.0
 10
4.8494043103
 20
4.7740753396
 30
0.0
 10
4.8350010288
 20
4.7712463736
 30
0.0
 11
4.8787075587
 21
4.7759029421
 31
0.0
 11
4.8350010288
 21
4.7712463736
 31
0.0
  0
SPLINE
  5
518
100
AcDbEntity
  8
0
100
AcDbSpline
 62
7
  6
CONTINUOUS
 70
0
 71
3
 72
8
 73
4
 74
2
 42
0.0000001
 43
0.0000001
 44
0.0000000001
 12
-0.0042429609
 22
-0.0008333651
 32
0.0
 13
-0.0042274831
 23
-0.0009072134
 33
0.0
 40
0.0
 40
0.0
 40
0.0
 40
0.0
 40
1.0
 40
1.0
 40
1.0
 40
1.0
 10
4.8350010288
 20
4.7712463736
 30
0.0
 10
4.8335867085
 20
4.7709685852
 30
0.0
 10
4.8321748416
 20
4.7706784885
 30
0.0
 10
4.8307656805
 20
4.770376084
 30
0.0
 11
4.8350010288
 21
4.7712463736
 31
0.0
 11
4.8307656805
 21
4.770376084
 31
0.0
  0
SPLINE
  5
519
100
AcDbEntity
  8
0
100
AcDbSpline
 62
7
  6
CONTINUOUS
 70
0
 71
3
 72
13
 73
9
 74
7
 42
0.0000001
 43
0.0000001
 44
0.0000000001
 12
-0.2622815909
 22
-0.056285351
 32
0.0
 13
0.0
 23
-0.2677164079
 33
0.0
 40
0.0
 40
0.0
 40
0.0
 40
0.0
 40
0.1779293222
 40
0.3517833729
 40
0.5205148301
 40
0.6840151434
 40
0.8432199804
 40
1.0
 40
1.0
 40
1.0
 40
1.0
 10
4.8307656805
 20
4.770376084
 30
0.0
 10
4.8152098186
 20
4.7670378126
 30
0.0
 10
4.7851063114
 20
4.7574724107
 30
0.0
 10
4.7442408852
 20
4.7346961419
 30
0.0
 10
4.7100426654
 20
4.7046476573
 30
0.0
 10
4.6842147073
 20
4.6687016071
 30
0.0
 10
4.668115414
 20
4.6286049769
 30
0.0
 10
4.6644575587
 20
4.6002788563
 30
0.0
 10
4.6644575587
 20
4.5862879951
 30
0.0
 11
4.8307656805
 21
4.770376084
 31
0.0
 11
4.7853933334
 21
4.7558707353
 31
0.0
 11
4.7448035322
 21
4.7330941452
 31
0.0
 11
4.7109761237
 21
4.7031570069
 31
0.0
 11
4.6855612109
 21
4.6675193108
 31
0.0
 11
4.6697987028
 21
4.627919353
 31
0.0
 11
4.6644575587
 21
4.5862879951
 31
0.0
  0
SPLINE
  5
51A
100
AcDbEntity
  8
0
100
AcDbSpline
 62
7
  6
CONTINUOUS
 70
0
 71
3
 72
8
 73
4
 74
2
 42
0.0000001
 43
0.0000001
 44
0.0000000001
 12
-0.0441038278
 22
0.0008286261
 32
0.0
 13
-0.0436683502
 23
-0.0068893946
 33
0.0
 40
0.0
 40
0.0
 40
0.0
 40
0.0
 40
1.0
 40
1.0
 40
1.0
 40
1.0
 10
4.8787075587
 20
4.7759029421
 30
0.0
 10
4.8640062828
 20
4.7761791508
 30
0.0
 10
4.8492439251
 20
4.7751695441
 30
0.0
 10
4.8346878084
 20
4.7728730792
 30
0.0
 11
4.8787075587
 21
4.7759029421
 31
0.0
 11
4.8346878084
 21
4.7728730792
 31
0.0
  0
SPLINE
  5
51B
100
AcDbEntity
  8
0
100
AcDbSpline
 62
7
  6
CONTINUOUS
 70
0
 71
3
 72
8
 73
4
 74
2
 42
0.0000001
 43
0.0000001
 44
0.0000000001
 12
-0.0054947086
 22
-0.0008668799
 32
0.0
 13
-0.0054735188
 23
-0.000989133
 33
0.0
 40
0.0
 40
0.0
 40
0.0
 40
0.0
 40
1.0
 40
1.0
 40
1.0
 40
1.0
 10
4.8346878084
 20
4.7728730792
 30
0.0
 10
4.8328562389
 20
4.7725841192
 30
0.0
 10
4.8310279347
 20
4.7722747848
 30
0.0
 10
4.8292034284
 20
4.7719450738
 30
0.0
 11
4.8346878084
 21
4.7728730792
 31
0.0
 11
4.8292034284
 21
4.7719450738
 31
0.0
  0
SPLINE
  5
51C
100
AcDbEntity
  8
0
100
AcDbSpline
 62
7
  6
CONTINUOUS
 70
0
 71
3
 72
8
 73
4
 74
2
 42
0.0000001
 43
0.0000001
 44
0.0000000001
 12
0.0128257181
 22
-0.0004106121
 32
0.0
 13
0.0128144499
 23
0.0002407589
 33
0.0
 40
0.0
 40
0.0
 40
0.0
 40
0.0
 40
1.0
 40
1.0
 40
1.0
 40
1.0
 10
4.8658841962
 20
4.3967579619
 30
0.0
 10
4.8701594356
 20
4.3966210912
 30
0.0
 10
4.8744360754
 20
4.3965927951
 30
0.0
 10
4.8787075587
 20
4.3966730481
 30
0.0
 11
4.8658841962
 21
4.3967579619
 31
0.0
 11
4.8787075587
 21
4.3966730481
 31
0.0
  0
SPLINE
  5
51D
100
AcDbEntity
  8
0
100
AcDbSpline
 62
7
  6
CONTINUOUS
 70
0
 71
3
 72
8
 73
4
 74
2
 42
0.0000001
 43
0.0000001
 44
0.0000000001
 12
-0.0128733169
 22
-0.000241985
 32
0.0
 13
-0.012881062
 23
0.0004118529
 33
0.0
 40
0.0
 40
0.0
 40
0.0
 40
0.0
 40
1.0
 40
1.0
 40
1.0
 40
1.0
 10
4.8787647467
 20
4.3966752767
 30
0.0
 10
4.8744736411
 20
4.396594615
 30
0.0
 10
4.8701779598
 20
4.3966230607
 30
0.0
 10
4.8658842725
 20
4.396760345
 30
0.0
 11
4.8787647467
 21
4.3966752767
 31
0.0
 11
4.8658842725
 21
4.396760345
 31
0.0
  0
SPLINE
  5
51E
100
AcDbEntity
  8
0
100
AcDbSpline
 62
7
  6
CONTINUOUS
 70
0
 71
3
 72
21
 73
17
 74
15
 42
0.0000001
 43
0.0000001
 44
0.0000000001
 12
-0.629228035
 22
0.0201186348
 32
0.0
 13
0.6253975204
 23
0.0675574874
 33
0.0
 40
0.0
 40
0.0
 40
0.0
 40
0.0
 40
0.0480730995
 40
0.1331589021
 40
0.2173974047
 40
0.2987521229
 40
0.3750334478
 40
0.4452750667
 40
0.5101486643
 40
0.5715757606
 40
0.632248738
 40
0.6952515885
 40
0.7633182966
 40
0.837768038
 40
0.9178764867
 40
1.0
 40
1.0
 40
1.0
 40
1.0
 10
4.8658842725
 20
4.396760345
 30
0.0
 10
4.8558012919
 20
4.3970827334
 30
0.0
 10
4.8279026447
 20
4.3996382497
 30
0.0
 10
4.7835582835
 20
4.4112851422
 30
0.0
 10
4.7362906684
 20
4.4349914195
 30
0.0
 10
4.6963157935
 20
4.4666796308
 30
0.0
 10
4.6655449771
 20
4.5036109566
 30
0.0
 10
4.6448708386
 20
4.5431596897
 30
0.0
 10
4.6344394289
 20
4.5833761528
 30
0.0
 10
4.6342474238
 20
4.6229711894
 30
0.0
 10
4.6445060653
 20
4.6608605567
 30
0.0
 10
4.6654544963
 20
4.6957007034
 30
0.0
 10
4.6967757483
 20
4.7258648748
 30
0.0
 10
4.7371639943
 20
4.7498490547
 30
0.0
 10
4.784109253
 20
4.7665570472
 30
0.0
 10
4.8176612124
 20
4.7726406847
 30
0.0
 10
4.8347811596
 20
4.7744900375
 30
0.0
 11
4.8658842725
 21
4.396760345
 31
0.0
 11
4.8357533948
 21
4.3995246463
 31
0.0
 11
4.7840447477
 21
4.4130832685
 31
0.0
 11
4.7367448278
 21
4.4368258033
 31
0.0
 11
4.6967469361
 21
4.4686482143
 31
0.0
 11
4.6662081007
 21
4.5055832743
 31
0.0
 11
4.6459789785
 21
4.544804329
 31
0.0
 11
4.6359908378
 21
4.5843195642
 31
0.0
 11
4.6359910815
 21
4.6229122636
 31
0.0
 11
4.6459792389
 21
4.6596993271
 31
0.0
 11
4.6662079537
 21
4.6937226853
 31
0.0
 11
4.6967463132
 21
4.7236589802
 31
0.0
 11
4.7367445184
 21
4.7479074744
 31
0.0
 11
4.7840444997
 21
4.7651057463
 31
0.0
 11
4.8347811596
 21
4.7744900375
 31
0.0
  0
SPLINE
  5
51F
100
AcDbEntity
  8
0
100
AcDbSpline
 62
7
  6
CONTINUOUS
 70
0
 71
3
 72
8
 73
4
 74
2
 42
0.0000001
 43
0.0000001
 44
0.0000000001
 12
0.0009719628
 22
0.0001049946
 32
0.0
 13
0.0009722498
 23
0.000102354
 33
0.0
 40
0.0
 40
0.0
 40
0.0
 40
0.0
 40
1.0
 40
1.0
 40
1.0
 40
1.0
 10
4.8347811596
 20
4.7744900375
 30
0.0
 10
4.8351051472
 20
4.7745250357
 30
0.0
 10
4.8354291833
 20
4.7745595933
 30
0.0
 10
4.8357532666
 20
4.7745937113
 30
0.0
 11
4.8347811596
 21
4.7744900375
 31
0.0
 11
4.8357532666
 21
4.7745937113
 31
0.0
  0
SPLINE
  5
520
100
AcDbEntity
  8
0
100
AcDbSpline
 62
7
  6
CONTINUOUS
 70
0
 71
3
 72
8
 73
4
 74
2
 42
0.0000001
 43
0.0000001
 44
0.0000000001
 12
0.0532049758
 22
0.0056011739
 32
0.0
 13
0.053387815
 23
-0.0022074248
 33
0.0
 40
0.0
 40
0.0
 40
0.0
 40
0.0
 40
1.0
 40
1.0
 40
1.0
 40
1.0
 10
4.8357532666
 20
4.7745937113
 30
0.0
 10
4.8534882585
 20
4.7764607692
 30
0.0
 10
4.8713642851
 20
4.7770113285
 30
0.0
 10
4.8891602234
 20
4.7762755203
 30
0.0
 11
4.8357532666
 21
4.7745937113
 31
0.0
 11
4.8891602234
 21
4.7762755203
 31
0.0
  0
SPLINE
  5
521
100
AcDbEntity
  8
0
100
AcDbSpline
 62
7
  6
CONTINUOUS
 70
0
 71
3
 72
9
 73
5
 74
3
 42
0.0000001
 43
0.0000001
 44
0.0000000001
 12
-0.0104586962
 22
-0.0001561609
 32
0.0
 13
-0.0104432916
 23
-0.0005885357
 33
0.0
 40
0.0
 40
0.0
 40
0.0
 40
0.0
 40
0.4997847545
 40
1.0
 40
1.0
 40
1.0
 40
1.0
 10
4.8891602234
 20
4.7762755203
 30
0.0
 10
4.8874178578
 20
4.7762495047
 30
0.0
 10
4.8839320721
 20
4.7761613223
 30
0.0
 10
4.8804488566
 20
4.7760010736
 30
0.0
 10
4.8787075587
 20
4.7759029421
 30
0.0
 11
4.8891602234
 21
4.7762755203
 31
0.0
 11
4.8839342147
 21
4.7761433592
 31
0.0
 11
4.8787075587
 21
4.7759029421
 31
0.0
  0
SPLINE
  5
522
100
AcDbEntity
  8
0
100
AcDbSpline
 62
7
  6
CONTINUOUS
 70
0
 71
3
 72
8
 73
4
 74
2
 42
0.0000001
 43
0.0000001
 44
0.0000000001
 12
-0.0019934551
 22
0.0319462658
 32
0.0
 13
-0.0081796438
 23
0.0309903061
 33
0.0
 40
0.0
 40
0.0
 40
0.0
 40
0.0
 40
1.0
 40
1.0
 40
1.0
 40
1.0
 10
5.1021411284
 20
4.6046476839
 30
0.0
 10
5.1014766434
 20
4.6152964392
 30
0.0
 10
5.0997683303
 20
4.6259076334
 30
0.0
 10
5.0970417823
 20
4.6362377354
 30
0.0
 11
5.1021411284
 21
4.6046476839
 31
0.0
 11
5.0970417823
 21
4.6362377354
 31
0.0
  0
SPLINE
  5
523
100
AcDbEntity
  8
0
100
AcDbSpline
 62
7
  6
CONTINUOUS
 70
0
 71
3
 72
8
 73
4
 74
2
 42
0.0000001
 43
0.0000001
 44
0.0000000001
 12
-0.0007078299
 22
0.0026817629
 32
0.0
 13
-0.0007533665
 23
0.002668821
 33
0.0
 40
0.0
 40
0.0
 40
0.0
 40
0.0
 40
1.0
 40
1.0
 40
1.0
 40
1.0
 10
5.0970417823
 20
4.6362377354
 30
0.0
 10
5.096805839
 20
4.6371316563
 30
0.0
 10
5.0965622708
 20
4.6380234724
 30
0.0
 10
5.0963111486
 20
4.6389130794
 30
0.0
 11
5.0970417823
 21
4.6362377354
 31
0.0
 11
5.0963111486
 21
4.6389130794
 31
0.0
  0
SPLINE
  5
524
100
AcDbEntity
  8
0
100
AcDbSpline
 62
7
  6
CONTINUOUS
 70
0
 71
3
 72
8
 73
4
 74
2
 42
0.0000001
 43
0.0000001
 44
0.0000000001
 12
-0.0034950704
 22
0.0123813812
 32
0.0
 13
-0.0044492784
 23
0.0120649332
 33
0.0
 40
0.0
 40
0.0
 40
0.0
 40
0.0
 40
1.0
 40
1.0
 40
1.0
 40
1.0
 10
5.0963111486
 20
4.6389130794
 30
0.0
 10
5.0951461252
 20
4.6430402064
 30
0.0
 10
5.0938185203
 20
4.6471197891
 30
0.0
 10
5.0923354275
 20
4.6511414335
 30
0.0
 11
5.0963111486
 21
4.6389130794
 31
0.0
 11
5.0923354275
 21
4.6511414335
 31
0.0
  0
SPLINE
  5
525
100
AcDbEntity
  8
0
100
AcDbSpline
 62
7
  6
CONTINUOUS
 70
0
 71
3
 72
11
 73
7
 74
5
 42
0.0000001
 43
0.0000001
 44
0.0000000001
 12
-0.0559453567
 22
0.1517048219
 32
0.0
 13
-0.1503597241
 23
0.0582661714
 33
0.0
 40
0.0
 40
0.0
 40
0.0
 40
0.0
 40
0.1662819239
 40
0.4352725905
 40
0.7129104917
 40
1.0
 40
1.0
 40
1.0
 40
1.0
 10
5.0923354275
 20
4.6511414335
 30
0.0
 10
5.0892345269
 20
4.6595500233
 30
0.0
 10
5.0793380557
 20
4.6808979962
 30
0.0
 10
5.0562282475
 20
4.7119539721
 30
0.0
 10
5.0214884356
 20
4.740857278
 30
0.0
 10
4.994209095
 20
4.7547861075
 30
0.0
 10
4.9798201952
 20
4.7603619764
 30
0.0
 11
5.0923354275
 21
4.6511414335
 31
0.0
 11
5.0810583766
 21
4.6755123552
 31
0.0
 11
5.0552838392
 21
4.7103999642
 31
0.0
 11
5.0209763779
 21
4.7391642084
 31
0.0
 11
4.9798201952
 21
4.7603619764
 31
0.0
  0
SPLINE
  5
526
100
AcDbEntity
  8
0
100
AcDbSpline
 62
7
  6
CONTINUOUS
 70
0
 71
3
 72
11
 73
7
 74
5
 42
0.0000001
 43
0.0000001
 44
0.0000000001
 12
-0.0743504052
 22
-0.1163140286
 32
0.0
 13
-0.1255372142
 23
-0.0574225031
 33
0.0
 40
0.0
 40
0.0
 40
0.0
 40
0.0
 40
0.2360709528
 40
0.4845855814
 40
0.7406301944
 40
1.0
 40
1.0
 40
1.0
 40
1.0
 10
5.0834575587
 20
4.5082770411
 30
0.0
 10
5.0776069017
 20
4.4991242532
 30
0.0
 10
5.0641452439
 20
4.4812299023
 30
0.0
 10
5.039872996
 20
4.4571467918
 30
0.0
 10
5.0115798129
 20
4.4360946713
 30
0.0
 10
4.9906737162
 20
4.4247010373
 30
0.0
 10
4.9798201952
 20
4.4197364828
 30
0.0
 11
5.0834575587
 21
4.5082770411
 31
0.0
 11
5.063916744
 21
4.4821965891
 31
0.0
 11
5.0395978487
 21
4.4579986849
 31
0.0
 11
5.011254558
 21
4.4368797701
 31
0.0
 11
4.9798201952
 21
4.4197364828
 31
0.0
  0
SPLINE
  5
527
100
AcDbEntity
  8
0
100
AcDbSpline
 62
7
  6
CONTINUOUS
 70
0
 71
3
 72
9
 73
5
 74
3
 42
0.0000001
 43
0.0000001
 44
0.0000000001
 12
-0.0654045797
 22
-0.0069444483
 32
0.0
 13
-0.0654045797
 23
0.0069444483
 33
0.0
 40
0.0
 40
0.0
 40
0.0
 40
0.0
 40
0.4997863727
 40
1.0
 40
1.0
 40
1.0
 40
1.0
 10
7.5072980825
 20
3.7313979957
 30
0.0
 10
7.4964019766
 20
3.7302410822
 30
0.0
 10
7.4744622941
 20
3.7290935539
 30
0.0
 10
7.4525224556
 20
3.7302400931
 30
0.0
 10
7.441617035
 20
3.7313979957
 30
0.0
 11
7.5072980825
 21
3.7313979957
 31
0.0
 11
7.474471629
 21
3.7296670711
 31
0.0
 11
7.441617035
 21
3.7313979957
 31
0.0
  0
SPLINE
  5
528
100
AcDbEntity
  8
0
100
AcDbSpline
 62
7
  6
CONTINUOUS
 70
0
 71
3
 72
13
 73
9
 74
7
 42
0.0000001
 43
0.0000001
 44
0.0000000001
 12
0.0
 22
-0.2677164079
 32
0.0
 13
0.2622815909
 23
-0.056285351
 33
0.0
 40
0.0
 40
0.0
 40
0.0
 40
0.0
 40
0.1567800196
 40
0.3159848566
 40
0.4794851699
 40
0.6482166271
 40
0.8220706778
 40
1.0
 40
1.0
 40
1.0
 40
1.0
 10
4.6644575587
 20
3.9037879951
 30
0.0
 10
4.6644575587
 20
3.8897971339
 30
0.0
 10
4.668115414
 20
3.8614710132
 30
0.0
 10
4.6842147073
 20
3.8213743831
 30
0.0
 10
4.7100426654
 20
3.7854283329
 30
0.0
 10
4.7442408852
 20
3.7553798483
 30
0.0
 10
4.7851063114
 20
3.7326035795
 30
0.0
 10
4.8152098186
 20
3.7230381776
 30
0.0
 10
4.8307656805
 20
3.7196999062
 30
0.0
 11
4.6644575587
 21
3.9037879951
 31
0.0
 11
4.6697987028
 21
3.8621566372
 31
0.0
 11
4.6855612109
 21
3.8225566794
 31
0.0
 11
4.7109761237
 21
3.7869189833
 31
0.0
 11
4.7448035322
 21
3.756981845
 31
0.0
 11
4.7853933334
 21
3.7342052549
 31
0.0
 11
4.8307656805
 21
3.7196999062
 31
0.0
  0
SPLINE
  5
529
100
AcDbEntity
  8
0
100
AcDbSpline
 62
7
  6
CONTINUOUS
 70
0
 71
3
 72
8
 73
4
 74
2
 42
0.0000001
 43
0.0000001
 44
0.0000000001
 12
0.0042274831
 22
-0.0009072134
 32
0.0
 13
0.0042429609
 23
-0.0008333651
 33
0.0
 40
0.0
 40
0.0
 40
0.0
 40
0.0
 40
1.0
 40
1.0
 40
1.0
 40
1.0
 10
4.8307656805
 20
3.7196999062
 30
0.0
 10
4.8321748416
 20
3.7193975017
 30
0.0
 10
4.8335867085
 20
3.7191074049
 30
0.0
 10
4.8350010288
 20
3.7188296166
 30
0.0
 11
4.8307656805
 21
3.7196999062
 31
0.0
 11
4.8350010288
 21
3.7188296166
 31
0.0
  0
SPLINE
  5
52A
100
AcDbEntity
  8
0
100
AcDbSpline
 62
7
  6
CONTINUOUS
 70
0
 71
3
 72
8
 73
4
 74
2
 42
0.0000001
 43
0.0000001
 44
0.0000000001
 12
0.0432098447
 22
-0.008486898
 32
0.0
 13
0.0439365656
 23
-0.0008254835
 33
0.0
 40
0.0
 40
0.0
 40
0.0
 40
0.0
 40
1.0
 40
1.0
 40
1.0
 40
1.0
 10
4.8350010288
 20
3.7188296166
 30
0.0
 10
4.8494043103
 20
3.7160006506
 30
0.0
 10
4.8640620368
 20
3.7144482093
 30
0.0
 10
4.8787075587
 20
3.7141730481
 30
0.0
 11
4.8350010288
 21
3.7188296166
 31
0.0
 11
4.8787075587
 21
3.7141730481
 31
0.0
  0
SPLINE
  5
52B
100
AcDbEntity
  8
0
100
AcDbSpline
 62
7
  6
CONTINUOUS
 70
0
 71
3
 72
9
 73
5
 74
3
 42
0.0000001
 43
0.0000001
 44
0.0000000001
 12
0.0000017792
 22
-0.0353732748
 32
0.0
 13
-0.0081077025
 23
-0.0344030071
 33
0.0
 40
0.0
 40
0.0
 40
0.0
 40
0.0
 40
0.3343300115
 40
1.0
 40
1.0
 40
1.0
 40
1.0
 10
5.1024579808
 20
3.8853204486
 30
0.0
 10
5.1024581791
 20
3.8813783328
 30
0.0
 10
5.1020339319
 20
3.8695875291
 30
0.0
 10
5.1002657163
 20
3.8578793083
 30
0.0
 10
5.0984666983
 20
3.8502456252
 30
0.0
 11
5.1024579808
 21
3.8853204486
 31
0.0
 11
5.1020242778
 21
3.8735035246
 31
0.0
 11
5.0984666983
 21
3.8502456252
 31
0.0
  0
SPLINE
  5
52C
100
AcDbEntity
  8
0
100
AcDbSpline
 62
7
  6
CONTINUOUS
 70
0
 71
3
 72
10
 73
6
 74
4
 42
0.0000001
 43
0.0000001
 44
0.0000000001
 12
-0.0172721174
 22
-0.0449515717
 32
0.0
 13
-0.0259360809
 23
-0.0405744938
 33
0.0
 40
0.0
 40
0.0
 40
0.0
 40
0.0
 40
0.3324942798
 40
0.665841776
 40
1.0
 40
1.0
 40
1.0
 40
1.0
 10
5.1053024821
 20
4.5511122936
 30
0.0
 10
5.1033881887
 20
4.5461302468
 30
0.0
 10
5.0991715006
 20
4.536296863
 30
0.0
 10
5.0918414088
 20
4.5220047222
 30
0.0
 10
5.0863464769
 20
4.5127964747
 30
0.0
 10
5.0834575587
 20
4.5082770411
 30
0.0
 11
5.1053024821
 21
4.5511122936
 31
0.0
 11
5.0990113308
 21
4.5363885305
 31
0.0
 11
5.0916972035
 21
4.5220990674
 31
0.0
 11
5.0834575587
 21
4.5082770411
 31
0.0
  0
SPLINE
  5
52D
100
AcDbEntity
  8
0
100
AcDbSpline
 62
7
  6
CONTINUOUS
 70
0
 71
3
 72
11
 73
7
 74
5
 42
0.0000001
 43
0.0000001
 44
0.0000000001
 12
0.0249978881
 22
-0.0329102265
 32
0.0
 13
0.0175560813
 23
-0.0374133856
 33
0.0
 40
0.0
 40
0.0
 40
0.0
 40
0.0
 40
0.2561002698
 40
0.5072828197
 40
0.7544807272
 40
1.0
 40
1.0
 40
1.0
 40
1.0
 10
5.0834575587
 20
4.6914613693
 30
0.0
 10
5.0855915473
 20
4.68865193
 30
0.0
 10
5.0897255405
 20
4.6830151705
 30
0.0
 10
5.0955089902
 20
4.6743745105
 30
0.0
 10
5.100758161
 20
4.665567073
 30
0.0
 10
5.1038656967
 20
4.659525599
 30
0.0
 10
5.1053024821
 20
4.6564636965
 30
0.0
 11
5.0834575587
 21
4.6914613693
 31
0.0
 11
5.0897030631
 21
4.6829164653
 31
0.0
 11
5.0954624147
 21
4.6742798728
 31
0.0
 11
5.1006770713
 21
4.6654948628
 31
0.0
 11
5.1053024821
 21
4.6564636965
 31
0.0
  0
SPLINE
  5
52E
100
AcDbEntity
  8
0
100
AcDbSpline
 62
7
  6
CONTINUOUS
 70
0
 71
3
 72
9
 73
5
 74
3
 42
0.0000001
 43
0.0000001
 44
0.0000000001
 12
0.0654045797
 22
0.0069444483
 32
0.0
 13
0.0654045797
 23
-0.0069444483
 33
0.0
 40
0.0
 40
0.0
 40
0.0
 40
0.0
 40
0.4997868636
 40
1.0
 40
1.0
 40
1.0
 40
1.0
 10
7.441617035
 20
4.7586779945
 30
0.0
 10
7.4525131515
 20
4.7598349092
 30
0.0
 10
7.4744528342
 20
4.7609824363
 30
0.0
 10
7.4963926725
 20
4.7598358959
 30
0.0
 10
7.5072980825
 20
4.7586779945
 30
0.0
 11
7.441617035
 21
4.7586779945
 31
0.0
 11
7.4744435208
 21
4.7604089191
 31
0.0
 11
7.5072980825
 21
4.7586779945
 31
0.0
  0
SPLINE
  5
52F
100
AcDbEntity
  8
0
100
AcDbSpline
 62
7
  6
CONTINUOUS
 70
0
 71
3
 72
14
 73
10
 74
8
 42
0.0000001
 43
0.0000001
 44
0.0000000001
 12
0.0000597621
 22
-0.3109563089
 32
0.0
 13
0.3101301272
 23
0.0
 33
0.0
 40
0.0
 40
0.0
 40
0.0
 40
0.0
 40
0.1324360906
 40
0.2642024389
 40
0.4000546192
 40
0.5428212086
 40
0.6920747179
 40
0.8452615493
 40
1.0
 40
1.0
 40
1.0
 40
1.0
 10
5.9144575586
 20
3.8936629925
 30
0.0
 10
5.9144601969
 20
3.8799357132
 30
0.0
 10
5.9179244418
 20
3.8525170711
 30
0.0
 10
5.934278611
 20
3.8139459443
 30
0.0
 10
5.9612245172
 20
3.7805147538
 30
0.0
 10
5.9971030326
 20
3.7539399029
 30
0.0
 10
6.0394154642
 20
3.7350652386
 30
0.0
 10
6.085571457
 20
3.7239362675
 30
0.0
 10
6.1174612069
 20
3.7215009981
 30
0.0
 10
6.1334575587
 20
3.7215009981
 30
0.0
 11
5.9144575586
 21
3.8936629925
 31
0.0
 11
5.9197766111
 21
3.8529364491
 31
0.0
 11
5.935719256
 21
3.8153099033
 31
0.0
 11
5.9619756468
 21
3.7823600162
 31
0.0
 11
5.9973398799
 21
3.7557187939
 31
0.0
 11
6.0394775668
 21
3.7365616753
 31
0.0
 11
6.0856133266
 21
3.7252264372
 31
0.0
 11
6.1334575587
 21
3.7215009981
 31
0.0
  0
SPLINE
  5
530
100
AcDbEntity
  8
0
100
AcDbSpline
 62
7
  6
CONTINUOUS
 70
0
 71
3
 72
11
 73
7
 74
5
 42
0.0000001
 43
0.0000001
 44
0.0000000001
 12
-0.0175560752
 22
-0.0374133727
 32
0.0
 13
-0.0249978794
 23
-0.0329102151
 33
0.0
 40
0.0
 40
0.0
 40
0.0
 40
0.0
 40
0.247117816
 40
0.4942532581
 40
0.7446997434
 40
1.0
 40
1.0
 40
1.0
 40
1.0
 10
5.1053024821
 20
3.8336122936
 30
0.0
 10
5.1038563425
 20
3.8305304567
 30
0.0
 10
5.1007376473
 20
3.8244708162
 30
0.0
 10
5.0954796571
 20
3.8156558402
 30
0.0
 10
5.0897066398
 20
3.8070347456
 30
0.0
 10
5.0855848804
 20
3.801415283
 30
0.0
 10
5.0834575587
 20
3.7986146209
 30
0.0
 11
5.1053024821
 21
3.8336122936
 31
0.0
 11
5.1006450139
 21
3.8245233255
 31
0.0
 11
5.0954284868
 21
3.8157424329
 31
0.0
 11
5.0896840847
 21
3.8071324391
 31
0.0
 11
5.0834575587
 21
3.7986146209
 31
0.0
  0
SPLINE
  5
531
100
AcDbEntity
  8
0
100
AcDbSpline
 62
7
  6
CONTINUOUS
 70
0
 71
3
 72
10
 73
6
 74
4
 42
0.0000001
 43
0.0000001
 44
0.0000000001
 12
0.0259360811
 22
-0.0405744941
 32
0.0
 13
0.0172721176
 23
-0.0449515721
 33
0.0
 40
0.0
 40
0.0
 40
0.0
 40
0.0
 40
0.3341211246
 40
0.6676478742
 40
1.0
 40
1.0
 40
1.0
 40
1.0
 10
5.0834575587
 20
3.9817989491
 30
0.0
 10
5.0863461562
 20
3.9772800172
 30
0.0
 10
5.0918422872
 20
3.9680698306
 30
0.0
 10
5.0991722478
 20
3.953777603
 30
0.0
 10
5.1033890071
 20
3.9439436134
 30
0.0
 10
5.1053024821
 20
3.9389636965
 30
0.0
 11
5.0834575587
 21
3.9817989491
 31
0.0
 11
5.0916963373
 21
3.9679784862
 31
0.0
 11
5.0990142448
 21
3.9536812608
 31
0.0
 11
5.1053024821
 21
3.9389636965
 31
0.0
  0
SPLINE
  5
532
100
AcDbEntity
  8
0
100
AcDbSpline
 62
7
  6
CONTINUOUS
 70
0
 71
3
 72
13
 73
9
 74
7
 42
0.0000001
 43
0.0000001
 44
0.0000000001
 12
0.1255966212
 22
-0.0574496768
 32
0.0
 13
0.0743855895
 23
-0.1163690711
 33
0.0
 40
0.0
 40
0.0
 40
0.0
 40
0.0
 40
0.1827752692
 40
0.3527428368
 40
0.516282303
 40
0.6786238124
 40
0.8403848593
 40
1.0
 40
1.0
 40
1.0
 40
1.0
 10
4.9798201952
 20
4.0703395074
 30
0.0
 10
4.9874721807
 20
4.0668393807
 30
0.0
 10
5.001916784
 20
4.0593491191
 30
0.0
 10
5.021899503
 20
4.0464204299
 30
0.0
 10
5.0398726706
 20
4.0322954907
 30
0.0
 10
5.0562014051
 20
4.0168413273
 30
0.0
 10
5.07088151
 20
4.0000526628
 30
0.0
 10
5.0794998699
 20
3.987990371
 30
0.0
 10
5.0834575587
 20
3.9817989491
 30
0.0
 11
4.9798201952
 21
4.0703395074
 31
0.0
 11
5.0022286972
 21
4.0587165581
 31
0.0
 11
5.0219354098
 21
4.0459610893
 31
0.0
 11
5.039689398
 21
4.031998312
 31
0.0
 11
5.0559657867
 21
4.0165776859
 31
0.0
 11
5.0706591022
 21
3.9997481151
 31
0.0
 11
5.0834575587
 21
3.9817989491
 31
0.0
  0
SPLINE
  5
533
100
AcDbEntity
  8
0
100
AcDbSpline
 62
7
  6
CONTINUOUS
 70
0
 71
3
 72
16
 73
12
 74
10
 42
0.0000001
 43
0.0000001
 44
0.0000000001
 12
0.4116211212
 22
0.0004265877
 32
0.0
 13
-0.1939055862
 23
-0.3641145622
 33
0.0
 40
0.0
 40
0.0
 40
0.0
 40
0.0
 40
0.1319922473
 40
0.2624770613
 40
0.3858202344
 40
0.4990860159
 40
0.6023944312
 40
0.6991799763
 40
0.7945091099
 40
0.893439431
 40
1.0
 40
1.0
 40
1.0
 40
1.0
 10
6.0334574486
 20
4.7685756586
 30
0.0
 10
6.0515677142
 20
4.7685944274
 30
0.0
 10
6.087640539
 20
4.7659508863
 30
0.0
 10
6.1394534398
 20
4.7540417029
 30
0.0
 10
6.1860640179
 20
4.734120745
 30
0.0
 10
6.2244374214
 20
4.7068687488
 30
0.0
 10
6.2524645073
 20
4.6735750881
 30
0.0
 10
6.2691412815
 20
4.6360218642
 30
0.0
 10
6.2744713532
 20
4.5959248751
 30
0.0
 10
6.2687877828
 20
4.5545873575
 30
0.0
 10
6.2581908768
 20
4.5281822035
 30
0.0
 10
6.2513033136
 20
4.5152487852
 30
0.0
 11
6.0334574486
 21
4.7685756586
 31
0.0
 11
6.0876393283
 21
4.7645553886
 31
0.0
 11
6.139921433
 21
4.7522516682
 31
0.0
 11
6.1864381493
 21
4.7319081851
 31
0.0
 11
6.2241724252
 21
4.7045258465
 31
0.0
 11
6.2512882863
 21
4.6717689193
 31
0.0
 11
6.2673639548
 21
4.6353173283
 31
0.0
 11
6.2726648161
 21
4.5964375175
 31
0.0
 11
6.2673756796
 21
4.5560606354
 31
0.0
 11
6.2513033136
 21
4.5152487852
 31
0.0
  0
SPLINE
  5
534
100
AcDbEntity
  8
0
100
AcDbSpline
 62
7
  6
CONTINUOUS
 70
0
 71
3
 72
8
 73
4
 74
2
 42
0.0000001
 43
0.0000001
 44
0.0000000001
 12
-0.0013947055
 22
-0.0026189683
 32
0.0
 13
-0.001432476
 23
-0.0025980806
 33
0.0
 40
0.0
 40
0.0
 40
0.0
 40
0.0
 40
1.0
 40
1.0
 40
1.0
 40
1.0
 10
6.2513033136
 20
4.5152487852
 30
0.0
 10
6.2508384118
 20
4.5143757958
 30
0.0
 10
6.2503671662
 20
4.5135062662
 30
0.0
 10
6.2498896742
 20
4.5126402393
 30
0.0
 11
6.2513033136
 21
4.5152487852
 31
0.0
 11
6.2498896742
 21
4.5126402393
 31
0.0
  0
SPLINE
  5
535
100
AcDbEntity
  8
0
100
AcDbSpline
 62
7
  6
CONTINUOUS
 70
0
 71
3
 72
8
 73
4
 74
2
 42
0.0000001
 43
0.0000001
 44
0.0000000001
 12
-0.0000258386
 22
-0.0000000109
 32
0.0
 13
-0.0000258385
 23
-0.0000000083
 33
0.0
 40
0.0
 40
0.0
 40
0.0
 40
0.0
 40
1.0
 40
1.0
 40
1.0
 40
1.0
 10
6.033483441
 20
4.3892549065
 30
0.0
 10
6.0334748282
 20
4.3892549029
 30
0.0
 10
6.0334662153
 20
4.3892548997
 30
0.0
 10
6.0334576025
 20
4.3892548969
 30
0.0
 11
6.033483441
 21
4.3892549065
 31
0.0
 11
6.0334576025
 21
4.3892548969
 31
0.0
  0
SPLINE
  5
536
100
AcDbEntity
  8
0
100
AcDbSpline
 62
7
  6
CONTINUOUS
 70
0
 71
3
 72
14
 73
10
 74
8
 42
0.0000001
 43
0.0000001
 44
0.0000000001
 12
0.310130126
 22
0.0
 32
0.0
 13
0.000059763
 23
0.3109563027
 33
0.0
 40
0.0
 40
0.0
 40
0.0
 40
0.0
 40
0.1547375814
 40
0.3079241225
 40
0.4571777734
 40
0.5999444354
 40
0.7357968252
 40
0.8675634138
 40
1.0
 40
1.0
 40
1.0
 40
1.0
 10
6.1334575587
 20
3.7215009981
 30
0.0
 10
6.1494538206
 20
3.7215009981
 30
0.0
 10
6.1813434495
 20
3.7239362448
 30
0.0
 10
6.2274993504
 20
3.7350651394
 30
0.0
 10
6.2698118021
 20
3.7539397382
 30
0.0
 10
6.3056903957
 20
3.7805145559
 30
0.0
 10
6.3326363931
 20
3.8139457439
 30
0.0
 10
6.3489906524
 20
3.8525169421
 30
0.0
 10
6.3524549205
 20
3.8799356611
 30
0.0
 10
6.3524575588
 20
3.8936629915
 30
0.0
 11
6.1334575587
 21
3.7215009981
 31
0.0
 11
6.1813015235
 21
3.7252263949
 31
0.0
 11
6.2274372087
 21
3.7365615585
 31
0.0
 11
6.2695749637
 21
3.755718633
 31
0.0
 11
6.3049392581
 21
3.782359811
 31
0.0
 11
6.3311957436
 21
3.8153097055
 31
0.0
 11
6.3471384659
 21
3.8529362994
 31
0.0
 11
6.3524575588
 21
3.8936629915
 31
0.0
  0
SPLINE
  5
537
100
AcDbEntity
  8
0
100
AcDbSpline
 62
7
  6
CONTINUOUS
 70
0
 71
3
 72
15
 73
11
 74
9
 42
0.0000001
 43
0.0000001
 44
0.0000000001
 12
0.0
 22
0.3208839018
 32
0.0
 13
-0.3208836238
 23
0.0004224357
 33
0.0
 40
0.0
 40
0.0
 40
0.0
 40
0.0
 40
0.1161974245
 40
0.2336593103
 40
0.3537121731
 40
0.477048108
 40
0.6038688585
 40
0.7338559269
 40
0.8662547694
 40
1.0
 40
1.0
 40
1.0
 40
1.0
 10
6.2524575587
 20
4.5789129951
 30
0.0
 10
6.2524575587
 20
4.5913416227
 30
0.0
 10
6.2495867706
 20
4.616424514
 30
0.0
 10
6.2368960086
 20
4.652379068
 30
0.0
 10
6.2163760001
 20
4.6854135607
 30
0.0
 10
6.1888705982
 20
4.7142641648
 30
0.0
 10
6.1554709093
 20
4.7378748377
 30
0.0
 10
6.1174527404
 20
4.755381152
 30
0.0
 10
6.0762649599
 20
4.7661648978
 30
0.0
 10
6.0477373129
 20
4.7685537243
 30
0.0
 10
6.0334317615
 20
4.7685725572
 30
0.0
 11
6.2524575587
 21
4.5789129951
 31
0.0
 11
6.2482390258
 21
4.6159594666
 31
0.0
 11
6.235769837
 21
4.6515288097
 31
0.0
 11
6.2155304756
 21
4.6843067316
 31
0.0
 11
6.1883047071
 21
4.7130305572
 31
0.0
 11
6.15513406
 21
4.7366053277
 31
0.0
 11
6.1172830209
 21
4.7541292013
 31
0.0
 11
6.076193287
 21
4.764926417
 31
0.0
 11
6.0334317615
 21
4.7685725572
 31
0.0
  0
SPLINE
  5
538
100
AcDbEntity
  8
0
100
AcDbSpline
 62
7
  6
CONTINUOUS
 70
0
 71
3
 72
12
 73
8
 74
6
 42
0.0000001
 43
0.0000001
 44
0.0000000001
 12
-0.2604485972
 22
-0.000357301
 32
0.0
 13
-0.1260142554
 23
0.2285526323
 33
0.0
 40
0.0
 40
0.0
 40
0.0
 40
0.0
 40
0.2093820357
 40
0.4211366831
 40
0.6291972755
 40
0.8275923155
 40
1.0
 40
1.0
 40
1.0
 40
1.0
 10
6.0334576025
 20
4.3892548969
 30
0.0
 10
6.01527985
 20
4.3892299595
 30
0.0
 10
5.9785975564
 20
4.3932416544
 30
0.0
 10
5.9264350847
 20
4.410770503
 30
0.0
 10
5.8799962402
 20
4.438492767
 30
0.0
 10
5.8429331346
 20
4.4729889624
 30
0.0
 10
5.8242673853
 20
4.4995054883
 30
0.0
 10
5.8170254433
 20
4.5126402317
 30
0.0
 11
6.0334576025
 21
4.3892548969
 31
0.0
 11
5.9792414279
 21
4.3951275606
 31
0.0
 11
5.926960344
 21
4.4126874281
 31
0.0
 11
5.880451399
 21
4.4404971562
 31
0.0
 11
5.8427222756
 21
4.4758027346
 31
0.0
 11
5.8170254433
 21
4.5126402317
 31
0.0
  0
SPLINE
  5
539
100
AcDbEntity
  8
0
100
AcDbSpline
 62
7
  6
CONTINUOUS
 70
0
 71
3
 72
8
 73
4
 74
2
 42
0.0000001
 43
0.0000001
 44
0.0000000001
 12
-0.0014336989
 22
0.0026003063
 32
0.0
 13
-0.0013958635
 23
0.0026212282
 33
0.0
 40
0.0
 40
0.0
 40
0.0
 40
0.0
 40
1.0
 40
1.0
 40
1.0
 40
1.0
 10
5.8170254433
 20
4.5126402317
 30
0.0
 10
5.8165475436
 20
4.5135070005
 30
0.0
 10
5.8160759011
 20
4.5143772777
 30
0.0
 10
5.8156106133
 20
4.5152510205
 30
0.0
 11
5.8170254433
 21
4.5126402317
 31
0.0
 11
5.8156106133
 21
4.5152510205
 31
0.0
  0
SPLINE
  5
53A
100
AcDbEntity
  8
0
100
AcDbSpline
 62
7
  6
CONTINUOUS
 70
0
 71
3
 72
16
 73
12
 74
10
 42
0.0000001
 43
0.0000001
 44
0.0000000001
 12
-0.1938997489
 22
0.3641154663
 32
0.0
 13
0.4116185858
 23
0.0001249168
 33
0.0
 40
0.0
 40
0.0
 40
0.0
 40
0.0
 40
0.1065599319
 40
0.205483852
 40
0.30081603
 40
0.397603681
 40
0.5009120999
 40
0.6141794087
 40
0.737524571
 40
0.8680084723
 40
1.0
 40
1.0
 40
1.0
 40
1.0
 10
5.8156106133
 20
4.5152510205
 30
0.0
 10
5.8087232986
 20
4.5281843936
 30
0.0
 10
5.7981271469
 20
4.5545885548
 30
0.0
 10
5.7924438567
 20
4.5959252148
 30
0.0
 10
5.7977737376
 20
4.6360217985
 30
0.0
 10
5.8144507984
 20
4.6735754463
 30
0.0
 10
5.8424781216
 20
4.7068689797
 30
0.0
 10
5.8808517462
 20
4.7341217999
 30
0.0
 10
5.92746242
 20
4.7540391265
 30
0.0
 10
5.9792750482
 20
4.7659620686
 30
0.0
 10
6.0153473933
 20
4.7685701626
 30
0.0
 10
6.0334574486
 20
4.7685756586
 30
0.0
 11
5.8156106133
 21
4.5152510205
 31
0.0
 11
5.79953894
 21
4.5560625481
 31
0.0
 11
5.7942503011
 21
4.5964365649
 31
0.0
 11
5.7995511758
 21
4.6353173753
 31
0.0
 11
5.8156271767
 21
4.6717694775
 31
0.0
 11
5.8427429645
 21
4.7045261002
 31
0.0
 11
5.8804775706
 21
4.7319085262
 31
0.0
 11
5.9269948007
 21
4.7522520351
 31
0.0
 11
5.9792762234
 21
4.7645554541
 31
0.0
 11
6.0334574486
 21
4.7685756586
 31
0.0
  0
SPLINE
  5
53B
100
AcDbEntity
  8
0
100
AcDbSpline
 62
7
  6
CONTINUOUS
 70
0
 71
3
 72
14
 73
10
 74
8
 42
0.0000001
 43
0.0000001
 44
0.0000000001
 12
-0.3206746981
 22
0.0000773536
 32
0.0
 13
0.0
 23
-0.3206747075
 33
0.0
 40
0.0
 40
0.0
 40
0.0
 40
0.0
 40
0.1526772349
 40
0.3034941035
 40
0.4509004308
 40
0.5939404617
 40
0.7324768964
 40
0.8672931873
 40
1.0
 40
1.0
 40
1.0
 40
1.0
 10
6.0334317615
 20
4.7685725572
 30
0.0
 10
6.0171118527
 20
4.7685764939
 30
0.0
 10
5.9845813644
 20
4.7654148382
 30
0.0
 10
5.9381409899
 20
4.7514283943
 30
0.0
 10
5.8963420772
 20
4.7288360492
 30
0.0
 10
5.8612874844
 20
4.6986975042
 30
0.0
 10
5.834769085
 20
4.6624249705
 30
0.0
 10
5.818220168
 20
4.6218274893
 30
0.0
 10
5.8144575587
 20
4.5930982345
 30
0.0
 10
5.8144575587
 20
4.5789129951
 30
0.0
 11
6.0334317615
 21
4.7685725572
 31
0.0
 11
5.9847039169
 21
4.7638131352
 31
0.0
 11
5.9384204184
 21
4.7497834328
 31
0.0
 11
5.8969017673
 21
4.7271868528
 31
0.0
 11
5.862229571
 21
4.6971563128
 31
0.0
 11
5.8361421788
 21
4.6611974446
 31
0.0
 11
5.8199475259
 21
4.6211131068
 31
0.0
 11
5.8144575587
 21
4.5789129951
 31
0.0
  0
SPLINE
  5
53C
100
AcDbEntity
  8
0
100
AcDbSpline
 62
7
  6
CONTINUOUS
 70
0
 71
3
 72
8
 73
4
 74
2
 42
0.0000001
 43
0.0000001
 44
0.0000000001
 12
-0.0132044148
 22
-0.0046812673
 32
0.0
 13
-0.0134503832
 23
-0.0039620222
 33
0.0
 40
0.0
 40
0.0
 40
0.0
 40
0.0
 40
1.0
 40
1.0
 40
1.0
 40
1.0
 10
4.9798201952
 20
3.7297140138
 30
0.0
 10
4.9754187236
 20
3.7281535914
 30
0.0
 10
4.9709721581
 20
3.7267147169
 30
0.0
 10
4.966488697
 20
3.7253940428
 30
0.0
 11
4.9798201952
 21
3.7297140138
 31
0.0
 11
4.966488697
 21
3.7253940428
 31
0.0
  0
SPLINE
  5
53D
100
AcDbEntity
  8
0
100
AcDbSpline
 62
7
  6
CONTINUOUS
 70
0
 71
3
 72
9
 73
5
 74
3
 42
0.0000001
 43
0.0000001
 44
0.0000000001
 12
-0.0471781859
 22
-0.0138970776
 32
0.0
 13
-0.0488827745
 23
-0.0055794998
 33
0.0
 40
0.0
 40
0.0
 40
0.0
 40
0.0
 40
0.6503966959
 40
1.0
 40
1.0
 40
1.0
 40
1.0
 10
4.966488697
 20
3.7253940428
 30
0.0
 10
4.9562605183
 20
3.7223811717
 30
0.0
 10
4.940239223
 20
3.7186946374
 30
0.0
 10
4.9239941044
 20
3.7163683786
 30
0.0
 10
4.9182975779
 20
3.7157181747
 30
0.0
 11
4.966488697
 21
3.7253940428
 31
0.0
 11
4.9353254424
 21
3.7181611704
 31
0.0
 11
4.9182975779
 21
3.7157181747
 31
0.0
  0
SPLINE
  5
53E
100
AcDbEntity
  8
0
100
AcDbSpline
 62
7
  6
CONTINUOUS
 70
0
 71
3
 72
8
 73
4
 74
2
 42
0.0000001
 43
0.0000001
 44
0.0000000001
 12
-0.0237970001
 22
-0.0027161993
 32
0.0
 13
-0.0239144324
 23
-0.0008449555
 33
0.0
 40
0.0
 40
0.0
 40
0.0
 40
0.0
 40
1.0
 40
1.0
 40
1.0
 40
1.0
 10
4.9182975779
 20
3.7157181747
 30
0.0
 10
4.9103652446
 20
3.714812775
 30
0.0
 10
4.9023996001
 20
3.7142235589
 30
0.0
 10
4.8944281226
 20
3.7139419071
 30
0.0
 11
4.9182975779
 21
3.7157181747
 31
0.0
 11
4.8944281226
 21
3.7139419071
 31
0.0
  0
SPLINE
  5
53F
100
AcDbEntity
  8
0
100
AcDbSpline
 62
7
  6
CONTINUOUS
 70
0
 71
3
 72
8
 73
4
 74
2
 42
0.0000001
 43
0.0000001
 44
0.0000000001
 12
-0.0052673439
 22
-0.0001861082
 32
0.0
 13
-0.0052681609
 23
-0.0000968583
 33
0.0
 40
0.0
 40
0.0
 40
0.0
 40
0.0
 40
1.0
 40
1.0
 40
1.0
 40
1.0
 10
4.8944281226
 20
3.7139419071
 30
0.0
 10
4.8926723413
 20
3.713879871
 30
0.0
 10
4.890916277
 20
3.713832756
 30
0.0
 10
4.8891602234
 20
3.7138004699
 30
0.0
 11
4.8944281226
 21
3.7139419071
 31
0.0
 11
4.8891602234
 21
3.7138004699
 31
0.0
  0
SPLINE
  5
540
100
AcDbEntity
  8
0
100
AcDbSpline
 62
7
  6
CONTINUOUS
 70
0
 71
3
 72
11
 73
7
 74
5
 42
0.0000001
 43
0.0000001
 44
0.0000000001
 12
-0.0763537991
 22
-0.1005213245
 32
0.0
 13
-0.1199390579
 23
-0.0393581211
 33
0.0
 40
0.0
 40
0.0
 40
0.0
 40
0.0
 40
0.2298423226
 40
0.4744312196
 40
0.7320254672
 40
1.0
 40
1.0
 40
1.0
 40
1.0
 10
5.0834575587
 20
3.7986146209
 30
0.0
 10
5.0776077805
 20
3.7909132693
 30
0.0
 10
5.0640248736
 20
3.7761181854
 30
0.0
 10
5.0395789376
 20
3.7571737591
 30
0.0
 10
5.0111738367
 20
3.741353274
 30
0.0
 10
4.9905337329
 20
3.7332296719
 30
0.0
 10
4.9798201952
 20
3.7297140138
 30
0.0
 11
5.0834575587
 21
3.7986146209
 31
0.0
 11
5.0639164822
 21
3.7771688098
 31
0.0
 11
5.039597822
 21
3.7581461828
 31
0.0
 11
5.0112549708
 21
3.7422085147
 31
0.0
 11
4.9798201952
 21
3.7297140138
 31
0.0
  0
SPLINE
  5
541
100
AcDbEntity
  8
0
100
AcDbSpline
 62
7
  6
CONTINUOUS
 70
0
 71
3
 72
14
 73
10
 74
8
 42
0.0000001
 43
0.0000001
 44
0.0000000001
 12
0.0
 22
-0.2879318159
 32
0.0
 13
0.2854796236
 23
-0.0374982017
 33
0.0
 40
0.0
 40
0.0
 40
0.0
 40
0.0
 40
0.1337762717
 40
0.2691935909
 40
0.407766285
 40
0.5502983461
 40
0.6969387414
 40
0.8471838078
 40
1.0
 40
1.0
 40
1.0
 40
1.0
 10
7.2554575587
 20
3.9189129951
 30
0.0
 10
7.2554575587
 20
3.9060735135
 30
0.0
 10
7.2585258719
 20
3.8801375728
 30
0.0
 10
7.2720764722
 20
3.8430756295
 30
0.0
 10
7.293946307
 20
3.8092295926
 30
0.0
 10
7.3231683278
 20
3.7799871631
 30
0.0
 10
7.3585087122
 20
3.7564876776
 30
0.0
 10
7.3985000784
 20
3.7396423385
 30
0.0
 10
7.4270750653
 20
3.7333081065
 30
0.0
 10
7.441617035
 20
3.7313979957
 30
0.0
 11
7.2554575587
 21
3.9189129951
 31
0.0
 11
7.2599586414
 21
3.8806584418
 31
0.0
 11
7.2732616383
 21
3.844007046
 31
0.0
 11
7.2948184466
 21
3.8104321578
 31
0.0
 11
7.3237383679
 21
3.7813137795
 31
0.0
 11
7.3588346867
 21
3.7578407641
 31
0.0
 11
7.39867061
 21
3.7409719829
 31
0.0
 11
7.441617035
 21
3.7313979957
 31
0.0
  0
SPLINE
  5
542
100
AcDbEntity
  8
0
100
AcDbSpline
 62
7
  6
CONTINUOUS
 70
0
 71
3
 72
9
 73
5
 74
3
 42
0.0000001
 43
0.0000001
 44
0.0000000001
 12
0.0081077026
 22
-0.0344030074
 32
0.0
 13
-0.0000017793
 23
-0.0353732752
 33
0.0
 40
0.0
 40
0.0
 40
0.0
 40
0.0
 40
0.665669787
 40
1.0
 40
1.0
 40
1.0
 40
1.0
 10
5.0984666983
 20
4.639830365
 30
0.0
 10
5.1002657158
 20
4.6321966841
 30
0.0
 10
5.1020339317
 20
4.6204884633
 30
0.0
 10
5.1024581791
 20
4.6086976595
 30
0.0
 10
5.1024579808
 20
4.6047555413
 30
0.0
 11
5.0984666983
 21
4.639830365
 31
0.0
 11
5.1020242773
 21
4.6165724725
 31
0.0
 11
5.1024579808
 21
4.6047555413
 31
0.0
  0
SPLINE
  5
543
100
AcDbEntity
  8
0
100
AcDbSpline
 62
7
  6
CONTINUOUS
 70
0
 71
3
 72
16
 73
12
 74
10
 42
0.0000001
 43
0.0000001
 44
0.0000000001
 12
-0.3733801337
 22
0.0332070617
 32
0.0
 13
0.1709787344
 23
0.3344366789
 33
0.0
 40
0.0
 40
0.0
 40
0.0
 40
0.0
 40
0.1428543111
 40
0.2797979169
 40
0.4070137969
 40
0.5229268788
 40
0.6297378795
 40
0.732298533
 40
0.8361436315
 40
0.9461992798
 40
1.0
 40
1.0
 40
1.0
 40
1.0
 10
7.441617035
 20
3.7313979957
 30
0.0
 10
7.423837381
 20
3.732979253
 30
0.0
 10
7.3891708321
 20
3.7386182426
 30
0.0
 10
7.340725503
 20
3.7549153428
 30
0.0
 10
7.2991576321
 20
3.7786223577
 30
0.0
 10
7.2668620312
 20
3.8087831673
 30
0.0
 10
7.2452738567
 20
3.8438386046
 30
0.0
 10
7.2347304767
 20
3.8820617353
 30
0.0
 10
7.2349369375
 20
3.9220611024
 30
0.0
 10
7.2435432643
 20
3.9547179989
 30
0.0
 10
7.2519589994
 20
3.9734529553
 30
0.0
 10
7.2550252591
 20
3.9794506
 30
0.0
 11
7.441617035
 21
3.7313979957
 31
0.0
 11
7.3887938682
 21
3.740187835
 31
0.0
 11
7.3402533021
 21
3.7568904337
 31
0.0
 11
7.2990583467
 21
3.7809125188
 31
0.0
 11
7.2675857537
 21
3.8108694734
 31
0.0
 11
7.2467738798
 21
3.8450739885
 31
0.0
 11
7.236522397
 21
3.8821272617
 31
0.0
 11
7.2365207849
 21
3.921054
 31
0.0
 11
7.2467719121
 21
3.9610148789
 31
0.0
 11
7.2550252591
 21
3.9794506
 31
0.0
  0
SPLINE
  5
544
100
AcDbEntity
  8
0
100
AcDbSpline
 62
7
  6
CONTINUOUS
 70
0
 71
3
 72
12
 73
8
 74
6
 42
0.0000001
 43
0.0000001
 44
0.0000000001
 12
0.1067366157
 22
0.2087782402
 32
0.0
 13
0.2320236824
 23
0.0304207224
 33
0.0
 40
0.0
 40
0.0
 40
0.0
 40
0.0
 40
0.1055383275
 40
0.3144122521
 40
0.5373593974
 40
0.7677629176
 40
1.0
 40
1.0
 40
1.0
 40
1.0
 10
7.2550252591
 20
3.9794506
 30
0.0
 10
7.2587801937
 20
3.9867953021
 30
0.0
 10
7.2713204543
 20
4.007988974
 30
0.0
 10
7.2986337938
 20
4.0401933811
 30
0.0
 10
7.3397792168
 20
4.0720492856
 30
0.0
 10
7.3882662632
 20
4.0954923038
 30
0.0
 10
7.4236555339
 20
4.1040730546
 30
0.0
 10
7.441617035
 20
4.1064279945
 30
0.0
 11
7.2550252591
 21
3.9794506
 31
0.0
 11
7.2675866402
 21
4.0007585445
 31
0.0
 11
7.2990604803
 21
4.0381550933
 31
0.0
 11
7.3402578766
 21
4.07016547
 31
0.0
 11
7.3887987546
 21
4.0936342224
 31
0.0
 11
7.441617035
 21
4.1064279945
 31
0.0
  0
SPLINE
  5
545
100
AcDbEntity
  8
0
100
AcDbSpline
 62
7
  6
CONTINUOUS
 70
0
 71
3
 72
12
 73
8
 74
6
 42
0.0000001
 43
0.0000001
 44
0.0000000001
 12
0.2320236753
 22
-0.0304207215
 32
0.0
 13
0.1067366199
 23
-0.2087782376
 33
0.0
 40
0.0
 40
0.0
 40
0.0
 40
0.0
 40
0.232240317
 40
0.4626445691
 40
0.6855912359
 40
0.8944650267
 40
1.0
 40
1.0
 40
1.0
 40
1.0
 10
7.5072980825
 20
4.1064279945
 30
0.0
 10
7.5252598331
 20
4.1040730218
 30
0.0
 10
7.5606494028
 20
4.0954921424
 30
0.0
 10
7.6091366183
 20
4.0720488447
 30
0.0
 10
7.6502819358
 20
4.0401927927
 30
0.0
 10
7.6775949624
 20
4.0079885306
 30
0.0
 10
7.6901350414
 20
3.986795071
 30
0.0
 10
7.6938898569
 20
3.9794506024
 30
0.0
 11
7.5072980825
 21
4.1064279945
 31
0.0
 11
7.5601170778
 21
4.0936339658
 31
0.0
 11
7.6086580307
 21
4.0701649789
 31
0.0
 11
7.649855225
 21
4.0381545272
 31
0.0
 11
7.6813289139
 21
4.000757894
 31
0.0
 11
7.6938898569
 21
3.9794506024
 31
0.0
  0
SPLINE
  5
546
100
AcDbEntity
  8
0
100
AcDbSpline
 62
7
  6
CONTINUOUS
 70
0
 71
3
 72
16
 73
12
 74
10
 42
0.0000001
 43
0.0000001
 44
0.0000000001
 12
0.1709787492
 22
-0.3344366906
 32
0.0
 13
-0.37338014
 23
-0.0332070622
 33
0.0
 40
0.0
 40
0.0
 40
0.0
 40
0.0
 40
0.0538027169
 40
0.1638551827
 40
0.2676986514
 40
0.3702610921
 40
0.4770722297
 40
0.5929857106
 40
0.7202021324
 40
0.8571462241
 40
1.0
 40
1.0
 40
1.0
 40
1.0
 10
7.6938898569
 20
3.9794506024
 30
0.0
 10
7.6969562306
 20
3.9734527349
 30
0.0
 10
7.7053718712
 20
3.9547178969
 30
0.0
 10
7.7139780645
 20
3.9220613526
 30
0.0
 10
7.7141847264
 20
3.8820623872
 30
0.0
 10
7.7036415356
 20
3.8438391435
 30
0.0
 10
7.6820532931
 20
3.8087834008
 30
0.0
 10
7.6497576333
 20
3.7786224463
 30
0.0
 10
7.6081896102
 20
3.7549153275
 30
0.0
 10
7.5597442133
 20
3.7386182265
 30
0.0
 10
7.5250776701
 20
3.7329792471
 30
0.0
 10
7.5072980825
 20
3.7313979957
 30
0.0
 11
7.6938898569
 21
3.9794506024
 31
0.0
 11
7.7021434741
 21
3.9610141821
 31
0.0
 11
7.7123942746
 21
3.9210544502
 31
0.0
 11
7.712392862
 21
3.8821283222
 31
0.0
 11
7.7021413934
 21
3.8450743493
 31
0.0
 11
7.6813295778
 21
3.8108697379
 31
0.0
 11
7.6498569219
 21
3.7809126314
 31
0.0
 11
7.6086618001
 21
3.7568904268
 31
0.0
 11
7.5601210548
 21
3.7401877865
 31
0.0
 11
7.5072980825
 21
3.7313979957
 31
0.0
  0
SPLINE
  5
547
100
AcDbEntity
  8
0
100
AcDbSpline
 62
7
  6
CONTINUOUS
 70
0
 71
3
 72
14
 73
10
 74
8
 42
0.0000001
 43
0.0000001
 44
0.0000000001
 12
0.2854796236
 22
0.0374982017
 32
0.0
 13
0.0
 23
0.2879318159
 33
0.0
 40
0.0
 40
0.0
 40
0.0
 40
0.0
 40
0.1528161922
 40
0.3030612586
 40
0.4497016539
 40
0.592233715
 40
0.7308064091
 40
0.8662237283
 40
1.0
 40
1.0
 40
1.0
 40
1.0
 10
7.5072980825
 20
3.7313979957
 30
0.0
 10
7.5218400521
 20
3.7333081065
 30
0.0
 10
7.550415039
 20
3.7396423385
 30
0.0
 10
7.5904064052
 20
3.7564876776
 30
0.0
 10
7.6257467896
 20
3.7799871631
 30
0.0
 10
7.6549688104
 20
3.8092295926
 30
0.0
 10
7.6768386452
 20
3.8430756295
 30
0.0
 10
7.6903892455
 20
3.8801375728
 30
0.0
 10
7.6934575587
 20
3.9060735135
 30
0.0
 10
7.6934575587
 20
3.9189129951
 30
0.0
 11
7.5072980825
 21
3.7313979957
 31
0.0
 11
7.5502445074
 21
3.7409719829
 31
0.0
 11
7.5900804308
 21
3.7578407641
 31
0.0
 11
7.6251767495
 21
3.7813137795
 31
0.0
 11
7.6540966708
 21
3.8104321578
 31
0.0
 11
7.6756534791
 21
3.844007046
 31
0.0
 11
7.688956476
 21
3.8806584418
 31
0.0
 11
7.6934575587
 21
3.9189129951
 31
0.0
  0
SPLINE
  5
548
100
AcDbEntity
  8
0
100
AcDbSpline
 62
7
  6
CONTINUOUS
 70
0
 71
3
 72
14
 73
10
 74
8
 42
0.0000001
 43
0.0000001
 44
0.0000000001
 12
-0.2854796236
 22
-0.0374982017
 32
0.0
 13
0.0
 23
-0.2879318159
 33
0.0
 40
0.0
 40
0.0
 40
0.0
 40
0.0
 40
0.1528161922
 40
0.3030612586
 40
0.4497016539
 40
0.592233715
 40
0.7308064091
 40
0.8662237283
 40
1.0
 40
1.0
 40
1.0
 40
1.0
 10
7.441617035
 20
4.7586779945
 30
0.0
 10
7.4270750653
 20
4.7567678837
 30
0.0
 10
7.3985000784
 20
4.7504336517
 30
0.0
 10
7.3585087122
 20
4.7335883126
 30
0.0
 10
7.3231683278
 20
4.7100888271
 30
0.0
 10
7.293946307
 20
4.6808463976
 30
0.0
 10
7.2720764722
 20
4.6470003607
 30
0.0
 10
7.2585258719
 20
4.6099384174
 30
0.0
 10
7.2554575587
 20
4.5840024767
 30
0.0
 10
7.2554575587
 20
4.5711629951
 30
0.0
 11
7.441617035
 21
4.7586779945
 31
0.0
 11
7.39867061
 21
4.7491040072
 31
0.0
 11
7.3588346867
 21
4.7322352261
 31
0.0
 11
7.3237383679
 21
4.7087622107
 31
0.0
 11
7.2948184466
 21
4.6796438324
 31
0.0
 11
7.2732616383
 21
4.6460689442
 31
0.0
 11
7.2599586414
 21
4.6094175484
 31
0.0
 11
7.2554575587
 21
4.5711629951
 31
0.0
  0
SPLINE
  5
549
100
AcDbEntity
  8
0
100
AcDbSpline
 62
7
  6
CONTINUOUS
 70
0
 71
3
 72
12
 73
8
 74
6
 42
0.0000001
 43
0.0000001
 44
0.0000000001
 12
-0.2320236751
 22
0.0304207215
 32
0.0
 13
-0.10673662
 23
0.2087782375
 33
0.0
 40
0.0
 40
0.0
 40
0.0
 40
0.0
 40
0.2322403414
 40
0.462644617
 40
0.6855913042
 40
0.8944651116
 40
1.0
 40
1.0
 40
1.0
 40
1.0
 10
7.441617035
 20
4.3836479957
 30
0.0
 10
7.4236552824
 20
4.3860029686
 30
0.0
 10
7.3882657091
 20
4.3945838493
 30
0.0
 10
7.3397784895
 20
4.418027151
 30
0.0
 10
7.2986331699
 20
4.4498832081
 30
0.0
 10
7.2713201482
 20
4.4820874695
 30
0.0
 10
7.258780073
 20
4.5032809251
 30
0.0
 10
7.2550252605
 20
4.5106253877
 30
0.0
 11
7.441617035
 21
4.3836479957
 31
0.0
 11
7.3887980342
 21
4.3964420263
 31
0.0
 11
7.3402570772
 21
4.4199110173
 31
0.0
 11
7.2990598809
 21
4.4519214741
 31
0.0
 11
7.2675861925
 21
4.4893181127
 31
0.0
 11
7.2550252605
 21
4.5106253877
 31
0.0
  0
SPLINE
  5
54A
100
AcDbEntity
  8
0
100
AcDbSpline
 62
7
  6
CONTINUOUS
 70
0
 71
3
 72
16
 73
12
 74
10
 42
0.0000001
 43
0.0000001
 44
0.0000000001
 12
-0.1709787496
 22
0.334436691
 32
0.0
 13
0.3733801402
 23
0.0332070622
 33
0.0
 40
0.0
 40
0.0
 40
0.0
 40
0.0
 40
0.0538027758
 40
0.1638552543
 40
0.2676986761
 40
0.3702609976
 40
0.4770721623
 40
0.5929856539
 40
0.7202020798
 40
0.8571461867
 40
1.0
 40
1.0
 40
1.0
 40
1.0
 10
7.2550252605
 20
4.5106253877
 30
0.0
 10
7.2519588834
 20
4.5166232618
 30
0.0
 10
7.2435432402
 20
4.5353581085
 30
0.0
 10
7.2349370506
 20
4.5680146573
 30
0.0
 10
7.234730394
 20
4.608013603
 30
0.0
 10
7.2452735761
 20
4.6462368295
 30
0.0
 10
7.2668618059
 20
4.6812925684
 30
0.0
 10
7.2991574658
 20
4.711453531
 30
0.0
 10
7.3407254901
 20
4.7351606555
 30
0.0
 10
7.3891708929
 20
4.7514577616
 30
0.0
 10
7.4238374427
 20
4.7570967427
 30
0.0
 10
7.441617035
 20
4.7586779945
 30
0.0
 11
7.2550252605
 21
4.5106253877
 31
0.0
 11
7.2467716354
 21
4.5290618287
 31
0.0
 11
7.2365208393
 21
4.5690215667
 31
0.0
 11
7.2365222566
 21
4.6079476771
 31
0.0
 11
7.2467737098
 21
4.6450016079
 31
0.0
 11
7.2675855235
 21
4.6792062324
 31
0.0
 11
7.2990581783
 21
4.7091633459
 31
0.0
 11
7.3402532992
 21
4.7331855552
 31
0.0
 11
7.388794049
 21
4.7498882003
 31
0.0
 11
7.441617035
 21
4.7586779945
 31
0.0
  0
SPLINE
  5
54B
100
AcDbEntity
  8
0
100
AcDbSpline
 62
7
  6
CONTINUOUS
 70
0
 71
3
 72
16
 73
12
 74
10
 42
0.0000001
 43
0.0000001
 44
0.0000000001
 12
0.3733801339
 22
-0.0332070617
 32
0.0
 13
-0.1709787347
 23
-0.3344366792
 33
0.0
 40
0.0
 40
0.0
 40
0.0
 40
0.0
 40
0.1428543374
 40
0.279797954
 40
0.4070138388
 40
0.5229269303
 40
0.6297379627
 40
0.7322985225
 40
0.8361435775
 40
0.9461992365
 40
1.0
 40
1.0
 40
1.0
 40
1.0
 10
7.5072980825
 20
4.7586779945
 30
0.0
 10
7.5250777397
 20
4.7570967369
 30
0.0
 10
7.5597442932
 20
4.751457746
 30
0.0
 10
7.6081896267
 20
4.7351606422
 30
0.0
 10
7.6497574989
 20
4.711453623
 30
0.0
 10
7.6820531011
 20
4.681292806
 30
0.0
 10
7.7036412663
 20
4.6462373702
 30
0.0
 10
7.7141846386
 20
4.6080142523
 30
0.0
 10
7.7139781813
 20
4.5680149015
 30
0.0
 10
7.7053718576
 20
4.5353580026
 30
0.0
 10
7.6969561205
 20
4.5166230397
 30
0.0
 10
7.6938898583
 20
4.5106253902
 30
0.0
 11
7.5072980825
 21
4.7586779945
 31
0.0
 11
7.5601212588
 21
4.7498881528
 31
0.0
 11
7.6086618281
 21
4.7331855508
 31
0.0
 11
7.6498567835
 21
4.7091634619
 31
0.0
 11
7.681329376
 21
4.6792065016
 31
0.0
 11
7.7021412501
 21
4.6450019727
 31
0.0
 11
7.7123927199
 21
4.6079487324
 31
0.0
 11
7.7123943351
 21
4.5690220103
 31
0.0
 11
7.7021432112
 21
4.5290611264
 31
0.0
 11
7.6938898583
 21
4.5106253902
 31
0.0
  0
SPLINE
  5
54C
100
AcDbEntity
  8
0
100
AcDbSpline
 62
7
  6
CONTINUOUS
 70
0
 71
3
 72
12
 73
8
 74
6
 42
0.0000001
 43
0.0000001
 44
0.0000000001
 12
-0.1067366158
 22
-0.2087782401
 32
0.0
 13
-0.2320236823
 23
-0.0304207224
 33
0.0
 40
0.0
 40
0.0
 40
0.0
 40
0.0
 40
0.1055382645
 40
0.3144122016
 40
0.5373593619
 40
0.7677628995
 40
1.0
 40
1.0
 40
1.0
 40
1.0
 10
7.6938898583
 20
4.5106253902
 30
0.0
 10
7.6901349259
 20
4.5032806924
 30
0.0
 10
7.6775946682
 20
4.4820870235
 30
0.0
 10
7.6502813323
 20
4.4498826169
 30
0.0
 10
7.6091359076
 20
4.4180267087
 30
0.0
 10
7.5606488583
 20
4.3945836875
 30
0.0
 10
7.5252595849
 20
4.3860029358
 30
0.0
 10
7.5072980825
 20
4.3836479957
 30
0.0
 11
7.6938898583
 21
4.5106253902
 31
0.0
 11
7.6813284854
 21
4.4893174579
 31
0.0
 11
7.6498546456
 21
4.451920905
 31
0.0
 11
7.6086572478
 21
4.4199105245
 31
0.0
 11
7.5601163668
 21
4.3964417692
 31
0.0
 11
7.5072980825
 21
4.3836479957
 31
0.0
  0
SPLINE
  5
54D
100
AcDbEntity
  8
0
100
AcDbSpline
 62
7
  6
CONTINUOUS
 70
0
 71
3
 72
14
 73
10
 74
8
 42
0.0000001
 43
0.0000001
 44
0.0000000001
 12
0.0
 22
0.2879318159
 32
0.0
 13
-0.2854796236
 23
0.0374982017
 33
0.0
 40
0.0
 40
0.0
 40
0.0
 40
0.0
 40
0.1337762717
 40
0.2691935909
 40
0.407766285
 40
0.5502983461
 40
0.6969387414
 40
0.8471838078
 40
1.0
 40
1.0
 40
1.0
 40
1.0
 10
7.6934575587
 20
4.5711629951
 30
0.0
 10
7.6934575587
 20
4.5840024767
 30
0.0
 10
7.6903892455
 20
4.6099384174
 30
0.0
 10
7.6768386452
 20
4.6470003607
 30
0.0
 10
7.6549688104
 20
4.6808463976
 30
0.0
 10
7.6257467896
 20
4.7100888271
 30
0.0
 10
7.5904064052
 20
4.7335883126
 30
0.0
 10
7.550415039
 20
4.7504336517
 30
0.0
 10
7.5218400521
 20
4.7567678837
 30
0.0
 10
7.5072980825
 20
4.7586779945
 30
0.0
 11
7.6934575587
 21
4.5711629951
 31
0.0
 11
7.688956476
 21
4.6094175484
 31
0.0
 11
7.6756534791
 21
4.6460689442
 31
0.0
 11
7.6540966708
 21
4.6796438324
 31
0.0
 11
7.6251767495
 21
4.7087622107
 31
0.0
 11
7.5900804308
 21
4.7322352261
 31
0.0
 11
7.5502445074
 21
4.7491040072
 31
0.0
 11
7.5072980825
 21
4.7586779945
 31
0.0
  0
SPLINE
  5
54E
100
AcDbEntity
  8
0
100
AcDbSpline
 62
7
  6
CONTINUOUS
 70
0
 71
3
 72
11
 73
7
 74
5
 42
0.0000001
 43
0.0000001
 44
0.0000000001
 12
0.119939042
 22
-0.0393581159
 32
0.0
 13
0.0763537889
 23
-0.1005213112
 33
0.0
 40
0.0
 40
0.0
 40
0.0
 40
0.0
 40
0.2680051095
 40
0.5252757619
 40
0.7700144198
 40
1.0
 40
1.0
 40
1.0
 40
1.0
 10
4.9798201952
 20
4.7603619764
 30
0.0
 10
4.9905349539
 20
4.7568459176
 30
0.0
 10
5.0111635511
 20
4.7487266831
 30
0.0
 10
5.0395640668
 20
4.7329111642
 30
0.0
 10
5.0640118857
 20
4.7139710502
 30
0.0
 10
5.0776041352
 20
4.69916752
 30
0.0
 10
5.0834575587
 20
4.6914613693
 30
0.0
 11
4.9798201952
 21
4.7603619764
 31
0.0
 11
5.0112584614
 21
4.7478658198
 31
0.0
 11
5.0395669054
 21
4.731950312
 31
0.0
 11
5.0639031581
 21
4.7129194993
 31
0.0
 11
5.0834575587
 21
4.6914613693
 31
0.0
  0
SPLINE
  5
54F
100
AcDbEntity
  8
0
100
AcDbSpline
 62
7
  6
CONTINUOUS
 70
0
 71
3
 72
12
 73
8
 74
6
 42
0.0000001
 43
0.0000001
 44
0.0000000001
 12
-0.1260017266
 22
-0.2285292323
 32
0.0
 13
-0.2604237285
 23
-0.0001100949
 33
0.0
 40
0.0
 40
0.0
 40
0.0
 40
0.0
 40
0.1724307403
 40
0.3708443019
 40
0.5789236832
 40
0.7906945563
 40
1.0
 40
1.0
 40
1.0
 40
1.0
 10
6.2498896742
 20
4.5126402393
 30
0.0
 10
6.2426474839
 20
4.4995050844
 30
0.0
 10
6.2239814006
 20
4.4729884548
 30
0.0
 10
6.1869179276
 20
4.4384911274
 30
0.0
 10
6.1404795861
 20
4.4107741894
 30
0.0
 10
6.088325758
 20
4.3932299943
 30
0.0
 10
6.0516528091
 20
4.3892625877
 30
0.0
 10
6.033483441
 20
4.3892549065
 30
0.0
 11
6.2498896742
 21
4.5126402393
 31
0.0
 11
6.2241918418
 21
4.4758015712
 31
0.0
 11
6.1864627491
 21
4.4404964249
 31
0.0
 11
6.1399541263
 21
4.4126871296
 31
0.0
 11
6.0876742332
 21
4.3951276797
 31
0.0
 11
6.033483441
 21
4.3892549065
 31
0.0
  0
SPLINE
  5
550
100
AcDbEntity
  8
0
100
AcDbSpline
 62
7
  6
CONTINUOUS
 70
0
 71
3
 72
8
 73
4
 74
2
 42
0.0000001
 43
0.0000001
 44
0.0000000001
 12
-0.0128082535
 22
0.0002406424
 32
0.0
 13
-0.0128195203
 23
-0.0004100987
 33
0.0
 40
0.0
 40
0.0
 40
0.0
 40
0.0
 40
1.0
 40
1.0
 40
1.0
 40
1.0
 10
4.8787075587
 20
4.0934029421
 30
0.0
 10
4.8744381409
 20
4.0934831562
 30
0.0
 10
4.8701635715
 20
4.0934549263
 30
0.0
 10
4.865890398
 20
4.0933182267
 30
0.0
 11
4.8787075587
 21
4.0934029421
 31
0.0
 11
4.865890398
 21
4.0933182267
 31
0.0
  0
SPLINE
  5
551
100
AcDbEntity
  8
0
100
AcDbSpline
 62
7
  6
CONTINUOUS
 70
0
 71
3
 72
20
 73
16
 74
14
 42
0.0000001
 43
0.0000001
 44
0.0000000001
 12
-0.5802111868
 22
-0.1048513874
 32
0.0
 13
0.5887831495
 23
-0.0188497433
 33
0.0
 40
0.0
 40
0.0
 40
0.0
 40
0.0
 40
0.0834467801
 40
0.1650345535
 40
0.2441954354
 40
0.3208269376
 40
0.3953559014
 40
0.4686885778
 40
0.5420212542
 40
0.616550218
 40
0.6931817202
 40
0.7723426021
 40
0.8539303755
 40
0.9373771556
 40
1.0
 40
1.0
 40
1.0
 40
1.0
 10
4.8292034284
 20
4.7719450738
 30
0.0
 10
4.8130645099
 20
4.7690285702
 30
0.0
 10
4.7817339298
 20
4.760107317
 30
0.0
 10
4.7389898805
 20
4.7377221736
 30
0.0
 10
4.7030629975
 20
4.7075036507
 30
0.0
 10
4.6758382991
 20
4.6709152257
 30
0.0
 10
4.6588279044
 20
4.6297893544
 30
0.0
 10
4.6530380425
 20
4.5862879951
 30
0.0
 10
4.6588279044
 20
4.5427866358
 30
0.0
 10
4.6758382991
 20
4.5016607645
 30
0.0
 10
4.7030629975
 20
4.4650723395
 30
0.0
 10
4.7389898805
 20
4.4348538166
 30
0.0
 10
4.7817339298
 20
4.4124686732
 30
0.0
 10
4.8249529903
 20
4.4001622243
 30
0.0
 10
4.853593771
 20
4.3971514368
 30
0.0
 10
4.8658841962
 20
4.3967579619
 30
0.0
 11
4.8292034284
 21
4.7719450738
 31
0.0
 11
4.7820055669
 21
4.758419844
 31
0.0
 11
4.739546193
 21
4.7360242251
 31
0.0
 11
4.7040133493
 21
4.7059122998
 31
0.0
 11
4.6772381483
 21
4.6696357916
 31
0.0
 11
4.6606004181
 21
4.6290641322
 31
0.0
 11
4.6549575587
 21
4.5862879951
 31
0.0
 11
4.6606004181
 21
4.543511858
 31
0.0
 11
4.6772381483
 21
4.5029401986
 31
0.0
 11
4.7040133493
 21
4.4666636904
 31
0.0
 11
4.739546193
 21
4.4365517651
 31
0.0
 11
4.7820055669
 21
4.4141561462
 31
0.0
 11
4.8292034284
 21
4.4006309164
 31
0.0
 11
4.8658841962
 21
4.3967579619
 31
0.0
  0
ENDSEC
  0
SECTION
  2
OBJECTS
  0
DICTIONARY
  5
C
100
AcDbDictionary
280
0
281
1
  3
ACAD_GROUP
350
D
  3
ACAD_MLINESTYLE
350
17
  3
ACAD_LAYOUT
350
1A
  3
ACAD_PLOTSETTINGS
350
19
  3
ACAD_PLOTSTYLENAME
350
E
  0
DICTIONARY
  5
D
102
{ACAD_REACTORS
330
C
102
}
100
AcDbDictionary
280
0
281
1
  0
ACDBDICTIONARYWDFLT
  5
E
102
{ACAD_REACTORS
330
C
102
}
100
AcDbDictionary
281
1
  3
Normal
350
F
100
AcDbDictionaryWithDefault
340
F
  0
DICTIONARY
  5
17
102
{ACAD_REACTORS
330
C
102
}
100
AcDbDictionary
280
0
281
1
  3
Standard
350
18
  0
DICTIONARY
  5
19
102
{ACAD_REACTORS
330
C
102
}
100
AcDbDictionary
281
1
  0
DICTIONARY
  5
1A
102
{ACAD_REACTORS
330
C
102
}
100
AcDbDictionary
281
1
  3
Layout1
350
1E
  3
Model
350
22
  0
ACDBPLACEHOLDER
  5
F
102
{ACAD_REACTORS
330
E
102
}
  0
MLINESTYLE
  5
18
102
{ACAD_REACTORS
330
17
102
}
100
AcDbMlineStyle
  2
STANDARD
 70
0
  3

 62
256
 51
90.0
 52
90.0
 71
2
 49
0.5
 62
256
  6
BYLAYER
 49
-0.5
 62
256
  6
BYLAYER
  0
LAYOUT
  5
1E
102
{ACAD_REACTORS
330
1A
102
}
100
AcDbPlotSettings
  1

  2

  4

  6

 40
0.0
 41
0.0
 42
0.0
 43
0.0
 44
0.0
 45
0.0
 46
0.0
 47
0.0
 48
0.0
 49
0.0
140
0.0
141
0.0
142
1.0
143
1.0
 70
0
 72
0
 73
0
 74
0
  7

 75
0
147
1.0
148
0.0
149
0.0
100
AcDbLayout
  1
Layout1
 70
0
 71
0
 10
0.0
 20
0.0
 11
0.0
 21
0.0
 12
0.0
 22
0.0
 32
0.0
 14
0.0
 24
0.0
 34
0.0
 15
0.0
 25
0.0
 35
0.0
146
0.0
 13
0.0
 23
0.0
 33
0.0
 16
0.0
 26
0.0
 36
0.0
 17
0.0
 27
0.0
 37
0.0
 76
0
330
1B
331
0
345
0
346
0
  0
LAYOUT
  5
22
102
{ACAD_REACTORS
330
1A
102
}
100
AcDbPlotSettings
  1

  2

  4

  6

 40
0.0
 41
0.0
 42
0.0
 43
0.0
 44
0.0
 45
0.0
 46
0.0
 47
0.0
 48
0.0
 49
0.0
140
0.0
141
0.0
142
1.0
143
1.0
 70
0
 72
0
 73
0
 74
0
  7

 75
0
147
1.0
148
0.0
149
0.0
100
AcDbLayout
  1
Model
 70
0
 71
0
 10
0.0
 20
0.0
 11
0.0
 21
0.0
 12
0.0
 22
0.0
 32
0.0
 14
0.0
 24
0.0
 34
0.0
 15
0.0
 25
0.0
 35
0.0
146
0.0
 13
0.0
 23
0.0
 33
0.0
 16
0.0
 26
0.0
 36
0.0
 17
0.0
 27
0.0
 37
0.0
 76
0
330
1F
331
0
345
0
346
0
  0
ENDSEC
  0
EOF
