999
DXF file: DSGH-XHN.dxf
999
Pro/ENGINEER 2006240 by Parametric Technology Corporation
  0
SECTION
  2
HEADER
  9
$ACADVER
  1
AC1015
  9
$DWGCODEPAGE
  3
ANSI_1252
  9
$EXTMAX
 10
11.6929133858
 20
8.2677165354
 30
0.0
  9
$EXTMIN
 10
0.0
 20
0.0
 30
0.0
  9
$LIMMIN
 10
0.0
 20
0.0
  9
$LIMMAX
 10
11.6929133858
 20
8.2677165354
  9
$VIEWCTR
 10
5.8464566929
 20
4.1338582677
  9
$VIEWSIZE
 40
8.2677165354
  9
$CLAYER
  8
0
  9
$LTSCALE
 40
0.6431102362
  9
$CELTYPE
  6
BYLAYER
  9
$DIMSCALE
 40
1.0
  9
$DIMASZ
 40
0.1875
  9
$DIMEXO
 40
0.0730807087
  9
$DIMDLI
 40
0.4443307087
  9
$DIMEXE
 40
0.2104724409
  9
$DIMCEN
 40
0.1052362205
  9
$DIMLFAC
 40
1.0
  9
$DIMBLK
  1
_CLOSED
  9
$DIMTXT
 40
0.15625
  9
$DIMTOL
 70
0
  9
$DIMLIM
 70
0
  9
$DIMTFAC
 40
1.0
  9
$PDMODE
 70
3
  9
$PDSIZE
 40
0.3125
  9
$HANDSEED
  5
488
  9
$MEASUREMENT
 70
0
  9
$INSUNITS
 70
1
  0
ENDSEC
  0
SECTION
  2
CLASSES
  0
CLASS
  1
ACDBDICTIONARYWDFLT
  2
AcDbDictionaryWithDefault
  3
AutoCAD 2000
 90
0
280
0
281
0
  0
CLASS
  1
ACDBPLACEHOLDER
  2
AcDbPlaceHolder
  3
AutoCAD 2000
 90
0
280
0
281
0
  0
CLASS
  1
LAYOUT
  2
AcDbLayout
  3
AutoCAD 2000
 90
0
280
0
281
0
  0
ENDSEC
  0
SECTION
  2
TABLES
  0
TABLE
  2
VPORT
  5
8
100
AcDbSymbolTable
 70
2
  0
VPORT
  5
1F4
100
AcDbSymbolTableRecord
100
AcDbViewportTableRecord
  2
*ACTIVE
 70
0
 10
0.0
 20
0.0
 11
1.0
 21
1.0
 12
5.8464566929
 22
4.1338582677
 13
0.0
 23
0.0
 14
1.0
 24
1.0
 15
0.0
 25
0.0
 16
0.0
 26
0.0
 36
1.0
 17
0.0
 27
0.0
 37
0.0
 40
8.2677165354
 41
1.4142857143
 42
50.0
 43
0.0
 44
0.0
 50
0.0
 51
0.0
 71
0
 72
100
 73
1
 74
1
 75
0
 76
0
 77
0
 78
0
  0
ENDTAB
  0
TABLE
  2
LTYPE
  5
5
100
AcDbSymbolTable
 70
6
  0
LTYPE
  5
14
100
AcDbSymbolTableRecord
100
AcDbLinetypeTableRecord
  2
BYBLOCK
 70
0
  3

 72
65
 73
0
 40
0.0
  0
LTYPE
  5
15
100
AcDbSymbolTableRecord
100
AcDbLinetypeTableRecord
  2
BYLAYER
 70
0
  3

 72
65
 73
0
 40
0.0
  0
LTYPE
  5
16
100
AcDbSymbolTableRecord
100
AcDbLinetypeTableRecord
  2
CONTINUOUS
 70
64
  3
Solid line
 72
65
 73
0
 40
0.0
  0
LTYPE
  5
1F5
100
AcDbSymbolTableRecord
100
AcDbLinetypeTableRecord
  2
CENTER
 70
64
  3
____ _ ____ _ ____ _ ____ _ ____ _ ____ _ ____
 72
65
 73
4
 40
0.6
 49
0.375
 74
0
 49
-0.075
 74
0
 49
0.075
 74
0
 49
-0.075
 74
0
  0
LTYPE
  5
1F6
100
AcDbSymbolTableRecord
100
AcDbLinetypeTableRecord
  2
HIDDEN
 70
64
  3
- - - - - - - - - - - - - - - - - - - -
 72
65
 73
2
 40
0.2
 49
0.1
 74
0
 49
-0.1
 74
0
  0
LTYPE
  5
1F7
100
AcDbSymbolTableRecord
100
AcDbLinetypeTableRecord
  2
PHANTOM
 70
64
  3
_____ _ _ _____ _ _ _____ _ _ _____
 72
65
 73
6
 40
0.8
 49
0.45
 74
0
 49
-0.05
 74
0
 49
0.1
 74
0
 49
-0.05
 74
0
 49
0.1
 74
0
 49
-0.05
 74
0
  0
LTYPE
  5
1F8
100
AcDbSymbolTableRecord
100
AcDbLinetypeTableRecord
  2
DOT
 70
64
  3
. . . . . . . . . . . . . . . . . . . .
 72
65
 73
2
 40
0.2
 49
0.1
 74
0
 49
-0.1
 74
0
  0
LTYPE
  5
1F9
100
AcDbSymbolTableRecord
100
AcDbLinetypeTableRecord
  2
DASHED
 70
64
  3
- - - - - - - - - - - - - - - - - - - -
 72
65
 73
2
 40
0.2
 49
0.1
 74
0
 49
-0.1
 74
0
  0
ENDTAB
  0
TABLE
  2
LAYER
  5
2
100
AcDbSymbolTable
 70
36
  0
LAYER
  5
10
100
AcDbSymbolTableRecord
100
AcDbLayerTableRecord
  2
0
 70
0
 62
7
  6
CONTINUOUS
370
-3
390
F
  0
LAYER
  5
1FA
100
AcDbSymbolTableRecord
100
AcDbLayerTableRecord
  2
DEFAULT_1
 70
0
 62
7
  6
CENTER
370
-3
390
F
  0
LAYER
  5
1FB
100
AcDbSymbolTableRecord
100
AcDbLayerTableRecord
  2
DEFAULT_2
 70
0
 62
8
  6
HIDDEN
370
-3
390
F
  0
LAYER
  5
1FC
100
AcDbSymbolTableRecord
100
AcDbLayerTableRecord
  2
DEFAULT_3
 70
0
 62
7
  6
PHANTOM
370
-3
390
F
  0
LAYER
  5
1FD
100
AcDbSymbolTableRecord
100
AcDbLayerTableRecord
  2
01_ALL_DTM_PLN
 70
0
 62
7
  6
CONTINUOUS
370
-3
390
F
  0
LAYER
  5
1FE
100
AcDbSymbolTableRecord
100
AcDbLayerTableRecord
  2
01__ASM_ALL_DTM_PLN
 70
0
 62
7
  6
CONTINUOUS
370
-3
390
F
  0
LAYER
  5
1FF
100
AcDbSymbolTableRecord
100
AcDbLayerTableRecord
  2
01__ASM_DEF_DTM_PLN
 70
0
 62
7
  6
CONTINUOUS
370
-3
390
F
  0
LAYER
  5
200
100
AcDbSymbolTableRecord
100
AcDbLayerTableRecord
  2
01___PRT_ALL_DTM_PLN
 70
0
 62
7
  6
CONTINUOUS
370
-3
390
F
  0
LAYER
  5
201
100
AcDbSymbolTableRecord
100
AcDbLayerTableRecord
  2
01___PRT_DEF_DTM_PLN
 70
0
 62
7
  6
CONTINUOUS
370
-3
390
F
  0
LAYER
  5
202
100
AcDbSymbolTableRecord
100
AcDbLayerTableRecord
  2
02_ALL_AXES
 70
0
 62
7
  6
CONTINUOUS
370
-3
390
F
  0
LAYER
  5
203
100
AcDbSymbolTableRecord
100
AcDbLayerTableRecord
  2
02__ASM_ALL_AXES
 70
0
 62
7
  6
CONTINUOUS
370
-3
390
F
  0
LAYER
  5
204
100
AcDbSymbolTableRecord
100
AcDbLayerTableRecord
  2
02___PRT_ALL_AXES
 70
0
 62
7
  6
CONTINUOUS
370
-3
390
F
  0
LAYER
  5
205
100
AcDbSymbolTableRecord
100
AcDbLayerTableRecord
  2
03_ALL_CURVES
 70
0
 62
7
  6
CONTINUOUS
370
-3
390
F
  0
LAYER
  5
206
100
AcDbSymbolTableRecord
100
AcDbLayerTableRecord
  2
03__ASM_ALL_CURVES
 70
0
 62
7
  6
CONTINUOUS
370
-3
390
F
  0
LAYER
  5
207
100
AcDbSymbolTableRecord
100
AcDbLayerTableRecord
  2
03___PRT_ALL_CURVES
 70
0
 62
7
  6
CONTINUOUS
370
-3
390
F
  0
LAYER
  5
208
100
AcDbSymbolTableRecord
100
AcDbLayerTableRecord
  2
04_ALL_DTM_PNT
 70
0
 62
7
  6
CONTINUOUS
370
-3
390
F
  0
LAYER
  5
209
100
AcDbSymbolTableRecord
100
AcDbLayerTableRecord
  2
04__ASM_ALL_DTM_PNT
 70
0
 62
7
  6
CONTINUOUS
370
-3
390
F
  0
LAYER
  5
20A
100
AcDbSymbolTableRecord
100
AcDbLayerTableRecord
  2
04___PRT_ALL_DTM_PNT
 70
0
 62
7
  6
CONTINUOUS
370
-3
390
F
  0
LAYER
  5
20B
100
AcDbSymbolTableRecord
100
AcDbLayerTableRecord
  2
05_ALL_DTM_CSYS
 70
0
 62
7
  6
CONTINUOUS
370
-3
390
F
  0
LAYER
  5
20C
100
AcDbSymbolTableRecord
100
AcDbLayerTableRecord
  2
05__ASM_ALL_DTM_CSYS
 70
0
 62
7
  6
CONTINUOUS
370
-3
390
F
  0
LAYER
  5
20D
100
AcDbSymbolTableRecord
100
AcDbLayerTableRecord
  2
05__ASM_DEF_DTM_CSYS
 70
0
 62
7
  6
CONTINUOUS
370
-3
390
F
  0
LAYER
  5
20E
100
AcDbSymbolTableRecord
100
AcDbLayerTableRecord
  2
05___PRT_ALL_DTM_CSYS
 70
0
 62
7
  6
CONTINUOUS
370
-3
390
F
  0
LAYER
  5
20F
100
AcDbSymbolTableRecord
100
AcDbLayerTableRecord
  2
05___PRT_DEF_DTM_CSYS
 70
0
 62
7
  6
CONTINUOUS
370
-3
390
F
  0
LAYER
  5
210
100
AcDbSymbolTableRecord
100
AcDbLayerTableRecord
  2
06_ALL_SURFS
 70
0
 62
7
  6
CONTINUOUS
370
-3
390
F
  0
LAYER
  5
211
100
AcDbSymbolTableRecord
100
AcDbLayerTableRecord
  2
06__ASM_ALL_SURFS
 70
0
 62
7
  6
CONTINUOUS
370
-3
390
F
  0
LAYER
  5
212
100
AcDbSymbolTableRecord
100
AcDbLayerTableRecord
  2
06___PRT_ALL_SURFS
 70
0
 62
7
  6
CONTINUOUS
370
-3
390
F
  0
LAYER
  5
213
100
AcDbSymbolTableRecord
100
AcDbLayerTableRecord
  2
07__ASM_ALL_SKELETONS
 70
0
 62
7
  6
CONTINUOUS
370
-3
390
F
  0
LAYER
  5
214
100
AcDbSymbolTableRecord
100
AcDbLayerTableRecord
  2
128-002_FEATURES
 70
0
 62
7
  6
CONTINUOUS
370
-3
390
F
  0
LAYER
  5
215
100
AcDbSymbolTableRecord
100
AcDbLayerTableRecord
  2
128-002_REF_GEOMETRY
 70
0
 62
7
  6
CONTINUOUS
370
-3
390
F
  0
LAYER
  5
216
100
AcDbSymbolTableRecord
100
AcDbLayerTableRecord
  2
128-003_FEATURES
 70
0
 62
7
  6
CONTINUOUS
370
-3
390
F
  0
LAYER
  5
217
100
AcDbSymbolTableRecord
100
AcDbLayerTableRecord
  2
128-003_REF_GEOMETRY
 70
0
 62
7
  6
CONTINUOUS
370
-3
390
F
  0
LAYER
  5
218
100
AcDbSymbolTableRecord
100
AcDbLayerTableRecord
  2
128-016_FEATURES
 70
0
 62
7
  6
CONTINUOUS
370
-3
390
F
  0
LAYER
  5
219
100
AcDbSymbolTableRecord
100
AcDbLayerTableRecord
  2
128-016_REF_GEOMETRY
 70
0
 62
7
  6
CONTINUOUS
370
-3
390
F
  0
LAYER
  5
21A
100
AcDbSymbolTableRecord
100
AcDbLayerTableRecord
  2
128-100_FEATURES
 70
0
 62
7
  6
CONTINUOUS
370
-3
390
F
  0
LAYER
  5
21B
100
AcDbSymbolTableRecord
100
AcDbLayerTableRecord
  2
128-100_REF_GEOMETRY
 70
0
 62
7
  6
CONTINUOUS
370
-3
390
F
  0
LAYER
  5
21C
100
AcDbSymbolTableRecord
100
AcDbLayerTableRecord
  2
128-101_FEATURES
 70
0
 62
7
  6
CONTINUOUS
370
-3
390
F
  0
LAYER
  5
21D
100
AcDbSymbolTableRecord
100
AcDbLayerTableRecord
  2
128-101_REF_GEOMETRY
 70
0
 62
7
  6
CONTINUOUS
370
-3
390
F
  0
LAYER
  5
21E
100
AcDbSymbolTableRecord
100
AcDbLayerTableRecord
  2
128-102_FEATURES
 70
0
 62
7
  6
CONTINUOUS
370
-3
390
F
  0
LAYER
  5
21F
100
AcDbSymbolTableRecord
100
AcDbLayerTableRecord
  2
128-102_REF_GEOMETRY
 70
0
 62
7
  6
CONTINUOUS
370
-3
390
F
  0
LAYER
  5
220
100
AcDbSymbolTableRecord
100
AcDbLayerTableRecord
  2
128-103_FEATURES
 70
0
 62
7
  6
CONTINUOUS
370
-3
390
F
  0
LAYER
  5
221
100
AcDbSymbolTableRecord
100
AcDbLayerTableRecord
  2
128-103_REF_GEOMETRY
 70
0
 62
7
  6
CONTINUOUS
370
-3
390
F
  0
LAYER
  5
222
100
AcDbSymbolTableRecord
100
AcDbLayerTableRecord
  2
128-104_FEATURES
 70
0
 62
7
  6
CONTINUOUS
370
-3
390
F
  0
LAYER
  5
223
100
AcDbSymbolTableRecord
100
AcDbLayerTableRecord
  2
128-104_REF_GEOMETRY
 70
0
 62
7
  6
CONTINUOUS
370
-3
390
F
  0
LAYER
  5
224
100
AcDbSymbolTableRecord
100
AcDbLayerTableRecord
  2
COPY_GEO_FET
 70
0
 62
7
  6
CONTINUOUS
370
-3
390
F
  0
LAYER
  5
225
100
AcDbSymbolTableRecord
100
AcDbLayerTableRecord
  2
COSMETIC
 70
0
 62
7
  6
CONTINUOUS
370
-3
390
F
  0
LAYER
  5
226
100
AcDbSymbolTableRecord
100
AcDbLayerTableRecord
  2
CURVES
 70
0
 62
7
  6
CONTINUOUS
370
-3
390
F
  0
LAYER
  5
227
100
AcDbSymbolTableRecord
100
AcDbLayerTableRecord
  2
CUT_REF_SURF
 70
0
 62
7
  6
CONTINUOUS
370
-3
390
F
  0
LAYER
  5
228
100
AcDbSymbolTableRecord
100
AcDbLayerTableRecord
  2
DATUM
 70
0
 62
7
  6
CONTINUOUS
370
-3
390
F
  0
LAYER
  5
229
100
AcDbSymbolTableRecord
100
AcDbLayerTableRecord
  2
DATUMCURVES
 70
0
 62
7
  6
CONTINUOUS
370
-3
390
F
  0
LAYER
  5
22A
100
AcDbSymbolTableRecord
100
AcDbLayerTableRecord
  2
DIMENSIONS
 70
0
 62
7
  6
CONTINUOUS
370
-3
390
F
  0
LAYER
  5
22B
100
AcDbSymbolTableRecord
100
AcDbLayerTableRecord
  2
DRAWINGNOTES
 70
0
 62
7
  6
CONTINUOUS
370
-3
390
F
  0
LAYER
  5
22C
100
AcDbSymbolTableRecord
100
AcDbLayerTableRecord
  2
DTM
 70
0
 62
7
  6
CONTINUOUS
370
-3
390
F
  0
LAYER
  5
22D
100
AcDbSymbolTableRecord
100
AcDbLayerTableRecord
  2
DTM230
 70
0
 62
7
  6
CONTINUOUS
370
-3
390
F
  0
LAYER
  5
22E
100
AcDbSymbolTableRecord
100
AcDbLayerTableRecord
  2
DTM_500001
 70
0
 62
7
  6
CONTINUOUS
370
-3
390
F
  0
LAYER
  5
22F
100
AcDbSymbolTableRecord
100
AcDbLayerTableRecord
  2
DTM_500002
 70
0
 62
7
  6
CONTINUOUS
370
-3
390
F
  0
LAYER
  5
230
100
AcDbSymbolTableRecord
100
AcDbLayerTableRecord
  2
DTM_515002
 70
0
 62
7
  6
CONTINUOUS
370
-3
390
F
  0
LAYER
  5
231
100
AcDbSymbolTableRecord
100
AcDbLayerTableRecord
  2
DTM_SPRING_RH
 70
0
 62
7
  6
CONTINUOUS
370
-3
390
F
  0
LAYER
  5
232
100
AcDbSymbolTableRecord
100
AcDbLayerTableRecord
  2
DTM_SP_RH_CONSTR
 70
0
 62
7
  6
CONTINUOUS
370
-3
390
F
  0
LAYER
  5
233
100
AcDbSymbolTableRecord
100
AcDbLayerTableRecord
  2
GEOMETRICTOLERANCES
 70
0
 62
7
  6
CONTINUOUS
370
-3
390
F
  0
LAYER
  5
234
100
AcDbSymbolTableRecord
100
AcDbLayerTableRecord
  2
PARAMETERDIMENSIONS
 70
0
 62
7
  6
CONTINUOUS
370
-3
390
F
  0
LAYER
  5
235
100
AcDbSymbolTableRecord
100
AcDbLayerTableRecord
  2
PLANE
 70
0
 62
7
  6
CONTINUOUS
370
-3
390
F
  0
LAYER
  5
236
100
AcDbSymbolTableRecord
100
AcDbLayerTableRecord
  2
T-8A_CAVITY-INCH
 70
0
 62
7
  6
CONTINUOUS
370
-3
390
F
  0
LAYER
  5
237
100
AcDbSymbolTableRecord
100
AcDbLayerTableRecord
  2
T-8A_CAVITY_REF_GEOMETRY
 70
0
 62
7
  6
CONTINUOUS
370
-3
390
F
  0
LAYER
  5
238
100
AcDbSymbolTableRecord
100
AcDbLayerTableRecord
  2
TEXT
 70
0
 62
7
  6
CONTINUOUS
370
-3
390
F
  0
LAYER
  5
239
100
AcDbSymbolTableRecord
100
AcDbLayerTableRecord
  2
THREAD
 70
0
 62
7
  6
CONTINUOUS
370
-3
390
F
  0
LAYER
  5
23A
100
AcDbSymbolTableRecord
100
AcDbLayerTableRecord
  2
XSEC_DATUMS
 70
0
 62
7
  6
CONTINUOUS
370
-3
390
F
  0
ENDTAB
  0
TABLE
  2
STYLE
  5
3
100
AcDbSymbolTable
 70
1
  0
STYLE
  5
11
100
AcDbSymbolTableRecord
100
AcDbTextStyleTableRecord
  2
STANDARD
 70
0
 40
0.0
 41
0.8
 50
0.0
 71
0
 42
0.2
  3
txt
  4

  0
ENDTAB
  0
TABLE
  2
VIEW
  5
6
100
AcDbSymbolTable
 70
0
  0
ENDTAB
  0
TABLE
  2
UCS
  5
7
100
AcDbSymbolTable
 70
0
  0
ENDTAB
  0
TABLE
  2
APPID
  5
9
100
AcDbSymbolTable
 70
1
  0
APPID
  5
23B
100
AcDbSymbolTableRecord
100
AcDbRegAppTableRecord
  2
ACAD
 70
0
  0
ENDTAB
  0
TABLE
  2
BLOCK_RECORD
  5
1
100
AcDbSymbolTable
 70
0
  0
BLOCK_RECORD
  5
1F
100
AcDbSymbolTableRecord
100
AcDbBlockTableRecord
  2
*MODEL_SPACE
  0
BLOCK_RECORD
  5
1B
100
AcDbSymbolTableRecord
100
AcDbBlockTableRecord
  2
*PAPER_SPACE
  0
ENDTAB
  0
TABLE
  2
DIMSTYLE
  5
A
100
AcDbSymbolTable
 70
1
100
AcDbDimStyleTable
 71
0
  0
DIMSTYLE
105
23C
100
AcDbSymbolTableRecord
100
AcDbDimStyleTableRecord
  2
STANDARD
 70
0
  3

  4

 40
1.0
 41
0.1875
 42
0.0625
 43
0.38
 44
0.18
 45
0.0
 46
0.0
 47
0.01
 48
0.01
140
0.15625
141
0.09
142
0.0
143
25.4
144
1.0
145
0.0
146
1.0
147
0.09
 71
0.0
 72
0.0
 73
1
 74
1
 75
0
 76
0
 77
0
 78
4
170
0
171
2
172
0
173
0
174
0
175
0
176
0
177
0
178
0
270
2
271
2
272
2
273
2
274
2
275
0
280
0
281
0
282
0
283
1
284
4
285
0
286
0
287
3
288
0
340
11
  0
ENDTAB
  0
ENDSEC
  0
SECTION
  2
BLOCKS
  0
BLOCK
  5
20
100
AcDbEntity
  8
0
100
AcDbBlockBegin
  2
*MODEL_SPACE
 70
0
 10
0.0
 20
0.0
 30
0.0
  3
*MODEL_SPACE
  1

  0
ENDBLK
  5
21
100
AcDbEntity
  8
0
100
AcDbBlockEnd
  0
BLOCK
  5
1C
100
AcDbEntity
  8
0
100
AcDbBlockBegin
  2
*PAPER_SPACE
 70
0
 10
0.0
 20
0.0
 30
0.0
  3
*PAPER_SPACE
  1

  0
ENDBLK
  5
1D
100
AcDbEntity
  8
0
100
AcDbBlockEnd
  0
ENDSEC
  0
SECTION
  2
ENTITIES
  0
LINE
  5
23D
100
AcDbEntity
  8
0
100
AcDbLine
 62
7
  6
CONTINUOUS
 10
1.9197431055
 20
3.6109295576
 11
1.9197431055
 21
4.8509295576
  0
LINE
  5
23E
100
AcDbEntity
  8
03__ASM_ALL_CURVES
100
AcDbLine
 62
40
  6
CONTINUOUS
 10
1.9197431055
 20
4.8509295576
 11
1.9197431055
 21
5.3361115576
  0
LINE
  5
23F
100
AcDbEntity
  8
03__ASM_ALL_CURVES
100
AcDbLine
 62
40
  6
CONTINUOUS
 10
1.9663681055
 20
5.4892865576
 11
1.9663681055
 21
5.3361115576
  0
LINE
  5
240
100
AcDbEntity
  8
0
100
AcDbLine
 62
7
  6
CONTINUOUS
 10
1.9711272794
 20
3.5219295576
 11
1.9711272794
 21
3.5222905587
  0
LINE
  5
241
100
AcDbEntity
  8
0
100
AcDbLine
 62
7
  6
CONTINUOUS
 10
1.9711272794
 20
3.8570185565
 11
1.9711272794
 21
3.8962015598
  0
LINE
  5
242
100
AcDbEntity
  8
0
100
AcDbLine
 62
7
  6
CONTINUOUS
 10
1.9711272794
 20
4.5656575554
 11
1.9711272794
 21
4.6048405587
  0
LINE
  5
243
100
AcDbEntity
  8
0
100
AcDbLine
 62
7
  6
CONTINUOUS
 10
1.9711272794
 20
4.9395685565
 11
1.9711272794
 21
4.9399295576
  0
LINE
  5
244
100
AcDbEntity
  8
03__ASM_ALL_CURVES
100
AcDbLine
 62
40
  6
CONTINUOUS
 10
2.1035531055
 20
5.3054765576
 11
2.1035531055
 21
5.2442065576
  0
LINE
  5
245
100
AcDbEntity
  8
03__ASM_ALL_CURVES
100
AcDbLine
 62
40
  6
CONTINUOUS
 10
2.109969668
 20
5.3361115576
 11
2.109969668
 21
5.3488761413
  0
LINE
  5
246
100
AcDbEntity
  8
03__ASM_ALL_CURVES
100
AcDbLine
 62
40
  6
CONTINUOUS
 10
2.2344243555
 20
5.3871698925
 11
2.2344243555
 21
5.4382282273
  0
LINE
  5
247
100
AcDbEntity
  8
03__ASM_ALL_CURVES
100
AcDbLine
 62
40
  6
CONTINUOUS
 10
2.397172793
 20
5.3744053076
 11
2.3875993555
 21
5.3361115576
  0
LINE
  5
248
100
AcDbEntity
  8
03__ASM_ALL_CURVES
100
AcDbLine
 62
40
  6
CONTINUOUS
 10
2.2344243555
 20
5.4382282273
 11
2.243997793
 21
5.4637573879
  0
LINE
  5
249
100
AcDbEntity
  8
03__ASM_ALL_CURVES
100
AcDbLine
 62
40
  6
CONTINUOUS
 10
2.2344243555
 20
5.3871698925
 11
2.243997793
 21
5.4126990576
  0
LINE
  5
24A
100
AcDbEntity
  8
03__ASM_ALL_CURVES
100
AcDbLine
 62
40
  6
CONTINUOUS
 10
2.3110118555
 20
5.3871698925
 11
2.301438418
 21
5.361640725
  0
LINE
  5
24B
100
AcDbEntity
  8
0
100
AcDbLine
 62
7
  6
CONTINUOUS
 10
1.9711272794
 20
4.9399295576
 11
1.9197431055
 21
4.8509295576
  0
LINE
  5
24C
100
AcDbEntity
  8
03__ASM_ALL_CURVES
100
AcDbLine
 62
40
  6
CONTINUOUS
 10
2.243997793
 20
5.4637573879
 11
2.2535712305
 21
5.4765219773
  0
LINE
  5
24D
100
AcDbEntity
  8
0
100
AcDbLine
 62
7
  6
CONTINUOUS
 10
1.9711272794
 20
3.5219295576
 11
1.9197431055
 21
3.6109295576
  0
LINE
  5
24E
100
AcDbEntity
  8
03__ASM_ALL_CURVES
100
AcDbLine
 62
40
  6
CONTINUOUS
 10
2.4641868555
 20
5.4637573879
 11
2.4641868555
 21
5.4382282273
  0
LINE
  5
24F
100
AcDbEntity
  8
03__ASM_ALL_CURVES
100
AcDbLine
 62
40
  6
CONTINUOUS
 10
2.5599212305
 20
5.4254636379
 11
2.5599212305
 21
5.3999344727
  0
LINE
  5
250
100
AcDbEntity
  8
03__ASM_ALL_CURVES
100
AcDbLine
 62
40
  6
CONTINUOUS
 10
2.569494668
 20
5.4637573879
 11
2.5599212305
 21
5.4254636379
  0
LINE
  5
251
100
AcDbEntity
  8
03__ASM_ALL_CURVES
100
AcDbLine
 62
40
  6
CONTINUOUS
 10
2.760963418
 20
5.4892865576
 11
2.6939493555
 21
5.3744053076
  0
LINE
  5
252
100
AcDbEntity
  8
03__ASM_ALL_CURVES
100
AcDbLine
 62
40
  6
CONTINUOUS
 10
2.301438418
 20
5.361640725
 11
2.2918649805
 21
5.3488761413
  0
LINE
  5
253
100
AcDbEntity
  8
03__ASM_ALL_CURVES
100
AcDbLine
 62
40
  6
CONTINUOUS
 10
2.3875993555
 20
5.4637573879
 11
2.397172793
 21
5.4765219773
  0
LINE
  5
254
100
AcDbEntity
  8
03__ASM_ALL_CURVES
100
AcDbLine
 62
40
  6
CONTINUOUS
 10
2.416319668
 20
5.3999344727
 11
2.397172793
 21
5.3744053076
  0
LINE
  5
255
100
AcDbEntity
  8
03__ASM_ALL_CURVES
100
AcDbLine
 62
40
  6
CONTINUOUS
 10
2.4641868555
 20
5.4382282273
 11
2.454613418
 21
5.4254636379
  0
LINE
  5
256
100
AcDbEntity
  8
03__ASM_ALL_CURVES
100
AcDbLine
 62
40
  6
CONTINUOUS
 10
2.588641543
 20
5.4892865576
 11
2.569494668
 21
5.4637573879
  0
LINE
  5
257
100
AcDbEntity
  8
0
100
AcDbLine
 62
7
  6
CONTINUOUS
 10
2.6640399115
 20
3.5219295576
 11
2.6640399115
 21
4.9399295576
  0
LINE
  5
258
100
AcDbEntity
  8
0
100
AcDbLine
 62
7
  6
CONTINUOUS
 10
2.7047431055
 20
3.4514295576
 11
2.7047431055
 21
5.0104295576
  0
LINE
  5
259
100
AcDbEntity
  8
03__ASM_ALL_CURVES
100
AcDbLine
 62
40
  6
CONTINUOUS
 10
2.760963418
 20
5.3361115576
 11
2.760963418
 21
5.4892865576
  0
LINE
  5
25A
100
AcDbEntity
  8
0
100
AcDbLine
 62
7
  6
CONTINUOUS
 10
2.7047431055
 20
5.0104295576
 11
2.6640399115
 21
4.9399295576
  0
LINE
  5
25B
100
AcDbEntity
  8
03__ASM_ALL_CURVES
100
AcDbLine
 62
40
  6
CONTINUOUS
 10
2.2535712305
 20
5.4765219773
 11
2.2727181055
 21
5.4892865576
  0
LINE
  5
25C
100
AcDbEntity
  8
0
100
AcDbLine
 62
7
  6
CONTINUOUS
 10
2.7047431055
 20
3.4514295576
 11
2.6640399115
 21
3.5219295576
  0
LINE
  5
25D
100
AcDbEntity
  8
03__ASM_ALL_CURVES
100
AcDbLine
 62
40
  6
CONTINUOUS
 10
2.243997793
 20
5.361640725
 11
2.2344243555
 21
5.3871698925
  0
LINE
  5
25E
100
AcDbEntity
  8
03__ASM_ALL_CURVES
100
AcDbLine
 62
40
  6
CONTINUOUS
 10
2.8854181055
 20
5.4892865576
 11
2.8854181055
 21
5.3361115576
  0
LINE
  5
25F
100
AcDbEntity
  8
03__ASM_ALL_CURVES
100
AcDbLine
 62
40
  6
CONTINUOUS
 10
3.029019668
 20
5.3361115576
 11
3.029019668
 21
5.3488761413
  0
LINE
  5
260
100
AcDbEntity
  8
03__ASM_ALL_CURVES
100
AcDbLine
 62
40
  6
CONTINUOUS
 10
3.373663418
 20
5.4892865576
 11
3.3066493555
 21
5.3744053076
  0
LINE
  5
261
100
AcDbEntity
  8
03__ASM_ALL_CURVES
100
AcDbLine
 62
40
  6
CONTINUOUS
 10
2.397172793
 20
5.4765219773
 11
2.416319668
 21
5.4892865576
  0
LINE
  5
262
100
AcDbEntity
  8
03__ASM_ALL_CURVES
100
AcDbLine
 62
40
  6
CONTINUOUS
 10
2.2918649805
 20
5.3488761413
 11
2.2727181055
 21
5.3361115576
  0
LINE
  5
263
100
AcDbEntity
  8
03__ASM_ALL_CURVES
100
AcDbLine
 62
40
  6
CONTINUOUS
 10
2.454613418
 20
5.4254636379
 11
2.416319668
 21
5.3999344727
  0
LINE
  5
264
100
AcDbEntity
  8
03__ASM_ALL_CURVES
100
AcDbLine
 62
40
  6
CONTINUOUS
 10
2.301438418
 20
5.4126990576
 11
2.3110118555
 21
5.3871698925
  0
LINE
  5
265
100
AcDbEntity
  8
03__ASM_ALL_CURVES
100
AcDbLine
 62
40
  6
CONTINUOUS
 10
2.5599212305
 20
5.3999344727
 11
2.569494668
 21
5.361640725
  0
LINE
  5
266
100
AcDbEntity
  8
03__ASM_ALL_CURVES
100
AcDbLine
 62
40
  6
CONTINUOUS
 10
3.1917681055
 20
5.4892865576
 11
3.1917681055
 21
5.3361115576
  0
LINE
  5
267
100
AcDbEntity
  8
03__ASM_ALL_CURVES
100
AcDbLine
 62
40
  6
CONTINUOUS
 10
3.3609331055
 20
5.3054765576
 11
3.3609331055
 21
5.2442065576
  0
LINE
  5
268
100
AcDbEntity
  8
03__ASM_ALL_CURVES
100
AcDbLine
 62
40
  6
CONTINUOUS
 10
3.373663418
 20
5.3361115576
 11
3.373663418
 21
5.4892865576
  0
LINE
  5
269
100
AcDbEntity
  8
03__ASM_ALL_CURVES
100
AcDbLine
 62
40
  6
CONTINUOUS
 10
3.5172649805
 20
5.3999344727
 11
3.507691543
 21
5.361640725
  0
LINE
  5
26A
100
AcDbEntity
  8
03__ASM_ALL_CURVES
100
AcDbLine
 62
40
  6
CONTINUOUS
 10
3.507691543
 20
5.361640725
 11
3.488544668
 21
5.3361115576
  0
LINE
  5
26B
100
AcDbEntity
  8
03__ASM_ALL_CURVES
100
AcDbLine
 62
40
  6
CONTINUOUS
 10
2.243997793
 20
5.4126990576
 11
2.2727181055
 21
5.4254636379
  0
LINE
  5
26C
100
AcDbEntity
  8
03__ASM_ALL_CURVES
100
AcDbLine
 62
40
  6
CONTINUOUS
 10
3.5172649805
 20
5.4254636379
 11
3.5172649805
 21
5.3999344727
  0
LINE
  5
26D
100
AcDbEntity
  8
0
100
AcDbLine
 62
7
  6
CONTINUOUS
 10
3.5447431055
 20
3.4514295576
 11
3.5447431055
 21
5.0104295576
  0
LINE
  5
26E
100
AcDbEntity
  8
03__ASM_ALL_CURVES
100
AcDbLine
 62
40
  6
CONTINUOUS
 10
3.5447431055
 20
5.0410645576
 11
3.5447431055
 21
5.3361115576
  0
LINE
  5
26F
100
AcDbEntity
  8
THREAD
100
AcDbLine
 62
7
  6
CONTINUOUS
 10
3.5917431055
 20
3.5134295576
 11
3.5917431055
 21
4.9484295576
  0
LINE
  5
270
100
AcDbEntity
  8
03__ASM_ALL_CURVES
100
AcDbLine
 62
40
  6
CONTINUOUS
 10
3.9334246689
 20
5.4509928076
 11
3.9525715439
 21
5.4765219773
  0
LINE
  5
271
100
AcDbEntity
  8
03__ASM_ALL_CURVES
100
AcDbLine
 62
40
  6
CONTINUOUS
 10
2.109969668
 20
5.3488761413
 11
2.1195431055
 21
5.3361115576
  0
LINE
  5
272
100
AcDbEntity
  8
03__ASM_ALL_CURVES
100
AcDbLine
 62
40
  6
CONTINUOUS
 10
2.2535712305
 20
5.3488761413
 11
2.243997793
 21
5.361640725
  0
LINE
  5
273
100
AcDbEntity
  8
0
100
AcDbLine
 62
7
  6
CONTINUOUS
 10
3.6947431055
 20
3.5129295576
 11
3.6947431055
 21
4.9489295576
  0
LINE
  5
274
100
AcDbEntity
  8
03__ASM_ALL_CURVES
100
AcDbLine
 62
40
  6
CONTINUOUS
 10
3.7285531055
 20
5.3054765576
 11
3.7285531055
 21
5.2442065576
  0
LINE
  5
275
100
AcDbEntity
  8
0
100
AcDbLine
 62
7
  6
CONTINUOUS
 10
3.7447431055
 20
3.5129295576
 11
3.7447431055
 21
4.9489295576
  0
LINE
  5
276
100
AcDbEntity
  8
0
100
AcDbLine
 62
7
  6
CONTINUOUS
 10
3.7647431055
 20
3.5774295576
 11
3.7647431055
 21
4.8844295576
  0
LINE
  5
277
100
AcDbEntity
  8
03__ASM_ALL_CURVES
100
AcDbLine
 62
40
  6
CONTINUOUS
 10
3.7898231064
 20
5.4892865576
 11
3.7898231064
 21
5.3361115576
  0
LINE
  5
278
100
AcDbEntity
  8
THREAD
100
AcDbLine
 62
7
  6
CONTINUOUS
 10
3.7924559184
 20
3.5294295576
 11
3.7924559184
 21
4.9324295576
  0
LINE
  5
279
100
AcDbEntity
  8
03__ASM_ALL_CURVES
100
AcDbLine
 62
40
  6
CONTINUOUS
 10
3.9238512314
 20
5.4126990576
 11
3.9334246689
 21
5.4509928076
  0
LINE
  5
27A
100
AcDbEntity
  8
03__ASM_ALL_CURVES
100
AcDbLine
 62
40
  6
CONTINUOUS
 10
4.0387324814
 20
5.4126990576
 11
4.0291590439
 21
5.3744053076
  0
LINE
  5
27B
100
AcDbEntity
  8
03__ASM_ALL_CURVES
100
AcDbLine
 62
40
  6
CONTINUOUS
 10
4.0770262314
 20
5.4126990576
 11
4.0865996689
 21
5.4509928076
  0
LINE
  5
27C
100
AcDbEntity
  8
THREAD
100
AcDbLine
 62
7
  6
CONTINUOUS
 10
3.7924559184
 20
4.9324295576
 11
3.7647431055
 21
4.8844295576
  0
LINE
  5
27D
100
AcDbEntity
  8
03__ASM_ALL_CURVES
100
AcDbLine
 62
40
  6
CONTINUOUS
 10
4.0291590439
 20
5.3744053076
 11
4.0100121689
 21
5.3488761413
  0
LINE
  5
27E
100
AcDbEntity
  8
03__ASM_ALL_CURVES
100
AcDbLine
 62
40
  6
CONTINUOUS
 10
4.0865996689
 20
5.4509928076
 11
4.1057465439
 21
5.4765219773
  0
LINE
  5
27F
100
AcDbEntity
  8
03__ASM_ALL_CURVES
100
AcDbLine
 62
40
  6
CONTINUOUS
 10
4.1727606064
 20
5.361640725
 11
4.1631871689
 21
5.3488761413
  0
LINE
  5
280
100
AcDbEntity
  8
03__ASM_ALL_CURVES
100
AcDbLine
 62
40
  6
CONTINUOUS
 10
3.9525715439
 20
5.4765219773
 11
3.9717184189
 21
5.4892865576
  0
LINE
  5
281
100
AcDbEntity
  8
03__ASM_ALL_CURVES
100
AcDbLine
 62
40
  6
CONTINUOUS
 10
4.1057465439
 20
5.4765219773
 11
4.1248934189
 21
5.4892865576
  0
LINE
  5
282
100
AcDbEntity
  8
03__ASM_ALL_CURVES
100
AcDbLine
 62
40
  6
CONTINUOUS
 10
4.0100121689
 20
5.3488761413
 11
3.9908652939
 21
5.3361115576
  0
LINE
  5
283
100
AcDbEntity
  8
03__ASM_ALL_CURVES
100
AcDbLine
 62
40
  6
CONTINUOUS
 10
2.2918649805
 20
5.4765219773
 11
2.301438418
 21
5.4637573879
  0
LINE
  5
284
100
AcDbEntity
  8
03__ASM_ALL_CURVES
100
AcDbLine
 62
40
  6
CONTINUOUS
 10
2.454613418
 20
5.4765219773
 11
2.4641868555
 21
5.4637573879
  0
LINE
  5
285
100
AcDbEntity
  8
03__ASM_ALL_CURVES
100
AcDbLine
 62
40
  6
CONTINUOUS
 10
2.569494668
 20
5.361640725
 11
2.588641543
 21
5.3361115576
  0
LINE
  5
286
100
AcDbEntity
  8
THREAD
100
AcDbLine
 62
7
  6
CONTINUOUS
 10
3.7924559184
 20
3.5294295576
 11
3.7647431055
 21
3.5774295576
  0
LINE
  5
287
100
AcDbEntity
  8
03__ASM_ALL_CURVES
100
AcDbLine
 62
40
  6
CONTINUOUS
 10
3.507691543
 20
5.4637573879
 11
3.5172649805
 21
5.4254636379
  0
LINE
  5
288
100
AcDbEntity
  8
THREAD
100
AcDbLine
 62
7
  6
CONTINUOUS
 10
4.1827431055
 20
3.5294295576
 11
4.1827431055
 21
4.9324295576
  0
LINE
  5
289
100
AcDbEntity
  8
03__ASM_ALL_CURVES
100
AcDbLine
 62
40
  6
CONTINUOUS
 10
4.2397746689
 20
5.3361115576
 11
4.2876418564
 21
5.4892865576
  0
LINE
  5
28A
100
AcDbEntity
  8
03__ASM_ALL_CURVES
100
AcDbLine
 62
40
  6
CONTINUOUS
 10
4.1631871689
 20
5.3488761413
 11
4.1440402939
 21
5.3361115576
  0
LINE
  5
28B
100
AcDbEntity
  8
THREAD
100
AcDbLine
 62
7
  6
CONTINUOUS
 10
4.2327431055
 20
3.5794295576
 11
4.2327431055
 21
4.8824295576
  0
LINE
  5
28C
100
AcDbEntity
  8
03__ASM_ALL_CURVES
100
AcDbLine
 62
40
  6
CONTINUOUS
 10
4.4408168564
 20
5.4892865576
 11
4.4408168564
 21
5.3361115576
  0
LINE
  5
28D
100
AcDbEntity
  8
03__ASM_ALL_CURVES
100
AcDbLine
 62
40
  6
CONTINUOUS
 10
4.8524746689
 20
5.4509928076
 11
4.8716215439
 21
5.4765219773
  0
LINE
  5
28E
100
AcDbEntity
  8
03__ASM_ALL_CURVES
100
AcDbLine
 62
40
  6
CONTINUOUS
 10
4.9386356064
 20
5.361640725
 11
4.9290621689
 21
5.3488761413
  0
LINE
  5
28F
100
AcDbEntity
  8
03__ASM_ALL_CURVES
100
AcDbLine
 62
40
  6
CONTINUOUS
 10
4.8716215439
 20
5.4765219773
 11
4.8907684189
 21
5.4892865576
  0
LINE
  5
290
100
AcDbEntity
  8
03__ASM_ALL_CURVES
100
AcDbLine
 62
40
  6
CONTINUOUS
 10
4.9290621689
 20
5.3488761413
 11
4.9099152939
 21
5.3361115576
  0
LINE
  5
291
100
AcDbEntity
  8
03__ASM_ALL_CURVES
100
AcDbLine
 62
40
  6
CONTINUOUS
 10
5.1971184189
 20
5.4892865576
 11
5.1779715439
 21
5.4765219773
  0
LINE
  5
292
100
AcDbEntity
  8
03__ASM_ALL_CURVES
100
AcDbLine
 62
40
  6
CONTINUOUS
 10
4.8570917293
 20
3.0850483076
 11
4.8427315731
 21
3.0946217454
  0
LINE
  5
293
100
AcDbEntity
  8
03__ASM_ALL_CURVES
100
AcDbLine
 62
40
  6
CONTINUOUS
 10
4.7565706356
 20
3.1999295576
 11
4.7709307918
 21
3.1903561224
  0
LINE
  5
294
100
AcDbEntity
  8
03__ASM_ALL_CURVES
100
AcDbLine
 62
40
  6
CONTINUOUS
 10
4.8714518856
 20
3.1999295576
 11
4.8858120418
 21
3.1903561224
  0
LINE
  5
295
100
AcDbEntity
  8
03__ASM_ALL_CURVES
100
AcDbLine
 62
40
  6
CONTINUOUS
 10
4.9863331356
 20
3.1999295576
 11
5.0006932918
 21
3.1903561224
  0
LINE
  5
296
100
AcDbEntity
  8
03__ASM_ALL_CURVES
100
AcDbLine
 62
40
  6
CONTINUOUS
 10
3.029019668
 20
5.3488761413
 11
3.0385931055
 21
5.3361115576
  0
LINE
  5
297
100
AcDbEntity
  8
03__ASM_ALL_CURVES
100
AcDbLine
 62
40
  6
CONTINUOUS
 10
4.8427315731
 20
3.0946217454
 11
4.8283714168
 21
3.1137686201
  0
LINE
  5
298
100
AcDbEntity
  8
03__ASM_ALL_CURVES
100
AcDbLine
 62
40
  6
CONTINUOUS
 10
4.7709307918
 20
3.1903561224
 11
4.77811087
 21
3.1807826803
  0
LINE
  5
299
100
AcDbEntity
  8
03__ASM_ALL_CURVES
100
AcDbLine
 62
40
  6
CONTINUOUS
 10
4.8858120418
 20
3.1903561224
 11
4.9001721981
 21
3.1712092451
  0
LINE
  5
29A
100
AcDbEntity
  8
03__ASM_ALL_CURVES
100
AcDbLine
 62
40
  6
CONTINUOUS
 10
3.9334246689
 20
5.3744053076
 11
3.9238512314
 21
5.4126990576
  0
LINE
  5
29B
100
AcDbEntity
  8
03__ASM_ALL_CURVES
100
AcDbLine
 62
40
  6
CONTINUOUS
 10
4.0291590439
 20
5.4509928076
 11
4.0387324814
 21
5.4126990576
  0
LINE
  5
29C
100
AcDbEntity
  8
03__ASM_ALL_CURVES
100
AcDbLine
 62
40
  6
CONTINUOUS
 10
4.0865996689
 20
5.3744053076
 11
4.0770262314
 21
5.4126990576
  0
LINE
  5
29D
100
AcDbEntity
  8
0
100
AcDbLine
 62
7
  6
CONTINUOUS
 10
4.5627431055
 20
3.5794295576
 11
4.5627431055
 21
4.8824295576
  0
LINE
  5
29E
100
AcDbEntity
  8
0
100
AcDbLine
 62
7
  6
CONTINUOUS
 10
4.5757431055
 20
3.5924295576
 11
4.5757431055
 21
4.8694295576
  0
LINE
  5
29F
100
AcDbEntity
  8
03__ASM_ALL_CURVES
100
AcDbLine
 62
40
  6
CONTINUOUS
 10
4.5939918564
 20
5.4892865576
 11
4.5939918564
 21
5.3361115576
  0
LINE
  5
2A0
100
AcDbEntity
  8
03__ASM_ALL_CURVES
100
AcDbLine
 62
40
  6
CONTINUOUS
 10
4.7088731064
 20
5.3361115576
 11
4.7088731064
 21
5.4892865576
  0
LINE
  5
2A1
100
AcDbEntity
  8
03__ASM_ALL_CURVES
100
AcDbLine
 62
40
  6
CONTINUOUS
 10
4.720670245
 20
3.0850483076
 11
4.720670245
 21
3.1999295576
  0
LINE
  5
2A2
100
AcDbEntity
  8
03__ASM_ALL_CURVES
100
AcDbLine
 62
40
  6
CONTINUOUS
 10
4.8429012314
 20
5.4126990576
 11
4.8524746689
 21
5.4509928076
  0
LINE
  5
2A3
100
AcDbEntity
  8
03__ASM_ALL_CURVES
100
AcDbLine
 62
40
  6
CONTINUOUS
 10
5.1779715439
 20
5.4765219773
 11
5.1683981064
 21
5.4637573879
  0
LINE
  5
2A4
100
AcDbEntity
  8
03__ASM_ALL_CURVES
100
AcDbLine
 62
40
  6
CONTINUOUS
 10
5.2449856064
 20
5.361640725
 11
5.2354121689
 21
5.3488761413
  0
LINE
  5
2A5
100
AcDbEntity
  8
03__ASM_ALL_CURVES
100
AcDbLine
 62
40
  6
CONTINUOUS
 10
5.2354121689
 20
5.3488761413
 11
5.2162652939
 21
5.3361115576
  0
LINE
  5
2A6
100
AcDbEntity
  8
03__ASM_ALL_CURVES
100
AcDbLine
 62
40
  6
CONTINUOUS
 10
5.4843215439
 20
5.4765219773
 11
5.5034684189
 21
5.4892865576
  0
LINE
  5
2A7
100
AcDbEntity
  8
03__ASM_ALL_CURVES
100
AcDbLine
 62
40
  6
CONTINUOUS
 10
7.2370419329
 20
3.0850483076
 11
7.2226817767
 21
3.0850483076
  0
LINE
  5
2A8
100
AcDbEntity
  8
03__ASM_ALL_CURVES
100
AcDbLine
 62
40
  6
CONTINUOUS
 10
6.428095576
 20
3.0850483076
 11
6.4137354197
 21
3.0850483076
  0
LINE
  5
2A9
100
AcDbEntity
  8
03__ASM_ALL_CURVES
100
AcDbLine
 62
40
  6
CONTINUOUS
 10
6.083451826
 20
3.0850483076
 11
6.0690916697
 21
3.0850483076
  0
LINE
  5
2AA
100
AcDbEntity
  8
03__ASM_ALL_CURVES
100
AcDbLine
 62
40
  6
CONTINUOUS
 10
4.8714518856
 20
3.0850483076
 11
4.8570917293
 21
3.0850483076
  0
LINE
  5
2AB
100
AcDbEntity
  8
03__ASM_ALL_CURVES
100
AcDbLine
 62
40
  6
CONTINUOUS
 10
7.5457852923
 20
3.0850483076
 11
7.6032259173
 21
3.0850483076
  0
LINE
  5
2AC
100
AcDbEntity
  8
03__ASM_ALL_CURVES
100
AcDbLine
 62
40
  6
CONTINUOUS
 10
5.180195245
 20
3.1137686201
 11
5.2448159481
 21
3.1137686201
  0
LINE
  5
2AD
100
AcDbEntity
  8
03__ASM_ALL_CURVES
100
AcDbLine
 62
40
  6
CONTINUOUS
 10
7.3519231829
 20
3.1424889326
 11
7.3160227923
 21
3.1424889326
  0
LINE
  5
2AE
100
AcDbEntity
  8
03__ASM_ALL_CURVES
100
AcDbLine
 62
40
  6
CONTINUOUS
 10
7.1221606829
 20
3.1424889326
 11
7.0862602923
 21
3.1424889326
  0
LINE
  5
2AF
100
AcDbEntity
  8
03__ASM_ALL_CURVES
100
AcDbLine
 62
40
  6
CONTINUOUS
 10
6.198333076
 20
3.1424889326
 11
6.1624326854
 21
3.1424889326
  0
LINE
  5
2B0
100
AcDbEntity
  8
03__ASM_ALL_CURVES
100
AcDbLine
 62
40
  6
CONTINUOUS
 10
5.968570576
 20
3.1424889326
 11
5.9326701854
 21
3.1424889326
  0
LINE
  5
2B1
100
AcDbEntity
  8
03__ASM_ALL_CURVES
100
AcDbLine
 62
40
  6
CONTINUOUS
 10
4.9863331356
 20
3.1424889326
 11
4.950432745
 21
3.1424889326
  0
LINE
  5
2B2
100
AcDbEntity
  8
03__ASM_ALL_CURVES
100
AcDbLine
 62
40
  6
CONTINUOUS
 10
4.7565706356
 20
3.1424889326
 11
4.720670245
 21
3.1424889326
  0
LINE
  5
2B3
100
AcDbEntity
  8
03__ASM_ALL_CURVES
100
AcDbLine
 62
40
  6
CONTINUOUS
 10
6.4137354197
 20
3.1520623678
 11
6.428095576
 21
3.1520623678
  0
LINE
  5
2B4
100
AcDbEntity
  8
03__ASM_ALL_CURVES
100
AcDbLine
 62
40
  6
CONTINUOUS
 10
4.720670245
 20
3.1999295576
 11
4.7565706356
 21
3.1999295576
  0
LINE
  5
2B5
100
AcDbEntity
  8
03__ASM_ALL_CURVES
100
AcDbLine
 62
40
  6
CONTINUOUS
 10
4.8570917293
 20
3.1999295576
 11
4.8714518856
 21
3.1999295576
  0
LINE
  5
2B6
100
AcDbEntity
  8
03__ASM_ALL_CURVES
100
AcDbLine
 62
40
  6
CONTINUOUS
 10
4.950432745
 20
3.1999295576
 11
4.9863331356
 21
3.1999295576
  0
LINE
  5
2B7
100
AcDbEntity
  8
03__ASM_ALL_CURVES
100
AcDbLine
 62
40
  6
CONTINUOUS
 10
5.0581339168
 20
3.1999295576
 11
5.1299346981
 21
3.1999295576
  0
LINE
  5
2B8
100
AcDbEntity
  8
03__ASM_ALL_CURVES
100
AcDbLine
 62
40
  6
CONTINUOUS
 10
5.9326701854
 20
3.1999295576
 11
5.968570576
 21
3.1999295576
  0
LINE
  5
2B9
100
AcDbEntity
  8
03__ASM_ALL_CURVES
100
AcDbLine
 62
40
  6
CONTINUOUS
 10
6.0690916697
 20
3.1999295576
 11
6.083451826
 21
3.1999295576
  0
LINE
  5
2BA
100
AcDbEntity
  8
03__ASM_ALL_CURVES
100
AcDbLine
 62
40
  6
CONTINUOUS
 10
6.1624326854
 20
3.1999295576
 11
6.198333076
 21
3.1999295576
  0
LINE
  5
2BB
100
AcDbEntity
  8
03__ASM_ALL_CURVES
100
AcDbLine
 62
40
  6
CONTINUOUS
 10
6.2701338572
 20
3.1999295576
 11
6.3419346385
 21
3.1999295576
  0
LINE
  5
2BC
100
AcDbEntity
  8
03__ASM_ALL_CURVES
100
AcDbLine
 62
40
  6
CONTINUOUS
 10
6.4137354197
 20
3.1999295576
 11
6.428095576
 21
3.1999295576
  0
LINE
  5
2BD
100
AcDbEntity
  8
03__ASM_ALL_CURVES
100
AcDbLine
 62
40
  6
CONTINUOUS
 10
7.0862602923
 20
3.1999295576
 11
7.1221606829
 21
3.1999295576
  0
LINE
  5
2BE
100
AcDbEntity
  8
03__ASM_ALL_CURVES
100
AcDbLine
 62
40
  6
CONTINUOUS
 10
7.2226817767
 20
3.1999295576
 11
7.2370419329
 21
3.1999295576
  0
LINE
  5
2BF
100
AcDbEntity
  8
03__ASM_ALL_CURVES
100
AcDbLine
 62
40
  6
CONTINUOUS
 10
7.3160227923
 20
3.1999295576
 11
7.3519231829
 21
3.1999295576
  0
LINE
  5
2C0
100
AcDbEntity
  8
03__ASM_ALL_CURVES
100
AcDbLine
 62
40
  6
CONTINUOUS
 10
7.4237239642
 20
3.1999295576
 11
7.4955247454
 21
3.1999295576
  0
LINE
  5
2C1
100
AcDbEntity
  8
03__ASM_ALL_CURVES
100
AcDbLine
 62
40
  6
CONTINUOUS
 10
7.5673255267
 20
3.1999295576
 11
7.5816856829
 21
3.1999295576
  0
LINE
  5
2C2
100
AcDbEntity
  8
03__ASM_ALL_CURVES
100
AcDbLine
 62
40
  6
CONTINUOUS
 10
2.2727181055
 20
5.3361115576
 11
2.2535712305
 21
5.3488761413
  0
LINE
  5
2C3
100
AcDbEntity
  8
03__ASM_ALL_CURVES
100
AcDbLine
 62
40
  6
CONTINUOUS
 10
5.0006932918
 20
3.1903561224
 11
5.00787337
 21
3.1807826803
  0
LINE
  5
2C4
100
AcDbEntity
  8
03__ASM_ALL_CURVES
100
AcDbLine
 62
40
  6
CONTINUOUS
 10
3.488544668
 20
5.4892865576
 11
3.507691543
 21
5.4637573879
  0
LINE
  5
2C5
100
AcDbEntity
  8
03__ASM_ALL_CURVES
100
AcDbLine
 62
40
  6
CONTINUOUS
 10
4.9863331356
 20
3.1424889326
 11
5.00787337
 21
3.0850483076
  0
LINE
  5
2C6
100
AcDbEntity
  8
03__ASM_ALL_CURVES
100
AcDbLine
 62
40
  6
CONTINUOUS
 10
4.2876418564
 20
5.4892865576
 11
4.3355090439
 21
5.3361115576
  0
LINE
  5
2C7
100
AcDbEntity
  8
03__ASM_ALL_CURVES
100
AcDbLine
 62
40
  6
CONTINUOUS
 10
4.8283714168
 20
3.1137686201
 11
4.8211913387
 21
3.1424889326
  0
LINE
  5
2C8
100
AcDbEntity
  8
03__ASM_ALL_CURVES
100
AcDbLine
 62
40
  6
CONTINUOUS
 10
4.9001721981
 20
3.1712092451
 11
4.9073522762
 21
3.1424889326
  0
LINE
  5
2C9
100
AcDbEntity
  8
03__ASM_ALL_CURVES
100
AcDbLine
 62
40
  6
CONTINUOUS
 10
4.77811087
 20
3.1807826803
 11
4.77811087
 21
3.1616358099
  0
LINE
  5
2CA
100
AcDbEntity
  8
03__ASM_ALL_CURVES
100
AcDbLine
 62
40
  6
CONTINUOUS
 10
4.7854606064
 20
5.3361115576
 11
4.7854606064
 21
5.4892865576
  0
LINE
  5
2CB
100
AcDbEntity
  8
03__ASM_ALL_CURVES
100
AcDbLine
 62
40
  6
CONTINUOUS
 10
4.9386356064
 20
5.4126990576
 11
4.9386356064
 21
5.361640725
  0
LINE
  5
2CC
100
AcDbEntity
  8
03__ASM_ALL_CURVES
100
AcDbLine
 62
40
  6
CONTINUOUS
 10
4.950432745
 20
3.0850483076
 11
4.950432745
 21
3.1999295576
  0
LINE
  5
2CD
100
AcDbEntity
  8
0
100
AcDbLine
 62
7
  6
CONTINUOUS
 10
4.9627431055
 20
4.5211439235
 11
4.9627431055
 21
4.4113372548
  0
LINE
  5
2CE
100
AcDbEntity
  8
0
100
AcDbLine
 62
7
  6
CONTINUOUS
 10
4.9627431055
 20
4.0505199854
 11
4.9627431055
 21
3.9407203416
  0
LINE
  5
2CF
100
AcDbEntity
  8
03__ASM_ALL_CURVES
100
AcDbLine
 62
40
  6
CONTINUOUS
 10
5.00787337
 20
3.1807826803
 11
5.00787337
 21
3.1616358099
  0
LINE
  5
2D0
100
AcDbEntity
  8
03__ASM_ALL_CURVES
100
AcDbLine
 62
40
  6
CONTINUOUS
 10
5.4651746689
 20
5.4509928076
 11
5.4843215439
 21
5.4765219773
  0
LINE
  5
2D1
100
AcDbEntity
  8
03__ASM_ALL_CURVES
100
AcDbLine
 62
40
  6
CONTINUOUS
 10
5.5609090439
 20
5.3744053076
 11
5.5417621689
 21
5.3488761413
  0
LINE
  5
2D2
100
AcDbEntity
  8
03__ASM_ALL_CURVES
100
AcDbLine
 62
40
  6
CONTINUOUS
 10
5.5417621689
 20
5.3488761413
 11
5.5226152939
 21
5.3361115576
  0
LINE
  5
2D3
100
AcDbEntity
  8
03__ASM_ALL_CURVES
100
AcDbLine
 62
40
  6
CONTINUOUS
 10
5.6949371689
 20
5.3488761413
 11
5.6757902939
 21
5.3361115576
  0
LINE
  5
2D4
100
AcDbEntity
  8
03__ASM_ALL_CURVES
100
AcDbLine
 62
40
  6
CONTINUOUS
 10
5.9917137314
 20
5.3488761413
 11
5.9725668564
 21
5.3361115576
  0
LINE
  5
2D5
100
AcDbEntity
  8
0
100
AcDbLine
 62
7
  6
CONTINUOUS
 10
3.5447431055
 20
3.4514295576
 11
2.7047431055
 21
3.4514295576
  0
LINE
  5
2D6
100
AcDbEntity
  8
03__ASM_ALL_CURVES
100
AcDbLine
 62
40
  6
CONTINUOUS
 10
2.2727181055
 20
5.4892865576
 11
2.2918649805
 21
5.4765219773
  0
LINE
  5
2D7
100
AcDbEntity
  8
03__ASM_ALL_CURVES
100
AcDbLine
 62
40
  6
CONTINUOUS
 10
2.435466543
 20
5.4892865576
 11
2.454613418
 21
5.4765219773
  0
LINE
  5
2D8
100
AcDbEntity
  8
03__ASM_ALL_CURVES
100
AcDbLine
 62
40
  6
CONTINUOUS
 10
6.0690916697
 20
3.0850483076
 11
6.0547315135
 21
3.0946217454
  0
LINE
  5
2D9
100
AcDbEntity
  8
03__ASM_ALL_CURVES
100
AcDbLine
 62
40
  6
CONTINUOUS
 10
5.968570576
 20
3.1999295576
 11
5.9829307322
 21
3.1903561224
  0
LINE
  5
2DA
100
AcDbEntity
  8
03__ASM_ALL_CURVES
100
AcDbLine
 62
40
  6
CONTINUOUS
 10
3.9525715439
 20
5.3488761413
 11
3.9334246689
 21
5.3744053076
  0
LINE
  5
2DB
100
AcDbEntity
  8
0
100
AcDbLine
 62
7
  6
CONTINUOUS
 10
5.0567431055
 20
4.552503875
 11
5.0567431055
 21
4.3670739808
  0
LINE
  5
2DC
100
AcDbEntity
  8
0
100
AcDbLine
 62
7
  6
CONTINUOUS
 10
5.0567431055
 20
4.0947875857
 11
5.0567431055
 21
3.9093560236
  0
LINE
  5
2DD
100
AcDbEntity
  8
03__ASM_ALL_CURVES
100
AcDbLine
 62
40
  6
CONTINUOUS
 10
5.0940343075
 20
3.1999295576
 11
5.0940343075
 21
3.0850483076
  0
LINE
  5
2DE
100
AcDbEntity
  8
0
100
AcDbLine
 62
7
  6
CONTINUOUS
 10
5.1437431055
 20
4.5418094742
 11
5.1437431055
 21
4.3828015078
  0
LINE
  5
2DF
100
AcDbEntity
  8
0
100
AcDbLine
 62
7
  6
CONTINUOUS
 10
5.1437431055
 20
4.0790614971
 11
5.1437431055
 21
3.9200908155
  0
LINE
  5
2E0
100
AcDbEntity
  8
0
100
AcDbLine
 62
7
  6
CONTINUOUS
 10
5.1507431055
 20
4.5387764065
 11
5.1507431055
 21
4.3871541098
  0
LINE
  5
2E1
100
AcDbEntity
  8
0
100
AcDbLine
 62
7
  6
CONTINUOUS
 10
5.1507431055
 20
3.9230944437
 11
5.1507431055
 21
4.0747075065
  0
LINE
  5
2E2
100
AcDbEntity
  8
0
100
AcDbLine
 62
7
  6
CONTINUOUS
 10
5.1607431055
 20
4.5344434526
 11
5.1607431055
 21
4.3933721126
  0
LINE
  5
2E3
100
AcDbEntity
  8
0
100
AcDbLine
 62
7
  6
CONTINUOUS
 10
5.1607431055
 20
3.9273853412
 11
5.1607431055
 21
4.06848752
  0
LINE
  5
2E4
100
AcDbEntity
  8
0
100
AcDbLine
 62
7
  6
CONTINUOUS
 10
5.1677431055
 20
4.5314103849
 11
5.1677431055
 21
4.3977247146
  0
LINE
  5
2E5
100
AcDbEntity
  8
0
100
AcDbLine
 62
7
  6
CONTINUOUS
 10
5.1677431055
 20
4.0641335294
 11
5.1677431055
 21
3.9303889694
  0
LINE
  5
2E6
100
AcDbEntity
  8
03__ASM_ALL_CURVES
100
AcDbLine
 62
40
  6
CONTINUOUS
 10
5.1683981064
 20
5.4637573879
 11
5.1683981064
 21
5.4509928076
  0
LINE
  5
2E7
100
AcDbEntity
  8
03__ASM_ALL_CURVES
100
AcDbLine
 62
40
  6
CONTINUOUS
 10
5.2304557918
 20
3.0850483076
 11
5.2304557918
 21
3.1999295576
  0
LINE
  5
2E8
100
AcDbEntity
  8
03__ASM_ALL_CURVES
100
AcDbLine
 62
40
  6
CONTINUOUS
 10
5.2449856064
 20
5.3871698925
 11
5.2449856064
 21
5.361640725
  0
LINE
  5
2E9
100
AcDbEntity
  8
0
100
AcDbLine
 62
7
  6
CONTINUOUS
 10
5.2457431055
 20
3.6699295576
 11
5.2457431055
 21
4.7919295576
  0
LINE
  5
2EA
100
AcDbEntity
  8
0
100
AcDbLine
 62
7
  6
CONTINUOUS
 10
5.2927431055
 20
4.8774182577
 11
5.2927431055
 21
3.5844408575
  0
LINE
  5
2EB
100
AcDbEntity
  8
03__ASM_ALL_CURVES
100
AcDbLine
 62
40
  6
CONTINUOUS
 10
4.8211913387
 20
3.1424889326
 11
4.8283714168
 21
3.1712092451
  0
LINE
  5
2EC
100
AcDbEntity
  8
03__ASM_ALL_CURVES
100
AcDbLine
 62
40
  6
CONTINUOUS
 10
5.4556012314
 20
5.4126990576
 11
5.4651746689
 21
5.4509928076
  0
LINE
  5
2ED
100
AcDbEntity
  8
03__ASM_ALL_CURVES
100
AcDbLine
 62
40
  6
CONTINUOUS
 10
4.9073522762
 20
3.1424889326
 11
4.9001721981
 21
3.1137686201
  0
LINE
  5
2EE
100
AcDbEntity
  8
03__ASM_ALL_CURVES
100
AcDbLine
 62
40
  6
CONTINUOUS
 10
5.7045106064
 20
5.361640725
 11
5.6949371689
 21
5.3488761413
  0
LINE
  5
2EF
100
AcDbEntity
  8
THREAD
100
AcDbLine
 62
7
  6
CONTINUOUS
 10
4.2327431055
 20
3.5794295576
 11
4.1827431055
 21
3.5294295576
  0
LINE
  5
2F0
100
AcDbEntity
  8
03__ASM_ALL_CURVES
100
AcDbLine
 62
40
  6
CONTINUOUS
 10
6.3076371689
 20
5.4254636379
 11
6.2884902939
 21
5.4126990576
  0
LINE
  5
2F1
100
AcDbEntity
  8
0
100
AcDbLine
 62
7
  6
CONTINUOUS
 10
3.6947431055
 20
3.5129295576
 11
3.7447431055
 21
3.5129295576
  0
LINE
  5
2F2
100
AcDbEntity
  8
THREAD
100
AcDbLine
 62
7
  6
CONTINUOUS
 10
3.5917431055
 20
3.5134295576
 11
3.5447431055
 21
3.5134295576
  0
LINE
  5
2F3
100
AcDbEntity
  8
0
100
AcDbLine
 62
7
  6
CONTINUOUS
 10
2.6640399115
 20
3.5219295576
 11
1.9711272794
 21
3.5219295576
  0
LINE
  5
2F4
100
AcDbEntity
  8
0
100
AcDbLine
 62
7
  6
CONTINUOUS
 10
2.6640399115
 20
3.5222905587
 11
1.9711272794
 21
3.5222905587
  0
LINE
  5
2F5
100
AcDbEntity
  8
THREAD
100
AcDbLine
 62
7
  6
CONTINUOUS
 10
4.1827431055
 20
3.5294295576
 11
3.7924559184
 21
3.5294295576
  0
LINE
  5
2F6
100
AcDbEntity
  8
THREAD
100
AcDbLine
 62
7
  6
CONTINUOUS
 10
4.5627431055
 20
3.5794295576
 11
4.2327431055
 21
3.5794295576
  0
LINE
  5
2F7
100
AcDbEntity
  8
0
100
AcDbLine
 62
7
  6
CONTINUOUS
 10
5.3827431055
 20
3.5839295576
 11
5.4327431055
 21
3.5839295576
  0
LINE
  5
2F8
100
AcDbEntity
  8
0
100
AcDbLine
 62
7
  6
CONTINUOUS
 10
5.5357431055
 20
3.5839295576
 11
5.5857431055
 21
3.5839295576
  0
LINE
  5
2F9
100
AcDbEntity
  8
0
100
AcDbLine
 62
7
  6
CONTINUOUS
 10
5.2927431055
 20
3.5844295576
 11
5.3827431055
 21
3.5844295576
  0
LINE
  5
2FA
100
AcDbEntity
  8
0
100
AcDbLine
 62
7
  6
CONTINUOUS
 10
5.6197431055
 20
3.5844295576
 11
5.7097431055
 21
3.5844295576
  0
LINE
  5
2FB
100
AcDbEntity
  8
0
100
AcDbLine
 62
7
  6
CONTINUOUS
 10
6.5327431055
 20
3.6069295576
 11
6.5827431055
 21
3.6069295576
  0
LINE
  5
2FC
100
AcDbEntity
  8
0
100
AcDbLine
 62
7
  6
CONTINUOUS
 10
6.6857431055
 20
3.6069295576
 11
6.7357431055
 21
3.6069295576
  0
LINE
  5
2FD
100
AcDbEntity
  8
0
100
AcDbLine
 62
7
  6
CONTINUOUS
 10
7.6997431055
 20
3.6069295576
 11
7.7497431055
 21
3.6069295576
  0
LINE
  5
2FE
100
AcDbEntity
  8
0
100
AcDbLine
 62
7
  6
CONTINUOUS
 10
7.8527431055
 20
3.6069295576
 11
7.9027431055
 21
3.6069295576
  0
LINE
  5
2FF
100
AcDbEntity
  8
0
100
AcDbLine
 62
7
  6
CONTINUOUS
 10
6.8602431055
 20
3.6074295576
 11
6.7697431055
 21
3.6074295576
  0
LINE
  5
300
100
AcDbEntity
  8
0
100
AcDbLine
 62
7
  6
CONTINUOUS
 10
6.5327431055
 20
3.6074295576
 11
6.4427431055
 21
3.6074295576
  0
LINE
  5
301
100
AcDbEntity
  8
0
100
AcDbLine
 62
7
  6
CONTINUOUS
 10
8.0297431055
 20
3.6309295576
 11
7.9367431055
 21
3.6309295576
  0
LINE
  5
302
100
AcDbEntity
  8
0
100
AcDbLine
 62
7
  6
CONTINUOUS
 10
7.6997431055
 20
3.6309295576
 11
7.6097431055
 21
3.6309295576
  0
LINE
  5
303
100
AcDbEntity
  8
0
100
AcDbLine
 62
7
  6
CONTINUOUS
 10
5.2457431055
 20
3.6699295576
 11
5.2287431055
 21
3.6699295576
  0
LINE
  5
304
100
AcDbEntity
  8
0
100
AcDbLine
 62
7
  6
CONTINUOUS
 10
4.9167431055
 20
3.6699295576
 11
4.5757431055
 21
3.6699295576
  0
LINE
  5
305
100
AcDbEntity
  8
0
100
AcDbLine
 62
7
  6
CONTINUOUS
 10
5.6047431055
 20
3.6719295576
 11
5.5857431055
 21
3.6719295576
  0
LINE
  5
306
100
AcDbEntity
  8
0
100
AcDbLine
 62
7
  6
CONTINUOUS
 10
7.5627431055
 20
3.6869295576
 11
7.2317431055
 21
3.6869295576
  0
LINE
  5
307
100
AcDbEntity
  8
0
100
AcDbLine
 62
7
  6
CONTINUOUS
 10
6.9197431055
 20
3.6869295576
 11
6.9072431055
 21
3.6869295576
  0
LINE
  5
308
100
AcDbEntity
  8
0
100
AcDbLine
 62
7
  6
CONTINUOUS
 10
6.3957431055
 20
3.6869295576
 11
6.1236958251
 21
3.6869295576
  0
LINE
  5
309
100
AcDbEntity
  8
0
100
AcDbLine
 62
7
  6
CONTINUOUS
 10
5.8118050401
 20
3.6869295576
 11
5.7567431055
 21
3.6869295576
  0
LINE
  5
30A
100
AcDbEntity
  8
0
100
AcDbLine
 62
7
  6
CONTINUOUS
 10
6.7547431055
 20
3.6949295576
 11
6.7357431055
 21
3.6949295576
  0
LINE
  5
30B
100
AcDbEntity
  8
0
100
AcDbLine
 62
7
  6
CONTINUOUS
 10
7.9217431055
 20
3.7184295576
 11
7.9027431055
 21
3.7184295576
  0
LINE
  5
30C
100
AcDbEntity
  8
03__ASM_ALL_CURVES
100
AcDbLine
 62
40
  6
CONTINUOUS
 10
6.083451826
 20
3.1999295576
 11
6.0978119822
 21
3.1903561224
  0
LINE
  5
30D
100
AcDbEntity
  8
03__ASM_ALL_CURVES
100
AcDbLine
 62
40
  6
CONTINUOUS
 10
6.198333076
 20
3.1999295576
 11
6.2126932322
 21
3.1903561224
  0
LINE
  5
30E
100
AcDbEntity
  8
03__ASM_ALL_CURVES
100
AcDbLine
 62
40
  6
CONTINUOUS
 10
6.4137354197
 20
3.0850483076
 11
6.3993752635
 21
3.0946217454
  0
LINE
  5
30F
100
AcDbEntity
  8
03__ASM_ALL_CURVES
100
AcDbLine
 62
40
  6
CONTINUOUS
 10
6.428095576
 20
3.1520623678
 11
6.4424557322
 21
3.1424889326
  0
LINE
  5
310
100
AcDbEntity
  8
03__ASM_ALL_CURVES
100
AcDbLine
 62
40
  6
CONTINUOUS
 10
6.428095576
 20
3.1999295576
 11
6.4424557322
 21
3.1903561224
  0
LINE
  5
311
100
AcDbEntity
  8
THREAD
100
AcDbLine
 62
7
  6
CONTINUOUS
 10
4.2327431055
 20
4.8824295576
 11
4.1827431055
 21
4.9324295576
  0
LINE
  5
312
100
AcDbEntity
  8
03__ASM_ALL_CURVES
100
AcDbLine
 62
40
  6
CONTINUOUS
 10
4.1057465439
 20
5.3488761413
 11
4.0865996689
 21
5.3744053076
  0
LINE
  5
313
100
AcDbEntity
  8
03__ASM_ALL_CURVES
100
AcDbLine
 62
40
  6
CONTINUOUS
 10
4.0100121689
 20
5.4765219773
 11
4.0291590439
 21
5.4509928076
  0
LINE
  5
314
100
AcDbEntity
  8
03__ASM_ALL_CURVES
100
AcDbLine
 62
40
  6
CONTINUOUS
 10
4.1631871689
 20
5.4765219773
 11
4.1727606064
 21
5.4637573879
  0
LINE
  5
315
100
AcDbEntity
  8
03__ASM_ALL_CURVES
100
AcDbLine
 62
40
  6
CONTINUOUS
 10
6.0547315135
 20
3.0946217454
 11
6.0403713572
 21
3.1137686201
  0
LINE
  5
316
100
AcDbEntity
  8
03__ASM_ALL_CURVES
100
AcDbLine
 62
40
  6
CONTINUOUS
 10
5.9829307322
 20
3.1903561224
 11
5.9901108104
 21
3.1807826803
  0
LINE
  5
317
100
AcDbEntity
  8
03__ASM_ALL_CURVES
100
AcDbLine
 62
40
  6
CONTINUOUS
 10
4.8524746689
 20
5.3744053076
 11
4.8429012314
 21
5.4126990576
  0
LINE
  5
318
100
AcDbEntity
  8
03__ASM_ALL_CURVES
100
AcDbLine
 62
40
  6
CONTINUOUS
 10
5.3215731064
 20
5.4892865576
 11
5.3215731064
 21
5.3361115576
  0
LINE
  5
319
100
AcDbEntity
  8
0
100
AcDbLine
 62
7
  6
CONTINUOUS
 10
5.3827431055
 20
3.5839295576
 11
5.3827431055
 21
4.8779295576
  0
LINE
  5
31A
100
AcDbEntity
  8
03__ASM_ALL_CURVES
100
AcDbLine
 62
40
  6
CONTINUOUS
 10
5.3981606064
 20
5.4892865576
 11
5.3981606064
 21
5.3361115576
  0
LINE
  5
31B
100
AcDbEntity
  8
0
100
AcDbLine
 62
7
  6
CONTINUOUS
 10
5.4327431055
 20
3.5839295576
 11
5.4327431055
 21
4.8779295576
  0
LINE
  5
31C
100
AcDbEntity
  8
0
100
AcDbLine
 62
7
  6
CONTINUOUS
 10
5.5357431055
 20
3.5839295576
 11
5.5357431055
 21
4.8779295576
  0
LINE
  5
31D
100
AcDbEntity
  8
03__ASM_ALL_CURVES
100
AcDbLine
 62
40
  6
CONTINUOUS
 10
5.5704824814
 20
5.4126990576
 11
5.5609090439
 21
5.3744053076
  0
LINE
  5
31E
100
AcDbEntity
  8
03__ASM_ALL_CURVES
100
AcDbLine
 62
40
  6
CONTINUOUS
 10
6.0108606064
 20
5.3744053076
 11
5.9917137314
 21
5.3488761413
  0
LINE
  5
31F
100
AcDbEntity
  8
03__ASM_ALL_CURVES
100
AcDbLine
 62
40
  6
CONTINUOUS
 10
6.3172106064
 20
5.4382282273
 11
6.3076371689
 21
5.4254636379
  0
LINE
  5
320
100
AcDbEntity
  8
0
100
AcDbLine
 62
7
  6
CONTINUOUS
 10
4.5757431055
 20
3.5924295576
 11
4.5627431055
 21
3.5794295576
  0
LINE
  5
321
100
AcDbEntity
  8
0
100
AcDbLine
 62
7
  6
CONTINUOUS
 10
2.6640399115
 20
3.8570185565
 11
1.9711272794
 21
3.8570185565
  0
LINE
  5
322
100
AcDbEntity
  8
0
100
AcDbLine
 62
7
  6
CONTINUOUS
 10
2.6640399115
 20
3.8962015598
 11
1.9711272794
 21
3.8962015598
  0
LINE
  5
323
100
AcDbEntity
  8
0
100
AcDbLine
 62
7
  6
CONTINUOUS
 10
6.2067406164
 20
3.9969295576
 11
5.9087456276
 21
3.9969295576
  0
LINE
  5
324
100
AcDbEntity
  8
03__ASM_ALL_CURVES
100
AcDbLine
 62
40
  6
CONTINUOUS
 10
2.2727181055
 20
5.4254636379
 11
2.301438418
 21
5.4126990576
  0
LINE
  5
325
100
AcDbEntity
  8
0
100
AcDbLine
 62
7
  6
CONTINUOUS
 10
4.5757431055
 20
4.8694295576
 11
4.5627431055
 21
4.8824295576
  0
LINE
  5
326
100
AcDbEntity
  8
03__ASM_ALL_CURVES
100
AcDbLine
 62
40
  6
CONTINUOUS
 10
6.0978119822
 20
3.1903561224
 11
6.1121721385
 21
3.1712092451
  0
LINE
  5
327
100
AcDbEntity
  8
03__ASM_ALL_CURVES
100
AcDbLine
 62
40
  6
CONTINUOUS
 10
6.2126932322
 20
3.1903561224
 11
6.2198733104
 21
3.1807826803
  0
LINE
  5
328
100
AcDbEntity
  8
03__ASM_ALL_CURVES
100
AcDbLine
 62
40
  6
CONTINUOUS
 10
6.3993752635
 20
3.0946217454
 11
6.3921951854
 21
3.1041951832
  0
LINE
  5
329
100
AcDbEntity
  8
03__ASM_ALL_CURVES
100
AcDbLine
 62
40
  6
CONTINUOUS
 10
4.7088731064
 20
5.4892865576
 11
4.7854606064
 21
5.3361115576
  0
LINE
  5
32A
100
AcDbEntity
  8
0
100
AcDbLine
 62
7
  6
CONTINUOUS
 10
5.5857431055
 20
3.5839295576
 11
5.5857431055
 21
4.8779295576
  0
LINE
  5
32B
100
AcDbEntity
  8
0
100
AcDbLine
 62
7
  6
CONTINUOUS
 10
5.6047431055
 20
3.6719295576
 11
5.6047431055
 21
4.7899295576
  0
LINE
  5
32C
100
AcDbEntity
  8
0
100
AcDbLine
 62
7
  6
CONTINUOUS
 10
5.6197431055
 20
4.8774182577
 11
5.6197431055
 21
3.5844408575
  0
LINE
  5
32D
100
AcDbEntity
  8
03__ASM_ALL_CURVES
100
AcDbLine
 62
40
  6
CONTINUOUS
 10
5.6279231064
 20
5.361640725
 11
5.6279231064
 21
5.4892865576
  0
LINE
  5
32E
100
AcDbEntity
  8
03__ASM_ALL_CURVES
100
AcDbLine
 62
40
  6
CONTINUOUS
 10
5.7045106064
 20
5.4892865576
 11
5.7045106064
 21
5.361640725
  0
LINE
  5
32F
100
AcDbEntity
  8
0
100
AcDbLine
 62
7
  6
CONTINUOUS
 10
5.7097431055
 20
4.8774182577
 11
5.7097431055
 21
3.5844408575
  0
LINE
  5
330
100
AcDbEntity
  8
0
100
AcDbLine
 62
7
  6
CONTINUOUS
 10
5.7567431055
 20
3.6869295576
 11
5.7567431055
 21
4.7749295576
  0
LINE
  5
331
100
AcDbEntity
  8
03__ASM_ALL_CURVES
100
AcDbLine
 62
40
  6
CONTINUOUS
 10
5.7810981064
 20
5.4892865576
 11
5.7810981064
 21
5.3361115576
  0
LINE
  5
332
100
AcDbEntity
  8
03__ASM_ALL_CURVES
100
AcDbLine
 62
40
  6
CONTINUOUS
 10
6.0204340439
 20
5.4126990576
 11
6.0108606064
 21
5.3744053076
  0
LINE
  5
333
100
AcDbEntity
  8
03__ASM_ALL_CURVES
100
AcDbLine
 62
40
  6
CONTINUOUS
 10
4.77811087
 20
3.1616358099
 11
4.7709307918
 21
3.1520623678
  0
LINE
  5
334
100
AcDbEntity
  8
03__ASM_ALL_CURVES
100
AcDbLine
 62
40
  6
CONTINUOUS
 10
4.8283714168
 20
3.1712092451
 11
4.8427315731
 21
3.1903561224
  0
LINE
  5
335
100
AcDbEntity
  8
03__ASM_ALL_CURVES
100
AcDbLine
 62
40
  6
CONTINUOUS
 10
4.9001721981
 20
3.1137686201
 11
4.8858120418
 21
3.0946217454
  0
LINE
  5
336
100
AcDbEntity
  8
03__ASM_ALL_CURVES
100
AcDbLine
 62
40
  6
CONTINUOUS
 10
9.3455247468
 20
4.2615645576
 11
9.3311645905
 21
4.2615645576
  0
LINE
  5
337
100
AcDbEntity
  8
03__ASM_ALL_CURVES
100
AcDbLine
 62
40
  6
CONTINUOUS
 10
9.4604059968
 20
4.3190051826
 11
9.4245056062
 21
4.3190051826
  0
LINE
  5
338
100
AcDbEntity
  8
03__ASM_ALL_CURVES
100
AcDbLine
 62
40
  6
CONTINUOUS
 10
9.2306434968
 20
4.3190051826
 11
9.1947431062
 21
4.3190051826
  0
LINE
  5
339
100
AcDbEntity
  8
03__ASM_ALL_CURVES
100
AcDbLine
 62
40
  6
CONTINUOUS
 10
7.2226817767
 20
3.0850483076
 11
7.2083216204
 21
3.0946217454
  0
LINE
  5
33A
100
AcDbEntity
  8
03__ASM_ALL_CURVES
100
AcDbLine
 62
40
  6
CONTINUOUS
 10
7.1221606829
 20
3.1999295576
 11
7.1365208392
 21
3.1903561224
  0
LINE
  5
33B
100
AcDbEntity
  8
03__ASM_ALL_CURVES
100
AcDbLine
 62
40
  6
CONTINUOUS
 10
3.9717184189
 20
5.3361115576
 11
3.9525715439
 21
5.3488761413
  0
LINE
  5
33C
100
AcDbEntity
  8
03__ASM_ALL_CURVES
100
AcDbLine
 62
40
  6
CONTINUOUS
 10
7.2370419329
 20
3.1999295576
 11
7.2514020892
 21
3.1903561224
  0
LINE
  5
33D
100
AcDbEntity
  8
03__ASM_ALL_CURVES
100
AcDbLine
 62
40
  6
CONTINUOUS
 10
4.1248934189
 20
5.3361115576
 11
4.1057465439
 21
5.3488761413
  0
LINE
  5
33E
100
AcDbEntity
  8
03__ASM_ALL_CURVES
100
AcDbLine
 62
40
  6
CONTINUOUS
 10
7.3519231829
 20
3.1999295576
 11
7.3662833392
 21
3.1903561224
  0
LINE
  5
33F
100
AcDbEntity
  8
03__ASM_ALL_CURVES
100
AcDbLine
 62
40
  6
CONTINUOUS
 10
3.9908652939
 20
5.4892865576
 11
4.0100121689
 21
5.4765219773
  0
LINE
  5
340
100
AcDbEntity
  8
03__ASM_ALL_CURVES
100
AcDbLine
 62
40
  6
CONTINUOUS
 10
6.4424557322
 20
3.1424889326
 11
6.4568158885
 21
3.1233420587
  0
LINE
  5
341
100
AcDbEntity
  8
03__ASM_ALL_CURVES
100
AcDbLine
 62
40
  6
CONTINUOUS
 10
6.4424557322
 20
3.1903561224
 11
6.4496358104
 21
3.1807826803
  0
LINE
  5
342
100
AcDbEntity
  8
03__ASM_ALL_CURVES
100
AcDbLine
 62
40
  6
CONTINUOUS
 10
4.8716215439
 20
5.3488761413
 11
4.8524746689
 21
5.3744053076
  0
LINE
  5
343
100
AcDbEntity
  8
03__ASM_ALL_CURVES
100
AcDbLine
 62
40
  6
CONTINUOUS
 10
4.9290621689
 20
5.4765219773
 11
4.9386356064
 21
5.4637573879
  0
LINE
  5
344
100
AcDbEntity
  8
03__ASM_ALL_CURVES
100
AcDbLine
 62
40
  6
CONTINUOUS
 10
6.198333076
 20
3.1424889326
 11
6.2198733104
 21
3.0850483076
  0
LINE
  5
345
100
AcDbEntity
  8
03__ASM_ALL_CURVES
100
AcDbLine
 62
40
  6
CONTINUOUS
 10
5.4651746689
 20
5.3744053076
 11
5.4556012314
 21
5.4126990576
  0
LINE
  5
346
100
AcDbEntity
  8
03__ASM_ALL_CURVES
100
AcDbLine
 62
40
  6
CONTINUOUS
 10
6.0403713572
 20
3.1137686201
 11
6.0331912791
 21
3.1424889326
  0
LINE
  5
347
100
AcDbEntity
  8
03__ASM_ALL_CURVES
100
AcDbLine
 62
40
  6
CONTINUOUS
 10
6.1121721385
 20
3.1712092451
 11
6.1193522166
 21
3.1424889326
  0
LINE
  5
348
100
AcDbEntity
  8
03__ASM_ALL_CURVES
100
AcDbLine
 62
40
  6
CONTINUOUS
 10
5.9326701854
 20
3.0850483076
 11
5.9326701854
 21
3.1999295576
  0
LINE
  5
349
100
AcDbEntity
  8
03__ASM_ALL_CURVES
100
AcDbLine
 62
40
  6
CONTINUOUS
 10
5.9342731064
 20
5.3361115576
 11
5.9342731064
 21
5.4892865576
  0
LINE
  5
34A
100
AcDbEntity
  8
03__ASM_ALL_CURVES
100
AcDbLine
 62
40
  6
CONTINUOUS
 10
5.9901108104
 20
3.1807826803
 11
5.9901108104
 21
3.1616358099
  0
LINE
  5
34B
100
AcDbEntity
  8
03__ASM_ALL_CURVES
100
AcDbLine
 62
40
  6
CONTINUOUS
 10
6.0874481064
 20
5.3361115576
 11
6.0874481064
 21
5.4892865576
  0
LINE
  5
34C
100
AcDbEntity
  8
03__ASM_ALL_CURVES
100
AcDbLine
 62
40
  6
CONTINUOUS
 10
5.2304557918
 20
3.1999295576
 11
5.180195245
 21
3.1137686201
  0
LINE
  5
34D
100
AcDbEntity
  8
03__ASM_ALL_CURVES
100
AcDbLine
 62
40
  6
CONTINUOUS
 10
5.00787337
 20
3.1616358099
 11
5.0006932918
 21
3.1520623678
  0
LINE
  5
34E
100
AcDbEntity
  8
03__ASM_ALL_CURVES
100
AcDbLine
 62
40
  6
CONTINUOUS
 10
9.1947431062
 20
4.3764458076
 11
9.2306434968
 21
4.3764458076
  0
LINE
  5
34F
100
AcDbEntity
  8
03__ASM_ALL_CURVES
100
AcDbLine
 62
40
  6
CONTINUOUS
 10
9.3311645905
 20
4.3764458076
 11
9.3455247468
 21
4.3764458076
  0
LINE
  5
350
100
AcDbEntity
  8
03__ASM_ALL_CURVES
100
AcDbLine
 62
40
  6
CONTINUOUS
 10
9.4245056062
 20
4.3764458076
 11
9.4604059968
 21
4.3764458076
  0
LINE
  5
351
100
AcDbEntity
  8
03__ASM_ALL_CURVES
100
AcDbLine
 62
40
  6
CONTINUOUS
 10
9.532206778
 20
4.3764458076
 11
9.6040075593
 21
4.3764458076
  0
LINE
  5
352
100
AcDbEntity
  8
0
100
AcDbLine
 62
7
  6
CONTINUOUS
 10
6.1171351603
 20
4.4649295576
 11
5.8183566861
 21
4.4649295576
  0
LINE
  5
353
100
AcDbEntity
  8
0
100
AcDbLine
 62
7
  6
CONTINUOUS
 10
2.6640399115
 20
4.5656575554
 11
1.9711272794
 21
4.5656575554
  0
LINE
  5
354
100
AcDbEntity
  8
03__ASM_ALL_CURVES
100
AcDbLine
 62
40
  6
CONTINUOUS
 10
4.1440402939
 20
5.4892865576
 11
4.1631871689
 21
5.4765219773
  0
LINE
  5
355
100
AcDbEntity
  8
03__ASM_ALL_CURVES
100
AcDbLine
 62
40
  6
CONTINUOUS
 10
7.5816856829
 20
3.1999295576
 11
7.5960458392
 21
3.1903561224
  0
LINE
  5
356
100
AcDbEntity
  8
03__ASM_ALL_CURVES
100
AcDbLine
 62
40
  6
CONTINUOUS
 10
5.1779715439
 20
5.3488761413
 11
5.1588246689
 21
5.3744053076
  0
LINE
  5
357
100
AcDbEntity
  8
03__ASM_ALL_CURVES
100
AcDbLine
 62
40
  6
CONTINUOUS
 10
5.1683981064
 20
5.4509928076
 11
5.1779715439
 21
5.4382282273
  0
LINE
  5
358
100
AcDbEntity
  8
03__ASM_ALL_CURVES
100
AcDbLine
 62
40
  6
CONTINUOUS
 10
5.2354121689
 20
5.3999344727
 11
5.2449856064
 21
5.3871698925
  0
LINE
  5
359
100
AcDbEntity
  8
03__ASM_ALL_CURVES
100
AcDbLine
 62
40
  6
CONTINUOUS
 10
5.2449856064
 20
5.4637573879
 11
5.2354121689
 21
5.4765219773
  0
LINE
  5
35A
100
AcDbEntity
  8
03__ASM_ALL_CURVES
100
AcDbLine
 62
40
  6
CONTINUOUS
 10
5.5609090439
 20
5.4509928076
 11
5.5704824814
 21
5.4126990576
  0
LINE
  5
35B
100
AcDbEntity
  8
03__ASM_ALL_CURVES
100
AcDbLine
 62
40
  6
CONTINUOUS
 10
6.1624326854
 20
3.0850483076
 11
6.1624326854
 21
3.1999295576
  0
LINE
  5
35C
100
AcDbEntity
  8
03__ASM_ALL_CURVES
100
AcDbLine
 62
40
  6
CONTINUOUS
 10
6.2198733104
 20
3.1807826803
 11
6.2198733104
 21
3.1616358099
  0
LINE
  5
35D
100
AcDbEntity
  8
03__ASM_ALL_CURVES
100
AcDbLine
 62
40
  6
CONTINUOUS
 10
6.2406231064
 20
5.3361115576
 11
6.2406231064
 21
5.4892865576
  0
LINE
  5
35E
100
AcDbEntity
  8
03__ASM_ALL_CURVES
100
AcDbLine
 62
40
  6
CONTINUOUS
 10
6.3060342479
 20
3.1999295576
 11
6.3060342479
 21
3.0850483076
  0
LINE
  5
35F
100
AcDbEntity
  8
03__ASM_ALL_CURVES
100
AcDbLine
 62
40
  6
CONTINUOUS
 10
6.3172106064
 20
5.4637573879
 11
6.3172106064
 21
5.4382282273
  0
LINE
  5
360
100
AcDbEntity
  8
03__ASM_ALL_CURVES
100
AcDbLine
 62
40
  6
CONTINUOUS
 10
6.0331912791
 20
3.1424889326
 11
6.0403713572
 21
3.1712092451
  0
LINE
  5
361
100
AcDbEntity
  8
03__ASM_ALL_CURVES
100
AcDbLine
 62
40
  6
CONTINUOUS
 10
4.7709307918
 20
3.1520623678
 11
4.7565706356
 21
3.1424889326
  0
LINE
  5
362
100
AcDbEntity
  8
03__ASM_ALL_CURVES
100
AcDbLine
 62
40
  6
CONTINUOUS
 10
4.8427315731
 20
3.1903561224
 11
4.8570917293
 21
3.1999295576
  0
LINE
  5
363
100
AcDbEntity
  8
03__ASM_ALL_CURVES
100
AcDbLine
 62
40
  6
CONTINUOUS
 10
4.8858120418
 20
3.0946217454
 11
4.8714518856
 21
3.0850483076
  0
LINE
  5
364
100
AcDbEntity
  8
03__ASM_ALL_CURVES
100
AcDbLine
 62
40
  6
CONTINUOUS
 10
5.0006932918
 20
3.1520623678
 11
4.9863331356
 21
3.1424889326
  0
LINE
  5
365
100
AcDbEntity
  8
0
100
AcDbLine
 62
7
  6
CONTINUOUS
 10
2.6640399115
 20
4.6048405587
 11
1.9711272794
 21
4.6048405587
  0
LINE
  5
366
100
AcDbEntity
  8
0
100
AcDbLine
 62
7
  6
CONTINUOUS
 10
7.9217431055
 20
4.7434295576
 11
7.9027431055
 21
4.7434295576
  0
LINE
  5
367
100
AcDbEntity
  8
0
100
AcDbLine
 62
7
  6
CONTINUOUS
 10
6.7547431055
 20
4.7669295576
 11
6.7357431055
 21
4.7669295576
  0
LINE
  5
368
100
AcDbEntity
  8
0
100
AcDbLine
 62
7
  6
CONTINUOUS
 10
7.5627431055
 20
4.7749295576
 11
7.2317431055
 21
4.7749295576
  0
LINE
  5
369
100
AcDbEntity
  8
0
100
AcDbLine
 62
7
  6
CONTINUOUS
 10
6.9197431055
 20
4.7749295576
 11
6.9072431055
 21
4.7749295576
  0
LINE
  5
36A
100
AcDbEntity
  8
0
100
AcDbLine
 62
7
  6
CONTINUOUS
 10
6.3957431055
 20
4.7749295576
 11
6.2137431055
 21
4.7749295576
  0
LINE
  5
36B
100
AcDbEntity
  8
0
100
AcDbLine
 62
7
  6
CONTINUOUS
 10
5.9017431055
 20
4.7749295576
 11
5.7567431055
 21
4.7749295576
  0
LINE
  5
36C
100
AcDbEntity
  8
0
100
AcDbLine
 62
7
  6
CONTINUOUS
 10
5.6047431055
 20
4.7899295576
 11
5.5857431055
 21
4.7899295576
  0
LINE
  5
36D
100
AcDbEntity
  8
0
100
AcDbLine
 62
7
  6
CONTINUOUS
 10
5.2457431055
 20
4.7919295576
 11
5.2287431055
 21
4.7919295576
  0
LINE
  5
36E
100
AcDbEntity
  8
0
100
AcDbLine
 62
7
  6
CONTINUOUS
 10
4.9167431055
 20
4.7919295576
 11
4.5757431055
 21
4.7919295576
  0
LINE
  5
36F
100
AcDbEntity
  8
0
100
AcDbLine
 62
7
  6
CONTINUOUS
 10
8.0297431055
 20
4.8309295576
 11
7.9367431055
 21
4.8309295576
  0
LINE
  5
370
100
AcDbEntity
  8
0
100
AcDbLine
 62
7
  6
CONTINUOUS
 10
7.6997431055
 20
4.8309295576
 11
7.6097431055
 21
4.8309295576
  0
LINE
  5
371
100
AcDbEntity
  8
0
100
AcDbLine
 62
7
  6
CONTINUOUS
 10
6.8602431055
 20
4.8544295576
 11
6.7697431055
 21
4.8544295576
  0
LINE
  5
372
100
AcDbEntity
  8
0
100
AcDbLine
 62
7
  6
CONTINUOUS
 10
6.5327431055
 20
4.8544295576
 11
6.4427431055
 21
4.8544295576
  0
LINE
  5
373
100
AcDbEntity
  8
0
100
AcDbLine
 62
7
  6
CONTINUOUS
 10
6.5327431055
 20
4.8549295576
 11
6.5827431055
 21
4.8549295576
  0
LINE
  5
374
100
AcDbEntity
  8
0
100
AcDbLine
 62
7
  6
CONTINUOUS
 10
6.6857431055
 20
4.8549295576
 11
6.7357431055
 21
4.8549295576
  0
LINE
  5
375
100
AcDbEntity
  8
0
100
AcDbLine
 62
7
  6
CONTINUOUS
 10
7.6997431055
 20
4.8549295576
 11
7.7497431055
 21
4.8549295576
  0
LINE
  5
376
100
AcDbEntity
  8
0
100
AcDbLine
 62
7
  6
CONTINUOUS
 10
7.8527431055
 20
4.8549295576
 11
7.9027431055
 21
4.8549295576
  0
LINE
  5
377
100
AcDbEntity
  8
03__ASM_ALL_CURVES
100
AcDbLine
 62
40
  6
CONTINUOUS
 10
2.1035531055
 20
5.2544182243
 11
1.9197431055
 21
5.2748415576
  0
LINE
  5
378
100
AcDbEntity
  8
03__ASM_ALL_CURVES
100
AcDbLine
 62
40
  6
CONTINUOUS
 10
2.1035531055
 20
5.2493123909
 11
1.9197431055
 21
5.2748415576
  0
LINE
  5
379
100
AcDbEntity
  8
03__ASM_ALL_CURVES
100
AcDbLine
 62
40
  6
CONTINUOUS
 10
2.1035531055
 20
5.2442065576
 11
1.9197431055
 21
5.2748415576
  0
LINE
  5
37A
100
AcDbEntity
  8
03__ASM_ALL_CURVES
100
AcDbLine
 62
40
  6
CONTINUOUS
 10
4.8907684189
 20
5.3361115576
 11
4.8716215439
 21
5.3488761413
  0
LINE
  5
37B
100
AcDbEntity
  8
03__ASM_ALL_CURVES
100
AcDbLine
 62
40
  6
CONTINUOUS
 10
4.9099152939
 20
5.4892865576
 11
4.9290621689
 21
5.4765219773
  0
LINE
  5
37C
100
AcDbEntity
  8
03__ASM_ALL_CURVES
100
AcDbLine
 62
40
  6
CONTINUOUS
 10
5.1971184189
 20
5.3361115576
 11
5.1779715439
 21
5.3488761413
  0
LINE
  5
37D
100
AcDbEntity
  8
03__ASM_ALL_CURVES
100
AcDbLine
 62
40
  6
CONTINUOUS
 10
5.4843215439
 20
5.3488761413
 11
5.4651746689
 21
5.3744053076
  0
LINE
  5
37E
100
AcDbEntity
  8
03__ASM_ALL_CURVES
100
AcDbLine
 62
40
  6
CONTINUOUS
 10
7.2083216204
 20
3.0946217454
 11
7.1939614642
 21
3.1137686201
  0
LINE
  5
37F
100
AcDbEntity
  8
03__ASM_ALL_CURVES
100
AcDbLine
 62
40
  6
CONTINUOUS
 10
7.1365208392
 20
3.1903561224
 11
7.1437009173
 21
3.1807826803
  0
LINE
  5
380
100
AcDbEntity
  8
03__ASM_ALL_CURVES
100
AcDbLine
 62
40
  6
CONTINUOUS
 10
7.2514020892
 20
3.1903561224
 11
7.2657622454
 21
3.1712092451
  0
LINE
  5
381
100
AcDbEntity
  8
03__ASM_ALL_CURVES
100
AcDbLine
 62
40
  6
CONTINUOUS
 10
5.6374965439
 20
5.3488761413
 11
5.6279231064
 21
5.361640725
  0
LINE
  5
382
100
AcDbEntity
  8
03__ASM_ALL_CURVES
100
AcDbLine
 62
40
  6
CONTINUOUS
 10
5.5417621689
 20
5.4765219773
 11
5.5609090439
 21
5.4509928076
  0
LINE
  5
383
100
AcDbEntity
  8
03__ASM_ALL_CURVES
100
AcDbLine
 62
40
  6
CONTINUOUS
 10
6.0108606064
 20
5.4509928076
 11
6.0204340439
 21
5.4126990576
  0
LINE
  5
384
100
AcDbEntity
  8
0
100
AcDbLine
 62
7
  6
CONTINUOUS
 10
6.3957431055
 20
3.6869295576
 11
6.3957431055
 21
4.7749295576
  0
LINE
  5
385
100
AcDbEntity
  8
0
100
AcDbLine
 62
7
  6
CONTINUOUS
 10
6.4427431055
 20
3.6074404555
 11
6.4427431055
 21
4.8544186597
  0
LINE
  5
386
100
AcDbEntity
  8
03__ASM_ALL_CURVES
100
AcDbLine
 62
40
  6
CONTINUOUS
 10
6.4496358104
 20
3.1807826803
 11
6.4496358104
 21
3.1712092451
  0
LINE
  5
387
100
AcDbEntity
  8
03__ASM_ALL_CURVES
100
AcDbLine
 62
40
  6
CONTINUOUS
 10
6.4568158885
 20
3.1233420587
 11
6.4568158885
 21
3.1137686201
  0
LINE
  5
388
100
AcDbEntity
  8
0
100
AcDbLine
 62
7
  6
CONTINUOUS
 10
6.5327431055
 20
3.6069295576
 11
6.5327431055
 21
4.8549295576
  0
LINE
  5
389
100
AcDbEntity
  8
0
100
AcDbLine
 62
7
  6
CONTINUOUS
 10
6.5827431055
 20
3.6069295576
 11
6.5827431055
 21
4.8549295576
  0
LINE
  5
38A
100
AcDbEntity
  8
03__ASM_ALL_CURVES
100
AcDbLine
 62
40
  6
CONTINUOUS
 10
6.1193522166
 20
3.1424889326
 11
6.1121721385
 21
3.1137686201
  0
LINE
  5
38B
100
AcDbEntity
  8
03__ASM_ALL_CURVES
100
AcDbLine
 62
40
  6
CONTINUOUS
 10
5.9901108104
 20
3.1616358099
 11
5.9829307322
 21
3.1520623678
  0
LINE
  5
38C
100
AcDbEntity
  8
0
100
AcDbLine
 62
7
  6
CONTINUOUS
 10
5.2927431055
 20
4.8774295576
 11
5.3827431055
 21
4.8774295576
  0
LINE
  5
38D
100
AcDbEntity
  8
0
100
AcDbLine
 62
7
  6
CONTINUOUS
 10
5.6197431055
 20
4.8774295576
 11
5.7097431055
 21
4.8774295576
  0
LINE
  5
38E
100
AcDbEntity
  8
0
100
AcDbLine
 62
7
  6
CONTINUOUS
 10
5.3827431055
 20
4.8779295576
 11
5.4327431055
 21
4.8779295576
  0
LINE
  5
38F
100
AcDbEntity
  8
0
100
AcDbLine
 62
7
  6
CONTINUOUS
 10
5.5357431055
 20
4.8779295576
 11
5.5857431055
 21
4.8779295576
  0
LINE
  5
390
100
AcDbEntity
  8
THREAD
100
AcDbLine
 62
7
  6
CONTINUOUS
 10
4.5627431055
 20
4.8824295576
 11
4.2327431055
 21
4.8824295576
  0
LINE
  5
391
100
AcDbEntity
  8
THREAD
100
AcDbLine
 62
7
  6
CONTINUOUS
 10
4.1827431055
 20
4.9324295576
 11
3.7924559184
 21
4.9324295576
  0
LINE
  5
392
100
AcDbEntity
  8
0
100
AcDbLine
 62
7
  6
CONTINUOUS
 10
2.6640399115
 20
4.9395685565
 11
1.9711272794
 21
4.9395685565
  0
LINE
  5
393
100
AcDbEntity
  8
0
100
AcDbLine
 62
7
  6
CONTINUOUS
 10
2.6640399115
 20
4.9399295576
 11
1.9711272794
 21
4.9399295576
  0
LINE
  5
394
100
AcDbEntity
  8
THREAD
100
AcDbLine
 62
7
  6
CONTINUOUS
 10
3.5917431055
 20
4.9484295576
 11
3.5447431055
 21
4.9484295576
  0
LINE
  5
395
100
AcDbEntity
  8
0
100
AcDbLine
 62
7
  6
CONTINUOUS
 10
3.6947431055
 20
4.9489295576
 11
3.7447431055
 21
4.9489295576
  0
LINE
  5
396
100
AcDbEntity
  8
0
100
AcDbLine
 62
7
  6
CONTINUOUS
 10
3.5447431055
 20
5.0104295576
 11
2.7047431055
 21
5.0104295576
  0
LINE
  5
397
100
AcDbEntity
  8
03__ASM_ALL_CURVES
100
AcDbLine
 62
40
  6
CONTINUOUS
 10
2.1035531055
 20
5.2646298909
 11
1.9197431055
 21
5.2748415576
  0
LINE
  5
398
100
AcDbEntity
  8
03__ASM_ALL_CURVES
100
AcDbLine
 62
40
  6
CONTINUOUS
 10
2.1035531055
 20
5.2595240576
 11
1.9197431055
 21
5.2748415576
  0
LINE
  5
399
100
AcDbEntity
  8
03__ASM_ALL_CURVES
100
AcDbLine
 62
40
  6
CONTINUOUS
 10
3.3609331055
 20
5.2901590576
 11
3.7285531055
 21
5.2595240576
  0
LINE
  5
39A
100
AcDbEntity
  8
03__ASM_ALL_CURVES
100
AcDbLine
 62
40
  6
CONTINUOUS
 10
3.3609331055
 20
5.2952648909
 11
3.7285531055
 21
5.2544182243
  0
LINE
  5
39B
100
AcDbEntity
  8
03__ASM_ALL_CURVES
100
AcDbLine
 62
40
  6
CONTINUOUS
 10
3.3609331055
 20
5.3003707243
 11
3.7285531055
 21
5.2493123909
  0
LINE
  5
39C
100
AcDbEntity
  8
03__ASM_ALL_CURVES
100
AcDbLine
 62
40
  6
CONTINUOUS
 10
3.7285531055
 20
5.2442065576
 11
3.3609331055
 21
5.3054765576
  0
LINE
  5
39D
100
AcDbEntity
  8
03__ASM_ALL_CURVES
100
AcDbLine
 62
40
  6
CONTINUOUS
 10
5.1779715439
 20
5.4382282273
 11
5.2354121689
 21
5.3999344727
  0
LINE
  5
39E
100
AcDbEntity
  8
03__ASM_ALL_CURVES
100
AcDbLine
 62
40
  6
CONTINUOUS
 10
5.2354121689
 20
5.4765219773
 11
5.2162652939
 21
5.4892865576
  0
LINE
  5
39F
100
AcDbEntity
  8
03__ASM_ALL_CURVES
100
AcDbLine
 62
40
  6
CONTINUOUS
 10
5.5034684189
 20
5.3361115576
 11
5.4843215439
 21
5.3488761413
  0
LINE
  5
3A0
100
AcDbEntity
  8
03__ASM_ALL_CURVES
100
AcDbLine
 62
40
  6
CONTINUOUS
 10
5.6566434189
 20
5.3361115576
 11
5.6374965439
 21
5.3488761413
  0
LINE
  5
3A1
100
AcDbEntity
  8
03__ASM_ALL_CURVES
100
AcDbLine
 62
40
  6
CONTINUOUS
 10
5.5226152939
 20
5.4892865576
 11
5.5417621689
 21
5.4765219773
  0
LINE
  5
3A2
100
AcDbEntity
  8
03__ASM_ALL_CURVES
100
AcDbLine
 62
40
  6
CONTINUOUS
 10
7.3662833392
 20
3.1903561224
 11
7.3734634173
 21
3.1807826803
  0
LINE
  5
3A3
100
AcDbEntity
  8
03__ASM_ALL_CURVES
100
AcDbLine
 62
40
  6
CONTINUOUS
 10
7.5960458392
 20
3.1903561224
 11
7.6032259173
 21
3.1807826803
  0
LINE
  5
3A4
100
AcDbEntity
  8
0
100
AcDbLine
 62
7
  6
CONTINUOUS
 10
6.6857431055
 20
3.6069295576
 11
6.6857431055
 21
4.8549295576
  0
LINE
  5
3A5
100
AcDbEntity
  8
0
100
AcDbLine
 62
7
  6
CONTINUOUS
 10
6.7357431055
 20
3.6069295576
 11
6.7357431055
 21
4.8549295576
  0
LINE
  5
3A6
100
AcDbEntity
  8
0
100
AcDbLine
 62
7
  6
CONTINUOUS
 10
6.7547431055
 20
3.6949295576
 11
6.7547431055
 21
4.7669295576
  0
LINE
  5
3A7
100
AcDbEntity
  8
0
100
AcDbLine
 62
7
  6
CONTINUOUS
 10
6.7697431055
 20
3.6074404555
 11
6.7697431055
 21
4.8544186597
  0
LINE
  5
3A8
100
AcDbEntity
  8
0
100
AcDbLine
 62
7
  6
CONTINUOUS
 10
6.8602431055
 20
3.6074404555
 11
6.8602431055
 21
4.8544186597
  0
LINE
  5
3A9
100
AcDbEntity
  8
0
100
AcDbLine
 62
7
  6
CONTINUOUS
 10
6.9072431055
 20
3.6869295576
 11
6.9072431055
 21
4.7749295576
  0
LINE
  5
3AA
100
AcDbEntity
  8
03__ASM_ALL_CURVES
100
AcDbLine
 62
40
  6
CONTINUOUS
 10
6.0403713572
 20
3.1712092451
 11
6.0547315135
 21
3.1903561224
  0
LINE
  5
3AB
100
AcDbEntity
  8
03__ASM_ALL_CURVES
100
AcDbLine
 62
40
  6
CONTINUOUS
 10
6.1121721385
 20
3.1137686201
 11
6.0978119822
 21
3.0946217454
  0
LINE
  5
3AC
100
AcDbEntity
  8
03__ASM_ALL_CURVES
100
AcDbLine
 62
40
  6
CONTINUOUS
 10
6.2198733104
 20
3.1616358099
 11
6.2126932322
 21
3.1520623678
  0
LINE
  5
3AD
100
AcDbEntity
  8
03__ASM_ALL_CURVES
100
AcDbLine
 62
40
  6
CONTINUOUS
 10
5.9829307322
 20
3.1520623678
 11
5.968570576
 21
3.1424889326
  0
LINE
  5
3AE
100
AcDbEntity
  8
03__ASM_ALL_CURVES
100
AcDbLine
 62
40
  6
CONTINUOUS
 10
6.0547315135
 20
3.1903561224
 11
6.0690916697
 21
3.1999295576
  0
LINE
  5
3AF
100
AcDbEntity
  8
03__ASM_ALL_CURVES
100
AcDbLine
 62
40
  6
CONTINUOUS
 10
3.3609331055
 20
5.2646298909
 11
3.7285531055
 21
5.2850532243
  0
LINE
  5
3B0
100
AcDbEntity
  8
03__ASM_ALL_CURVES
100
AcDbLine
 62
40
  6
CONTINUOUS
 10
3.3609331055
 20
5.2697357243
 11
3.7285531055
 21
5.2799473909
  0
LINE
  5
3B1
100
AcDbEntity
  8
03__ASM_ALL_CURVES
100
AcDbLine
 62
40
  6
CONTINUOUS
 10
2.1035531055
 20
5.2799473909
 11
1.9197431055
 21
5.2748415576
  0
LINE
  5
3B2
100
AcDbEntity
  8
03__ASM_ALL_CURVES
100
AcDbLine
 62
40
  6
CONTINUOUS
 10
1.9197431055
 20
5.2748415576
 11
6.4857031055
 21
5.2748415576
  0
LINE
  5
3B3
100
AcDbEntity
  8
03__ASM_ALL_CURVES
100
AcDbLine
 62
40
  6
CONTINUOUS
 10
6.1640356064
 20
5.3361115576
 11
6.0874481064
 21
5.3361115576
  0
LINE
  5
3B4
100
AcDbEntity
  8
03__ASM_ALL_CURVES
100
AcDbLine
 62
40
  6
CONTINUOUS
 10
5.9725668564
 20
5.3361115576
 11
5.9342731064
 21
5.3361115576
  0
LINE
  5
3B5
100
AcDbEntity
  8
03__ASM_ALL_CURVES
100
AcDbLine
 62
40
  6
CONTINUOUS
 10
5.6757902939
 20
5.3361115576
 11
5.6566434189
 21
5.3361115576
  0
LINE
  5
3B6
100
AcDbEntity
  8
03__ASM_ALL_CURVES
100
AcDbLine
 62
40
  6
CONTINUOUS
 10
5.5226152939
 20
5.3361115576
 11
5.5034684189
 21
5.3361115576
  0
LINE
  5
3B7
100
AcDbEntity
  8
03__ASM_ALL_CURVES
100
AcDbLine
 62
40
  6
CONTINUOUS
 10
5.2162652939
 20
5.3361115576
 11
5.1971184189
 21
5.3361115576
  0
LINE
  5
3B8
100
AcDbEntity
  8
03__ASM_ALL_CURVES
100
AcDbLine
 62
40
  6
CONTINUOUS
 10
4.9099152939
 20
5.3361115576
 11
4.8907684189
 21
5.3361115576
  0
LINE
  5
3B9
100
AcDbEntity
  8
03__ASM_ALL_CURVES
100
AcDbLine
 62
40
  6
CONTINUOUS
 10
4.1440402939
 20
5.3361115576
 11
4.1248934189
 21
5.3361115576
  0
LINE
  5
3BA
100
AcDbEntity
  8
03__ASM_ALL_CURVES
100
AcDbLine
 62
40
  6
CONTINUOUS
 10
3.9908652939
 20
5.3361115576
 11
3.9717184189
 21
5.3361115576
  0
LINE
  5
3BB
100
AcDbEntity
  8
03__ASM_ALL_CURVES
100
AcDbLine
 62
40
  6
CONTINUOUS
 10
3.0385931055
 20
5.3361115576
 11
3.029019668
 21
5.3361115576
  0
LINE
  5
3BC
100
AcDbEntity
  8
03__ASM_ALL_CURVES
100
AcDbLine
 62
40
  6
CONTINUOUS
 10
2.1195431055
 20
5.3361115576
 11
2.109969668
 21
5.3361115576
  0
LINE
  5
3BD
100
AcDbEntity
  8
03__ASM_ALL_CURVES
100
AcDbLine
 62
40
  6
CONTINUOUS
 10
2.3875993555
 20
5.3361115576
 11
2.4641868555
 21
5.3361115576
  0
LINE
  5
3BE
100
AcDbEntity
  8
03__ASM_ALL_CURVES
100
AcDbLine
 62
40
  6
CONTINUOUS
 10
3.7898231064
 20
5.3361115576
 11
3.8664106064
 21
5.3361115576
  0
LINE
  5
3BF
100
AcDbEntity
  8
03__ASM_ALL_CURVES
100
AcDbLine
 62
40
  6
CONTINUOUS
 10
5.7810981064
 20
5.3361115576
 11
5.8576856064
 21
5.3361115576
  0
LINE
  5
3C0
100
AcDbEntity
  8
03__ASM_ALL_CURVES
100
AcDbLine
 62
40
  6
CONTINUOUS
 10
2.6939493555
 20
5.3744053076
 11
2.780110293
 21
5.3744053076
  0
LINE
  5
3C1
100
AcDbEntity
  8
03__ASM_ALL_CURVES
100
AcDbLine
 62
40
  6
CONTINUOUS
 10
3.3066493555
 20
5.3744053076
 11
3.392810293
 21
5.3744053076
  0
LINE
  5
3C2
100
AcDbEntity
  8
03__ASM_ALL_CURVES
100
AcDbLine
 62
40
  6
CONTINUOUS
 10
4.2589215439
 20
5.3871698925
 11
4.3163621689
 21
5.3871698925
  0
LINE
  5
3C3
100
AcDbEntity
  8
03__ASM_ALL_CURVES
100
AcDbLine
 62
40
  6
CONTINUOUS
 10
2.1035531055
 20
5.2697357243
 11
1.9197431055
 21
5.2748415576
  0
LINE
  5
3C4
100
AcDbEntity
  8
03__ASM_ALL_CURVES
100
AcDbLine
 62
40
  6
CONTINUOUS
 10
3.3609331055
 20
5.2799473909
 11
3.7285531055
 21
5.2697357243
  0
LINE
  5
3C5
100
AcDbEntity
  8
03__ASM_ALL_CURVES
100
AcDbLine
 62
40
  6
CONTINUOUS
 10
3.3609331055
 20
5.2850532243
 11
3.7285531055
 21
5.2646298909
  0
LINE
  5
3C6
100
AcDbEntity
  8
03__ASM_ALL_CURVES
100
AcDbLine
 62
40
  6
CONTINUOUS
 10
5.9725668564
 20
5.4892865576
 11
5.9917137314
 21
5.4765219773
  0
LINE
  5
3C7
100
AcDbEntity
  8
03__ASM_ALL_CURVES
100
AcDbLine
 62
40
  6
CONTINUOUS
 10
5.9917137314
 20
5.4765219773
 11
6.0108606064
 21
5.4509928076
  0
LINE
  5
3C8
100
AcDbEntity
  8
03__ASM_ALL_CURVES
100
AcDbLine
 62
40
  6
CONTINUOUS
 10
6.3076371689
 20
5.4765219773
 11
6.3172106064
 21
5.4637573879
  0
LINE
  5
3C9
100
AcDbEntity
  8
03__ASM_ALL_CURVES
100
AcDbLine
 62
40
  6
CONTINUOUS
 10
6.2884902939
 20
5.4126990576
 11
6.3172106064
 21
5.3361115576
  0
LINE
  5
3CA
100
AcDbEntity
  8
03__ASM_ALL_CURVES
100
AcDbLine
 62
40
  6
CONTINUOUS
 10
7.3519231829
 20
3.1424889326
 11
7.3734634173
 21
3.0850483076
  0
LINE
  5
3CB
100
AcDbEntity
  8
03__ASM_ALL_CURVES
100
AcDbLine
 62
40
  6
CONTINUOUS
 10
7.1939614642
 20
3.1137686201
 11
7.1867813861
 21
3.1424889326
  0
LINE
  5
3CC
100
AcDbEntity
  8
0
100
AcDbLine
 62
7
  6
CONTINUOUS
 10
6.9807431055
 20
4.5314665087
 11
6.9807431055
 21
4.3890042143
  0
LINE
  5
3CD
100
AcDbEntity
  8
0
100
AcDbLine
 62
7
  6
CONTINUOUS
 10
6.9807431055
 20
4.0728557569
 11
6.9807431055
 21
3.9304462946
  0
LINE
  5
3CE
100
AcDbEntity
  8
0
100
AcDbLine
 62
7
  6
CONTINUOUS
 10
6.9877431055
 20
4.5344718391
 11
6.9877431055
 21
4.3846327814
  0
LINE
  5
3CF
100
AcDbEntity
  8
0
100
AcDbLine
 62
7
  6
CONTINUOUS
 10
6.9877431055
 20
3.9274143884
 11
6.9877431055
 21
4.0772258432
  0
LINE
  5
3D0
100
AcDbEntity
  8
0
100
AcDbLine
 62
7
  6
CONTINUOUS
 10
6.9977431055
 20
4.5387651681
 11
6.9977431055
 21
4.3783878772
  0
LINE
  5
3D1
100
AcDbEntity
  8
0
100
AcDbLine
 62
7
  6
CONTINUOUS
 10
6.9977431055
 20
3.9230830939
 11
6.9977431055
 21
4.0834688237
  0
LINE
  5
3D2
100
AcDbEntity
  8
0
100
AcDbLine
 62
7
  6
CONTINUOUS
 10
7.0047431055
 20
4.5417704984
 11
7.0047431055
 21
4.3740164442
  0
LINE
  5
3D3
100
AcDbEntity
  8
0
100
AcDbLine
 62
7
  6
CONTINUOUS
 10
7.0047431055
 20
4.0878389101
 11
7.0047431055
 21
3.9200511877
  0
LINE
  5
3D4
100
AcDbEntity
  8
03__ASM_ALL_CURVES
100
AcDbLine
 62
40
  6
CONTINUOUS
 10
7.0862602923
 20
3.0850483076
 11
7.0862602923
 21
3.1999295576
  0
LINE
  5
3D5
100
AcDbEntity
  8
0
100
AcDbLine
 62
7
  6
CONTINUOUS
 10
7.0917431055
 20
4.5525025515
 11
7.0917431055
 21
4.3582197244
  0
LINE
  5
3D6
100
AcDbEntity
  8
0
100
AcDbLine
 62
7
  6
CONTINUOUS
 10
7.0917431055
 20
4.1036368806
 11
7.0917431055
 21
3.9093546976
  0
LINE
  5
3D7
100
AcDbEntity
  8
03__ASM_ALL_CURVES
100
AcDbLine
 62
40
  6
CONTINUOUS
 10
7.1437009173
 20
3.1807826803
 11
7.1437009173
 21
3.1616358099
  0
LINE
  5
3D8
100
AcDbEntity
  8
0
100
AcDbLine
 62
7
  6
CONTINUOUS
 10
7.1857431055
 20
4.521139328
 11
7.1857431055
 21
4.4026644265
  0
LINE
  5
3D9
100
AcDbEntity
  8
0
100
AcDbLine
 62
7
  6
CONTINUOUS
 10
7.1857431055
 20
4.0591965311
 11
7.1857431055
 21
3.9407156593
  0
LINE
  5
3DA
100
AcDbEntity
  8
03__ASM_ALL_CURVES
100
AcDbLine
 62
40
  6
CONTINUOUS
 10
6.4496358104
 20
3.1712092451
 11
6.4424557322
 21
3.1616358099
  0
LINE
  5
3DB
100
AcDbEntity
  8
03__ASM_ALL_CURVES
100
AcDbLine
 62
40
  6
CONTINUOUS
 10
6.4568158885
 20
3.1137686201
 11
6.4424557322
 21
3.0946217454
  0
LINE
  5
3DC
100
AcDbEntity
  8
03__ASM_ALL_CURVES
100
AcDbLine
 62
40
  6
CONTINUOUS
 10
6.0978119822
 20
3.0946217454
 11
6.083451826
 21
3.0850483076
  0
LINE
  5
3DD
100
AcDbEntity
  8
03__ASM_ALL_CURVES
100
AcDbLine
 62
40
  6
CONTINUOUS
 10
6.2126932322
 20
3.1520623678
 11
6.198333076
 21
3.1424889326
  0
LINE
  5
3DE
100
AcDbEntity
  8
03__ASM_ALL_CURVES
100
AcDbLine
 62
40
  6
CONTINUOUS
 10
6.3993752635
 20
3.1903561224
 11
6.4137354197
 21
3.1999295576
  0
LINE
  5
3DF
100
AcDbEntity
  8
03__ASM_ALL_CURVES
100
AcDbLine
 62
40
  6
CONTINUOUS
 10
6.4424557322
 20
3.1616358099
 11
6.428095576
 21
3.1520623678
  0
LINE
  5
3E0
100
AcDbEntity
  8
03__ASM_ALL_CURVES
100
AcDbLine
 62
40
  6
CONTINUOUS
 10
6.4424557322
 20
3.0946217454
 11
6.428095576
 21
3.0850483076
  0
LINE
  5
3E1
100
AcDbEntity
  8
03__ASM_ALL_CURVES
100
AcDbLine
 62
40
  6
CONTINUOUS
 10
3.3609331055
 20
5.2442065576
 11
3.7285531055
 21
5.3054765576
  0
LINE
  5
3E2
100
AcDbEntity
  8
03__ASM_ALL_CURVES
100
AcDbLine
 62
40
  6
CONTINUOUS
 10
3.3609331055
 20
5.2493123909
 11
3.7285531055
 21
5.3003707243
  0
LINE
  5
3E3
100
AcDbEntity
  8
03__ASM_ALL_CURVES
100
AcDbLine
 62
40
  6
CONTINUOUS
 10
3.3609331055
 20
5.2544182243
 11
3.7285531055
 21
5.2952648909
  0
LINE
  5
3E4
100
AcDbEntity
  8
03__ASM_ALL_CURVES
100
AcDbLine
 62
40
  6
CONTINUOUS
 10
3.3609331055
 20
5.2595240576
 11
3.7285531055
 21
5.2901590576
  0
LINE
  5
3E5
100
AcDbEntity
  8
03__ASM_ALL_CURVES
100
AcDbLine
 62
40
  6
CONTINUOUS
 10
2.1035531055
 20
5.2901590576
 11
1.9197431055
 21
5.2748415576
  0
LINE
  5
3E6
100
AcDbEntity
  8
03__ASM_ALL_CURVES
100
AcDbLine
 62
40
  6
CONTINUOUS
 10
2.1035531055
 20
5.2850532243
 11
1.9197431055
 21
5.2748415576
  0
LINE
  5
3E7
100
AcDbEntity
  8
03__ASM_ALL_CURVES
100
AcDbLine
 62
40
  6
CONTINUOUS
 10
6.2884902939
 20
5.4126990576
 11
6.2406231064
 21
5.4126990576
  0
LINE
  5
3E8
100
AcDbEntity
  8
03__ASM_ALL_CURVES
100
AcDbLine
 62
40
  6
CONTINUOUS
 10
4.9003418564
 20
5.4126990576
 11
4.9386356064
 21
5.4126990576
  0
LINE
  5
3E9
100
AcDbEntity
  8
03__ASM_ALL_CURVES
100
AcDbLine
 62
40
  6
CONTINUOUS
 10
5.3215731064
 20
5.4126990576
 11
5.3981606064
 21
5.4126990576
  0
LINE
  5
3EA
100
AcDbEntity
  8
03__ASM_ALL_CURVES
100
AcDbLine
 62
40
  6
CONTINUOUS
 10
6.0874481064
 20
5.4126990576
 11
6.1353152939
 21
5.4126990576
  0
LINE
  5
3EB
100
AcDbEntity
  8
03__ASM_ALL_CURVES
100
AcDbLine
 62
40
  6
CONTINUOUS
 10
5.2162652939
 20
5.4892865576
 11
5.1971184189
 21
5.4892865576
  0
LINE
  5
3EC
100
AcDbEntity
  8
03__ASM_ALL_CURVES
100
AcDbLine
 62
40
  6
CONTINUOUS
 10
2.416319668
 20
5.4892865576
 11
2.435466543
 21
5.4892865576
  0
LINE
  5
3ED
100
AcDbEntity
  8
03__ASM_ALL_CURVES
100
AcDbLine
 62
40
  6
CONTINUOUS
 10
3.9717184189
 20
5.4892865576
 11
3.9908652939
 21
5.4892865576
  0
LINE
  5
3EE
100
AcDbEntity
  8
03__ASM_ALL_CURVES
100
AcDbLine
 62
40
  6
CONTINUOUS
 10
4.1248934189
 20
5.4892865576
 11
4.1440402939
 21
5.4892865576
  0
LINE
  5
3EF
100
AcDbEntity
  8
03__ASM_ALL_CURVES
100
AcDbLine
 62
40
  6
CONTINUOUS
 10
4.3929496689
 20
5.4892865576
 11
4.4886840439
 21
5.4892865576
  0
LINE
  5
3F0
100
AcDbEntity
  8
03__ASM_ALL_CURVES
100
AcDbLine
 62
40
  6
CONTINUOUS
 10
4.8907684189
 20
5.4892865576
 11
4.9099152939
 21
5.4892865576
  0
LINE
  5
3F1
100
AcDbEntity
  8
03__ASM_ALL_CURVES
100
AcDbLine
 62
40
  6
CONTINUOUS
 10
5.5034684189
 20
5.4892865576
 11
5.5226152939
 21
5.4892865576
  0
LINE
  5
3F2
100
AcDbEntity
  8
03__ASM_ALL_CURVES
100
AcDbLine
 62
40
  6
CONTINUOUS
 10
5.9342731064
 20
5.4892865576
 11
5.9725668564
 21
5.4892865576
  0
LINE
  5
3F3
100
AcDbEntity
  8
03__ASM_ALL_CURVES
100
AcDbLine
 62
40
  6
CONTINUOUS
 10
6.0874481064
 20
5.4892865576
 11
6.1640356064
 21
5.4892865576
  0
LINE
  5
3F4
100
AcDbEntity
  8
03__ASM_ALL_CURVES
100
AcDbLine
 62
40
  6
CONTINUOUS
 10
6.2406231064
 20
5.4892865576
 11
6.2884902939
 21
5.4892865576
  0
LINE
  5
3F5
100
AcDbEntity
  8
03__ASM_ALL_CURVES
100
AcDbLine
 62
40
  6
CONTINUOUS
 10
6.2884902939
 20
5.4892865576
 11
6.3076371689
 21
5.4765219773
  0
LINE
  5
3F6
100
AcDbEntity
  8
03__ASM_ALL_CURVES
100
AcDbLine
 62
40
  6
CONTINUOUS
 10
7.2657622454
 20
3.1712092451
 11
7.2729423236
 21
3.1424889326
  0
LINE
  5
3F7
100
AcDbEntity
  8
03__ASM_ALL_CURVES
100
AcDbLine
 62
40
  6
CONTINUOUS
 10
7.3160227923
 20
3.0850483076
 11
7.3160227923
 21
3.1999295576
  0
LINE
  5
3F8
100
AcDbEntity
  8
03__ASM_ALL_CURVES
100
AcDbLine
 62
40
  6
CONTINUOUS
 10
7.3734634173
 20
3.1807826803
 11
7.3734634173
 21
3.1616358099
  0
LINE
  5
3F9
100
AcDbEntity
  8
03__ASM_ALL_CURVES
100
AcDbLine
 62
40
  6
CONTINUOUS
 10
7.4596243548
 20
3.1999295576
 11
7.4596243548
 21
3.0850483076
  0
LINE
  5
3FA
100
AcDbEntity
  8
03__ASM_ALL_CURVES
100
AcDbLine
 62
40
  6
CONTINUOUS
 10
7.1867813861
 20
3.1424889326
 11
7.1939614642
 21
3.1712092451
  0
LINE
  5
3FB
100
AcDbEntity
  8
03__ASM_ALL_CURVES
100
AcDbLine
 62
40
  6
CONTINUOUS
 10
1.9197431055
 20
5.2748415576
 11
2.1035531055
 21
5.3054765576
  0
LINE
  5
3FC
100
AcDbEntity
  8
03__ASM_ALL_CURVES
100
AcDbLine
 62
40
  6
CONTINUOUS
 10
2.1035531055
 20
5.3003707243
 11
1.9197431055
 21
5.2748415576
  0
LINE
  5
3FD
100
AcDbEntity
  8
03__ASM_ALL_CURVES
100
AcDbLine
 62
40
  6
CONTINUOUS
 10
2.1035531055
 20
5.2952648909
 11
1.9197431055
 21
5.2748415576
  0
LINE
  5
3FE
100
AcDbEntity
  8
0
100
AcDbLine
 62
7
  6
CONTINUOUS
 10
7.5627431055
 20
3.6869295576
 11
7.5627431055
 21
4.7749295576
  0
LINE
  5
3FF
100
AcDbEntity
  8
03__ASM_ALL_CURVES
100
AcDbLine
 62
40
  6
CONTINUOUS
 10
7.6032259173
 20
3.1807826803
 11
7.6032259173
 21
3.1616358099
  0
LINE
  5
400
100
AcDbEntity
  8
0
100
AcDbLine
 62
7
  6
CONTINUOUS
 10
7.6097431055
 20
3.6309295576
 11
7.6097431055
 21
4.8309295576
  0
LINE
  5
401
100
AcDbEntity
  8
0
100
AcDbLine
 62
7
  6
CONTINUOUS
 10
7.6997431055
 20
3.6069295576
 11
7.6997431055
 21
4.8549295576
  0
LINE
  5
402
100
AcDbEntity
  8
03__ASM_ALL_CURVES
100
AcDbLine
 62
40
  6
CONTINUOUS
 10
7.2729423236
 20
3.1424889326
 11
7.2657622454
 21
3.1137686201
  0
LINE
  5
403
100
AcDbEntity
  8
03__ASM_ALL_CURVES
100
AcDbLine
 62
40
  6
CONTINUOUS
 10
7.1437009173
 20
3.1616358099
 11
7.1365208392
 21
3.1520623678
  0
LINE
  5
404
100
AcDbEntity
  8
03__ASM_ALL_CURVES
100
AcDbLine
 62
40
  6
CONTINUOUS
 10
7.1939614642
 20
3.1712092451
 11
7.2083216204
 21
3.1903561224
  0
LINE
  5
405
100
AcDbEntity
  8
03__ASM_ALL_CURVES
100
AcDbLine
 62
40
  6
CONTINUOUS
 10
7.2657622454
 20
3.1137686201
 11
7.2514020892
 21
3.0946217454
  0
LINE
  5
406
100
AcDbEntity
  8
03__ASM_ALL_CURVES
100
AcDbLine
 62
40
  6
CONTINUOUS
 10
7.1365208392
 20
3.1520623678
 11
7.1221606829
 21
3.1424889326
  0
LINE
  5
407
100
AcDbEntity
  8
03__ASM_ALL_CURVES
100
AcDbLine
 62
40
  6
CONTINUOUS
 10
7.2083216204
 20
3.1903561224
 11
7.2226817767
 21
3.1999295576
  0
LINE
  5
408
100
AcDbEntity
  8
03__ASM_ALL_CURVES
100
AcDbLine
 62
40
  6
CONTINUOUS
 10
7.2514020892
 20
3.0946217454
 11
7.2370419329
 21
3.0850483076
  0
LINE
  5
409
100
AcDbEntity
  8
03__ASM_ALL_CURVES
100
AcDbLine
 62
40
  6
CONTINUOUS
 10
7.3662833392
 20
3.1520623678
 11
7.3519231829
 21
3.1424889326
  0
LINE
  5
40A
100
AcDbEntity
  8
03__ASM_ALL_CURVES
100
AcDbLine
 62
40
  6
CONTINUOUS
 10
9.245003653
 20
4.3285786178
 11
9.2306434968
 21
4.3190051826
  0
LINE
  5
40B
100
AcDbEntity
  8
03__ASM_ALL_CURVES
100
AcDbLine
 62
40
  6
CONTINUOUS
 10
9.3168044343
 20
4.3668723724
 11
9.3311645905
 21
4.3764458076
  0
LINE
  5
40C
100
AcDbEntity
  8
03__ASM_ALL_CURVES
100
AcDbLine
 62
40
  6
CONTINUOUS
 10
7.5529653704
 20
3.1903561224
 11
7.5673255267
 21
3.1999295576
  0
LINE
  5
40D
100
AcDbEntity
  8
0
100
AcDbLine
 62
7
  6
CONTINUOUS
 10
7.7497431055
 20
3.6069295576
 11
7.7497431055
 21
4.8549295576
  0
LINE
  5
40E
100
AcDbEntity
  8
0
100
AcDbLine
 62
7
  6
CONTINUOUS
 10
7.8527431055
 20
3.6069295576
 11
7.8527431055
 21
4.8549295576
  0
LINE
  5
40F
100
AcDbEntity
  8
0
100
AcDbLine
 62
7
  6
CONTINUOUS
 10
7.9027431055
 20
3.6069295576
 11
7.9027431055
 21
4.8549295576
  0
LINE
  5
410
100
AcDbEntity
  8
0
100
AcDbLine
 62
7
  6
CONTINUOUS
 10
7.9217431055
 20
3.7184295576
 11
7.9217431055
 21
4.7434295576
  0
LINE
  5
411
100
AcDbEntity
  8
0
100
AcDbLine
 62
7
  6
CONTINUOUS
 10
7.9367431055
 20
3.6309295576
 11
7.9367431055
 21
4.8309295576
  0
LINE
  5
412
100
AcDbEntity
  8
03__ASM_ALL_CURVES
100
AcDbLine
 62
40
  6
CONTINUOUS
 10
7.5529653704
 20
3.1137686201
 11
7.5457852923
 21
3.0850483076
  0
LINE
  5
413
100
AcDbEntity
  8
03__ASM_ALL_CURVES
100
AcDbLine
 62
40
  6
CONTINUOUS
 10
7.3734634173
 20
3.1616358099
 11
7.3662833392
 21
3.1520623678
  0
LINE
  5
414
100
AcDbEntity
  8
03__ASM_ALL_CURVES
100
AcDbLine
 62
40
  6
CONTINUOUS
 10
7.5457852923
 20
3.1807826803
 11
7.5529653704
 21
3.1903561224
  0
LINE
  5
415
100
AcDbEntity
  8
03__ASM_ALL_CURVES
100
AcDbLine
 62
40
  6
CONTINUOUS
 10
7.5673255267
 20
3.132915494
 11
7.5529653704
 21
3.1137686201
  0
LINE
  5
416
100
AcDbEntity
  8
03__ASM_ALL_CURVES
100
AcDbLine
 62
40
  6
CONTINUOUS
 10
7.6032259173
 20
3.1616358099
 11
7.5960458392
 21
3.1520623678
  0
LINE
  5
417
100
AcDbEntity
  8
0
100
AcDbLine
 62
7
  6
CONTINUOUS
 10
8.0467431055
 20
3.6479295576
 11
8.0297431055
 21
3.6309295576
  0
LINE
  5
418
100
AcDbEntity
  8
03__ASM_ALL_CURVES
100
AcDbLine
 62
40
  6
CONTINUOUS
 10
7.5960458392
 20
3.1520623678
 11
7.5673255267
 21
3.132915494
  0
LINE
  5
419
100
AcDbEntity
  8
03__ASM_ALL_CURVES
100
AcDbLine
 62
40
  6
CONTINUOUS
 10
9.359884903
 20
4.2711379954
 11
9.3455247468
 21
4.2615645576
  0
LINE
  5
41A
100
AcDbEntity
  8
03__ASM_ALL_CURVES
100
AcDbLine
 62
40
  6
CONTINUOUS
 10
9.474766153
 20
4.3285786178
 11
9.4604059968
 21
4.3190051826
  0
LINE
  5
41B
100
AcDbEntity
  8
03__ASM_ALL_CURVES
100
AcDbLine
 62
40
  6
CONTINUOUS
 10
9.3311645905
 20
4.2615645576
 11
9.3168044343
 21
4.2711379954
  0
LINE
  5
41C
100
AcDbEntity
  8
03__ASM_ALL_CURVES
100
AcDbLine
 62
40
  6
CONTINUOUS
 10
9.2306434968
 20
4.3764458076
 11
9.245003653
 21
4.3668723724
  0
LINE
  5
41D
100
AcDbEntity
  8
03__ASM_ALL_CURVES
100
AcDbLine
 62
40
  6
CONTINUOUS
 10
9.3455247468
 20
4.3764458076
 11
9.359884903
 21
4.3668723724
  0
LINE
  5
41E
100
AcDbEntity
  8
03__ASM_ALL_CURVES
100
AcDbLine
 62
40
  6
CONTINUOUS
 10
9.4604059968
 20
4.3764458076
 11
9.474766153
 21
4.3668723724
  0
LINE
  5
41F
100
AcDbEntity
  8
0
100
AcDbLine
 62
7
  6
CONTINUOUS
 10
8.0467431055
 20
4.8139295576
 11
8.0297431055
 21
4.8309295576
  0
LINE
  5
420
100
AcDbEntity
  8
0
100
AcDbLine
 62
7
  6
CONTINUOUS
 10
8.0297431055
 20
3.6309295576
 11
8.0297431055
 21
4.8309295576
  0
LINE
  5
421
100
AcDbEntity
  8
0
100
AcDbLine
 62
7
  6
CONTINUOUS
 10
8.0467431055
 20
3.6479454485
 11
8.0467431055
 21
4.8139136667
  0
LINE
  5
422
100
AcDbEntity
  8
03__ASM_ALL_CURVES
100
AcDbLine
 62
40
  6
CONTINUOUS
 10
9.2521837312
 20
4.3381520599
 11
9.245003653
 21
4.3285786178
  0
LINE
  5
423
100
AcDbEntity
  8
03__ASM_ALL_CURVES
100
AcDbLine
 62
40
  6
CONTINUOUS
 10
9.302444278
 20
4.3477254951
 11
9.3168044343
 21
4.3668723724
  0
LINE
  5
424
100
AcDbEntity
  8
03__ASM_ALL_CURVES
100
AcDbLine
 62
40
  6
CONTINUOUS
 10
9.3742450593
 20
4.2902848701
 11
9.359884903
 21
4.2711379954
  0
LINE
  5
425
100
AcDbEntity
  8
03__ASM_ALL_CURVES
100
AcDbLine
 62
40
  6
CONTINUOUS
 10
9.4819462312
 20
4.3381520599
 11
9.474766153
 21
4.3285786178
  0
LINE
  5
426
100
AcDbEntity
  8
03__ASM_ALL_CURVES
100
AcDbLine
 62
40
  6
CONTINUOUS
 10
9.3168044343
 20
4.2711379954
 11
9.302444278
 21
4.2902848701
  0
LINE
  5
427
100
AcDbEntity
  8
03__ASM_ALL_CURVES
100
AcDbLine
 62
40
  6
CONTINUOUS
 10
9.245003653
 20
4.3668723724
 11
9.2521837312
 21
4.3572989303
  0
LINE
  5
428
100
AcDbEntity
  8
03__ASM_ALL_CURVES
100
AcDbLine
 62
40
  6
CONTINUOUS
 10
9.359884903
 20
4.3668723724
 11
9.3742450593
 21
4.3477254951
  0
LINE
  5
429
100
AcDbEntity
  8
03__ASM_ALL_CURVES
100
AcDbLine
 62
40
  6
CONTINUOUS
 10
9.474766153
 20
4.3668723724
 11
9.4819462312
 21
4.3572989303
  0
LINE
  5
42A
100
AcDbEntity
  8
03__ASM_ALL_CURVES
100
AcDbLine
 62
40
  6
CONTINUOUS
 10
9.1947431062
 20
4.2615645576
 11
9.1947431062
 21
4.3764458076
  0
LINE
  5
42B
100
AcDbEntity
  8
03__ASM_ALL_CURVES
100
AcDbLine
 62
40
  6
CONTINUOUS
 10
9.2521837312
 20
4.3572989303
 11
9.2521837312
 21
4.3381520599
  0
LINE
  5
42C
100
AcDbEntity
  8
03__ASM_ALL_CURVES
100
AcDbLine
 62
40
  6
CONTINUOUS
 10
9.2952641999
 20
4.3190051826
 11
9.302444278
 21
4.3477254951
  0
LINE
  5
42D
100
AcDbEntity
  8
03__ASM_ALL_CURVES
100
AcDbLine
 62
40
  6
CONTINUOUS
 10
9.3814251374
 20
4.3190051826
 11
9.3742450593
 21
4.2902848701
  0
LINE
  5
42E
100
AcDbEntity
  8
03__ASM_ALL_CURVES
100
AcDbLine
 62
40
  6
CONTINUOUS
 10
9.4604059968
 20
4.3190051826
 11
9.4819462312
 21
4.2615645576
  0
LINE
  5
42F
100
AcDbEntity
  8
03__ASM_ALL_CURVES
100
AcDbLine
 62
40
  6
CONTINUOUS
 10
9.302444278
 20
4.2902848701
 11
9.2952641999
 21
4.3190051826
  0
LINE
  5
430
100
AcDbEntity
  8
03__ASM_ALL_CURVES
100
AcDbLine
 62
40
  6
CONTINUOUS
 10
9.3742450593
 20
4.3477254951
 11
9.3814251374
 21
4.3190051826
  0
LINE
  5
431
100
AcDbEntity
  8
03__ASM_ALL_CURVES
100
AcDbLine
 62
40
  6
CONTINUOUS
 10
9.4245056062
 20
4.2615645576
 11
9.4245056062
 21
4.3764458076
  0
LINE
  5
432
100
AcDbEntity
  8
03__ASM_ALL_CURVES
100
AcDbLine
 62
40
  6
CONTINUOUS
 10
9.4819462312
 20
4.3572989303
 11
9.4819462312
 21
4.3381520599
  0
LINE
  5
433
100
AcDbEntity
  8
03__ASM_ALL_CURVES
100
AcDbLine
 62
40
  6
CONTINUOUS
 10
9.5681071687
 20
4.3764458076
 11
9.5681071687
 21
4.2615645576
  0
LINE
  5
434
100
AcDbEntity
  8
03__ASM_ALL_CURVES
100
AcDbLine
 62
40
  6
CONTINUOUS
 10
9.6829884187
 20
4.3764458076
 11
9.6829884187
 21
4.2615645576
  0
ARC
  5
435
100
AcDbEntity
  8
0
100
AcDbCircle
 62
7
  6
CONTINUOUS
 10
5.2457431055
 20
3.6229295576
 40
0.047
100
AcDbArc
 50
0.0000291086
 51
90.0
  0
ARC
  5
436
100
AcDbEntity
  8
0
100
AcDbCircle
 62
7
  6
CONTINUOUS
 10
5.2457431055
 20
4.8389295576
 40
0.047
100
AcDbArc
 50
270.0
 51
359.9999708914
  0
ARC
  5
437
100
AcDbEntity
  8
0
100
AcDbCircle
 62
7
  6
CONTINUOUS
 10
7.5627431055
 20
4.8219295576
 40
0.047
100
AcDbArc
 50
270.0
 51
359.9999713809
  0
ARC
  5
438
100
AcDbEntity
  8
0
100
AcDbCircle
 62
7
  6
CONTINUOUS
 10
7.5627431055
 20
3.6399295576
 40
0.047
100
AcDbArc
 50
0.0000286191
 51
90.0
  0
ARC
  5
439
100
AcDbEntity
  8
0
100
AcDbCircle
 62
7
  6
CONTINUOUS
 10
6.9072431055
 20
4.8219295576
 40
0.047
100
AcDbArc
 50
180.0000013301
 51
270.0
  0
ARC
  5
43A
100
AcDbEntity
  8
0
100
AcDbCircle
 62
7
  6
CONTINUOUS
 10
6.9072431055
 20
3.6399295576
 40
0.047
100
AcDbArc
 50
90.0
 51
179.9999986699
  0
ARC
  5
43B
100
AcDbEntity
  8
0
100
AcDbCircle
 62
7
  6
CONTINUOUS
 10
6.3957431055
 20
4.8219295576
 40
0.047
100
AcDbArc
 50
270.0
 51
359.9999713809
  0
ARC
  5
43C
100
AcDbEntity
  8
0
100
AcDbCircle
 62
7
  6
CONTINUOUS
 10
6.3957431055
 20
3.6399295576
 40
0.047
100
AcDbArc
 50
0.0000286191
 51
90.0
  0
ARC
  5
43D
100
AcDbEntity
  8
0
100
AcDbCircle
 62
7
  6
CONTINUOUS
 10
5.7567431055
 20
4.8219295576
 40
0.047
100
AcDbArc
 50
180.0000013301
 51
270.0
  0
ARC
  5
43E
100
AcDbEntity
  8
0
100
AcDbCircle
 62
7
  6
CONTINUOUS
 10
5.7567431055
 20
3.6399295576
 40
0.047
100
AcDbArc
 50
90.0
 51
179.9999986699
  0
ARC
  5
43F
100
AcDbEntity
  8
0
100
AcDbCircle
 62
7
  6
CONTINUOUS
 10
3.7371070768
 20
3.5729295576
 40
0.028
100
AcDbArc
 50
9.2483578614
 51
74.0465094782
  0
ARC
  5
440
100
AcDbEntity
  8
0
100
AcDbCircle
 62
7
  6
CONTINUOUS
 10
3.7371070768
 20
4.8889295576
 40
0.028
100
AcDbArc
 50
285.9534905218
 51
350.7516421386
  0
ARC
  5
441
100
AcDbEntity
  8
0
100
AcDbCircle
 62
7
  6
CONTINUOUS
 10
7.9217431055
 20
4.7584295576
 40
0.015
100
AcDbArc
 50
270.0
 51
359.9999805723
  0
ARC
  5
442
100
AcDbEntity
  8
0
100
AcDbCircle
 62
7
  6
CONTINUOUS
 10
7.9217431055
 20
3.7034295576
 40
0.015
100
AcDbArc
 50
0.0000194277
 51
90.0
  0
ARC
  5
443
100
AcDbEntity
  8
0
100
AcDbCircle
 62
7
  6
CONTINUOUS
 10
6.7547431055
 20
4.7819295576
 40
0.015
100
AcDbArc
 50
270.0
 51
359.9999814423
  0
ARC
  5
444
100
AcDbEntity
  8
0
100
AcDbCircle
 62
7
  6
CONTINUOUS
 10
6.7547431055
 20
3.6799295576
 40
0.015
100
AcDbArc
 50
0.0000185577
 51
90.0
  0
ARC
  5
445
100
AcDbEntity
  8
0
100
AcDbCircle
 62
7
  6
CONTINUOUS
 10
5.6047431055
 20
4.8049295576
 40
0.015
100
AcDbArc
 50
270.0
 51
359.9999826812
  0
ARC
  5
446
100
AcDbEntity
  8
0
100
AcDbCircle
 62
7
  6
CONTINUOUS
 10
5.6047431055
 20
3.6569295576
 40
0.015
100
AcDbArc
 50
0.0000173188
 51
90.0
  0
SPLINE
  5
447
100
AcDbEntity
  8
0
100
AcDbSpline
 62
7
  6
CONTINUOUS
 70
0
 71
3
 72
15
 73
11
 74
9
 42
0.0000001
 43
0.0000001
 44
0.0000000001
 12
0.0
 22
0.1617702498
 32
0.0
 13
0.0
 23
-0.1617702498
 33
0.0
 40
0.0
 40
0.0
 40
0.0
 40
0.0
 40
0.125
 40
0.25
 40
0.375
 40
0.5
 40
0.625
 40
0.75
 40
0.875
 40
1.0
 40
1.0
 40
1.0
 40
1.0
 10
7.8527431055
 20
4.7949295576
 30
0.0
 10
7.8527431055
 20
4.8016699847
 30
0.0
 10
7.8500615969
 20
4.8151508388
 30
0.0
 10
7.8386071612
 20
4.8322936133
 30
0.0
 10
7.8214643867
 20
4.843748049
 30
0.0
 10
7.8012431055
 20
4.8477703119
 30
0.0
 10
7.7810218242
 20
4.843748049
 30
0.0
 10
7.7638790498
 20
4.8322936133
 30
0.0
 10
7.7524246141
 20
4.8151508388
 30
0.0
 10
7.7497431055
 20
4.8016699847
 30
0.0
 10
7.7497431055
 20
4.7949295576
 30
0.0
 11
7.8527431055
 21
4.7949295576
 31
0.0
 11
7.8488229014
 21
4.8146377544
 31
0.0
 11
7.8376591047
 21
4.8313455568
 31
0.0
 11
7.8209513022
 21
4.8425093535
 31
0.0
 11
7.8012431055
 21
4.8464295576
 31
0.0
 11
7.7815349087
 21
4.8425093535
 31
0.0
 11
7.7648271062
 21
4.8313455568
 31
0.0
 11
7.7536633096
 21
4.8146377544
 31
0.0
 11
7.7497431055
 21
4.7949295576
 31
0.0
  0
SPLINE
  5
448
100
AcDbEntity
  8
0
100
AcDbSpline
 62
7
  6
CONTINUOUS
 70
0
 71
3
 72
15
 73
11
 74
9
 42
0.0000001
 43
0.0000001
 44
0.0000000001
 12
0.0
 22
-0.1617702498
 32
0.0
 13
0.0
 23
0.1617702498
 33
0.0
 40
0.0
 40
0.0
 40
0.0
 40
0.0
 40
0.125
 40
0.25
 40
0.375
 40
0.5
 40
0.625
 40
0.75
 40
0.875
 40
1.0
 40
1.0
 40
1.0
 40
1.0
 10
7.8527431055
 20
3.6669295576
 30
0.0
 10
7.8527431055
 20
3.6601891305
 30
0.0
 10
7.8500615969
 20
3.6467082764
 30
0.0
 10
7.8386071612
 20
3.6295655019
 30
0.0
 10
7.8214643867
 20
3.6181110662
 30
0.0
 10
7.8012431055
 20
3.6140888033
 30
0.0
 10
7.7810218242
 20
3.6181110662
 30
0.0
 10
7.7638790498
 20
3.6295655019
 30
0.0
 10
7.7524246141
 20
3.6467082764
 30
0.0
 10
7.7497431055
 20
3.6601891305
 30
0.0
 10
7.7497431055
 20
3.6669295576
 30
0.0
 11
7.8527431055
 21
3.6669295576
 31
0.0
 11
7.8488229014
 21
3.6472213608
 31
0.0
 11
7.8376591047
 21
3.6305135584
 31
0.0
 11
7.8209513022
 21
3.6193497617
 31
0.0
 11
7.8012431055
 21
3.6154295576
 31
0.0
 11
7.7815349087
 21
3.6193497617
 31
0.0
 11
7.7648271062
 21
3.6305135584
 31
0.0
 11
7.7536633096
 21
3.6472213608
 31
0.0
 11
7.7497431055
 21
3.6669295576
 31
0.0
  0
SPLINE
  5
449
100
AcDbEntity
  8
0
100
AcDbSpline
 62
7
  6
CONTINUOUS
 70
0
 71
3
 72
15
 73
11
 74
9
 42
0.0000001
 43
0.0000001
 44
0.0000000001
 12
0.0
 22
0.1617702498
 32
0.0
 13
0.0
 23
-0.1617702498
 33
0.0
 40
0.0
 40
0.0
 40
0.0
 40
0.0
 40
0.125
 40
0.25
 40
0.375
 40
0.5
 40
0.625
 40
0.75
 40
0.875
 40
1.0
 40
1.0
 40
1.0
 40
1.0
 10
6.6857431055
 20
4.8184295576
 30
0.0
 10
6.6857431055
 20
4.8251699847
 30
0.0
 10
6.6830615969
 20
4.8386508388
 30
0.0
 10
6.6716071612
 20
4.8557936133
 30
0.0
 10
6.6544643867
 20
4.867248049
 30
0.0
 10
6.6342431055
 20
4.8712703119
 30
0.0
 10
6.6140218242
 20
4.867248049
 30
0.0
 10
6.5968790498
 20
4.8557936133
 30
0.0
 10
6.5854246141
 20
4.8386508388
 30
0.0
 10
6.5827431055
 20
4.8251699847
 30
0.0
 10
6.5827431055
 20
4.8184295576
 30
0.0
 11
6.6857431055
 21
4.8184295576
 31
0.0
 11
6.6818229014
 21
4.8381377544
 31
0.0
 11
6.6706591047
 21
4.8548455568
 31
0.0
 11
6.6539513022
 21
4.8660093535
 31
0.0
 11
6.6342431055
 21
4.8699295576
 31
0.0
 11
6.6145349087
 21
4.8660093535
 31
0.0
 11
6.5978271062
 21
4.8548455568
 31
0.0
 11
6.5866633096
 21
4.8381377544
 31
0.0
 11
6.5827431055
 21
4.8184295576
 31
0.0
  0
SPLINE
  5
44A
100
AcDbEntity
  8
0
100
AcDbSpline
 62
7
  6
CONTINUOUS
 70
0
 71
3
 72
15
 73
11
 74
9
 42
0.0000001
 43
0.0000001
 44
0.0000000001
 12
0.0
 22
-0.1617702498
 32
0.0
 13
0.0
 23
0.1617702498
 33
0.0
 40
0.0
 40
0.0
 40
0.0
 40
0.0
 40
0.125
 40
0.25
 40
0.375
 40
0.5
 40
0.625
 40
0.75
 40
0.875
 40
1.0
 40
1.0
 40
1.0
 40
1.0
 10
6.6857431055
 20
3.6434295576
 30
0.0
 10
6.6857431055
 20
3.6366891305
 30
0.0
 10
6.6830615969
 20
3.6232082764
 30
0.0
 10
6.6716071612
 20
3.6060655019
 30
0.0
 10
6.6544643867
 20
3.5946110662
 30
0.0
 10
6.6342431055
 20
3.5905888033
 30
0.0
 10
6.6140218242
 20
3.5946110662
 30
0.0
 10
6.5968790498
 20
3.6060655019
 30
0.0
 10
6.5854246141
 20
3.6232082764
 30
0.0
 10
6.5827431055
 20
3.6366891305
 30
0.0
 10
6.5827431055
 20
3.6434295576
 30
0.0
 11
6.6857431055
 21
3.6434295576
 31
0.0
 11
6.6818229014
 21
3.6237213608
 31
0.0
 11
6.6706591047
 21
3.6070135584
 31
0.0
 11
6.6539513022
 21
3.5958497617
 31
0.0
 11
6.6342431055
 21
3.5919295576
 31
0.0
 11
6.6145349087
 21
3.5958497617
 31
0.0
 11
6.5978271062
 21
3.6070135584
 31
0.0
 11
6.5866633096
 21
3.6237213608
 31
0.0
 11
6.5827431055
 21
3.6434295576
 31
0.0
  0
SPLINE
  5
44B
100
AcDbEntity
  8
0
100
AcDbSpline
 62
7
  6
CONTINUOUS
 70
0
 71
3
 72
15
 73
11
 74
9
 42
0.0000001
 43
0.0000001
 44
0.0000000001
 12
0.0
 22
0.1617702498
 32
0.0
 13
0.0
 23
-0.1617702498
 33
0.0
 40
0.0
 40
0.0
 40
0.0
 40
0.0
 40
0.125
 40
0.25
 40
0.375
 40
0.5
 40
0.625
 40
0.75
 40
0.875
 40
1.0
 40
1.0
 40
1.0
 40
1.0
 10
5.5357431055
 20
4.8184295576
 30
0.0
 10
5.5357431055
 20
4.8251699847
 30
0.0
 10
5.5330615969
 20
4.8386508388
 30
0.0
 10
5.5216071612
 20
4.8557936133
 30
0.0
 10
5.5044643867
 20
4.867248049
 30
0.0
 10
5.4842431055
 20
4.8712703119
 30
0.0
 10
5.4640218242
 20
4.867248049
 30
0.0
 10
5.4468790498
 20
4.8557936133
 30
0.0
 10
5.4354246141
 20
4.8386508388
 30
0.0
 10
5.4327431055
 20
4.8251699847
 30
0.0
 10
5.4327431055
 20
4.8184295576
 30
0.0
 11
5.5357431055
 21
4.8184295576
 31
0.0
 11
5.5318229014
 21
4.8381377544
 31
0.0
 11
5.5206591047
 21
4.8548455568
 31
0.0
 11
5.5039513022
 21
4.8660093535
 31
0.0
 11
5.4842431055
 21
4.8699295576
 31
0.0
 11
5.4645349087
 21
4.8660093535
 31
0.0
 11
5.4478271062
 21
4.8548455568
 31
0.0
 11
5.4366633096
 21
4.8381377544
 31
0.0
 11
5.4327431055
 21
4.8184295576
 31
0.0
  0
SPLINE
  5
44C
100
AcDbEntity
  8
0
100
AcDbSpline
 62
7
  6
CONTINUOUS
 70
0
 71
3
 72
15
 73
11
 74
9
 42
0.0000001
 43
0.0000001
 44
0.0000000001
 12
0.0
 22
-0.1617702498
 32
0.0
 13
0.0
 23
0.1617702498
 33
0.0
 40
0.0
 40
0.0
 40
0.0
 40
0.0
 40
0.125
 40
0.25
 40
0.375
 40
0.5
 40
0.625
 40
0.75
 40
0.875
 40
1.0
 40
1.0
 40
1.0
 40
1.0
 10
5.5357431055
 20
3.6434295576
 30
0.0
 10
5.5357431055
 20
3.6366891305
 30
0.0
 10
5.5330615969
 20
3.6232082764
 30
0.0
 10
5.5216071612
 20
3.6060655019
 30
0.0
 10
5.5044643867
 20
3.5946110662
 30
0.0
 10
5.4842431055
 20
3.5905888033
 30
0.0
 10
5.4640218242
 20
3.5946110662
 30
0.0
 10
5.4468790498
 20
3.6060655019
 30
0.0
 10
5.4354246141
 20
3.6232082764
 30
0.0
 10
5.4327431055
 20
3.6366891305
 30
0.0
 10
5.4327431055
 20
3.6434295576
 30
0.0
 11
5.5357431055
 21
3.6434295576
 31
0.0
 11
5.5318229014
 21
3.6237213608
 31
0.0
 11
5.5206591047
 21
3.6070135584
 31
0.0
 11
5.5039513022
 21
3.5958497617
 31
0.0
 11
5.4842431055
 21
3.5919295576
 31
0.0
 11
5.4645349087
 21
3.5958497617
 31
0.0
 11
5.4478271062
 21
3.6070135584
 31
0.0
 11
5.4366633096
 21
3.6237213608
 31
0.0
 11
5.4327431055
 21
3.6434295576
 31
0.0
  0
SPLINE
  5
44D
100
AcDbEntity
  8
0
100
AcDbSpline
 62
7
  6
CONTINUOUS
 70
0
 71
3
 72
15
 73
11
 74
9
 42
0.0000001
 43
0.0000001
 44
0.0000000001
 12
0.0
 22
0.1617702498
 32
0.0
 13
0.0
 23
-0.1617702498
 33
0.0
 40
0.0
 40
0.0
 40
0.0
 40
0.0
 40
0.125
 40
0.25
 40
0.375
 40
0.5
 40
0.625
 40
0.75
 40
0.875
 40
1.0
 40
1.0
 40
1.0
 40
1.0
 10
3.6947431055
 20
4.9124295576
 30
0.0
 10
3.6947431055
 20
4.9191699847
 30
0.0
 10
3.6920615969
 20
4.9326508388
 30
0.0
 10
3.6806071612
 20
4.9497936133
 30
0.0
 10
3.6634643867
 20
4.961248049
 30
0.0
 10
3.6432431055
 20
4.9652703119
 30
0.0
 10
3.6230218242
 20
4.961248049
 30
0.0
 10
3.6058790498
 20
4.9497936133
 30
0.0
 10
3.5944246141
 20
4.9326508388
 30
0.0
 10
3.5917431055
 20
4.9191699847
 30
0.0
 10
3.5917431055
 20
4.9124295576
 30
0.0
 11
3.6947431055
 21
4.9124295576
 31
0.0
 11
3.6908229014
 21
4.9321377544
 31
0.0
 11
3.6796591047
 21
4.9488455568
 31
0.0
 11
3.6629513022
 21
4.9600093535
 31
0.0
 11
3.6432431055
 21
4.9639295576
 31
0.0
 11
3.6235349087
 21
4.9600093535
 31
0.0
 11
3.6068271062
 21
4.9488455568
 31
0.0
 11
3.5956633096
 21
4.9321377544
 31
0.0
 11
3.5917431055
 21
4.9124295576
 31
0.0
  0
SPLINE
  5
44E
100
AcDbEntity
  8
0
100
AcDbSpline
 62
7
  6
CONTINUOUS
 70
0
 71
3
 72
15
 73
11
 74
9
 42
0.0000001
 43
0.0000001
 44
0.0000000001
 12
0.0
 22
-0.1617702498
 32
0.0
 13
0.0
 23
0.1617702498
 33
0.0
 40
0.0
 40
0.0
 40
0.0
 40
0.0
 40
0.125
 40
0.25
 40
0.375
 40
0.5
 40
0.625
 40
0.75
 40
0.875
 40
1.0
 40
1.0
 40
1.0
 40
1.0
 10
3.6947431055
 20
3.5494295576
 30
0.0
 10
3.6947431055
 20
3.5426891305
 30
0.0
 10
3.6920615969
 20
3.5292082764
 30
0.0
 10
3.6806071612
 20
3.5120655019
 30
0.0
 10
3.6634643867
 20
3.5006110662
 30
0.0
 10
3.6432431055
 20
3.4965888033
 30
0.0
 10
3.6230218242
 20
3.5006110662
 30
0.0
 10
3.6058790498
 20
3.5120655019
 30
0.0
 10
3.5944246141
 20
3.5292082764
 30
0.0
 10
3.5917431055
 20
3.5426891305
 30
0.0
 10
3.5917431055
 20
3.5494295576
 30
0.0
 11
3.6947431055
 21
3.5494295576
 31
0.0
 11
3.6908229014
 21
3.5297213608
 31
0.0
 11
3.6796591047
 21
3.5130135584
 31
0.0
 11
3.6629513022
 21
3.5018497617
 31
0.0
 11
3.6432431055
 21
3.4979295576
 31
0.0
 11
3.6235349087
 21
3.5018497617
 31
0.0
 11
3.6068271062
 21
3.5130135584
 31
0.0
 11
3.5956633096
 21
3.5297213608
 31
0.0
 11
3.5917431055
 21
3.5494295576
 31
0.0
  0
SPLINE
  5
44F
100
AcDbEntity
  8
0
100
AcDbSpline
 62
7
  6
CONTINUOUS
 70
0
 71
3
 72
15
 73
11
 74
9
 42
0.0000001
 43
0.0000001
 44
0.0000000001
 12
-0.1684866262
 22
0.3090653096
 32
0.0
 13
0.1684866262
 23
0.3090653096
 33
0.0
 40
0.0
 40
0.0
 40
0.0
 40
0.0
 40
0.1361861867
 40
0.2623602305
 40
0.3825822181
 40
0.50004626
 40
0.6175064396
 40
0.737718306
 40
0.8638418781
 40
1.0
 40
1.0
 40
1.0
 40
1.0
 10
1.9711272794
 20
3.5222905587
 30
0.0
 10
1.9634787624
 20
3.5363207007
 30
0.0
 10
1.9498331701
 20
3.5639752597
 30
0.0
 10
1.9343123726
 20
3.6062024597
 30
0.0
 10
1.9247944176
 20
3.6479618358
 30
0.0
 10
1.9215680159
 20
3.6896704914
 30
0.0
 10
1.9247992444
 20
3.7313775485
 30
0.0
 10
1.9343194961
 20
3.7731285629
 30
0.0
 10
1.9498386122
 20
3.8153451527
 30
0.0
 10
1.9634803386
 20
3.8429913058
 30
0.0
 10
1.9711272794
 20
3.8570185565
 30
0.0
 11
1.9711272794
 21
3.5222905587
 31
0.0
 11
1.9501213098
 21
3.5653817587
 31
0.0
 11
1.9350019665
 21
3.6071432811
 31
0.0
 11
1.9257604923
 21
3.6484409074
 31
0.0
 11
1.9226359391
 21
3.6896708772
 31
0.0
 11
1.9257651625
 21
3.7308991293
 31
0.0
 11
1.9350097978
 21
3.7721923972
 31
0.0
 11
1.9501251919
 21
3.8139364544
 31
0.0
 11
1.9711272794
 21
3.8570185565
 31
0.0
  0
SPLINE
  5
450
100
AcDbEntity
  8
0
100
AcDbSpline
 62
7
  6
CONTINUOUS
 70
0
 71
3
 72
15
 73
11
 74
9
 42
0.0000001
 43
0.0000001
 44
0.0000000001
 12
-0.1783968506
 22
0.654488479
 32
0.0
 13
0.1783968506
 23
0.654488479
 33
0.0
 40
0.0
 40
0.0
 40
0.0
 40
0.0
 40
0.1307633826
 40
0.2558882418
 40
0.378404165
 40
0.500048086
 40
0.6216872073
 40
0.7441908788
 40
0.8692640326
 40
1.0
 40
1.0
 40
1.0
 40
1.0
 10
1.9711272794
 20
3.8962015598
 30
0.0
 10
1.9633513542
 20
3.924729269
 30
0.0
 10
1.9495359604
 20
3.9809537404
 30
0.0
 10
1.9341445762
 20
4.0651810913
 30
0.0
 10
1.9247520854
 20
4.1482267206
 30
0.0
 10
1.921580444
 20
4.2309611442
 30
0.0
 10
1.9247568409
 20
4.3136925983
 30
0.0
 10
1.9341517026
 20
4.3967222765
 30
0.0
 10
1.9495415708
 20
4.4809288248
 30
0.0
 10
1.9633529845
 20
4.5371358272
 30
0.0
 10
1.9711272794
 20
4.5656575554
 30
0.0
 11
1.9711272794
 21
3.8962015598
 31
0.0
 11
1.9501213098
 21
3.9823839597
 31
0.0
 11
1.9350019665
 21
4.0659070046
 31
0.0
 11
1.9257604923
 21
4.1485022571
 31
0.0
 11
1.9226359391
 21
4.2309621968
 31
0.0
 11
1.9257651625
 21
4.3134187011
 31
0.0
 11
1.9350097978
 21
4.3960052367
 31
0.0
 11
1.9501251919
 21
4.4794933512
 31
0.0
 11
1.9711272794
 21
4.5656575554
 31
0.0
  0
SPLINE
  5
451
100
AcDbEntity
  8
0
100
AcDbSpline
 62
7
  6
CONTINUOUS
 70
0
 71
3
 72
15
 73
11
 74
9
 42
0.0000001
 43
0.0000001
 44
0.0000000001
 12
-0.1684866262
 22
0.3090653096
 32
0.0
 13
0.1684866262
 23
0.3090653096
 33
0.0
 40
0.0
 40
0.0
 40
0.0
 40
0.0
 40
0.1361861867
 40
0.2623602305
 40
0.3825822181
 40
0.50004626
 40
0.6175064396
 40
0.737718306
 40
0.8638418781
 40
1.0
 40
1.0
 40
1.0
 40
1.0
 10
1.9711272794
 20
4.6048405587
 30
0.0
 10
1.9634787624
 20
4.6188707007
 30
0.0
 10
1.9498331701
 20
4.6465252597
 30
0.0
 10
1.9343123726
 20
4.6887524597
 30
0.0
 10
1.9247944176
 20
4.7305118358
 30
0.0
 10
1.9215680159
 20
4.7722204914
 30
0.0
 10
1.9247992444
 20
4.8139275485
 30
0.0
 10
1.9343194961
 20
4.8556785629
 30
0.0
 10
1.9498386122
 20
4.8978951527
 30
0.0
 10
1.9634803386
 20
4.9255413058
 30
0.0
 10
1.9711272794
 20
4.9395685565
 30
0.0
 11
1.9711272794
 21
4.6048405587
 31
0.0
 11
1.9501213098
 21
4.6479317587
 31
0.0
 11
1.9350019665
 21
4.6896932811
 31
0.0
 11
1.9257604923
 21
4.7309909074
 31
0.0
 11
1.9226359391
 21
4.7722208772
 31
0.0
 11
1.9257651625
 21
4.8134491293
 31
0.0
 11
1.9350097978
 21
4.8547423972
 31
0.0
 11
1.9501251919
 21
4.8964864544
 31
0.0
 11
1.9711272794
 21
4.9395685565
 31
0.0
  0
SPLINE
  5
452
100
AcDbEntity
  8
0
100
AcDbSpline
 62
7
  6
CONTINUOUS
 70
0
 71
3
 72
21
 73
17
 74
15
 42
0.0000001
 43
0.0000001
 44
0.0000000001
 12
0.0
 22
0.4710338279
 32
0.0
 13
0.0
 23
-0.4710338279
 33
0.0
 40
0.0
 40
0.0
 40
0.0
 40
0.0
 40
0.0653835157
 40
0.1348107965
 40
0.2057985002
 40
0.2771432694
 40
0.3512957435
 40
0.4263132183
 40
0.4999419717
 40
0.573651305
 40
0.6487790885
 40
0.7228794825
 40
0.7941696487
 40
0.8653149167
 40
0.9347377438
 40
1.0
 40
1.0
 40
1.0
 40
1.0
 10
4.9167431055
 20
3.9504295576
 30
0.0
 10
4.9167431055
 20
3.9606955068
 30
0.0
 10
4.9195603199
 20
3.9819364099
 30
0.0
 10
4.9314269943
 20
4.0122879946
 30
0.0
 10
4.950194734
 20
4.0400481169
 30
0.0
 10
4.9748449892
 20
4.0637981796
 30
0.0
 10
5.0044631944
 20
4.0822430855
 30
0.0
 10
5.0377449422
 20
4.0939360704
 30
0.0
 10
5.0727280179
 20
4.0979068266
 30
0.0
 10
5.1077300928
 20
4.0939421897
 30
0.0
 10
5.1410327464
 20
4.0822395155
 30
0.0
 10
5.1706484161
 20
4.0637903052
 30
0.0
 10
5.1953044088
 20
4.0400353601
 30
0.0
 10
5.2140779569
 20
4.0122586753
 30
0.0
 10
5.2259338458
 20
3.981897299
 30
0.0
 10
5.2287431055
 20
3.9606764677
 30
0.0
 10
5.2287431055
 20
3.9504295576
 30
0.0
 11
4.9167431055
 21
3.9504295576
 31
0.0
 11
4.9206416459
 21
3.9809796608
 31
0.0
 11
4.9324000109
 21
4.011495243
 31
0.0
 11
4.9510566488
 21
4.0392441819
 31
0.0
 11
4.9752406421
 21
4.0625783681
 31
0.0
 11
5.0049023785
 21
4.0810220443
 31
0.0
 11
5.0382533358
 21
4.0926980955
 31
0.0
 11
5.0727156123
 21
4.0965926053
 31
0.0
 11
5.1072165074
 21
4.0927018307
 31
0.0
 11
5.1406158231
 21
4.0810066625
 31
0.0
 11
5.1702540903
 21
4.0625717003
 31
0.0
 11
5.1944198848
 21
4.0392556942
 31
0.0
 11
5.2131138413
 21
4.0114424132
 31
0.0
 11
5.2248587206
 21
3.9809238859
 31
0.0
 11
5.2287431055
 21
3.9504295576
 31
0.0
  0
SPLINE
  5
453
100
AcDbEntity
  8
0
100
AcDbSpline
 62
7
  6
CONTINUOUS
 70
0
 71
3
 72
14
 73
10
 74
8
 42
0.0000001
 43
0.0000001
 44
0.0000000001
 12
0.0585839176
 22
-0.1752146368
 32
0.0
 13
0.1843037563
 23
-0.0
 33
0.0
 40
0.0
 40
0.0
 40
0.0
 40
0.0
 40
0.0929676929
 40
0.2261458656
 40
0.3526202964
 40
0.4914682949
 40
0.6537548009
 40
0.8292163787
 40
1.0
 40
1.0
 40
1.0
 40
1.0
 10
5.9072280927
 20
3.993263466
 30
0.0
 10
5.9090435633
 20
3.9878336992
 30
0.0
 10
5.9145553601
 20
3.9749901296
 30
0.0
 10
5.9271014691
 20
3.9570801754
 30
0.0
 10
5.9452749489
 20
3.9404403207
 30
0.0
 10
5.9678137688
 20
3.9266585364
 30
0.0
 10
5.9952616095
 20
3.9160425749
 30
0.0
 10
6.0259521361
 20
3.9095994048
 30
0.0
 10
6.0472510845
 20
3.9081963353
 30
0.0
 10
6.0577431055
 20
3.9081963353
 30
0.0
 11
5.9072280927
 21
3.993263466
 31
0.0
 11
5.914003633
 21
3.9775032133
 31
0.0
 11
5.928024776
 21
3.9573568431
 31
0.0
 11
5.9451389617
 21
3.9415313146
 31
0.0
 11
5.9668909266
 21
3.9280513016
 31
0.0
 11
5.9947180456
 21
3.9170849754
 31
0.0
 11
6.0263378488
 21
3.9103064045
 31
0.0
 11
6.0577431055
 21
3.9081963353
 31
0.0
  0
SPLINE
  5
454
100
AcDbEntity
  8
0
100
AcDbSpline
 62
7
  6
CONTINUOUS
 70
0
 71
3
 72
14
 73
10
 74
8
 42
0.0000001
 43
0.0000001
 44
0.0000000001
 12
-0.0000279945
 22
0.2364214857
 32
0.0
 13
-0.2356699464
 23
0.0
 33
0.0
 40
0.0
 40
0.0
 40
0.0
 40
0.0
 40
0.0687489006
 40
0.2120428139
 40
0.3639693217
 40
0.5226197744
 40
0.6835061065
 40
0.8428074984
 40
1.0
 40
1.0
 40
1.0
 40
1.0
 10
6.2137407575
 20
3.9589295266
 30
0.0
 10
6.213740116
 20
3.9643474323
 30
0.0
 10
6.2125825727
 20
3.9810616028
 30
0.0
 10
6.204868594
 20
4.0089098098
 30
0.0
 10
6.1871956807
 20
4.040258596
 30
0.0
 10
6.1618675916
 20
4.0677285304
 30
0.0
 10
6.1304495663
 20
4.0890330602
 30
0.0
 10
6.0950557368
 20
4.1024170075
 30
0.0
 10
6.0700916216
 20
4.1054532362
 30
0.0
 10
6.0577431055
 20
4.1054532362
 30
0.0
 11
6.2137407575
 21
3.9589295266
 31
0.0
 11
6.2126387824
 21
3.9751340947
 31
0.0
 11
6.2038174131
 21
4.0077316559
 31
0.0
 11
6.1863587647
 21
4.0389911932
 31
0.0
 11
6.1610510726
 21
4.0665133439
 31
0.0
 11
6.1296560964
 21
4.0877732613
 31
0.0
 11
6.0945196981
 21
4.1009973534
 31
0.0
 11
6.0577431055
 21
4.1054532362
 31
0.0
  0
SPLINE
  5
455
100
AcDbEntity
  8
0
100
AcDbSpline
 62
7
  6
CONTINUOUS
 70
0
 71
3
 72
21
 73
17
 74
15
 42
0.0000001
 43
0.0000001
 44
0.0000000001
 12
0.0
 22
-0.4710338279
 32
0.0
 13
0.0
 23
0.4710338279
 33
0.0
 40
0.0
 40
0.0
 40
0.0
 40
0.0
 40
0.0653835157
 40
0.1348107965
 40
0.2057985002
 40
0.2771432694
 40
0.3512957435
 40
0.4263132183
 40
0.4999419717
 40
0.573651305
 40
0.6487790885
 40
0.7228794825
 40
0.7941696487
 40
0.8653149167
 40
0.9347377438
 40
1.0
 40
1.0
 40
1.0
 40
1.0
 10
5.2287431055
 20
4.5114295576
 30
0.0
 10
5.2287431055
 20
4.5011636084
 30
0.0
 10
5.2259258911
 20
4.4799227052
 30
0.0
 10
5.2140592167
 20
4.4495711206
 30
0.0
 10
5.195291477
 20
4.4218109983
 30
0.0
 10
5.1706412217
 20
4.3980609356
 30
0.0
 10
5.1410230165
 20
4.3796160297
 30
0.0
 10
5.1077412687
 20
4.3679230448
 30
0.0
 10
5.0727581931
 20
4.3639522886
 30
0.0
 10
5.0377561182
 20
4.3679169255
 30
0.0
 10
5.0044534645
 20
4.3796195997
 30
0.0
 10
4.9748377949
 20
4.39806881
 30
0.0
 10
4.9501818022
 20
4.4218237551
 30
0.0
 10
4.931408254
 20
4.4496004399
 30
0.0
 10
4.9195523652
 20
4.4799618162
 30
0.0
 10
4.9167431055
 20
4.5011826475
 30
0.0
 10
4.9167431055
 20
4.5114295576
 30
0.0
 11
5.2287431055
 21
4.5114295576
 31
0.0
 11
5.2248445651
 21
4.4808794544
 31
0.0
 11
5.2130862
 21
4.4503638722
 31
0.0
 11
5.1944295621
 21
4.4226149333
 31
0.0
 11
5.1702455689
 21
4.3992807471
 31
0.0
 11
5.1405838325
 21
4.3808370709
 31
0.0
 11
5.1072328752
 21
4.3691610197
 31
0.0
 11
5.0727705987
 21
4.3652665099
 31
0.0
 11
5.0382697036
 21
4.3691572845
 31
0.0
 11
5.0048703878
 21
4.3808524527
 31
0.0
 11
4.9752321207
 21
4.3992874149
 31
0.0
 11
4.9510663261
 21
4.422603421
 31
0.0
 11
4.9323723696
 21
4.450416702
 31
0.0
 11
4.9206274903
 21
4.4809352293
 31
0.0
 11
4.9167431055
 21
4.5114295576
 31
0.0
  0
SPLINE
  5
456
100
AcDbEntity
  8
0
100
AcDbSpline
 62
7
  6
CONTINUOUS
 70
0
 71
3
 72
22
 73
18
 74
16
 42
0.0000001
 43
0.0000001
 44
0.0000000001
 12
-0.3040819439
 22
-0.087200038
 32
0.0
 13
-0.3040819456
 23
0.0872000381
 33
0.0
 40
0.0
 40
0.0
 40
0.0
 40
0.0
 40
0.0112402048
 40
0.0443132072
 40
0.0973528238
 40
0.1674136132
 40
0.2518511552
 40
0.3464837379
 40
0.4483056004
 40
0.5518970859
 40
0.65378485
 40
0.7485070394
 40
0.8329240116
 40
0.9029154362
 40
0.9558139325
 40
0.988796882
 40
1.0
 40
1.0
 40
1.0
 40
1.0
 10
6.2137431055
 20
4.7749295576
 30
0.0
 10
6.212603791
 20
4.7746028422
 30
0.0
 10
6.2081087299
 20
4.7733267679
 30
0.0
 10
6.1982038628
 20
4.770628134
 30
0.0
 10
6.182225032
 20
4.7666366151
 30
0.0
 10
6.160831354
 20
4.7620062842
 30
0.0
 10
6.1349367651
 20
4.7575247849
 30
0.0
 10
6.105517498
 20
4.7539643303
 30
0.0
 10
6.0739201904
 20
4.7519955003
 30
0.0
 10
6.0414949467
 20
4.7519975001
 30
0.0
 10
6.0098815188
 20
4.75397184
 30
0.0
 10
5.9804487443
 20
4.7575393948
 30
0.0
 10
5.9545550666
 20
4.7620258892
 30
0.0
 10
5.9331859553
 20
4.7666544697
 30
0.0
 10
5.9172382788
 20
4.7706398798
 30
0.0
 10
5.9073608137
 20
4.7733314677
 30
0.0
 10
5.9028786608
 20
4.7746039202
 30
0.0
 10
5.9017431055
 20
4.7749295576
 30
0.0
 11
6.2137431055
 21
4.7749295576
 31
0.0
 11
6.2103225486
 21
4.7739585499
 31
0.0
 11
6.2002280305
 21
4.7712090722
 31
0.0
 11
6.1839489843
 21
4.7671458608
 31
0.0
 11
6.162286145
 21
4.7624643609
 31
0.0
 11
6.1359647625
 21
4.7579197165
 31
0.0
 11
6.1062443448
 21
4.7543341527
 31
0.0
 11
6.0740960501
 21
4.7523386281
 31
0.0
 11
6.0413260817
 21
4.7523406417
 31
0.0
 11
6.0091572621
 21
4.7543419993
 31
0.0
 11
5.9794093553
 21
4.7579363663
 31
0.0
 11
5.9530952626
 21
4.7624849837
 31
0.0
 11
5.9314546192
 21
4.7671653096
 31
0.0
 11
5.9152192903
 21
4.7712193298
 31
0.0
 11
5.9051523677
 21
4.7739617235
 31
0.0
 11
5.9017431055
 21
4.7749295576
 31
0.0
  0
SPLINE
  5
457
100
AcDbEntity
  8
0
100
AcDbSpline
 62
7
  6
CONTINUOUS
 70
0
 71
3
 72
21
 73
17
 74
15
 42
0.0000001
 43
0.0000001
 44
0.0000000001
 12
-0.3045147811
 22
-0.0846780167
 32
0.0
 13
-0.3045147926
 23
0.0846780178
 33
0.0
 40
0.0
 40
0.0
 40
0.0
 40
0.0
 40
0.0127918792
 40
0.0512480602
 40
0.111899435
 40
0.1899182433
 40
0.2848358817
 40
0.3908234973
 40
0.4999130685
 40
0.6091246555
 40
0.7152660928
 40
0.8101091407
 40
0.888069225
 40
0.9488421261
 40
0.98725453
 40
1.0
 40
1.0
 40
1.0
 40
1.0
 10
5.2287431055
 20
4.7919295576
 30
0.0
 10
5.2274446667
 20
4.7915684939
 30
0.0
 10
5.222238413
 20
4.7901374301
 30
0.0
 10
5.2108332729
 20
4.7871496648
 30
0.0
 10
5.1926698885
 20
4.7828548574
 30
0.0
 10
5.168529419
 20
4.7780361618
 30
0.0
 10
5.1394636237
 20
4.7736175175
 30
0.0
 10
5.1069294419
 20
4.7705320751
 30
0.0
 10
5.0727577634
 20
4.7694342537
 30
0.0
 10
5.0385697448
 20
4.7705303371
 30
0.0
 10
5.0060144251
 20
4.7736182831
 30
0.0
 10
4.9769466751
 20
4.7780382663
 30
0.0
 10
4.952807428
 20
4.7828566813
 30
0.0
 10
4.9346421447
 20
4.7871522308
 30
0.0
 10
4.9232339096
 20
4.7901412024
 30
0.0
 10
4.9180368335
 20
4.7915698039
 30
0.0
 10
4.9167431055
 20
4.7919295576
 30
0.0
 11
5.2287431055
 21
4.7919295576
 31
0.0
 11
5.2248445651
 21
4.7908579941
 31
0.0
 11
5.2130862
 21
4.7877788947
 31
0.0
 11
5.1944295621
 21
4.7833719471
 31
0.0
 11
5.1702455689
 21
4.77855327
 31
0.0
 11
5.1405838325
 21
4.7740569499
 31
0.0
 11
5.1072328752
 21
4.7709059869
 31
0.0
 11
5.0727705987
 21
4.769803384
 31
0.0
 11
5.0382697036
 21
4.7709049417
 31
0.0
 11
5.0048703878
 21
4.7740609467
 31
0.0
 11
4.9752321207
 21
4.7785547873
 31
0.0
 11
4.9510663261
 21
4.7833698156
 31
0.0
 11
4.9323723696
 21
4.7877858618
 31
0.0
 11
4.9206274903
 21
4.7908618396
 31
0.0
 11
4.9167431055
 21
4.7919295576
 31
0.0
  0
SPLINE
  5
458
100
AcDbEntity
  8
0
100
AcDbSpline
 62
7
  6
CONTINUOUS
 70
0
 71
3
 72
14
 73
10
 74
8
 42
0.0000001
 43
0.0000001
 44
0.0000000001
 12
-0.2356699621
 22
0.0
 32
0.0
 13
-0.0000279664
 23
-0.2364215015
 33
0.0
 40
0.0
 40
0.0
 40
0.0
 40
0.0
 40
0.1571909513
 40
0.3164918315
 40
0.4773778229
 40
0.6360277272
 40
0.7879550267
 40
0.9312501117
 40
1.0
 40
1.0
 40
1.0
 40
1.0
 10
6.0577431055
 20
4.1054532362
 30
0.0
 10
6.0453947103
 20
4.1054532362
 30
0.0
 10
6.0204307584
 20
4.1024170578
 30
0.0
 10
5.9850370697
 20
4.089033273
 30
0.0
 10
5.953619067
 20
4.0677289052
 30
0.0
 10
5.9282908783
 20
4.040259074
 30
0.0
 10
5.9106177838
 20
4.0089102557
 30
0.0
 10
5.9029036643
 20
3.9810618377
 30
0.0
 10
5.9017460942
 20
3.9643474956
 30
0.0
 10
5.9017454534
 20
3.9589295117
 30
0.0
 11
6.0577431055
 21
4.1054532362
 31
0.0
 11
6.0209668678
 21
4.1009974405
 31
0.0
 11
5.9858305446
 21
4.0877734841
 31
0.0
 11
5.9544355644
 21
4.0665137114
 31
0.0
 11
5.929127851
 21
4.0389917524
 31
0.0
 11
5.9116689872
 21
4.007732119
 31
0.0
 11
5.902847458
 21
3.9751343126
 31
0.0
 11
5.9017454534
 21
3.9589295117
 31
0.0
  0
SPLINE
  5
459
100
AcDbEntity
  8
0
100
AcDbSpline
 62
7
  6
CONTINUOUS
 70
0
 71
3
 72
15
 73
11
 74
9
 42
0.0000001
 43
0.0000001
 44
0.0000000001
 12
-0.1776976074
 22
-0.1919433897
 32
0.0
 13
-0.1776976074
 23
0.1919433897
 33
0.0
 40
0.0
 40
0.0
 40
0.0
 40
0.0
 40
0.1219803248
 40
0.2481110128
 40
0.375175626
 40
0.499936385
 40
0.6248484377
 40
0.7522012932
 40
0.8782781668
 40
1.0
 40
1.0
 40
1.0
 40
1.0
 10
6.0841733421
 20
4.4080129295
 30
0.0
 10
6.0769481381
 20
4.4002084905
 30
0.0
 10
6.0606433808
 20
4.3857455434
 30
0.0
 10
6.0321785584
 20
4.369190496
 30
0.0
 10
6.0006539441
 20
4.3587641745
 30
0.0
 10
5.9677468071
 20
4.3552378761
 30
0.0
 10
5.9348135428
 20
4.3587639859
 30
0.0
 10
5.9032585683
 20
4.3692103306
 30
0.0
 10
5.8748034656
 20
4.3857773993
 30
0.0
 10
5.8585227617
 20
4.4002250291
 30
0.0
 10
5.8513128689
 20
4.4080129295
 30
0.0
 11
6.0841733421
 21
4.4080129295
 31
0.0
 11
6.0603071244
 21
4.3868370183
 31
0.0
 11
6.0317758151
 21
4.3702709635
 31
0.0
 11
6.0002092069
 21
4.3598691518
 31
0.0
 11
5.9677598651
 21
4.3564058799
 31
0.0
 11
5.935270866
 21
4.3598704738
 31
0.0
 11
5.9036355639
 21
4.370304721
 31
0.0
 11
5.8751241131
 21
4.386876937
 31
0.0
 11
5.8513128689
 21
4.4080129295
 31
0.0
  0
SPLINE
  5
45A
100
AcDbEntity
  8
0
100
AcDbSpline
 62
7
  6
CONTINUOUS
 70
0
 71
3
 72
21
 73
17
 74
15
 42
0.0000001
 43
0.0000001
 44
0.0000000001
 12
0.3040774248
 22
0.0871987774
 32
0.0
 13
0.3040774371
 23
-0.0871987788
 33
0.0
 40
0.0
 40
0.0
 40
0.0
 40
0.0
 40
0.0128206509
 40
0.051344473
 40
0.1120538733
 40
0.1900844867
 40
0.2849732186
 40
0.3908967955
 40
0.4999087321
 40
0.6090441281
 40
0.7151251097
 40
0.8099422192
 40
0.8879152096
 40
0.9487466933
 40
0.9872261657
 40
1.0
 40
1.0
 40
1.0
 40
1.0
 10
6.9197431055
 20
3.6869295576
 30
0.0
 10
6.9210425956
 20
3.687302206
 30
0.0
 10
6.9262513855
 20
3.6887787879
 30
0.0
 10
6.9376584014
 20
3.6918612844
 30
0.0
 10
6.9558199886
 20
3.6962930365
 30
0.0
 10
6.9799545967
 20
3.7012676698
 30
0.0
 10
7.0090147824
 20
3.7058327129
 30
0.0
 10
7.0415495512
 20
3.7090230558
 30
0.0
 10
7.0757272115
 20
3.7101588437
 30
0.0
 10
7.1099216192
 20
3.7090250067
 30
0.0
 10
7.1424783899
 20
3.7058320937
 30
0.0
 10
7.1715413229
 20
3.7012655811
 30
0.0
 10
7.1956751875
 20
3.6962911409
 30
0.0
 10
7.2138387783
 20
3.6918585911
 30
0.0
 10
7.225248836
 20
3.688774863
 30
0.0
 10
7.2304483605
 20
3.6873008452
 30
0.0
 10
7.2317431055
 20
3.6869295576
 30
0.0
 11
6.9197431055
 21
3.6869295576
 31
0.0
 11
6.9236449775
 21
3.688035608
 31
0.0
 11
6.9354097298
 21
3.691213469
 31
0.0
 11
6.9540678722
 21
3.6957614883
 31
0.0
 11
6.9782452747
 21
3.7007354167
 31
0.0
 11
7.0079003354
 21
3.7053797108
 31
0.0
 11
7.0412488946
 21
3.7086366794
 31
0.0
 11
7.0757142158
 21
3.709776988
 31
0.0
 11
7.1102186533
 21
3.7086379117
 31
0.0
 11
7.1436167324
 21
3.7053757266
 31
0.0
 11
7.173249245
 21
3.7007338888
 31
0.0
 11
7.1974087982
 21
3.6957636574
 31
0.0
 11
7.2161043926
 21
3.691206211
 31
0.0
 11
7.2278554941
 21
3.6880316125
 31
0.0
 11
7.2317431055
 21
3.6869295576
 31
0.0
  0
SPLINE
  5
45B
100
AcDbEntity
  8
0
100
AcDbSpline
 62
7
  6
CONTINUOUS
 70
0
 71
3
 72
21
 73
17
 74
15
 42
0.0000001
 43
0.0000001
 44
0.0000000001
 12
0.0
 22
0.4715020815
 32
0.0
 13
0.0
 23
-0.4715020815
 33
0.0
 40
0.0
 40
0.0
 40
0.0
 40
0.0
 40
0.0653823878
 40
0.1348525828
 40
0.2058865618
 40
0.2772517135
 40
0.3513969475
 40
0.4263723312
 40
0.4999390886
 40
0.5735872554
 40
0.6486752132
 40
0.7227704744
 40
0.7940820123
 40
0.8652744107
 40
0.9347397279
 40
1.0
 40
1.0
 40
1.0
 40
1.0
 10
6.9197431055
 20
3.9589295576
 30
0.0
 10
6.9197431055
 20
3.9692055349
 30
0.0
 10
6.9225662851
 20
3.9904735114
 30
0.0
 10
6.9344382941
 20
4.0208710024
 30
0.0
 10
6.9532035243
 20
4.0486919396
 30
0.0
 10
6.9778442207
 20
4.0725128851
 30
0.0
 10
7.0074526386
 20
4.0910305247
 30
0.0
 10
7.0407343551
 20
4.1027815069
 30
0.0
 10
7.0757267494
 20
4.1067746436
 30
0.0
 10
7.1107386106
 20
4.1027881986
 30
0.0
 10
7.144042169
 20
4.0910275655
 30
0.0
 10
7.1736488596
 20
4.0725053051
 30
0.0
 10
7.1982957524
 20
4.0486790275
 30
0.0
 10
7.2170668442
 20
4.0208412807
 30
0.0
 10
7.2289279583
 20
3.9904340277
 30
0.0
 10
7.2317431055
 20
3.9691863423
 30
0.0
 10
7.2317431055
 20
3.9589295576
 30
0.0
 11
6.9197431055
 21
3.9589295576
 31
0.0
 11
6.9236449775
 21
3.9895095638
 31
0.0
 11
6.9354097298
 21
4.0200792057
 31
0.0
 11
6.9540678722
 21
4.0478934574
 31
0.0
 11
6.9782452747
 21
4.071296366
 31
0.0
 11
7.0079003354
 21
4.0898099625
 31
0.0
 11
7.0412488946
 21
4.1015389991
 31
0.0
 11
7.0757142158
 21
4.1054532335
 31
0.0
 11
7.1102186533
 21
4.1015432787
 31
0.0
 11
7.1436167324
 21
4.089795061
 31
0.0
 11
7.173249245
 21
4.0712898408
 31
0.0
 11
7.1974087982
 21
4.0479048384
 31
0.0
 11
7.2161043926
 21
4.020025766
 31
0.0
 11
7.2278554941
 21
3.989453338
 31
0.0
 11
7.2317431055
 21
3.9589295576
 31
0.0
  0
SPLINE
  5
45C
100
AcDbEntity
  8
0
100
AcDbSpline
 62
7
  6
CONTINUOUS
 70
0
 71
3
 72
21
 73
17
 74
15
 42
0.0000001
 43
0.0000001
 44
0.0000000001
 12
0.0
 22
-0.4715020815
 32
0.0
 13
-0.0
 23
0.4715020815
 33
0.0
 40
0.0
 40
0.0
 40
0.0
 40
0.0
 40
0.0653823878
 40
0.1348525828
 40
0.2058865618
 40
0.2772517135
 40
0.3513969475
 40
0.4263723312
 40
0.4999390886
 40
0.5735872554
 40
0.6486752132
 40
0.7227704744
 40
0.7940820123
 40
0.8652744107
 40
0.9347397279
 40
1.0
 40
1.0
 40
1.0
 40
1.0
 10
7.2317431055
 20
4.5029295576
 30
0.0
 10
7.2317431055
 20
4.4926535803
 30
0.0
 10
7.2289199258
 20
4.4713856038
 30
0.0
 10
7.2170479168
 20
4.4409881127
 30
0.0
 10
7.1982826866
 20
4.4131671756
 30
0.0
 10
7.1736419903
 20
4.3893462301
 30
0.0
 10
7.1440335724
 20
4.3708285905
 30
0.0
 10
7.1107518559
 20
4.3590776083
 30
0.0
 10
7.0757594615
 20
4.3550844716
 30
0.0
 10
7.0407476003
 20
4.3590709166
 30
0.0
 10
7.0074440419
 20
4.3708315497
 30
0.0
 10
6.9778373513
 20
4.3893538101
 30
0.0
 10
6.9531904586
 20
4.4131800876
 30
0.0
 10
6.9344193668
 20
4.4410178345
 30
0.0
 10
6.9225582526
 20
4.4714250874
 30
0.0
 10
6.9197431055
 20
4.4926727729
 30
0.0
 10
6.9197431055
 20
4.5029295576
 30
0.0
 11
7.2317431055
 21
4.5029295576
 31
0.0
 11
7.2278412335
 21
4.4723495514
 31
0.0
 11
7.2160764811
 21
4.4417799095
 31
0.0
 11
7.1974183387
 21
4.4139656578
 31
0.0
 11
7.1732409363
 21
4.3905627492
 31
0.0
 11
7.1435858755
 21
4.3720491527
 31
0.0
 11
7.1102373163
 21
4.3603201161
 31
0.0
 11
7.0757719952
 21
4.3564058817
 31
0.0
 11
7.0412675576
 21
4.3603158365
 31
0.0
 11
7.0078694785
 21
4.3720640542
 31
0.0
 11
6.9782369659
 21
4.3905692744
 31
0.0
 11
6.9540774128
 21
4.4139542768
 31
0.0
 11
6.9353818184
 21
4.4418333492
 31
0.0
 11
6.9236307169
 21
4.4724057772
 31
0.0
 11
6.9197431055
 21
4.5029295576
 31
0.0
  0
SPLINE
  5
45D
100
AcDbEntity
  8
0
100
AcDbSpline
 62
7
  6
CONTINUOUS
 70
0
 71
3
 72
21
 73
17
 74
15
 42
0.0000001
 43
0.0000001
 44
0.0000000001
 12
-0.3040774249
 22
-0.0871987774
 32
0.0
 13
-0.3040774371
 23
0.0871987788
 33
0.0
 40
0.0
 40
0.0
 40
0.0
 40
0.0
 40
0.0128206509
 40
0.051344473
 40
0.1120538733
 40
0.1900844867
 40
0.2849732186
 40
0.3908967955
 40
0.4999087321
 40
0.6090441281
 40
0.7151251097
 40
0.8099422192
 40
0.8879152096
 40
0.9487466933
 40
0.9872261657
 40
1.0
 40
1.0
 40
1.0
 40
1.0
 10
7.2317431055
 20
4.7749295576
 30
0.0
 10
7.2304436153
 20
4.7745569092
 30
0.0
 10
7.2252348255
 20
4.7730803273
 30
0.0
 10
7.2138278095
 20
4.7699978307
 30
0.0
 10
7.1956662224
 20
4.7655660787
 30
0.0
 10
7.1715316142
 20
4.7605914454
 30
0.0
 10
7.1424714285
 20
4.7560264023
 30
0.0
 10
7.1099366598
 20
4.7528360594
 30
0.0
 10
7.0757589994
 20
4.7517002715
 30
0.0
 10
7.0415645918
 20
4.7528341085
 30
0.0
 10
7.009007821
 20
4.7560270214
 30
0.0
 10
6.9799448881
 20
4.7605935341
 30
0.0
 10
6.9558110234
 20
4.7655679743
 30
0.0
 10
6.9376474326
 20
4.7700005241
 30
0.0
 10
6.926237375
 20
4.7730842522
 30
0.0
 10
6.9210378504
 20
4.77455827
 30
0.0
 10
6.9197431055
 20
4.7749295576
 30
0.0
 11
7.2317431055
 21
4.7749295576
 31
0.0
 11
7.2278412335
 21
4.7738235072
 31
0.0
 11
7.2160764811
 21
4.7706456462
 31
0.0
 11
7.1974183387
 21
4.7660976269
 31
0.0
 11
7.1732409363
 21
4.7611236985
 31
0.0
 11
7.1435858755
 21
4.7564794044
 31
0.0
 11
7.1102373163
 21
4.7532224358
 31
0.0
 11
7.0757719952
 21
4.7520821272
 31
0.0
 11
7.0412675576
 21
4.7532212035
 31
0.0
 11
7.0078694785
 21
4.7564833886
 31
0.0
 11
6.9782369659
 21
4.7611252264
 31
0.0
 11
6.9540774128
 21
4.7660954578
 31
0.0
 11
6.9353818184
 21
4.7706529042
 31
0.0
 11
6.9236307169
 21
4.7738275027
 31
0.0
 11
6.9197431055
 21
4.7749295576
 31
0.0
  0
SPLINE
  5
45E
100
AcDbEntity
  8
0
100
AcDbSpline
 62
7
  6
CONTINUOUS
 70
0
 71
3
 72
14
 73
10
 74
8
 42
0.0000001
 43
0.0000001
 44
0.0000000001
 12
0.1842725367
 22
0.0
 32
0.0
 13
0.0586427511
 23
0.1751781312
 33
0.0
 40
0.0
 40
0.0
 40
0.0
 40
0.0
 40
0.1671421859
 40
0.334267543
 40
0.4921819958
 40
0.6365583379
 40
0.7694985463
 40
0.9016979883
 40
1.0
 40
1.0
 40
1.0
 40
1.0
 10
6.0577431055
 20
3.9081963353
 30
0.0
 10
6.068009677
 20
3.9081963353
 30
0.0
 10
6.088567842
 20
3.9095218088
 30
0.0
 10
6.1182942898
 20
3.9155604859
 30
0.0
 10
6.1454610634
 20
3.9256100172
 30
0.0
 10
6.1686552292
 20
3.9392161768
 30
0.0
 10
6.1875517338
 20
3.9560902806
 30
0.0
 10
6.2006391727
 20
3.9744270359
 30
0.0
 10
6.2063265237
 20
3.9874932405
 30
0.0
 10
6.2082480905
 20
3.9932333614
 30
0.0
 11
6.0577431055
 21
3.9081963353
 31
0.0
 11
6.088476538
 21
3.9102158755
 31
0.0
 11
6.1186337375
 21
3.9164588493
 31
0.0
 11
6.1458665842
 21
3.9267126846
 31
0.0
 11
6.1687273907
 21
3.940321064
 31
0.0
 11
6.1869104407
 21
3.9567372433
 31
0.0
 11
6.2010003173
 21
3.9766098469
 31
0.0
 11
6.2082480905
 21
3.9932333614
 31
0.0
  0
SPLINE
  5
45F
100
AcDbEntity
  8
0
100
AcDbSpline
 62
7
  6
CONTINUOUS
 70
0
 71
3
 72
11
 73
7
 74
5
 42
0.0000001
 43
0.0000001
 44
0.0000000001
 12
-0.0287792104
 22
0.0774631847
 32
0.0
 13
-0.0724751596
 23
0.039378752
 33
0.0
 40
0.0
 40
0.0
 40
0.0
 40
0.0
 40
0.2342990949
 40
0.6023516675
 40
0.9743434777
 40
1.0
 40
1.0
 40
1.0
 40
1.0
 10
5.2221292585
 20
4.4717881138
 30
0.0
 10
5.2198816109
 20
4.4778379651
 30
0.0
 10
5.2126495261
 20
4.4928492622
 30
0.0
 10
5.195334743
 20
4.5137033607
 30
0.0
 10
5.1780303105
 20
4.5259640216
 30
0.0
 10
5.1684601647
 20
4.5312525759
 30
0.0
 10
5.1678403445
 20
4.5315893498
 30
0.0
 11
5.2221292585
 21
4.4717881138
 31
0.0
 11
5.2137300892
 21
4.4891953615
 31
0.0
 11
5.1945208594
 21
4.5126322628
 31
0.0
 11
5.1696926794
 21
4.5305656435
 31
0.0
 11
5.1678403445
 21
4.5315893498
 31
0.0
  0
SPLINE
  5
460
100
AcDbEntity
  8
0
100
AcDbSpline
 62
7
  6
CONTINUOUS
 70
0
 71
3
 72
8
 73
4
 74
2
 42
0.0000001
 43
0.0000001
 44
0.0000000001
 12
-0.0230503323
 22
0.012524199
 32
0.0
 13
-0.0247539064
 23
0.0086739047
 33
0.0
 40
0.0
 40
0.0
 40
0.0
 40
0.0
 40
1.0
 40
1.0
 40
1.0
 40
1.0
 10
5.1678403445
 20
4.5315893498
 30
0.0
 10
5.1601569004
 20
4.5357640828
 30
0.0
 10
5.1521125984
 20
4.53925547
 30
0.0
 10
5.1438612963
 20
4.5421467715
 30
0.0
 11
5.1678403445
 21
4.5315893498
 31
0.0
 11
5.1438612963
 21
4.5421467715
 31
0.0
  0
SPLINE
  5
461
100
AcDbEntity
  8
0
100
AcDbSpline
 62
7
  6
CONTINUOUS
 70
0
 71
3
 72
11
 73
7
 74
5
 42
0.0000001
 43
0.0000001
 44
0.0000000001
 12
-0.0835135498
 22
0.0292636063
 32
0.0
 13
-0.088214964
 23
-0.0060128794
 33
0.0
 40
0.0
 40
0.0
 40
0.0
 40
0.0
 40
0.0482843065
 40
0.4324158469
 40
0.8164174643
 40
1.0
 40
1.0
 40
1.0
 40
1.0
 10
5.1438612963
 20
4.5421467715
 30
0.0
 10
5.142517165
 20
4.5426177625
 30
0.0
 10
5.1304304444
 20
4.5466931691
 30
0.0
 10
5.1068791859
 20
4.5520308785
 30
0.0
 10
5.0788291117
 20
4.5540421685
 30
0.0
 10
5.0620993948
 20
4.5534873203
 30
0.0
 10
5.0567011525
 20
4.5531193671
 30
0.0
 11
5.1438612963
 21
4.5421467715
 31
0.0
 11
5.1398130886
 21
4.5435123325
 31
0.0
 11
5.1067551677
 21
4.5511817633
 31
0.0
 11
5.0729215707
 21
4.5536627127
 31
0.0
 11
5.0567011525
 21
4.5531193671
 31
0.0
  0
SPLINE
  5
462
100
AcDbEntity
  8
0
100
AcDbSpline
 62
7
  6
CONTINUOUS
 70
0
 71
3
 72
11
 73
7
 74
5
 42
0.0000001
 43
0.0000001
 44
0.0000000001
 12
-0.1005118815
 22
-0.0068510578
 32
0.0
 13
-0.0815610723
 23
-0.0593775756
 33
0.0
 40
0.0
 40
0.0
 40
0.0
 40
0.0
 40
0.1752126149
 40
0.5112425441
 40
0.8345114866
 40
1.0
 40
1.0
 40
1.0
 40
1.0
 10
5.0567011525
 20
4.5531193671
 30
0.0
 10
5.050830836
 20
4.5527192365
 30
0.0
 10
5.0337467292
 20
4.5509013373
 30
0.0
 10
5.0063051287
 20
4.5447476994
 30
0.0
 10
4.9806269063
 20
4.5339658605
 30
0.0
 10
4.9667127589
 20
4.5251466625
 30
0.0
 10
4.9622136187
 20
4.5218712269
 30
0.0
 11
5.0567011525
 21
4.5531193671
 31
0.0
 11
5.0391527647
 21
4.551243907
 31
0.0
 11
5.0061852704
 21
4.543677666
 31
0.0
 11
4.9762844608
 21
4.5308402646
 31
0.0
 11
4.9622136187
 21
4.5218712269
 31
0.0
  0
SPLINE
  5
463
100
AcDbEntity
  8
0
100
AcDbSpline
 62
7
  6
CONTINUOUS
 70
0
 71
3
 72
10
 73
6
 74
4
 42
0.0000001
 43
0.0000001
 44
0.0000000001
 12
-0.0519524089
 22
-0.0378220638
 32
0.0
 13
-0.0224189368
 23
-0.0603256315
 33
0.0
 40
0.0
 40
0.0
 40
0.0
 40
0.0
 40
0.218644388
 40
0.6923407089
 40
1.0
 40
1.0
 40
1.0
 40
1.0
 10
4.9622136187
 20
4.5218712269
 30
0.0
 10
4.9584272511
 20
4.5191146996
 30
0.0
 10
4.9469132333
 20
4.5097372143
 30
0.0
 10
4.9329993628
 20
4.4931319375
 30
0.0
 10
4.9256581801
 20
4.4779801649
 30
0.0
 10
4.9233590487
 20
4.4717935845
 30
0.0
 11
4.9622136187
 21
4.5218712269
 31
0.0
 11
4.9513424761
 21
4.5129804578
 31
0.0
 11
4.9319867382
 21
4.4895746621
 31
0.0
 11
4.9233590487
 21
4.4717935845
 31
0.0
  0
SPLINE
  5
464
100
AcDbEntity
  8
0
100
AcDbSpline
 62
7
  6
CONTINUOUS
 70
0
 71
3
 72
10
 73
6
 74
4
 42
0.0000001
 43
0.0000001
 44
0.0000000001
 12
-0.0211705473
 22
0.0654681682
 32
0.0
 13
-0.0555466
 23
0.0404404433
 33
0.0
 40
0.0
 40
0.0
 40
0.0
 40
0.0
 40
0.3460299511
 40
0.7880717177
 40
1.0
 40
1.0
 40
1.0
 40
1.0
 10
7.2265879634
 20
4.4675876148
 30
0.0
 10
7.2241460822
 20
4.4751389305
 30
0.0
 10
7.216605807
 20
4.4916975078
 30
0.0
 10
7.2018095617
 20
4.5095182543
 30
0.0
 10
7.1901986847
 20
4.5190126971
 30
0.0
 10
7.1862747196
 20
4.5218695216
 30
0.0
 11
7.2265879634
 21
4.4675876148
 31
0.0
 11
7.2167300892
 21
4.4891953615
 31
0.0
 11
7.1975208594
 21
4.5126322628
 31
0.0
 11
7.1862747196
 21
4.5218695216
 31
0.0
  0
SPLINE
  5
465
100
AcDbEntity
  8
0
100
AcDbSpline
 62
7
  6
CONTINUOUS
 70
0
 71
3
 72
11
 73
7
 74
5
 42
0.0000001
 43
0.0000001
 44
0.0000000001
 12
-0.0815635661
 22
0.0593819742
 32
0.0
 13
-0.1005145031
 23
0.0068505011
 33
0.0
 40
0.0
 40
0.0
 40
0.0
 40
0.0
 40
0.1599344038
 40
0.4834331304
 40
0.820561967
 40
1.0
 40
1.0
 40
1.0
 40
1.0
 10
7.1862747196
 20
4.5218695216
 30
0.0
 10
7.1819264461
 20
4.5250352618
 30
0.0
 10
7.1681842482
 20
4.5337878072
 30
0.0
 10
7.1426706484
 20
4.5445989489
 30
0.0
 10
7.11505857
 20
4.5508570114
 30
0.0
 10
7.097797186
 20
4.5527096247
 30
0.0
 10
7.0917851444
 20
4.5531193715
 30
0.0
 11
7.1862747196
 21
4.5218695216
 31
0.0
 11
7.1726926794
 21
4.5305656435
 31
0.0
 11
7.1428130886
 21
4.5435123325
 31
0.0
 11
7.1097551677
 21
4.5511817633
 31
0.0
 11
7.0917851444
 21
4.5531193715
 31
0.0
  0
SPLINE
  5
466
100
AcDbEntity
  8
0
100
AcDbSpline
 62
7
  6
CONTINUOUS
 70
0
 71
3
 72
11
 73
7
 74
5
 42
0.0000001
 43
0.0000001
 44
0.0000000001
 12
-0.0882286728
 22
0.0060131682
 32
0.0
 13
-0.0835238142
 23
-0.0292727649
 33
0.0
 40
0.0
 40
0.0
 40
0.0
 40
0.0
 40
0.1795193225
 40
0.5626811944
 40
0.9454953778
 40
1.0
 40
1.0
 40
1.0
 40
1.0
 10
7.0917851444
 20
4.5531193715
 30
0.0
 10
7.0865055606
 20
4.5534791981
 30
0.0
 10
7.0699186451
 20
4.5540419233
 30
0.0
 10
7.0420449901
 20
4.5520894451
 30
0.0
 10
7.0183620609
 20
4.5467786699
 30
0.0
 10
7.0061301888
 20
4.5426743866
 30
0.0
 10
7.0046127108
 20
4.5421425529
 30
0.0
 11
7.0917851444
 21
4.5531193715
 31
0.0
 11
7.0759215707
 21
4.5536627127
 31
0.0
 11
7.0421527647
 21
4.551243907
 31
0.0
 11
7.0091852704
 21
4.543677666
 31
0.0
 11
7.0046127108
 21
4.5421425529
 31
0.0
  0
SPLINE
  5
467
100
AcDbEntity
  8
0
100
AcDbSpline
 62
7
  6
CONTINUOUS
 70
0
 71
3
 72
8
 73
4
 74
2
 42
0.0000001
 43
0.0000001
 44
0.0000000001
 12
-0.0247160444
 22
-0.0086622835
 32
0.0
 13
-0.0230187714
 23
-0.0125015817
 33
0.0
 40
0.0
 40
0.0
 40
0.0
 40
0.0
 40
1.0
 40
1.0
 40
1.0
 40
1.0
 10
7.0046127108
 20
4.5421425529
 30
0.0
 10
6.9963740293
 20
4.5392551251
 30
0.0
 10
6.9883424008
 20
4.5357692725
 30
0.0
 10
6.980669477
 20
4.5316020786
 30
0.0
 11
7.0046127108
 21
4.5421425529
 31
0.0
 11
6.980669477
 21
4.5316020786
 31
0.0
  0
SPLINE
  5
468
100
AcDbEntity
  8
0
100
AcDbSpline
 62
7
  6
CONTINUOUS
 70
0
 71
3
 72
11
 73
7
 74
5
 42
0.0000001
 43
0.0000001
 44
0.0000000001
 12
-0.0763849194
 22
-0.0414849383
 32
0.0
 13
-0.0268182623
 23
-0.0828567544
 33
0.0
 40
0.0
 40
0.0
 40
0.0
 40
0.0
 40
0.0181837931
 40
0.3717521439
 40
0.721809091
 40
1.0
 40
1.0
 40
1.0
 40
1.0
 10
6.980669477
 20
4.5316020786
 30
0.0
 10
6.9802064878
 20
4.5313506274
 30
0.0
 10
6.9707677695
 20
4.5261592055
 30
0.0
 10
6.9535281063
 20
4.5140513243
 30
0.0
 10
6.9350422547
 20
4.4919896928
 30
0.0
 10
6.9273929545
 20
4.4752954633
 30
0.0
 10
6.9249060889
 20
4.4676121314
 30
0.0
 11
6.980669477
 21
4.5316020786
 31
0.0
 11
6.9792844608
 21
4.5308402646
 31
0.0
 11
6.9543424761
 21
4.5129804578
 31
0.0
 11
6.9349867382
 21
4.4895746621
 31
0.0
 11
6.9249060889
 21
4.4676121314
 31
0.0
  0
SPLINE
  5
469
100
AcDbEntity
  8
0
100
AcDbSpline
 62
7
  6
CONTINUOUS
 70
0
 71
3
 72
8
 73
4
 74
2
 42
0.0000001
 43
0.0000001
 44
0.0000000001
 12
-0.0061792465
 22
-0.0017391472
 32
0.0
 13
-0.000000036
 23
0.0000002451
 33
0.0
 40
0.0
 40
0.0
 40
0.0
 40
0.0
 40
1.0
 40
1.0
 40
1.0
 40
1.0
 10
5.8161127141
 20
3.6881660895
 30
0.0
 10
5.8140529653
 20
3.6875863737
 30
0.0
 10
5.811743565
 20
3.6869296032
 30
0.0
 10
5.811743553
 20
3.6869296849
 30
0.0
 11
5.8161127141
 21
3.6881660895
 31
0.0
 11
5.811743553
 21
3.6869296849
 31
0.0
  0
SPLINE
  5
46A
100
AcDbEntity
  8
0
100
AcDbSpline
 62
7
  6
CONTINUOUS
 70
0
 71
3
 72
11
 73
7
 74
5
 42
0.0000001
 43
0.0000001
 44
0.0000000001
 12
-0.0713050121
 22
0.0770214407
 32
0.0
 13
0.0000266359
 23
0.1052924255
 33
0.0
 40
0.0
 40
0.0
 40
0.0
 40
0.0
 40
0.3505137231
 40
0.6829565666
 40
0.9967223608
 40
1.0
 40
1.0
 40
1.0
 40
1.0
 10
5.8513128689
 20
4.4080129295
 30
0.0
 10
5.8429817404
 20
4.4170119535
 30
0.0
 10
5.8286801273
 20
4.4364728087
 30
0.0
 10
5.8150634389
 20
4.4689352385
 30
0.0
 10
5.8117568981
 20
4.4916872475
 30
0.0
 10
5.8117431591
 20
4.5028145109
 30
0.0
 10
5.8117431882
 20
4.5029295478
 30
0.0
 11
5.8513128689
 21
4.4080129295
 31
0.0
 11
5.8296112077
 21
4.4377206576
 31
0.0
 11
5.8162740508
 21
4.4699645309
 31
0.0
 11
5.8117436143
 21
4.5025844428
 31
0.0
 11
5.8117431882
 21
4.5029295478
 31
0.0
  0
SPLINE
  5
46B
100
AcDbEntity
  8
0
100
AcDbSpline
 62
7
  6
CONTINUOUS
 70
0
 71
3
 72
11
 73
7
 74
5
 42
0.0000001
 43
0.0000001
 44
0.0000000001
 12
0.026793649
 22
-0.0828645483
 32
0.0
 13
0.0763788462
 23
-0.0414989618
 33
0.0
 40
0.0
 40
0.0
 40
0.0
 40
0.0
 40
0.2732392096
 40
0.6228165113
 40
0.9759241629
 40
1.0
 40
1.0
 40
1.0
 40
1.0
 10
6.9248974214
 20
3.9942741301
 30
0.0
 10
6.9273377799
 20
3.9867268488
 30
0.0
 10
6.9348786848
 20
3.9701626915
 30
0.0
 10
6.9531560801
 20
3.9481492064
 30
0.0
 10
6.9704669581
 20
3.9358879622
 30
0.0
 10
6.9800339304
 20
3.9306022543
 30
0.0
 10
6.9806468919
 20
3.9302692136
 30
0.0
 11
6.9248974214
 21
3.9942741301
 31
0.0
 11
6.9347480357
 21
3.9726771198
 31
0.0
 11
6.9539753287
 21
3.9492176013
 31
0.0
 11
6.9788149741
 21
3.9312814251
 31
0.0
 11
6.9806468919
 21
3.9302692136
 31
0.0
  0
SPLINE
  5
46C
100
AcDbEntity
  8
0
100
AcDbSpline
 62
7
  6
CONTINUOUS
 70
0
 71
3
 72
8
 73
4
 74
2
 42
0.0000001
 43
0.0000001
 44
0.0000000001
 12
0.0230490184
 22
-0.0125232362
 32
0.0
 13
0.0247523026
 23
-0.008673411
 33
0.0
 40
0.0
 40
0.0
 40
0.0
 40
0.0
 40
1.0
 40
1.0
 40
1.0
 40
1.0
 10
6.9806468919
 20
3.9302692136
 30
0.0
 10
6.9883298981
 20
3.9260948015
 30
0.0
 10
6.9963736631
 20
3.9226036486
 30
0.0
 10
7.0046244306
 20
3.9197125116
 30
0.0
 11
6.9806468919
 21
3.9302692136
 31
0.0
 11
7.0046244306
 21
3.9197125116
 31
0.0
  0
SPLINE
  5
46D
100
AcDbEntity
  8
0
100
AcDbSpline
 62
7
  6
CONTINUOUS
 70
0
 71
3
 72
11
 73
7
 74
5
 42
0.0000001
 43
0.0000001
 44
0.0000000001
 12
0.0835139254
 22
-0.0292639684
 32
0.0
 13
0.0882154289
 23
0.0060129215
 33
0.0
 40
0.0
 40
0.0
 40
0.0
 40
0.0
 40
0.0485300321
 40
0.4325370075
 40
0.8163664567
 40
1.0
 40
1.0
 40
1.0
 40
1.0
 10
7.0046244306
 20
3.9197125116
 30
0.0
 10
7.0059754084
 20
3.9192391178
 30
0.0
 10
7.0180658276
 20
3.9151632463
 30
0.0
 10
7.0416160666
 20
3.9098275848
 30
0.0
 10
7.069659008
 20
3.9078171185
 30
0.0
 10
7.0863852509
 20
3.9083716902
 30
0.0
 10
7.0917850215
 20
3.9087397483
 30
0.0
 11
7.0046244306
 21
3.9197125116
 31
0.0
 11
7.0086933387
 21
3.9183402253
 31
0.0
 11
7.0417413424
 21
3.9106758244
 31
0.0
 11
7.0755600086
 21
3.908196406
 31
0.0
 11
7.0917850215
 21
3.9087397483
 31
0.0
  0
SPLINE
  5
46E
100
AcDbEntity
  8
0
100
AcDbSpline
 62
7
  6
CONTINUOUS
 70
0
 71
3
 72
11
 73
7
 74
5
 42
0.0000001
 43
0.0000001
 44
0.0000000001
 12
0.1005121534
 22
0.0068510882
 32
0.0
 13
0.0815612557
 23
0.0593779459
 33
0.0
 40
0.0
 40
0.0
 40
0.0
 40
0.0
 40
0.1750116643
 40
0.5109250196
 40
0.8341545301
 40
1.0
 40
1.0
 40
1.0
 40
1.0
 10
7.0917850215
 20
3.9087397483
 30
0.0
 10
7.0976486213
 20
3.9091394217
 30
0.0
 10
7.114722217
 20
3.9109554528
 30
0.0
 10
7.1421528132
 20
3.9171031109
 30
0.0
 10
7.1678393954
 20
3.9278824229
 30
0.0
 10
7.1817639716
 20
3.936705516
 30
0.0
 10
7.1862728265
 20
3.9399880371
 30
0.0
 11
7.0917850215
 21
3.9087397483
 31
0.0
 11
7.1093134251
 21
3.9106122785
 31
0.0
 11
7.142270569
 21
3.918171696
 31
0.0
 11
7.1721704723
 21
3.9310014379
 31
0.0
 11
7.1862728265
 21
3.9399880371
 31
0.0
  0
SPLINE
  5
46F
100
AcDbEntity
  8
0
100
AcDbSpline
 62
7
  6
CONTINUOUS
 70
0
 71
3
 72
10
 73
6
 74
4
 42
0.0000001
 43
0.0000001
 44
0.0000000001
 12
0.0555277004
 22
0.0404250862
 32
0.0
 13
0.0211807596
 23
0.0654448181
 33
0.0
 40
0.0
 40
0.0
 40
0.0
 40
0.0
 40
0.2042382661
 40
0.6478767544
 40
1.0
 40
1.0
 40
1.0
 40
1.0
 10
7.1862728265
 20
3.9399880371
 30
0.0
 10
7.1900531202
 20
3.9427401536
 30
0.0
 10
7.2015699266
 20
3.9521183203
 30
0.0
 10
7.2164430851
 20
3.9698657593
 30
0.0
 10
7.2240948415
 20
3.9865679822
 30
0.0
 10
7.2265809208
 20
3.9942495295
 30
0.0
 11
7.1862728265
 21
3.9399880371
 31
0.0
 11
7.1971273801
 21
3.948863626
 31
0.0
 11
7.2165038674
 21
3.9722916469
 31
0.0
 11
7.2265809208
 21
3.9942495295
 31
0.0
  0
SPLINE
  5
470
100
AcDbEntity
  8
0
100
AcDbSpline
 62
7
  6
CONTINUOUS
 70
0
 71
3
 72
11
 73
7
 74
5
 42
0.0000001
 43
0.0000001
 44
0.0000000001
 12
0.0000272007
 22
-0.1052930754
 32
0.0
 13
-0.0713051495
 23
-0.0770215891
 33
0.0
 40
0.0
 40
0.0
 40
0.0
 40
0.0
 40
0.0043025935
 40
0.3175521317
 40
0.6497129078
 40
1.0
 40
1.0
 40
1.0
 40
1.0
 10
6.1237429945
 20
4.5029291353
 30
0.0
 10
6.1237430335
 20
4.5027781242
 30
0.0
 10
6.1237241533
 20
4.4916329867
 30
0.0
 10
6.1204022372
 20
4.4688762871
 30
0.0
 10
6.1067912992
 20
4.436451231
 30
0.0
 10
6.0924990999
 20
4.4170061524
 30
0.0
 10
6.0841733421
 20
4.4080129295
 30
0.0
 11
6.1237429945
 21
4.5029291353
 31
0.0
 11
6.1237422273
 21
4.5024761118
 31
0.0
 11
6.1191979828
 21
4.4699127674
 31
0.0
 11
6.1058632943
 21
4.4376998404
 31
0.0
 11
6.0841733421
 21
4.4080129295
 31
0.0
  0
SPLINE
  5
471
100
AcDbEntity
  8
0
100
AcDbSpline
 62
7
  6
CONTINUOUS
 70
0
 71
3
 72
19
 73
15
 74
13
 42
0.0000001
 43
0.0000001
 44
0.0000000001
 12
-0.1136041185
 22
0.3546741496
 32
0.0
 13
-0.1137111149
 23
-0.3546594787
 33
0.0
 40
0.0
 40
0.0
 40
0.0
 40
0.0
 40
0.0647014196
 40
0.1463694095
 40
0.2289114854
 40
0.3166721412
 40
0.4081304542
 40
0.4995578337
 40
0.5907989493
 40
0.681957271
 40
0.7696537875
 40
0.8523290945
 40
0.9341833257
 40
1.0
 40
1.0
 40
1.0
 40
1.0
 10
6.118676021
 20
4.4673140061
 30
0.0
 10
6.1162259051
 20
4.4749633131
 30
0.0
 10
6.1086676167
 20
4.4916230636
 30
0.0
 10
6.090334743
 20
4.5137033607
 30
0.0
 10
6.0646718111
 20
4.5318862457
 30
0.0
 10
6.0346706484
 20
4.5445989489
 30
0.0
 10
6.0018791859
 20
4.5520308785
 30
0.0
 10
5.9679451845
 20
4.554464067
 30
0.0
 10
5.9340449901
 20
4.5520894451
 30
0.0
 10
5.9013051287
 20
4.5447476994
 30
0.0
 10
5.8712909586
 20
4.5321452714
 30
0.0
 10
5.8455281063
 20
4.5140513243
 30
0.0
 10
5.8269804983
 20
4.4919159906
 30
0.0
 10
5.8193131967
 20
4.4751210768
 30
0.0
 10
5.8168185009
 20
4.467340241
 30
0.0
 11
6.118676021
 21
4.4673140061
 31
0.0
 11
6.1087300892
 21
4.4891953615
 31
0.0
 11
6.0895208594
 21
4.5126322628
 31
0.0
 11
6.0646926794
 21
4.5305656435
 31
0.0
 11
6.0348130886
 21
4.5435123325
 31
0.0
 11
6.0017551677
 21
4.5511817633
 31
0.0
 11
5.9679215707
 21
4.5536627127
 31
0.0
 11
5.9341527647
 21
4.551243907
 31
0.0
 11
5.9011852704
 21
4.543677666
 31
0.0
 11
5.8712844608
 21
4.5308402646
 31
0.0
 11
5.8463424761
 21
4.5129804578
 31
0.0
 11
5.8269867382
 21
4.4895746621
 31
0.0
 11
5.8168185009
 21
4.467340241
 31
0.0
  0
SPLINE
  5
472
100
AcDbEntity
  8
0
100
AcDbSpline
 62
7
  6
CONTINUOUS
 70
0
 71
3
 72
10
 73
6
 74
4
 42
0.0000001
 43
0.0000001
 44
0.0000000001
 12
0.0224127739
 22
-0.0603304197
 32
0.0
 13
0.0519574309
 23
-0.0378275365
 33
0.0
 40
0.0
 40
0.0
 40
0.0
 40
0.0
 40
0.3006212245
 40
0.7736495094
 40
1.0
 40
1.0
 40
1.0
 40
1.0
 10
4.9233563763
 20
3.9900726086
 30
0.0
 10
4.9256022948
 20
3.9840270737
 30
0.0
 10
4.9328352166
 20
3.9690106347
 30
0.0
 10
4.9466757984
 20
3.9523408939
 30
0.0
 10
4.9582910201
 20
3.9428438679
 30
0.0
 10
4.9622112168
 20
3.9399897741
 30
0.0
 11
4.9233563763
 21
3.9900726086
 31
0.0
 11
4.9317480357
 21
3.9726771198
 31
0.0
 11
4.9509753287
 21
3.9492176013
 31
0.0
 11
4.9622112168
 21
3.9399897741
 31
0.0
  0
SPLINE
  5
473
100
AcDbEntity
  8
0
100
AcDbSpline
 62
7
  6
CONTINUOUS
 70
0
 71
3
 72
11
 73
7
 74
5
 42
0.0000001
 43
0.0000001
 44
0.0000000001
 12
0.0815637824
 22
-0.0593824002
 32
0.0
 13
0.100514834
 23
-0.0068505172
 33
0.0
 40
0.0
 40
0.0
 40
0.0
 40
0.0
 40
0.1601807613
 40
0.4836453228
 40
0.8206655313
 40
1.0
 40
1.0
 40
1.0
 40
1.0
 10
4.9622112168
 20
3.9399897741
 30
0.0
 10
4.9665661997
 20
3.9368191347
 30
0.0
 10
4.9803153957
 20
3.9280639776
 30
0.0
 10
5.0058336799
 20
3.9172549284
 30
0.0
 10
5.0334381336
 20
3.9110007236
 30
0.0
 10
5.0506925119
 20
3.9091492553
 30
0.0
 10
5.0567011034
 20
3.908739744
 30
0.0
 11
4.9622112168
 21
3.9399897741
 31
0.0
 11
4.9758149741
 21
3.9312814251
 31
0.0
 11
5.0056933387
 21
3.9183402253
 31
0.0
 11
5.0387413424
 21
3.9106758244
 31
0.0
 11
5.0567011034
 21
3.908739744
 31
0.0
  0
SPLINE
  5
474
100
AcDbEntity
  8
0
100
AcDbSpline
 62
7
  6
CONTINUOUS
 70
0
 71
3
 72
11
 73
7
 74
5
 42
0.0000001
 43
0.0000001
 44
0.0000000001
 12
0.0882293614
 22
-0.0060132095
 32
0.0
 13
0.0835243382
 23
0.029273275
 33
0.0
 40
0.0
 40
0.0
 40
0.0
 40
0.0
 40
0.179465147
 40
0.5624476403
 40
0.9451270999
 40
1.0
 40
1.0
 40
1.0
 40
1.0
 10
5.0567011034
 20
3.908739744
 30
0.0
 10
5.0619791352
 20
3.9083800235
 30
0.0
 10
5.0785592824
 20
3.90781736
 30
0.0
 10
5.1064223286
 20
3.9097676586
 30
0.0
 10
5.1301075739
 20
3.9150759206
 30
0.0
 10
5.1423464479
 20
3.9191813639
 30
0.0
 10
5.1438741888
 20
3.9197168004
 30
0.0
 11
5.0567011034
 21
3.908739744
 31
0.0
 11
5.0725600086
 21
3.908196406
 31
0.0
 11
5.1063134251
 21
3.9106122785
 31
0.0
 11
5.139270569
 21
3.918171696
 31
0.0
 11
5.1438741888
 21
3.9197168004
 31
0.0
  0
SPLINE
  5
475
100
AcDbEntity
  8
0
100
AcDbSpline
 62
7
  6
CONTINUOUS
 70
0
 71
3
 72
8
 73
4
 74
2
 42
0.0000001
 43
0.0000001
 44
0.0000000001
 12
0.0247136832
 22
0.0086615526
 32
0.0
 13
0.0230168418
 23
0.012500166
 33
0.0
 40
0.0
 40
0.0
 40
0.0
 40
0.0
 40
1.0
 40
1.0
 40
1.0
 40
1.0
 10
5.1438741888
 20
3.9197168004
 30
0.0
 10
5.1521120832
 20
3.9226039846
 30
0.0
 10
5.1601429235
 20
3.9260894905
 30
0.0
 10
5.1678152041
 20
3.9302562125
 30
0.0
 11
5.1438741888
 21
3.9197168004
 31
0.0
 11
5.1678152041
 21
3.9302562125
 31
0.0
  0
SPLINE
  5
476
100
AcDbEntity
  8
0
100
AcDbSpline
 62
7
  6
CONTINUOUS
 70
0
 71
3
 72
11
 73
7
 74
5
 42
0.0000001
 43
0.0000001
 44
0.0000000001
 12
0.072505535
 22
0.0393768714
 32
0.0
 13
0.0287948501
 23
0.0774866513
 33
0.0
 40
0.0
 40
0.0
 40
0.0
 40
0.0
 40
0.0187440813
 40
0.3913976638
 40
0.7605562905
 40
1.0
 40
1.0
 40
1.0
 40
1.0
 10
5.1678152041
 20
3.9302562125
 30
0.0
 10
5.1682682207
 20
3.9305022403
 30
0.0
 10
5.1777016164
 20
3.9356891715
 30
0.0
 10
5.1949468206
 20
3.9477950387
 30
0.0
 10
5.2124856939
 20
3.9687233495
 30
0.0
 10
5.2198295406
 20
3.9838827236
 30
0.0
 10
5.2221277892
 20
3.9900672873
 30
0.0
 11
5.1678152041
 21
3.9302562125
 31
0.0
 11
5.1691704723
 21
3.9310014379
 31
0.0
 11
5.1941273801
 21
3.948863626
 31
0.0
 11
5.2135038674
 21
3.9722916469
 31
0.0
 11
5.2221277892
 21
3.9900672873
 31
0.0
  0
SPLINE
  5
477
100
AcDbEntity
  8
0
100
AcDbSpline
 62
7
  6
CONTINUOUS
 70
0
 71
3
 72
21
 73
17
 74
15
 42
0.0000001
 43
0.0000001
 44
0.0000000001
 12
0.3045147811
 22
0.0846780167
 32
0.0
 13
0.3045147926
 23
-0.0846780178
 33
0.0
 40
0.0
 40
0.0
 40
0.0
 40
0.0
 40
0.0127918792
 40
0.0512480602
 40
0.111899435
 40
0.1899182433
 40
0.2848358817
 40
0.3908234973
 40
0.4999130685
 40
0.6091246555
 40
0.7152660928
 40
0.8101091407
 40
0.888069225
 40
0.9488421261
 40
0.98725453
 40
1.0
 40
1.0
 40
1.0
 40
1.0
 10
4.9167431055
 20
3.6699295576
 30
0.0
 10
4.9180415442
 20
3.6702906212
 30
0.0
 10
4.923247798
 20
3.6717216851
 30
0.0
 10
4.9346529381
 20
3.6747094504
 30
0.0
 10
4.9528163225
 20
3.6790042578
 30
0.0
 10
4.976956792
 20
3.6838229534
 30
0.0
 10
5.0060225872
 20
3.6882415977
 30
0.0
 10
5.038556769
 20
3.6913270401
 30
0.0
 10
5.0727284475
 20
3.6924248615
 30
0.0
 10
5.1069164661
 20
3.6913287781
 30
0.0
 10
5.1394717858
 20
3.6882408321
 30
0.0
 10
5.1685395358
 20
3.6838208488
 30
0.0
 10
5.1926787829
 20
3.6790024339
 30
0.0
 10
5.2108440662
 20
3.6747068844
 30
0.0
 10
5.2222523013
 20
3.6717179128
 30
0.0
 10
5.2274493774
 20
3.6702893113
 30
0.0
 10
5.2287431055
 20
3.6699295576
 30
0.0
 11
4.9167431055
 21
3.6699295576
 31
0.0
 11
4.9206416459
 21
3.6710011211
 31
0.0
 11
4.9324000109
 21
3.6740802205
 31
0.0
 11
4.9510566488
 21
3.6784871681
 31
0.0
 11
4.9752406421
 21
3.6833058452
 31
0.0
 11
5.0049023785
 21
3.6878021653
 31
0.0
 11
5.0382533358
 21
3.6909531283
 31
0.0
 11
5.0727156123
 21
3.6920557312
 31
0.0
 11
5.1072165074
 21
3.6909541735
 31
0.0
 11
5.1406158231
 21
3.6877981685
 31
0.0
 11
5.1702540903
 21
3.6833043279
 31
0.0
 11
5.1944198848
 21
3.6784892996
 31
0.0
 11
5.2131138413
 21
3.6740732534
 31
0.0
 11
5.2248587206
 21
3.6709972756
 31
0.0
 11
5.2287431055
 21
3.6699295576
 31
0.0
  0
SPLINE
  5
478
100
AcDbEntity
  8
0
100
AcDbSpline
 62
7
  6
CONTINUOUS
 70
0
 71
3
 72
10
 73
6
 74
4
 42
0.0000001
 43
0.0000001
 44
0.0000000001
 12
-0.0000003144
 22
0.0000021634
 32
0.0
 13
0.0407517821
 23
0.0090305037
 33
0.0
 40
0.0
 40
0.0
 40
0.0
 40
0.0
 40
0.1123165965
 40
0.4501917668
 40
1.0
 40
1.0
 40
1.0
 40
1.0
 10
5.811743553
 20
3.6869296849
 30
0.0
 10
5.8117435412
 20
3.6869297659
 30
0.0
 10
5.8209967117
 20
3.6895623343
 30
0.0
 10
5.8306379136
 20
3.6920891625
 30
0.0
 10
5.843214315
 20
3.6951368274
 30
0.0
 10
5.8506828701
 20
3.6967918425
 30
0.0
 11
5.811743553
 21
3.6869296849
 31
0.0
 11
5.8160548286
 21
3.68815029
 31
0.0
 11
5.8291767454
 21
3.6916702173
 31
0.0
 11
5.8506828701
 21
3.6967918425
 31
0.0
  0
SPLINE
  5
479
100
AcDbEntity
  8
0
100
AcDbSpline
 62
7
  6
CONTINUOUS
 70
0
 71
3
 72
8
 73
4
 74
2
 42
0.0000001
 43
0.0000001
 44
0.0000000001
 12
0.0006300418
 22
0.0001396159
 32
0.0
 13
0.0006285401
 23
0.0001385178
 33
0.0
 40
0.0
 40
0.0
 40
0.0
 40
0.0
 40
1.0
 40
1.0
 40
1.0
 40
1.0
 10
5.8506828701
 20
3.6967918425
 30
0.0
 10
5.8508928841
 20
3.6968383811
 30
0.0
 10
5.8511026441
 20
3.6968847357
 30
0.0
 10
5.8513121574
 20
3.6969309083
 30
0.0
 11
5.8506828701
 21
3.6967918425
 31
0.0
 11
5.8513121574
 21
3.6969309083
 31
0.0
  0
SPLINE
  5
47A
100
AcDbEntity
  8
0
100
AcDbSpline
 62
7
  6
CONTINUOUS
 70
0
 71
3
 72
14
 73
10
 74
8
 42
0.0000001
 43
0.0000001
 44
0.0000000001
 12
0.2373309307
 22
0.0523030301
 32
0.0
 13
0.2374411585
 23
-0.0523334476
 33
0.0
 40
0.0
 40
0.0
 40
0.0
 40
0.0
 40
0.1215239292
 40
0.2659375375
 40
0.4207935871
 40
0.5786879284
 40
0.7335652966
 40
0.8780298724
 40
1.0
 40
1.0
 40
1.0
 40
1.0
 10
5.8513121574
 20
3.6969309083
 30
0.0
 10
5.8609259532
 20
3.6990495982
 30
0.0
 10
5.8808279301
 20
3.7028472696
 30
0.0
 10
5.9137216662
 20
3.707380054
 30
0.0
 10
5.9493502256
 20
3.7098807095
 30
0.0
 10
5.9860129515
 20
3.7098850902
 30
0.0
 10
6.0216475263
 20
3.7073923881
 30
0.0
 10
6.0545835251
 20
3.7028605402
 30
0.0
 10
6.0745203869
 20
3.6990584399
 30
0.0
 10
6.084173963
 20
3.6969307341
 30
0.0
 11
5.8513121574
 21
3.6969309083
 31
0.0
 11
5.8793000606
 21
3.7023255733
 31
0.0
 11
5.9128888679
 21
3.706898082
 31
0.0
 11
5.9491492971
 21
3.709445397
 31
0.0
 11
5.9862122777
 21
3.7094498261
 31
0.0
 11
6.0224782859
 21
3.7069105312
 31
0.0
 11
6.0560798906
 21
3.7023433417
 31
0.0
 11
6.084173963
 21
3.6969307341
 31
0.0
  0
SPLINE
  5
47B
100
AcDbEntity
  8
0
100
AcDbSpline
 62
7
  6
CONTINUOUS
 70
0
 71
3
 72
8
 73
4
 74
2
 42
0.0000001
 43
0.0000001
 44
0.0000000001
 12
0.0005432617
 22
-0.0001197381
 32
0.0
 13
0.000544388
 23
-0.0001205593
 33
0.0
 40
0.0
 40
0.0
 40
0.0
 40
0.0
 40
1.0
 40
1.0
 40
1.0
 40
1.0
 10
6.084173963
 20
3.6969307341
 30
0.0
 10
6.0843550503
 20
3.6968908214
 30
0.0
 10
6.0845363228
 20
3.6968507725
 30
0.0
 10
6.0847177855
 20
3.696810586
 30
0.0
 11
6.084173963
 21
3.6969307341
 31
0.0
 11
6.0847177855
 21
3.696810586
 31
0.0
  0
SPLINE
  5
47C
100
AcDbEntity
  8
0
100
AcDbSpline
 62
7
  6
CONTINUOUS
 70
0
 71
3
 72
10
 73
6
 74
4
 42
0.0000001
 43
0.0000001
 44
0.0000000001
 12
0.0408401281
 22
-0.0090443906
 32
0.0
 13
-0.0000003492
 23
-0.0000017309
 33
0.0
 40
0.0
 40
0.0
 40
0.0
 40
0.0
 40
0.5493652756
 40
0.8873069962
 40
1.0
 40
1.0
 40
1.0
 40
1.0
 10
6.0847177855
 20
3.696810586
 30
0.0
 10
6.0921965016
 20
3.6951543613
 30
0.0
 10
6.104796979
 20
3.692102163
 30
0.0
 10
6.1144443069
 20
3.6895750425
 30
0.0
 10
6.1237428933
 20
3.6869296866
 30
0.0
 10
6.1237428802
 20
3.6869296215
 30
0.0
 11
6.0847177855
 21
3.696810586
 31
0.0
 11
6.1062505762
 21
3.6916853463
 31
0.0
 11
6.11940182
 21
3.6881585509
 31
0.0
 11
6.1237428802
 21
3.6869296215
 31
0.0
  0
SPLINE
  5
47D
100
AcDbEntity
  8
0
100
AcDbSpline
 62
7
  6
CONTINUOUS
 70
0
 71
3
 72
14
 73
10
 74
8
 42
0.0000001
 43
0.0000001
 44
0.0000000001
 12
0.0
 22
0.2059066524
 32
0.0
 13
0.2055736706
 23
0.0151334396
 33
0.0
 40
0.0
 40
0.0
 40
0.0
 40
0.0
 40
0.14121379
 40
0.2831136085
 40
0.4278361056
 40
0.5780253531
 40
0.7390288825
 40
0.9076575344
 40
1.0
 40
1.0
 40
1.0
 40
1.0
 10
4.9167431055
 20
4.5114295576
 30
0.0
 10
4.9167431055
 20
4.5211218438
 30
0.0
 10
4.9191946894
 20
4.5406617042
 30
0.0
 10
4.9306743967
 20
4.5680785367
 30
0.0
 10
4.9494561025
 20
4.5918925261
 30
0.0
 10
4.9744977599
 20
4.6111184223
 30
0.0
 10
5.0045378794
 20
4.6251624496
 30
0.0
 10
5.0327637197
 20
4.6323063514
 30
0.0
 10
5.0505875748
 20
4.6344208327
 30
0.0
 10
5.0569153013
 20
4.6348866524
 30
0.0
 11
4.9167431055
 21
4.5114295576
 31
0.0
 11
4.9204687545
 21
4.5402667429
 31
0.0
 11
4.9317342867
 21
4.567225714
 31
0.0
 11
4.9500682327
 21
4.5907175463
 31
0.0
 11
4.9744605127
 21
4.6097272845
 31
0.0
 11
5.0043973094
 21
4.623968888
 31
0.0
 11
5.0380199436
 21
4.6326360195
 31
0.0
 11
5.0569153013
 21
4.6348866524
 31
0.0
  0
SPLINE
  5
47E
100
AcDbEntity
  8
0
100
AcDbSpline
 62
7
  6
CONTINUOUS
 70
0
 71
3
 72
10
 73
6
 74
4
 42
0.0000001
 43
0.0000001
 44
0.0000000001
 12
0.0845839371
 22
0.0062267016
 32
0.0
 13
0.0799642541
 23
-0.0283919848
 33
0.0
 40
0.0
 40
0.0
 40
0.0
 40
0.0
 40
0.1866020215
 40
0.5980921989
 40
1.0
 40
1.0
 40
1.0
 40
1.0
 10
5.0569153013
 20
4.6348866524
 30
0.0
 10
5.0621764792
 20
4.6352739574
 30
0.0
 10
5.0790857933
 20
4.63588967
 30
0.0
 10
5.1073581606
 20
4.6336259859
 30
0.0
 10
5.1297504199
 20
4.627996023
 30
0.0
 10
5.1404631724
 20
4.6241923696
 30
0.0
 11
5.0569153013
 21
4.6348866524
 31
0.0
 11
5.0727277524
 21
4.6354664329
 31
0.0
 11
5.107474389
 21
4.6326346746
 31
0.0
 11
5.1404631724
 21
4.6241923696
 31
0.0
  0
SPLINE
  5
47F
100
AcDbEntity
  8
0
100
AcDbSpline
 62
7
  6
CONTINUOUS
 70
0
 71
3
 72
13
 73
9
 74
7
 42
0.0000001
 43
0.0000001
 44
0.0000000001
 12
0.1442536687
 22
-0.0512184853
 32
0.0
 13
0.0
 23
-0.1528346265
 33
0.0
 40
0.0
 40
0.0
 40
0.0
 40
0.0
 40
0.004769515
 40
0.2215838071
 40
0.4237404077
 40
0.6190708985
 40
0.8099736832
 40
1.0
 40
1.0
 40
1.0
 40
1.0
 10
5.1404631724
 20
4.6241923696
 30
0.0
 10
5.1406925125
 20
4.6241109405
 30
0.0
 10
5.1513397877
 20
4.620306121
 30
0.0
 10
5.1710277027
 20
4.6110931645
 30
0.0
 10
5.1960663549
 20
4.5918585798
 30
0.0
 10
5.2148357273
 20
4.5680395885
 30
0.0
 10
5.2262976435
 20
4.5406246166
 30
0.0
 10
5.2287431055
 20
4.5211104246
 30
0.0
 10
5.2287431055
 20
4.5114295576
 30
0.0
 11
5.1404631724
 21
4.6241923696
 31
0.0
 11
5.1411507072
 21
4.6239466763
 31
0.0
 11
5.1710688953
 21
4.6097008002
 31
0.0
 11
5.1954336502
 21
4.5907020057
 31
0.0
 11
5.2137906267
 21
4.5671597309
 31
0.0
 11
5.2250263435
 21
4.5402333483
 31
0.0
 11
5.2287431055
 21
4.5114295576
 31
0.0
  0
SPLINE
  5
480
100
AcDbEntity
  8
0
100
AcDbSpline
 62
7
  6
CONTINUOUS
 70
0
 71
3
 72
20
 73
16
 74
14
 42
0.0000001
 43
0.0000001
 44
0.0000000001
 12
0.0001123903
 22
0.4442813608
 32
0.0
 13
0.0001147732
 23
-0.4442832469
 33
0.0
 40
0.0
 40
0.0
 40
0.0
 40
0.0
 40
0.0707535767
 40
0.1421299673
 40
0.2160561295
 40
0.2939084326
 40
0.3751574521
 40
0.4582972508
 40
0.5419833513
 40
0.625119264
 40
0.7063590626
 40
0.7841980865
 40
0.8581123953
 40
0.929484573
 40
1.0
 40
1.0
 40
1.0
 40
1.0
 10
5.8117431882
 20
4.5029295478
 30
0.0
 10
5.8117458389
 20
4.5134077129
 30
0.0
 10
5.814603339
 20
4.5344839476
 30
0.0
 10
5.8281088622
 20
4.5639062178
 30
0.0
 10
5.8502437905
 20
4.5888965949
 30
0.0
 10
5.8792732848
 20
4.6079847241
 30
0.0
 10
5.9129867569
 20
4.6206357014
 30
0.0
 10
5.9492678836
 20
4.6268771387
 30
0.0
 10
5.9863427416
 20
4.6268666745
 30
0.0
 10
6.0226183611
 20
4.6206039565
 30
0.0
 10
6.0563197567
 20
4.6079311772
 30
0.0
 10
6.0853296609
 20
4.588821858
 30
0.0
 10
6.1074380606
 20
4.5638134331
 30
0.0
 10
6.1208979276
 20
4.534412133
 30
0.0
 10
6.1237402967
 20
4.5133720763
 30
0.0
 10
6.1237429945
 20
4.5029291353
 30
0.0
 11
5.8117431882
 21
4.5029295478
 31
0.0
 11
5.8160843784
 21
4.5339650686
 31
0.0
 11
5.8292356043
 21
4.5627107702
 31
0.0
 11
5.850768372
 21
4.5873740804
 31
0.0
 11
5.8794062418
 21
4.6065754848
 31
0.0
 11
5.9130078234
 21
4.6194500901
 31
0.0
 11
5.9492738127
 21
4.6258192071
 31
0.0
 11
5.9863367793
 21
4.62580853
 31
0.0
 11
6.0225972011
 21
4.6194177005
 31
0.0
 11
6.0561860116
 21
4.6065212019
 31
0.0
 11
6.0848032194
 21
4.5872995625
 31
0.0
 11
6.1063093751
 21
4.5626200064
 31
0.0
 11
6.1194313329
 21
4.5338629835
 31
0.0
 11
6.1237429945
 21
4.5029291353
 31
0.0
  0
SPLINE
  5
481
100
AcDbEntity
  8
0
100
AcDbSpline
 62
7
  6
CONTINUOUS
 70
0
 71
3
 72
13
 73
9
 74
7
 42
0.0000001
 43
0.0000001
 44
0.0000000001
 12
0.0
 22
-0.1528319342
 32
0.0
 13
-0.144250765
 23
-0.0512190954
 33
0.0
 40
0.0
 40
0.0
 40
0.0
 40
0.0
 40
0.1902739373
 40
0.3814945692
 40
0.5764470297
 40
0.7788019339
 40
0.9957175235
 40
1.0
 40
1.0
 40
1.0
 40
1.0
 10
5.2287431055
 20
3.9504295576
 30
0.0
 10
5.2287431055
 20
3.9407362463
 30
0.0
 10
5.2262908603
 20
3.9211931576
 30
0.0
 10
5.2148087386
 20
3.8937752255
 30
0.0
 10
5.1960248616
 20
3.8699616573
 30
0.0
 10
5.1709831647
 20
3.8507374894
 30
0.0
 10
5.1513006178
 20
3.8415366833
 30
0.0
 10
5.1406713263
 20
3.8377406617
 30
0.0
 10
5.1404654094
 20
3.8376675469
 30
0.0
 11
5.2287431055
 21
3.9504295576
 31
0.0
 11
5.2250166582
 21
3.9215893748
 31
0.0
 11
5.2137470317
 21
3.8946250674
 31
0.0
 11
5.1954142435
 21
3.8711378662
 31
0.0
 11
5.1710200799
 21
3.8521283876
 31
0.0
 11
5.1410827691
 21
3.8378880247
 31
0.0
 11
5.1404654094
 21
3.8376675469
 31
0.0
  0
SPLINE
  5
482
100
AcDbEntity
  8
0
100
AcDbSpline
 62
7
  6
CONTINUOUS
 70
0
 71
3
 72
10
 73
6
 74
4
 42
0.0000001
 43
0.0000001
 44
0.0000000001
 12
-0.0799666421
 22
-0.0283937424
 32
0.0
 13
-0.0845868314
 23
0.0062269894
 33
0.0
 40
0.0
 40
0.0
 40
0.0
 40
0.0
 40
0.4020745537
 40
0.8130580138
 40
1.0
 40
1.0
 40
1.0
 40
1.0
 10
5.1404654094
 20
3.8376675469
 30
0.0
 10
5.1297478921
 20
3.8338620797
 30
0.0
 10
5.1073642619
 20
3.8282349086
 30
0.0
 10
5.0790913572
 20
3.82597003
 30
0.0
 10
5.0621861127
 20
3.8265844364
 30
0.0
 10
5.0569151693
 20
3.826972465
 30
0.0
 11
5.1404654094
 21
3.8376675469
 31
0.0
 11
5.1074618456
 21
3.8292223636
 31
0.0
 11
5.0727569806
 21
3.8263926822
 31
0.0
 11
5.0569151693
 21
3.826972465
 31
0.0
  0
SPLINE
  5
483
100
AcDbEntity
  8
0
100
AcDbSpline
 62
7
  6
CONTINUOUS
 70
0
 71
3
 72
14
 73
10
 74
8
 42
0.0000001
 43
0.0000001
 44
0.0000000001
 12
-0.2055739708
 22
0.0151336434
 32
0.0
 13
0.0
 23
0.2059065739
 33
0.0
 40
0.0
 40
0.0
 40
0.0
 40
0.0
 40
0.0923746119
 40
0.2612715304
 40
0.422201734
 40
0.5722579159
 40
0.7172196285
 40
0.858943691
 40
1.0
 40
1.0
 40
1.0
 40
1.0
 10
5.0569151693
 20
3.826972465
 30
0.0
 10
5.0505852307
 20
3.8274384532
 30
0.0
 10
5.0327408275
 20
3.8295556787
 30
0.0
 10
5.0045004018
 20
3.836708244
 30
0.0
 10
4.9744612244
 20
3.8507642928
 30
0.0
 10
4.9494231347
 20
3.8699975509
 30
0.0
 10
4.9306525037
 20
3.893816081
 30
0.0
 10
4.9191890179
 20
3.9212314775
 30
0.0
 10
4.9167431055
 20
3.9407480838
 30
0.0
 10
4.9167431055
 20
3.9504295576
 30
0.0
 11
5.0569151693
 21
3.826972465
 31
0.0
 11
5.0380132166
 21
3.8292242096
 31
0.0
 11
5.0043386957
 21
3.8379112911
 31
0.0
 11
4.974420333
 21
3.8521564644
 31
0.0
 11
4.9500543425
 21
3.8711553424
 31
0.0
 11
4.931699248
 21
3.8946931336
 31
0.0
 11
4.9204603394
 21
3.9216239925
 31
0.0
 11
4.9167431055
 21
3.9504295576
 31
0.0
  0
SPLINE
  5
484
100
AcDbEntity
  8
0
100
AcDbSpline
 62
7
  6
CONTINUOUS
 70
0
 71
3
 72
14
 73
10
 74
8
 42
0.0000001
 43
0.0000001
 44
0.0000000001
 12
-0.0000262784
 22
-0.2221516776
 32
0.0
 13
0.2214454993
 23
0.0
 33
0.0
 40
0.0
 40
0.0
 40
0.0
 40
0.0
 40
0.071762716
 40
0.2136210094
 40
0.3580996405
 40
0.5096088233
 40
0.6688494516
 40
0.8333124142
 40
1.0
 40
1.0
 40
1.0
 40
1.0
 10
5.9017454534
 20
3.9589295117
 30
0.0
 10
5.9017448247
 20
3.9536154425
 30
0.0
 10
5.9028158878
 20
3.9378001026
 30
0.0
 10
5.9103007169
 20
3.9120444292
 30
0.0
 10
5.9283158735
 20
3.884650473
 30
0.0
 10
5.9541503951
 20
3.8625549616
 30
0.0
 10
5.9857720876
 20
3.8467101251
 30
0.0
 10
6.0209412287
 20
3.8373137321
 30
0.0
 10
6.0454390336
 20
3.8352533102
 30
0.0
 10
6.0577431055
 20
3.8352533102
 30
0.0
 11
5.9017454534
 21
3.9589295117
 31
0.0
 11
5.902847453
 21
3.9430404986
 31
0.0
 11
5.9116686569
 21
3.912890569
 31
0.0
 11
5.929127171
 21
3.8860796487
 31
0.0
 11
5.9544349268
 21
3.8640526452
 31
0.0
 11
5.9858299172
 21
3.8479951783
 31
0.0
 11
6.0209663909
 21
3.838413204
 31
0.0
 11
6.0577431055
 21
3.8352533102
 31
0.0
  0
SPLINE
  5
485
100
AcDbEntity
  8
0
100
AcDbSpline
 62
7
  6
CONTINUOUS
 70
0
 71
3
 72
21
 73
17
 74
15
 42
0.0000001
 43
0.0000001
 44
0.0000000001
 12
0.0
 22
-0.4430418536
 32
0.0
 13
0.0
 23
0.4430418536
 33
0.0
 40
0.0
 40
0.0
 40
0.0
 40
0.0
 40
0.065541887
 40
0.1313889532
 40
0.1985751029
 40
0.2682722613
 40
0.3430210525
 40
0.4213580454
 40
0.4999569078
 40
0.5786440438
 40
0.6571134856
 40
0.7318327815
 40
0.8014696868
 40
0.8687799834
 40
0.9345360236
 40
1.0
 40
1.0
 40
1.0
 40
1.0
 10
7.2317431055
 20
3.9589295576
 30
0.0
 10
7.2317431055
 20
3.9492502912
 30
0.0
 10
7.2292985598
 20
3.9297381329
 30
0.0
 10
7.2178251262
 20
3.902359101
 30
0.0
 10
7.1990350282
 20
3.8786014073
 30
0.0
 10
7.173981861
 20
3.8594522119
 30
0.0
 10
7.1439411897
 20
3.8454876323
 30
0.0
 10
7.1105846869
 20
3.8371005271
 30
0.0
 10
7.0757492509
 20
3.8343286583
 30
0.0
 10
7.0408936723
 20
3.8370990615
 30
0.0
 10
7.0075101183
 20
3.845498047
 30
0.0
 10
6.9774683172
 20
3.8594752792
 30
0.0
 10
6.9524164413
 20
3.8786335953
 30
0.0
 10
6.9336375195
 20
3.9023971756
 30
0.0
 10
6.9221815549
 20
3.9297749892
 30
0.0
 10
6.9197431055
 20
3.9492617971
 30
0.0
 10
6.9197431055
 20
3.9589295576
 30
0.0
 11
7.2317431055
 21
3.9589295576
 31
0.0
 11
7.2280234703
 21
3.9301309796
 31
0.0
 11
7.2167648245
 21
3.9032180239
 31
0.0
 11
7.1984204022
 21
3.8797763223
 31
0.0
 11
7.1740262618
 21
3.860844243
 31
0.0
 11
7.144091768
 21
3.8466790966
 31
0.0
 11
7.1104710511
 21
3.8380655516
 31
0.0
 11
7.0757622082
 21
3.835253311
 31
0.0
 11
7.0410141419
 21
3.8380657191
 31
0.0
 11
7.0073379756
 21
3.846699271
 31
0.0
 11
6.9774199444
 21
3.8608686517
 31
0.0
 11
6.9530515708
 21
3.8797903905
 31
0.0
 11
6.9346831269
 21
3.9032831325
 31
0.0
 11
6.9234537838
 21
3.9301646275
 31
0.0
 11
6.9197431055
 21
3.9589295576
 31
0.0
  0
SPLINE
  5
486
100
AcDbEntity
  8
0
100
AcDbSpline
 62
7
  6
CONTINUOUS
 70
0
 71
3
 72
14
 73
10
 74
8
 42
0.0000001
 43
0.0000001
 44
0.0000000001
 12
0.2214455142
 22
0.0
 32
0.0
 13
-0.0000263048
 23
0.2221516924
 33
0.0
 40
0.0
 40
0.0
 40
0.0
 40
0.0
 40
0.1666864034
 40
0.3311491888
 40
0.4903897607
 40
0.6418988932
 40
0.7863782758
 40
0.9282365159
 40
1.0
 40
1.0
 40
1.0
 40
1.0
 10
6.0577431055
 20
3.8352533102
 30
0.0
 10
6.0700470909
 20
3.8352533102
 30
0.0
 10
6.0945447958
 20
3.8373137095
 30
0.0
 10
6.1297138505
 20
3.8467100256
 30
0.0
 10
6.161335555
 20
3.8625547934
 30
0.0
 10
6.1871701675
 20
3.8846502726
 30
0.0
 10
6.2051854139
 20
3.9120442364
 30
0.0
 10
6.2126703105
 20
3.937800006
 30
0.0
 10
6.2137413868
 20
3.9536154001
 30
0.0
 10
6.2137407575
 20
3.9589295266
 30
0.0
 11
6.0577431055
 21
3.8352533102
 31
0.0
 11
6.0945195636
 21
3.8384131592
 31
0.0
 11
6.1296560159
 21
3.8479950722
 31
0.0
 11
6.1610510281
 21
3.8640524741
 31
0.0
 11
6.186358831
 21
3.88607941
 31
0.0
 11
6.2038174927
 21
3.9128904354
 31
0.0
 11
6.2126387361
 21
3.9430403433
 31
0.0
 11
6.2137407575
 21
3.9589295266
 31
0.0
  0
SPLINE
  5
487
100
AcDbEntity
  8
0
100
AcDbSpline
 62
7
  6
CONTINUOUS
 70
0
 71
3
 72
21
 73
17
 74
15
 42
0.0000001
 43
0.0000001
 44
0.0000000001
 12
0.0
 22
0.4430418779
 32
0.0
 13
-0.0
 23
-0.4430418779
 33
0.0
 40
0.0
 40
0.0
 40
0.0
 40
0.0
 40
0.0655353743
 40
0.1313697786
 40
0.1985650748
 40
0.2682587665
 40
0.3430072806
 40
0.4213484113
 40
0.4999536265
 40
0.5786468633
 40
0.6571203197
 40
0.731839506
 40
0.8014736094
 40
0.8687938408
 40
0.9345399978
 40
1.0
 40
1.0
 40
1.0
 40
1.0
 10
6.9197431055
 20
4.5029295576
 30
0.0
 10
6.9197431055
 20
4.5126078627
 30
0.0
 10
6.9221870517
 20
4.5321171565
 30
0.0
 10
6.9336583446
 20
4.5594952851
 30
0.0
 10
6.9524465338
 20
4.5832533428
 30
0.0
 10
6.9774995655
 20
4.6024039971
 30
0.0
 10
7.007539791
 20
4.6163697302
 30
0.0
 10
7.0408975739
 20
4.6247580824
 30
0.0
 10
7.0757354538
 20
4.6275306028
 30
0.0
 10
7.1105934938
 20
4.6247600266
 30
0.0
 10
7.1439784233
 20
4.6163603222
 30
0.0
 10
7.1740201275
 20
4.6023824559
 30
0.0
 10
7.1990724694
 20
4.5832230781
 30
0.0
 10
7.2178504125
 20
4.5594590643
 30
0.0
 10
7.2293050586
 20
4.5320814739
 30
0.0
 10
7.2317431055
 20
4.5125967317
 30
0.0
 10
7.2317431055
 20
4.5029295576
 30
0.0
 11
6.9197431055
 21
4.5029295576
 31
0.0
 11
6.9234619919
 21
4.5317253245
 31
0.0
 11
6.934717043
 21
4.5586337049
 31
0.0
 11
6.9530626245
 21
4.582079647
 31
0.0
 11
6.9774548128
 21
4.6010117392
 31
0.0
 11
7.0073886663
 21
4.6151779557
 31
0.0
 11
7.0410109275
 21
4.6237928673
 31
0.0
 11
7.0757225397
 21
4.626605804
 31
0.0
 11
7.1104733033
 21
4.6237931931
 31
0.0
 11
7.1441510974
 21
4.6151588211
 31
0.0
 11
7.1740688226
 21
4.6009889033
 31
0.0
 11
7.1984358837
 21
4.5820674956
 31
0.0
 11
7.216806219
 21
4.5585706432
 31
0.0
 11
7.2280328833
 21
4.5316927728
 31
0.0
 11
7.2317431055
 21
4.5029295576
 31
0.0
  0
ENDSEC
  0
SECTION
  2
OBJECTS
  0
DICTIONARY
  5
C
100
AcDbDictionary
280
0
281
1
  3
ACAD_GROUP
350
D
  3
ACAD_MLINESTYLE
350
17
  3
ACAD_LAYOUT
350
1A
  3
ACAD_PLOTSETTINGS
350
19
  3
ACAD_PLOTSTYLENAME
350
E
  0
DICTIONARY
  5
D
102
{ACAD_REACTORS
330
C
102
}
100
AcDbDictionary
280
0
281
1
  0
ACDBDICTIONARYWDFLT
  5
E
102
{ACAD_REACTORS
330
C
102
}
100
AcDbDictionary
281
1
  3
Normal
350
F
100
AcDbDictionaryWithDefault
340
F
  0
DICTIONARY
  5
17
102
{ACAD_REACTORS
330
C
102
}
100
AcDbDictionary
280
0
281
1
  3
Standard
350
18
  0
DICTIONARY
  5
19
102
{ACAD_REACTORS
330
C
102
}
100
AcDbDictionary
281
1
  0
DICTIONARY
  5
1A
102
{ACAD_REACTORS
330
C
102
}
100
AcDbDictionary
281
1
  3
Layout1
350
1E
  3
Model
350
22
  0
ACDBPLACEHOLDER
  5
F
102
{ACAD_REACTORS
330
E
102
}
  0
MLINESTYLE
  5
18
102
{ACAD_REACTORS
330
17
102
}
100
AcDbMlineStyle
  2
STANDARD
 70
0
  3

 62
256
 51
90.0
 52
90.0
 71
2
 49
0.5
 62
256
  6
BYLAYER
 49
-0.5
 62
256
  6
BYLAYER
  0
LAYOUT
  5
1E
102
{ACAD_REACTORS
330
1A
102
}
100
AcDbPlotSettings
  1

  2

  4

  6

 40
0.0
 41
0.0
 42
0.0
 43
0.0
 44
0.0
 45
0.0
 46
0.0
 47
0.0
 48
0.0
 49
0.0
140
0.0
141
0.0
142
1.0
143
1.0
 70
0
 72
0
 73
0
 74
0
  7

 75
0
147
1.0
148
0.0
149
0.0
100
AcDbLayout
  1
Layout1
 70
0
 71
0
 10
0.0
 20
0.0
 11
0.0
 21
0.0
 12
0.0
 22
0.0
 32
0.0
 14
0.0
 24
0.0
 34
0.0
 15
0.0
 25
0.0
 35
0.0
146
0.0
 13
0.0
 23
0.0
 33
0.0
 16
0.0
 26
0.0
 36
0.0
 17
0.0
 27
0.0
 37
0.0
 76
0
330
1B
331
0
345
0
346
0
  0
LAYOUT
  5
22
102
{ACAD_REACTORS
330
1A
102
}
100
AcDbPlotSettings
  1

  2

  4

  6

 40
0.0
 41
0.0
 42
0.0
 43
0.0
 44
0.0
 45
0.0
 46
0.0
 47
0.0
 48
0.0
 49
0.0
140
0.0
141
0.0
142
1.0
143
1.0
 70
0
 72
0
 73
0
 74
0
  7

 75
0
147
1.0
148
0.0
149
0.0
100
AcDbLayout
  1
Model
 70
0
 71
0
 10
0.0
 20
0.0
 11
0.0
 21
0.0
 12
0.0
 22
0.0
 32
0.0
 14
0.0
 24
0.0
 34
0.0
 15
0.0
 25
0.0
 35
0.0
146
0.0
 13
0.0
 23
0.0
 33
0.0
 16
0.0
 26
0.0
 36
0.0
 17
0.0
 27
0.0
 37
0.0
 76
0
330
1F
331
0
345
0
346
0
  0
ENDSEC
  0
EOF
