999
DXF file: DSEH-XHN.dxf
999
Pro/ENGINEER 2006240 by Parametric Technology Corporation
  0
SECTION
  2
HEADER
  9
$ACADVER
  1
AC1015
  9
$DWGCODEPAGE
  3
ANSI_1252
  9
$EXTMAX
 10
11.6929133858
 20
8.2677165354
 30
0.0
  9
$EXTMIN
 10
0.0
 20
0.0
 30
0.0
  9
$LIMMIN
 10
0.0
 20
0.0
  9
$LIMMAX
 10
11.6929133858
 20
8.2677165354
  9
$VIEWCTR
 10
5.8464566929
 20
4.1338582677
  9
$VIEWSIZE
 40
8.2677165354
  9
$CLAYER
  8
0
  9
$LTSCALE
 40
0.6431102362
  9
$CELTYPE
  6
BYLAYER
  9
$DIMSCALE
 40
1.0
  9
$DIMASZ
 40
0.1875
  9
$DIMEXO
 40
0.0730807087
  9
$DIMDLI
 40
0.4443307087
  9
$DIMEXE
 40
0.2104724409
  9
$DIMCEN
 40
0.1052362205
  9
$DIMLFAC
 40
1.0
  9
$DIMBLK
  1
_CLOSED
  9
$DIMTXT
 40
0.15625
  9
$DIMTOL
 70
0
  9
$DIMLIM
 70
0
  9
$DIMTFAC
 40
1.0
  9
$PDMODE
 70
3
  9
$PDSIZE
 40
0.3125
  9
$HANDSEED
  5
4AC
  9
$MEASUREMENT
 70
0
  9
$INSUNITS
 70
1
  0
ENDSEC
  0
SECTION
  2
CLASSES
  0
CLASS
  1
ACDBDICTIONARYWDFLT
  2
AcDbDictionaryWithDefault
  3
AutoCAD 2000
 90
0
280
0
281
0
  0
CLASS
  1
ACDBPLACEHOLDER
  2
AcDbPlaceHolder
  3
AutoCAD 2000
 90
0
280
0
281
0
  0
CLASS
  1
LAYOUT
  2
AcDbLayout
  3
AutoCAD 2000
 90
0
280
0
281
0
  0
ENDSEC
  0
SECTION
  2
TABLES
  0
TABLE
  2
VPORT
  5
8
100
AcDbSymbolTable
 70
2
  0
VPORT
  5
1F4
100
AcDbSymbolTableRecord
100
AcDbViewportTableRecord
  2
*ACTIVE
 70
0
 10
0.0
 20
0.0
 11
1.0
 21
1.0
 12
5.8464566929
 22
4.1338582677
 13
0.0
 23
0.0
 14
1.0
 24
1.0
 15
0.0
 25
0.0
 16
0.0
 26
0.0
 36
1.0
 17
0.0
 27
0.0
 37
0.0
 40
8.2677165354
 41
1.4142857143
 42
50.0
 43
0.0
 44
0.0
 50
0.0
 51
0.0
 71
0
 72
100
 73
1
 74
1
 75
0
 76
0
 77
0
 78
0
  0
ENDTAB
  0
TABLE
  2
LTYPE
  5
5
100
AcDbSymbolTable
 70
6
  0
LTYPE
  5
14
100
AcDbSymbolTableRecord
100
AcDbLinetypeTableRecord
  2
BYBLOCK
 70
0
  3

 72
65
 73
0
 40
0.0
  0
LTYPE
  5
15
100
AcDbSymbolTableRecord
100
AcDbLinetypeTableRecord
  2
BYLAYER
 70
0
  3

 72
65
 73
0
 40
0.0
  0
LTYPE
  5
16
100
AcDbSymbolTableRecord
100
AcDbLinetypeTableRecord
  2
CONTINUOUS
 70
64
  3
Solid line
 72
65
 73
0
 40
0.0
  0
LTYPE
  5
1F5
100
AcDbSymbolTableRecord
100
AcDbLinetypeTableRecord
  2
CENTER
 70
64
  3
____ _ ____ _ ____ _ ____ _ ____ _ ____ _ ____
 72
65
 73
4
 40
0.6
 49
0.375
 74
0
 49
-0.075
 74
0
 49
0.075
 74
0
 49
-0.075
 74
0
  0
LTYPE
  5
1F6
100
AcDbSymbolTableRecord
100
AcDbLinetypeTableRecord
  2
HIDDEN
 70
64
  3
- - - - - - - - - - - - - - - - - - - -
 72
65
 73
2
 40
0.2
 49
0.1
 74
0
 49
-0.1
 74
0
  0
LTYPE
  5
1F7
100
AcDbSymbolTableRecord
100
AcDbLinetypeTableRecord
  2
PHANTOM
 70
64
  3
_____ _ _ _____ _ _ _____ _ _ _____
 72
65
 73
6
 40
0.8
 49
0.45
 74
0
 49
-0.05
 74
0
 49
0.1
 74
0
 49
-0.05
 74
0
 49
0.1
 74
0
 49
-0.05
 74
0
  0
LTYPE
  5
1F8
100
AcDbSymbolTableRecord
100
AcDbLinetypeTableRecord
  2
DOT
 70
64
  3
. . . . . . . . . . . . . . . . . . . .
 72
65
 73
2
 40
0.2
 49
0.1
 74
0
 49
-0.1
 74
0
  0
LTYPE
  5
1F9
100
AcDbSymbolTableRecord
100
AcDbLinetypeTableRecord
  2
DASHED
 70
64
  3
- - - - - - - - - - - - - - - - - - - -
 72
65
 73
2
 40
0.2
 49
0.1
 74
0
 49
-0.1
 74
0
  0
ENDTAB
  0
TABLE
  2
LAYER
  5
2
100
AcDbSymbolTable
 70
36
  0
LAYER
  5
10
100
AcDbSymbolTableRecord
100
AcDbLayerTableRecord
  2
0
 70
0
 62
7
  6
CONTINUOUS
370
-3
390
F
  0
LAYER
  5
1FA
100
AcDbSymbolTableRecord
100
AcDbLayerTableRecord
  2
DEFAULT_1
 70
0
 62
7
  6
CENTER
370
-3
390
F
  0
LAYER
  5
1FB
100
AcDbSymbolTableRecord
100
AcDbLayerTableRecord
  2
DEFAULT_2
 70
0
 62
8
  6
HIDDEN
370
-3
390
F
  0
LAYER
  5
1FC
100
AcDbSymbolTableRecord
100
AcDbLayerTableRecord
  2
DEFAULT_3
 70
0
 62
7
  6
PHANTOM
370
-3
390
F
  0
LAYER
  5
1FD
100
AcDbSymbolTableRecord
100
AcDbLayerTableRecord
  2
_BLACK_HOLE
 70
0
 62
7
  6
CONTINUOUS
370
-3
390
F
  0
LAYER
  5
1FE
100
AcDbSymbolTableRecord
100
AcDbLayerTableRecord
  2
01_ALL_DTM_PLN
 70
0
 62
7
  6
CONTINUOUS
370
-3
390
F
  0
LAYER
  5
1FF
100
AcDbSymbolTableRecord
100
AcDbLayerTableRecord
  2
01__ASM_ALL_DTM_PLN
 70
0
 62
7
  6
CONTINUOUS
370
-3
390
F
  0
LAYER
  5
200
100
AcDbSymbolTableRecord
100
AcDbLayerTableRecord
  2
01__ASM_DEF_DTM_PLN
 70
0
 62
7
  6
CONTINUOUS
370
-3
390
F
  0
LAYER
  5
201
100
AcDbSymbolTableRecord
100
AcDbLayerTableRecord
  2
01___PRT_ALL_DTM_PLN
 70
0
 62
7
  6
CONTINUOUS
370
-3
390
F
  0
LAYER
  5
202
100
AcDbSymbolTableRecord
100
AcDbLayerTableRecord
  2
01___PRT_DEF_DTM_PLN
 70
0
 62
7
  6
CONTINUOUS
370
-3
390
F
  0
LAYER
  5
203
100
AcDbSymbolTableRecord
100
AcDbLayerTableRecord
  2
02_ALL_AXES
 70
0
 62
7
  6
CONTINUOUS
370
-3
390
F
  0
LAYER
  5
204
100
AcDbSymbolTableRecord
100
AcDbLayerTableRecord
  2
02__ASM_ALL_AXES
 70
0
 62
7
  6
CONTINUOUS
370
-3
390
F
  0
LAYER
  5
205
100
AcDbSymbolTableRecord
100
AcDbLayerTableRecord
  2
02___PRT_ALL_AXES
 70
0
 62
7
  6
CONTINUOUS
370
-3
390
F
  0
LAYER
  5
206
100
AcDbSymbolTableRecord
100
AcDbLayerTableRecord
  2
03_ALL_CURVES
 70
0
 62
7
  6
CONTINUOUS
370
-3
390
F
  0
LAYER
  5
207
100
AcDbSymbolTableRecord
100
AcDbLayerTableRecord
  2
03__ASM_ALL_CURVES
 70
0
 62
7
  6
CONTINUOUS
370
-3
390
F
  0
LAYER
  5
208
100
AcDbSymbolTableRecord
100
AcDbLayerTableRecord
  2
03___PRT_ALL_CURVES
 70
0
 62
7
  6
CONTINUOUS
370
-3
390
F
  0
LAYER
  5
209
100
AcDbSymbolTableRecord
100
AcDbLayerTableRecord
  2
04_ALL_DTM_PNT
 70
0
 62
7
  6
CONTINUOUS
370
-3
390
F
  0
LAYER
  5
20A
100
AcDbSymbolTableRecord
100
AcDbLayerTableRecord
  2
04__ASM_ALL_DTM_PNT
 70
0
 62
7
  6
CONTINUOUS
370
-3
390
F
  0
LAYER
  5
20B
100
AcDbSymbolTableRecord
100
AcDbLayerTableRecord
  2
04___PRT_ALL_DTM_PNT
 70
0
 62
7
  6
CONTINUOUS
370
-3
390
F
  0
LAYER
  5
20C
100
AcDbSymbolTableRecord
100
AcDbLayerTableRecord
  2
05_ALL_DTM_CSYS
 70
0
 62
7
  6
CONTINUOUS
370
-3
390
F
  0
LAYER
  5
20D
100
AcDbSymbolTableRecord
100
AcDbLayerTableRecord
  2
05__ASM_ALL_DTM_CSYS
 70
0
 62
7
  6
CONTINUOUS
370
-3
390
F
  0
LAYER
  5
20E
100
AcDbSymbolTableRecord
100
AcDbLayerTableRecord
  2
05__ASM_DEF_DTM_CSYS
 70
0
 62
7
  6
CONTINUOUS
370
-3
390
F
  0
LAYER
  5
20F
100
AcDbSymbolTableRecord
100
AcDbLayerTableRecord
  2
05___PRT_ALL_DTM_CSYS
 70
0
 62
7
  6
CONTINUOUS
370
-3
390
F
  0
LAYER
  5
210
100
AcDbSymbolTableRecord
100
AcDbLayerTableRecord
  2
05___PRT_DEF_DTM_CSYS
 70
0
 62
7
  6
CONTINUOUS
370
-3
390
F
  0
LAYER
  5
211
100
AcDbSymbolTableRecord
100
AcDbLayerTableRecord
  2
06_ALL_SURFS
 70
0
 62
7
  6
CONTINUOUS
370
-3
390
F
  0
LAYER
  5
212
100
AcDbSymbolTableRecord
100
AcDbLayerTableRecord
  2
06__ASM_ALL_SURFS
 70
0
 62
7
  6
CONTINUOUS
370
-3
390
F
  0
LAYER
  5
213
100
AcDbSymbolTableRecord
100
AcDbLayerTableRecord
  2
06___PRT_ALL_SURFS
 70
0
 62
7
  6
CONTINUOUS
370
-3
390
F
  0
LAYER
  5
214
100
AcDbSymbolTableRecord
100
AcDbLayerTableRecord
  2
07__ASM_ALL_SKELETONS
 70
0
 62
7
  6
CONTINUOUS
370
-3
390
F
  0
LAYER
  5
215
100
AcDbSymbolTableRecord
100
AcDbLayerTableRecord
  2
125-149_FEATURES
 70
0
 62
7
  6
CONTINUOUS
370
-3
390
F
  0
LAYER
  5
216
100
AcDbSymbolTableRecord
100
AcDbLayerTableRecord
  2
125-149_REF_GEOMETRY
 70
0
 62
7
  6
CONTINUOUS
370
-3
390
F
  0
LAYER
  5
217
100
AcDbSymbolTableRecord
100
AcDbLayerTableRecord
  2
125-176_FEATURES
 70
0
 62
7
  6
CONTINUOUS
370
-3
390
F
  0
LAYER
  5
218
100
AcDbSymbolTableRecord
100
AcDbLayerTableRecord
  2
125-176_REF_GEOMETRY
 70
0
 62
7
  6
CONTINUOUS
370
-3
390
F
  0
LAYER
  5
219
100
AcDbSymbolTableRecord
100
AcDbLayerTableRecord
  2
127-003_FEATURES
 70
0
 62
7
  6
CONTINUOUS
370
-3
390
F
  0
LAYER
  5
21A
100
AcDbSymbolTableRecord
100
AcDbLayerTableRecord
  2
127-003_REF_GEOMETRY
 70
0
 62
7
  6
CONTINUOUS
370
-3
390
F
  0
LAYER
  5
21B
100
AcDbSymbolTableRecord
100
AcDbLayerTableRecord
  2
127-006_FEATURES
 70
0
 62
7
  6
CONTINUOUS
370
-3
390
F
  0
LAYER
  5
21C
100
AcDbSymbolTableRecord
100
AcDbLayerTableRecord
  2
127-006_REF_GEOMETRY
 70
0
 62
7
  6
CONTINUOUS
370
-3
390
F
  0
LAYER
  5
21D
100
AcDbSymbolTableRecord
100
AcDbLayerTableRecord
  2
127-007_FEATURES
 70
0
 62
7
  6
CONTINUOUS
370
-3
390
F
  0
LAYER
  5
21E
100
AcDbSymbolTableRecord
100
AcDbLayerTableRecord
  2
127-007_REF_GEOMETRY
 70
0
 62
7
  6
CONTINUOUS
370
-3
390
F
  0
LAYER
  5
21F
100
AcDbSymbolTableRecord
100
AcDbLayerTableRecord
  2
127-210_FEATURES
 70
0
 62
7
  6
CONTINUOUS
370
-3
390
F
  0
LAYER
  5
220
100
AcDbSymbolTableRecord
100
AcDbLayerTableRecord
  2
127-210_REF_GEOMETRY
 70
0
 62
7
  6
CONTINUOUS
370
-3
390
F
  0
LAYER
  5
221
100
AcDbSymbolTableRecord
100
AcDbLayerTableRecord
  2
ATMOSPHERIC_VENT_DRW_REF
 70
0
 62
7
  6
CONTINUOUS
370
-3
390
F
  0
LAYER
  5
222
100
AcDbSymbolTableRecord
100
AcDbLayerTableRecord
  2
COPY_GEO_FET
 70
0
 62
7
  6
CONTINUOUS
370
-3
390
F
  0
LAYER
  5
223
100
AcDbSymbolTableRecord
100
AcDbLayerTableRecord
  2
COSMETIC
 70
0
 62
7
  6
CONTINUOUS
370
-3
390
F
  0
LAYER
  5
224
100
AcDbSymbolTableRecord
100
AcDbLayerTableRecord
  2
CURVES
 70
0
 62
7
  6
CONTINUOUS
370
-3
390
F
  0
LAYER
  5
225
100
AcDbSymbolTableRecord
100
AcDbLayerTableRecord
  2
CUT_REF_SURF
 70
0
 62
7
  6
CONTINUOUS
370
-3
390
F
  0
LAYER
  5
226
100
AcDbSymbolTableRecord
100
AcDbLayerTableRecord
  2
DATUM
 70
0
 62
7
  6
CONTINUOUS
370
-3
390
F
  0
LAYER
  5
227
100
AcDbSymbolTableRecord
100
AcDbLayerTableRecord
  2
DATUMCURVES
 70
0
 62
7
  6
CONTINUOUS
370
-3
390
F
  0
LAYER
  5
228
100
AcDbSymbolTableRecord
100
AcDbLayerTableRecord
  2
DATUM_PLANES
 70
0
 62
7
  6
CONTINUOUS
370
-3
390
F
  0
LAYER
  5
229
100
AcDbSymbolTableRecord
100
AcDbLayerTableRecord
  2
DIMENSIONS
 70
0
 62
7
  6
CONTINUOUS
370
-3
390
F
  0
LAYER
  5
22A
100
AcDbSymbolTableRecord
100
AcDbLayerTableRecord
  2
DTM
 70
0
 62
7
  6
CONTINUOUS
370
-3
390
F
  0
LAYER
  5
22B
100
AcDbSymbolTableRecord
100
AcDbLayerTableRecord
  2
DTM230
 70
0
 62
7
  6
CONTINUOUS
370
-3
390
F
  0
LAYER
  5
22C
100
AcDbSymbolTableRecord
100
AcDbLayerTableRecord
  2
DTM_500001
 70
0
 62
7
  6
CONTINUOUS
370
-3
390
F
  0
LAYER
  5
22D
100
AcDbSymbolTableRecord
100
AcDbLayerTableRecord
  2
DTM_500002
 70
0
 62
7
  6
CONTINUOUS
370
-3
390
F
  0
LAYER
  5
22E
100
AcDbSymbolTableRecord
100
AcDbLayerTableRecord
  2
DTM_515002
 70
0
 62
7
  6
CONTINUOUS
370
-3
390
F
  0
LAYER
  5
22F
100
AcDbSymbolTableRecord
100
AcDbLayerTableRecord
  2
DTM_BODY_S2
 70
0
 62
7
  6
CONTINUOUS
370
-3
390
F
  0
LAYER
  5
230
100
AcDbSymbolTableRecord
100
AcDbLayerTableRecord
  2
DTM_SPRING_LH
 70
0
 62
7
  6
CONTINUOUS
370
-3
390
F
  0
LAYER
  5
231
100
AcDbSymbolTableRecord
100
AcDbLayerTableRecord
  2
DTM_SP_LH_CONSTR
 70
0
 62
7
  6
CONTINUOUS
370
-3
390
F
  0
LAYER
  5
232
100
AcDbSymbolTableRecord
100
AcDbLayerTableRecord
  2
GEOMETRICTOLERANCES
 70
0
 62
7
  6
CONTINUOUS
370
-3
390
F
  0
LAYER
  5
233
100
AcDbSymbolTableRecord
100
AcDbLayerTableRecord
  2
PARAMETERDIMENSIONS
 70
0
 62
7
  6
CONTINUOUS
370
-3
390
F
  0
LAYER
  5
234
100
AcDbSymbolTableRecord
100
AcDbLayerTableRecord
  2
PLANE
 70
0
 62
7
  6
CONTINUOUS
370
-3
390
F
  0
LAYER
  5
235
100
AcDbSymbolTableRecord
100
AcDbLayerTableRecord
  2
S-164_NPTF_PORT
 70
0
 62
7
  6
CONTINUOUS
370
-3
390
F
  0
LAYER
  5
236
100
AcDbSymbolTableRecord
100
AcDbLayerTableRecord
  2
TEXT
 70
0
 62
7
  6
CONTINUOUS
370
-3
390
F
  0
LAYER
  5
237
100
AcDbSymbolTableRecord
100
AcDbLayerTableRecord
  2
THREAD
 70
0
 62
7
  6
CONTINUOUS
370
-3
390
F
  0
LAYER
  5
238
100
AcDbSymbolTableRecord
100
AcDbLayerTableRecord
  2
WIRE_GRV-SLOT_DRW_REF
 70
0
 62
7
  6
CONTINUOUS
370
-3
390
F
  0
ENDTAB
  0
TABLE
  2
STYLE
  5
3
100
AcDbSymbolTable
 70
1
  0
STYLE
  5
11
100
AcDbSymbolTableRecord
100
AcDbTextStyleTableRecord
  2
STANDARD
 70
0
 40
0.0
 41
0.8
 50
0.0
 71
0
 42
0.2
  3
txt
  4

  0
ENDTAB
  0
TABLE
  2
VIEW
  5
6
100
AcDbSymbolTable
 70
0
  0
ENDTAB
  0
TABLE
  2
UCS
  5
7
100
AcDbSymbolTable
 70
0
  0
ENDTAB
  0
TABLE
  2
APPID
  5
9
100
AcDbSymbolTable
 70
1
  0
APPID
  5
239
100
AcDbSymbolTableRecord
100
AcDbRegAppTableRecord
  2
ACAD
 70
0
  0
ENDTAB
  0
TABLE
  2
BLOCK_RECORD
  5
1
100
AcDbSymbolTable
 70
0
  0
BLOCK_RECORD
  5
1F
100
AcDbSymbolTableRecord
100
AcDbBlockTableRecord
  2
*MODEL_SPACE
  0
BLOCK_RECORD
  5
1B
100
AcDbSymbolTableRecord
100
AcDbBlockTableRecord
  2
*PAPER_SPACE
  0
ENDTAB
  0
TABLE
  2
DIMSTYLE
  5
A
100
AcDbSymbolTable
 70
1
100
AcDbDimStyleTable
 71
0
  0
DIMSTYLE
105
23A
100
AcDbSymbolTableRecord
100
AcDbDimStyleTableRecord
  2
STANDARD
 70
0
  3

  4

 40
1.0
 41
0.1875
 42
0.0625
 43
0.38
 44
0.18
 45
0.0
 46
0.0
 47
0.01
 48
0.01
140
0.15625
141
0.09
142
0.0
143
25.4
144
1.0
145
0.0
146
1.0
147
0.09
 71
0.0
 72
0.0
 73
1
 74
1
 75
0
 76
0
 77
0
 78
4
170
0
171
2
172
0
173
0
174
0
175
0
176
0
177
0
178
0
270
2
271
2
272
2
273
2
274
2
275
0
280
0
281
0
282
0
283
1
284
4
285
0
286
0
287
3
288
0
340
11
  0
ENDTAB
  0
ENDSEC
  0
SECTION
  2
BLOCKS
  0
BLOCK
  5
20
100
AcDbEntity
  8
0
100
AcDbBlockBegin
  2
*MODEL_SPACE
 70
0
 10
0.0
 20
0.0
 30
0.0
  3
*MODEL_SPACE
  1

  0
ENDBLK
  5
21
100
AcDbEntity
  8
0
100
AcDbBlockEnd
  0
BLOCK
  5
1C
100
AcDbEntity
  8
0
100
AcDbBlockBegin
  2
*PAPER_SPACE
 70
0
 10
0.0
 20
0.0
 30
0.0
  3
*PAPER_SPACE
  1

  0
ENDBLK
  5
1D
100
AcDbEntity
  8
0
100
AcDbBlockEnd
  0
ENDSEC
  0
SECTION
  2
ENTITIES
  0
LINE
  5
23B
100
AcDbEntity
  8
0
100
AcDbLine
 62
7
  6
CONTINUOUS
 10
2.5231970123
 20
3.7285284326
 11
2.5231970123
 21
4.5985284326
  0
LINE
  5
23C
100
AcDbEntity
  8
03__ASM_ALL_CURVES
100
AcDbLine
 62
40
  6
CONTINUOUS
 10
2.5231970123
 20
4.5985284326
 11
2.5231970123
 21
5.0989564326
  0
LINE
  5
23D
100
AcDbEntity
  8
03__ASM_ALL_CURVES
100
AcDbLine
 62
40
  6
CONTINUOUS
 10
2.5626970123
 20
5.2223564326
 11
2.5626970123
 21
5.0989564326
  0
LINE
  5
23E
100
AcDbEntity
  8
0
100
AcDbLine
 62
7
  6
CONTINUOUS
 10
2.5851970123
 20
3.6665284326
 11
2.5851970123
 21
4.6605284326
  0
LINE
  5
23F
100
AcDbEntity
  8
03__ASM_ALL_CURVES
100
AcDbLine
 62
40
  6
CONTINUOUS
 10
2.6712770123
 20
5.0742764326
 11
2.6712770123
 21
5.0249164326
  0
LINE
  5
240
100
AcDbEntity
  8
03__ASM_ALL_CURVES
100
AcDbLine
 62
40
  6
CONTINUOUS
 10
2.6783845123
 20
5.0989564326
 11
2.6783845123
 21
5.1092397662
  0
LINE
  5
241
100
AcDbEntity
  8
03__ASM_ALL_CURVES
100
AcDbLine
 62
40
  6
CONTINUOUS
 10
2.8403470123
 20
5.2017897635
 11
2.8403470123
 21
5.1915064326
  0
LINE
  5
242
100
AcDbEntity
  8
03__ASM_ALL_CURVES
100
AcDbLine
 62
40
  6
CONTINUOUS
 10
2.8480595123
 20
5.1400897672
 11
2.8480595123
 21
5.1298064326
  0
LINE
  5
243
100
AcDbEntity
  8
03__ASM_ALL_CURVES
100
AcDbLine
 62
40
  6
CONTINUOUS
 10
2.9328970123
 20
5.2223564326
 11
2.9328970123
 21
5.0989564326
  0
LINE
  5
244
100
AcDbEntity
  8
0
100
AcDbLine
 62
7
  6
CONTINUOUS
 10
3.0231970123
 20
3.6085284326
 11
3.0231970123
 21
4.7185284326
  0
LINE
  5
245
100
AcDbEntity
  8
03__ASM_ALL_CURVES
100
AcDbLine
 62
40
  6
CONTINUOUS
 10
3.0408720123
 20
5.1709397635
 11
3.0408720123
 21
5.150373098
  0
LINE
  5
246
100
AcDbEntity
  8
0
100
AcDbLine
 62
7
  6
CONTINUOUS
 10
3.0688076836
 20
3.5295284326
 11
3.0688076836
 21
3.5301431231
  0
LINE
  5
247
100
AcDbEntity
  8
0
100
AcDbLine
 62
7
  6
CONTINUOUS
 10
3.0688076836
 20
3.8226637421
 11
3.0688076836
 21
3.8710078137
  0
LINE
  5
248
100
AcDbEntity
  8
0
100
AcDbLine
 62
7
  6
CONTINUOUS
 10
3.0688076836
 20
4.4560490515
 11
3.0688076836
 21
4.5043931231
  0
LINE
  5
249
100
AcDbEntity
  8
0
100
AcDbLine
 62
7
  6
CONTINUOUS
 10
3.0688076836
 20
4.7969137421
 11
3.0688076836
 21
4.7975284326
  0
LINE
  5
24A
100
AcDbEntity
  8
03__ASM_ALL_CURVES
100
AcDbLine
 62
40
  6
CONTINUOUS
 10
3.0485845123
 20
5.2017897635
 11
3.0408720123
 21
5.1709397635
  0
LINE
  5
24B
100
AcDbEntity
  8
03__ASM_ALL_CURVES
100
AcDbLine
 62
40
  6
CONTINUOUS
 10
2.8403470123
 20
5.1915064326
 11
2.8326345123
 21
5.1812231017
  0
LINE
  5
24C
100
AcDbEntity
  8
03__ASM_ALL_CURVES
100
AcDbLine
 62
40
  6
CONTINUOUS
 10
2.8480595123
 20
5.1298064326
 11
2.8326345123
 21
5.1092397662
  0
LINE
  5
24D
100
AcDbEntity
  8
03__ASM_ALL_CURVES
100
AcDbLine
 62
40
  6
CONTINUOUS
 10
3.0640095123
 20
5.2223564326
 11
3.0485845123
 21
5.2017897635
  0
LINE
  5
24E
100
AcDbEntity
  8
0
100
AcDbLine
 62
7
  6
CONTINUOUS
 10
2.5851970123
 20
3.6665284326
 11
2.5231970123
 21
3.7285284326
  0
LINE
  5
24F
100
AcDbEntity
  8
0
100
AcDbLine
 62
7
  6
CONTINUOUS
 10
3.0688076836
 20
3.5295284326
 11
3.0231970123
 21
3.6085284326
  0
LINE
  5
250
100
AcDbEntity
  8
03__ASM_ALL_CURVES
100
AcDbLine
 62
40
  6
CONTINUOUS
 10
3.2105470123
 20
5.2017897635
 11
3.2105470123
 21
5.1915064326
  0
LINE
  5
251
100
AcDbEntity
  8
03__ASM_ALL_CURVES
100
AcDbLine
 62
40
  6
CONTINUOUS
 10
3.2182595123
 20
5.1400897672
 11
3.2182595123
 21
5.1298064326
  0
LINE
  5
252
100
AcDbEntity
  8
0
100
AcDbLine
 62
7
  6
CONTINUOUS
 10
3.0685415148
 20
4.7970674147
 11
3.0231970123
 21
4.7185284326
  0
LINE
  5
253
100
AcDbEntity
  8
03__ASM_ALL_CURVES
100
AcDbLine
 62
40
  6
CONTINUOUS
 10
3.2105470123
 20
5.1915064326
 11
3.2028345123
 21
5.1812231017
  0
LINE
  5
254
100
AcDbEntity
  8
03__ASM_ALL_CURVES
100
AcDbLine
 62
40
  6
CONTINUOUS
 10
3.2182595123
 20
5.1298064326
 11
3.2028345123
 21
5.1092397662
  0
LINE
  5
255
100
AcDbEntity
  8
03__ASM_ALL_CURVES
100
AcDbLine
 62
40
  6
CONTINUOUS
 10
3.3339470123
 20
5.1915064326
 11
3.3262345123
 21
5.1812231017
  0
LINE
  5
256
100
AcDbEntity
  8
03__ASM_ALL_CURVES
100
AcDbLine
 62
40
  6
CONTINUOUS
 10
3.3416595123
 20
5.1298064326
 11
3.3262345123
 21
5.1092397662
  0
LINE
  5
257
100
AcDbEntity
  8
0
100
AcDbLine
 62
7
  6
CONTINUOUS
 10
2.5851970123
 20
4.6605284326
 11
2.5231970123
 21
4.5985284326
  0
LINE
  5
258
100
AcDbEntity
  8
03__ASM_ALL_CURVES
100
AcDbLine
 62
40
  6
CONTINUOUS
 10
3.3339470123
 20
5.2017897635
 11
3.3339470123
 21
5.1915064326
  0
LINE
  5
259
100
AcDbEntity
  8
03__ASM_ALL_CURVES
100
AcDbLine
 62
40
  6
CONTINUOUS
 10
3.3416595123
 20
5.1400897672
 11
3.3416595123
 21
5.1298064326
  0
LINE
  5
25A
100
AcDbEntity
  8
03__ASM_ALL_CURVES
100
AcDbLine
 62
40
  6
CONTINUOUS
 10
3.4187845123
 20
5.0989564326
 11
3.4187845123
 21
5.1092397662
  0
LINE
  5
25B
100
AcDbEntity
  8
03__ASM_ALL_CURVES
100
AcDbLine
 62
40
  6
CONTINUOUS
 10
3.5267595123
 20
5.1298064326
 11
3.5190470123
 21
5.0989564326
  0
LINE
  5
25C
100
AcDbEntity
  8
03__ASM_ALL_CURVES
100
AcDbLine
 62
40
  6
CONTINUOUS
 10
3.6810095123
 20
5.150373098
 11
3.6887220123
 21
5.1812231017
  0
LINE
  5
25D
100
AcDbEntity
  8
03__ASM_ALL_CURVES
100
AcDbLine
 62
40
  6
CONTINUOUS
 10
3.6887220123
 20
5.1812231017
 11
3.7041470123
 21
5.2223564326
  0
LINE
  5
25E
100
AcDbEntity
  8
03__ASM_ALL_CURVES
100
AcDbLine
 62
40
  6
CONTINUOUS
 10
3.5190470123
 20
5.2017897635
 11
3.5267595123
 21
5.2120731017
  0
LINE
  5
25F
100
AcDbEntity
  8
03__ASM_ALL_CURVES
100
AcDbLine
 62
40
  6
CONTINUOUS
 10
3.5421845123
 20
5.150373098
 11
3.5267595123
 21
5.1298064326
  0
LINE
  5
260
100
AcDbEntity
  8
03__ASM_ALL_CURVES
100
AcDbLine
 62
40
  6
CONTINUOUS
 10
3.5807470123
 20
5.1812231017
 11
3.5730345123
 21
5.1709397635
  0
LINE
  5
261
100
AcDbEntity
  8
03__ASM_ALL_CURVES
100
AcDbLine
 62
40
  6
CONTINUOUS
 10
2.7863595123
 20
5.2120731017
 11
2.8017845123
 21
5.2223564326
  0
LINE
  5
262
100
AcDbEntity
  8
03__ASM_ALL_CURVES
100
AcDbLine
 62
40
  6
CONTINUOUS
 10
2.8326345123
 20
5.1812231017
 11
2.8172095123
 21
5.1709397635
  0
LINE
  5
263
100
AcDbEntity
  8
03__ASM_ALL_CURVES
100
AcDbLine
 62
40
  6
CONTINUOUS
 10
2.8326345123
 20
5.1092397662
 11
2.8172095123
 21
5.0989564326
  0
LINE
  5
264
100
AcDbEntity
  8
03__ASM_ALL_CURVES
100
AcDbLine
 62
40
  6
CONTINUOUS
 10
3.0408720123
 20
5.150373098
 11
3.0485845123
 21
5.1195230999
  0
LINE
  5
265
100
AcDbEntity
  8
03__ASM_ALL_CURVES
100
AcDbLine
 62
40
  6
CONTINUOUS
 10
3.5807470123
 20
5.2017897635
 11
3.5807470123
 21
5.1812231017
  0
LINE
  5
266
100
AcDbEntity
  8
0
100
AcDbLine
 62
7
  6
CONTINUOUS
 10
3.5927713865
 20
3.5295284326
 11
3.5927713865
 21
3.5301431231
  0
LINE
  5
267
100
AcDbEntity
  8
0
100
AcDbLine
 62
7
  6
CONTINUOUS
 10
3.5927713865
 20
3.8226637421
 11
3.5927713865
 21
3.8710078137
  0
LINE
  5
268
100
AcDbEntity
  8
0
100
AcDbLine
 62
7
  6
CONTINUOUS
 10
3.5927713865
 20
4.4560490515
 11
3.5927713865
 21
4.5043931231
  0
LINE
  5
269
100
AcDbEntity
  8
0
100
AcDbLine
 62
7
  6
CONTINUOUS
 10
3.5927713865
 20
4.7969137421
 11
3.5927713865
 21
4.7975284326
  0
LINE
  5
26A
100
AcDbEntity
  8
0
100
AcDbLine
 62
7
  6
CONTINUOUS
 10
3.6481970123
 20
3.6255284326
 11
3.6481970123
 21
4.7015284326
  0
LINE
  5
26B
100
AcDbEntity
  8
03__ASM_ALL_CURVES
100
AcDbLine
 62
40
  6
CONTINUOUS
 10
3.6881170123
 20
5.0742764326
 11
3.6881170123
 21
5.0249164326
  0
LINE
  5
26C
100
AcDbEntity
  8
03__ASM_ALL_CURVES
100
AcDbLine
 62
40
  6
CONTINUOUS
 10
3.6732970123
 20
5.0989564326
 11
3.6810095123
 21
5.150373098
  0
LINE
  5
26D
100
AcDbEntity
  8
03__ASM_ALL_CURVES
100
AcDbLine
 62
40
  6
CONTINUOUS
 10
3.8121220123
 20
5.150373098
 11
3.8044095123
 21
5.1195230999
  0
LINE
  5
26E
100
AcDbEntity
  8
03__ASM_ALL_CURVES
100
AcDbLine
 62
40
  6
CONTINUOUS
 10
3.8044095123
 20
5.1195230999
 11
3.7889845123
 21
5.0989564326
  0
LINE
  5
26F
100
AcDbEntity
  8
03__ASM_ALL_CURVES
100
AcDbLine
 62
40
  6
CONTINUOUS
 10
3.1565595123
 20
5.2120731017
 11
3.1719845123
 21
5.2223564326
  0
LINE
  5
270
100
AcDbEntity
  8
03__ASM_ALL_CURVES
100
AcDbLine
 62
40
  6
CONTINUOUS
 10
3.2028345123
 20
5.1812231017
 11
3.1874095123
 21
5.1709397635
  0
LINE
  5
271
100
AcDbEntity
  8
03__ASM_ALL_CURVES
100
AcDbLine
 62
40
  6
CONTINUOUS
 10
3.2799595123
 20
5.2120731017
 11
3.2953845123
 21
5.2223564326
  0
LINE
  5
272
100
AcDbEntity
  8
03__ASM_ALL_CURVES
100
AcDbLine
 62
40
  6
CONTINUOUS
 10
3.2028345123
 20
5.1092397662
 11
3.1874095123
 21
5.0989564326
  0
LINE
  5
273
100
AcDbEntity
  8
03__ASM_ALL_CURVES
100
AcDbLine
 62
40
  6
CONTINUOUS
 10
3.3262345123
 20
5.1812231017
 11
3.3108095123
 21
5.1709397635
  0
LINE
  5
274
100
AcDbEntity
  8
03__ASM_ALL_CURVES
100
AcDbLine
 62
40
  6
CONTINUOUS
 10
3.3262345123
 20
5.1092397662
 11
3.3108095123
 21
5.0989564326
  0
LINE
  5
275
100
AcDbEntity
  8
03__ASM_ALL_CURVES
100
AcDbLine
 62
40
  6
CONTINUOUS
 10
3.5267595123
 20
5.2120731017
 11
3.5421845123
 21
5.2223564326
  0
LINE
  5
276
100
AcDbEntity
  8
03__ASM_ALL_CURVES
100
AcDbLine
 62
40
  6
CONTINUOUS
 10
3.8121220123
 20
5.1709397635
 11
3.8121220123
 21
5.150373098
  0
LINE
  5
277
100
AcDbEntity
  8
0
100
AcDbLine
 62
7
  6
CONTINUOUS
 10
3.8331970123
 20
4.7015284326
 11
3.8331970123
 21
3.6255284326
  0
LINE
  5
278
100
AcDbEntity
  8
0
100
AcDbLine
 62
7
  6
CONTINUOUS
 10
3.8361970123
 20
4.6985284326
 11
3.8361970123
 21
3.6285284326
  0
LINE
  5
279
100
AcDbEntity
  8
03__ASM_ALL_CURVES
100
AcDbLine
 62
40
  6
CONTINUOUS
 10
3.8361970123
 20
4.7262084326
 11
3.8361970123
 21
5.0989564326
  0
LINE
  5
27A
100
AcDbEntity
  8
0
100
AcDbLine
 62
7
  6
CONTINUOUS
 10
3.8386970123
 20
3.6374718083
 11
3.8386970123
 21
4.6895850569
  0
LINE
  5
27B
100
AcDbEntity
  8
0
100
AcDbLine
 62
7
  6
CONTINUOUS
 10
3.8575534188
 20
3.6483585596
 11
3.8575534188
 21
4.6786983056
  0
LINE
  5
27C
100
AcDbEntity
  8
0
100
AcDbLine
 62
7
  6
CONTINUOUS
 10
3.8600534188
 20
3.6490284326
 11
3.8600534188
 21
4.6780284326
  0
LINE
  5
27D
100
AcDbEntity
  8
THREAD
100
AcDbLine
 62
7
  6
CONTINUOUS
 10
3.8831970123
 20
3.6490284326
 11
3.8831970123
 21
4.6780284326
  0
LINE
  5
27E
100
AcDbEntity
  8
0
100
AcDbLine
 62
7
  6
CONTINUOUS
 10
3.9531970123
 20
3.6515284326
 11
3.9531970123
 21
4.6755284326
  0
LINE
  5
27F
100
AcDbEntity
  8
03__ASM_ALL_CURVES
100
AcDbLine
 62
40
  6
CONTINUOUS
 10
3.9842770123
 20
5.0742764326
 11
3.9842770123
 21
5.0249164326
  0
LINE
  5
280
100
AcDbEntity
  8
0
100
AcDbLine
 62
7
  6
CONTINUOUS
 10
4.0031970123
 20
3.6515284326
 11
4.0031970123
 21
4.6755284326
  0
LINE
  5
281
100
AcDbEntity
  8
03__ASM_ALL_CURVES
100
AcDbLine
 62
40
  6
CONTINUOUS
 10
4.1416120116
 20
5.1606564326
 11
4.1493245116
 21
5.1915064326
  0
LINE
  5
282
100
AcDbEntity
  8
03__ASM_ALL_CURVES
100
AcDbLine
 62
40
  6
CONTINUOUS
 10
4.1493245116
 20
5.1915064326
 11
4.1647495116
 21
5.2120731017
  0
LINE
  5
283
100
AcDbEntity
  8
03__ASM_ALL_CURVES
100
AcDbLine
 62
40
  6
CONTINUOUS
 10
3.5730345123
 20
5.1709397635
 11
3.5421845123
 21
5.150373098
  0
LINE
  5
284
100
AcDbEntity
  8
03__ASM_ALL_CURVES
100
AcDbLine
 62
40
  6
CONTINUOUS
 10
2.6783845123
 20
5.1092397662
 11
2.6860970123
 21
5.0989564326
  0
LINE
  5
285
100
AcDbEntity
  8
03__ASM_ALL_CURVES
100
AcDbLine
 62
40
  6
CONTINUOUS
 10
2.7863595123
 20
5.1092397662
 11
2.7786470123
 21
5.1195230999
  0
LINE
  5
286
100
AcDbEntity
  8
03__ASM_ALL_CURVES
100
AcDbLine
 62
40
  6
CONTINUOUS
 10
2.8326345123
 20
5.1606564326
 11
2.8480595123
 21
5.1400897672
  0
LINE
  5
287
100
AcDbEntity
  8
03__ASM_ALL_CURVES
100
AcDbLine
 62
40
  6
CONTINUOUS
 10
2.8326345123
 20
5.2120731017
 11
2.8403470123
 21
5.2017897635
  0
LINE
  5
288
100
AcDbEntity
  8
THREAD
100
AcDbLine
 62
7
  6
CONTINUOUS
 10
4.0461363226
 20
3.6675284326
 11
4.0279497891
 21
3.6990284326
  0
LINE
  5
289
100
AcDbEntity
  8
THREAD
100
AcDbLine
 62
7
  6
CONTINUOUS
 10
4.0166914588
 20
3.7055284326
 11
4.0166914588
 21
4.6215284326
  0
LINE
  5
28A
100
AcDbEntity
  8
THREAD
100
AcDbLine
 62
7
  6
CONTINUOUS
 10
4.0279497891
 20
3.6990284326
 11
4.0279497891
 21
4.6280284326
  0
LINE
  5
28B
100
AcDbEntity
  8
03__ASM_ALL_CURVES
100
AcDbLine
 62
40
  6
CONTINUOUS
 10
4.0336370116
 20
5.2223564326
 11
4.0336370116
 21
5.0989564326
  0
LINE
  5
28C
100
AcDbEntity
  8
THREAD
100
AcDbLine
 62
7
  6
CONTINUOUS
 10
4.0461363226
 20
3.6675284326
 11
4.0461363226
 21
4.6595284326
  0
LINE
  5
28D
100
AcDbEntity
  8
03__ASM_ALL_CURVES
100
AcDbLine
 62
40
  6
CONTINUOUS
 10
4.2341620116
 20
5.1606564326
 11
4.2264495116
 21
5.1298064326
  0
LINE
  5
28E
100
AcDbEntity
  8
03__ASM_ALL_CURVES
100
AcDbLine
 62
40
  6
CONTINUOUS
 10
4.2650120116
 20
5.1606564326
 11
4.2727245116
 21
5.1915064326
  0
LINE
  5
28F
100
AcDbEntity
  8
03__ASM_ALL_CURVES
100
AcDbLine
 62
40
  6
CONTINUOUS
 10
4.3961245116
 20
5.0989564326
 11
4.4346870116
 21
5.2223564326
  0
LINE
  5
290
100
AcDbEntity
  8
THREAD
100
AcDbLine
 62
7
  6
CONTINUOUS
 10
4.0461363226
 20
4.6595284326
 11
4.0279497891
 21
4.6280284326
  0
LINE
  5
291
100
AcDbEntity
  8
03__ASM_ALL_CURVES
100
AcDbLine
 62
40
  6
CONTINUOUS
 10
4.2264495116
 20
5.1298064326
 11
4.2110245116
 21
5.1092397662
  0
LINE
  5
292
100
AcDbEntity
  8
03__ASM_ALL_CURVES
100
AcDbLine
 62
40
  6
CONTINUOUS
 10
4.2727245116
 20
5.1915064326
 11
4.2881495116
 21
5.2120731017
  0
LINE
  5
293
100
AcDbEntity
  8
03__ASM_ALL_CURVES
100
AcDbLine
 62
40
  6
CONTINUOUS
 10
4.3421370116
 20
5.1195230999
 11
4.3344245116
 21
5.1092397662
  0
LINE
  5
294
100
AcDbEntity
  8
03__ASM_ALL_CURVES
100
AcDbLine
 62
40
  6
CONTINUOUS
 10
4.1647495116
 20
5.2120731017
 11
4.1801745116
 21
5.2223564326
  0
LINE
  5
295
100
AcDbEntity
  8
03__ASM_ALL_CURVES
100
AcDbLine
 62
40
  6
CONTINUOUS
 10
4.2881495116
 20
5.2120731017
 11
4.3035745116
 21
5.2223564326
  0
LINE
  5
296
100
AcDbEntity
  8
03__ASM_ALL_CURVES
100
AcDbLine
 62
40
  6
CONTINUOUS
 10
4.2110245116
 20
5.1092397662
 11
4.1955995116
 21
5.0989564326
  0
LINE
  5
297
100
AcDbEntity
  8
03__ASM_ALL_CURVES
100
AcDbLine
 62
40
  6
CONTINUOUS
 10
3.0485845123
 20
5.1195230999
 11
3.0640095123
 21
5.0989564326
  0
LINE
  5
298
100
AcDbEntity
  8
03__ASM_ALL_CURVES
100
AcDbLine
 62
40
  6
CONTINUOUS
 10
3.1565595123
 20
5.1092397662
 11
3.1488470123
 21
5.1195230999
  0
LINE
  5
299
100
AcDbEntity
  8
0
100
AcDbLine
 62
7
  6
CONTINUOUS
 10
3.6481970123
 20
4.7015284326
 11
3.5930375553
 21
4.7970674147
  0
LINE
  5
29A
100
AcDbEntity
  8
03__ASM_ALL_CURVES
100
AcDbLine
 62
40
  6
CONTINUOUS
 10
3.8044095123
 20
5.2017897635
 11
3.8121220123
 21
5.1709397635
  0
LINE
  5
29B
100
AcDbEntity
  8
THREAD
100
AcDbLine
 62
7
  6
CONTINUOUS
 10
4.3541970123
 20
3.6675284326
 11
4.3541970123
 21
4.6595284326
  0
LINE
  5
29C
100
AcDbEntity
  8
THREAD
100
AcDbLine
 62
7
  6
CONTINUOUS
 10
4.3981970123
 20
3.7115284326
 11
4.3981970123
 21
4.6155284326
  0
LINE
  5
29D
100
AcDbEntity
  8
0
100
AcDbLine
 62
7
  6
CONTINUOUS
 10
3.6481970123
 20
3.6255284326
 11
3.5930375553
 21
3.5299894505
  0
LINE
  5
29E
100
AcDbEntity
  8
03__ASM_ALL_CURVES
100
AcDbLine
 62
40
  6
CONTINUOUS
 10
4.3344245116
 20
5.1092397662
 11
4.3189995116
 21
5.0989564326
  0
LINE
  5
29F
100
AcDbEntity
  8
03__ASM_ALL_CURVES
100
AcDbLine
 62
40
  6
CONTINUOUS
 10
3.2028345123
 20
5.1606564326
 11
3.2182595123
 21
5.1400897672
  0
LINE
  5
2A0
100
AcDbEntity
  8
03__ASM_ALL_CURVES
100
AcDbLine
 62
40
  6
CONTINUOUS
 10
3.2028345123
 20
5.2120731017
 11
3.2105470123
 21
5.2017897635
  0
LINE
  5
2A1
100
AcDbEntity
  8
03__ASM_ALL_CURVES
100
AcDbLine
 62
40
  6
CONTINUOUS
 10
3.2799595123
 20
5.1092397662
 11
3.2722470123
 21
5.1195230999
  0
LINE
  5
2A2
100
AcDbEntity
  8
03__ASM_ALL_CURVES
100
AcDbLine
 62
40
  6
CONTINUOUS
 10
3.3262345123
 20
5.1606564326
 11
3.3416595123
 21
5.1400897672
  0
LINE
  5
2A3
100
AcDbEntity
  8
03__ASM_ALL_CURVES
100
AcDbLine
 62
40
  6
CONTINUOUS
 10
3.3262345123
 20
5.2120731017
 11
3.3339470123
 21
5.2017897635
  0
LINE
  5
2A4
100
AcDbEntity
  8
03__ASM_ALL_CURVES
100
AcDbLine
 62
40
  6
CONTINUOUS
 10
3.4187845123
 20
5.1092397662
 11
3.4264970123
 21
5.0989564326
  0
LINE
  5
2A5
100
AcDbEntity
  8
03__ASM_ALL_CURVES
100
AcDbLine
 62
40
  6
CONTINUOUS
 10
4.7685579714
 20
3.4368159344
 11
4.7743423464
 21
3.4291034308
  0
LINE
  5
2A6
100
AcDbEntity
  8
03__ASM_ALL_CURVES
100
AcDbLine
 62
40
  6
CONTINUOUS
 10
4.8264017214
 20
3.3596909328
 11
4.8148329714
 21
3.3751159326
  0
LINE
  5
2A7
100
AcDbEntity
  8
03__ASM_ALL_CURVES
100
AcDbLine
 62
40
  6
CONTINUOUS
 10
4.1493245116
 20
5.1298064326
 11
4.1416120116
 21
5.1606564326
  0
LINE
  5
2A8
100
AcDbEntity
  8
03__ASM_ALL_CURVES
100
AcDbLine
 62
40
  6
CONTINUOUS
 10
4.5580870116
 20
5.2223564326
 11
4.5580870116
 21
5.0989564326
  0
LINE
  5
2A9
100
AcDbEntity
  8
0
100
AcDbLine
 62
7
  6
CONTINUOUS
 10
4.6011970123
 20
3.7115284326
 11
4.6011970123
 21
4.6155284326
  0
LINE
  5
2AA
100
AcDbEntity
  8
0
100
AcDbLine
 62
7
  6
CONTINUOUS
 10
4.6171970123
 20
3.7275284326
 11
4.6171970123
 21
4.5995284326
  0
LINE
  5
2AB
100
AcDbEntity
  8
03__ASM_ALL_CURVES
100
AcDbLine
 62
40
  6
CONTINUOUS
 10
4.6814870116
 20
5.2223564326
 11
4.6814870116
 21
5.0989564326
  0
LINE
  5
2AC
100
AcDbEntity
  8
03__ASM_ALL_CURVES
100
AcDbLine
 62
40
  6
CONTINUOUS
 10
4.8897245116
 20
5.1915064326
 11
4.9051495116
 21
5.2120731017
  0
LINE
  5
2AD
100
AcDbEntity
  8
03__ASM_ALL_CURVES
100
AcDbLine
 62
40
  6
CONTINUOUS
 10
4.9591370116
 20
5.1195230999
 11
4.9514245116
 21
5.1092397662
  0
LINE
  5
2AE
100
AcDbEntity
  8
03__ASM_ALL_CURVES
100
AcDbLine
 62
40
  6
CONTINUOUS
 10
4.9051495116
 20
5.2120731017
 11
4.9205745116
 21
5.2223564326
  0
LINE
  5
2AF
100
AcDbEntity
  8
03__ASM_ALL_CURVES
100
AcDbLine
 62
40
  6
CONTINUOUS
 10
4.9514245116
 20
5.1092397662
 11
4.9359995116
 21
5.0989564326
  0
LINE
  5
2B0
100
AcDbEntity
  8
03__ASM_ALL_CURVES
100
AcDbLine
 62
40
  6
CONTINUOUS
 10
5.1673745116
 20
5.2223564326
 11
5.1519495116
 21
5.2120731017
  0
LINE
  5
2B1
100
AcDbEntity
  8
03__ASM_ALL_CURVES
100
AcDbLine
 62
40
  6
CONTINUOUS
 10
4.8379704714
 20
3.3519784326
 11
4.8264017214
 21
3.3596909328
  0
LINE
  5
2B2
100
AcDbEntity
  8
03__ASM_ALL_CURVES
100
AcDbLine
 62
40
  6
CONTINUOUS
 10
4.7569892214
 20
3.4445284326
 11
4.7685579714
 21
3.4368159344
  0
LINE
  5
2B3
100
AcDbEntity
  8
03__ASM_ALL_CURVES
100
AcDbLine
 62
40
  6
CONTINUOUS
 10
4.8495392214
 20
3.4445284326
 11
4.8611079714
 21
3.4368159344
  0
LINE
  5
2B4
100
AcDbEntity
  8
03__ASM_ALL_CURVES
100
AcDbLine
 62
40
  6
CONTINUOUS
 10
4.9420892214
 20
3.4445284326
 11
4.9536579714
 21
3.4368159344
  0
LINE
  5
2B5
100
AcDbEntity
  8
03__ASM_ALL_CURVES
100
AcDbLine
 62
40
  6
CONTINUOUS
 10
4.8611079714
 20
3.4368159344
 11
4.8726767214
 21
3.4213909326
  0
LINE
  5
2B6
100
AcDbEntity
  8
03__ASM_ALL_CURVES
100
AcDbLine
 62
40
  6
CONTINUOUS
 10
3.5730345123
 20
5.2120731017
 11
3.5807470123
 21
5.2017897635
  0
LINE
  5
2B7
100
AcDbEntity
  8
03__ASM_ALL_CURVES
100
AcDbLine
 62
40
  6
CONTINUOUS
 10
4.9536579714
 20
3.4368159344
 11
4.9594423464
 21
3.4291034308
  0
LINE
  5
2B8
100
AcDbEntity
  8
03__ASM_ALL_CURVES
100
AcDbLine
 62
40
  6
CONTINUOUS
 10
4.9420892214
 20
3.3982534326
 11
4.9594423464
 21
3.3519784326
  0
LINE
  5
2B9
100
AcDbEntity
  8
03__ASM_ALL_CURVES
100
AcDbLine
 62
40
  6
CONTINUOUS
 10
4.2264495116
 20
5.1915064326
 11
4.2341620116
 21
5.1606564326
  0
LINE
  5
2BA
100
AcDbEntity
  8
03__ASM_ALL_CURVES
100
AcDbLine
 62
40
  6
CONTINUOUS
 10
4.2727245116
 20
5.1298064326
 11
4.2650120116
 21
5.1606564326
  0
LINE
  5
2BB
100
AcDbEntity
  8
03__ASM_ALL_CURVES
100
AcDbLine
 62
40
  6
CONTINUOUS
 10
4.8148329714
 20
3.3751159326
 11
4.8090485964
 21
3.3982534326
  0
LINE
  5
2BC
100
AcDbEntity
  8
03__ASM_ALL_CURVES
100
AcDbLine
 62
40
  6
CONTINUOUS
 10
4.8726767214
 20
3.4213909326
 11
4.8784610964
 21
3.3982534326
  0
LINE
  5
2BD
100
AcDbEntity
  8
03__ASM_ALL_CURVES
100
AcDbLine
 62
40
  6
CONTINUOUS
 10
4.7280673464
 20
3.3519784326
 11
4.7280673464
 21
3.4445284326
  0
LINE
  5
2BE
100
AcDbEntity
  8
03__ASM_ALL_CURVES
100
AcDbLine
 62
40
  6
CONTINUOUS
 10
4.7740370116
 20
5.0989564326
 11
4.7740370116
 21
5.2223564326
  0
LINE
  5
2BF
100
AcDbEntity
  8
03__ASM_ALL_CURVES
100
AcDbLine
 62
40
  6
CONTINUOUS
 10
4.7743423464
 20
3.4291034308
 11
4.7743423464
 21
3.4136784344
  0
LINE
  5
2C0
100
AcDbEntity
  8
03__ASM_ALL_CURVES
100
AcDbLine
 62
40
  6
CONTINUOUS
 10
4.8357370116
 20
5.0989564326
 11
4.8357370116
 21
5.2223564326
  0
LINE
  5
2C1
100
AcDbEntity
  8
03__ASM_ALL_CURVES
100
AcDbLine
 62
40
  6
CONTINUOUS
 10
4.9131673464
 20
3.3519784326
 11
4.9131673464
 21
3.4445284326
  0
LINE
  5
2C2
100
AcDbEntity
  8
03__ASM_ALL_CURVES
100
AcDbLine
 62
40
  6
CONTINUOUS
 10
4.8820120116
 20
5.1606564326
 11
4.8897245116
 21
5.1915064326
  0
LINE
  5
2C3
100
AcDbEntity
  8
03__ASM_ALL_CURVES
100
AcDbLine
 62
40
  6
CONTINUOUS
 10
5.1519495116
 20
5.2120731017
 11
5.1442370116
 21
5.2017897635
  0
LINE
  5
2C4
100
AcDbEntity
  8
03__ASM_ALL_CURVES
100
AcDbLine
 62
40
  6
CONTINUOUS
 10
5.2059370116
 20
5.1195230999
 11
5.1982245116
 21
5.1092397662
  0
LINE
  5
2C5
100
AcDbEntity
  8
03__ASM_ALL_CURVES
100
AcDbLine
 62
40
  6
CONTINUOUS
 10
5.1982245116
 20
5.1092397662
 11
5.1827995116
 21
5.0989564326
  0
LINE
  5
2C6
100
AcDbEntity
  8
03__ASM_ALL_CURVES
100
AcDbLine
 62
40
  6
CONTINUOUS
 10
5.3987495116
 20
5.2120731017
 11
5.4141745116
 21
5.2223564326
  0
LINE
  5
2C7
100
AcDbEntity
  8
03__ASM_ALL_CURVES
100
AcDbLine
 62
40
  6
CONTINUOUS
 10
5.4450245116
 20
5.1092397662
 11
5.4295995116
 21
5.0989564326
  0
LINE
  5
2C8
100
AcDbEntity
  8
03__ASM_ALL_CURVES
100
AcDbLine
 62
40
  6
CONTINUOUS
 10
6.837431358
 20
3.3519784326
 11
6.825862608
 21
3.3519784326
  0
LINE
  5
2C9
100
AcDbEntity
  8
03__ASM_ALL_CURVES
100
AcDbLine
 62
40
  6
CONTINUOUS
 10
6.1581891022
 20
3.3519784326
 11
6.1466203522
 21
3.3519784326
  0
LINE
  5
2CA
100
AcDbEntity
  8
03__ASM_ALL_CURVES
100
AcDbLine
 62
40
  6
CONTINUOUS
 10
5.8805391022
 20
3.3519784326
 11
5.8689703522
 21
3.3519784326
  0
LINE
  5
2CB
100
AcDbEntity
  8
03__ASM_ALL_CURVES
100
AcDbLine
 62
40
  6
CONTINUOUS
 10
4.8495392214
 20
3.3519784326
 11
4.8379704714
 21
3.3519784326
  0
LINE
  5
2CC
100
AcDbEntity
  8
03__ASM_ALL_CURVES
100
AcDbLine
 62
40
  6
CONTINUOUS
 10
7.086159483
 20
3.3519784326
 11
7.132434483
 21
3.3519784326
  0
LINE
  5
2CD
100
AcDbEntity
  8
03__ASM_ALL_CURVES
100
AcDbLine
 62
40
  6
CONTINUOUS
 10
5.0982673464
 20
3.3751159326
 11
5.1503267214
 21
3.3751159326
  0
LINE
  5
2CE
100
AcDbEntity
  8
03__ASM_ALL_CURVES
100
AcDbLine
 62
40
  6
CONTINUOUS
 10
6.929981358
 20
3.3982534326
 11
6.901059483
 21
3.3982534326
  0
LINE
  5
2CF
100
AcDbEntity
  8
03__ASM_ALL_CURVES
100
AcDbLine
 62
40
  6
CONTINUOUS
 10
6.744881358
 20
3.3982534326
 11
6.715959483
 21
3.3982534326
  0
LINE
  5
2D0
100
AcDbEntity
  8
03__ASM_ALL_CURVES
100
AcDbLine
 62
40
  6
CONTINUOUS
 10
5.9730891022
 20
3.3982534326
 11
5.9441672272
 21
3.3982534326
  0
LINE
  5
2D1
100
AcDbEntity
  8
03__ASM_ALL_CURVES
100
AcDbLine
 62
40
  6
CONTINUOUS
 10
5.7879891022
 20
3.3982534326
 11
5.7590672272
 21
3.3982534326
  0
LINE
  5
2D2
100
AcDbEntity
  8
03__ASM_ALL_CURVES
100
AcDbLine
 62
40
  6
CONTINUOUS
 10
4.9420892214
 20
3.3982534326
 11
4.9131673464
 21
3.3982534326
  0
LINE
  5
2D3
100
AcDbEntity
  8
03__ASM_ALL_CURVES
100
AcDbLine
 62
40
  6
CONTINUOUS
 10
4.7569892214
 20
3.3982534326
 11
4.7280673464
 21
3.3982534326
  0
LINE
  5
2D4
100
AcDbEntity
  8
03__ASM_ALL_CURVES
100
AcDbLine
 62
40
  6
CONTINUOUS
 10
6.1466203522
 20
3.4059659308
 11
6.1581891022
 21
3.4059659308
  0
LINE
  5
2D5
100
AcDbEntity
  8
03__ASM_ALL_CURVES
100
AcDbLine
 62
40
  6
CONTINUOUS
 10
2.8017845123
 20
5.0989564326
 11
2.7863595123
 21
5.1092397662
  0
LINE
  5
2D6
100
AcDbEntity
  8
03__ASM_ALL_CURVES
100
AcDbLine
 62
40
  6
CONTINUOUS
 10
2.8172095123
 20
5.1709397635
 11
2.8326345123
 21
5.1606564326
  0
LINE
  5
2D7
100
AcDbEntity
  8
03__ASM_ALL_CURVES
100
AcDbLine
 62
40
  6
CONTINUOUS
 10
3.7889845123
 20
5.2223564326
 11
3.8044095123
 21
5.2017897635
  0
LINE
  5
2D8
100
AcDbEntity
  8
03__ASM_ALL_CURVES
100
AcDbLine
 62
40
  6
CONTINUOUS
 10
4.4346870116
 20
5.2223564326
 11
4.4732495116
 21
5.0989564326
  0
LINE
  5
2D9
100
AcDbEntity
  8
0
100
AcDbLine
 62
7
  6
CONTINUOUS
 10
4.9341970123
 20
4.3623736466
 11
4.9341970123
 21
4.291667967
  0
LINE
  5
2DA
100
AcDbEntity
  8
0
100
AcDbLine
 62
7
  6
CONTINUOUS
 10
4.9341970123
 20
4.0353864409
 11
4.9341970123
 21
3.9646964582
  0
LINE
  5
2DB
100
AcDbEntity
  8
03__ASM_ALL_CURVES
100
AcDbLine
 62
40
  6
CONTINUOUS
 10
4.9591370116
 20
5.1606564326
 11
4.9591370116
 21
5.1195230999
  0
LINE
  5
2DC
100
AcDbEntity
  8
03__ASM_ALL_CURVES
100
AcDbLine
 62
40
  6
CONTINUOUS
 10
4.9594423464
 20
3.4291034308
 11
4.9594423464
 21
3.4136784344
  0
LINE
  5
2DD
100
AcDbEntity
  8
0
100
AcDbLine
 62
7
  6
CONTINUOUS
 10
4.9971970123
 20
4.382251042
 11
4.9971970123
 21
4.2641068202
  0
LINE
  5
2DE
100
AcDbEntity
  8
0
100
AcDbLine
 62
7
  6
CONTINUOUS
 10
4.9971970123
 20
4.0629471685
 11
4.9971970123
 21
3.9448342405
  0
LINE
  5
2DF
100
AcDbEntity
  8
03__ASM_ALL_CURVES
100
AcDbLine
 62
40
  6
CONTINUOUS
 10
5.0288548464
 20
3.4445284326
 11
5.0288548464
 21
3.3519784326
  0
LINE
  5
2E0
100
AcDbEntity
  8
0
100
AcDbLine
 62
7
  6
CONTINUOUS
 10
5.0491970123
 20
4.3749084455
 11
5.0491970123
 21
4.274626757
  0
LINE
  5
2E1
100
AcDbEntity
  8
0
100
AcDbLine
 62
7
  6
CONTINUOUS
 10
5.0491970123
 20
4.0524302924
 11
5.0491970123
 21
3.9521458711
  0
LINE
  5
2E2
100
AcDbEntity
  8
0
100
AcDbLine
 62
7
  6
CONTINUOUS
 10
5.0561970123
 20
4.372376888
 11
5.0561970123
 21
4.2782510608
  0
LINE
  5
2E3
100
AcDbEntity
  8
0
100
AcDbLine
 62
7
  6
CONTINUOUS
 10
5.0561970123
 20
3.9546529761
 11
5.0561970123
 21
4.0488046633
  0
LINE
  5
2E4
100
AcDbEntity
  8
0
100
AcDbLine
 62
7
  6
CONTINUOUS
 10
5.0661970123
 20
4.3674534495
 11
5.0661970123
 21
4.2848273316
  0
LINE
  5
2E5
100
AcDbEntity
  8
0
100
AcDbLine
 62
7
  6
CONTINUOUS
 10
5.0661970123
 20
3.9596267121
 11
5.0661970123
 21
4.0422320332
  0
LINE
  5
2E6
100
AcDbEntity
  8
0
100
AcDbLine
 62
7
  6
CONTINUOUS
 10
5.0731970123
 20
4.3629913448
 11
5.0731970123
 21
4.2908150377
  0
LINE
  5
2E7
100
AcDbEntity
  8
0
100
AcDbLine
 62
7
  6
CONTINUOUS
 10
5.0731970123
 20
4.0362442901
 11
5.0731970123
 21
3.9640434904
  0
LINE
  5
2E8
100
AcDbEntity
  8
03__ASM_ALL_CURVES
100
AcDbLine
 62
40
  6
CONTINUOUS
 10
5.1387579714
 20
3.3519784326
 11
5.1387579714
 21
3.4445284326
  0
LINE
  5
2E9
100
AcDbEntity
  8
03__ASM_ALL_CURVES
100
AcDbLine
 62
40
  6
CONTINUOUS
 10
5.1442370116
 20
5.2017897635
 11
5.1442370116
 21
5.1915064326
  0
LINE
  5
2EA
100
AcDbEntity
  8
03__ASM_ALL_CURVES
100
AcDbLine
 62
40
  6
CONTINUOUS
 10
4.8090485964
 20
3.3982534326
 11
4.8148329714
 21
3.4213909326
  0
LINE
  5
2EB
100
AcDbEntity
  8
03__ASM_ALL_CURVES
100
AcDbLine
 62
40
  6
CONTINUOUS
 10
4.8784610964
 20
3.3982534326
 11
4.8726767214
 21
3.3751159326
  0
LINE
  5
2EC
100
AcDbEntity
  8
03__ASM_ALL_CURVES
100
AcDbLine
 62
40
  6
CONTINUOUS
 10
5.3833245116
 20
5.1915064326
 11
5.3987495116
 21
5.2120731017
  0
LINE
  5
2ED
100
AcDbEntity
  8
03__ASM_ALL_CURVES
100
AcDbLine
 62
40
  6
CONTINUOUS
 10
5.4604495116
 20
5.1298064326
 11
5.4450245116
 21
5.1092397662
  0
LINE
  5
2EE
100
AcDbEntity
  8
03__ASM_ALL_CURVES
100
AcDbLine
 62
40
  6
CONTINUOUS
 10
5.5761370116
 20
5.1195230999
 11
5.5684245116
 21
5.1092397662
  0
LINE
  5
2EF
100
AcDbEntity
  8
03__ASM_ALL_CURVES
100
AcDbLine
 62
40
  6
CONTINUOUS
 10
5.5684245116
 20
5.1092397662
 11
5.5529995116
 21
5.0989564326
  0
LINE
  5
2F0
100
AcDbEntity
  8
03__ASM_ALL_CURVES
100
AcDbLine
 62
40
  6
CONTINUOUS
 10
5.8075120116
 20
5.1092397662
 11
5.7920870116
 21
5.0989564326
  0
LINE
  5
2F1
100
AcDbEntity
  8
03__ASM_ALL_CURVES
100
AcDbLine
 62
40
  6
CONTINUOUS
 10
4.7280673464
 20
3.4445284326
 11
4.7569892214
 21
3.4445284326
  0
LINE
  5
2F2
100
AcDbEntity
  8
03__ASM_ALL_CURVES
100
AcDbLine
 62
40
  6
CONTINUOUS
 10
4.8379704714
 20
3.4445284326
 11
4.8495392214
 21
3.4445284326
  0
LINE
  5
2F3
100
AcDbEntity
  8
03__ASM_ALL_CURVES
100
AcDbLine
 62
40
  6
CONTINUOUS
 10
4.9131673464
 20
3.4445284326
 11
4.9420892214
 21
3.4445284326
  0
LINE
  5
2F4
100
AcDbEntity
  8
03__ASM_ALL_CURVES
100
AcDbLine
 62
40
  6
CONTINUOUS
 10
4.9999329714
 20
3.4445284326
 11
5.0577767214
 21
3.4445284326
  0
LINE
  5
2F5
100
AcDbEntity
  8
03__ASM_ALL_CURVES
100
AcDbLine
 62
40
  6
CONTINUOUS
 10
5.7590672272
 20
3.4445284326
 11
5.7879891022
 21
3.4445284326
  0
LINE
  5
2F6
100
AcDbEntity
  8
03__ASM_ALL_CURVES
100
AcDbLine
 62
40
  6
CONTINUOUS
 10
5.8689703522
 20
3.4445284326
 11
5.8805391022
 21
3.4445284326
  0
LINE
  5
2F7
100
AcDbEntity
  8
03__ASM_ALL_CURVES
100
AcDbLine
 62
40
  6
CONTINUOUS
 10
5.9441672272
 20
3.4445284326
 11
5.9730891022
 21
3.4445284326
  0
LINE
  5
2F8
100
AcDbEntity
  8
03__ASM_ALL_CURVES
100
AcDbLine
 62
40
  6
CONTINUOUS
 10
6.0309328522
 20
3.4445284326
 11
6.0887766022
 21
3.4445284326
  0
LINE
  5
2F9
100
AcDbEntity
  8
03__ASM_ALL_CURVES
100
AcDbLine
 62
40
  6
CONTINUOUS
 10
6.1466203522
 20
3.4445284326
 11
6.1581891022
 21
3.4445284326
  0
LINE
  5
2FA
100
AcDbEntity
  8
03__ASM_ALL_CURVES
100
AcDbLine
 62
40
  6
CONTINUOUS
 10
6.715959483
 20
3.4445284326
 11
6.744881358
 21
3.4445284326
  0
LINE
  5
2FB
100
AcDbEntity
  8
03__ASM_ALL_CURVES
100
AcDbLine
 62
40
  6
CONTINUOUS
 10
6.825862608
 20
3.4445284326
 11
6.837431358
 21
3.4445284326
  0
LINE
  5
2FC
100
AcDbEntity
  8
03__ASM_ALL_CURVES
100
AcDbLine
 62
40
  6
CONTINUOUS
 10
6.901059483
 20
3.4445284326
 11
6.929981358
 21
3.4445284326
  0
LINE
  5
2FD
100
AcDbEntity
  8
03__ASM_ALL_CURVES
100
AcDbLine
 62
40
  6
CONTINUOUS
 10
6.987825108
 20
3.4445284326
 11
7.045668858
 21
3.4445284326
  0
LINE
  5
2FE
100
AcDbEntity
  8
03__ASM_ALL_CURVES
100
AcDbLine
 62
40
  6
CONTINUOUS
 10
7.103512608
 20
3.4445284326
 11
7.115081358
 21
3.4445284326
  0
LINE
  5
2FF
100
AcDbEntity
  8
0
100
AcDbLine
 62
7
  6
CONTINUOUS
 10
3.5927713865
 20
3.5295284326
 11
3.0688076836
 21
3.5295284326
  0
LINE
  5
300
100
AcDbEntity
  8
0
100
AcDbLine
 62
7
  6
CONTINUOUS
 10
3.5927713865
 20
3.5301431231
 11
3.0688076836
 21
3.5301431231
  0
LINE
  5
301
100
AcDbEntity
  8
0
100
AcDbLine
 62
7
  6
CONTINUOUS
 10
3.8331970123
 20
3.6255284326
 11
3.6481970123
 21
3.6255284326
  0
LINE
  5
302
100
AcDbEntity
  8
03__ASM_ALL_CURVES
100
AcDbLine
 62
40
  6
CONTINUOUS
 10
2.8172095123
 20
5.2223564326
 11
2.8326345123
 21
5.2120731017
  0
LINE
  5
303
100
AcDbEntity
  8
03__ASM_ALL_CURVES
100
AcDbLine
 62
40
  6
CONTINUOUS
 10
3.1719845123
 20
5.0989564326
 11
3.1565595123
 21
5.1092397662
  0
LINE
  5
304
100
AcDbEntity
  8
03__ASM_ALL_CURVES
100
AcDbLine
 62
40
  6
CONTINUOUS
 10
5.8689703522
 20
3.3519784326
 11
5.8574016022
 21
3.3596909328
  0
LINE
  5
305
100
AcDbEntity
  8
03__ASM_ALL_CURVES
100
AcDbLine
 62
40
  6
CONTINUOUS
 10
3.2953845123
 20
5.0989564326
 11
3.2799595123
 21
5.1092397662
  0
LINE
  5
306
100
AcDbEntity
  8
03__ASM_ALL_CURVES
100
AcDbLine
 62
40
  6
CONTINUOUS
 10
3.1874095123
 20
5.1709397635
 11
3.2028345123
 21
5.1606564326
  0
LINE
  5
307
100
AcDbEntity
  8
03__ASM_ALL_CURVES
100
AcDbLine
 62
40
  6
CONTINUOUS
 10
5.7879891022
 20
3.4445284326
 11
5.7995578522
 21
3.4368159344
  0
LINE
  5
308
100
AcDbEntity
  8
03__ASM_ALL_CURVES
100
AcDbLine
 62
40
  6
CONTINUOUS
 10
3.1874095123
 20
5.2223564326
 11
3.2028345123
 21
5.2120731017
  0
LINE
  5
309
100
AcDbEntity
  8
03__ASM_ALL_CURVES
100
AcDbLine
 62
40
  6
CONTINUOUS
 10
5.8805391022
 20
3.4445284326
 11
5.8921078522
 21
3.4368159344
  0
LINE
  5
30A
100
AcDbEntity
  8
THREAD
100
AcDbLine
 62
7
  6
CONTINUOUS
 10
4.3981970123
 20
4.6155284326
 11
4.3541970123
 21
4.6595284326
  0
LINE
  5
30B
100
AcDbEntity
  8
03__ASM_ALL_CURVES
100
AcDbLine
 62
40
  6
CONTINUOUS
 10
4.1647495116
 20
5.1092397662
 11
4.1493245116
 21
5.1298064326
  0
LINE
  5
30C
100
AcDbEntity
  8
03__ASM_ALL_CURVES
100
AcDbLine
 62
40
  6
CONTINUOUS
 10
4.2881495116
 20
5.1092397662
 11
4.2727245116
 21
5.1298064326
  0
LINE
  5
30D
100
AcDbEntity
  8
03__ASM_ALL_CURVES
100
AcDbLine
 62
40
  6
CONTINUOUS
 10
4.2110245116
 20
5.2120731017
 11
4.2264495116
 21
5.1915064326
  0
LINE
  5
30E
100
AcDbEntity
  8
03__ASM_ALL_CURVES
100
AcDbLine
 62
40
  6
CONTINUOUS
 10
4.8897245116
 20
5.1298064326
 11
4.8820120116
 21
5.1606564326
  0
LINE
  5
30F
100
AcDbEntity
  8
0
100
AcDbLine
 62
7
  6
CONTINUOUS
 10
5.1531970123
 20
3.7745284326
 11
5.1531970123
 21
4.5525284326
  0
LINE
  5
310
100
AcDbEntity
  8
0
100
AcDbLine
 62
7
  6
CONTINUOUS
 10
5.1931970123
 20
4.6095284326
 11
5.1931970123
 21
3.7175284326
  0
LINE
  5
311
100
AcDbEntity
  8
03__ASM_ALL_CURVES
100
AcDbLine
 62
40
  6
CONTINUOUS
 10
5.2059370116
 20
5.1400897672
 11
5.2059370116
 21
5.1195230999
  0
LINE
  5
312
100
AcDbEntity
  8
03__ASM_ALL_CURVES
100
AcDbLine
 62
40
  6
CONTINUOUS
 10
5.2676370116
 20
5.2223564326
 11
5.2676370116
 21
5.0989564326
  0
LINE
  5
313
100
AcDbEntity
  8
0
100
AcDbLine
 62
7
  6
CONTINUOUS
 10
5.2681970123
 20
3.716029113
 11
5.2681970123
 21
4.6110277522
  0
LINE
  5
314
100
AcDbEntity
  8
0
100
AcDbLine
 62
7
  6
CONTINUOUS
 10
5.3181970123
 20
3.716029113
 11
5.3181970123
 21
4.6110277522
  0
LINE
  5
315
100
AcDbEntity
  8
03__ASM_ALL_CURVES
100
AcDbLine
 62
40
  6
CONTINUOUS
 10
5.3293370116
 20
5.2223564326
 11
5.3293370116
 21
5.0989564326
  0
LINE
  5
316
100
AcDbEntity
  8
03__ASM_ALL_CURVES
100
AcDbLine
 62
40
  6
CONTINUOUS
 10
5.3756120116
 20
5.1606564326
 11
5.3833245116
 21
5.1915064326
  0
LINE
  5
317
100
AcDbEntity
  8
03__ASM_ALL_CURVES
100
AcDbLine
 62
40
  6
CONTINUOUS
 10
5.4681620116
 20
5.1606564326
 11
5.4604495116
 21
5.1298064326
  0
LINE
  5
318
100
AcDbEntity
  8
03__ASM_ALL_CURVES
100
AcDbLine
 62
40
  6
CONTINUOUS
 10
5.8229370116
 20
5.1298064326
 11
5.8075120116
 21
5.1092397662
  0
LINE
  5
319
100
AcDbEntity
  8
THREAD
100
AcDbLine
 62
7
  6
CONTINUOUS
 10
4.3981970123
 20
3.7115284326
 11
4.3541970123
 21
3.6675284326
  0
LINE
  5
31A
100
AcDbEntity
  8
0
100
AcDbLine
 62
7
  6
CONTINUOUS
 10
4.6171970123
 20
3.7275284326
 11
4.6011970123
 21
3.7115284326
  0
LINE
  5
31B
100
AcDbEntity
  8
03__ASM_ALL_CURVES
100
AcDbLine
 62
40
  6
CONTINUOUS
 10
6.0620245116
 20
5.1709397635
 11
6.0465995116
 21
5.1606564326
  0
LINE
  5
31C
100
AcDbEntity
  8
THREAD
100
AcDbLine
 62
7
  6
CONTINUOUS
 10
3.8831970123
 20
3.6490284326
 11
3.8600534188
 21
3.6490284326
  0
LINE
  5
31D
100
AcDbEntity
  8
0
100
AcDbLine
 62
7
  6
CONTINUOUS
 10
3.9531970123
 20
3.6515284326
 11
4.0031970123
 21
3.6515284326
  0
LINE
  5
31E
100
AcDbEntity
  8
0
100
AcDbLine
 62
7
  6
CONTINUOUS
 10
3.0231970123
 20
3.6665284326
 11
2.5851970123
 21
3.6665284326
  0
LINE
  5
31F
100
AcDbEntity
  8
THREAD
100
AcDbLine
 62
7
  6
CONTINUOUS
 10
4.3541970123
 20
3.6675284326
 11
4.0461363226
 21
3.6675284326
  0
LINE
  5
320
100
AcDbEntity
  8
THREAD
100
AcDbLine
 62
7
  6
CONTINUOUS
 10
4.0166914588
 20
3.7055284326
 11
4.0031970123
 21
3.7055284326
  0
LINE
  5
321
100
AcDbEntity
  8
THREAD
100
AcDbLine
 62
7
  6
CONTINUOUS
 10
4.6011970123
 20
3.7115284326
 11
4.3981970123
 21
3.7115284326
  0
LINE
  5
322
100
AcDbEntity
  8
0
100
AcDbLine
 62
7
  6
CONTINUOUS
 10
5.2681970123
 20
3.7160284326
 11
5.3181970123
 21
3.7160284326
  0
LINE
  5
323
100
AcDbEntity
  8
0
100
AcDbLine
 62
7
  6
CONTINUOUS
 10
5.3881970123
 20
3.7160284326
 11
5.4381970123
 21
3.7160284326
  0
LINE
  5
324
100
AcDbEntity
  8
0
100
AcDbLine
 62
7
  6
CONTINUOUS
 10
5.1931970123
 20
3.7175284326
 11
5.2681970123
 21
3.7175284326
  0
LINE
  5
325
100
AcDbEntity
  8
0
100
AcDbLine
 62
7
  6
CONTINUOUS
 10
5.4661970123
 20
3.7175284326
 11
5.5411970123
 21
3.7175284326
  0
LINE
  5
326
100
AcDbEntity
  8
0
100
AcDbLine
 62
7
  6
CONTINUOUS
 10
6.4811970123
 20
3.7380284326
 11
6.4061970123
 21
3.7380284326
  0
LINE
  5
327
100
AcDbEntity
  8
0
100
AcDbLine
 62
7
  6
CONTINUOUS
 10
6.2081970123
 20
3.7380284326
 11
6.1331970123
 21
3.7380284326
  0
LINE
  5
328
100
AcDbEntity
  8
0
100
AcDbLine
 62
7
  6
CONTINUOUS
 10
7.4471970123
 20
3.7590284326
 11
7.3591970123
 21
3.7590284326
  0
LINE
  5
329
100
AcDbEntity
  8
0
100
AcDbLine
 62
7
  6
CONTINUOUS
 10
7.1611970123
 20
3.7590284326
 11
7.0835797497
 21
3.7590284326
  0
LINE
  5
32A
100
AcDbEntity
  8
0
100
AcDbLine
 62
7
  6
CONTINUOUS
 10
6.2081970123
 20
3.7595284326
 11
6.2581970123
 21
3.7595284326
  0
LINE
  5
32B
100
AcDbEntity
  8
0
100
AcDbLine
 62
7
  6
CONTINUOUS
 10
6.3281970123
 20
3.7595284326
 11
6.3781970123
 21
3.7595284326
  0
LINE
  5
32C
100
AcDbEntity
  8
0
100
AcDbLine
 62
7
  6
CONTINUOUS
 10
7.1611970123
 20
3.7595284326
 11
7.2111970123
 21
3.7595284326
  0
LINE
  5
32D
100
AcDbEntity
  8
0
100
AcDbLine
 62
7
  6
CONTINUOUS
 10
7.2811970123
 20
3.7595284326
 11
7.3311970123
 21
3.7595284326
  0
LINE
  5
32E
100
AcDbEntity
  8
0
100
AcDbLine
 62
7
  6
CONTINUOUS
 10
5.4661970123
 20
3.7700284326
 11
5.4381970123
 21
3.7700284326
  0
LINE
  5
32F
100
AcDbEntity
  8
0
100
AcDbLine
 62
7
  6
CONTINUOUS
 10
5.1531970123
 20
3.7745284326
 11
5.1056970123
 21
3.7745284326
  0
LINE
  5
330
100
AcDbEntity
  8
0
100
AcDbLine
 62
7
  6
CONTINUOUS
 10
4.9026970123
 20
3.7745284326
 11
4.6171970123
 21
3.7745284326
  0
LINE
  5
331
100
AcDbEntity
  8
0
100
AcDbLine
 62
7
  6
CONTINUOUS
 10
6.0931970123
 20
3.7890284326
 11
5.8821970123
 21
3.7890284326
  0
LINE
  5
332
100
AcDbEntity
  8
0
100
AcDbLine
 62
7
  6
CONTINUOUS
 10
5.6641970123
 20
3.7890284326
 11
5.5811970123
 21
3.7890284326
  0
LINE
  5
333
100
AcDbEntity
  8
0
100
AcDbLine
 62
7
  6
CONTINUOUS
 10
7.0441970123
 20
3.7920284326
 11
6.7616970123
 21
3.7920284326
  0
LINE
  5
334
100
AcDbEntity
  8
0
100
AcDbLine
 62
7
  6
CONTINUOUS
 10
6.5586970123
 20
3.7920284326
 11
6.5211970123
 21
3.7920284326
  0
LINE
  5
335
100
AcDbEntity
  8
0
100
AcDbLine
 62
7
  6
CONTINUOUS
 10
6.4061970123
 20
3.7930284326
 11
6.3781970123
 21
3.7930284326
  0
LINE
  5
336
100
AcDbEntity
  8
0
100
AcDbLine
 62
7
  6
CONTINUOUS
 10
7.3591970123
 20
3.8135284326
 11
7.3311970123
 21
3.8135284326
  0
LINE
  5
337
100
AcDbEntity
  8
0
100
AcDbLine
 62
7
  6
CONTINUOUS
 10
3.5927713865
 20
3.8226637421
 11
3.0688076836
 21
3.8226637421
  0
LINE
  5
338
100
AcDbEntity
  8
THREAD
100
AcDbLine
 62
7
  6
CONTINUOUS
 10
3.8575534188
 20
4.6786983056
 11
3.8386970123
 21
4.6895850569
  0
LINE
  5
339
100
AcDbEntity
  8
03__ASM_ALL_CURVES
100
AcDbLine
 62
40
  6
CONTINUOUS
 10
3.3108095123
 20
5.1709397635
 11
3.3262345123
 21
5.1606564326
  0
LINE
  5
33A
100
AcDbEntity
  8
03__ASM_ALL_CURVES
100
AcDbLine
 62
40
  6
CONTINUOUS
 10
5.9730891022
 20
3.4445284326
 11
5.9846578522
 21
3.4368159344
  0
LINE
  5
33B
100
AcDbEntity
  8
03__ASM_ALL_CURVES
100
AcDbLine
 62
40
  6
CONTINUOUS
 10
3.3108095123
 20
5.2223564326
 11
3.3262345123
 21
5.2120731017
  0
LINE
  5
33C
100
AcDbEntity
  8
03__ASM_ALL_CURVES
100
AcDbLine
 62
40
  6
CONTINUOUS
 10
6.1466203522
 20
3.3519784326
 11
6.1350516022
 21
3.3596909328
  0
LINE
  5
33D
100
AcDbEntity
  8
03__ASM_ALL_CURVES
100
AcDbLine
 62
40
  6
CONTINUOUS
 10
6.1581891022
 20
3.4059659308
 11
6.1697578522
 21
3.3982534326
  0
LINE
  5
33E
100
AcDbEntity
  8
03__ASM_ALL_CURVES
100
AcDbLine
 62
40
  6
CONTINUOUS
 10
6.1581891022
 20
3.4445284326
 11
6.1697578522
 21
3.4368159344
  0
LINE
  5
33F
100
AcDbEntity
  8
03__ASM_ALL_CURVES
100
AcDbLine
 62
40
  6
CONTINUOUS
 10
3.5576095123
 20
5.2223564326
 11
3.5730345123
 21
5.2120731017
  0
LINE
  5
340
100
AcDbEntity
  8
0
100
AcDbLine
 62
7
  6
CONTINUOUS
 10
4.6171970123
 20
4.5995284326
 11
4.6011970123
 21
4.6155284326
  0
LINE
  5
341
100
AcDbEntity
  8
03__ASM_ALL_CURVES
100
AcDbLine
 62
40
  6
CONTINUOUS
 10
4.3344245116
 20
5.2120731017
 11
4.3421370116
 21
5.2017897635
  0
LINE
  5
342
100
AcDbEntity
  8
03__ASM_ALL_CURVES
100
AcDbLine
 62
40
  6
CONTINUOUS
 10
5.8574016022
 20
3.3596909328
 11
5.8458328522
 21
3.3751159326
  0
LINE
  5
343
100
AcDbEntity
  8
03__ASM_ALL_CURVES
100
AcDbLine
 62
40
  6
CONTINUOUS
 10
5.7995578522
 20
3.4368159344
 11
5.8053422272
 21
3.4291034308
  0
LINE
  5
344
100
AcDbEntity
  8
03__ASM_ALL_CURVES
100
AcDbLine
 62
40
  6
CONTINUOUS
 10
5.8921078522
 20
3.4368159344
 11
5.9036766022
 21
3.4213909326
  0
LINE
  5
345
100
AcDbEntity
  8
03__ASM_ALL_CURVES
100
AcDbLine
 62
40
  6
CONTINUOUS
 10
4.7740370116
 20
5.2223564326
 11
4.8357370116
 21
5.0989564326
  0
LINE
  5
346
100
AcDbEntity
  8
0
100
AcDbLine
 62
7
  6
CONTINUOUS
 10
5.3881970123
 20
3.716029113
 11
5.3881970123
 21
4.6110277522
  0
LINE
  5
347
100
AcDbEntity
  8
0
100
AcDbLine
 62
7
  6
CONTINUOUS
 10
5.4381970123
 20
3.716029113
 11
5.4381970123
 21
4.6110277522
  0
LINE
  5
348
100
AcDbEntity
  8
0
100
AcDbLine
 62
7
  6
CONTINUOUS
 10
5.4661970123
 20
4.6095284326
 11
5.4661970123
 21
3.7175284326
  0
LINE
  5
349
100
AcDbEntity
  8
03__ASM_ALL_CURVES
100
AcDbLine
 62
40
  6
CONTINUOUS
 10
5.5144370116
 20
5.1195230999
 11
5.5144370116
 21
5.2223564326
  0
LINE
  5
34A
100
AcDbEntity
  8
0
100
AcDbLine
 62
7
  6
CONTINUOUS
 10
5.5411970123
 20
4.6095284326
 11
5.5411970123
 21
3.7175284326
  0
LINE
  5
34B
100
AcDbEntity
  8
03__ASM_ALL_CURVES
100
AcDbLine
 62
40
  6
CONTINUOUS
 10
5.5761370116
 20
5.2223564326
 11
5.5761370116
 21
5.1195230999
  0
LINE
  5
34C
100
AcDbEntity
  8
0
100
AcDbLine
 62
7
  6
CONTINUOUS
 10
5.5811970123
 20
3.7890284326
 11
5.5811970123
 21
4.5380284326
  0
LINE
  5
34D
100
AcDbEntity
  8
03__ASM_ALL_CURVES
100
AcDbLine
 62
40
  6
CONTINUOUS
 10
6.0697370116
 20
5.1812231017
 11
6.0620245116
 21
5.1709397635
  0
LINE
  5
34E
100
AcDbEntity
  8
03__ASM_ALL_CURVES
100
AcDbLine
 62
40
  6
CONTINUOUS
 10
4.7743423464
 20
3.4136784344
 11
4.7685579714
 21
3.4059659308
  0
LINE
  5
34F
100
AcDbEntity
  8
03__ASM_ALL_CURVES
100
AcDbLine
 62
40
  6
CONTINUOUS
 10
4.8148329714
 20
3.4213909326
 11
4.8264017214
 21
3.4368159344
  0
LINE
  5
350
100
AcDbEntity
  8
THREAD
100
AcDbLine
 62
7
  6
CONTINUOUS
 10
3.8575534188
 20
3.6483585596
 11
3.8386970123
 21
3.6374718083
  0
LINE
  5
351
100
AcDbEntity
  8
0
100
AcDbLine
 62
7
  6
CONTINUOUS
 10
3.5927713865
 20
3.8710078137
 11
3.0688076836
 21
3.8710078137
  0
LINE
  5
352
100
AcDbEntity
  8
0
100
AcDbLine
 62
7
  6
CONTINUOUS
 10
5.9240368242
 20
4.0075284326
 11
5.7183572641
 21
4.0075284326
  0
LINE
  5
353
100
AcDbEntity
  8
03__ASM_ALL_CURVES
100
AcDbLine
 62
40
  6
CONTINUOUS
 10
4.1801745116
 20
5.0989564326
 11
4.1647495116
 21
5.1092397662
  0
LINE
  5
354
100
AcDbEntity
  8
03__ASM_ALL_CURVES
100
AcDbLine
 62
40
  6
CONTINUOUS
 10
6.825862608
 20
3.3519784326
 11
6.814293858
 21
3.3596909328
  0
LINE
  5
355
100
AcDbEntity
  8
03__ASM_ALL_CURVES
100
AcDbLine
 62
40
  6
CONTINUOUS
 10
5.9846578522
 20
3.4368159344
 11
5.9904422272
 21
3.4291034308
  0
LINE
  5
356
100
AcDbEntity
  8
03__ASM_ALL_CURVES
100
AcDbLine
 62
40
  6
CONTINUOUS
 10
6.1350516022
 20
3.3596909328
 11
6.1292672272
 21
3.3674034331
  0
LINE
  5
357
100
AcDbEntity
  8
03__ASM_ALL_CURVES
100
AcDbLine
 62
40
  6
CONTINUOUS
 10
6.1697578522
 20
3.3982534326
 11
6.1813266022
 21
3.3828284335
  0
LINE
  5
358
100
AcDbEntity
  8
03__ASM_ALL_CURVES
100
AcDbLine
 62
40
  6
CONTINUOUS
 10
4.9051495116
 20
5.1092397662
 11
4.8897245116
 21
5.1298064326
  0
LINE
  5
359
100
AcDbEntity
  8
03__ASM_ALL_CURVES
100
AcDbLine
 62
40
  6
CONTINUOUS
 10
6.1697578522
 20
3.4368159344
 11
6.1755422272
 21
3.4291034308
  0
LINE
  5
35A
100
AcDbEntity
  8
03__ASM_ALL_CURVES
100
AcDbLine
 62
40
  6
CONTINUOUS
 10
5.3833245116
 20
5.1298064326
 11
5.3756120116
 21
5.1606564326
  0
LINE
  5
35B
100
AcDbEntity
  8
03__ASM_ALL_CURVES
100
AcDbLine
 62
40
  6
CONTINUOUS
 10
5.6378370116
 20
5.2223564326
 11
5.6378370116
 21
5.0989564326
  0
LINE
  5
35C
100
AcDbEntity
  8
03__ASM_ALL_CURVES
100
AcDbLine
 62
40
  6
CONTINUOUS
 10
5.7590672272
 20
3.3519784326
 11
5.7590672272
 21
3.4445284326
  0
LINE
  5
35D
100
AcDbEntity
  8
03__ASM_ALL_CURVES
100
AcDbLine
 62
40
  6
CONTINUOUS
 10
5.7612370116
 20
5.0989564326
 11
5.7612370116
 21
5.2223564326
  0
LINE
  5
35E
100
AcDbEntity
  8
03__ASM_ALL_CURVES
100
AcDbLine
 62
40
  6
CONTINUOUS
 10
5.8053422272
 20
3.4291034308
 11
5.8053422272
 21
3.4136784344
  0
LINE
  5
35F
100
AcDbEntity
  8
03__ASM_ALL_CURVES
100
AcDbLine
 62
40
  6
CONTINUOUS
 10
5.8306495116
 20
5.1606564326
 11
5.8229370116
 21
5.1298064326
  0
LINE
  5
360
100
AcDbEntity
  8
03__ASM_ALL_CURVES
100
AcDbLine
 62
40
  6
CONTINUOUS
 10
5.1387579714
 20
3.4445284326
 11
5.0982673464
 21
3.3751159326
  0
LINE
  5
361
100
AcDbEntity
  8
03__ASM_ALL_CURVES
100
AcDbLine
 62
40
  6
CONTINUOUS
 10
4.8726767214
 20
3.3751159326
 11
4.8611079714
 21
3.3596909328
  0
LINE
  5
362
100
AcDbEntity
  8
03__ASM_ALL_CURVES
100
AcDbLine
 62
40
  6
CONTINUOUS
 10
4.9594423464
 20
3.4136784344
 11
4.9536579714
 21
3.4059659308
  0
LINE
  5
363
100
AcDbEntity
  8
03__ASM_ALL_CURVES
100
AcDbLine
 62
40
  6
CONTINUOUS
 10
8.8076688868
 20
4.1882084326
 11
8.7961001368
 21
4.1882084326
  0
LINE
  5
364
100
AcDbEntity
  8
03__ASM_ALL_CURVES
100
AcDbLine
 62
40
  6
CONTINUOUS
 10
8.9002188868
 20
4.2344834326
 11
8.8712970118
 21
4.2344834326
  0
LINE
  5
365
100
AcDbEntity
  8
03__ASM_ALL_CURVES
100
AcDbLine
 62
40
  6
CONTINUOUS
 10
8.7151188868
 20
4.2344834326
 11
8.6861970118
 21
4.2344834326
  0
LINE
  5
366
100
AcDbEntity
  8
03__ASM_ALL_CURVES
100
AcDbLine
 62
40
  6
CONTINUOUS
 10
8.6861970118
 20
4.2807584326
 11
8.7151188868
 21
4.2807584326
  0
LINE
  5
367
100
AcDbEntity
  8
03__ASM_ALL_CURVES
100
AcDbLine
 62
40
  6
CONTINUOUS
 10
8.7961001368
 20
4.2807584326
 11
8.8076688868
 21
4.2807584326
  0
LINE
  5
368
100
AcDbEntity
  8
03__ASM_ALL_CURVES
100
AcDbLine
 62
40
  6
CONTINUOUS
 10
8.8712970118
 20
4.2807584326
 11
8.9002188868
 21
4.2807584326
  0
LINE
  5
369
100
AcDbEntity
  8
03__ASM_ALL_CURVES
100
AcDbLine
 62
40
  6
CONTINUOUS
 10
8.9580626368
 20
4.2807584326
 11
9.0159063868
 21
4.2807584326
  0
LINE
  5
36A
100
AcDbEntity
  8
03__ASM_ALL_CURVES
100
AcDbLine
 62
40
  6
CONTINUOUS
 10
6.744881358
 20
3.4445284326
 11
6.756450108
 21
3.4368159344
  0
LINE
  5
36B
100
AcDbEntity
  8
03__ASM_ALL_CURVES
100
AcDbLine
 62
40
  6
CONTINUOUS
 10
4.3035745116
 20
5.0989564326
 11
4.2881495116
 21
5.1092397662
  0
LINE
  5
36C
100
AcDbEntity
  8
03__ASM_ALL_CURVES
100
AcDbLine
 62
40
  6
CONTINUOUS
 10
6.837431358
 20
3.4445284326
 11
6.849000108
 21
3.4368159344
  0
LINE
  5
36D
100
AcDbEntity
  8
03__ASM_ALL_CURVES
100
AcDbLine
 62
40
  6
CONTINUOUS
 10
4.1955995116
 20
5.2223564326
 11
4.2110245116
 21
5.2120731017
  0
LINE
  5
36E
100
AcDbEntity
  8
03__ASM_ALL_CURVES
100
AcDbLine
 62
40
  6
CONTINUOUS
 10
6.929981358
 20
3.4445284326
 11
6.941550108
 21
3.4368159344
  0
LINE
  5
36F
100
AcDbEntity
  8
03__ASM_ALL_CURVES
100
AcDbLine
 62
40
  6
CONTINUOUS
 10
4.3189995116
 20
5.2223564326
 11
4.3344245116
 21
5.2120731017
  0
LINE
  5
370
100
AcDbEntity
  8
03__ASM_ALL_CURVES
100
AcDbLine
 62
40
  6
CONTINUOUS
 10
7.115081358
 20
3.4445284326
 11
7.126650108
 21
3.4368159344
  0
LINE
  5
371
100
AcDbEntity
  8
03__ASM_ALL_CURVES
100
AcDbLine
 62
40
  6
CONTINUOUS
 10
4.9514245116
 20
5.2120731017
 11
4.9591370116
 21
5.2017897635
  0
LINE
  5
372
100
AcDbEntity
  8
03__ASM_ALL_CURVES
100
AcDbLine
 62
40
  6
CONTINUOUS
 10
5.1519495116
 20
5.1092397662
 11
5.1365245116
 21
5.1298064326
  0
LINE
  5
373
100
AcDbEntity
  8
03__ASM_ALL_CURVES
100
AcDbLine
 62
40
  6
CONTINUOUS
 10
5.1442370116
 20
5.1915064326
 11
5.1519495116
 21
5.1812231017
  0
LINE
  5
374
100
AcDbEntity
  8
03__ASM_ALL_CURVES
100
AcDbLine
 62
40
  6
CONTINUOUS
 10
5.9730891022
 20
3.3982534326
 11
5.9904422272
 21
3.3519784326
  0
LINE
  5
375
100
AcDbEntity
  8
03__ASM_ALL_CURVES
100
AcDbLine
 62
40
  6
CONTINUOUS
 10
5.8458328522
 20
3.3751159326
 11
5.8400484772
 21
3.3982534326
  0
LINE
  5
376
100
AcDbEntity
  8
03__ASM_ALL_CURVES
100
AcDbLine
 62
40
  6
CONTINUOUS
 10
5.4604495116
 20
5.1915064326
 11
5.4681620116
 21
5.1606564326
  0
LINE
  5
377
100
AcDbEntity
  8
03__ASM_ALL_CURVES
100
AcDbLine
 62
40
  6
CONTINUOUS
 10
5.9036766022
 20
3.4213909326
 11
5.9094609772
 21
3.3982534326
  0
LINE
  5
378
100
AcDbEntity
  8
03__ASM_ALL_CURVES
100
AcDbLine
 62
40
  6
CONTINUOUS
 10
5.8846370116
 20
5.0989564326
 11
5.8846370116
 21
5.2223564326
  0
LINE
  5
379
100
AcDbEntity
  8
03__ASM_ALL_CURVES
100
AcDbLine
 62
40
  6
CONTINUOUS
 10
5.9441672272
 20
3.3519784326
 11
5.9441672272
 21
3.4445284326
  0
LINE
  5
37A
100
AcDbEntity
  8
03__ASM_ALL_CURVES
100
AcDbLine
 62
40
  6
CONTINUOUS
 10
5.9904422272
 20
3.4291034308
 11
5.9904422272
 21
3.4136784344
  0
LINE
  5
37B
100
AcDbEntity
  8
03__ASM_ALL_CURVES
100
AcDbLine
 62
40
  6
CONTINUOUS
 10
6.0080370116
 20
5.0989564326
 11
6.0080370116
 21
5.2223564326
  0
LINE
  5
37C
100
AcDbEntity
  8
03__ASM_ALL_CURVES
100
AcDbLine
 62
40
  6
CONTINUOUS
 10
5.8400484772
 20
3.3982534326
 11
5.8458328522
 21
3.4213909326
  0
LINE
  5
37D
100
AcDbEntity
  8
03__ASM_ALL_CURVES
100
AcDbLine
 62
40
  6
CONTINUOUS
 10
4.7685579714
 20
3.4059659308
 11
4.7569892214
 21
3.3982534326
  0
LINE
  5
37E
100
AcDbEntity
  8
03__ASM_ALL_CURVES
100
AcDbLine
 62
40
  6
CONTINUOUS
 10
4.8264017214
 20
3.4368159344
 11
4.8379704714
 21
3.4445284326
  0
LINE
  5
37F
100
AcDbEntity
  8
03__ASM_ALL_CURVES
100
AcDbLine
 62
40
  6
CONTINUOUS
 10
4.8611079714
 20
3.3596909328
 11
4.8495392214
 21
3.3519784326
  0
LINE
  5
380
100
AcDbEntity
  8
0
100
AcDbLine
 62
7
  6
CONTINUOUS
 10
5.8756211642
 20
4.3195284326
 11
5.6707756651
 21
4.3195284326
  0
LINE
  5
381
100
AcDbEntity
  8
0
100
AcDbLine
 62
7
  6
CONTINUOUS
 10
3.5927713865
 20
4.4560490515
 11
3.0688076836
 21
4.4560490515
  0
LINE
  5
382
100
AcDbEntity
  8
0
100
AcDbLine
 62
7
  6
CONTINUOUS
 10
3.5927713865
 20
4.5043931231
 11
3.0688076836
 21
4.5043931231
  0
LINE
  5
383
100
AcDbEntity
  8
0
100
AcDbLine
 62
7
  6
CONTINUOUS
 10
7.3591970123
 20
4.5135284326
 11
7.3311970123
 21
4.5135284326
  0
LINE
  5
384
100
AcDbEntity
  8
0
100
AcDbLine
 62
7
  6
CONTINUOUS
 10
6.4061970123
 20
4.5340284326
 11
6.3781970123
 21
4.5340284326
  0
LINE
  5
385
100
AcDbEntity
  8
0
100
AcDbLine
 62
7
  6
CONTINUOUS
 10
7.0441970123
 20
4.5350284326
 11
6.7616970123
 21
4.5350284326
  0
LINE
  5
386
100
AcDbEntity
  8
0
100
AcDbLine
 62
7
  6
CONTINUOUS
 10
6.5586970123
 20
4.5350284326
 11
6.5211970123
 21
4.5350284326
  0
LINE
  5
387
100
AcDbEntity
  8
0
100
AcDbLine
 62
7
  6
CONTINUOUS
 10
6.0931970123
 20
4.5380284326
 11
5.9301970123
 21
4.5380284326
  0
LINE
  5
388
100
AcDbEntity
  8
0
100
AcDbLine
 62
7
  6
CONTINUOUS
 10
5.7121970123
 20
4.5380284326
 11
5.5811970123
 21
4.5380284326
  0
LINE
  5
389
100
AcDbEntity
  8
03__ASM_ALL_CURVES
100
AcDbLine
 62
40
  6
CONTINUOUS
 10
2.6712770123
 20
5.0249164326
 11
2.5231970123
 21
5.0495964326
  0
LINE
  5
38A
100
AcDbEntity
  8
03__ASM_ALL_CURVES
100
AcDbLine
 62
40
  6
CONTINUOUS
 10
4.9205745116
 20
5.0989564326
 11
4.9051495116
 21
5.1092397662
  0
LINE
  5
38B
100
AcDbEntity
  8
03__ASM_ALL_CURVES
100
AcDbLine
 62
40
  6
CONTINUOUS
 10
5.1982245116
 20
5.150373098
 11
5.2059370116
 21
5.1400897672
  0
LINE
  5
38C
100
AcDbEntity
  8
03__ASM_ALL_CURVES
100
AcDbLine
 62
40
  6
CONTINUOUS
 10
5.2059370116
 20
5.2017897635
 11
5.1982245116
 21
5.2120731017
  0
LINE
  5
38D
100
AcDbEntity
  8
03__ASM_ALL_CURVES
100
AcDbLine
 62
40
  6
CONTINUOUS
 10
5.3987495116
 20
5.1092397662
 11
5.3833245116
 21
5.1298064326
  0
LINE
  5
38E
100
AcDbEntity
  8
03__ASM_ALL_CURVES
100
AcDbLine
 62
40
  6
CONTINUOUS
 10
6.814293858
 20
3.3596909328
 11
6.802725108
 21
3.3751159326
  0
LINE
  5
38F
100
AcDbEntity
  8
03__ASM_ALL_CURVES
100
AcDbLine
 62
40
  6
CONTINUOUS
 10
6.756450108
 20
3.4368159344
 11
6.762234483
 21
3.4291034308
  0
LINE
  5
390
100
AcDbEntity
  8
03__ASM_ALL_CURVES
100
AcDbLine
 62
40
  6
CONTINUOUS
 10
5.8229370116
 20
5.1915064326
 11
5.8306495116
 21
5.1606564326
  0
LINE
  5
391
100
AcDbEntity
  8
03__ASM_ALL_CURVES
100
AcDbLine
 62
40
  6
CONTINUOUS
 10
6.0598547272
 20
3.4445284326
 11
6.0598547272
 21
3.3519784326
  0
LINE
  5
392
100
AcDbEntity
  8
03__ASM_ALL_CURVES
100
AcDbLine
 62
40
  6
CONTINUOUS
 10
6.0697370116
 20
5.2017897635
 11
6.0697370116
 21
5.1812231017
  0
LINE
  5
393
100
AcDbEntity
  8
0
100
AcDbLine
 62
7
  6
CONTINUOUS
 10
6.0931970123
 20
3.7890284326
 11
6.0931970123
 21
4.5380284326
  0
LINE
  5
394
100
AcDbEntity
  8
0
100
AcDbLine
 62
7
  6
CONTINUOUS
 10
6.1331970123
 20
3.7380284326
 11
6.1331970123
 21
4.5890284326
  0
LINE
  5
395
100
AcDbEntity
  8
03__ASM_ALL_CURVES
100
AcDbLine
 62
40
  6
CONTINUOUS
 10
6.1755422272
 20
3.4291034308
 11
6.1755422272
 21
3.4213909326
  0
LINE
  5
396
100
AcDbEntity
  8
03__ASM_ALL_CURVES
100
AcDbLine
 62
40
  6
CONTINUOUS
 10
6.1813266022
 20
3.3828284335
 11
6.1813266022
 21
3.3751159326
  0
LINE
  5
397
100
AcDbEntity
  8
0
100
AcDbLine
 62
7
  6
CONTINUOUS
 10
6.2081970123
 20
3.7380284326
 11
6.2081970123
 21
4.5890284326
  0
LINE
  5
398
100
AcDbEntity
  8
0
100
AcDbLine
 62
7
  6
CONTINUOUS
 10
6.2581970123
 20
3.7595290468
 11
6.2581970123
 21
4.5675278184
  0
LINE
  5
399
100
AcDbEntity
  8
03__ASM_ALL_CURVES
100
AcDbLine
 62
40
  6
CONTINUOUS
 10
5.9094609772
 20
3.3982534326
 11
5.9036766022
 21
3.3751159326
  0
LINE
  5
39A
100
AcDbEntity
  8
03__ASM_ALL_CURVES
100
AcDbLine
 62
40
  6
CONTINUOUS
 10
4.9536579714
 20
3.4059659308
 11
4.9420892214
 21
3.3982534326
  0
LINE
  5
39B
100
AcDbEntity
  8
0
100
AcDbLine
 62
7
  6
CONTINUOUS
 10
5.1531970123
 20
4.5525284326
 11
5.1056970123
 21
4.5525284326
  0
LINE
  5
39C
100
AcDbEntity
  8
0
100
AcDbLine
 62
7
  6
CONTINUOUS
 10
4.9026970123
 20
4.5525284326
 11
4.6171970123
 21
4.5525284326
  0
LINE
  5
39D
100
AcDbEntity
  8
0
100
AcDbLine
 62
7
  6
CONTINUOUS
 10
5.4661970123
 20
4.5570284326
 11
5.4381970123
 21
4.5570284326
  0
LINE
  5
39E
100
AcDbEntity
  8
0
100
AcDbLine
 62
7
  6
CONTINUOUS
 10
6.2081970123
 20
4.5675284326
 11
6.2581970123
 21
4.5675284326
  0
LINE
  5
39F
100
AcDbEntity
  8
0
100
AcDbLine
 62
7
  6
CONTINUOUS
 10
6.3281970123
 20
4.5675284326
 11
6.3781970123
 21
4.5675284326
  0
LINE
  5
3A0
100
AcDbEntity
  8
0
100
AcDbLine
 62
7
  6
CONTINUOUS
 10
7.1611970123
 20
4.5675284326
 11
7.2111970123
 21
4.5675284326
  0
LINE
  5
3A1
100
AcDbEntity
  8
0
100
AcDbLine
 62
7
  6
CONTINUOUS
 10
7.2811970123
 20
4.5675284326
 11
7.3311970123
 21
4.5675284326
  0
LINE
  5
3A2
100
AcDbEntity
  8
0
100
AcDbLine
 62
7
  6
CONTINUOUS
 10
7.4471970123
 20
4.5680284326
 11
7.3591970123
 21
4.5680284326
  0
LINE
  5
3A3
100
AcDbEntity
  8
0
100
AcDbLine
 62
7
  6
CONTINUOUS
 10
7.1611970123
 20
4.5680284326
 11
7.0835797497
 21
4.5680284326
  0
LINE
  5
3A4
100
AcDbEntity
  8
0
100
AcDbLine
 62
7
  6
CONTINUOUS
 10
6.4811970123
 20
4.5890284326
 11
6.4061970123
 21
4.5890284326
  0
LINE
  5
3A5
100
AcDbEntity
  8
0
100
AcDbLine
 62
7
  6
CONTINUOUS
 10
6.2081970123
 20
4.5890284326
 11
6.1331970123
 21
4.5890284326
  0
LINE
  5
3A6
100
AcDbEntity
  8
0
100
AcDbLine
 62
7
  6
CONTINUOUS
 10
5.1931970123
 20
4.6095284326
 11
5.2681970123
 21
4.6095284326
  0
LINE
  5
3A7
100
AcDbEntity
  8
0
100
AcDbLine
 62
7
  6
CONTINUOUS
 10
5.4661970123
 20
4.6095284326
 11
5.5411970123
 21
4.6095284326
  0
LINE
  5
3A8
100
AcDbEntity
  8
0
100
AcDbLine
 62
7
  6
CONTINUOUS
 10
5.2681970123
 20
4.6110284326
 11
5.3181970123
 21
4.6110284326
  0
LINE
  5
3A9
100
AcDbEntity
  8
0
100
AcDbLine
 62
7
  6
CONTINUOUS
 10
5.3881970123
 20
4.6110284326
 11
5.4381970123
 21
4.6110284326
  0
LINE
  5
3AA
100
AcDbEntity
  8
THREAD
100
AcDbLine
 62
7
  6
CONTINUOUS
 10
4.6011970123
 20
4.6155284326
 11
4.3981970123
 21
4.6155284326
  0
LINE
  5
3AB
100
AcDbEntity
  8
THREAD
100
AcDbLine
 62
7
  6
CONTINUOUS
 10
4.0166914588
 20
4.6215284326
 11
4.0031970123
 21
4.6215284326
  0
LINE
  5
3AC
100
AcDbEntity
  8
THREAD
100
AcDbLine
 62
7
  6
CONTINUOUS
 10
4.3541970123
 20
4.6595284326
 11
4.0461363226
 21
4.6595284326
  0
LINE
  5
3AD
100
AcDbEntity
  8
0
100
AcDbLine
 62
7
  6
CONTINUOUS
 10
3.0231970123
 20
4.6605284326
 11
2.5851970123
 21
4.6605284326
  0
LINE
  5
3AE
100
AcDbEntity
  8
0
100
AcDbLine
 62
7
  6
CONTINUOUS
 10
3.9531970123
 20
4.6755284326
 11
4.0031970123
 21
4.6755284326
  0
LINE
  5
3AF
100
AcDbEntity
  8
THREAD
100
AcDbLine
 62
7
  6
CONTINUOUS
 10
3.8831970123
 20
4.6780284326
 11
3.8600534188
 21
4.6780284326
  0
LINE
  5
3B0
100
AcDbEntity
  8
0
100
AcDbLine
 62
7
  6
CONTINUOUS
 10
3.8331970123
 20
4.7015284326
 11
3.6481970123
 21
4.7015284326
  0
LINE
  5
3B1
100
AcDbEntity
  8
03__ASM_ALL_CURVES
100
AcDbLine
 62
40
  6
CONTINUOUS
 10
2.6712770123
 20
5.0331430993
 11
2.5231970123
 21
5.0495964326
  0
LINE
  5
3B2
100
AcDbEntity
  8
03__ASM_ALL_CURVES
100
AcDbLine
 62
40
  6
CONTINUOUS
 10
2.6712770123
 20
5.0290297659
 11
2.5231970123
 21
5.0495964326
  0
LINE
  5
3B3
100
AcDbEntity
  8
03__ASM_ALL_CURVES
100
AcDbLine
 62
40
  6
CONTINUOUS
 10
3.6881170123
 20
5.0701630993
 11
3.9842770123
 21
5.0290297659
  0
LINE
  5
3B4
100
AcDbEntity
  8
03__ASM_ALL_CURVES
100
AcDbLine
 62
40
  6
CONTINUOUS
 10
3.9842770123
 20
5.0249164326
 11
3.6881170123
 21
5.0742764326
  0
LINE
  5
3B5
100
AcDbEntity
  8
03__ASM_ALL_CURVES
100
AcDbLine
 62
40
  6
CONTINUOUS
 10
4.9359995116
 20
5.2223564326
 11
4.9514245116
 21
5.2120731017
  0
LINE
  5
3B6
100
AcDbEntity
  8
03__ASM_ALL_CURVES
100
AcDbLine
 62
40
  6
CONTINUOUS
 10
5.1673745116
 20
5.0989564326
 11
5.1519495116
 21
5.1092397662
  0
LINE
  5
3B7
100
AcDbEntity
  8
03__ASM_ALL_CURVES
100
AcDbLine
 62
40
  6
CONTINUOUS
 10
5.1519495116
 20
5.1812231017
 11
5.1982245116
 21
5.150373098
  0
LINE
  5
3B8
100
AcDbEntity
  8
03__ASM_ALL_CURVES
100
AcDbLine
 62
40
  6
CONTINUOUS
 10
5.1982245116
 20
5.2120731017
 11
5.1827995116
 21
5.2223564326
  0
LINE
  5
3B9
100
AcDbEntity
  8
03__ASM_ALL_CURVES
100
AcDbLine
 62
40
  6
CONTINUOUS
 10
5.4141745116
 20
5.0989564326
 11
5.3987495116
 21
5.1092397662
  0
LINE
  5
3BA
100
AcDbEntity
  8
03__ASM_ALL_CURVES
100
AcDbLine
 62
40
  6
CONTINUOUS
 10
5.5221495116
 20
5.1092397662
 11
5.5144370116
 21
5.1195230999
  0
LINE
  5
3BB
100
AcDbEntity
  8
03__ASM_ALL_CURVES
100
AcDbLine
 62
40
  6
CONTINUOUS
 10
5.4450245116
 20
5.2120731017
 11
5.4604495116
 21
5.1915064326
  0
LINE
  5
3BC
100
AcDbEntity
  8
03__ASM_ALL_CURVES
100
AcDbLine
 62
40
  6
CONTINUOUS
 10
6.849000108
 20
3.4368159344
 11
6.860568858
 21
3.4213909326
  0
LINE
  5
3BD
100
AcDbEntity
  8
03__ASM_ALL_CURVES
100
AcDbLine
 62
40
  6
CONTINUOUS
 10
6.941550108
 20
3.4368159344
 11
6.947334483
 21
3.4291034308
  0
LINE
  5
3BE
100
AcDbEntity
  8
0
100
AcDbLine
 62
7
  6
CONTINUOUS
 10
6.3281970123
 20
3.7595290468
 11
6.3281970123
 21
4.5675278184
  0
LINE
  5
3BF
100
AcDbEntity
  8
0
100
AcDbLine
 62
7
  6
CONTINUOUS
 10
6.3781970123
 20
3.7595290468
 11
6.3781970123
 21
4.5675278184
  0
LINE
  5
3C0
100
AcDbEntity
  8
0
100
AcDbLine
 62
7
  6
CONTINUOUS
 10
6.4061970123
 20
3.7380284326
 11
6.4061970123
 21
4.5890284326
  0
LINE
  5
3C1
100
AcDbEntity
  8
0
100
AcDbLine
 62
7
  6
CONTINUOUS
 10
6.4811970123
 20
3.7380284326
 11
6.4811970123
 21
4.5890284326
  0
LINE
  5
3C2
100
AcDbEntity
  8
03__ASM_ALL_CURVES
100
AcDbLine
 62
40
  6
CONTINUOUS
 10
5.8053422272
 20
3.4136784344
 11
5.7995578522
 21
3.4059659308
  0
LINE
  5
3C3
100
AcDbEntity
  8
03__ASM_ALL_CURVES
100
AcDbLine
 62
40
  6
CONTINUOUS
 10
5.8458328522
 20
3.4213909326
 11
5.8574016022
 21
3.4368159344
  0
LINE
  5
3C4
100
AcDbEntity
  8
03__ASM_ALL_CURVES
100
AcDbLine
 62
40
  6
CONTINUOUS
 10
5.9036766022
 20
3.3751159326
 11
5.8921078522
 21
3.3596909328
  0
LINE
  5
3C5
100
AcDbEntity
  8
03__ASM_ALL_CURVES
100
AcDbLine
 62
40
  6
CONTINUOUS
 10
5.9904422272
 20
3.4136784344
 11
5.9846578522
 21
3.4059659308
  0
LINE
  5
3C6
100
AcDbEntity
  8
0
100
AcDbLine
 62
7
  6
CONTINUOUS
 10
3.5927713865
 20
4.7969137421
 11
3.0688076836
 21
4.7969137421
  0
LINE
  5
3C7
100
AcDbEntity
  8
0
100
AcDbLine
 62
7
  6
CONTINUOUS
 10
3.5927713865
 20
4.7975284326
 11
3.0688076836
 21
4.7975284326
  0
LINE
  5
3C8
100
AcDbEntity
  8
03__ASM_ALL_CURVES
100
AcDbLine
 62
40
  6
CONTINUOUS
 10
2.6712770123
 20
5.0454830993
 11
2.5231970123
 21
5.0495964326
  0
LINE
  5
3C9
100
AcDbEntity
  8
03__ASM_ALL_CURVES
100
AcDbLine
 62
40
  6
CONTINUOUS
 10
3.6881170123
 20
5.0537097659
 11
3.9842770123
 21
5.0454830993
  0
LINE
  5
3CA
100
AcDbEntity
  8
03__ASM_ALL_CURVES
100
AcDbLine
 62
40
  6
CONTINUOUS
 10
2.6712770123
 20
5.0413697659
 11
2.5231970123
 21
5.0495964326
  0
LINE
  5
3CB
100
AcDbEntity
  8
03__ASM_ALL_CURVES
100
AcDbLine
 62
40
  6
CONTINUOUS
 10
3.6881170123
 20
5.0578230993
 11
3.9842770123
 21
5.0413697659
  0
LINE
  5
3CC
100
AcDbEntity
  8
03__ASM_ALL_CURVES
100
AcDbLine
 62
40
  6
CONTINUOUS
 10
2.6712770123
 20
5.0372564326
 11
2.5231970123
 21
5.0495964326
  0
LINE
  5
3CD
100
AcDbEntity
  8
03__ASM_ALL_CURVES
100
AcDbLine
 62
40
  6
CONTINUOUS
 10
3.6881170123
 20
5.0619364326
 11
3.9842770123
 21
5.0372564326
  0
LINE
  5
3CE
100
AcDbEntity
  8
03__ASM_ALL_CURVES
100
AcDbLine
 62
40
  6
CONTINUOUS
 10
3.6881170123
 20
5.0660497659
 11
3.9842770123
 21
5.0331430993
  0
LINE
  5
3CF
100
AcDbEntity
  8
03__ASM_ALL_CURVES
100
AcDbLine
 62
40
  6
CONTINUOUS
 10
5.5375745116
 20
5.0989564326
 11
5.5221495116
 21
5.1092397662
  0
LINE
  5
3D0
100
AcDbEntity
  8
03__ASM_ALL_CURVES
100
AcDbLine
 62
40
  6
CONTINUOUS
 10
5.4295995116
 20
5.2223564326
 11
5.4450245116
 21
5.2120731017
  0
LINE
  5
3D1
100
AcDbEntity
  8
03__ASM_ALL_CURVES
100
AcDbLine
 62
40
  6
CONTINUOUS
 10
7.126650108
 20
3.4368159344
 11
7.132434483
 21
3.4291034308
  0
LINE
  5
3D2
100
AcDbEntity
  8
03__ASM_ALL_CURVES
100
AcDbLine
 62
40
  6
CONTINUOUS
 10
5.8075120116
 20
5.2120731017
 11
5.8229370116
 21
5.1915064326
  0
LINE
  5
3D3
100
AcDbEntity
  8
03__ASM_ALL_CURVES
100
AcDbLine
 62
40
  6
CONTINUOUS
 10
6.0465995116
 20
5.1606564326
 11
6.0697370116
 21
5.0989564326
  0
LINE
  5
3D4
100
AcDbEntity
  8
0
100
AcDbLine
 62
7
  6
CONTINUOUS
 10
6.5211970123
 20
3.7920284326
 11
6.5211970123
 21
4.5350284326
  0
LINE
  5
3D5
100
AcDbEntity
  8
0
100
AcDbLine
 62
7
  6
CONTINUOUS
 10
6.5921970123
 20
4.3636400397
 11
6.5921970123
 21
4.2810314644
  0
LINE
  5
3D6
100
AcDbEntity
  8
0
100
AcDbLine
 62
7
  6
CONTINUOUS
 10
6.5921970123
 20
4.046022982
 11
6.5921970123
 21
3.9634062763
  0
LINE
  5
3D7
100
AcDbEntity
  8
0
100
AcDbLine
 62
7
  6
CONTINUOUS
 10
6.5991970123
 20
4.3680724152
 11
6.5991970123
 21
4.2750144805
  0
LINE
  5
3D8
100
AcDbEntity
  8
0
100
AcDbLine
 62
7
  6
CONTINUOUS
 10
6.5991970123
 20
3.9588906398
 11
6.5991970123
 21
4.0520399345
  0
LINE
  5
3D9
100
AcDbEntity
  8
0
100
AcDbLine
 62
7
  6
CONTINUOUS
 10
6.6091970123
 20
4.3727536979
 11
6.6091970123
 21
4.2687442508
  0
LINE
  5
3DA
100
AcDbEntity
  8
0
100
AcDbLine
 62
7
  6
CONTINUOUS
 10
6.6091970123
 20
3.9543532914
 11
6.6091970123
 21
4.0583136068
  0
LINE
  5
3DB
100
AcDbEntity
  8
0
100
AcDbLine
 62
7
  6
CONTINUOUS
 10
6.6161970123
 20
4.3752703202
 11
6.6161970123
 21
4.2650969899
  0
LINE
  5
3DC
100
AcDbEntity
  8
0
100
AcDbLine
 62
7
  6
CONTINUOUS
 10
6.6161970123
 20
4.0619596319
 11
6.6161970123
 21
3.951770566
  0
LINE
  5
3DD
100
AcDbEntity
  8
0
100
AcDbLine
 62
7
  6
CONTINUOUS
 10
6.6681970123
 20
4.3822466749
 11
6.6681970123
 21
4.2550355561
  0
LINE
  5
3DE
100
AcDbEntity
  8
0
100
AcDbLine
 62
7
  6
CONTINUOUS
 10
6.6681970123
 20
4.0720248491
 11
6.6681970123
 21
3.9447978586
  0
LINE
  5
3DF
100
AcDbEntity
  8
03__ASM_ALL_CURVES
100
AcDbLine
 62
40
  6
CONTINUOUS
 10
6.715959483
 20
3.3519784326
 11
6.715959483
 21
3.4445284326
  0
LINE
  5
3E0
100
AcDbEntity
  8
0
100
AcDbLine
 62
7
  6
CONTINUOUS
 10
6.7311970123
 20
4.3617164577
 11
6.7311970123
 21
4.2836125771
  0
LINE
  5
3E1
100
AcDbEntity
  8
0
100
AcDbLine
 62
7
  6
CONTINUOUS
 10
6.7311970123
 20
4.0434466934
 11
6.7311970123
 21
3.965305427
  0
LINE
  5
3E2
100
AcDbEntity
  8
03__ASM_ALL_CURVES
100
AcDbLine
 62
40
  6
CONTINUOUS
 10
6.1755422272
 20
3.4213909326
 11
6.1697578522
 21
3.4136784344
  0
LINE
  5
3E3
100
AcDbEntity
  8
03__ASM_ALL_CURVES
100
AcDbLine
 62
40
  6
CONTINUOUS
 10
6.1813266022
 20
3.3751159326
 11
6.1697578522
 21
3.3596909328
  0
LINE
  5
3E4
100
AcDbEntity
  8
03__ASM_ALL_CURVES
100
AcDbLine
 62
40
  6
CONTINUOUS
 10
5.7995578522
 20
3.4059659308
 11
5.7879891022
 21
3.3982534326
  0
LINE
  5
3E5
100
AcDbEntity
  8
03__ASM_ALL_CURVES
100
AcDbLine
 62
40
  6
CONTINUOUS
 10
5.8574016022
 20
3.4368159344
 11
5.8689703522
 21
3.4445284326
  0
LINE
  5
3E6
100
AcDbEntity
  8
03__ASM_ALL_CURVES
100
AcDbLine
 62
40
  6
CONTINUOUS
 10
5.8921078522
 20
3.3596909328
 11
5.8805391022
 21
3.3519784326
  0
LINE
  5
3E7
100
AcDbEntity
  8
03__ASM_ALL_CURVES
100
AcDbLine
 62
40
  6
CONTINUOUS
 10
5.9846578522
 20
3.4059659308
 11
5.9730891022
 21
3.3982534326
  0
LINE
  5
3E8
100
AcDbEntity
  8
03__ASM_ALL_CURVES
100
AcDbLine
 62
40
  6
CONTINUOUS
 10
6.1350516022
 20
3.4368159344
 11
6.1466203522
 21
3.4445284326
  0
LINE
  5
3E9
100
AcDbEntity
  8
03__ASM_ALL_CURVES
100
AcDbLine
 62
40
  6
CONTINUOUS
 10
6.1697578522
 20
3.4136784344
 11
6.1581891022
 21
3.4059659308
  0
LINE
  5
3EA
100
AcDbEntity
  8
03__ASM_ALL_CURVES
100
AcDbLine
 62
40
  6
CONTINUOUS
 10
3.6881170123
 20
5.0372564326
 11
3.9842770123
 21
5.0619364326
  0
LINE
  5
3EB
100
AcDbEntity
  8
03__ASM_ALL_CURVES
100
AcDbLine
 62
40
  6
CONTINUOUS
 10
3.6881170123
 20
5.0413697659
 11
3.9842770123
 21
5.0578230993
  0
LINE
  5
3EC
100
AcDbEntity
  8
03__ASM_ALL_CURVES
100
AcDbLine
 62
40
  6
CONTINUOUS
 10
3.6881170123
 20
5.0454830993
 11
3.9842770123
 21
5.0537097659
  0
LINE
  5
3ED
100
AcDbEntity
  8
03__ASM_ALL_CURVES
100
AcDbLine
 62
40
  6
CONTINUOUS
 10
2.6712770123
 20
5.0537097659
 11
2.5231970123
 21
5.0495964326
  0
LINE
  5
3EE
100
AcDbEntity
  8
03__ASM_ALL_CURVES
100
AcDbLine
 62
40
  6
CONTINUOUS
 10
2.5231970123
 20
5.0495964326
 11
6.2054770123
 21
5.0495964326
  0
LINE
  5
3EF
100
AcDbEntity
  8
03__ASM_ALL_CURVES
100
AcDbLine
 62
40
  6
CONTINUOUS
 10
5.9463370116
 20
5.0989564326
 11
5.8846370116
 21
5.0989564326
  0
LINE
  5
3F0
100
AcDbEntity
  8
03__ASM_ALL_CURVES
100
AcDbLine
 62
40
  6
CONTINUOUS
 10
5.7920870116
 20
5.0989564326
 11
5.7612370116
 21
5.0989564326
  0
LINE
  5
3F1
100
AcDbEntity
  8
03__ASM_ALL_CURVES
100
AcDbLine
 62
40
  6
CONTINUOUS
 10
5.5529995116
 20
5.0989564326
 11
5.5375745116
 21
5.0989564326
  0
LINE
  5
3F2
100
AcDbEntity
  8
03__ASM_ALL_CURVES
100
AcDbLine
 62
40
  6
CONTINUOUS
 10
5.4295995116
 20
5.0989564326
 11
5.4141745116
 21
5.0989564326
  0
LINE
  5
3F3
100
AcDbEntity
  8
03__ASM_ALL_CURVES
100
AcDbLine
 62
40
  6
CONTINUOUS
 10
5.1827995116
 20
5.0989564326
 11
5.1673745116
 21
5.0989564326
  0
LINE
  5
3F4
100
AcDbEntity
  8
03__ASM_ALL_CURVES
100
AcDbLine
 62
40
  6
CONTINUOUS
 10
4.9359995116
 20
5.0989564326
 11
4.9205745116
 21
5.0989564326
  0
LINE
  5
3F5
100
AcDbEntity
  8
03__ASM_ALL_CURVES
100
AcDbLine
 62
40
  6
CONTINUOUS
 10
4.3189995116
 20
5.0989564326
 11
4.3035745116
 21
5.0989564326
  0
LINE
  5
3F6
100
AcDbEntity
  8
03__ASM_ALL_CURVES
100
AcDbLine
 62
40
  6
CONTINUOUS
 10
4.1955995116
 20
5.0989564326
 11
4.1801745116
 21
5.0989564326
  0
LINE
  5
3F7
100
AcDbEntity
  8
03__ASM_ALL_CURVES
100
AcDbLine
 62
40
  6
CONTINUOUS
 10
3.4264970123
 20
5.0989564326
 11
3.4187845123
 21
5.0989564326
  0
LINE
  5
3F8
100
AcDbEntity
  8
03__ASM_ALL_CURVES
100
AcDbLine
 62
40
  6
CONTINUOUS
 10
3.3108095123
 20
5.0989564326
 11
3.2953845123
 21
5.0989564326
  0
LINE
  5
3F9
100
AcDbEntity
  8
03__ASM_ALL_CURVES
100
AcDbLine
 62
40
  6
CONTINUOUS
 10
3.1874095123
 20
5.0989564326
 11
3.1719845123
 21
5.0989564326
  0
LINE
  5
3FA
100
AcDbEntity
  8
03__ASM_ALL_CURVES
100
AcDbLine
 62
40
  6
CONTINUOUS
 10
2.8172095123
 20
5.0989564326
 11
2.8017845123
 21
5.0989564326
  0
LINE
  5
3FB
100
AcDbEntity
  8
03__ASM_ALL_CURVES
100
AcDbLine
 62
40
  6
CONTINUOUS
 10
2.6860970123
 20
5.0989564326
 11
2.6783845123
 21
5.0989564326
  0
LINE
  5
3FC
100
AcDbEntity
  8
03__ASM_ALL_CURVES
100
AcDbLine
 62
40
  6
CONTINUOUS
 10
3.5190470123
 20
5.0989564326
 11
3.5807470123
 21
5.0989564326
  0
LINE
  5
3FD
100
AcDbEntity
  8
03__ASM_ALL_CURVES
100
AcDbLine
 62
40
  6
CONTINUOUS
 10
4.0336370116
 20
5.0989564326
 11
4.0953370116
 21
5.0989564326
  0
LINE
  5
3FE
100
AcDbEntity
  8
03__ASM_ALL_CURVES
100
AcDbLine
 62
40
  6
CONTINUOUS
 10
5.6378370116
 20
5.0989564326
 11
5.6995370116
 21
5.0989564326
  0
LINE
  5
3FF
100
AcDbEntity
  8
03__ASM_ALL_CURVES
100
AcDbLine
 62
40
  6
CONTINUOUS
 10
4.4115495116
 20
5.1400897672
 11
4.4578245116
 21
5.1400897672
  0
LINE
  5
400
100
AcDbEntity
  8
03__ASM_ALL_CURVES
100
AcDbLine
 62
40
  6
CONTINUOUS
 10
6.0465995116
 20
5.1606564326
 11
6.0080370116
 21
5.1606564326
  0
LINE
  5
401
100
AcDbEntity
  8
03__ASM_ALL_CURVES
100
AcDbLine
 62
40
  6
CONTINUOUS
 10
4.9282870116
 20
5.1606564326
 11
4.9591370116
 21
5.1606564326
  0
LINE
  5
402
100
AcDbEntity
  8
03__ASM_ALL_CURVES
100
AcDbLine
 62
40
  6
CONTINUOUS
 10
5.2676370116
 20
5.1606564326
 11
5.3293370116
 21
5.1606564326
  0
LINE
  5
403
100
AcDbEntity
  8
03__ASM_ALL_CURVES
100
AcDbLine
 62
40
  6
CONTINUOUS
 10
5.8846370116
 20
5.1606564326
 11
5.9231995116
 21
5.1606564326
  0
LINE
  5
404
100
AcDbEntity
  8
03__ASM_ALL_CURVES
100
AcDbLine
 62
40
  6
CONTINUOUS
 10
2.8017845123
 20
5.1709397635
 11
2.8172095123
 21
5.1709397635
  0
LINE
  5
405
100
AcDbEntity
  8
03__ASM_ALL_CURVES
100
AcDbLine
 62
40
  6
CONTINUOUS
 10
3.1719845123
 20
5.1709397635
 11
3.1874095123
 21
5.1709397635
  0
LINE
  5
406
100
AcDbEntity
  8
03__ASM_ALL_CURVES
100
AcDbLine
 62
40
  6
CONTINUOUS
 10
3.2953845123
 20
5.1709397635
 11
3.3108095123
 21
5.1709397635
  0
LINE
  5
407
100
AcDbEntity
  8
03__ASM_ALL_CURVES
100
AcDbLine
 62
40
  6
CONTINUOUS
 10
5.1827995116
 20
5.2223564326
 11
5.1673745116
 21
5.2223564326
  0
LINE
  5
408
100
AcDbEntity
  8
03__ASM_ALL_CURVES
100
AcDbLine
 62
40
  6
CONTINUOUS
 10
3.7041470123
 20
5.2223564326
 11
3.6424470123
 21
5.2223564326
  0
LINE
  5
409
100
AcDbEntity
  8
03__ASM_ALL_CURVES
100
AcDbLine
 62
40
  6
CONTINUOUS
 10
2.8017845123
 20
5.2223564326
 11
2.8172095123
 21
5.2223564326
  0
LINE
  5
40A
100
AcDbEntity
  8
03__ASM_ALL_CURVES
100
AcDbLine
 62
40
  6
CONTINUOUS
 10
3.1719845123
 20
5.2223564326
 11
3.1874095123
 21
5.2223564326
  0
LINE
  5
40B
100
AcDbEntity
  8
03__ASM_ALL_CURVES
100
AcDbLine
 62
40
  6
CONTINUOUS
 10
3.2953845123
 20
5.2223564326
 11
3.3108095123
 21
5.2223564326
  0
LINE
  5
40C
100
AcDbEntity
  8
03__ASM_ALL_CURVES
100
AcDbLine
 62
40
  6
CONTINUOUS
 10
3.5421845123
 20
5.2223564326
 11
3.5576095123
 21
5.2223564326
  0
LINE
  5
40D
100
AcDbEntity
  8
03__ASM_ALL_CURVES
100
AcDbLine
 62
40
  6
CONTINUOUS
 10
4.1801745116
 20
5.2223564326
 11
4.1955995116
 21
5.2223564326
  0
LINE
  5
40E
100
AcDbEntity
  8
03__ASM_ALL_CURVES
100
AcDbLine
 62
40
  6
CONTINUOUS
 10
4.3035745116
 20
5.2223564326
 11
4.3189995116
 21
5.2223564326
  0
LINE
  5
40F
100
AcDbEntity
  8
03__ASM_ALL_CURVES
100
AcDbLine
 62
40
  6
CONTINUOUS
 10
4.5195245116
 20
5.2223564326
 11
4.5966495116
 21
5.2223564326
  0
LINE
  5
410
100
AcDbEntity
  8
03__ASM_ALL_CURVES
100
AcDbLine
 62
40
  6
CONTINUOUS
 10
4.9205745116
 20
5.2223564326
 11
4.9359995116
 21
5.2223564326
  0
LINE
  5
411
100
AcDbEntity
  8
03__ASM_ALL_CURVES
100
AcDbLine
 62
40
  6
CONTINUOUS
 10
5.4141745116
 20
5.2223564326
 11
5.4295995116
 21
5.2223564326
  0
LINE
  5
412
100
AcDbEntity
  8
03__ASM_ALL_CURVES
100
AcDbLine
 62
40
  6
CONTINUOUS
 10
5.7612370116
 20
5.2223564326
 11
5.7920870116
 21
5.2223564326
  0
LINE
  5
413
100
AcDbEntity
  8
03__ASM_ALL_CURVES
100
AcDbLine
 62
40
  6
CONTINUOUS
 10
5.8846370116
 20
5.2223564326
 11
5.9463370116
 21
5.2223564326
  0
LINE
  5
414
100
AcDbEntity
  8
03__ASM_ALL_CURVES
100
AcDbLine
 62
40
  6
CONTINUOUS
 10
6.0080370116
 20
5.2223564326
 11
6.0465995116
 21
5.2223564326
  0
LINE
  5
415
100
AcDbEntity
  8
03__ASM_ALL_CURVES
100
AcDbLine
 62
40
  6
CONTINUOUS
 10
5.7920870116
 20
5.2223564326
 11
5.8075120116
 21
5.2120731017
  0
LINE
  5
416
100
AcDbEntity
  8
03__ASM_ALL_CURVES
100
AcDbLine
 62
40
  6
CONTINUOUS
 10
6.0465995116
 20
5.2223564326
 11
6.0620245116
 21
5.2120731017
  0
LINE
  5
417
100
AcDbEntity
  8
03__ASM_ALL_CURVES
100
AcDbLine
 62
40
  6
CONTINUOUS
 10
6.0620245116
 20
5.2120731017
 11
6.0697370116
 21
5.2017897635
  0
LINE
  5
418
100
AcDbEntity
  8
03__ASM_ALL_CURVES
100
AcDbLine
 62
40
  6
CONTINUOUS
 10
6.929981358
 20
3.3982534326
 11
6.947334483
 21
3.3519784326
  0
LINE
  5
419
100
AcDbEntity
  8
03__ASM_ALL_CURVES
100
AcDbLine
 62
40
  6
CONTINUOUS
 10
6.802725108
 20
3.3751159326
 11
6.796940733
 21
3.3982534326
  0
LINE
  5
41A
100
AcDbEntity
  8
03__ASM_ALL_CURVES
100
AcDbLine
 62
40
  6
CONTINUOUS
 10
6.860568858
 20
3.4213909326
 11
6.866353233
 21
3.3982534326
  0
LINE
  5
41B
100
AcDbEntity
  8
03__ASM_ALL_CURVES
100
AcDbLine
 62
40
  6
CONTINUOUS
 10
6.762234483
 20
3.4291034308
 11
6.762234483
 21
3.4136784344
  0
LINE
  5
41C
100
AcDbEntity
  8
03__ASM_ALL_CURVES
100
AcDbLine
 62
40
  6
CONTINUOUS
 10
6.901059483
 20
3.3519784326
 11
6.901059483
 21
3.4445284326
  0
LINE
  5
41D
100
AcDbEntity
  8
03__ASM_ALL_CURVES
100
AcDbLine
 62
40
  6
CONTINUOUS
 10
6.947334483
 20
3.4291034308
 11
6.947334483
 21
3.4136784344
  0
LINE
  5
41E
100
AcDbEntity
  8
03__ASM_ALL_CURVES
100
AcDbLine
 62
40
  6
CONTINUOUS
 10
6.1697578522
 20
3.3596909328
 11
6.1581891022
 21
3.3519784326
  0
LINE
  5
41F
100
AcDbEntity
  8
03__ASM_ALL_CURVES
100
AcDbLine
 62
40
  6
CONTINUOUS
 10
3.6881170123
 20
5.0249164326
 11
3.9842770123
 21
5.0742764326
  0
LINE
  5
420
100
AcDbEntity
  8
03__ASM_ALL_CURVES
100
AcDbLine
 62
40
  6
CONTINUOUS
 10
3.6881170123
 20
5.0290297659
 11
3.9842770123
 21
5.0701630993
  0
LINE
  5
421
100
AcDbEntity
  8
03__ASM_ALL_CURVES
100
AcDbLine
 62
40
  6
CONTINUOUS
 10
3.6881170123
 20
5.0331430993
 11
3.9842770123
 21
5.0660497659
  0
LINE
  5
422
100
AcDbEntity
  8
03__ASM_ALL_CURVES
100
AcDbLine
 62
40
  6
CONTINUOUS
 10
2.6712770123
 20
5.0660497659
 11
2.5231970123
 21
5.0495964326
  0
LINE
  5
423
100
AcDbEntity
  8
03__ASM_ALL_CURVES
100
AcDbLine
 62
40
  6
CONTINUOUS
 10
2.6712770123
 20
5.0619364326
 11
2.5231970123
 21
5.0495964326
  0
LINE
  5
424
100
AcDbEntity
  8
03__ASM_ALL_CURVES
100
AcDbLine
 62
40
  6
CONTINUOUS
 10
2.6712770123
 20
5.0578230993
 11
2.5231970123
 21
5.0495964326
  0
LINE
  5
425
100
AcDbEntity
  8
03__ASM_ALL_CURVES
100
AcDbLine
 62
40
  6
CONTINUOUS
 10
7.016746983
 20
3.4445284326
 11
7.016746983
 21
3.3519784326
  0
LINE
  5
426
100
AcDbEntity
  8
0
100
AcDbLine
 62
7
  6
CONTINUOUS
 10
7.0441970123
 20
3.7920284326
 11
7.0441970123
 21
4.5350284326
  0
LINE
  5
427
100
AcDbEntity
  8
0
100
AcDbLine
 62
7
  6
CONTINUOUS
 10
7.0835797497
 20
3.7590284326
 11
7.0835797497
 21
4.5680284326
  0
LINE
  5
428
100
AcDbEntity
  8
03__ASM_ALL_CURVES
100
AcDbLine
 62
40
  6
CONTINUOUS
 10
7.132434483
 20
3.4291034308
 11
7.132434483
 21
3.4136784344
  0
LINE
  5
429
100
AcDbEntity
  8
0
100
AcDbLine
 62
7
  6
CONTINUOUS
 10
7.1611970123
 20
3.7590284326
 11
7.1611970123
 21
4.5680284326
  0
LINE
  5
42A
100
AcDbEntity
  8
03__ASM_ALL_CURVES
100
AcDbLine
 62
40
  6
CONTINUOUS
 10
6.796940733
 20
3.3982534326
 11
6.802725108
 21
3.4213909326
  0
LINE
  5
42B
100
AcDbEntity
  8
03__ASM_ALL_CURVES
100
AcDbLine
 62
40
  6
CONTINUOUS
 10
6.866353233
 20
3.3982534326
 11
6.860568858
 21
3.3751159326
  0
LINE
  5
42C
100
AcDbEntity
  8
03__ASM_ALL_CURVES
100
AcDbLine
 62
40
  6
CONTINUOUS
 10
6.762234483
 20
3.4136784344
 11
6.756450108
 21
3.4059659308
  0
LINE
  5
42D
100
AcDbEntity
  8
03__ASM_ALL_CURVES
100
AcDbLine
 62
40
  6
CONTINUOUS
 10
6.802725108
 20
3.4213909326
 11
6.814293858
 21
3.4368159344
  0
LINE
  5
42E
100
AcDbEntity
  8
03__ASM_ALL_CURVES
100
AcDbLine
 62
40
  6
CONTINUOUS
 10
6.756450108
 20
3.4059659308
 11
6.744881358
 21
3.3982534326
  0
LINE
  5
42F
100
AcDbEntity
  8
03__ASM_ALL_CURVES
100
AcDbLine
 62
40
  6
CONTINUOUS
 10
6.814293858
 20
3.4368159344
 11
6.825862608
 21
3.4445284326
  0
LINE
  5
430
100
AcDbEntity
  8
03__ASM_ALL_CURVES
100
AcDbLine
 62
40
  6
CONTINUOUS
 10
6.849000108
 20
3.3596909328
 11
6.837431358
 21
3.3519784326
  0
LINE
  5
431
100
AcDbEntity
  8
03__ASM_ALL_CURVES
100
AcDbLine
 62
40
  6
CONTINUOUS
 10
6.941550108
 20
3.4059659308
 11
6.929981358
 21
3.3982534326
  0
LINE
  5
432
100
AcDbEntity
  8
03__ASM_ALL_CURVES
100
AcDbLine
 62
40
  6
CONTINUOUS
 10
2.5231970123
 20
5.0495964326
 11
2.6712770123
 21
5.0742764326
  0
LINE
  5
433
100
AcDbEntity
  8
03__ASM_ALL_CURVES
100
AcDbLine
 62
40
  6
CONTINUOUS
 10
2.6712770123
 20
5.0701630993
 11
2.5231970123
 21
5.0495964326
  0
LINE
  5
434
100
AcDbEntity
  8
0
100
AcDbLine
 62
7
  6
CONTINUOUS
 10
7.4591970123
 20
4.5560284326
 11
7.4471970123
 21
4.5680284326
  0
LINE
  5
435
100
AcDbEntity
  8
0
100
AcDbLine
 62
7
  6
CONTINUOUS
 10
7.2111970123
 20
3.7595290468
 11
7.2111970123
 21
4.5675278184
  0
LINE
  5
436
100
AcDbEntity
  8
0
100
AcDbLine
 62
7
  6
CONTINUOUS
 10
7.2811970123
 20
3.7595290468
 11
7.2811970123
 21
4.5675278184
  0
LINE
  5
437
100
AcDbEntity
  8
0
100
AcDbLine
 62
7
  6
CONTINUOUS
 10
7.3311970123
 20
3.7595290468
 11
7.3311970123
 21
4.5675278184
  0
LINE
  5
438
100
AcDbEntity
  8
0
100
AcDbLine
 62
7
  6
CONTINUOUS
 10
7.3591970123
 20
3.7590284326
 11
7.3591970123
 21
4.5680284326
  0
LINE
  5
439
100
AcDbEntity
  8
03__ASM_ALL_CURVES
100
AcDbLine
 62
40
  6
CONTINUOUS
 10
7.091943858
 20
3.3751159326
 11
7.086159483
 21
3.3519784326
  0
LINE
  5
43A
100
AcDbEntity
  8
03__ASM_ALL_CURVES
100
AcDbLine
 62
40
  6
CONTINUOUS
 10
6.860568858
 20
3.3751159326
 11
6.849000108
 21
3.3596909328
  0
LINE
  5
43B
100
AcDbEntity
  8
03__ASM_ALL_CURVES
100
AcDbLine
 62
40
  6
CONTINUOUS
 10
6.947334483
 20
3.4136784344
 11
6.941550108
 21
3.4059659308
  0
LINE
  5
43C
100
AcDbEntity
  8
03__ASM_ALL_CURVES
100
AcDbLine
 62
40
  6
CONTINUOUS
 10
7.086159483
 20
3.4291034308
 11
7.091943858
 21
3.4368159344
  0
LINE
  5
43D
100
AcDbEntity
  8
03__ASM_ALL_CURVES
100
AcDbLine
 62
40
  6
CONTINUOUS
 10
7.103512608
 20
3.3905409317
 11
7.091943858
 21
3.3751159326
  0
LINE
  5
43E
100
AcDbEntity
  8
03__ASM_ALL_CURVES
100
AcDbLine
 62
40
  6
CONTINUOUS
 10
7.132434483
 20
3.4136784344
 11
7.126650108
 21
3.4059659308
  0
LINE
  5
43F
100
AcDbEntity
  8
0
100
AcDbLine
 62
7
  6
CONTINUOUS
 10
7.4591970123
 20
3.7710284326
 11
7.4471970123
 21
3.7590284326
  0
LINE
  5
440
100
AcDbEntity
  8
03__ASM_ALL_CURVES
100
AcDbLine
 62
40
  6
CONTINUOUS
 10
7.091943858
 20
3.4368159344
 11
7.103512608
 21
3.4445284326
  0
LINE
  5
441
100
AcDbEntity
  8
03__ASM_ALL_CURVES
100
AcDbLine
 62
40
  6
CONTINUOUS
 10
7.126650108
 20
3.4059659308
 11
7.103512608
 21
3.3905409317
  0
LINE
  5
442
100
AcDbEntity
  8
03__ASM_ALL_CURVES
100
AcDbLine
 62
40
  6
CONTINUOUS
 10
8.7961001368
 20
4.1882084326
 11
8.7845313868
 21
4.1959209328
  0
LINE
  5
443
100
AcDbEntity
  8
03__ASM_ALL_CURVES
100
AcDbLine
 62
40
  6
CONTINUOUS
 10
8.7151188868
 20
4.2807584326
 11
8.7266876368
 21
4.2730459344
  0
LINE
  5
444
100
AcDbEntity
  8
0
100
AcDbLine
 62
7
  6
CONTINUOUS
 10
7.4471970123
 20
3.7590284326
 11
7.4471970123
 21
4.5680284326
  0
LINE
  5
445
100
AcDbEntity
  8
0
100
AcDbLine
 62
7
  6
CONTINUOUS
 10
7.4591970123
 20
3.7710284326
 11
7.4591970123
 21
4.5560284326
  0
LINE
  5
446
100
AcDbEntity
  8
03__ASM_ALL_CURVES
100
AcDbLine
 62
40
  6
CONTINUOUS
 10
8.7266876368
 20
4.2421959308
 11
8.7151188868
 21
4.2344834326
  0
LINE
  5
447
100
AcDbEntity
  8
03__ASM_ALL_CURVES
100
AcDbLine
 62
40
  6
CONTINUOUS
 10
8.7845313868
 20
4.2730459344
 11
8.7961001368
 21
4.2807584326
  0
LINE
  5
448
100
AcDbEntity
  8
03__ASM_ALL_CURVES
100
AcDbLine
 62
40
  6
CONTINUOUS
 10
8.8192376368
 20
4.1959209328
 11
8.8076688868
 21
4.1882084326
  0
LINE
  5
449
100
AcDbEntity
  8
03__ASM_ALL_CURVES
100
AcDbLine
 62
40
  6
CONTINUOUS
 10
8.9117876368
 20
4.2421959308
 11
8.9002188868
 21
4.2344834326
  0
LINE
  5
44A
100
AcDbEntity
  8
03__ASM_ALL_CURVES
100
AcDbLine
 62
40
  6
CONTINUOUS
 10
8.8076688868
 20
4.2807584326
 11
8.8192376368
 21
4.2730459344
  0
LINE
  5
44B
100
AcDbEntity
  8
03__ASM_ALL_CURVES
100
AcDbLine
 62
40
  6
CONTINUOUS
 10
8.9002188868
 20
4.2807584326
 11
8.9117876368
 21
4.2730459344
  0
LINE
  5
44C
100
AcDbEntity
  8
03__ASM_ALL_CURVES
100
AcDbLine
 62
40
  6
CONTINUOUS
 10
8.7324720118
 20
4.2499084344
 11
8.7266876368
 21
4.2421959308
  0
LINE
  5
44D
100
AcDbEntity
  8
03__ASM_ALL_CURVES
100
AcDbLine
 62
40
  6
CONTINUOUS
 10
8.7729626368
 20
4.2576209326
 11
8.7845313868
 21
4.2730459344
  0
LINE
  5
44E
100
AcDbEntity
  8
03__ASM_ALL_CURVES
100
AcDbLine
 62
40
  6
CONTINUOUS
 10
8.8308063868
 20
4.2113459326
 11
8.8192376368
 21
4.1959209328
  0
LINE
  5
44F
100
AcDbEntity
  8
03__ASM_ALL_CURVES
100
AcDbLine
 62
40
  6
CONTINUOUS
 10
8.9175720118
 20
4.2499084344
 11
8.9117876368
 21
4.2421959308
  0
LINE
  5
450
100
AcDbEntity
  8
03__ASM_ALL_CURVES
100
AcDbLine
 62
40
  6
CONTINUOUS
 10
8.7845313868
 20
4.1959209328
 11
8.7729626368
 21
4.2113459326
  0
LINE
  5
451
100
AcDbEntity
  8
03__ASM_ALL_CURVES
100
AcDbLine
 62
40
  6
CONTINUOUS
 10
8.7266876368
 20
4.2730459344
 11
8.7324720118
 21
4.2653334308
  0
LINE
  5
452
100
AcDbEntity
  8
03__ASM_ALL_CURVES
100
AcDbLine
 62
40
  6
CONTINUOUS
 10
8.8192376368
 20
4.2730459344
 11
8.8308063868
 21
4.2576209326
  0
LINE
  5
453
100
AcDbEntity
  8
03__ASM_ALL_CURVES
100
AcDbLine
 62
40
  6
CONTINUOUS
 10
8.9117876368
 20
4.2730459344
 11
8.9175720118
 21
4.2653334308
  0
LINE
  5
454
100
AcDbEntity
  8
03__ASM_ALL_CURVES
100
AcDbLine
 62
40
  6
CONTINUOUS
 10
8.6861970118
 20
4.1882084326
 11
8.6861970118
 21
4.2807584326
  0
LINE
  5
455
100
AcDbEntity
  8
03__ASM_ALL_CURVES
100
AcDbLine
 62
40
  6
CONTINUOUS
 10
8.7324720118
 20
4.2653334308
 11
8.7324720118
 21
4.2499084344
  0
LINE
  5
456
100
AcDbEntity
  8
03__ASM_ALL_CURVES
100
AcDbLine
 62
40
  6
CONTINUOUS
 10
8.7671782618
 20
4.2344834326
 11
8.7729626368
 21
4.2576209326
  0
LINE
  5
457
100
AcDbEntity
  8
03__ASM_ALL_CURVES
100
AcDbLine
 62
40
  6
CONTINUOUS
 10
8.8365907618
 20
4.2344834326
 11
8.8308063868
 21
4.2113459326
  0
LINE
  5
458
100
AcDbEntity
  8
03__ASM_ALL_CURVES
100
AcDbLine
 62
40
  6
CONTINUOUS
 10
8.9002188868
 20
4.2344834326
 11
8.9175720118
 21
4.1882084326
  0
LINE
  5
459
100
AcDbEntity
  8
03__ASM_ALL_CURVES
100
AcDbLine
 62
40
  6
CONTINUOUS
 10
8.7729626368
 20
4.2113459326
 11
8.7671782618
 21
4.2344834326
  0
LINE
  5
45A
100
AcDbEntity
  8
03__ASM_ALL_CURVES
100
AcDbLine
 62
40
  6
CONTINUOUS
 10
8.8308063868
 20
4.2576209326
 11
8.8365907618
 21
4.2344834326
  0
LINE
  5
45B
100
AcDbEntity
  8
03__ASM_ALL_CURVES
100
AcDbLine
 62
40
  6
CONTINUOUS
 10
8.8712970118
 20
4.1882084326
 11
8.8712970118
 21
4.2807584326
  0
LINE
  5
45C
100
AcDbEntity
  8
03__ASM_ALL_CURVES
100
AcDbLine
 62
40
  6
CONTINUOUS
 10
8.9175720118
 20
4.2653334308
 11
8.9175720118
 21
4.2499084344
  0
LINE
  5
45D
100
AcDbEntity
  8
03__ASM_ALL_CURVES
100
AcDbLine
 62
40
  6
CONTINUOUS
 10
8.9869845118
 20
4.2807584326
 11
8.9869845118
 21
4.1882084326
  0
LINE
  5
45E
100
AcDbEntity
  8
03__ASM_ALL_CURVES
100
AcDbLine
 62
40
  6
CONTINUOUS
 10
9.0795345118
 20
4.2807584326
 11
9.0795345118
 21
4.1882084326
  0
ARC
  5
45F
100
AcDbEntity
  8
0
100
AcDbCircle
 62
7
  6
CONTINUOUS
 10
5.1531970123
 20
3.7345284326
 40
0.04
100
AcDbArc
 50
0.0000283515
 51
90.0
  0
ARC
  5
460
100
AcDbEntity
  8
0
100
AcDbCircle
 62
7
  6
CONTINUOUS
 10
5.1531970123
 20
4.5925284326
 40
0.04
100
AcDbArc
 50
270.0
 51
359.9999716485
  0
ARC
  5
461
100
AcDbEntity
  8
0
100
AcDbCircle
 62
7
  6
CONTINUOUS
 10
7.0441970123
 20
4.5750284326
 40
0.04
100
AcDbArc
 50
270.0
 51
349.9213418922
  0
ARC
  5
462
100
AcDbEntity
  8
0
100
AcDbCircle
 62
7
  6
CONTINUOUS
 10
7.0441970123
 20
3.7520284326
 40
0.04
100
AcDbArc
 50
10.0786581078
 51
90.0
  0
ARC
  5
463
100
AcDbEntity
  8
0
100
AcDbCircle
 62
7
  6
CONTINUOUS
 10
6.5211970123
 20
4.5750284326
 40
0.04
100
AcDbArc
 50
180.0000012513
 51
270.0
  0
ARC
  5
464
100
AcDbEntity
  8
0
100
AcDbCircle
 62
7
  6
CONTINUOUS
 10
6.5211970123
 20
3.7520284326
 40
0.04
100
AcDbArc
 50
90.0
 51
179.9999987487
  0
ARC
  5
465
100
AcDbEntity
  8
0
100
AcDbCircle
 62
7
  6
CONTINUOUS
 10
6.0931970123
 20
4.5780284326
 40
0.04
100
AcDbArc
 50
270.0
 51
359.9999725524
  0
ARC
  5
466
100
AcDbEntity
  8
0
100
AcDbCircle
 62
7
  6
CONTINUOUS
 10
6.0931970123
 20
3.7490284326
 40
0.04
100
AcDbArc
 50
0.0000274476
 51
90.0
  0
ARC
  5
467
100
AcDbEntity
  8
0
100
AcDbCircle
 62
7
  6
CONTINUOUS
 10
5.5811970123
 20
4.5780284326
 40
0.04
100
AcDbArc
 50
180.0000027732
 51
270.0
  0
ARC
  5
468
100
AcDbEntity
  8
0
100
AcDbCircle
 62
7
  6
CONTINUOUS
 10
5.5811970123
 20
3.7490284326
 40
0.04
100
AcDbArc
 50
90.0
 51
179.9999972268
  0
ARC
  5
469
100
AcDbEntity
  8
THREAD
100
AcDbCircle
 62
7
  6
CONTINUOUS
 10
4.0166914588
 20
3.6925284326
 40
0.013
100
AcDbArc
 50
29.9999999998
 51
90.0
  0
ARC
  5
46A
100
AcDbEntity
  8
THREAD
100
AcDbCircle
 62
7
  6
CONTINUOUS
 10
4.0166914588
 20
4.6345284326
 40
0.013
100
AcDbArc
 50
270.0
 51
330.0000000066
  0
ARC
  5
46B
100
AcDbEntity
  8
0
100
AcDbCircle
 62
7
  6
CONTINUOUS
 10
3.8411970123
 20
3.6331416812
 40
0.005
100
AcDbArc
 50
120.0000000168
 51
179.9999999997
  0
ARC
  5
46C
100
AcDbEntity
  8
0
100
AcDbCircle
 62
7
  6
CONTINUOUS
 10
3.8411970123
 20
4.6939151839
 40
0.005
100
AcDbArc
 50
180.0000000003
 51
239.9999999869
  0
ARC
  5
46D
100
AcDbEntity
  8
0
100
AcDbCircle
 62
7
  6
CONTINUOUS
 10
3.8600534188
 20
3.6440284326
 40
0.005
100
AcDbArc
 50
90.0
 51
120.0000000277
  0
ARC
  5
46E
100
AcDbEntity
  8
0
100
AcDbCircle
 62
7
  6
CONTINUOUS
 10
3.8600534188
 20
4.6830284326
 40
0.005
100
AcDbArc
 50
239.9999999742
 51
270.0
  0
ARC
  5
46F
100
AcDbEntity
  8
0
100
AcDbCircle
 62
7
  6
CONTINUOUS
 10
3.8331970123
 20
3.6285284326
 40
0.003
100
AcDbArc
 50
270.0
 51
360.0
  0
ARC
  5
470
100
AcDbEntity
  8
0
100
AcDbCircle
 62
7
  6
CONTINUOUS
 10
3.8331970123
 20
4.6985284326
 40
0.003
100
AcDbArc
 50
0.0
 51
90.0
  0
SPLINE
  5
471
100
AcDbEntity
  8
0
100
AcDbSpline
 62
7
  6
CONTINUOUS
 70
0
 71
3
 72
15
 73
11
 74
9
 42
0.0000001
 43
0.0000001
 44
0.0000000001
 12
0.0
 22
0.1099409465
 32
0.0
 13
0.0
 23
-0.1099409465
 33
0.0
 40
0.0
 40
0.0
 40
0.0
 40
0.0
 40
0.125
 40
0.25
 40
0.375
 40
0.5
 40
0.625
 40
0.75
 40
0.875
 40
1.0
 40
1.0
 40
1.0
 40
1.0
 10
7.2811970123
 20
4.5485284326
 30
0.0
 10
7.2811970123
 20
4.5531093054
 30
0.0
 10
7.2793746278
 20
4.5622710509
 30
0.0
 10
7.2715900599
 20
4.5739214802
 30
0.0
 10
7.2599396306
 20
4.5817060481
 30
0.0
 10
7.2461970123
 20
4.5844396248
 30
0.0
 10
7.232454394
 20
4.5817060481
 30
0.0
 10
7.2208039648
 20
4.5739214802
 30
0.0
 10
7.2130193968
 20
4.5622710509
 30
0.0
 10
7.2111970123
 20
4.5531093054
 30
0.0
 10
7.2111970123
 20
4.5485284326
 30
0.0
 11
7.2811970123
 21
4.5485284326
 31
0.0
 11
7.278532796
 21
4.5619223527
 31
0.0
 11
7.2709457497
 21
4.5732771699
 31
0.0
 11
7.2595909325
 21
4.5808642162
 31
0.0
 11
7.2461970123
 21
4.5835284326
 31
0.0
 11
7.2328030922
 21
4.5808642162
 31
0.0
 11
7.221448275
 21
4.5732771699
 31
0.0
 11
7.2138612287
 21
4.5619223527
 31
0.0
 11
7.2111970123
 21
4.5485284326
 31
0.0
  0
SPLINE
  5
472
100
AcDbEntity
  8
0
100
AcDbSpline
 62
7
  6
CONTINUOUS
 70
0
 71
3
 72
15
 73
11
 74
9
 42
0.0000001
 43
0.0000001
 44
0.0000000001
 12
0.0
 22
-0.1099409465
 32
0.0
 13
0.0
 23
0.1099409465
 33
0.0
 40
0.0
 40
0.0
 40
0.0
 40
0.0
 40
0.125
 40
0.25
 40
0.375
 40
0.5
 40
0.625
 40
0.75
 40
0.875
 40
1.0
 40
1.0
 40
1.0
 40
1.0
 10
7.2811970123
 20
3.7785284326
 30
0.0
 10
7.2811970123
 20
3.7739475598
 30
0.0
 10
7.2793746278
 20
3.7647858143
 30
0.0
 10
7.2715900599
 20
3.753135385
 30
0.0
 10
7.2599396306
 20
3.7453508171
 30
0.0
 10
7.2461970123
 20
3.7426172403
 30
0.0
 10
7.232454394
 20
3.7453508171
 30
0.0
 10
7.2208039648
 20
3.753135385
 30
0.0
 10
7.2130193968
 20
3.7647858143
 30
0.0
 10
7.2111970123
 20
3.7739475598
 30
0.0
 10
7.2111970123
 20
3.7785284326
 30
0.0
 11
7.2811970123
 21
3.7785284326
 31
0.0
 11
7.278532796
 21
3.7651345125
 31
0.0
 11
7.2709457497
 21
3.7537796953
 31
0.0
 11
7.2595909325
 21
3.746192649
 31
0.0
 11
7.2461970123
 21
3.7435284326
 31
0.0
 11
7.2328030922
 21
3.746192649
 31
0.0
 11
7.221448275
 21
3.7537796953
 31
0.0
 11
7.2138612287
 21
3.7651345125
 31
0.0
 11
7.2111970123
 21
3.7785284326
 31
0.0
  0
SPLINE
  5
473
100
AcDbEntity
  8
0
100
AcDbSpline
 62
7
  6
CONTINUOUS
 70
0
 71
3
 72
15
 73
11
 74
9
 42
0.0000001
 43
0.0000001
 44
0.0000000001
 12
0.0
 22
0.1099409465
 32
0.0
 13
0.0
 23
-0.1099409465
 33
0.0
 40
0.0
 40
0.0
 40
0.0
 40
0.0
 40
0.125
 40
0.25
 40
0.375
 40
0.5
 40
0.625
 40
0.75
 40
0.875
 40
1.0
 40
1.0
 40
1.0
 40
1.0
 10
6.3281970123
 20
4.5485284326
 30
0.0
 10
6.3281970123
 20
4.5531093054
 30
0.0
 10
6.3263746278
 20
4.5622710509
 30
0.0
 10
6.3185900599
 20
4.5739214802
 30
0.0
 10
6.3069396306
 20
4.5817060481
 30
0.0
 10
6.2931970123
 20
4.5844396248
 30
0.0
 10
6.279454394
 20
4.5817060481
 30
0.0
 10
6.2678039648
 20
4.5739214802
 30
0.0
 10
6.2600193968
 20
4.5622710509
 30
0.0
 10
6.2581970123
 20
4.5531093054
 30
0.0
 10
6.2581970123
 20
4.5485284326
 30
0.0
 11
6.3281970123
 21
4.5485284326
 31
0.0
 11
6.325532796
 21
4.5619223527
 31
0.0
 11
6.3179457497
 21
4.5732771699
 31
0.0
 11
6.3065909325
 21
4.5808642162
 31
0.0
 11
6.2931970123
 21
4.5835284326
 31
0.0
 11
6.2798030922
 21
4.5808642162
 31
0.0
 11
6.268448275
 21
4.5732771699
 31
0.0
 11
6.2608612287
 21
4.5619223527
 31
0.0
 11
6.2581970123
 21
4.5485284326
 31
0.0
  0
SPLINE
  5
474
100
AcDbEntity
  8
0
100
AcDbSpline
 62
7
  6
CONTINUOUS
 70
0
 71
3
 72
15
 73
11
 74
9
 42
0.0000001
 43
0.0000001
 44
0.0000000001
 12
0.0
 22
-0.1099409465
 32
0.0
 13
0.0
 23
0.1099409465
 33
0.0
 40
0.0
 40
0.0
 40
0.0
 40
0.0
 40
0.125
 40
0.25
 40
0.375
 40
0.5
 40
0.625
 40
0.75
 40
0.875
 40
1.0
 40
1.0
 40
1.0
 40
1.0
 10
6.3281970123
 20
3.7785284326
 30
0.0
 10
6.3281970123
 20
3.7739475598
 30
0.0
 10
6.3263746278
 20
3.7647858143
 30
0.0
 10
6.3185900599
 20
3.753135385
 30
0.0
 10
6.3069396306
 20
3.7453508171
 30
0.0
 10
6.2931970123
 20
3.7426172403
 30
0.0
 10
6.279454394
 20
3.7453508171
 30
0.0
 10
6.2678039648
 20
3.753135385
 30
0.0
 10
6.2600193968
 20
3.7647858143
 30
0.0
 10
6.2581970123
 20
3.7739475598
 30
0.0
 10
6.2581970123
 20
3.7785284326
 30
0.0
 11
6.3281970123
 21
3.7785284326
 31
0.0
 11
6.325532796
 21
3.7651345125
 31
0.0
 11
6.3179457497
 21
3.7537796953
 31
0.0
 11
6.3065909325
 21
3.746192649
 31
0.0
 11
6.2931970123
 21
3.7435284326
 31
0.0
 11
6.2798030922
 21
3.746192649
 31
0.0
 11
6.268448275
 21
3.7537796953
 31
0.0
 11
6.2608612287
 21
3.7651345125
 31
0.0
 11
6.2581970123
 21
3.7785284326
 31
0.0
  0
SPLINE
  5
475
100
AcDbEntity
  8
0
100
AcDbSpline
 62
7
  6
CONTINUOUS
 70
0
 71
3
 72
15
 73
11
 74
9
 42
0.0000001
 43
0.0000001
 44
0.0000000001
 12
0.0
 22
0.1099409465
 32
0.0
 13
0.0
 23
-0.1099409465
 33
0.0
 40
0.0
 40
0.0
 40
0.0
 40
0.0
 40
0.125
 40
0.25
 40
0.375
 40
0.5
 40
0.625
 40
0.75
 40
0.875
 40
1.0
 40
1.0
 40
1.0
 40
1.0
 10
5.3881970123
 20
4.5920284326
 30
0.0
 10
5.3881970123
 20
4.5966093054
 30
0.0
 10
5.3863746278
 20
4.6057710509
 30
0.0
 10
5.3785900599
 20
4.6174214802
 30
0.0
 10
5.3669396306
 20
4.6252060481
 30
0.0
 10
5.3531970123
 20
4.6279396248
 30
0.0
 10
5.339454394
 20
4.6252060481
 30
0.0
 10
5.3278039648
 20
4.6174214802
 30
0.0
 10
5.3200193968
 20
4.6057710509
 30
0.0
 10
5.3181970123
 20
4.5966093054
 30
0.0
 10
5.3181970123
 20
4.5920284326
 30
0.0
 11
5.3881970123
 21
4.5920284326
 31
0.0
 11
5.385532796
 21
4.6054223527
 31
0.0
 11
5.3779457497
 21
4.6167771699
 31
0.0
 11
5.3665909325
 21
4.6243642162
 31
0.0
 11
5.3531970123
 21
4.6270284326
 31
0.0
 11
5.3398030922
 21
4.6243642162
 31
0.0
 11
5.328448275
 21
4.6167771699
 31
0.0
 11
5.3208612287
 21
4.6054223527
 31
0.0
 11
5.3181970123
 21
4.5920284326
 31
0.0
  0
SPLINE
  5
476
100
AcDbEntity
  8
0
100
AcDbSpline
 62
7
  6
CONTINUOUS
 70
0
 71
3
 72
15
 73
11
 74
9
 42
0.0000001
 43
0.0000001
 44
0.0000000001
 12
0.0
 22
-0.1099409465
 32
0.0
 13
0.0
 23
0.1099409465
 33
0.0
 40
0.0
 40
0.0
 40
0.0
 40
0.0
 40
0.125
 40
0.25
 40
0.375
 40
0.5
 40
0.625
 40
0.75
 40
0.875
 40
1.0
 40
1.0
 40
1.0
 40
1.0
 10
5.3881970123
 20
3.7350284326
 30
0.0
 10
5.3881970123
 20
3.7304475598
 30
0.0
 10
5.3863746278
 20
3.7212858143
 30
0.0
 10
5.3785900599
 20
3.709635385
 30
0.0
 10
5.3669396306
 20
3.7018508171
 30
0.0
 10
5.3531970123
 20
3.6991172403
 30
0.0
 10
5.339454394
 20
3.7018508171
 30
0.0
 10
5.3278039648
 20
3.709635385
 30
0.0
 10
5.3200193968
 20
3.7212858143
 30
0.0
 10
5.3181970123
 20
3.7304475598
 30
0.0
 10
5.3181970123
 20
3.7350284326
 30
0.0
 11
5.3881970123
 21
3.7350284326
 31
0.0
 11
5.385532796
 21
3.7216345125
 31
0.0
 11
5.3779457497
 21
3.7102796953
 31
0.0
 11
5.3665909325
 21
3.702692649
 31
0.0
 11
5.3531970123
 21
3.7000284326
 31
0.0
 11
5.3398030922
 21
3.702692649
 31
0.0
 11
5.328448275
 21
3.7102796953
 31
0.0
 11
5.3208612287
 21
3.7216345125
 31
0.0
 11
5.3181970123
 21
3.7350284326
 31
0.0
  0
SPLINE
  5
477
100
AcDbEntity
  8
0
100
AcDbSpline
 62
7
  6
CONTINUOUS
 70
0
 71
3
 72
14
 73
10
 74
8
 42
0.0000001
 43
0.0000001
 44
0.0000000001
 12
0.0
 22
0.0916172274
 32
0.0
 13
-0.045846371
 23
-0.079336773
 33
0.0
 40
0.0
 40
0.0
 40
0.0
 40
0.0
 40
0.1500003733
 40
0.3000007465
 40
0.4500011198
 40
0.6000014931
 40
0.7500018663
 40
0.9000022396
 40
1.0
 40
1.0
 40
1.0
 40
1.0
 10
3.9531970123
 20
4.6565284326
 30
0.0
 10
3.9531970123
 20
4.6611093054
 30
0.0
 10
3.9513746278
 20
4.6702710509
 30
0.0
 10
3.9435900599
 20
4.6819214802
 30
0.0
 10
3.9319396306
 20
4.6897060481
 30
0.0
 10
3.9181970123
 20
4.6924396248
 30
0.0
 10
3.904454394
 20
4.6897060481
 30
0.0
 10
3.8940985213
 20
4.6827864752
 30
0.0
 10
3.88941584
 20
4.6766720433
 30
0.0
 10
3.8878876619
 20
4.6740275434
 30
0.0
 11
3.9531970123
 21
4.6565284326
 31
0.0
 11
3.950532796
 21
4.6699223527
 31
0.0
 11
3.9429457497
 21
4.6812771699
 31
0.0
 11
3.9315909325
 21
4.6888642162
 31
0.0
 11
3.9181970123
 21
4.6915284326
 31
0.0
 11
3.9048030922
 21
4.6888642162
 31
0.0
 11
3.893448275
 21
4.6812771699
 31
0.0
 11
3.8878876619
 21
4.6740275434
 31
0.0
  0
SPLINE
  5
478
100
AcDbEntity
  8
0
100
AcDbSpline
 62
7
  6
CONTINUOUS
 70
0
 71
3
 72
9
 73
5
 74
3
 42
0.0000001
 43
0.0000001
 44
0.0000000001
 12
-0.0091694111
 22
-0.0158675915
 32
0.0
 13
0.0
 23
-0.0183237191
 33
0.0
 40
0.0
 40
0.0
 40
0.0
 40
0.0
 40
0.2500093315
 40
1.0
 40
1.0
 40
1.0
 40
1.0
 10
3.8878876619
 20
4.6740275434
 30
0.0
 10
3.8871235158
 20
4.6727051948
 30
0.0
 10
3.8844119504
 20
4.6672172117
 30
0.0
 10
3.8831970123
 20
4.6611093054
 30
0.0
 10
3.8831970123
 20
4.6565284326
 30
0.0
 11
3.8878876619
 21
4.6740275434
 31
0.0
 11
3.8858612287
 21
4.6699223527
 31
0.0
 11
3.8831970123
 21
4.6565284326
 31
0.0
  0
SPLINE
  5
479
100
AcDbEntity
  8
0
100
AcDbSpline
 62
7
  6
CONTINUOUS
 70
0
 71
3
 72
14
 73
10
 74
8
 42
0.0000001
 43
0.0000001
 44
0.0000000001
 12
0.0
 22
-0.0916172274
 32
0.0
 13
-0.045846371
 23
0.079336773
 33
0.0
 40
0.0
 40
0.0
 40
0.0
 40
0.0
 40
0.1500003733
 40
0.3000007465
 40
0.4500011198
 40
0.6000014931
 40
0.7500018663
 40
0.9000022396
 40
1.0
 40
1.0
 40
1.0
 40
1.0
 10
3.9531970123
 20
3.6705284326
 30
0.0
 10
3.9531970123
 20
3.6659475598
 30
0.0
 10
3.9513746278
 20
3.6567858143
 30
0.0
 10
3.9435900599
 20
3.645135385
 30
0.0
 10
3.9319396306
 20
3.6373508171
 30
0.0
 10
3.9181970123
 20
3.6346172403
 30
0.0
 10
3.904454394
 20
3.6373508171
 30
0.0
 10
3.8940985213
 20
3.64427039
 30
0.0
 10
3.88941584
 20
3.6503848219
 30
0.0
 10
3.8878876619
 20
3.6530293218
 30
0.0
 11
3.9531970123
 21
3.6705284326
 31
0.0
 11
3.950532796
 21
3.6571345125
 31
0.0
 11
3.9429457497
 21
3.6457796953
 31
0.0
 11
3.9315909325
 21
3.638192649
 31
0.0
 11
3.9181970123
 21
3.6355284326
 31
0.0
 11
3.9048030922
 21
3.638192649
 31
0.0
 11
3.893448275
 21
3.6457796953
 31
0.0
 11
3.8878876619
 21
3.6530293218
 31
0.0
  0
SPLINE
  5
47A
100
AcDbEntity
  8
0
100
AcDbSpline
 62
7
  6
CONTINUOUS
 70
0
 71
3
 72
9
 73
5
 74
3
 42
0.0000001
 43
0.0000001
 44
0.0000000001
 12
-0.0091694111
 22
0.0158675915
 32
0.0
 13
0.0
 23
0.0183237191
 33
0.0
 40
0.0
 40
0.0
 40
0.0
 40
0.0
 40
0.2500093315
 40
1.0
 40
1.0
 40
1.0
 40
1.0
 10
3.8878876619
 20
3.6530293218
 30
0.0
 10
3.8871235158
 20
3.6543516704
 30
0.0
 10
3.8844119504
 20
3.6598396535
 30
0.0
 10
3.8831970123
 20
3.6659475598
 30
0.0
 10
3.8831970123
 20
3.6705284326
 30
0.0
 11
3.8878876619
 21
3.6530293218
 31
0.0
 11
3.8858612287
 21
3.6571345125
 31
0.0
 11
3.8831970123
 21
3.6705284326
 31
0.0
  0
SPLINE
  5
47B
100
AcDbEntity
  8
0
100
AcDbSpline
 62
7
  6
CONTINUOUS
 70
0
 71
3
 72
15
 73
11
 74
9
 42
0.0000001
 43
0.0000001
 44
0.0000000001
 12
0.144303637
 22
0.2708573861
 32
0.0
 13
-0.144303637
 23
0.2708573861
 33
0.0
 40
0.0
 40
0.0
 40
0.0
 40
0.0
 40
0.1355060615
 40
0.2616268072
 40
0.3821382325
 40
0.5000411188
 40
0.6179405518
 40
0.7384429083
 40
0.8645194725
 40
1.0
 40
1.0
 40
1.0
 40
1.0
 10
3.5927713865
 20
3.5301431231
 30
0.0
 10
3.5992893923
 20
3.5423773957
 30
0.0
 10
3.6109226573
 20
3.5665323765
 30
0.0
 10
3.6241306396
 20
3.6034148053
 30
0.0
 10
3.6322271095
 20
3.6399339418
 30
0.0
 10
3.6349695048
 20
3.6764157743
 30
0.0
 10
3.632223475
 20
3.712896379
 30
0.0
 10
3.6241252455
 20
3.7494091251
 30
0.0
 10
3.6109185042
 20
3.7862833308
 30
0.0
 10
3.5992881641
 20
3.8104317749
 30
0.0
 10
3.5927713865
 20
3.8226637421
 30
0.0
 11
3.5927713865
 21
3.5301431231
 31
0.0
 11
3.6106450368
 21
3.567692944
 31
0.0
 11
3.6235278173
 21
3.6041925091
 31
0.0
 11
3.6314009367
 21
3.6403296916
 31
0.0
 11
3.6340614568
 21
3.6764160784
 31
0.0
 11
3.6313974144
 21
3.7125011426
 31
0.0
 11
3.6235219013
 21
3.7486349549
 31
0.0
 11
3.6106420211
 21
3.7851211646
 31
0.0
 11
3.5927713865
 21
3.8226637421
 31
0.0
  0
SPLINE
  5
47C
100
AcDbEntity
  8
0
100
AcDbSpline
 62
7
  6
CONTINUOUS
 70
0
 71
3
 72
15
 73
11
 74
9
 42
0.0000001
 43
0.0000001
 44
0.0000000001
 12
-0.1524995809
 22
0.5724822844
 32
0.0
 13
0.1524995809
 23
0.5724822844
 33
0.0
 40
0.0
 40
0.0
 40
0.0
 40
0.0
 40
0.1303027146
 40
0.2554233163
 40
0.3781382012
 40
0.500042666
 40
0.6219428883
 40
0.7446469008
 40
0.8697222521
 40
1.0
 40
1.0
 40
1.0
 40
1.0
 10
3.0688076836
 20
3.8710078137
 30
0.0
 10
3.0621839805
 20
3.8958731456
 30
0.0
 10
3.0504121887
 20
3.9449522702
 30
0.0
 10
3.0373119506
 20
4.0185178902
 30
0.0
 10
3.0293178711
 20
4.09115598
 30
0.0
 10
3.0266195614
 20
4.1635529103
 30
0.0
 10
3.0293214546
 20
4.2359475478
 30
0.0
 10
3.037317345
 20
4.3085734188
 30
0.0
 10
3.0504164632
 20
4.3821229168
 30
0.0
 10
3.0621852496
 20
4.431188484
 30
0.0
 10
3.0688076836
 20
4.4560490515
 30
0.0
 11
3.0688076836
 21
3.8710078137
 31
0.0
 11
3.0509340333
 21
3.9461074554
 31
0.0
 11
3.0380512527
 21
4.0191065856
 31
0.0
 11
3.0301781334
 21
4.0913809505
 31
0.0
 11
3.0275176132
 21
4.1635537241
 31
0.0
 11
3.0301816557
 21
4.2357238526
 31
0.0
 11
3.0380571688
 21
4.3079914773
 31
0.0
 11
3.0509370489
 21
4.3809638966
 31
0.0
 11
3.0688076836
 21
4.4560490515
 31
0.0
  0
SPLINE
  5
47D
100
AcDbEntity
  8
0
100
AcDbSpline
 62
7
  6
CONTINUOUS
 70
0
 71
3
 72
15
 73
11
 74
9
 42
0.0000001
 43
0.0000001
 44
0.0000000001
 12
0.1524995809
 22
0.5724822844
 32
0.0
 13
-0.1524995809
 23
0.5724822844
 33
0.0
 40
0.0
 40
0.0
 40
0.0
 40
0.0
 40
0.1303027146
 40
0.2554233163
 40
0.3781382012
 40
0.500042666
 40
0.6219428883
 40
0.7446469008
 40
0.8697222521
 40
1.0
 40
1.0
 40
1.0
 40
1.0
 10
3.5927713865
 20
3.8710078137
 30
0.0
 10
3.5993950896
 20
3.8958731456
 30
0.0
 10
3.6111668814
 20
3.9449522702
 30
0.0
 10
3.6242671194
 20
4.0185178902
 30
0.0
 10
3.632261199
 20
4.09115598
 30
0.0
 10
3.6349595087
 20
4.1635529103
 30
0.0
 10
3.6322576155
 20
4.2359475478
 30
0.0
 10
3.624261725
 20
4.3085734188
 30
0.0
 10
3.6111626069
 20
4.3821229168
 30
0.0
 10
3.5993938205
 20
4.431188484
 30
0.0
 10
3.5927713865
 20
4.4560490515
 30
0.0
 11
3.5927713865
 21
3.8710078137
 31
0.0
 11
3.6106450368
 21
3.9461074554
 31
0.0
 11
3.6235278173
 21
4.0191065856
 31
0.0
 11
3.6314009367
 21
4.0913809505
 31
0.0
 11
3.6340614568
 21
4.1635537241
 31
0.0
 11
3.6313974144
 21
4.2357238526
 31
0.0
 11
3.6235219013
 21
4.3079914773
 31
0.0
 11
3.6106420211
 21
4.3809638966
 31
0.0
 11
3.5927713865
 21
4.4560490515
 31
0.0
  0
SPLINE
  5
47E
100
AcDbEntity
  8
0
100
AcDbSpline
 62
7
  6
CONTINUOUS
 70
0
 71
3
 72
15
 73
11
 74
9
 42
0.0000001
 43
0.0000001
 44
0.0000000001
 12
-0.144303637
 22
0.2708573861
 32
0.0
 13
0.144303637
 23
0.2708573861
 33
0.0
 40
0.0
 40
0.0
 40
0.0
 40
0.0
 40
0.1355060615
 40
0.2616268072
 40
0.3821382325
 40
0.5000411188
 40
0.6179405518
 40
0.7384429083
 40
0.8645194725
 40
1.0
 40
1.0
 40
1.0
 40
1.0
 10
3.0688076836
 20
4.5043931231
 30
0.0
 10
3.0622896778
 20
4.5166273957
 30
0.0
 10
3.0506564128
 20
4.5407823765
 30
0.0
 10
3.0374484305
 20
4.5776648053
 30
0.0
 10
3.0293519605
 20
4.6141839418
 30
0.0
 10
3.0266095653
 20
4.6506657743
 30
0.0
 10
3.029355595
 20
4.687146379
 30
0.0
 10
3.0374538245
 20
4.7236591251
 30
0.0
 10
3.0506605658
 20
4.7605333308
 30
0.0
 10
3.062290906
 20
4.7846817749
 30
0.0
 10
3.0688076836
 20
4.7969137421
 30
0.0
 11
3.0688076836
 21
4.5043931231
 31
0.0
 11
3.0509340333
 21
4.541942944
 31
0.0
 11
3.0380512527
 21
4.5784425091
 31
0.0
 11
3.0301781334
 21
4.6145796916
 31
0.0
 11
3.0275176132
 21
4.6506660784
 31
0.0
 11
3.0301816557
 21
4.6867511426
 31
0.0
 11
3.0380571688
 21
4.7228849549
 31
0.0
 11
3.0509370489
 21
4.7593711646
 31
0.0
 11
3.0688076836
 21
4.7969137421
 31
0.0
  0
SPLINE
  5
47F
100
AcDbEntity
  8
0
100
AcDbSpline
 62
7
  6
CONTINUOUS
 70
0
 71
3
 72
15
 73
11
 74
9
 42
0.0000001
 43
0.0000001
 44
0.0000000001
 12
0.144303637
 22
0.2708573861
 32
0.0
 13
-0.144303637
 23
0.2708573861
 33
0.0
 40
0.0
 40
0.0
 40
0.0
 40
0.0
 40
0.1355060615
 40
0.2616268072
 40
0.3821382325
 40
0.5000411188
 40
0.6179405518
 40
0.7384429083
 40
0.8645194725
 40
1.0
 40
1.0
 40
1.0
 40
1.0
 10
3.5927713865
 20
4.5043931231
 30
0.0
 10
3.5992893923
 20
4.5166273957
 30
0.0
 10
3.6109226573
 20
4.5407823765
 30
0.0
 10
3.6241306396
 20
4.5776648053
 30
0.0
 10
3.6322271095
 20
4.6141839418
 30
0.0
 10
3.6349695048
 20
4.6506657743
 30
0.0
 10
3.632223475
 20
4.687146379
 30
0.0
 10
3.6241252455
 20
4.7236591251
 30
0.0
 10
3.6109185042
 20
4.7605333308
 30
0.0
 10
3.5992881641
 20
4.7846817749
 30
0.0
 10
3.5927713865
 20
4.7969137421
 30
0.0
 11
3.5927713865
 21
4.5043931231
 31
0.0
 11
3.6106450368
 21
4.541942944
 31
0.0
 11
3.6235278173
 21
4.5784425091
 31
0.0
 11
3.6314009367
 21
4.6145796916
 31
0.0
 11
3.6340614568
 21
4.6506660784
 31
0.0
 11
3.6313974144
 21
4.6867511426
 31
0.0
 11
3.6235219013
 21
4.7228849549
 31
0.0
 11
3.6106420211
 21
4.7593711646
 31
0.0
 11
3.5927713865
 21
4.7969137421
 31
0.0
  0
SPLINE
  5
480
100
AcDbEntity
  8
0
100
AcDbSpline
 62
7
  6
CONTINUOUS
 70
0
 71
3
 72
15
 73
11
 74
9
 42
0.0000001
 43
0.0000001
 44
0.0000000001
 12
-0.144303637
 22
0.2708573861
 32
0.0
 13
0.144303637
 23
0.2708573861
 33
0.0
 40
0.0
 40
0.0
 40
0.0
 40
0.0
 40
0.1355060615
 40
0.2616268072
 40
0.3821382325
 40
0.5000411188
 40
0.6179405518
 40
0.7384429083
 40
0.8645194725
 40
1.0
 40
1.0
 40
1.0
 40
1.0
 10
3.0688076836
 20
3.5301431231
 30
0.0
 10
3.0622896778
 20
3.5423773957
 30
0.0
 10
3.0506564128
 20
3.5665323765
 30
0.0
 10
3.0374484305
 20
3.6034148053
 30
0.0
 10
3.0293519605
 20
3.6399339418
 30
0.0
 10
3.0266095653
 20
3.6764157743
 30
0.0
 10
3.029355595
 20
3.712896379
 30
0.0
 10
3.0374538245
 20
3.7494091251
 30
0.0
 10
3.0506605658
 20
3.7862833308
 30
0.0
 10
3.062290906
 20
3.8104317749
 30
0.0
 10
3.0688076836
 20
3.8226637421
 30
0.0
 11
3.0688076836
 21
3.5301431231
 31
0.0
 11
3.0509340333
 21
3.567692944
 31
0.0
 11
3.0380512527
 21
3.6041925091
 31
0.0
 11
3.0301781334
 21
3.6403296916
 31
0.0
 11
3.0275176132
 21
3.6764160784
 31
0.0
 11
3.0301816557
 21
3.7125011426
 31
0.0
 11
3.0380571688
 21
3.7486349549
 31
0.0
 11
3.0509370489
 21
3.7851211646
 31
0.0
 11
3.0688076836
 21
3.8226637421
 31
0.0
  0
SPLINE
  5
481
100
AcDbEntity
  8
0
100
AcDbSpline
 62
7
  6
CONTINUOUS
 70
0
 71
3
 72
20
 73
16
 74
14
 42
0.0000001
 43
0.0000001
 44
0.0000000001
 12
0.1986700935
 22
0.0518381917
 32
0.0
 13
0.1986700922
 23
-0.0518381909
 33
0.0
 40
0.0
 40
0.0
 40
0.0
 40
0.0
 40
0.0143141408
 40
0.0579125199
 40
0.1269894416
 40
0.2163393744
 40
0.3239207744
 40
0.4407299912
 40
0.5582585095
 40
0.6753660814
 40
0.7830744699
 40
0.8724625413
 40
0.9418934442
 40
0.9856854752
 40
1.0
 40
1.0
 40
1.0
 40
1.0
 10
4.9026970123
 20
3.7745284326
 30
0.0
 10
4.9036449429
 20
3.7747757723
 30
0.0
 10
4.9074833155
 20
3.7757642361
 30
0.0
 10
4.9159280647
 20
3.7778218985
 30
0.0
 10
4.9294452832
 20
3.7807429783
 30
0.0
 10
4.9473810087
 20
3.7839018172
 30
0.0
 10
4.9686998644
 20
3.7865606281
 30
0.0
 10
4.9920684338
 20
3.7880648843
 30
0.0
 10
5.0161382422
 20
3.7880715657
 30
0.0
 10
5.0395366763
 20
3.7865763411
 30
0.0
 10
5.0608879579
 20
3.7839208377
 30
0.0
 10
5.0788595836
 20
3.780760915
 30
0.0
 10
5.092416536
 20
3.7778337263
 30
0.0
 10
5.1008978232
 20
3.7757675543
 30
0.0
 10
5.1047490563
 20
3.774775779
 30
0.0
 10
5.1056970123
 20
3.7745284326
 30
0.0
 11
4.9026970123
 21
3.7745284326
 31
0.0
 11
4.9055431724
 21
3.7752613465
 31
0.0
 11
4.9142406503
 21
3.7773796309
 31
0.0
 11
4.928104413
 21
3.7803720237
 31
0.0
 11
4.9461730327
 21
3.7835474696
 31
0.0
 11
4.9680931879
 21
3.7862722383
 31
0.0
 11
4.9920275848
 21
3.7878066672
 31
0.0
 11
5.0161588048
 21
3.7878133351
 31
0.0
 11
5.040155049
 21
3.7862861624
 31
0.0
 11
5.0621020026
 21
3.7835656214
 31
0.0
 11
5.080179232
 21
3.7803939292
 31
0.0
 11
5.094114571
 21
3.7773886686
 31
0.0
 11
5.1028507758
 21
3.7752613659
 31
0.0
 11
5.1056970123
 21
3.7745284326
 31
0.0
  0
SPLINE
  5
482
100
AcDbEntity
  8
0
100
AcDbSpline
 62
7
  6
CONTINUOUS
 70
0
 71
3
 72
20
 73
16
 74
14
 42
0.0000001
 43
0.0000001
 44
0.0000000001
 12
0.0
 22
0.3057743183
 32
0.0
 13
0.0
 23
-0.3057743183
 33
0.0
 40
0.0
 40
0.0
 40
0.0
 40
0.0
 40
0.0706224116
 40
0.1455826716
 40
0.2219820875
 40
0.2994595537
 40
0.3800134918
 40
0.4605023258
 40
0.5393621905
 40
0.6200326744
 40
0.7005958059
 40
0.7779646445
 40
0.854532315
 40
0.929550826
 40
1.0
 40
1.0
 40
1.0
 40
1.0
 10
4.9026970123
 20
3.9690284326
 30
0.0
 10
4.9026970123
 20
3.9762266058
 30
0.0
 10
4.9048294538
 20
3.9911246149
 30
0.0
 10
4.9137456851
 20
4.0121609885
 30
0.0
 10
4.927762506
 20
4.0310636199
 30
0.0
 10
4.9460795721
 20
4.0467149134
 30
0.0
 10
4.9678590864
 20
4.0580152154
 30
0.0
 10
4.9918370588
 20
4.0639030788
 30
0.0
 10
5.0165338002
 20
4.063908225
 30
0.0
 10
5.0405328088
 20
4.0580185343
 30
0.0
 10
5.0623181393
 20
4.0467109999
 30
0.0
 10
5.0806399605
 20
4.0310555348
 30
0.0
 10
5.0946630828
 20
4.0121411641
 30
0.0
 10
5.1035716228
 20
3.991094878
 30
0.0
 10
5.1056970123
 20
3.9762089486
 30
0.0
 10
5.1056970123
 20
3.9690284326
 30
0.0
 11
4.9026970123
 21
3.9690284326
 31
0.0
 11
4.905640165
 21
3.9904214486
 31
0.0
 11
4.9144706688
 21
4.0115730653
 31
0.0
 11
4.9283368355
 21
4.0303737242
 31
0.0
 11
4.9463397084
 21
4.0457731403
 31
0.0
 11
4.968213076
 21
4.0570982445
 31
0.0
 11
4.9921196484
 21
4.0629461253
 31
0.0
 11
5.0162329692
 21
4.0629510797
 31
0.0
 11
5.040194284
 21
4.0570932287
 31
0.0
 11
5.0620684567
 21
4.0457635661
 31
0.0
 11
5.0800460417
 21
4.030385686
 31
0.0
 11
5.0939409086
 21
4.0115422674
 31
0.0
 11
5.1027679816
 21
3.9903699198
 31
0.0
 11
5.1056970123
 21
3.9690284326
 31
0.0
  0
SPLINE
  5
483
100
AcDbEntity
  8
0
100
AcDbSpline
 62
7
  6
CONTINUOUS
 70
0
 71
3
 72
20
 73
16
 74
14
 42
0.0000001
 43
0.0000001
 44
0.0000000001
 12
0.0
 22
-0.3057743183
 32
0.0
 13
0.0
 23
0.3057743183
 33
0.0
 40
0.0
 40
0.0
 40
0.0
 40
0.0
 40
0.0706224116
 40
0.1455826716
 40
0.2219820875
 40
0.2994595537
 40
0.3800134918
 40
0.4605023258
 40
0.5393621905
 40
0.6200326744
 40
0.7005958059
 40
0.7779646445
 40
0.854532315
 40
0.929550826
 40
1.0
 40
1.0
 40
1.0
 40
1.0
 10
5.1056970123
 20
4.3580284326
 30
0.0
 10
5.1056970123
 20
4.3508302593
 30
0.0
 10
5.1035645709
 20
4.3359322503
 30
0.0
 10
5.0946483395
 20
4.3148958767
 30
0.0
 10
5.0806315186
 20
4.2959932453
 30
0.0
 10
5.0623144525
 20
4.2803419518
 30
0.0
 10
5.0405349382
 20
4.2690416498
 30
0.0
 10
5.0165569658
 20
4.2631537864
 30
0.0
 10
4.9918602244
 20
4.2631486401
 30
0.0
 10
4.9678612158
 20
4.2690383309
 30
0.0
 10
4.9460758854
 20
4.2803458653
 30
0.0
 10
4.9277540642
 20
4.2960013304
 30
0.0
 10
4.9137309418
 20
4.314915701
 30
0.0
 10
4.9048224019
 20
4.3359619872
 30
0.0
 10
4.9026970123
 20
4.3508479165
 30
0.0
 10
4.9026970123
 20
4.3580284326
 30
0.0
 11
5.1056970123
 21
4.3580284326
 31
0.0
 11
5.1027538596
 21
4.3366354165
 31
0.0
 11
5.0939233559
 21
4.3154837999
 31
0.0
 11
5.0800571891
 21
4.296683141
 31
0.0
 11
5.0620543163
 21
4.2812837249
 31
0.0
 11
5.0401809486
 21
4.2699586207
 31
0.0
 11
5.0162743763
 21
4.2641107398
 31
0.0
 11
4.9921610554
 21
4.2641057855
 31
0.0
 11
4.9681997406
 21
4.2699636365
 31
0.0
 11
4.9463255679
 21
4.2812932991
 31
0.0
 11
4.9283479829
 21
4.2966711792
 31
0.0
 11
4.914453116
 21
4.3155145978
 31
0.0
 11
4.9056260431
 21
4.3366869454
 31
0.0
 11
4.9026970123
 21
4.3580284326
 31
0.0
  0
SPLINE
  5
484
100
AcDbEntity
  8
0
100
AcDbSpline
 62
7
  6
CONTINUOUS
 70
0
 71
3
 72
20
 73
16
 74
14
 42
0.0000001
 43
0.0000001
 44
0.0000000001
 12
-0.1986700849
 22
-0.0518381891
 32
0.0
 13
-0.1986700837
 23
0.0518381883
 33
0.0
 40
0.0
 40
0.0
 40
0.0
 40
0.0
 40
0.0143013578
 40
0.0578657681
 40
0.126924595
 40
0.2162815147
 40
0.3238835067
 40
0.4407232412
 40
0.5582842136
 40
0.6754215955
 40
0.783148103
 40
0.872539252
 40
0.9419471343
 40
0.9857006532
 40
1.0
 40
1.0
 40
1.0
 40
1.0
 10
5.1056970123
 20
4.5525284326
 30
0.0
 10
5.1047499283
 20
4.5522813138
 30
0.0
 10
5.1009146575
 20
4.5512936371
 30
0.0
 10
5.0924742496
 20
4.5492369118
 30
0.0
 10
5.0789601266
 20
4.5463161268
 30
0.0
 10
5.0610238588
 20
4.5431566255
 30
0.0
 10
5.0397011192
 20
4.5404967888
 30
0.0
 10
5.0163268498
 20
4.5389918832
 30
0.0
 10
4.9922506788
 20
4.5389853253
 30
0.0
 10
4.9688467771
 20
4.5404814188
 30
0.0
 10
4.9474921174
 20
4.5431380774
 30
0.0
 10
4.9295207343
 20
4.546298653
 30
0.0
 10
4.9159677863
 20
4.5492254154
 30
0.0
 10
4.9074916341
 20
4.5512904766
 30
0.0
 10
4.9036439631
 20
4.5522813485
 30
0.0
 10
4.9026970123
 20
4.5525284326
 30
0.0
 11
5.1056970123
 21
4.5525284326
 31
0.0
 11
5.1028533962
 21
4.5517961651
 31
0.0
 11
5.0941627241
 21
4.5496794125
 31
0.0
 11
5.0803026732
 21
4.5466874357
 31
0.0
 11
5.0622327386
 21
4.5435111895
 31
0.0
 11
5.0403084564
 21
4.5407853562
 31
0.0
 11
5.0163678258
 21
4.5392502428
 31
0.0
 11
4.9922299434
 21
4.5392436981
 31
0.0
 11
4.9682276256
 21
4.5407717848
 31
0.0
 11
4.9462770727
 21
4.5434935223
 31
0.0
 11
4.9281993407
 21
4.5466660007
 31
0.0
 11
4.9142687161
 21
4.5496706971
 31
0.0
 11
4.9055402282
 21
4.5517962668
 31
0.0
 11
4.9026970123
 21
4.5525284326
 31
0.0
  0
SPLINE
  5
485
100
AcDbEntity
  8
0
100
AcDbSpline
 62
7
  6
CONTINUOUS
 70
0
 71
3
 72
14
 73
10
 74
8
 42
0.0000001
 43
0.0000001
 44
0.0000000001
 12
0.0395441018
 22
-0.1238445195
 32
0.0
 13
0.1296528594
 23
0.0
 33
0.0
 40
0.0
 40
0.0
 40
0.0
 40
0.0
 40
0.0533152445
 40
0.191782438
 40
0.3294222414
 40
0.4780785356
 40
0.6447244032
 40
0.8227713407
 40
1.0
 40
1.0
 40
1.0
 40
1.0
 10
5.715733986
 20
3.9996084264
 30
0.0
 10
5.7164367538
 20
3.9974074928
 30
0.0
 10
5.7193426404
 20
3.9896123308
 30
0.0
 10
5.7266609227
 20
3.9772225523
 30
0.0
 10
5.739629325
 20
3.9640076552
 30
0.0
 10
5.7561472392
 20
3.9532502307
 30
0.0
 10
5.7760344632
 20
3.9452358671
 30
0.0
 10
5.7981613466
 20
3.9404152969
 30
0.0
 10
5.8135376115
 20
3.9393614339
 30
0.0
 10
5.8211970123
 20
3.9393614339
 30
0.0
 11
5.715733986
 21
3.9996084264
 31
0.0
 11
5.7181571107
 21
3.9931183917
 31
0.0
 11
5.7272567328
 21
3.9776427608
 31
0.0
 11
5.7396858544
 21
3.9648374875
 31
0.0
 11
5.7557605116
 21
3.9542035121
 31
0.0
 11
5.7757428117
 21
3.9459857379
 31
0.0
 11
5.7982749851
 21
3.9409671906
 31
0.0
 11
5.8211970123
 21
3.9393614339
 31
0.0
  0
SPLINE
  5
486
100
AcDbEntity
  8
0
100
AcDbSpline
 62
7
  6
CONTINUOUS
 70
0
 71
3
 72
14
 73
10
 74
8
 42
0.0000001
 43
0.0000001
 44
0.0000000001
 12
-0.0000196701
 22
0.1652726057
 32
0.0
 13
-0.1647479679
 23
-0.0
 33
0.0
 40
0.0
 40
0.0
 40
0.0
 40
0.0
 40
0.0687348201
 40
0.2119920773
 40
0.3639847341
 40
0.5227581035
 40
0.683717673
 40
0.8429638722
 40
1.0
 40
1.0
 40
1.0
 40
1.0
 10
5.9301954016
 20
3.9762783171
 30
0.0
 10
5.9301949509
 20
3.9800649781
 30
0.0
 10
5.9293856694
 20
3.9917464105
 30
0.0
 10
5.92399539
 20
4.0112149089
 30
0.0
 10
5.9116480441
 20
4.0331425784
 30
0.0
 10
5.8939476167
 20
4.052370113
 30
0.0
 10
5.8719905727
 20
4.0672865375
 30
0.0
 10
5.8472608044
 20
4.0766564926
 30
0.0
 10
5.8298208066
 20
4.0787819279
 30
0.0
 10
5.8211970123
 20
4.0787819279
 30
0.0
 11
5.9301954016
 21
3.9762783171
 31
0.0
 11
5.9294252002
 21
3.9876039742
 31
0.0
 11
5.9232637876
 21
4.0103868699
 31
0.0
 11
5.9110647348
 21
4.032254856
 31
0.0
 11
5.8933737769
 21
4.0515226925
 31
0.0
 11
5.8714284471
 21
4.0664087329
 31
0.0
 11
5.8468798863
 21
4.0756644866
 31
0.0
 11
5.8211970123
 21
4.0787819279
 31
0.0
  0
SPLINE
  5
487
100
AcDbEntity
  8
0
100
AcDbSpline
 62
7
  6
CONTINUOUS
 70
0
 71
3
 72
20
 73
16
 74
14
 42
0.0000001
 43
0.0000001
 44
0.0000000001
 12
0.212306877
 22
0.0617930238
 32
0.0
 13
0.2123068759
 23
-0.0617930227
 33
0.0
 40
0.0
 40
0.0
 40
0.0
 40
0.0
 40
0.0143541957
 40
0.0581875705
 40
0.1275650918
 40
0.2169871033
 40
0.3244107105
 40
0.4409035534
 40
0.5580792199
 40
0.674860351
 40
0.7824233579
 40
0.871908088
 40
0.941627939
 40
0.9856437215
 40
1.0
 40
1.0
 40
1.0
 40
1.0
 10
5.6641970123
 20
3.7890284326
 30
0.0
 10
5.6652128438
 20
3.7893240956
 30
0.0
 10
5.6693348574
 20
3.7905084908
 30
0.0
 10
5.6784079112
 20
3.7929775567
 30
0.0
 10
5.6929280798
 20
3.7964877224
 30
0.0
 10
5.7121863279
 20
3.8002899058
 30
0.0
 10
5.735072729
 20
3.8034970835
 30
0.0
 10
5.7601687001
 20
3.8053155929
 30
0.0
 10
5.7860215296
 20
3.8053237471
 30
0.0
 10
5.8111500583
 20
3.8035162988
 30
0.0
 10
5.8340735555
 20
3.800312887
 30
0.0
 10
5.8533723677
 20
3.7965088411
 30
0.0
 10
5.8679353087
 20
3.7929911391
 30
0.0
 10
5.8770459499
 20
3.7905122869
 30
0.0
 10
5.8811810334
 20
3.7893241385
 30
0.0
 10
5.8821970123
 20
3.7890284326
 30
0.0
 11
5.6641970123
 21
3.7890284326
 31
0.0
 11
5.6672475577
 21
3.7899049096
 31
0.0
 11
5.6766001257
 21
3.7924486453
 31
0.0
 11
5.6915123902
 21
3.7960483277
 31
0.0
 11
5.7109126222
 21
3.7998684331
 31
0.0
 11
5.7344378709
 21
3.8031515174
 31
0.0
 11
5.7601297922
 21
3.8050036744
 31
0.0
 11
5.7860393718
 21
3.8050117995
 31
0.0
 11
5.8117958549
 21
3.8031687225
 31
0.0
 11
5.8353528918
 21
3.7998904212
 31
0.0
 11
5.8547679024
 21
3.7960735917
 31
0.0
 11
5.8697544178
 21
3.7924589209
 31
0.0
 11
5.8791460239
 21
3.7899050352
 31
0.0
 11
5.8821970123
 21
3.7890284326
 31
0.0
  0
SPLINE
  5
488
100
AcDbEntity
  8
0
100
AcDbSpline
 62
7
  6
CONTINUOUS
 70
0
 71
3
 72
14
 73
10
 74
8
 42
0.0000001
 43
0.0000001
 44
0.0000000001
 12
-0.1647480156
 22
0.0
 32
0.0
 13
-0.0000195826
 23
-0.1652726369
 33
0.0
 40
0.0
 40
0.0
 40
0.0
 40
0.0
 40
0.1570341932
 40
0.3162793558
 40
0.4772381196
 40
0.6360104926
 40
0.7880038519
 40
0.9312621631
 40
1.0
 40
1.0
 40
1.0
 40
1.0
 10
5.8211970123
 20
4.0787819279
 30
0.0
 10
5.8125733217
 20
4.0787819279
 30
0.0
 10
5.7951334846
 20
4.0766565383
 30
0.0
 10
5.7704038734
 20
4.0672867446
 30
0.0
 10
5.7484468841
 20
4.0523705091
 30
0.0
 10
5.7307463806
 20
4.033143122
 30
0.0
 10
5.7183988655
 20
4.01121549
 30
0.0
 10
5.7130083987
 20
3.9917467599
 30
0.0
 10
5.7121990717
 20
3.9800651
 30
0.0
 10
5.712198623
 20
3.9762782722
 30
0.0
 11
5.8211970123
 21
4.0787819279
 31
0.0
 11
5.7955144428
 21
4.0756645614
 31
0.0
 11
5.7709660016
 21
4.066408953
 31
0.0
 11
5.7490207045
 21
4.0515230871
 31
0.0
 11
5.7313297359
 21
4.0322554731
 31
0.0
 11
5.7191304783
 21
4.0103874604
 31
0.0
 11
5.7129688857
 21
3.9876044263
 31
0.0
 11
5.712198623
 21
3.9762782722
 31
0.0
  0
SPLINE
  5
489
100
AcDbEntity
  8
0
100
AcDbSpline
 62
7
  6
CONTINUOUS
 70
0
 71
3
 72
20
 73
16
 74
14
 42
0.0000001
 43
0.0000001
 44
0.0000000001
 12
0.0
 22
0.306201661
 32
0.0
 13
0.0
 23
-0.306201661
 33
0.0
 40
0.0
 40
0.0
 40
0.0
 40
0.0
 40
0.0706217446
 40
0.1456502255
 40
0.2221154492
 40
0.2996147579
 40
0.3801389576
 40
0.4605459265
 40
0.5393093631
 40
0.6199012808
 40
0.7004392223
 40
0.7778322591
 40
0.8544673457
 40
0.929553519
 40
1.0
 40
1.0
 40
1.0
 40
1.0
 10
6.5586970123
 20
3.9777784326
 30
0.0
 10
6.5586970123
 20
3.9849865978
 30
0.0
 10
6.5608358008
 20
3.999911556
 30
0.0
 10
6.5697559243
 20
4.0209937038
 30
0.0
 10
6.5837678711
 20
4.0399585299
 30
0.0
 10
6.6020742174
 20
4.0556818057
 30
0.0
 10
6.6238466938
 20
4.0670516126
 30
0.0
 10
6.6478299917
 20
4.0729841086
 30
0.0
 10
6.6725383209
 20
4.0729896548
 30
0.0
 10
6.696543643
 20
4.0670556472
 30
0.0
 10
6.7183229939
 20
4.0556783076
 30
0.0
 10
6.7366347803
 20
4.0399502772
 30
0.0
 10
6.7506531287
 20
4.0209733317
 30
0.0
 10
6.7595653912
 20
3.9998813096
 30
0.0
 10
6.7616970123
 20
3.9849687091
 30
0.0
 10
6.7616970123
 20
3.9777784326
 30
0.0
 11
6.5586970123
 21
3.9777784326
 31
0.0
 11
6.5616434336
 21
3.999201257
 31
0.0
 11
6.5704796509
 21
4.0204078324
 31
0.0
 11
6.5843456199
 21
4.0392742027
 31
0.0
 11
6.6023415434
 21
4.0547428623
 31
0.0
 11
6.6242096225
 21
4.066133086
 31
0.0
 11
6.6481161209
 21
4.0720204061
 31
0.0
 11
6.6722336154
 21
4.0720257422
 31
0.0
 11
6.6961960383
 21
4.066128681
 31
0.0
 11
6.7180662671
 21
4.0547334766
 31
0.0
 11
6.7360374736
 21
4.0392859822
 31
0.0
 11
6.7499323083
 21
4.0203762782
 31
0.0
 11
6.758764883
 21
3.9991490503
 31
0.0
 11
6.7616970123
 21
3.9777784326
 31
0.0
  0
SPLINE
  5
48A
100
AcDbEntity
  8
0
100
AcDbSpline
 62
7
  6
CONTINUOUS
 70
0
 71
3
 72
20
 73
16
 74
14
 42
0.0000001
 43
0.0000001
 44
0.0000000001
 12
0.0
 22
-0.306201661
 32
0.0
 13
0.0
 23
0.306201661
 33
0.0
 40
0.0
 40
0.0
 40
0.0
 40
0.0
 40
0.0706217446
 40
0.1456502255
 40
0.2221154492
 40
0.2996147579
 40
0.3801389576
 40
0.4605459265
 40
0.5393093631
 40
0.6199012808
 40
0.7004392223
 40
0.7778322591
 40
0.8544673457
 40
0.929553519
 40
1.0
 40
1.0
 40
1.0
 40
1.0
 10
6.7616970123
 20
4.3492784326
 30
0.0
 10
6.7616970123
 20
4.3420702674
 30
0.0
 10
6.7595582238
 20
4.3271453092
 30
0.0
 10
6.7506381003
 20
4.3060631614
 30
0.0
 10
6.7366261535
 20
4.2870983353
 30
0.0
 10
6.7183198072
 20
4.2713750595
 30
0.0
 10
6.6965473308
 20
4.2600052526
 30
0.0
 10
6.6725640329
 20
4.2540727566
 30
0.0
 10
6.6478557038
 20
4.2540672104
 30
0.0
 10
6.6238503816
 20
4.260001218
 30
0.0
 10
6.6020710308
 20
4.2713785576
 30
0.0
 10
6.5837592443
 20
4.287106588
 30
0.0
 10
6.5697408959
 20
4.3060835335
 30
0.0
 10
6.5608286334
 20
4.3271755556
 30
0.0
 10
6.5586970123
 20
4.3420881561
 30
0.0
 10
6.5586970123
 20
4.3492784326
 30
0.0
 11
6.7616970123
 21
4.3492784326
 31
0.0
 11
6.758750591
 21
4.3278556081
 31
0.0
 11
6.7499143738
 21
4.3066490328
 31
0.0
 11
6.7360484047
 21
4.2877826625
 31
0.0
 11
6.7180524812
 21
4.2723140029
 31
0.0
 11
6.6961844021
 21
4.2609237792
 31
0.0
 11
6.6722779037
 21
4.2550364591
 31
0.0
 11
6.6481604092
 21
4.255031123
 31
0.0
 11
6.6241979864
 21
4.2609281842
 31
0.0
 11
6.6023277575
 21
4.2723233886
 31
0.0
 11
6.584356551
 21
4.287770883
 31
0.0
 11
6.5704617163
 21
4.306680587
 31
0.0
 11
6.5616291416
 21
4.3279078149
 31
0.0
 11
6.5586970123
 21
4.3492784326
 31
0.0
  0
SPLINE
  5
48B
100
AcDbEntity
  8
0
100
AcDbSpline
 62
7
  6
CONTINUOUS
 70
0
 71
3
 72
20
 73
16
 74
14
 42
0.0000001
 43
0.0000001
 44
0.0000000001
 12
-0.1982827173
 22
-0.0541742525
 32
0.0
 13
-0.1982827163
 23
0.0541742516
 33
0.0
 40
0.0
 40
0.0
 40
0.0
 40
0.0
 40
0.0143186816
 40
0.0579657037
 40
0.1271250266
 40
0.2165121863
 40
0.3240584111
 40
0.4407774291
 40
0.558205042
 40
0.6752276991
 40
0.7829083067
 40
0.8723370747
 40
0.9418502756
 40
0.985685476
 40
1.0
 40
1.0
 40
1.0
 40
1.0
 10
6.7616970123
 20
4.5350284326
 30
0.0
 10
6.76075063
 20
4.5347698646
 30
0.0
 10
6.7569159659
 20
4.5337357185
 30
0.0
 10
6.7484758136
 20
4.5315811131
 30
0.0
 10
6.734961984
 20
4.5285192339
 30
0.0
 10
6.7170273885
 20
4.5252045045
 30
0.0
 10
6.6957065962
 20
4.5224113809
 30
0.0
 10
6.6723309506
 20
4.5208296168
 30
0.0
 10
6.6482515186
 20
4.5208225405
 30
0.0
 10
6.6248450244
 20
4.5223948283
 30
0.0
 10
6.6034906061
 20
4.5251846836
 30
0.0
 10
6.5855193279
 20
4.5285007979
 30
0.0
 10
6.5719659164
 20
4.5315691376
 30
0.0
 10
6.5634899566
 20
4.5337325069
 30
0.0
 10
6.5596431199
 20
4.5347699397
 30
0.0
 10
6.5586970123
 20
4.5350284326
 30
0.0
 11
6.7616970123
 21
4.5350284326
 31
0.0
 11
6.7588553098
 21
4.5342621101
 31
0.0
 11
6.7501621485
 21
4.5320440031
 31
0.0
 11
6.7362969292
 21
4.5289065892
 31
0.0
 11
6.7182279337
 21
4.5255748217
 31
0.0
 11
6.6963076686
 21
4.5227135931
 31
0.0
 11
6.6723702324
 21
4.5211010648
 31
0.0
 11
6.6482328932
 21
4.5210940072
 31
0.0
 11
6.6242323937
 21
4.5226989406
 31
0.0
 11
6.6022837269
 21
4.5255559849
 31
0.0
 11
6.584205354
 21
4.5288840568
 31
0.0
 11
6.570268625
 21
4.5320350334
 31
0.0
 11
6.561537889
 21
4.5342623299
 31
0.0
 11
6.5586970123
 21
4.5350284326
 31
0.0
  0
SPLINE
  5
48C
100
AcDbEntity
  8
0
100
AcDbSpline
 62
7
  6
CONTINUOUS
 70
0
 71
3
 72
14
 73
10
 74
8
 42
0.0000001
 43
0.0000001
 44
0.0000000001
 12
0.1296646991
 22
0.0
 32
0.0
 13
0.0395286304
 23
0.1238658296
 33
0.0
 40
0.0
 40
0.0
 40
0.0
 40
0.0
 40
0.1775323593
 40
0.354384046
 40
0.519540473
 40
0.6681667661
 40
0.8065435841
 40
0.9457596242
 40
1.0
 40
1.0
 40
1.0
 40
1.0
 10
5.8211970123
 20
3.9393614339
 30
0.0
 10
5.828870239
 20
3.9393614339
 30
0.0
 10
5.8442095421
 20
3.9404145853
 30
0.0
 10
5.8662372362
 20
3.9452091315
 30
0.0
 10
5.8860272687
 20
3.9531465109
 30
0.0
 10
5.9025517329
 20
3.9638326278
 30
0.0
 10
5.9156105572
 20
3.9770514957
 30
0.0
 10
5.9230120423
 20
3.9895178429
 30
0.0
 10
5.9259489415
 20
3.997380348
 30
0.0
 10
5.9266636241
 20
3.9996198577
 30
0.0
 11
5.8211970123
 21
3.9393614339
 31
0.0
 11
5.8441602078
 21
3.9409730543
 31
0.0
 11
5.8665444527
 21
3.9459525762
 31
0.0
 11
5.8863645672
 21
3.9540620462
 31
0.0
 11
5.9024716705
 21
3.9646429325
 31
0.0
 11
5.9150099769
 21
3.977477548
 31
0.0
 11
5.9241937404
 21
3.9930181961
 31
0.0
 11
5.9266636241
 21
3.9996198577
 31
0.0
  0
SPLINE
  5
48D
100
AcDbEntity
  8
0
100
AcDbSpline
 62
7
  6
CONTINUOUS
 70
0
 71
3
 72
18
 73
14
 74
12
 42
0.0000001
 43
0.0000001
 44
0.0000000001
 12
-0.0775097791
 22
0.2497431899
 32
0.0
 13
-0.0776420686
 23
-0.2497174467
 33
0.0
 40
0.0
 40
0.0
 40
0.0
 40
0.0
 40
0.0795068666
 40
0.1668356952
 40
0.2564649878
 40
0.3522451104
 40
0.450804718
 40
0.5482497893
 40
0.6464157947
 40
0.741991319
 40
0.8316595219
 40
0.9192512063
 40
1.0
 40
1.0
 40
1.0
 40
1.0
 10
5.8788586613
 20
4.3268205855
 30
0.0
 10
5.8768044747
 20
4.3334393517
 30
0.0
 10
5.8704737384
 20
4.3467046715
 30
0.0
 10
5.8550967171
 20
4.3632570399
 30
0.0
 10
5.8347425552
 20
4.3757844195
 30
0.0
 10
5.8113031075
 20
4.3839074612
 30
0.0
 10
5.7861711315
 20
4.3878484325
 30
0.0
 10
5.7605430982
 20
4.3878700691
 30
0.0
 10
5.7354557319
 20
4.3839905917
 30
0.0
 10
5.7120383801
 20
4.3759596542
 30
0.0
 10
5.6916227912
 20
4.3635207182
 30
0.0
 10
5.6760662366
 20
4.3469500501
 30
0.0
 10
5.6696364504
 20
4.3335787776
 30
0.0
 10
5.667546616
 20
4.3268573167
 30
0.0
 11
5.8788586613
 21
4.3268205855
 31
0.0
 11
5.8699365369
 21
4.3455154985
 31
0.0
 11
5.8546023599
 21
4.362306597
 31
0.0
 11
5.834858716
 21
4.3747511787
 31
0.0
 11
5.8113630841
 21
4.3831152052
 31
0.0
 11
5.7860261832
 21
4.3871977521
 31
0.0
 11
5.7606526996
 21
4.387219708
 31
0.0
 11
5.7354080493
 21
4.3832093006
 31
0.0
 11
5.7119348914
 21
4.3749414103
 31
0.0
 11
5.6921266081
 21
4.3625808269
 31
0.0
 11
5.6766608587
 21
4.345817593
 31
0.0
 11
5.667546616
 21
4.3268573167
 31
0.0
  0
SPLINE
  5
48E
100
AcDbEntity
  8
0
100
AcDbSpline
 62
7
  6
CONTINUOUS
 70
0
 71
3
 72
10
 73
6
 74
4
 42
0.0000001
 43
0.0000001
 44
0.0000000001
 12
-0.0140544327
 22
0.0434675391
 32
0.0
 13
-0.0369383355
 23
0.0267327003
 33
0.0
 40
0.0
 40
0.0
 40
0.0
 40
0.0
 40
0.406783577
 40
0.8787799783
 40
1.0
 40
1.0
 40
1.0
 40
1.0
 10
6.7583248073
 20
4.3261442067
 30
0.0
 10
6.7564191032
 20
4.332038167
 30
0.0
 10
6.7505483082
 20
4.344206037
 30
0.0
 10
6.7401216351
 20
4.3555253003
 30
0.0
 10
6.732988043
 20
4.3610487015
 30
0.0
 10
6.7314954878
 20
4.362128881
 30
0.0
 11
6.7583248073
 21
4.3261442067
 31
0.0
 11
6.7502785944
 21
4.3428272383
 31
0.0
 11
6.7358638535
 21
4.35874161
 31
0.0
 11
6.7314954878
 21
4.362128881
 31
0.0
  0
SPLINE
  5
48F
100
AcDbEntity
  8
0
100
AcDbSpline
 62
7
  6
CONTINUOUS
 70
0
 71
3
 72
11
 73
7
 74
5
 42
0.0000001
 43
0.0000001
 44
0.0000000001
 12
-0.054617469
 22
0.0395272935
 32
0.0
 13
-0.0672400379
 23
0.0035953971
 33
0.0
 40
0.0
 40
0.0
 40
0.0
 40
0.0
 40
0.2425103932
 40
0.5881465985
 40
0.9430673627
 40
1.0
 40
1.0
 40
1.0
 40
1.0
 10
6.7314954878
 20
4.362128881
 30
0.0
 10
6.7270803865
 20
4.3653241408
 30
0.0
 10
6.7156331061
 20
4.3720443378
 30
0.0
 10
6.6955607302
 20
4.3791243167
 30
0.0
 10
6.6787115932
 20
4.3818193587
 30
0.0
 10
6.6694865656
 20
4.3824309609
 30
0.0
 10
6.6682105147
 20
4.3824991927
 30
0.0
 11
6.7314954878
 21
4.362128881
 31
0.0
 11
6.7174582036
 21
4.3704741725
 31
0.0
 11
6.6955947649
 21
4.3783811087
 31
0.0
 11
6.6720357895
 21
4.3822455573
 31
0.0
 11
6.6682105147
 21
4.3824991927
 31
0.0
  0
SPLINE
  5
490
100
AcDbEntity
  8
0
100
AcDbSpline
 62
7
  6
CONTINUOUS
 70
0
 71
3
 72
10
 73
6
 74
4
 42
0.0000001
 43
0.0000001
 44
0.0000000001
 12
-0.0528403107
 22
0.0028254282
 32
0.0
 13
-0.0501981227
 23
-0.0168450872
 33
0.0
 40
0.0
 40
0.0
 40
0.0
 40
0.0
 40
0.3738341696
 40
0.823757863
 40
1.0
 40
1.0
 40
1.0
 40
1.0
 10
6.6682105147
 20
4.3824991927
 30
0.0
 10
6.6616260102
 20
4.3828512732
 30
0.0
 10
6.6470682597
 20
4.382669972
 30
0.0
 10
6.6295866024
 20
4.379889972
 30
0.0
 10
6.6189695706
 20
4.376785743
 30
0.0
 10
6.6160205625
 20
4.3757961383
 30
0.0
 11
6.6682105147
 21
4.3824991927
 31
0.0
 11
6.6484452957
 21
4.3822524254
 31
0.0
 11
6.6249722553
 21
4.3784251735
 31
0.0
 11
6.6160205625
 21
4.3757961383
 31
0.0
  0
SPLINE
  5
491
100
AcDbEntity
  8
0
100
AcDbSpline
 62
7
  6
CONTINUOUS
 70
0
 71
3
 72
9
 73
5
 74
3
 42
0.0000001
 43
0.0000001
 44
0.0000000001
 12
-0.0254953012
 22
-0.0085555106
 32
0.0
 13
-0.0224296267
 23
-0.0148650594
 33
0.0
 40
0.0
 40
0.0
 40
0.0
 40
0.0
 40
0.5161411616
 40
1.0
 40
1.0
 40
1.0
 40
1.0
 10
6.6160205625
 20
4.3757961383
 30
0.0
 10
6.611634171
 20
4.3743241879
 30
0.0
 10
6.6033041382
 20
4.3709756368
 30
0.0
 10
6.5954633405
 20
4.3665675841
 30
0.0
 10
6.5918457495
 20
4.364170054
 30
0.0
 11
6.6160205625
 21
4.3757961383
 31
0.0
 11
6.6031655584
 21
4.3705852848
 31
0.0
 11
6.5918457495
 21
4.364170054
 31
0.0
  0
SPLINE
  5
492
100
AcDbEntity
  8
0
100
AcDbSpline
 62
7
  6
CONTINUOUS
 70
0
 71
3
 72
10
 73
6
 74
4
 42
0.0000001
 43
0.0000001
 44
0.0000000001
 12
-0.0409586719
 22
-0.027145039
 32
0.0
 13
-0.0151757809
 23
-0.0468367924
 33
0.0
 40
0.0
 40
0.0
 40
0.0
 40
0.0
 40
0.1794842756
 40
0.616173087
 40
1.0
 40
1.0
 40
1.0
 40
1.0
 10
6.5918457495
 20
4.364170054
 30
0.0
 10
6.5893952703
 20
4.3625460181
 30
0.0
 10
6.5812603551
 20
4.3565537827
 30
0.0
 10
6.5699716988
 20
4.3444074466
 30
0.0
 10
6.5640240869
 20
4.3321783352
 30
0.0
 10
6.5620824625
 20
4.3261859281
 30
0.0
 11
6.5918457495
 21
4.364170054
 31
0.0
 11
6.5847561018
 21
4.3589284811
 31
0.0
 11
6.5703139076
 21
4.3431244149
 31
0.0
 11
6.5620824625
 21
4.3261859281
 31
0.0
  0
SPLINE
  5
493
100
AcDbEntity
  8
0
100
AcDbSpline
 62
7
  6
CONTINUOUS
 70
0
 71
3
 72
10
 73
6
 74
4
 42
0.0000001
 43
0.0000001
 44
0.0000000001
 12
0.0152056905
 22
-0.0467472165
 32
0.0
 13
0.0408970374
 23
-0.0270994693
 33
0.0
 40
0.0
 40
0.0
 40
0.0
 40
0.0
 40
0.3874166829
 40
0.8089221582
 40
1.0
 40
1.0
 40
1.0
 40
1.0
 10
6.5621100416
 20
4.0007836699
 30
0.0
 10
6.5640736877
 20
3.994746786
 30
0.0
 10
6.5699605616
 20
3.9827273107
 30
0.0
 10
6.581188151
 20
3.9705825078
 30
0.0
 10
6.5892460441
 20
3.9646099534
 30
0.0
 10
6.5918508833
 20
3.9628839173
 30
0.0
 11
6.5621100416
 21
4.0007836699
 31
0.0
 11
6.5704454163
 21
3.9837373613
 31
0.0
 11
6.5843339994
 21
3.9684786346
 31
0.0
 11
6.5918508833
 21
3.9628839173
 31
0.0
  0
SPLINE
  5
494
100
AcDbEntity
  8
0
100
AcDbSpline
 62
7
  6
CONTINUOUS
 70
0
 71
3
 72
9
 73
5
 74
3
 42
0.0000001
 43
0.0000001
 44
0.0000000001
 12
0.0224300256
 22
-0.0148627341
 32
0.0
 13
0.0254980605
 23
-0.0085544504
 33
0.0
 40
0.0
 40
0.0
 40
0.0
 40
0.0
 40
0.4465019857
 40
1.0
 40
1.0
 40
1.0
 40
1.0
 10
6.5918508833
 20
3.9628839173
 30
0.0
 10
6.5951892337
 20
3.9606718372
 30
0.0
 10
6.6030021665
 20
3.9562213041
 30
0.0
 10
6.6113210812
 20
3.9528375037
 30
0.0
 10
6.6160254565
 20
3.9512592133
 30
0.0
 11
6.5918508833
 21
3.9628839173
 31
0.0
 11
6.6022670883
 21
3.9569101616
 31
0.0
 11
6.6160254565
 21
3.9512592133
 31
0.0
  0
SPLINE
  5
495
100
AcDbEntity
  8
0
100
AcDbSpline
 62
7
  6
CONTINUOUS
 70
0
 71
3
 72
10
 73
6
 74
4
 42
0.0000001
 43
0.0000001
 44
0.0000000001
 12
0.0501967212
 22
-0.0168407068
 32
0.0
 13
0.0528336449
 23
0.002824876
 33
0.0
 40
0.0
 40
0.0
 40
0.0
 40
0.0
 40
0.1588180646
 40
0.6160840044
 40
1.0
 40
1.0
 40
1.0
 40
1.0
 10
6.6160254565
 20
3.9512592133
 30
0.0
 10
6.6186828385
 20
3.9503676771
 30
0.0
 10
6.6291149246
 20
3.9472739426
 30
0.0
 10
6.6465834453
 20
3.9444070228
 30
0.0
 10
6.6614486281
 20
3.9441961533
 30
0.0
 10
6.6682098552
 20
3.9445576584
 30
0.0
 11
6.6160254565
 21
3.9512592133
 31
0.0
 11
6.624083267
 21
3.9488608474
 31
0.0
 11
6.6479152846
 21
3.9448470512
 31
0.0
 11
6.6682098552
 21
3.9445576584
 31
0.0
  0
SPLINE
  5
496
100
AcDbEntity
  8
0
100
AcDbSpline
 62
7
  6
CONTINUOUS
 70
0
 71
3
 72
11
 73
7
 74
5
 42
0.0000001
 43
0.0000001
 44
0.0000000001
 12
0.067222104
 22
0.003594189
 32
0.0
 13
0.0546101116
 23
0.0395043158
 33
0.0
 40
0.0
 40
0.0
 40
0.0
 40
0.0
 40
0.0527530227
 40
0.4074129686
 40
0.7517183961
 40
1.0
 40
1.0
 40
1.0
 40
1.0
 10
6.6682098552
 20
3.9445576584
 30
0.0
 10
6.6693919116
 20
3.9446208598
 30
0.0
 10
6.6785154751
 20
3.9452170194
 30
0.0
 10
6.6952365461
 20
3.9478563329
 30
0.0
 10
6.715411008
 20
3.9549051805
 30
0.0
 10
6.7269592135
 20
3.9616465239
 30
0.0
 10
6.7314787756
 20
3.9649159222
 30
0.0
 11
6.6682098552
 21
3.9445576584
 31
0.0
 11
6.6717535777
 21
3.9447892322
 31
0.0
 11
6.6952966665
 21
3.9485999843
 31
0.0
 11
6.7170939918
 21
3.9564068678
 31
0.0
 11
6.7314787756
 21
3.9649159222
 31
0.0
  0
SPLINE
  5
497
100
AcDbEntity
  8
0
100
AcDbSpline
 62
7
  6
CONTINUOUS
 70
0
 71
3
 72
10
 73
6
 74
4
 42
0.0000001
 43
0.0000001
 44
0.0000000001
 12
0.0369247721
 22
0.0267109481
 32
0.0
 13
0.0140750524
 23
0.0434392255
 33
0.0
 40
0.0
 40
0.0
 40
0.0
 40
0.0
 40
0.1122076512
 40
0.5844975461
 40
1.0
 40
1.0
 40
1.0
 40
1.0
 10
6.7314787756
 20
3.9649159222
 30
0.0
 10
6.7328598562
 20
3.9659149797
 30
0.0
 10
6.7398988875
 20
3.9713355541
 30
0.0
 10
6.7503863868
 20
3.9825853112
 30
0.0
 10
6.7563623249
 20
3.9948551613
 30
0.0
 10
6.7583117312
 20
4.0008715295
 30
0.0
 11
6.7314787756
 21
3.9649159222
 31
0.0
 11
6.7355289577
 21
3.9680387473
 31
0.0
 11
6.7500381837
 21
3.9838700878
 31
0.0
 11
6.7583117312
 21
4.0008715295
 31
0.0
  0
SPLINE
  5
498
100
AcDbEntity
  8
0
100
AcDbSpline
 62
7
  6
CONTINUOUS
 70
0
 71
3
 72
20
 73
16
 74
14
 42
0.0000001
 43
0.0000001
 44
0.0000000001
 12
0.0
 22
-0.3294986881
 32
0.0
 13
0.0
 23
0.3294986881
 33
0.0
 40
0.0
 40
0.0
 40
0.0
 40
0.0
 40
0.0705918907
 40
0.1457267384
 40
0.2223113476
 40
0.2998320548
 40
0.3803086323
 40
0.460607904
 40
0.5392423646
 40
0.6197152278
 40
0.7002070953
 40
0.7776369856
 40
0.8543783994
 40
0.929561134
 40
1.0
 40
1.0
 40
1.0
 40
1.0
 10
5.8821970123
 20
4.3507784326
 30
0.0
 10
5.8821970123
 20
4.3430251208
 30
0.0
 10
5.8798915328
 20
4.3269574649
 30
0.0
 10
5.8703077471
 20
4.3042446436
 30
0.0
 10
5.8552669336
 20
4.2837788377
 30
0.0
 10
5.835624242
 20
4.2667804073
 30
0.0
 10
5.8122551587
 20
4.2544607404
 30
0.0
 10
5.7864895764
 20
4.2480182241
 30
0.0
 10
5.7599350484
 20
4.2480119805
 30
0.0
 10
5.7341466601
 20
4.2544550383
 30
0.0
 10
5.7107690901
 20
4.2667820665
 30
0.0
 10
5.6911197935
 20
4.2837855823
 30
0.0
 10
5.6760723237
 20
4.3042634502
 30
0.0
 10
5.6664957136
 20
4.3269861452
 30
0.0
 10
5.6641970123
 20
4.343041928
 30
0.0
 10
5.6641970123
 20
4.3507784326
 30
0.0
 11
5.8821970123
 21
4.3507784326
 31
0.0
 11
5.8790302347
 21
4.3277350797
 31
0.0
 11
5.869532987
 21
4.3048723786
 31
0.0
 11
5.854638585
 21
4.2845023465
 31
0.0
 11
5.8353266183
 21
4.2677843524
 31
0.0
 11
5.8118529186
 21
4.2554501389
 31
0.0
 11
5.7861766441
 21
4.2490641075
 31
0.0
 11
5.7602666932
 21
4.2490581046
 31
0.0
 11
5.7345336775
 21
4.2554529777
 31
0.0
 11
5.7110566676
 21
4.2677917223
 31
0.0
 11
5.6917670255
 21
4.2844897847
 31
0.0
 11
5.6768438335
 21
4.3049027709
 31
0.0
 11
5.6673503852
 21
4.3277841338
 31
0.0
 11
5.6641970123
 21
4.3507784326
 31
0.0
  0
SPLINE
  5
499
100
AcDbEntity
  8
0
100
AcDbSpline
 62
7
  6
CONTINUOUS
 70
0
 71
3
 72
10
 73
6
 74
4
 42
0.0000001
 43
0.0000001
 44
0.0000000001
 12
-0.0161536164
 22
0.0403411384
 32
0.0
 13
-0.0358226824
 23
0.0244483036
 33
0.0
 40
0.0
 40
0.0
 40
0.0
 40
0.0
 40
0.3213543145
 40
0.8175695907
 40
1.0
 40
1.0
 40
1.0
 40
1.0
 10
5.1007548614
 20
4.3304876048
 30
0.0
 10
5.0990245166
 20
4.3348088711
 30
0.0
 10
5.0934940291
 20
4.3453505692
 30
0.0
 10
5.0835762526
 20
4.3561173711
 30
0.0
 10
5.0757226705
 20
4.3620134835
 30
0.0
 10
5.0735442883
 20
4.3635001881
 30
0.0
 11
5.1007548614
 21
4.3304876048
 31
0.0
 11
5.0942785944
 21
4.3428272383
 31
0.0
 11
5.0798638535
 21
4.35874161
 31
0.0
 11
5.0735442883
 21
4.3635001881
 31
0.0
  0
SPLINE
  5
49A
100
AcDbEntity
  8
0
100
AcDbSpline
 62
7
  6
CONTINUOUS
 70
0
 71
3
 72
9
 73
5
 74
3
 42
0.0000001
 43
0.0000001
 44
0.0000000001
 12
-0.0223337654
 22
0.0152423727
 32
0.0
 13
-0.0255404178
 23
0.0088285896
 33
0.0
 40
0.0
 40
0.0
 40
0.0
 40
0.0
 40
0.516458407
 40
1.0
 40
1.0
 40
1.0
 40
1.0
 10
5.0735442883
 20
4.3635001881
 30
0.0
 10
5.069699468
 20
4.3661242053
 30
0.0
 10
5.06184943
 20
4.3706123025
 30
0.0
 10
5.0535014035
 20
4.3740286617
 30
0.0
 10
5.0493847854
 20
4.3754516584
 30
0.0
 11
5.0735442883
 21
4.3635001881
 31
0.0
 11
5.0614582036
 21
4.3704741725
 31
0.0
 11
5.0493847854
 21
4.3754516584
 31
0.0
  0
SPLINE
  5
49B
100
AcDbEntity
  8
0
100
AcDbSpline
 62
7
  6
CONTINUOUS
 70
0
 71
3
 72
10
 73
6
 74
4
 42
0.0000001
 43
0.0000001
 44
0.0000000001
 12
-0.0501063399
 22
0.017320324
 32
0.0
 13
-0.0529233637
 23
-0.0024758136
 33
0.0
 40
0.0
 40
0.0
 40
0.0
 40
0.0
 40
0.1928020141
 40
0.6438768194
 40
1.0
 40
1.0
 40
1.0
 40
1.0
 10
5.0493847854
 20
4.3754516584
 30
0.0
 10
5.0461645844
 20
4.3765647896
 30
0.0
 10
5.0352470001
 20
4.3798143036
 30
0.0
 10
5.0177451555
 20
4.382613747
 30
0.0
 10
5.0034654723
 20
4.3828431849
 30
0.0
 10
4.9971830601
 20
4.3825492867
 30
0.0
 11
5.0493847854
 21
4.3754516584
 31
0.0
 11
5.0395947649
 21
4.3783811087
 31
0.0
 11
5.0160357895
 21
4.3822455573
 31
0.0
 11
4.9971830601
 21
4.3825492867
 31
0.0
  0
SPLINE
  5
49C
100
AcDbEntity
  8
0
100
AcDbSpline
 62
7
  6
CONTINUOUS
 70
0
 71
3
 72
11
 73
7
 74
5
 42
0.0000001
 43
0.0000001
 44
0.0000000001
 12
-0.0670613278
 22
-0.0031372032
 32
0.0
 13
-0.0549989857
 23
-0.0386418745
 33
0.0
 40
0.0
 40
0.0
 40
0.0
 40
0.0
 40
0.0707091715
 40
0.4253336661
 40
0.7708649879
 40
1.0
 40
1.0
 40
1.0
 40
1.0
 10
4.9971830601
 20
4.3825492867
 30
0.0
 10
4.9956024431
 20
4.3824753437
 30
0.0
 10
4.9861013165
 20
4.3818801097
 30
0.0
 10
4.9690038777
 20
4.3791612095
 30
0.0
 10
4.9492724803
 20
4.3722413679
 30
0.0
 10
4.9380789293
 20
4.365778817
 30
0.0
 10
4.9338781982
 20
4.3628274148
 30
0.0
 11
4.9971830601
 21
4.3825492867
 31
0.0
 11
4.9924452957
 21
4.3822524254
 31
0.0
 11
4.9689722553
 21
4.3784251735
 31
0.0
 11
4.9471655584
 21
4.3705852848
 31
0.0
 11
4.9338781982
 21
4.3628274148
 31
0.0
  0
SPLINE
  5
49D
100
AcDbEntity
  8
0
100
AcDbSpline
 62
7
  6
CONTINUOUS
 70
0
 71
3
 72
10
 73
6
 74
4
 42
0.0000001
 43
0.0000001
 44
0.0000000001
 12
-0.0345058517
 22
-0.0242435524
 32
0.0
 13
-0.015719506
 23
-0.0392228919
 33
0.0
 40
0.0
 40
0.0
 40
0.0
 40
0.0
 40
0.1526432548
 40
0.6614587756
 40
1.0
 40
1.0
 40
1.0
 40
1.0
 10
4.9338781982
 20
4.3628274148
 30
0.0
 10
4.932122503
 20
4.3615938766
 30
0.0
 10
4.9247130942
 20
4.3559649425
 30
0.0
 10
4.9150246517
 20
4.3455403998
 30
0.0
 10
4.9094191608
 20
4.3349294761
 30
0.0
 10
4.9076452606
 20
4.3305032874
 30
0.0
 11
4.9338781982
 21
4.3628274148
 31
0.0
 11
4.9287561018
 21
4.3589284811
 31
0.0
 11
4.9143139076
 21
4.3431244149
 31
0.0
 11
4.9076452606
 21
4.3305032874
 31
0.0
  0
SPLINE
  5
49E
100
AcDbEntity
  8
0
100
AcDbSpline
 62
7
  6
CONTINUOUS
 70
0
 71
3
 72
10
 73
6
 74
4
 42
0.0000001
 43
0.0000001
 44
0.0000000001
 12
0.015729733
 22
-0.0391512999
 32
0.0
 13
0.0344565753
 23
-0.0242111047
 33
0.0
 40
0.0
 40
0.0
 40
0.0
 40
0.0
 40
0.3432674149
 40
0.8342919525
 40
1.0
 40
1.0
 40
1.0
 40
1.0
 10
4.9076658078
 20
3.9964991901
 30
0.0
 10
4.9094656427
 20
3.9920194016
 30
0.0
 10
4.9150019085
 20
3.9816008932
 30
0.0
 10
4.9246399003
 20
3.9711755468
 30
0.0
 10
4.9319689094
 20
3.9655714528
 30
0.0
 10
4.9338721533
 20
3.9642341278
 30
0.0
 11
4.9076658078
 21
3.9964991901
 31
0.0
 11
4.9144454163
 21
3.9837373613
 31
0.0
 11
4.9283339994
 21
3.9684786346
 31
0.0
 11
4.9338721533
 21
3.9642341278
 31
0.0
  0
SPLINE
  5
49F
100
AcDbEntity
  8
0
100
AcDbSpline
 62
7
  6
CONTINUOUS
 70
0
 71
3
 72
11
 73
7
 74
5
 42
0.0000001
 43
0.0000001
 44
0.0000000001
 12
0.0549978678
 22
-0.0386445583
 32
0.0
 13
0.067068341
 23
-0.003138534
 33
0.0
 40
0.0
 40
0.0
 40
0.0
 40
0.0
 40
0.2143643853
 40
0.5610691084
 40
0.9213997625
 40
1.0
 40
1.0
 40
1.0
 40
1.0
 10
4.9338721533
 20
3.9642341278
 30
0.0
 10
4.9378020147
 20
3.9614727888
 30
0.0
 10
4.9486901849
 20
3.9551013917
 30
0.0
 10
4.9682035394
 20
3.9480799952
 30
0.0
 10
4.9856193999
 20
3.945221718
 30
0.0
 10
4.9954245289
 20
3.9445897843
 30
0.0
 10
4.9971817247
 20
3.9445075545
 30
0.0
 11
4.9338721533
 21
3.9642341278
 31
0.0
 11
4.9462670883
 21
3.9569101616
 31
0.0
 11
4.968083267
 21
3.9488608474
 31
0.0
 11
4.9919152846
 21
3.9448470512
 31
0.0
 11
4.9971817247
 21
3.9445075545
 31
0.0
  0
SPLINE
  5
4A0
100
AcDbEntity
  8
0
100
AcDbSpline
 62
7
  6
CONTINUOUS
 70
0
 71
3
 72
10
 73
6
 74
4
 42
0.0000001
 43
0.0000001
 44
0.0000000001
 12
0.0529250438
 22
-0.0024766834
 32
0.0
 13
0.0501047978
 23
0.0173200908
 33
0.0
 40
0.0
 40
0.0
 40
0.0
 40
0.0
 40
0.3507963141
 40
0.8014079125
 40
1.0
 40
1.0
 40
1.0
 40
1.0
 10
4.9971817247
 20
3.9445075545
 30
0.0
 10
5.0033703615
 20
3.9442179507
 30
0.0
 10
5.0175474131
 20
3.9444328427
 30
0.0
 10
5.0350546936
 20
3.9471962544
 30
0.0
 10
5.0460671994
 20
3.9504583814
 30
0.0
 10
5.0493840048
 20
3.9516049258
 30
0.0
 11
4.9971817247
 21
3.9445075545
 31
0.0
 11
5.0157535777
 21
3.9447892322
 31
0.0
 11
5.0392966665
 21
3.9485999843
 31
0.0
 11
5.0493840048
 21
3.9516049258
 31
0.0
  0
SPLINE
  5
4A1
100
AcDbEntity
  8
0
100
AcDbSpline
 62
7
  6
CONTINUOUS
 70
0
 71
3
 72
9
 73
5
 74
3
 42
0.0000001
 43
0.0000001
 44
0.0000000001
 12
0.0255289043
 22
0.0088247625
 32
0.0
 13
0.0223257686
 23
0.0152329514
 33
0.0
 40
0.0
 40
0.0
 40
0.0
 40
0.0
 40
0.4688103131
 40
1.0
 40
1.0
 40
1.0
 40
1.0
 10
5.0493840048
 20
3.9516049258
 30
0.0
 10
5.0533734094
 20
3.9529839723
 30
0.0
 10
5.0617227896
 20
3.9563842951
 30
0.0
 10
5.0695809187
 20
3.9608524104
 30
0.0
 10
5.0735339914
 20
3.963549606
 30
0.0
 11
5.0493840048
 21
3.9516049258
 31
0.0
 11
5.0610939918
 21
3.9564068678
 31
0.0
 11
5.0735339914
 21
3.963549606
 31
0.0
  0
SPLINE
  5
4A2
100
AcDbEntity
  8
0
100
AcDbSpline
 62
7
  6
CONTINUOUS
 70
0
 71
3
 72
10
 73
6
 74
4
 42
0.0000001
 43
0.0000001
 44
0.0000000001
 12
0.0358230469
 22
0.0244421924
 32
0.0
 13
0.0161645342
 23
0.0403373204
 33
0.0
 40
0.0
 40
0.0
 40
0.0
 40
0.0
 40
0.1727159455
 40
0.6690049718
 40
1.0
 40
1.0
 40
1.0
 40
1.0
 10
5.0735339914
 20
3.963549606
 30
0.0
 10
5.0755963952
 20
3.9649567915
 30
0.0
 10
5.083351899
 20
3.9707488091
 30
0.0
 10
5.0933322525
 20
3.9814545598
 30
0.0
 10
5.0989664206
 20
3.9921061001
 30
0.0
 10
5.1007498807
 20
3.9965565843
 30
0.0
 11
5.0735339914
 21
3.963549606
 31
0.0
 11
5.0795289577
 21
3.9680387473
 31
0.0
 11
5.0940381837
 21
3.9838700878
 31
0.0
 11
5.1007498807
 21
3.9965565843
 31
0.0
  0
SPLINE
  5
4A3
100
AcDbEntity
  8
0
100
AcDbSpline
 62
7
  6
CONTINUOUS
 70
0
 71
3
 72
20
 73
16
 74
14
 42
0.0000001
 43
0.0000001
 44
0.0000000001
 12
0.1982827269
 22
0.0541742555
 32
0.0
 13
0.1982827258
 23
-0.0541742546
 33
0.0
 40
0.0
 40
0.0
 40
0.0
 40
0.0
 40
0.0143317614
 40
0.0580134662
 40
0.1271913543
 40
0.2165714968
 40
0.3240966899
 40
0.4407844318
 40
0.5581787509
 40
0.6751708462
 40
0.7828329369
 40
0.8722586745
 40
0.9417954609
 40
0.9856699768
 40
1.0
 40
1.0
 40
1.0
 40
1.0
 10
6.5586970123
 20
3.7920284326
 30
0.0
 10
6.5596442592
 20
3.7922872368
 30
0.0
 10
6.5634820863
 20
3.7933222235
 30
0.0
 10
6.5719266746
 20
3.7954778332
 30
0.0
 10
6.5854436823
 20
3.798540034
 30
0.0
 10
6.6033777476
 20
3.8018540585
 30
0.0
 10
6.6246945794
 20
3.8046460805
 30
0.0
 10
6.6480643815
 20
3.8062271436
 30
0.0
 10
6.6721372812
 20
3.806234352
 30
0.0
 10
6.6955381698
 20
3.8046630001
 30
0.0
 10
6.716889145
 20
3.8018743842
 30
0.0
 10
6.7348606944
 20
3.7985589635
 30
0.0
 10
6.748418211
 20
3.7954901611
 30
0.0
 10
6.7568994134
 20
3.7933256025
 30
0.0
 10
6.7607498803
 20
3.7922872054
 30
0.0
 10
6.7616970123
 20
3.7920284326
 30
0.0
 11
6.5586970123
 21
3.7920284326
 31
0.0
 11
6.5615413132
 21
3.7927954465
 31
0.0
 11
6.5702414147
 21
3.7950151906
 31
0.0
 11
6.5841104453
 21
3.7981530562
 31
0.0
 11
6.6021781319
 21
3.8014839733
 31
0.0
 11
6.6240941877
 21
3.8043440594
 31
0.0
 11
6.6480252316
 21
3.8059558494
 31
0.0
 11
6.6721557286
 21
3.8059630387
 31
0.0
 11
6.6961499993
 21
3.8043590891
 31
0.0
 11
6.7180949961
 21
3.8015033278
 31
0.0
 11
6.7361728903
 21
3.7981760903
 31
0.0
 11
6.7501144525
 21
3.7950245031
 31
0.0
 11
6.7588530567
 21
3.7927953546
 31
0.0
 11
6.7616970123
 21
3.7920284326
 31
0.0
  0
SPLINE
  5
4A4
100
AcDbEntity
  8
0
100
AcDbSpline
 62
7
  6
CONTINUOUS
 70
0
 71
3
 72
20
 73
16
 74
14
 42
0.0000001
 43
0.0000001
 44
0.0000000001
 12
-0.2123068645
 22
-0.0617930191
 32
0.0
 13
-0.2123068655
 23
0.0617930201
 33
0.0
 40
0.0
 40
0.0
 40
0.0
 40
0.0
 40
0.0143411256
 40
0.0583189585
 40
0.1280159845
 40
0.2175035842
 40
0.3250846804
 40
0.4418956844
 40
0.5591039122
 40
0.6756272803
 40
0.783071265
 40
0.8724997948
 40
0.9418590455
 40
0.9856586983
 40
1.0
 40
1.0
 40
1.0
 40
1.0
 10
5.9301970123
 20
4.5380284326
 30
0.0
 10
5.9291821059
 20
4.5377330388
 30
0.0
 10
5.9250507888
 20
4.5365459564
 30
0.0
 10
5.9159455912
 20
4.5340684222
 30
0.0
 10
5.9013869202
 20
4.5305512387
 30
0.0
 10
5.8820884006
 20
4.5267464282
 30
0.0
 10
5.8591613081
 20
4.5235416368
 30
0.0
 10
5.8340268899
 20
4.5217331441
 30
0.0
 10
5.8081671917
 20
4.5217411591
 30
0.0
 10
5.7830650957
 20
4.523560466
 30
0.0
 10
5.760174588
 20
4.5267688795
 30
0.0
 10
5.7409158458
 20
4.53057184
 30
0.0
 10
5.7263990397
 20
4.5340816348
 30
0.0
 10
5.7173306386
 20
4.5365495762
 30
0.0
 10
5.7132119313
 20
4.5377330351
 30
0.0
 10
5.7121970123
 20
4.5380284326
 30
0.0
 11
5.9301970123
 21
4.5380284326
 31
0.0
 11
5.9271492475
 21
4.5371527441
 31
0.0
 11
5.9177657825
 21
4.5346009018
 31
0.0
 11
5.9027842954
 21
4.5309869129
 31
0.0
 11
5.8833688196
 21
4.5271691669
 31
0.0
 11
5.8598079446
 21
4.5238894378
 31
0.0
 11
5.8340449193
 21
4.5220452644
 31
0.0
 11
5.8081281415
 21
4.522053251
 31
0.0
 11
5.7824295152
 21
4.5239062466
 31
0.0
 11
5.7588998973
 21
4.5271906117
 31
0.0
 11
5.7394983816
 21
4.5310116516
 31
0.0
 11
5.7245901493
 21
4.534610817
 31
0.0
 11
5.7152448146
 21
4.5371527335
 31
0.0
 11
5.7121970123
 21
4.5380284326
 31
0.0
  0
SPLINE
  5
4A5
100
AcDbEntity
  8
0
100
AcDbSpline
 62
7
  6
CONTINUOUS
 70
0
 71
3
 72
20
 73
16
 74
14
 42
0.0000001
 43
0.0000001
 44
0.0000000001
 12
0.0
 22
-0.2889661523
 32
0.0
 13
-0.0
 23
0.2889661523
 33
0.0
 40
0.0
 40
0.0
 40
0.0
 40
0.0
 40
0.0721572067
 40
0.1456848723
 40
0.2199571509
 40
0.2964956821
 40
0.3772350591
 40
0.4590030135
 40
0.5412248305
 40
0.6230194842
 40
0.7037086452
 40
0.7802084268
 40
0.8546297687
 40
0.928152882
 40
1.0
 40
1.0
 40
1.0
 40
1.0
 10
5.1056970123
 20
3.9690284326
 30
0.0
 10
5.1056970123
 20
3.9620781025
 30
0.0
 10
5.1037388247
 20
3.9479504017
 30
0.0
 10
5.0945952031
 20
3.928486082
 30
0.0
 10
5.0799415737
 20
3.9122233438
 30
0.0
 10
5.0611048949
 20
3.8998980145
 30
0.0
 10
5.0394055451
 20
3.8917300396
 30
0.0
 10
5.0160563805
 20
3.8876905146
 30
0.0
 10
4.992268674
 20
3.887696118
 30
0.0
 10
4.9689236888
 20
3.8917475174
 30
0.0
 10
4.9472348081
 20
3.8999261236
 30
0.0
 10
4.9284004868
 20
3.9122654268
 30
0.0
 10
4.913753265
 20
3.9285499299
 30
0.0
 10
4.9046420391
 20
3.9480118386
 30
0.0
 10
4.9026970123
 20
3.9621079708
 30
0.0
 10
4.9026970123
 20
3.9690284326
 30
0.0
 11
5.1056970123
 21
3.9690284326
 31
0.0
 11
5.1027519458
 21
3.9483864757
 31
0.0
 11
5.093757441
 21
3.9291372115
 31
0.0
 11
5.0795032196
 21
3.9130922088
 31
0.0
 11
5.0610955985
 21
3.9008315744
 31
0.0
 11
5.0393130511
 21
3.8924737204
 31
0.0
 11
5.0160436384
 21
3.8883719031
 31
0.0
 11
4.992284317
 21
3.8883776018
 31
0.0
 11
4.9690095095
 21
3.8924932379
 31
0.0
 11
4.947245426
 21
3.9008586951
 31
0.0
 11
4.9288541868
 21
3.9131237192
 31
0.0
 11
4.914585863
 21
3.9292137989
 31
0.0
 11
4.9056165096
 21
3.9484733443
 31
0.0
 11
4.9026970123
 21
3.9690284326
 31
0.0
  0
SPLINE
  5
4A6
100
AcDbEntity
  8
0
100
AcDbSpline
 62
7
  6
CONTINUOUS
 70
0
 71
3
 72
14
 73
10
 74
8
 42
0.0000001
 43
0.0000001
 44
0.0000000001
 12
0.1546553034
 22
0.0
 32
0.0
 13
-0.0000184651
 23
0.1551478012
 33
0.0
 40
0.0
 40
0.0
 40
0.0
 40
0.0
 40
0.1667998138
 40
0.3312725848
 40
0.4905511724
 40
0.6420684238
 40
0.7864951545
 40
0.9282931765
 40
1.0
 40
1.0
 40
1.0
 40
1.0
 10
5.8211970123
 20
3.8899883899
 30
0.0
 10
5.8297958376
 20
3.8899883899
 30
0.0
 10
5.8469109671
 20
3.8914230523
 30
0.0
 10
5.8714852637
 20
3.8979677258
 30
0.0
 10
5.8935839728
 20
3.9090109824
 30
0.0
 10
5.9116407126
 20
3.9244266198
 30
0.0
 10
5.9242263734
 20
3.9435505998
 30
0.0
 10
5.9294491351
 20
3.9615307411
 30
0.0
 10
5.9301958429
 20
3.9725699318
 30
0.0
 10
5.9301954016
 20
3.9762783171
 30
0.0
 11
5.8211970123
 21
3.8899883899
 31
0.0
 11
5.8468993763
 21
3.8921899013
 31
0.0
 11
5.8714448364
 21
3.898863754
 31
0.0
 11
5.8933872064
 21
3.9100588777
 31
0.0
 11
5.9110752912
 21
3.9254288041
 31
0.0
 11
5.9232700336
 21
3.9441424684
 31
0.0
 11
5.9294270893
 21
3.9651902117
 31
0.0
 11
5.9301954016
 21
3.9762783171
 31
0.0
  0
SPLINE
  5
4A7
100
AcDbEntity
  8
0
100
AcDbSpline
 62
7
  6
CONTINUOUS
 70
0
 71
3
 72
20
 73
16
 74
14
 42
0.0000001
 43
0.0000001
 44
0.0000000001
 12
0.0
 22
0.3093010717
 32
0.0
 13
0.0
 23
-0.3093010717
 33
0.0
 40
0.0
 40
0.0
 40
0.0
 40
0.0
 40
0.0713070161
 40
0.1448646405
 40
0.2194966006
 40
0.2958591645
 40
0.375668185
 40
0.4585240395
 40
0.5415145119
 40
0.6245572965
 40
0.7044481454
 40
0.7808770976
 40
0.8556753013
 40
0.9291511637
 40
1.0
 40
1.0
 40
1.0
 40
1.0
 10
5.6641970123
 20
4.3507784326
 30
0.0
 10
5.6641970123
 20
4.3581302114
 30
0.0
 10
5.6662476614
 20
4.3731660554
 30
0.0
 10
5.6759913199
 20
4.3939794293
 30
0.0
 10
5.6917748637
 20
4.4113441902
 30
0.0
 10
5.7119671948
 20
4.424348593
 30
0.0
 10
5.7352279766
 20
4.4329706589
 30
0.0
 10
5.7603239125
 20
4.437251009
 30
0.0
 10
5.7861017626
 20
4.4372499773
 30
0.0
 10
5.8112246833
 20
4.4329580222
 30
0.0
 10
5.8345128959
 20
4.4243083177
 30
0.0
 10
5.8547197206
 20
4.4112646663
 30
0.0
 10
5.8704853781
 20
4.3938593662
 30
0.0
 10
5.8801679122
 20
4.3730611176
 30
0.0
 10
5.8821970123
 20
4.3580829729
 30
0.0
 10
5.8821970123
 20
4.3507784326
 30
0.0
 11
5.6641970123
 21
4.3507784326
 31
0.0
 11
5.6672770498
 21
4.3726176459
 31
0.0
 11
5.6768892236
 21
4.3932388652
 31
0.0
 11
5.6922876299
 21
4.4104362016
 31
0.0
 11
5.7120326084
 21
4.4233974541
 31
0.0
 11
5.7351211864
 21
4.4321305839
 31
0.0
 11
5.7603686294
 21
4.4365272289
 31
0.0
 11
5.7860376715
 21
4.436526188
 31
0.0
 11
5.8113407842
 21
4.432112218
 31
0.0
 11
5.8344470529
 21
4.4233543349
 31
0.0
 11
5.8541952727
 21
4.4103606263
 31
0.0
 11
5.8695980697
 21
4.3930982486
 31
0.0
 11
5.8791569915
 21
4.372480162
 31
0.0
 11
5.8821970123
 21
4.3507784326
 31
0.0
  0
SPLINE
  5
4A8
100
AcDbEntity
  8
0
100
AcDbSpline
 62
7
  6
CONTINUOUS
 70
0
 71
3
 72
14
 73
10
 74
8
 42
0.0000001
 43
0.0000001
 44
0.0000000001
 12
-0.000018383
 22
-0.1551477429
 32
0.0
 13
0.1546552609
 23
0.0
 33
0.0
 40
0.0
 40
0.0
 40
0.0
 40
0.0
 40
0.0717022923
 40
0.213496755
 40
0.3579204405
 40
0.5094386465
 40
0.6687165897
 40
0.8331921751
 40
1.0
 40
1.0
 40
1.0
 40
1.0
 10
5.712198623
 20
3.9762782722
 30
0.0
 10
5.7121981836
 20
3.9725701226
 30
0.0
 10
5.7129448216
 20
3.9615313549
 30
0.0
 10
5.7181671879
 20
3.9435517269
 30
0.0
 10
5.7307523046
 20
3.9244277632
 30
0.0
 10
5.7488086589
 20
3.9090118834
 30
0.0
 10
5.7709073496
 20
3.8979682352
 30
0.0
 10
5.7954820878
 20
3.8914231663
 30
0.0
 10
5.8125977764
 20
3.8899883899
 30
0.0
 10
5.8211970123
 20
3.8899883899
 30
0.0
 11
5.712198623
 21
3.9762782722
 31
0.0
 11
5.7129668431
 21
3.9651908675
 31
0.0
 11
5.7191234794
 21
3.9441435812
 31
0.0
 11
5.7313176087
 21
3.925430087
 31
0.0
 11
5.7490055187
 21
3.9100597442
 31
0.0
 11
5.7709476297
 21
3.8988643469
 31
0.0
 11
5.7954934302
 21
3.8921901137
 31
0.0
 11
5.8211970123
 21
3.8899883899
 31
0.0
  0
SPLINE
  5
4A9
100
AcDbEntity
  8
0
100
AcDbSpline
 62
7
  6
CONTINUOUS
 70
0
 71
3
 72
20
 73
16
 74
14
 42
0.0000001
 43
0.0000001
 44
0.0000000001
 12
0.0
 22
0.2889660734
 32
0.0
 13
0.0
 23
-0.2889660734
 33
0.0
 40
0.0
 40
0.0
 40
0.0
 40
0.0
 40
0.0721482161
 40
0.1457013303
 40
0.2200136585
 40
0.2965587707
 40
0.3772086026
 40
0.4589550205
 40
0.5412484312
 40
0.6230451352
 40
0.7036429958
 40
0.7801586324
 40
0.854621206
 40
0.9281673334
 40
1.0
 40
1.0
 40
1.0
 40
1.0
 10
4.9026970123
 20
4.3580284326
 30
0.0
 10
4.9026970123
 20
4.3649778948
 30
0.0
 10
4.9046551461
 20
4.3791071449
 30
0.0
 10
4.9138015239
 20
4.3985765438
 30
0.0
 10
4.9284623751
 20
4.4148426056
 30
0.0
 10
4.9472978354
 20
4.4271620984
 30
0.0
 10
4.9689875849
 20
4.4353255715
 30
0.0
 10
4.9923326142
 20
4.4393663577
 30
0.0
 10
5.0161255742
 20
4.4393613515
 30
0.0
 10
5.0394687041
 20
4.4353089855
 30
0.0
 10
5.0611508212
 20
4.4271339215
 30
0.0
 10
5.0799846284
 20
4.4147998657
 30
0.0
 10
5.0946391599
 20
4.398511037
 30
0.0
 10
5.1037523011
 20
4.3790443991
 30
0.0
 10
5.1056970123
 20
4.3649475005
 30
0.0
 10
5.1056970123
 20
4.3580284326
 30
0.0
 11
4.9026970123
 21
4.3580284326
 31
0.0
 11
4.9056413343
 21
4.3786678656
 31
0.0
 11
4.9146392361
 21
4.3979236532
 31
0.0
 11
4.9289032907
 21
4.4139753922
 31
0.0
 11
4.9473147734
 21
4.426233648
 31
0.0
 11
4.9690735797
 21
4.4345811276
 31
0.0
 11
4.9923365212
 21
4.4386837688
 31
0.0
 11
5.0161165245
 21
4.4386786736
 31
0.0
 11
5.0393916846
 21
4.4345616667
 31
0.0
 11
5.0611315961
 21
4.4262068747
 31
0.0
 11
5.0795288422
 21
4.4139426117
 31
0.0
 11
5.0938067859
 21
4.3978451464
 31
0.0
 11
5.1027787056
 21
4.3785794663
 31
0.0
 11
5.1056970123
 21
4.3580284326
 31
0.0
  0
SPLINE
  5
4AA
100
AcDbEntity
  8
0
100
AcDbSpline
 62
7
  6
CONTINUOUS
 70
0
 71
3
 72
20
 73
16
 74
14
 42
0.0000001
 43
0.0000001
 44
0.0000000001
 12
0.0
 22
-0.2885796139
 32
0.0
 13
0.0
 23
0.2885796139
 33
0.0
 40
0.0
 40
0.0
 40
0.0
 40
0.0
 40
0.0719336338
 40
0.1455547602
 40
0.2200522683
 40
0.2965512515
 40
0.3765744816
 40
0.458696805
 40
0.5414003471
 40
0.623712134
 40
0.7036675636
 40
0.7802083767
 40
0.8548647759
 40
0.9284498655
 40
1.0
 40
1.0
 40
1.0
 40
1.0
 10
6.7616970123
 20
3.9777784326
 30
0.0
 10
6.7616970123
 20
3.9708589058
 30
0.0
 10
6.7597525156
 20
3.9567626386
 30
0.0
 10
6.7506119666
 20
3.9373130487
 30
0.0
 10
6.7359126593
 20
3.9210876719
 30
0.0
 10
6.7170968911
 20
3.9088796794
 30
0.0
 10
6.6954482468
 20
3.9007891153
 30
0.0
 10
6.6721162088
 20
3.8967717206
 30
0.0
 10
6.6482311113
 20
3.8967741045
 30
0.0
 10
6.6248883437
 20
3.9008030633
 30
0.0
 10
6.603230276
 20
3.9089130985
 30
0.0
 10
6.5844122891
 20
3.9211421761
 30
0.0
 10
6.5697215705
 20
3.9373993874
 30
0.0
 10
6.5606249256
 20
3.956841462
 30
0.0
 10
6.5586970123
 20
3.9708957959
 30
0.0
 10
6.5586970123
 20
3.9777784326
 30
0.0
 11
6.7616970123
 21
3.9777784326
 31
0.0
 11
6.758773305
 21
3.957226776
 31
0.0
 11
6.7497736787
 21
3.9379815068
 31
0.0
 11
6.7354553704
 21
3.9219449884
 31
0.0
 11
6.7170373983
 21
3.909774115
 31
0.0
 11
6.6954579243
 21
3.9015512013
 31
0.0
 11
6.6721161344
 21
3.8974529926
 31
0.0
 11
6.6482495783
 21
3.8974554229
 31
0.0
 11
6.6248556937
 21
3.9015730801
 31
0.0
 11
6.6032998078
 21
3.9098029347
 31
0.0
 11
6.584880932
 21
3.9219943245
 31
0.0
 11
6.5705526926
 21
3.938083422
 31
0.0
 11
6.5615892203
 21
3.9573340855
 31
0.0
 11
6.5586970123
 21
3.9777784326
 31
0.0
  0
SPLINE
  5
4AB
100
AcDbEntity
  8
0
100
AcDbSpline
 62
7
  6
CONTINUOUS
 70
0
 71
3
 72
20
 73
16
 74
14
 42
0.0000001
 43
0.0000001
 44
0.0000000001
 12
0.0
 22
0.2885796875
 32
0.0
 13
-0.0
 23
-0.2885796875
 33
0.0
 40
0.0
 40
0.0
 40
0.0
 40
0.0
 40
0.0719008071
 40
0.1455235107
 40
0.220035673
 40
0.2965218426
 40
0.3764854711
 40
0.4586761336
 40
0.5414113285
 40
0.6237910427
 40
0.7036975716
 40
0.7802320673
 40
0.8549044098
 40
0.9284886849
 40
1.0
 40
1.0
 40
1.0
 40
1.0
 10
6.5586970123
 20
4.3492784326
 30
0.0
 10
6.5586970123
 20
4.3561948034
 30
0.0
 10
6.5606401466
 20
4.3702879334
 30
0.0
 10
6.5697773911
 20
4.3897373443
 30
0.0
 10
6.5844755983
 20
4.4059643812
 30
0.0
 10
6.6032857394
 20
4.4181706694
 30
0.0
 10
6.62493253
 20
4.4262643908
 30
0.0
 10
6.6482682612
 20
4.4302851623
 30
0.0
 10
6.6721696189
 20
4.4302830123
 30
0.0
 10
6.695517136
 20
4.4262510032
 30
0.0
 10
6.7171750146
 20
4.4181375097
 30
0.0
 10
6.7359887813
 20
4.4059089328
 30
0.0
 10
6.750678287
 20
4.3896492253
 30
0.0
 10
6.7597707369
 20
4.3702077035
 30
0.0
 10
6.7616970123
 20
4.3561573369
 30
0.0
 10
6.7616970123
 20
4.3492784326
 30
0.0
 11
6.5586970123
 21
4.3492784326
 31
0.0
 11
6.5616180181
 21
4.3698209103
 31
0.0
 11
6.5706153072
 21
4.3890677807
 31
0.0
 11
6.5849349905
 21
4.4051087479
 31
0.0
 11
6.6033490179
 21
4.4172788936
 31
0.0
 11
6.6249112015
 21
4.4254988951
 31
0.0
 11
6.6482719217
 21
4.4296033607
 31
0.0
 11
6.6721476183
 21
4.4296011696
 31
0.0
 11
6.6955604018
 21
4.4254777694
 31
0.0
 11
6.7171019806
 21
4.4172499891
 31
0.0
 11
6.7355183234
 21
4.4050580655
 31
0.0
 11
6.7498477078
 21
4.3889638195
 31
0.0
 11
6.7588079817
 21
4.3697119204
 31
0.0
 11
6.7616970123
 21
4.3492784326
 31
0.0
  0
ENDSEC
  0
SECTION
  2
OBJECTS
  0
DICTIONARY
  5
C
100
AcDbDictionary
280
0
281
1
  3
ACAD_GROUP
350
D
  3
ACAD_MLINESTYLE
350
17
  3
ACAD_LAYOUT
350
1A
  3
ACAD_PLOTSETTINGS
350
19
  3
ACAD_PLOTSTYLENAME
350
E
  0
DICTIONARY
  5
D
102
{ACAD_REACTORS
330
C
102
}
100
AcDbDictionary
280
0
281
1
  0
ACDBDICTIONARYWDFLT
  5
E
102
{ACAD_REACTORS
330
C
102
}
100
AcDbDictionary
281
1
  3
Normal
350
F
100
AcDbDictionaryWithDefault
340
F
  0
DICTIONARY
  5
17
102
{ACAD_REACTORS
330
C
102
}
100
AcDbDictionary
280
0
281
1
  3
Standard
350
18
  0
DICTIONARY
  5
19
102
{ACAD_REACTORS
330
C
102
}
100
AcDbDictionary
281
1
  0
DICTIONARY
  5
1A
102
{ACAD_REACTORS
330
C
102
}
100
AcDbDictionary
281
1
  3
Layout1
350
1E
  3
Model
350
22
  0
ACDBPLACEHOLDER
  5
F
102
{ACAD_REACTORS
330
E
102
}
  0
MLINESTYLE
  5
18
102
{ACAD_REACTORS
330
17
102
}
100
AcDbMlineStyle
  2
STANDARD
 70
0
  3

 62
256
 51
90.0
 52
90.0
 71
2
 49
0.5
 62
256
  6
BYLAYER
 49
-0.5
 62
256
  6
BYLAYER
  0
LAYOUT
  5
1E
102
{ACAD_REACTORS
330
1A
102
}
100
AcDbPlotSettings
  1

  2

  4

  6

 40
0.0
 41
0.0
 42
0.0
 43
0.0
 44
0.0
 45
0.0
 46
0.0
 47
0.0
 48
0.0
 49
0.0
140
0.0
141
0.0
142
1.0
143
1.0
 70
0
 72
0
 73
0
 74
0
  7

 75
0
147
1.0
148
0.0
149
0.0
100
AcDbLayout
  1
Layout1
 70
0
 71
0
 10
0.0
 20
0.0
 11
0.0
 21
0.0
 12
0.0
 22
0.0
 32
0.0
 14
0.0
 24
0.0
 34
0.0
 15
0.0
 25
0.0
 35
0.0
146
0.0
 13
0.0
 23
0.0
 33
0.0
 16
0.0
 26
0.0
 36
0.0
 17
0.0
 27
0.0
 37
0.0
 76
0
330
1B
331
0
345
0
346
0
  0
LAYOUT
  5
22
102
{ACAD_REACTORS
330
1A
102
}
100
AcDbPlotSettings
  1

  2

  4

  6

 40
0.0
 41
0.0
 42
0.0
 43
0.0
 44
0.0
 45
0.0
 46
0.0
 47
0.0
 48
0.0
 49
0.0
140
0.0
141
0.0
142
1.0
143
1.0
 70
0
 72
0
 73
0
 74
0
  7

 75
0
147
1.0
148
0.0
149
0.0
100
AcDbLayout
  1
Model
 70
0
 71
0
 10
0.0
 20
0.0
 11
0.0
 21
0.0
 12
0.0
 22
0.0
 32
0.0
 14
0.0
 24
0.0
 34
0.0
 15
0.0
 25
0.0
 35
0.0
146
0.0
 13
0.0
 23
0.0
 33
0.0
 16
0.0
 26
0.0
 36
0.0
 17
0.0
 27
0.0
 37
0.0
 76
0
330
1F
331
0
345
0
346
0
  0
ENDSEC
  0
EOF
