999
DXF file: DSCH-XHN.dxf
999
Pro/ENGINEER 2006240 by Parametric Technology Corporation
  0
SECTION
  2
HEADER
  9
$ACADVER
  1
AC1015
  9
$DWGCODEPAGE
  3
ANSI_1252
  9
$EXTMAX
 10
11.6929133858
 20
8.2677165354
 30
0.0
  9
$EXTMIN
 10
0.0
 20
0.0
 30
0.0
  9
$LIMMIN
 10
0.0
 20
0.0
  9
$LIMMAX
 10
11.6929133858
 20
8.2677165354
  9
$VIEWCTR
 10
5.8464566929
 20
4.1338582677
  9
$VIEWSIZE
 40
8.2677165354
  9
$CLAYER
  8
0
  9
$LTSCALE
 40
0.6431102362
  9
$CELTYPE
  6
BYLAYER
  9
$DIMSCALE
 40
1.0
  9
$DIMASZ
 40
0.1875
  9
$DIMEXO
 40
0.0730807087
  9
$DIMDLI
 40
0.4443307087
  9
$DIMEXE
 40
0.2104724409
  9
$DIMCEN
 40
0.1052362205
  9
$DIMLFAC
 40
1.0
  9
$DIMBLK
  1
_CLOSED
  9
$DIMTXT
 40
0.15625
  9
$DIMTOL
 70
0
  9
$DIMLIM
 70
0
  9
$DIMTFAC
 40
1.0
  9
$PDMODE
 70
3
  9
$PDSIZE
 40
0.3125
  9
$HANDSEED
  5
4BE
  9
$MEASUREMENT
 70
0
  9
$INSUNITS
 70
1
  0
ENDSEC
  0
SECTION
  2
CLASSES
  0
CLASS
  1
ACDBDICTIONARYWDFLT
  2
AcDbDictionaryWithDefault
  3
AutoCAD 2000
 90
0
280
0
281
0
  0
CLASS
  1
ACDBPLACEHOLDER
  2
AcDbPlaceHolder
  3
AutoCAD 2000
 90
0
280
0
281
0
  0
CLASS
  1
LAYOUT
  2
AcDbLayout
  3
AutoCAD 2000
 90
0
280
0
281
0
  0
ENDSEC
  0
SECTION
  2
TABLES
  0
TABLE
  2
VPORT
  5
8
100
AcDbSymbolTable
 70
2
  0
VPORT
  5
1F4
100
AcDbSymbolTableRecord
100
AcDbViewportTableRecord
  2
*ACTIVE
 70
0
 10
0.0
 20
0.0
 11
1.0
 21
1.0
 12
5.8464566929
 22
4.1338582677
 13
0.0
 23
0.0
 14
1.0
 24
1.0
 15
0.0
 25
0.0
 16
0.0
 26
0.0
 36
1.0
 17
0.0
 27
0.0
 37
0.0
 40
8.2677165354
 41
1.4142857143
 42
50.0
 43
0.0
 44
0.0
 50
0.0
 51
0.0
 71
0
 72
100
 73
1
 74
1
 75
0
 76
0
 77
0
 78
0
  0
ENDTAB
  0
TABLE
  2
LTYPE
  5
5
100
AcDbSymbolTable
 70
6
  0
LTYPE
  5
14
100
AcDbSymbolTableRecord
100
AcDbLinetypeTableRecord
  2
BYBLOCK
 70
0
  3

 72
65
 73
0
 40
0.0
  0
LTYPE
  5
15
100
AcDbSymbolTableRecord
100
AcDbLinetypeTableRecord
  2
BYLAYER
 70
0
  3

 72
65
 73
0
 40
0.0
  0
LTYPE
  5
16
100
AcDbSymbolTableRecord
100
AcDbLinetypeTableRecord
  2
CONTINUOUS
 70
64
  3
Solid line
 72
65
 73
0
 40
0.0
  0
LTYPE
  5
1F5
100
AcDbSymbolTableRecord
100
AcDbLinetypeTableRecord
  2
CENTER
 70
64
  3
____ _ ____ _ ____ _ ____ _ ____ _ ____ _ ____
 72
65
 73
4
 40
0.6
 49
0.375
 74
0
 49
-0.075
 74
0
 49
0.075
 74
0
 49
-0.075
 74
0
  0
LTYPE
  5
1F6
100
AcDbSymbolTableRecord
100
AcDbLinetypeTableRecord
  2
HIDDEN
 70
64
  3
- - - - - - - - - - - - - - - - - - - -
 72
65
 73
2
 40
0.2
 49
0.1
 74
0
 49
-0.1
 74
0
  0
LTYPE
  5
1F7
100
AcDbSymbolTableRecord
100
AcDbLinetypeTableRecord
  2
PHANTOM
 70
64
  3
_____ _ _ _____ _ _ _____ _ _ _____
 72
65
 73
6
 40
0.8
 49
0.45
 74
0
 49
-0.05
 74
0
 49
0.1
 74
0
 49
-0.05
 74
0
 49
0.1
 74
0
 49
-0.05
 74
0
  0
LTYPE
  5
1F8
100
AcDbSymbolTableRecord
100
AcDbLinetypeTableRecord
  2
DOT
 70
64
  3
. . . . . . . . . . . . . . . . . . . .
 72
65
 73
2
 40
0.2
 49
0.1
 74
0
 49
-0.1
 74
0
  0
LTYPE
  5
1F9
100
AcDbSymbolTableRecord
100
AcDbLinetypeTableRecord
  2
DASHED
 70
64
  3
- - - - - - - - - - - - - - - - - - - -
 72
65
 73
2
 40
0.2
 49
0.1
 74
0
 49
-0.1
 74
0
  0
ENDTAB
  0
TABLE
  2
LAYER
  5
2
100
AcDbSymbolTable
 70
36
  0
LAYER
  5
10
100
AcDbSymbolTableRecord
100
AcDbLayerTableRecord
  2
0
 70
0
 62
7
  6
CONTINUOUS
370
-3
390
F
  0
LAYER
  5
1FA
100
AcDbSymbolTableRecord
100
AcDbLayerTableRecord
  2
DEFAULT_1
 70
0
 62
7
  6
CENTER
370
-3
390
F
  0
LAYER
  5
1FB
100
AcDbSymbolTableRecord
100
AcDbLayerTableRecord
  2
DEFAULT_2
 70
0
 62
8
  6
HIDDEN
370
-3
390
F
  0
LAYER
  5
1FC
100
AcDbSymbolTableRecord
100
AcDbLayerTableRecord
  2
DEFAULT_3
 70
0
 62
7
  6
PHANTOM
370
-3
390
F
  0
LAYER
  5
1FD
100
AcDbSymbolTableRecord
100
AcDbLayerTableRecord
  2
_BLACK_HOLE
 70
0
 62
7
  6
CONTINUOUS
370
-3
390
F
  0
LAYER
  5
1FE
100
AcDbSymbolTableRecord
100
AcDbLayerTableRecord
  2
01_ALL_DTM_PLN
 70
0
 62
7
  6
CONTINUOUS
370
-3
390
F
  0
LAYER
  5
1FF
100
AcDbSymbolTableRecord
100
AcDbLayerTableRecord
  2
01__ASM_ALL_DTM_PLN
 70
0
 62
7
  6
CONTINUOUS
370
-3
390
F
  0
LAYER
  5
200
100
AcDbSymbolTableRecord
100
AcDbLayerTableRecord
  2
01__ASM_DEF_DTM_PLN
 70
0
 62
7
  6
CONTINUOUS
370
-3
390
F
  0
LAYER
  5
201
100
AcDbSymbolTableRecord
100
AcDbLayerTableRecord
  2
01___PRT_ALL_DTM_PLN
 70
0
 62
7
  6
CONTINUOUS
370
-3
390
F
  0
LAYER
  5
202
100
AcDbSymbolTableRecord
100
AcDbLayerTableRecord
  2
01___PRT_DEF_DTM_PLN
 70
0
 62
7
  6
CONTINUOUS
370
-3
390
F
  0
LAYER
  5
203
100
AcDbSymbolTableRecord
100
AcDbLayerTableRecord
  2
02_ALL_AXES
 70
0
 62
7
  6
CONTINUOUS
370
-3
390
F
  0
LAYER
  5
204
100
AcDbSymbolTableRecord
100
AcDbLayerTableRecord
  2
02__ASM_ALL_AXES
 70
0
 62
7
  6
CONTINUOUS
370
-3
390
F
  0
LAYER
  5
205
100
AcDbSymbolTableRecord
100
AcDbLayerTableRecord
  2
02___PRT_ALL_AXES
 70
0
 62
7
  6
CONTINUOUS
370
-3
390
F
  0
LAYER
  5
206
100
AcDbSymbolTableRecord
100
AcDbLayerTableRecord
  2
03_ALL_CURVES
 70
0
 62
7
  6
CONTINUOUS
370
-3
390
F
  0
LAYER
  5
207
100
AcDbSymbolTableRecord
100
AcDbLayerTableRecord
  2
03__ASM_ALL_CURVES
 70
0
 62
7
  6
CONTINUOUS
370
-3
390
F
  0
LAYER
  5
208
100
AcDbSymbolTableRecord
100
AcDbLayerTableRecord
  2
03___PRT_ALL_CURVES
 70
0
 62
7
  6
CONTINUOUS
370
-3
390
F
  0
LAYER
  5
209
100
AcDbSymbolTableRecord
100
AcDbLayerTableRecord
  2
04_ALL_DTM_PNT
 70
0
 62
7
  6
CONTINUOUS
370
-3
390
F
  0
LAYER
  5
20A
100
AcDbSymbolTableRecord
100
AcDbLayerTableRecord
  2
04__ASM_ALL_DTM_PNT
 70
0
 62
7
  6
CONTINUOUS
370
-3
390
F
  0
LAYER
  5
20B
100
AcDbSymbolTableRecord
100
AcDbLayerTableRecord
  2
04___PRT_ALL_DTM_PNT
 70
0
 62
7
  6
CONTINUOUS
370
-3
390
F
  0
LAYER
  5
20C
100
AcDbSymbolTableRecord
100
AcDbLayerTableRecord
  2
05_ALL_DTM_CSYS
 70
0
 62
7
  6
CONTINUOUS
370
-3
390
F
  0
LAYER
  5
20D
100
AcDbSymbolTableRecord
100
AcDbLayerTableRecord
  2
05__ASM_ALL_DTM_CSYS
 70
0
 62
7
  6
CONTINUOUS
370
-3
390
F
  0
LAYER
  5
20E
100
AcDbSymbolTableRecord
100
AcDbLayerTableRecord
  2
05__ASM_DEF_DTM_CSYS
 70
0
 62
7
  6
CONTINUOUS
370
-3
390
F
  0
LAYER
  5
20F
100
AcDbSymbolTableRecord
100
AcDbLayerTableRecord
  2
05___PRT_ALL_DTM_CSYS
 70
0
 62
7
  6
CONTINUOUS
370
-3
390
F
  0
LAYER
  5
210
100
AcDbSymbolTableRecord
100
AcDbLayerTableRecord
  2
05___PRT_DEF_DTM_CSYS
 70
0
 62
7
  6
CONTINUOUS
370
-3
390
F
  0
LAYER
  5
211
100
AcDbSymbolTableRecord
100
AcDbLayerTableRecord
  2
06_ALL_SURFS
 70
0
 62
7
  6
CONTINUOUS
370
-3
390
F
  0
LAYER
  5
212
100
AcDbSymbolTableRecord
100
AcDbLayerTableRecord
  2
06__ASM_ALL_SURFS
 70
0
 62
7
  6
CONTINUOUS
370
-3
390
F
  0
LAYER
  5
213
100
AcDbSymbolTableRecord
100
AcDbLayerTableRecord
  2
06___PRT_ALL_SURFS
 70
0
 62
7
  6
CONTINUOUS
370
-3
390
F
  0
LAYER
  5
214
100
AcDbSymbolTableRecord
100
AcDbLayerTableRecord
  2
07__ASM_ALL_SKELETONS
 70
0
 62
7
  6
CONTINUOUS
370
-3
390
F
  0
LAYER
  5
215
100
AcDbSymbolTableRecord
100
AcDbLayerTableRecord
  2
125-104_HEX_FEATURES
 70
0
 62
7
  6
CONTINUOUS
370
-3
390
F
  0
LAYER
  5
216
100
AcDbSymbolTableRecord
100
AcDbLayerTableRecord
  2
125-104_REF_GEOMETRY
 70
0
 62
7
  6
CONTINUOUS
370
-3
390
F
  0
LAYER
  5
217
100
AcDbSymbolTableRecord
100
AcDbLayerTableRecord
  2
125-105_HEX_FEATURES
 70
0
 62
7
  6
CONTINUOUS
370
-3
390
F
  0
LAYER
  5
218
100
AcDbSymbolTableRecord
100
AcDbLayerTableRecord
  2
125-105_REF_GEOMETRY
 70
0
 62
7
  6
CONTINUOUS
370
-3
390
F
  0
LAYER
  5
219
100
AcDbSymbolTableRecord
100
AcDbLayerTableRecord
  2
125-132_HEX_FEATURES
 70
0
 62
7
  6
CONTINUOUS
370
-3
390
F
  0
LAYER
  5
21A
100
AcDbSymbolTableRecord
100
AcDbLayerTableRecord
  2
125-132_REF_GEOMETRY
 70
0
 62
7
  6
CONTINUOUS
370
-3
390
F
  0
LAYER
  5
21B
100
AcDbSymbolTableRecord
100
AcDbLayerTableRecord
  2
125-150_HEX_FEATURES
 70
0
 62
7
  6
CONTINUOUS
370
-3
390
F
  0
LAYER
  5
21C
100
AcDbSymbolTableRecord
100
AcDbLayerTableRecord
  2
125-150_REF_GEOMETRY
 70
0
 62
7
  6
CONTINUOUS
370
-3
390
F
  0
LAYER
  5
21D
100
AcDbSymbolTableRecord
100
AcDbLayerTableRecord
  2
125-158_HEX_FEATURES
 70
0
 62
7
  6
CONTINUOUS
370
-3
390
F
  0
LAYER
  5
21E
100
AcDbSymbolTableRecord
100
AcDbLayerTableRecord
  2
125-158_REF_GEOMETRY
 70
0
 62
7
  6
CONTINUOUS
370
-3
390
F
  0
LAYER
  5
21F
100
AcDbSymbolTableRecord
100
AcDbLayerTableRecord
  2
126-003_HEX_FEATURES
 70
0
 62
7
  6
CONTINUOUS
370
-3
390
F
  0
LAYER
  5
220
100
AcDbSymbolTableRecord
100
AcDbLayerTableRecord
  2
126-003_REF_GEOMETRY
 70
0
 62
7
  6
CONTINUOUS
370
-3
390
F
  0
LAYER
  5
221
100
AcDbSymbolTableRecord
100
AcDbLayerTableRecord
  2
126-005_HEX_FEATURES
 70
0
 62
7
  6
CONTINUOUS
370
-3
390
F
  0
LAYER
  5
222
100
AcDbSymbolTableRecord
100
AcDbLayerTableRecord
  2
126-005_REF_GEOMETRY
 70
0
 62
7
  6
CONTINUOUS
370
-3
390
F
  0
LAYER
  5
223
100
AcDbSymbolTableRecord
100
AcDbLayerTableRecord
  2
126-007_HEX_FEATURES
 70
0
 62
7
  6
CONTINUOUS
370
-3
390
F
  0
LAYER
  5
224
100
AcDbSymbolTableRecord
100
AcDbLayerTableRecord
  2
126-007_REF_GEOMETRY
 70
0
 62
7
  6
CONTINUOUS
370
-3
390
F
  0
LAYER
  5
225
100
AcDbSymbolTableRecord
100
AcDbLayerTableRecord
  2
126-200_HEX_FEATURES
 70
0
 62
7
  6
CONTINUOUS
370
-3
390
F
  0
LAYER
  5
226
100
AcDbSymbolTableRecord
100
AcDbLayerTableRecord
  2
126-200_REF_GEOMETRY
 70
0
 62
7
  6
CONTINUOUS
370
-3
390
F
  0
LAYER
  5
227
100
AcDbSymbolTableRecord
100
AcDbLayerTableRecord
  2
126-202_HEX_FEATURES
 70
0
 62
7
  6
CONTINUOUS
370
-3
390
F
  0
LAYER
  5
228
100
AcDbSymbolTableRecord
100
AcDbLayerTableRecord
  2
126-202_REF_GEOMETRY
 70
0
 62
7
  6
CONTINUOUS
370
-3
390
F
  0
LAYER
  5
229
100
AcDbSymbolTableRecord
100
AcDbLayerTableRecord
  2
126-220_HEX_FEATURES
 70
0
 62
7
  6
CONTINUOUS
370
-3
390
F
  0
LAYER
  5
22A
100
AcDbSymbolTableRecord
100
AcDbLayerTableRecord
  2
126-220_REF_GEOMETRY
 70
0
 62
7
  6
CONTINUOUS
370
-3
390
F
  0
LAYER
  5
22B
100
AcDbSymbolTableRecord
100
AcDbLayerTableRecord
  2
COPY_GEO_FET
 70
0
 62
7
  6
CONTINUOUS
370
-3
390
F
  0
LAYER
  5
22C
100
AcDbSymbolTableRecord
100
AcDbLayerTableRecord
  2
COSMETIC
 70
0
 62
7
  6
CONTINUOUS
370
-3
390
F
  0
LAYER
  5
22D
100
AcDbSymbolTableRecord
100
AcDbLayerTableRecord
  2
CUT_REF_SURF
 70
0
 62
7
  6
CONTINUOUS
370
-3
390
F
  0
LAYER
  5
22E
100
AcDbSymbolTableRecord
100
AcDbLayerTableRecord
  2
DATUM
 70
0
 62
7
  6
CONTINUOUS
370
-3
390
F
  0
LAYER
  5
22F
100
AcDbSymbolTableRecord
100
AcDbLayerTableRecord
  2
DATUM_PLANES
 70
0
 62
7
  6
CONTINUOUS
370
-3
390
F
  0
LAYER
  5
230
100
AcDbSymbolTableRecord
100
AcDbLayerTableRecord
  2
DIMENSIONS
 70
0
 62
7
  6
CONTINUOUS
370
-3
390
F
  0
LAYER
  5
231
100
AcDbSymbolTableRecord
100
AcDbLayerTableRecord
  2
DTM
 70
0
 62
7
  6
CONTINUOUS
370
-3
390
F
  0
LAYER
  5
232
100
AcDbSymbolTableRecord
100
AcDbLayerTableRecord
  2
DTM230
 70
0
 62
7
  6
CONTINUOUS
370
-3
390
F
  0
LAYER
  5
233
100
AcDbSymbolTableRecord
100
AcDbLayerTableRecord
  2
DTM_500001
 70
0
 62
7
  6
CONTINUOUS
370
-3
390
F
  0
LAYER
  5
234
100
AcDbSymbolTableRecord
100
AcDbLayerTableRecord
  2
DTM_500002
 70
0
 62
7
  6
CONTINUOUS
370
-3
390
F
  0
LAYER
  5
235
100
AcDbSymbolTableRecord
100
AcDbLayerTableRecord
  2
DTM_515002
 70
0
 62
7
  6
CONTINUOUS
370
-3
390
F
  0
LAYER
  5
236
100
AcDbSymbolTableRecord
100
AcDbLayerTableRecord
  2
DTM_SPRING_RH
 70
0
 62
7
  6
CONTINUOUS
370
-3
390
F
  0
LAYER
  5
237
100
AcDbSymbolTableRecord
100
AcDbLayerTableRecord
  2
DTM_SP_RH_CONSTR
 70
0
 62
7
  6
CONTINUOUS
370
-3
390
F
  0
LAYER
  5
238
100
AcDbSymbolTableRecord
100
AcDbLayerTableRecord
  2
GEOMETRICTOLERANCES
 70
0
 62
7
  6
CONTINUOUS
370
-3
390
F
  0
LAYER
  5
239
100
AcDbSymbolTableRecord
100
AcDbLayerTableRecord
  2
PARAMETERDIMENSIONS
 70
0
 62
7
  6
CONTINUOUS
370
-3
390
F
  0
LAYER
  5
23A
100
AcDbSymbolTableRecord
100
AcDbLayerTableRecord
  2
PLANE
 70
0
 62
7
  6
CONTINUOUS
370
-3
390
F
  0
LAYER
  5
23B
100
AcDbSymbolTableRecord
100
AcDbLayerTableRecord
  2
TEXT
 70
0
 62
7
  6
CONTINUOUS
370
-3
390
F
  0
LAYER
  5
23C
100
AcDbSymbolTableRecord
100
AcDbLayerTableRecord
  2
THREAD
 70
0
 62
7
  6
CONTINUOUS
370
-3
390
F
  0
LAYER
  5
23D
100
AcDbSymbolTableRecord
100
AcDbLayerTableRecord
  2
WIRE_GRV_RAD_DRW_REF
 70
0
 62
7
  6
CONTINUOUS
370
-3
390
F
  0
LAYER
  5
23E
100
AcDbSymbolTableRecord
100
AcDbLayerTableRecord
  2
WIRE_SLOT_DRW_REF
 70
0
 62
7
  6
CONTINUOUS
370
-3
390
F
  0
ENDTAB
  0
TABLE
  2
STYLE
  5
3
100
AcDbSymbolTable
 70
1
  0
STYLE
  5
11
100
AcDbSymbolTableRecord
100
AcDbTextStyleTableRecord
  2
STANDARD
 70
0
 40
0.0
 41
0.8
 50
0.0
 71
0
 42
0.2
  3
txt
  4

  0
ENDTAB
  0
TABLE
  2
VIEW
  5
6
100
AcDbSymbolTable
 70
0
  0
ENDTAB
  0
TABLE
  2
UCS
  5
7
100
AcDbSymbolTable
 70
0
  0
ENDTAB
  0
TABLE
  2
APPID
  5
9
100
AcDbSymbolTable
 70
1
  0
APPID
  5
23F
100
AcDbSymbolTableRecord
100
AcDbRegAppTableRecord
  2
ACAD
 70
0
  0
ENDTAB
  0
TABLE
  2
BLOCK_RECORD
  5
1
100
AcDbSymbolTable
 70
0
  0
BLOCK_RECORD
  5
1F
100
AcDbSymbolTableRecord
100
AcDbBlockTableRecord
  2
*MODEL_SPACE
  0
BLOCK_RECORD
  5
1B
100
AcDbSymbolTableRecord
100
AcDbBlockTableRecord
  2
*PAPER_SPACE
  0
ENDTAB
  0
TABLE
  2
DIMSTYLE
  5
A
100
AcDbSymbolTable
 70
1
100
AcDbDimStyleTable
 71
0
  0
DIMSTYLE
105
240
100
AcDbSymbolTableRecord
100
AcDbDimStyleTableRecord
  2
STANDARD
 70
0
  3

  4

 40
1.0
 41
0.1875
 42
0.0625
 43
0.38
 44
0.18
 45
0.0
 46
0.0
 47
0.01
 48
0.01
140
0.15625
141
0.09
142
0.0
143
25.4
144
1.0
145
0.0
146
1.0
147
0.09
 71
0.0
 72
0.0
 73
1
 74
1
 75
0
 76
0
 77
0
 78
4
170
0
171
2
172
0
173
0
174
0
175
0
176
0
177
0
178
0
270
2
271
2
272
2
273
2
274
2
275
0
280
0
281
0
282
0
283
1
284
4
285
0
286
0
287
3
288
0
340
11
  0
ENDTAB
  0
ENDSEC
  0
SECTION
  2
BLOCKS
  0
BLOCK
  5
20
100
AcDbEntity
  8
0
100
AcDbBlockBegin
  2
*MODEL_SPACE
 70
0
 10
0.0
 20
0.0
 30
0.0
  3
*MODEL_SPACE
  1

  0
ENDBLK
  5
21
100
AcDbEntity
  8
0
100
AcDbBlockEnd
  0
BLOCK
  5
1C
100
AcDbEntity
  8
0
100
AcDbBlockBegin
  2
*PAPER_SPACE
 70
0
 10
0.0
 20
0.0
 30
0.0
  3
*PAPER_SPACE
  1

  0
ENDBLK
  5
1D
100
AcDbEntity
  8
0
100
AcDbBlockEnd
  0
ENDSEC
  0
SECTION
  2
ENTITIES
  0
LINE
  5
241
100
AcDbEntity
  8
0
100
AcDbLine
 62
7
  6
CONTINUOUS
 10
3.1524333398
 20
3.7079973701
 11
3.1524333398
 21
4.3549973701
  0
LINE
  5
242
100
AcDbEntity
  8
03__ASM_ALL_CURVES
100
AcDbLine
 62
40
  6
CONTINUOUS
 10
3.1524333398
 20
4.3549973701
 11
3.1524333398
 21
5.0765343701
  0
LINE
  5
243
100
AcDbEntity
  8
03__ASM_ALL_CURVES
100
AcDbLine
 62
40
  6
CONTINUOUS
 10
3.1798708398
 20
5.1897468701
 11
3.1798708398
 21
5.0765343701
  0
LINE
  5
244
100
AcDbEntity
  8
0
100
AcDbLine
 62
7
  6
CONTINUOUS
 10
3.2024333398
 20
3.6579973701
 11
3.2024333398
 21
4.4049973701
  0
LINE
  5
245
100
AcDbEntity
  8
03__ASM_ALL_CURVES
100
AcDbLine
 62
40
  6
CONTINUOUS
 10
3.2860075586
 20
5.0765343701
 11
3.2860075586
 21
5.0859687454
  0
LINE
  5
246
100
AcDbEntity
  8
03__ASM_ALL_CURVES
100
AcDbLine
 62
40
  6
CONTINUOUS
 10
3.2882883398
 20
5.0538918701
 11
3.2882883398
 21
5.0086068701
  0
LINE
  5
247
100
AcDbEntity
  8
03__ASM_ALL_CURVES
100
AcDbLine
 62
40
  6
CONTINUOUS
 10
3.4062958398
 20
5.1897468701
 11
3.4062958398
 21
5.0765343701
  0
LINE
  5
248
100
AcDbEntity
  8
03__ASM_ALL_CURVES
100
AcDbLine
 62
40
  6
CONTINUOUS
 10
3.4841294336
 20
5.1048374951
 11
3.4841294336
 21
5.1142718712
  0
LINE
  5
249
100
AcDbEntity
  8
03__ASM_ALL_CURVES
100
AcDbLine
 62
40
  6
CONTINUOUS
 10
3.4912052148
 20
5.1614437451
 11
3.4912052148
 21
5.1708781178
  0
LINE
  5
24A
100
AcDbEntity
  8
03__ASM_ALL_CURVES
100
AcDbLine
 62
40
  6
CONTINUOUS
 10
3.5478114648
 20
5.1708781178
 11
3.5478114648
 21
5.1614437451
  0
LINE
  5
24B
100
AcDbEntity
  8
03__ASM_ALL_CURVES
100
AcDbLine
 62
40
  6
CONTINUOUS
 10
3.5548872461
 20
5.1142718712
 11
3.5548872461
 21
5.1048374951
  0
LINE
  5
24C
100
AcDbEntity
  8
03__ASM_ALL_CURVES
100
AcDbLine
 62
40
  6
CONTINUOUS
 10
3.6256450586
 20
5.1708781178
 11
3.6185692773
 21
5.1425749928
  0
LINE
  5
24D
100
AcDbEntity
  8
03__ASM_ALL_CURVES
100
AcDbLine
 62
40
  6
CONTINUOUS
 10
3.4912052148
 20
5.1708781178
 11
3.4982809961
 21
5.1803124973
  0
LINE
  5
24E
100
AcDbEntity
  8
03__ASM_ALL_CURVES
100
AcDbLine
 62
40
  6
CONTINUOUS
 10
3.4841294336
 20
5.1142718712
 11
3.4982809961
 21
5.1331406201
  0
LINE
  5
24F
100
AcDbEntity
  8
03__ASM_ALL_CURVES
100
AcDbLine
 62
40
  6
CONTINUOUS
 10
3.5478114648
 20
5.1614437451
 11
3.5407356836
 21
5.1520093723
  0
LINE
  5
250
100
AcDbEntity
  8
03__ASM_ALL_CURVES
100
AcDbLine
 62
40
  6
CONTINUOUS
 10
3.5548872461
 20
5.1048374951
 11
3.5407356836
 21
5.0859687454
  0
LINE
  5
251
100
AcDbEntity
  8
03__ASM_ALL_CURVES
100
AcDbLine
 62
40
  6
CONTINUOUS
 10
3.6397966211
 20
5.1897468701
 11
3.6256450586
 21
5.1708781178
  0
LINE
  5
252
100
AcDbEntity
  8
0
100
AcDbLine
 62
7
  6
CONTINUOUS
 10
3.2024333398
 20
3.6579973701
 11
3.1524333398
 21
3.7079973701
  0
LINE
  5
253
100
AcDbEntity
  8
03__ASM_ALL_CURVES
100
AcDbLine
 62
40
  6
CONTINUOUS
 10
3.6185692773
 20
5.1425749928
 11
3.6185692773
 21
5.123706244
  0
LINE
  5
254
100
AcDbEntity
  8
0
100
AcDbLine
 62
7
  6
CONTINUOUS
 10
3.6524333398
 20
3.6014973701
 11
3.6524333398
 21
4.4614973701
  0
LINE
  5
255
100
AcDbEntity
  8
0
100
AcDbLine
 62
7
  6
CONTINUOUS
 10
3.6864970057
 20
3.5424973701
 11
3.6864970057
 21
3.5433948976
  0
LINE
  5
256
100
AcDbEntity
  8
0
100
AcDbLine
 62
7
  6
CONTINUOUS
 10
3.6864970057
 20
3.7617998426
 11
3.6864970057
 21
3.8130924251
  0
LINE
  5
257
100
AcDbEntity
  8
0
100
AcDbLine
 62
7
  6
CONTINUOUS
 10
3.6864970057
 20
4.2499023151
 11
3.6864970057
 21
4.3011948976
  0
LINE
  5
258
100
AcDbEntity
  8
0
100
AcDbLine
 62
7
  6
CONTINUOUS
 10
3.6864970057
 20
4.5195998426
 11
3.6864970057
 21
4.5204973701
  0
LINE
  5
259
100
AcDbEntity
  8
03__ASM_ALL_CURVES
100
AcDbLine
 62
40
  6
CONTINUOUS
 10
3.7247059961
 20
5.1048374951
 11
3.7176302148
 21
5.0765343701
  0
LINE
  5
25A
100
AcDbEntity
  8
03__ASM_ALL_CURVES
100
AcDbLine
 62
40
  6
CONTINUOUS
 10
3.8308427148
 20
5.1520093723
 11
3.8379184961
 21
5.1708781178
  0
LINE
  5
25B
100
AcDbEntity
  8
03__ASM_ALL_CURVES
100
AcDbLine
 62
40
  6
CONTINUOUS
 10
3.8874489648
 20
5.1520093723
 11
3.8803731836
 21
5.1331406201
  0
LINE
  5
25C
100
AcDbEntity
  8
03__ASM_ALL_CURVES
100
AcDbLine
 62
40
  6
CONTINUOUS
 10
3.8874489648
 20
5.1142718712
 11
3.8803731836
 21
5.0954031207
  0
LINE
  5
25D
100
AcDbEntity
  8
03__ASM_ALL_CURVES
100
AcDbLine
 62
40
  6
CONTINUOUS
 10
3.7176302148
 20
5.1708781178
 11
3.7247059961
 21
5.1803124973
  0
LINE
  5
25E
100
AcDbEntity
  8
03__ASM_ALL_CURVES
100
AcDbLine
 62
40
  6
CONTINUOUS
 10
3.7388575586
 20
5.123706244
 11
3.7247059961
 21
5.1048374951
  0
LINE
  5
25F
100
AcDbEntity
  8
03__ASM_ALL_CURVES
100
AcDbLine
 62
40
  6
CONTINUOUS
 10
3.7742364648
 20
5.1520093723
 11
3.7671606836
 21
5.1425749928
  0
LINE
  5
260
100
AcDbEntity
  8
03__ASM_ALL_CURVES
100
AcDbLine
 62
40
  6
CONTINUOUS
 10
3.8379184961
 20
5.1708781178
 11
3.8449942773
 21
5.1803124973
  0
LINE
  5
261
100
AcDbEntity
  8
0
100
AcDbLine
 62
7
  6
CONTINUOUS
 10
3.6864970057
 20
3.5424973701
 11
3.6524333398
 21
3.6014973701
  0
LINE
  5
262
100
AcDbEntity
  8
03__ASM_ALL_CURVES
100
AcDbLine
 62
40
  6
CONTINUOUS
 10
3.7742364648
 20
5.1708781178
 11
3.7742364648
 21
5.1520093723
  0
LINE
  5
263
100
AcDbEntity
  8
03__ASM_ALL_CURVES
100
AcDbLine
 62
40
  6
CONTINUOUS
 10
3.8874489648
 20
5.1520093723
 11
3.8874489648
 21
5.1142718712
  0
LINE
  5
264
100
AcDbEntity
  8
03__ASM_ALL_CURVES
100
AcDbLine
 62
40
  6
CONTINUOUS
 10
4.0572677148
 20
5.1520093723
 11
4.0643434961
 21
5.1708781178
  0
LINE
  5
265
100
AcDbEntity
  8
03__ASM_ALL_CURVES
100
AcDbLine
 62
40
  6
CONTINUOUS
 10
4.1138739648
 20
5.1520093723
 11
4.1067981836
 21
5.1331406201
  0
LINE
  5
266
100
AcDbEntity
  8
03__ASM_ALL_CURVES
100
AcDbLine
 62
40
  6
CONTINUOUS
 10
4.1138739648
 20
5.1142718712
 11
4.1067981836
 21
5.0954031207
  0
LINE
  5
267
100
AcDbEntity
  8
0
100
AcDbLine
 62
7
  6
CONTINUOUS
 10
3.6861083649
 20
4.5198242245
 11
3.6524333398
 21
4.4614973701
  0
LINE
  5
268
100
AcDbEntity
  8
03__ASM_ALL_CURVES
100
AcDbLine
 62
40
  6
CONTINUOUS
 10
3.8803731836
 20
5.0954031207
 11
3.8732974023
 21
5.0859687454
  0
LINE
  5
269
100
AcDbEntity
  8
03__ASM_ALL_CURVES
100
AcDbLine
 62
40
  6
CONTINUOUS
 10
4.0643434961
 20
5.1708781178
 11
4.0714192773
 21
5.1803124973
  0
LINE
  5
26A
100
AcDbEntity
  8
0
100
AcDbLine
 62
7
  6
CONTINUOUS
 10
3.2024333398
 20
4.4049973701
 11
3.1524333398
 21
4.3549973701
  0
LINE
  5
26B
100
AcDbEntity
  8
03__ASM_ALL_CURVES
100
AcDbLine
 62
40
  6
CONTINUOUS
 10
3.4982809961
 20
5.1803124973
 11
3.5124325586
 21
5.1897468701
  0
LINE
  5
26C
100
AcDbEntity
  8
03__ASM_ALL_CURVES
100
AcDbLine
 62
40
  6
CONTINUOUS
 10
3.4982809961
 20
5.1331406201
 11
3.5124325586
 21
5.1425749928
  0
LINE
  5
26D
100
AcDbEntity
  8
03__ASM_ALL_CURVES
100
AcDbLine
 62
40
  6
CONTINUOUS
 10
3.5407356836
 20
5.1520093723
 11
3.5265841211
 21
5.1425749928
  0
LINE
  5
26E
100
AcDbEntity
  8
03__ASM_ALL_CURVES
100
AcDbLine
 62
40
  6
CONTINUOUS
 10
3.5407356836
 20
5.0859687454
 11
3.5265841211
 21
5.0765343701
  0
LINE
  5
26F
100
AcDbEntity
  8
03__ASM_ALL_CURVES
100
AcDbLine
 62
40
  6
CONTINUOUS
 10
3.7247059961
 20
5.1803124973
 11
3.7388575586
 21
5.1897468701
  0
LINE
  5
270
100
AcDbEntity
  8
03__ASM_ALL_CURVES
100
AcDbLine
 62
40
  6
CONTINUOUS
 10
3.6185692773
 20
5.123706244
 11
3.6256450586
 21
5.0954031207
  0
LINE
  5
271
100
AcDbEntity
  8
03__ASM_ALL_CURVES
100
AcDbLine
 62
40
  6
CONTINUOUS
 10
3.9652825586
 20
5.0765343701
 11
3.9652825586
 21
5.0859687454
  0
LINE
  5
272
100
AcDbEntity
  8
0
100
AcDbLine
 62
7
  6
CONTINUOUS
 10
4.0599333398
 20
3.5424973701
 11
4.0599333398
 21
3.5433948976
  0
LINE
  5
273
100
AcDbEntity
  8
0
100
AcDbLine
 62
7
  6
CONTINUOUS
 10
4.0599333398
 20
3.7617998426
 11
4.0599333398
 21
3.8130924251
  0
LINE
  5
274
100
AcDbEntity
  8
0
100
AcDbLine
 62
7
  6
CONTINUOUS
 10
4.0599333398
 20
4.2499023151
 11
4.0599333398
 21
4.3011948976
  0
LINE
  5
275
100
AcDbEntity
  8
0
100
AcDbLine
 62
7
  6
CONTINUOUS
 10
4.0599333398
 20
4.5195998426
 11
4.0599333398
 21
4.5204973701
  0
LINE
  5
276
100
AcDbEntity
  8
03__ASM_ALL_CURVES
100
AcDbLine
 62
40
  6
CONTINUOUS
 10
4.1138739648
 20
5.1520093723
 11
4.1138739648
 21
5.1142718712
  0
LINE
  5
277
100
AcDbEntity
  8
0
100
AcDbLine
 62
7
  6
CONTINUOUS
 10
4.1204333398
 20
3.6029973701
 11
4.1204333398
 21
4.4599973701
  0
LINE
  5
278
100
AcDbEntity
  8
03__ASM_ALL_CURVES
100
AcDbLine
 62
40
  6
CONTINUOUS
 10
4.1987833398
 20
5.0765343701
 11
4.2058591211
 21
5.123706244
  0
LINE
  5
279
100
AcDbEntity
  8
03__ASM_ALL_CURVES
100
AcDbLine
 62
40
  6
CONTINUOUS
 10
4.2058591211
 20
5.123706244
 11
4.2129349023
 21
5.1520093723
  0
LINE
  5
27A
100
AcDbEntity
  8
03__ASM_ALL_CURVES
100
AcDbLine
 62
40
  6
CONTINUOUS
 10
4.2129349023
 20
5.1520093723
 11
4.2270864648
 21
5.1897468701
  0
LINE
  5
27B
100
AcDbEntity
  8
03__ASM_ALL_CURVES
100
AcDbLine
 62
40
  6
CONTINUOUS
 10
4.1067981836
 20
5.0954031207
 11
4.0997224023
 21
5.0859687454
  0
LINE
  5
27C
100
AcDbEntity
  8
03__ASM_ALL_CURVES
100
AcDbLine
 62
40
  6
CONTINUOUS
 10
4.3190716211
 20
5.0954031207
 11
4.3049200586
 21
5.0765343701
  0
LINE
  5
27D
100
AcDbEntity
  8
03__ASM_ALL_CURVES
100
AcDbLine
 62
40
  6
CONTINUOUS
 10
3.7671606836
 20
5.1425749928
 11
3.7388575586
 21
5.123706244
  0
LINE
  5
27E
100
AcDbEntity
  8
03__ASM_ALL_CURVES
100
AcDbLine
 62
40
  6
CONTINUOUS
 10
3.8449942773
 20
5.1803124973
 11
3.8591458398
 21
5.1897468701
  0
LINE
  5
27F
100
AcDbEntity
  8
03__ASM_ALL_CURVES
100
AcDbLine
 62
40
  6
CONTINUOUS
 10
3.8732974023
 20
5.0859687454
 11
3.8591458398
 21
5.0765343701
  0
LINE
  5
280
100
AcDbEntity
  8
03__ASM_ALL_CURVES
100
AcDbLine
 62
40
  6
CONTINUOUS
 10
4.0714192773
 20
5.1803124973
 11
4.0855708398
 21
5.1897468701
  0
LINE
  5
281
100
AcDbEntity
  8
03__ASM_ALL_CURVES
100
AcDbLine
 62
40
  6
CONTINUOUS
 10
4.2035783398
 20
5.0538918701
 11
4.2035783398
 21
5.0086068701
  0
LINE
  5
282
100
AcDbEntity
  8
0
100
AcDbLine
 62
7
  6
CONTINUOUS
 10
4.2664333398
 20
3.6029973701
 11
4.2664333398
 21
4.4599973701
  0
LINE
  5
283
100
AcDbEntity
  8
0
100
AcDbLine
 62
7
  6
CONTINUOUS
 10
4.2749553778
 20
3.6123448226
 11
4.2749553778
 21
4.4506499176
  0
LINE
  5
284
100
AcDbEntity
  8
0
100
AcDbLine
 62
7
  6
CONTINUOUS
 10
4.2779113018
 20
3.6123448226
 11
4.2779113018
 21
4.4506499176
  0
LINE
  5
285
100
AcDbEntity
  8
0
100
AcDbLine
 62
7
  6
CONTINUOUS
 10
4.2864333398
 20
3.6029973701
 11
4.2864333398
 21
4.4599973701
  0
LINE
  5
286
100
AcDbEntity
  8
03__ASM_ALL_CURVES
100
AcDbLine
 62
40
  6
CONTINUOUS
 10
4.3261474023
 20
5.1425749928
 11
4.3261474023
 21
5.123706244
  0
LINE
  5
287
100
AcDbEntity
  8
03__ASM_ALL_CURVES
100
AcDbLine
 62
40
  6
CONTINUOUS
 10
4.3261474023
 20
5.123706244
 11
4.3190716211
 21
5.0954031207
  0
LINE
  5
288
100
AcDbEntity
  8
03__ASM_ALL_CURVES
100
AcDbLine
 62
40
  6
CONTINUOUS
 10
4.0997224023
 20
5.0859687454
 11
4.0855708398
 21
5.0765343701
  0
LINE
  5
289
100
AcDbEntity
  8
03__ASM_ALL_CURVES
100
AcDbLine
 62
40
  6
CONTINUOUS
 10
3.8803731836
 20
5.1331406201
 11
3.8591458398
 21
5.123706244
  0
LINE
  5
28A
100
AcDbEntity
  8
0
100
AcDbLine
 62
7
  6
CONTINUOUS
 10
4.2864333398
 20
3.6029973701
 11
4.2779113018
 21
3.6123448226
  0
LINE
  5
28B
100
AcDbEntity
  8
03__ASM_ALL_CURVES
100
AcDbLine
 62
40
  6
CONTINUOUS
 10
3.2860075586
 20
5.0859687454
 11
3.2930833398
 21
5.0765343701
  0
LINE
  5
28C
100
AcDbEntity
  8
03__ASM_ALL_CURVES
100
AcDbLine
 62
40
  6
CONTINUOUS
 10
3.8379184961
 20
5.1331406201
 11
3.8308427148
 21
5.1520093723
  0
LINE
  5
28D
100
AcDbEntity
  8
03__ASM_ALL_CURVES
100
AcDbLine
 62
40
  6
CONTINUOUS
 10
3.8803731836
 20
5.1708781178
 11
3.8874489648
 21
5.1520093723
  0
LINE
  5
28E
100
AcDbEntity
  8
0
100
AcDbLine
 62
7
  6
CONTINUOUS
 10
4.3394333398
 20
3.6029973701
 11
4.3394333398
 21
4.4599973701
  0
LINE
  5
28F
100
AcDbEntity
  8
03__ASM_ALL_CURVES
100
AcDbLine
 62
40
  6
CONTINUOUS
 10
4.3394333398
 20
4.4826398701
 11
4.3394333398
 21
5.0765343701
  0
LINE
  5
290
100
AcDbEntity
  8
THREAD
100
AcDbLine
 62
7
  6
CONTINUOUS
 10
4.3550217971
 20
3.6264973701
 11
4.3550217971
 21
4.4364973701
  0
LINE
  5
291
100
AcDbEntity
  8
THREAD
100
AcDbLine
 62
7
  6
CONTINUOUS
 10
4.3864333398
 20
3.6264973701
 11
4.3864333398
 21
4.4364973701
  0
LINE
  5
292
100
AcDbEntity
  8
0
100
AcDbLine
 62
7
  6
CONTINUOUS
 10
4.4564333398
 20
3.6269979851
 11
4.4564333398
 21
4.4359967551
  0
LINE
  5
293
100
AcDbEntity
  8
03__ASM_ALL_CURVES
100
AcDbLine
 62
40
  6
CONTINUOUS
 10
4.4752883398
 20
5.0538918701
 11
4.4752883398
 21
5.0086068701
  0
LINE
  5
294
100
AcDbEntity
  8
0
100
AcDbLine
 62
7
  6
CONTINUOUS
 10
4.5064333398
 20
3.6269979851
 11
4.5064333398
 21
4.4359967551
  0
LINE
  5
295
100
AcDbEntity
  8
03__ASM_ALL_CURVES
100
AcDbLine
 62
40
  6
CONTINUOUS
 10
4.6196342764
 20
5.1331406201
 11
4.6267100577
 21
5.1614437451
  0
LINE
  5
296
100
AcDbEntity
  8
03__ASM_ALL_CURVES
100
AcDbLine
 62
40
  6
CONTINUOUS
 10
4.6267100577
 20
5.1614437451
 11
4.6408616202
 21
5.1803124973
  0
LINE
  5
297
100
AcDbEntity
  8
03__ASM_ALL_CURVES
100
AcDbLine
 62
40
  6
CONTINUOUS
 10
4.6974678702
 20
5.1048374951
 11
4.6833163077
 21
5.0859687454
  0
LINE
  5
298
100
AcDbEntity
  8
03__ASM_ALL_CURVES
100
AcDbLine
 62
40
  6
CONTINUOUS
 10
4.7399225577
 20
5.1614437451
 11
4.7540741202
 21
5.1803124973
  0
LINE
  5
299
100
AcDbEntity
  8
03__ASM_ALL_CURVES
100
AcDbLine
 62
40
  6
CONTINUOUS
 10
4.8036045889
 20
5.0954031207
 11
4.7965288077
 21
5.0859687454
  0
LINE
  5
29A
100
AcDbEntity
  8
03__ASM_ALL_CURVES
100
AcDbLine
 62
40
  6
CONTINUOUS
 10
4.6408616202
 20
5.1803124973
 11
4.6550131827
 21
5.1897468701
  0
LINE
  5
29B
100
AcDbEntity
  8
03__ASM_ALL_CURVES
100
AcDbLine
 62
40
  6
CONTINUOUS
 10
4.7540741202
 20
5.1803124973
 11
4.7682256827
 21
5.1897468701
  0
LINE
  5
29C
100
AcDbEntity
  8
03__ASM_ALL_CURVES
100
AcDbLine
 62
40
  6
CONTINUOUS
 10
4.6833163077
 20
5.0859687454
 11
4.6691647452
 21
5.0765343701
  0
LINE
  5
29D
100
AcDbEntity
  8
03__ASM_ALL_CURVES
100
AcDbLine
 62
40
  6
CONTINUOUS
 10
4.1067981836
 20
5.1331406201
 11
4.0855708398
 21
5.123706244
  0
LINE
  5
29E
100
AcDbEntity
  8
03__ASM_ALL_CURVES
100
AcDbLine
 62
40
  6
CONTINUOUS
 10
3.4982809961
 20
5.0859687454
 11
3.4841294336
 21
5.1048374951
  0
LINE
  5
29F
100
AcDbEntity
  8
03__ASM_ALL_CURVES
100
AcDbLine
 62
40
  6
CONTINUOUS
 10
3.4982809961
 20
5.1520093723
 11
3.4912052148
 21
5.1614437451
  0
LINE
  5
2A0
100
AcDbEntity
  8
03__ASM_ALL_CURVES
100
AcDbLine
 62
40
  6
CONTINUOUS
 10
3.5407356836
 20
5.1331406201
 11
3.5548872461
 21
5.1142718712
  0
LINE
  5
2A1
100
AcDbEntity
  8
THREAD
100
AcDbLine
 62
7
  6
CONTINUOUS
 10
4.5477952998
 20
3.6439973701
 11
4.5287427409
 21
3.6769973701
  0
LINE
  5
2A2
100
AcDbEntity
  8
03__ASM_ALL_CURVES
100
AcDbLine
 62
40
  6
CONTINUOUS
 10
4.0643434961
 20
5.1331406201
 11
4.0572677148
 21
5.1520093723
  0
LINE
  5
2A3
100
AcDbEntity
  8
03__ASM_ALL_CURVES
100
AcDbLine
 62
40
  6
CONTINUOUS
 10
4.5205733389
 20
5.1897468701
 11
4.5205733389
 21
5.0765343701
  0
LINE
  5
2A4
100
AcDbEntity
  8
0
100
AcDbLine
 62
7
  6
CONTINUOUS
 10
4.5218145377
 20
3.6809973701
 11
4.5218145377
 21
4.3819973701
  0
LINE
  5
2A5
100
AcDbEntity
  8
0
100
AcDbLine
 62
7
  6
CONTINUOUS
 10
4.5287427409
 20
3.6769973701
 11
4.5287427409
 21
4.3859973701
  0
LINE
  5
2A6
100
AcDbEntity
  8
THREAD
100
AcDbLine
 62
7
  6
CONTINUOUS
 10
4.5477952998
 20
3.6439973701
 11
4.5477952998
 21
4.4189973701
  0
LINE
  5
2A7
100
AcDbEntity
  8
03__ASM_ALL_CURVES
100
AcDbLine
 62
40
  6
CONTINUOUS
 10
4.7045436514
 20
5.1331406201
 11
4.6974678702
 21
5.1048374951
  0
LINE
  5
2A8
100
AcDbEntity
  8
03__ASM_ALL_CURVES
100
AcDbLine
 62
40
  6
CONTINUOUS
 10
4.7328467764
 20
5.1331406201
 11
4.7399225577
 21
5.1614437451
  0
LINE
  5
2A9
100
AcDbEntity
  8
03__ASM_ALL_CURVES
100
AcDbLine
 62
40
  6
CONTINUOUS
 10
4.8531350577
 20
5.0765343701
 11
4.8885139639
 21
5.1897468701
  0
LINE
  5
2AA
100
AcDbEntity
  8
THREAD
100
AcDbLine
 62
7
  6
CONTINUOUS
 10
4.5477952998
 20
4.4189973701
 11
4.5287427409
 21
4.3859973701
  0
LINE
  5
2AB
100
AcDbEntity
  8
0
100
AcDbLine
 62
7
  6
CONTINUOUS
 10
4.2864333398
 20
4.4599973701
 11
4.2779113018
 21
4.4506499176
  0
LINE
  5
2AC
100
AcDbEntity
  8
03__ASM_ALL_CURVES
100
AcDbLine
 62
40
  6
CONTINUOUS
 10
4.7965288077
 20
5.0859687454
 11
4.7823772452
 21
5.0765343701
  0
LINE
  5
2AD
100
AcDbEntity
  8
03__ASM_ALL_CURVES
100
AcDbLine
 62
40
  6
CONTINUOUS
 10
3.5407356836
 20
5.1803124973
 11
3.5478114648
 21
5.1708781178
  0
LINE
  5
2AE
100
AcDbEntity
  8
03__ASM_ALL_CURVES
100
AcDbLine
 62
40
  6
CONTINUOUS
 10
3.6256450586
 20
5.0954031207
 11
3.6397966211
 21
5.0765343701
  0
LINE
  5
2AF
100
AcDbEntity
  8
03__ASM_ALL_CURVES
100
AcDbLine
 62
40
  6
CONTINUOUS
 10
4.1067981836
 20
5.1708781178
 11
4.1138739648
 21
5.1520093723
  0
LINE
  5
2B0
100
AcDbEntity
  8
03__ASM_ALL_CURVES
100
AcDbLine
 62
40
  6
CONTINUOUS
 10
4.3190716211
 20
5.1708781178
 11
4.3261474023
 21
5.1425749928
  0
LINE
  5
2B1
100
AcDbEntity
  8
THREAD
100
AcDbLine
 62
7
  6
CONTINUOUS
 10
4.7949333398
 20
3.6439973701
 11
4.7949333398
 21
4.4189973701
  0
LINE
  5
2B2
100
AcDbEntity
  8
THREAD
100
AcDbLine
 62
7
  6
CONTINUOUS
 10
4.8394333398
 20
3.6884973701
 11
4.8394333398
 21
4.3744973701
  0
LINE
  5
2B3
100
AcDbEntity
  8
03__ASM_ALL_CURVES
100
AcDbLine
 62
40
  6
CONTINUOUS
 10
5.3059850577
 20
5.1614437451
 11
5.3201366202
 21
5.1803124973
  0
LINE
  5
2B4
100
AcDbEntity
  8
03__ASM_ALL_CURVES
100
AcDbLine
 62
40
  6
CONTINUOUS
 10
5.3201366202
 20
5.1803124973
 11
5.3342881827
 21
5.1897468701
  0
LINE
  5
2B5
100
AcDbEntity
  8
03__ASM_ALL_CURVES
100
AcDbLine
 62
40
  6
CONTINUOUS
 10
5.3625913077
 20
5.0859687454
 11
5.3484397452
 21
5.0765343701
  0
LINE
  5
2B6
100
AcDbEntity
  8
03__ASM_ALL_CURVES
100
AcDbLine
 62
40
  6
CONTINUOUS
 10
5.1965637145
 20
3.3845879951
 11
5.1859500426
 21
3.3916637766
  0
LINE
  5
2B7
100
AcDbEntity
  8
03__ASM_ALL_CURVES
100
AcDbLine
 62
40
  6
CONTINUOUS
 10
5.1222680113
 20
3.4694973701
 11
5.1328816832
 21
3.4624215905
  0
LINE
  5
2B8
100
AcDbEntity
  8
03__ASM_ALL_CURVES
100
AcDbLine
 62
40
  6
CONTINUOUS
 10
5.2071773863
 20
3.4694973701
 11
5.2177910582
 21
3.4624215905
  0
LINE
  5
2B9
100
AcDbEntity
  8
03__ASM_ALL_CURVES
100
AcDbLine
 62
40
  6
CONTINUOUS
 10
5.2920867613
 20
3.4694973701
 11
5.3027004332
 21
3.4624215905
  0
LINE
  5
2BA
100
AcDbEntity
  8
0
100
AcDbLine
 62
7
  6
CONTINUOUS
 10
4.1204333398
 20
4.4599973701
 11
4.0603821036
 21
4.5200486063
  0
LINE
  5
2BB
100
AcDbEntity
  8
0
100
AcDbLine
 62
7
  6
CONTINUOUS
 10
4.2749553778
 20
4.4506499176
 11
4.2664333398
 21
4.4599973701
  0
LINE
  5
2BC
100
AcDbEntity
  8
03__ASM_ALL_CURVES
100
AcDbLine
 62
40
  6
CONTINUOUS
 10
3.7671606836
 20
5.1803124973
 11
3.7742364648
 21
5.1708781178
  0
LINE
  5
2BD
100
AcDbEntity
  8
03__ASM_ALL_CURVES
100
AcDbLine
 62
40
  6
CONTINUOUS
 10
3.8449942773
 20
5.0859687454
 11
3.8379184961
 21
5.0954031207
  0
LINE
  5
2BE
100
AcDbEntity
  8
03__ASM_ALL_CURVES
100
AcDbLine
 62
40
  6
CONTINUOUS
 10
5.1328816832
 20
3.4624215905
 11
5.1381885192
 21
3.4553458059
  0
LINE
  5
2BF
100
AcDbEntity
  8
03__ASM_ALL_CURVES
100
AcDbLine
 62
40
  6
CONTINUOUS
 10
5.1859500426
 20
3.3916637766
 11
5.1753363707
 21
3.4058153388
  0
LINE
  5
2C0
100
AcDbEntity
  8
03__ASM_ALL_CURVES
100
AcDbLine
 62
40
  6
CONTINUOUS
 10
3.8732974023
 20
5.1803124973
 11
3.8803731836
 21
5.1708781178
  0
LINE
  5
2C1
100
AcDbEntity
  8
03__ASM_ALL_CURVES
100
AcDbLine
 62
40
  6
CONTINUOUS
 10
3.9652825586
 20
5.0859687454
 11
3.9723583398
 21
5.0765343701
  0
LINE
  5
2C2
100
AcDbEntity
  8
03__ASM_ALL_CURVES
100
AcDbLine
 62
40
  6
CONTINUOUS
 10
5.2177910582
 20
3.4624215905
 11
5.2284047301
 21
3.4482700263
  0
LINE
  5
2C3
100
AcDbEntity
  8
03__ASM_ALL_CURVES
100
AcDbLine
 62
40
  6
CONTINUOUS
 10
4.6267100577
 20
5.1048374951
 11
4.6196342764
 21
5.1331406201
  0
LINE
  5
2C4
100
AcDbEntity
  8
03__ASM_ALL_CURVES
100
AcDbLine
 62
40
  6
CONTINUOUS
 10
5.0017264639
 20
5.1897468701
 11
5.0017264639
 21
5.0765343701
  0
LINE
  5
2C5
100
AcDbEntity
  8
0
100
AcDbLine
 62
7
  6
CONTINUOUS
 10
5.0174333398
 20
3.6884973701
 11
5.0174333398
 21
4.3744973701
  0
LINE
  5
2C6
100
AcDbEntity
  8
0
100
AcDbLine
 62
7
  6
CONTINUOUS
 10
5.0274333398
 20
3.6984973701
 11
5.0274333398
 21
4.3644973701
  0
LINE
  5
2C7
100
AcDbEntity
  8
03__ASM_ALL_CURVES
100
AcDbLine
 62
40
  6
CONTINUOUS
 10
5.3696670889
 20
5.0954031207
 11
5.3625913077
 21
5.0859687454
  0
LINE
  5
2C8
100
AcDbEntity
  8
03__ASM_ALL_CURVES
100
AcDbLine
 62
40
  6
CONTINUOUS
 10
5.5465616202
 20
5.1803124973
 11
5.5394858389
 21
5.1708781178
  0
LINE
  5
2C9
100
AcDbEntity
  8
03__ASM_ALL_CURVES
100
AcDbLine
 62
40
  6
CONTINUOUS
 10
5.5607131827
 20
5.1897468701
 11
5.5465616202
 21
5.1803124973
  0
LINE
  5
2CA
100
AcDbEntity
  8
03__ASM_ALL_CURVES
100
AcDbLine
 62
40
  6
CONTINUOUS
 10
5.5890163077
 20
5.0859687454
 11
5.5748647452
 21
5.0765343701
  0
LINE
  5
2CB
100
AcDbEntity
  8
03__ASM_ALL_CURVES
100
AcDbLine
 62
40
  6
CONTINUOUS
 10
5.7729866202
 20
5.1803124973
 11
5.7871381827
 21
5.1897468701
  0
LINE
  5
2CC
100
AcDbEntity
  8
03__ASM_ALL_CURVES
100
AcDbLine
 62
40
  6
CONTINUOUS
 10
7.0478307765
 20
3.3845879951
 11
7.0372171046
 21
3.3845879951
  0
LINE
  5
2CD
100
AcDbEntity
  8
03__ASM_ALL_CURVES
100
AcDbLine
 62
40
  6
CONTINUOUS
 10
6.4129055411
 20
3.3845879951
 11
6.4022918693
 21
3.3845879951
  0
LINE
  5
2CE
100
AcDbEntity
  8
03__ASM_ALL_CURVES
100
AcDbLine
 62
40
  6
CONTINUOUS
 10
6.1581774161
 20
3.3845879951
 11
6.1475637443
 21
3.3845879951
  0
LINE
  5
2CF
100
AcDbEntity
  8
03__ASM_ALL_CURVES
100
AcDbLine
 62
40
  6
CONTINUOUS
 10
5.2071773863
 20
3.3845879951
 11
5.1965637145
 21
3.3845879951
  0
LINE
  5
2D0
100
AcDbEntity
  8
03__ASM_ALL_CURVES
100
AcDbLine
 62
40
  6
CONTINUOUS
 10
7.2760247218
 20
3.3845879951
 11
7.3184794093
 21
3.3845879951
  0
LINE
  5
2D1
100
AcDbEntity
  8
03__ASM_ALL_CURVES
100
AcDbLine
 62
40
  6
CONTINUOUS
 10
5.4353713317
 20
3.4058153388
 11
5.4831328551
 21
3.4058153388
  0
LINE
  5
2D2
100
AcDbEntity
  8
03__ASM_ALL_CURVES
100
AcDbLine
 62
40
  6
CONTINUOUS
 10
7.1327401515
 20
3.4270426826
 11
7.1062059718
 21
3.4270426826
  0
LINE
  5
2D3
100
AcDbEntity
  8
03__ASM_ALL_CURVES
100
AcDbLine
 62
40
  6
CONTINUOUS
 10
6.9629214015
 20
3.4270426826
 11
6.9363872218
 21
3.4270426826
  0
LINE
  5
2D4
100
AcDbEntity
  8
03__ASM_ALL_CURVES
100
AcDbLine
 62
40
  6
CONTINUOUS
 10
6.2430867911
 20
3.4270426826
 11
6.2165526115
 21
3.4270426826
  0
LINE
  5
2D5
100
AcDbEntity
  8
03__ASM_ALL_CURVES
100
AcDbLine
 62
40
  6
CONTINUOUS
 10
6.0732680411
 20
3.4270426826
 11
6.0467338615
 21
3.4270426826
  0
LINE
  5
2D6
100
AcDbEntity
  8
03__ASM_ALL_CURVES
100
AcDbLine
 62
40
  6
CONTINUOUS
 10
5.2920867613
 20
3.4270426826
 11
5.2655525817
 21
3.4270426826
  0
LINE
  5
2D7
100
AcDbEntity
  8
03__ASM_ALL_CURVES
100
AcDbLine
 62
40
  6
CONTINUOUS
 10
5.1222680113
 20
3.4270426826
 11
5.0957338317
 21
3.4270426826
  0
LINE
  5
2D8
100
AcDbEntity
  8
03__ASM_ALL_CURVES
100
AcDbLine
 62
40
  6
CONTINUOUS
 10
6.4022918693
 20
3.4341184622
 11
6.4129055411
 21
3.4341184622
  0
LINE
  5
2D9
100
AcDbEntity
  8
03__ASM_ALL_CURVES
100
AcDbLine
 62
40
  6
CONTINUOUS
 10
5.0957338317
 20
3.4694973701
 11
5.1222680113
 21
3.4694973701
  0
LINE
  5
2DA
100
AcDbEntity
  8
03__ASM_ALL_CURVES
100
AcDbLine
 62
40
  6
CONTINUOUS
 10
5.1965637145
 20
3.4694973701
 11
5.2071773863
 21
3.4694973701
  0
LINE
  5
2DB
100
AcDbEntity
  8
03__ASM_ALL_CURVES
100
AcDbLine
 62
40
  6
CONTINUOUS
 10
5.2655525817
 20
3.4694973701
 11
5.2920867613
 21
3.4694973701
  0
LINE
  5
2DC
100
AcDbEntity
  8
03__ASM_ALL_CURVES
100
AcDbLine
 62
40
  6
CONTINUOUS
 10
5.3451551207
 20
3.4694973701
 11
5.3982234801
 21
3.4694973701
  0
LINE
  5
2DD
100
AcDbEntity
  8
03__ASM_ALL_CURVES
100
AcDbLine
 62
40
  6
CONTINUOUS
 10
6.0467338615
 20
3.4694973701
 11
6.0732680411
 21
3.4694973701
  0
LINE
  5
2DE
100
AcDbEntity
  8
03__ASM_ALL_CURVES
100
AcDbLine
 62
40
  6
CONTINUOUS
 10
6.1475637443
 20
3.4694973701
 11
6.1581774161
 21
3.4694973701
  0
LINE
  5
2DF
100
AcDbEntity
  8
03__ASM_ALL_CURVES
100
AcDbLine
 62
40
  6
CONTINUOUS
 10
6.2165526115
 20
3.4694973701
 11
6.2430867911
 21
3.4694973701
  0
LINE
  5
2E0
100
AcDbEntity
  8
03__ASM_ALL_CURVES
100
AcDbLine
 62
40
  6
CONTINUOUS
 10
6.2961551505
 20
3.4694973701
 11
6.3492235099
 21
3.4694973701
  0
LINE
  5
2E1
100
AcDbEntity
  8
03__ASM_ALL_CURVES
100
AcDbLine
 62
40
  6
CONTINUOUS
 10
6.4022918693
 20
3.4694973701
 11
6.4129055411
 21
3.4694973701
  0
LINE
  5
2E2
100
AcDbEntity
  8
03__ASM_ALL_CURVES
100
AcDbLine
 62
40
  6
CONTINUOUS
 10
6.9363872218
 20
3.4694973701
 11
6.9629214015
 21
3.4694973701
  0
LINE
  5
2E3
100
AcDbEntity
  8
03__ASM_ALL_CURVES
100
AcDbLine
 62
40
  6
CONTINUOUS
 10
7.0372171046
 20
3.4694973701
 11
7.0478307765
 21
3.4694973701
  0
LINE
  5
2E4
100
AcDbEntity
  8
03__ASM_ALL_CURVES
100
AcDbLine
 62
40
  6
CONTINUOUS
 10
7.1062059718
 20
3.4694973701
 11
7.1327401515
 21
3.4694973701
  0
LINE
  5
2E5
100
AcDbEntity
  8
03__ASM_ALL_CURVES
100
AcDbLine
 62
40
  6
CONTINUOUS
 10
7.1858085109
 20
3.4694973701
 11
7.2388768703
 21
3.4694973701
  0
LINE
  5
2E6
100
AcDbEntity
  8
03__ASM_ALL_CURVES
100
AcDbLine
 62
40
  6
CONTINUOUS
 10
7.2919452296
 20
3.4694973701
 11
7.3025589015
 21
3.4694973701
  0
LINE
  5
2E7
100
AcDbEntity
  8
0
100
AcDbLine
 62
7
  6
CONTINUOUS
 10
4.0599333398
 20
3.5424973701
 11
3.6864970057
 21
3.5424973701
  0
LINE
  5
2E8
100
AcDbEntity
  8
0
100
AcDbLine
 62
7
  6
CONTINUOUS
 10
4.0599333398
 20
3.5433948976
 11
3.6864970057
 21
3.5433948976
  0
LINE
  5
2E9
100
AcDbEntity
  8
03__ASM_ALL_CURVES
100
AcDbLine
 62
40
  6
CONTINUOUS
 10
4.0714192773
 20
5.0859687454
 11
4.0643434961
 21
5.0954031207
  0
LINE
  5
2EA
100
AcDbEntity
  8
03__ASM_ALL_CURVES
100
AcDbLine
 62
40
  6
CONTINUOUS
 10
5.3027004332
 20
3.4624215905
 11
5.3080072692
 21
3.4553458059
  0
LINE
  5
2EB
100
AcDbEntity
  8
03__ASM_ALL_CURVES
100
AcDbLine
 62
40
  6
CONTINUOUS
 10
4.0997224023
 20
5.1803124973
 11
4.1067981836
 21
5.1708781178
  0
LINE
  5
2EC
100
AcDbEntity
  8
03__ASM_ALL_CURVES
100
AcDbLine
 62
40
  6
CONTINUOUS
 10
5.2920867613
 20
3.4270426826
 11
5.3080072692
 21
3.3845879951
  0
LINE
  5
2ED
100
AcDbEntity
  8
03__ASM_ALL_CURVES
100
AcDbLine
 62
40
  6
CONTINUOUS
 10
4.6974678702
 20
5.1614437451
 11
4.7045436514
 21
5.1331406201
  0
LINE
  5
2EE
100
AcDbEntity
  8
03__ASM_ALL_CURVES
100
AcDbLine
 62
40
  6
CONTINUOUS
 10
4.7399225577
 20
5.1048374951
 11
4.7328467764
 21
5.1331406201
  0
LINE
  5
2EF
100
AcDbEntity
  8
03__ASM_ALL_CURVES
100
AcDbLine
 62
40
  6
CONTINUOUS
 10
5.1753363707
 20
3.4058153388
 11
5.1700295348
 21
3.4270426826
  0
LINE
  5
2F0
100
AcDbEntity
  8
03__ASM_ALL_CURVES
100
AcDbLine
 62
40
  6
CONTINUOUS
 10
5.2284047301
 20
3.4482700263
 11
5.233711566
 21
3.4270426826
  0
LINE
  5
2F1
100
AcDbEntity
  8
03__ASM_ALL_CURVES
100
AcDbLine
 62
40
  6
CONTINUOUS
 10
5.0957338317
 20
3.3845879951
 11
5.0957338317
 21
3.4694973701
  0
LINE
  5
2F2
100
AcDbEntity
  8
03__ASM_ALL_CURVES
100
AcDbLine
 62
40
  6
CONTINUOUS
 10
5.1149389639
 20
5.1897468701
 11
5.1149389639
 21
5.0765343701
  0
LINE
  5
2F3
100
AcDbEntity
  8
03__ASM_ALL_CURVES
100
AcDbLine
 62
40
  6
CONTINUOUS
 10
5.1381885192
 20
3.4553458059
 11
5.1381885192
 21
3.4411942468
  0
LINE
  5
2F4
100
AcDbEntity
  8
03__ASM_ALL_CURVES
100
AcDbLine
 62
40
  6
CONTINUOUS
 10
5.1998483389
 20
5.0765343701
 11
5.1998483389
 21
5.1897468701
  0
LINE
  5
2F5
100
AcDbEntity
  8
03__ASM_ALL_CURVES
100
AcDbLine
 62
40
  6
CONTINUOUS
 10
5.2564545889
 20
5.0765343701
 11
5.2564545889
 21
5.1897468701
  0
LINE
  5
2F6
100
AcDbEntity
  8
03__ASM_ALL_CURVES
100
AcDbLine
 62
40
  6
CONTINUOUS
 10
5.2655525817
 20
3.3845879951
 11
5.2655525817
 21
3.4694973701
  0
LINE
  5
2F7
100
AcDbEntity
  8
03__ASM_ALL_CURVES
100
AcDbLine
 62
40
  6
CONTINUOUS
 10
5.2989092764
 20
5.1331406201
 11
5.3059850577
 21
5.1614437451
  0
LINE
  5
2F8
100
AcDbEntity
  8
03__ASM_ALL_CURVES
100
AcDbLine
 62
40
  6
CONTINUOUS
 10
5.5960920889
 20
5.0954031207
 11
5.5890163077
 21
5.0859687454
  0
LINE
  5
2F9
100
AcDbEntity
  8
03__ASM_ALL_CURVES
100
AcDbLine
 62
40
  6
CONTINUOUS
 10
5.7588350577
 20
5.1614437451
 11
5.7729866202
 21
5.1803124973
  0
LINE
  5
2FA
100
AcDbEntity
  8
0
100
AcDbLine
 62
7
  6
CONTINUOUS
 10
4.2749553778
 20
3.6123448226
 11
4.2664333398
 21
3.6029973701
  0
LINE
  5
2FB
100
AcDbEntity
  8
0
100
AcDbLine
 62
7
  6
CONTINUOUS
 10
4.1204333398
 20
3.6029973701
 11
4.0603821036
 21
3.5429461338
  0
LINE
  5
2FC
100
AcDbEntity
  8
03__ASM_ALL_CURVES
100
AcDbLine
 62
40
  6
CONTINUOUS
 10
5.8154413077
 20
5.0859687454
 11
5.8012897452
 21
5.0765343701
  0
LINE
  5
2FD
100
AcDbEntity
  8
03__ASM_ALL_CURVES
100
AcDbLine
 62
40
  6
CONTINUOUS
 10
5.9286538077
 20
5.0859687454
 11
5.9145022452
 21
5.0765343701
  0
LINE
  5
2FE
100
AcDbEntity
  8
0
100
AcDbLine
 62
7
  6
CONTINUOUS
 10
4.3394333398
 20
3.6029973701
 11
4.2864333398
 21
3.6029973701
  0
LINE
  5
2FF
100
AcDbEntity
  8
0
100
AcDbLine
 62
7
  6
CONTINUOUS
 10
4.2664333398
 20
3.6029973701
 11
4.1204333398
 21
3.6029973701
  0
LINE
  5
300
100
AcDbEntity
  8
THREAD
100
AcDbLine
 62
7
  6
CONTINUOUS
 10
4.3864333398
 20
3.6264973701
 11
4.3550217971
 21
3.6264973701
  0
LINE
  5
301
100
AcDbEntity
  8
0
100
AcDbLine
 62
7
  6
CONTINUOUS
 10
4.4564333398
 20
3.6269973701
 11
4.5064333398
 21
3.6269973701
  0
LINE
  5
302
100
AcDbEntity
  8
THREAD
100
AcDbLine
 62
7
  6
CONTINUOUS
 10
4.7949333398
 20
3.6439973701
 11
4.5477952998
 21
3.6439973701
  0
LINE
  5
303
100
AcDbEntity
  8
0
100
AcDbLine
 62
7
  6
CONTINUOUS
 10
3.6524333398
 20
3.6579973701
 11
3.2024333398
 21
3.6579973701
  0
LINE
  5
304
100
AcDbEntity
  8
THREAD
100
AcDbLine
 62
7
  6
CONTINUOUS
 10
4.5218145377
 20
3.6809973701
 11
4.5064333398
 21
3.6809973701
  0
LINE
  5
305
100
AcDbEntity
  8
0
100
AcDbLine
 62
7
  6
CONTINUOUS
 10
5.5289333398
 20
3.6844973701
 11
5.5914333398
 21
3.6844973701
  0
LINE
  5
306
100
AcDbEntity
  8
0
100
AcDbLine
 62
7
  6
CONTINUOUS
 10
5.7889333398
 20
3.6844973701
 11
5.8539333398
 21
3.6844973701
  0
LINE
  5
307
100
AcDbEntity
  8
0
100
AcDbLine
 62
7
  6
CONTINUOUS
 10
5.5914333398
 20
3.6849973701
 11
5.6414333398
 21
3.6849973701
  0
LINE
  5
308
100
AcDbEntity
  8
0
100
AcDbLine
 62
7
  6
CONTINUOUS
 10
5.7114333398
 20
3.6849973701
 11
5.7614333398
 21
3.6849973701
  0
LINE
  5
309
100
AcDbEntity
  8
THREAD
100
AcDbLine
 62
7
  6
CONTINUOUS
 10
5.0174333398
 20
3.6884973701
 11
4.8394333398
 21
3.6884973701
  0
LINE
  5
30A
100
AcDbEntity
  8
0
100
AcDbLine
 62
7
  6
CONTINUOUS
 10
6.7539333398
 20
3.7024973701
 11
6.6889333398
 21
3.7024973701
  0
LINE
  5
30B
100
AcDbEntity
  8
0
100
AcDbLine
 62
7
  6
CONTINUOUS
 10
6.4914333398
 20
3.7024973701
 11
6.4289333398
 21
3.7024973701
  0
LINE
  5
30C
100
AcDbEntity
  8
0
100
AcDbLine
 62
7
  6
CONTINUOUS
 10
6.4914333398
 20
3.7034973701
 11
6.5414333398
 21
3.7034973701
  0
LINE
  5
30D
100
AcDbEntity
  8
0
100
AcDbLine
 62
7
  6
CONTINUOUS
 10
6.6114333398
 20
3.7034973701
 11
6.6614333398
 21
3.7034973701
  0
LINE
  5
30E
100
AcDbEntity
  8
0
100
AcDbLine
 62
7
  6
CONTINUOUS
 10
7.4009333398
 20
3.7034973701
 11
7.4509333398
 21
3.7034973701
  0
LINE
  5
30F
100
AcDbEntity
  8
0
100
AcDbLine
 62
7
  6
CONTINUOUS
 10
7.5209333398
 20
3.7034973701
 11
7.5709333398
 21
3.7034973701
  0
LINE
  5
310
100
AcDbEntity
  8
0
100
AcDbLine
 62
7
  6
CONTINUOUS
 10
7.6684333398
 20
3.7204973701
 11
7.5984333398
 21
3.7204973701
  0
LINE
  5
311
100
AcDbEntity
  8
0
100
AcDbLine
 62
7
  6
CONTINUOUS
 10
7.4009333398
 20
3.7204973701
 11
7.3329674832
 21
3.7204973701
  0
LINE
  5
312
100
AcDbEntity
  8
0
100
AcDbLine
 62
7
  6
CONTINUOUS
 10
5.7889333398
 20
3.7389973701
 11
5.7614333398
 21
3.7389973701
  0
LINE
  5
313
100
AcDbEntity
  8
0
100
AcDbLine
 62
7
  6
CONTINUOUS
 10
7.2899333398
 20
3.7502473701
 11
6.9984333398
 21
3.7502473701
  0
LINE
  5
314
100
AcDbEntity
  8
0
100
AcDbLine
 62
7
  6
CONTINUOUS
 10
6.8584333398
 20
3.7502473701
 11
6.7999333398
 21
3.7502473701
  0
LINE
  5
315
100
AcDbEntity
  8
0
100
AcDbLine
 62
7
  6
CONTINUOUS
 10
6.3829333398
 20
3.7502473701
 11
6.1394333398
 21
3.7502473701
  0
LINE
  5
316
100
AcDbEntity
  8
0
100
AcDbLine
 62
7
  6
CONTINUOUS
 10
5.9834333398
 20
3.7502473701
 11
5.8999333398
 21
3.7502473701
  0
LINE
  5
317
100
AcDbEntity
  8
0
100
AcDbLine
 62
7
  6
CONTINUOUS
 10
5.4829333398
 20
3.7514973701
 11
5.4364333398
 21
3.7514973701
  0
LINE
  5
318
100
AcDbEntity
  8
0
100
AcDbLine
 62
7
  6
CONTINUOUS
 10
5.2964333398
 20
3.7514973701
 11
5.0274333398
 21
3.7514973701
  0
LINE
  5
319
100
AcDbEntity
  8
THREAD
100
AcDbLine
 62
7
  6
CONTINUOUS
 10
4.3550217971
 20
4.4364973701
 11
4.3394333398
 21
4.4454973701
  0
LINE
  5
31A
100
AcDbEntity
  8
03__ASM_ALL_CURVES
100
AcDbLine
 62
40
  6
CONTINUOUS
 10
3.5124325586
 20
5.0765343701
 11
3.4982809961
 21
5.0859687454
  0
LINE
  5
31B
100
AcDbEntity
  8
03__ASM_ALL_CURVES
100
AcDbLine
 62
40
  6
CONTINUOUS
 10
6.1475637443
 20
3.3845879951
 11
6.1369500724
 21
3.3916637766
  0
LINE
  5
31C
100
AcDbEntity
  8
03__ASM_ALL_CURVES
100
AcDbLine
 62
40
  6
CONTINUOUS
 10
3.5124325586
 20
5.1425749928
 11
3.4982809961
 21
5.1520093723
  0
LINE
  5
31D
100
AcDbEntity
  8
03__ASM_ALL_CURVES
100
AcDbLine
 62
40
  6
CONTINUOUS
 10
3.5265841211
 20
5.1425749928
 11
3.5407356836
 21
5.1331406201
  0
LINE
  5
31E
100
AcDbEntity
  8
THREAD
100
AcDbLine
 62
7
  6
CONTINUOUS
 10
4.8394333398
 20
4.3744973701
 11
4.7949333398
 21
4.4189973701
  0
LINE
  5
31F
100
AcDbEntity
  8
03__ASM_ALL_CURVES
100
AcDbLine
 62
40
  6
CONTINUOUS
 10
4.3049200586
 20
5.1897468701
 11
4.3190716211
 21
5.1708781178
  0
LINE
  5
320
100
AcDbEntity
  8
03__ASM_ALL_CURVES
100
AcDbLine
 62
40
  6
CONTINUOUS
 10
4.8885139639
 20
5.1897468701
 11
4.9238928702
 21
5.0765343701
  0
LINE
  5
321
100
AcDbEntity
  8
03__ASM_ALL_CURVES
100
AcDbLine
 62
40
  6
CONTINUOUS
 10
5.3080072692
 20
3.4553458059
 11
5.3080072692
 21
3.4411942468
  0
LINE
  5
322
100
AcDbEntity
  8
0
100
AcDbLine
 62
7
  6
CONTINUOUS
 10
5.3544333398
 20
4.1865317531
 11
5.3544333398
 21
4.1079941287
  0
LINE
  5
323
100
AcDbEntity
  8
0
100
AcDbLine
 62
7
  6
CONTINUOUS
 10
5.3544333398
 20
3.9549999738
 11
5.3544333398
 21
3.8764758276
  0
LINE
  5
324
100
AcDbEntity
  8
03__ASM_ALL_CURVES
100
AcDbLine
 62
40
  6
CONTINUOUS
 10
5.3696670889
 20
5.1331406201
 11
5.3696670889
 21
5.0954031207
  0
LINE
  5
325
100
AcDbEntity
  8
03__ASM_ALL_CURVES
100
AcDbLine
 62
40
  6
CONTINUOUS
 10
5.3716893004
 20
3.4694973701
 11
5.3716893004
 21
3.3845879951
  0
LINE
  5
326
100
AcDbEntity
  8
0
100
AcDbLine
 62
7
  6
CONTINUOUS
 10
5.3924333398
 20
4.183670022
 11
5.3924333398
 21
4.1120092236
  0
LINE
  5
327
100
AcDbEntity
  8
0
100
AcDbLine
 62
7
  6
CONTINUOUS
 10
5.3924333398
 20
3.9509851894
 11
5.3924333398
 21
3.8793231329
  0
LINE
  5
328
100
AcDbEntity
  8
0
100
AcDbLine
 62
7
  6
CONTINUOUS
 10
5.3994333398
 20
4.1816755689
 11
5.3994333398
 21
4.1148560378
  0
LINE
  5
329
100
AcDbEntity
  8
0
100
AcDbLine
 62
7
  6
CONTINUOUS
 10
5.3994333398
 20
3.881281788
 11
5.3994333398
 21
3.9481396533
  0
LINE
  5
32A
100
AcDbEntity
  8
0
100
AcDbLine
 62
7
  6
CONTINUOUS
 10
5.4094333398
 20
4.1766163344
 11
5.4094333398
 21
4.121611735
  0
LINE
  5
32B
100
AcDbEntity
  8
0
100
AcDbLine
 62
7
  6
CONTINUOUS
 10
5.4094333398
 20
3.8863668578
 11
5.4094333398
 21
3.9413820054
  0
LINE
  5
32C
100
AcDbEntity
  8
0
100
AcDbLine
 62
7
  6
CONTINUOUS
 10
5.4164333398
 20
4.17237364
 11
5.4164333398
 21
4.1270457234
  0
LINE
  5
32D
100
AcDbEntity
  8
0
100
AcDbLine
 62
7
  6
CONTINUOUS
 10
5.4164333398
 20
3.935949594
 11
5.4164333398
 21
3.890685934
  0
LINE
  5
32E
100
AcDbEntity
  8
03__ASM_ALL_CURVES
100
AcDbLine
 62
40
  6
CONTINUOUS
 10
5.1700295348
 20
3.4270426826
 11
5.1753363707
 21
3.4482700263
  0
LINE
  5
32F
100
AcDbEntity
  8
03__ASM_ALL_CURVES
100
AcDbLine
 62
40
  6
CONTINUOUS
 10
5.8295928702
 20
5.1048374951
 11
5.8154413077
 21
5.0859687454
  0
LINE
  5
330
100
AcDbEntity
  8
03__ASM_ALL_CURVES
100
AcDbLine
 62
40
  6
CONTINUOUS
 10
5.9357295889
 20
5.0954031207
 11
5.9286538077
 21
5.0859687454
  0
LINE
  5
331
100
AcDbEntity
  8
03__ASM_ALL_CURVES
100
AcDbLine
 62
40
  6
CONTINUOUS
 10
6.1480030264
 20
5.0859687454
 11
6.1338514639
 21
5.0765343701
  0
LINE
  5
332
100
AcDbEntity
  8
03__ASM_ALL_CURVES
100
AcDbLine
 62
40
  6
CONTINUOUS
 10
6.3815038077
 20
5.1425749928
 11
6.3673522452
 21
5.1331406201
  0
LINE
  5
333
100
AcDbEntity
  8
0
100
AcDbLine
 62
7
  6
CONTINUOUS
 10
6.6889333398
 20
3.7574973701
 11
6.6614333398
 21
3.7574973701
  0
LINE
  5
334
100
AcDbEntity
  8
0
100
AcDbLine
 62
7
  6
CONTINUOUS
 10
4.0599333398
 20
3.7617998426
 11
3.6864970057
 21
3.7617998426
  0
LINE
  5
335
100
AcDbEntity
  8
0
100
AcDbLine
 62
7
  6
CONTINUOUS
 10
7.5984333398
 20
3.7749973701
 11
7.5709333398
 21
3.7749973701
  0
LINE
  5
336
100
AcDbEntity
  8
0
100
AcDbLine
 62
7
  6
CONTINUOUS
 10
4.0599333398
 20
3.8130924251
 11
3.6864970057
 21
3.8130924251
  0
LINE
  5
337
100
AcDbEntity
  8
0
100
AcDbLine
 62
7
  6
CONTINUOUS
 10
6.1714903471
 20
3.9159973701
 11
6.0273766286
 21
3.9159973701
  0
LINE
  5
338
100
AcDbEntity
  8
03__ASM_ALL_CURVES
100
AcDbLine
 62
40
  6
CONTINUOUS
 10
6.0732680411
 20
3.4694973701
 11
6.083881713
 21
3.4624215905
  0
LINE
  5
339
100
AcDbEntity
  8
03__ASM_ALL_CURVES
100
AcDbLine
 62
40
  6
CONTINUOUS
 10
3.5265841211
 20
5.1897468701
 11
3.5407356836
 21
5.1803124973
  0
LINE
  5
33A
100
AcDbEntity
  8
03__ASM_ALL_CURVES
100
AcDbLine
 62
40
  6
CONTINUOUS
 10
6.1581774161
 20
3.4694973701
 11
6.168791088
 21
3.4624215905
  0
LINE
  5
33B
100
AcDbEntity
  8
03__ASM_ALL_CURVES
100
AcDbLine
 62
40
  6
CONTINUOUS
 10
6.2430867911
 20
3.4694973701
 11
6.253700463
 21
3.4624215905
  0
LINE
  5
33C
100
AcDbEntity
  8
03__ASM_ALL_CURVES
100
AcDbLine
 62
40
  6
CONTINUOUS
 10
3.8591458398
 20
5.0765343701
 11
3.8449942773
 21
5.0859687454
  0
LINE
  5
33D
100
AcDbEntity
  8
03__ASM_ALL_CURVES
100
AcDbLine
 62
40
  6
CONTINUOUS
 10
6.4022918693
 20
3.3845879951
 11
6.3916781974
 21
3.3916637766
  0
LINE
  5
33E
100
AcDbEntity
  8
03__ASM_ALL_CURVES
100
AcDbLine
 62
40
  6
CONTINUOUS
 10
3.7530091211
 20
5.1897468701
 11
3.7671606836
 21
5.1803124973
  0
LINE
  5
33F
100
AcDbEntity
  8
03__ASM_ALL_CURVES
100
AcDbLine
 62
40
  6
CONTINUOUS
 10
6.4129055411
 20
3.4341184622
 11
6.423519213
 21
3.4270426826
  0
LINE
  5
340
100
AcDbEntity
  8
0
100
AcDbLine
 62
7
  6
CONTINUOUS
 10
5.0274333398
 20
4.3644973701
 11
5.0174333398
 21
4.3744973701
  0
LINE
  5
341
100
AcDbEntity
  8
03__ASM_ALL_CURVES
100
AcDbLine
 62
40
  6
CONTINUOUS
 10
4.6408616202
 20
5.0859687454
 11
4.6267100577
 21
5.1048374951
  0
LINE
  5
342
100
AcDbEntity
  8
03__ASM_ALL_CURVES
100
AcDbLine
 62
40
  6
CONTINUOUS
 10
4.7540741202
 20
5.0859687454
 11
4.7399225577
 21
5.1048374951
  0
LINE
  5
343
100
AcDbEntity
  8
03__ASM_ALL_CURVES
100
AcDbLine
 62
40
  6
CONTINUOUS
 10
4.6833163077
 20
5.1803124973
 11
4.6974678702
 21
5.1614437451
  0
LINE
  5
344
100
AcDbEntity
  8
03__ASM_ALL_CURVES
100
AcDbLine
 62
40
  6
CONTINUOUS
 10
5.4725191832
 20
3.3845879951
 11
5.4725191832
 21
3.4694973701
  0
LINE
  5
345
100
AcDbEntity
  8
0
100
AcDbLine
 62
7
  6
CONTINUOUS
 10
5.4829333398
 20
3.7514973701
 11
5.4829333398
 21
4.3114973701
  0
LINE
  5
346
100
AcDbEntity
  8
0
100
AcDbLine
 62
7
  6
CONTINUOUS
 10
5.5289333398
 20
4.3784879119
 11
5.5289333398
 21
3.6845068283
  0
LINE
  5
347
100
AcDbEntity
  8
03__ASM_ALL_CURVES
100
AcDbLine
 62
40
  6
CONTINUOUS
 10
5.5394858389
 20
5.1708781178
 11
5.5394858389
 21
5.1614437451
  0
LINE
  5
348
100
AcDbEntity
  8
0
100
AcDbLine
 62
7
  6
CONTINUOUS
 10
5.5914333398
 20
4.3784879119
 11
5.5914333398
 21
3.6845068283
  0
LINE
  5
349
100
AcDbEntity
  8
03__ASM_ALL_CURVES
100
AcDbLine
 62
40
  6
CONTINUOUS
 10
5.5960920889
 20
5.1142718712
 11
5.5960920889
 21
5.0954031207
  0
LINE
  5
34A
100
AcDbEntity
  8
03__ASM_ALL_CURVES
100
AcDbLine
 62
40
  6
CONTINUOUS
 10
5.233711566
 20
3.4270426826
 11
5.2284047301
 21
3.4058153388
  0
LINE
  5
34B
100
AcDbEntity
  8
03__ASM_ALL_CURVES
100
AcDbLine
 62
40
  6
CONTINUOUS
 10
5.7517592764
 20
5.1331406201
 11
5.7588350577
 21
5.1614437451
  0
LINE
  5
34C
100
AcDbEntity
  8
03__ASM_ALL_CURVES
100
AcDbLine
 62
40
  6
CONTINUOUS
 10
5.8366686514
 20
5.1331406201
 11
5.8295928702
 21
5.1048374951
  0
LINE
  5
34D
100
AcDbEntity
  8
03__ASM_ALL_CURVES
100
AcDbLine
 62
40
  6
CONTINUOUS
 10
6.1621545889
 20
5.1048374951
 11
6.1480030264
 21
5.0859687454
  0
LINE
  5
34E
100
AcDbEntity
  8
THREAD
100
AcDbLine
 62
7
  6
CONTINUOUS
 10
4.8394333398
 20
3.6884973701
 11
4.7949333398
 21
3.6439973701
  0
LINE
  5
34F
100
AcDbEntity
  8
03__ASM_ALL_CURVES
100
AcDbLine
 62
40
  6
CONTINUOUS
 10
8.2008768953
 20
4.0541398701
 11
8.1902632234
 21
4.0541398701
  0
LINE
  5
350
100
AcDbEntity
  8
03__ASM_ALL_CURVES
100
AcDbLine
 62
40
  6
CONTINUOUS
 10
8.2857862703
 20
4.0965945576
 11
8.2592520906
 21
4.0965945576
  0
LINE
  5
351
100
AcDbEntity
  8
03__ASM_ALL_CURVES
100
AcDbLine
 62
40
  6
CONTINUOUS
 10
8.1159675203
 20
4.0965945576
 11
8.0894333406
 21
4.0965945576
  0
LINE
  5
352
100
AcDbEntity
  8
03__ASM_ALL_CURVES
100
AcDbLine
 62
40
  6
CONTINUOUS
 10
6.4129055411
 20
3.4694973701
 11
6.423519213
 21
3.4624215905
  0
LINE
  5
353
100
AcDbEntity
  8
03__ASM_ALL_CURVES
100
AcDbLine
 62
40
  6
CONTINUOUS
 10
3.8591458398
 20
5.1897468701
 11
3.8732974023
 21
5.1803124973
  0
LINE
  5
354
100
AcDbEntity
  8
03__ASM_ALL_CURVES
100
AcDbLine
 62
40
  6
CONTINUOUS
 10
4.0855708398
 20
5.0765343701
 11
4.0714192773
 21
5.0859687454
  0
LINE
  5
355
100
AcDbEntity
  8
03__ASM_ALL_CURVES
100
AcDbLine
 62
40
  6
CONTINUOUS
 10
4.0855708398
 20
5.1897468701
 11
4.0997224023
 21
5.1803124973
  0
LINE
  5
356
100
AcDbEntity
  8
03__ASM_ALL_CURVES
100
AcDbLine
 62
40
  6
CONTINUOUS
 10
6.1369500724
 20
3.3916637766
 11
6.1263364005
 21
3.4058153388
  0
LINE
  5
357
100
AcDbEntity
  8
03__ASM_ALL_CURVES
100
AcDbLine
 62
40
  6
CONTINUOUS
 10
6.083881713
 20
3.4624215905
 11
6.089188549
 21
3.4553458059
  0
LINE
  5
358
100
AcDbEntity
  8
03__ASM_ALL_CURVES
100
AcDbLine
 62
40
  6
CONTINUOUS
 10
4.7965288077
 20
5.1803124973
 11
4.8036045889
 21
5.1708781178
  0
LINE
  5
359
100
AcDbEntity
  8
03__ASM_ALL_CURVES
100
AcDbLine
 62
40
  6
CONTINUOUS
 10
6.168791088
 20
3.4624215905
 11
6.1794047599
 21
3.4482700263
  0
LINE
  5
35A
100
AcDbEntity
  8
03__ASM_ALL_CURVES
100
AcDbLine
 62
40
  6
CONTINUOUS
 10
5.3059850577
 20
5.1048374951
 11
5.2989092764
 21
5.1331406201
  0
LINE
  5
35B
100
AcDbEntity
  8
0
100
AcDbLine
 62
7
  6
CONTINUOUS
 10
5.6414333398
 20
3.6849978969
 11
5.6414333398
 21
4.3779968433
  0
LINE
  5
35C
100
AcDbEntity
  8
03__ASM_ALL_CURVES
100
AcDbLine
 62
40
  6
CONTINUOUS
 10
5.6526983389
 20
5.1897468701
 11
5.6526983389
 21
5.0765343701
  0
LINE
  5
35D
100
AcDbEntity
  8
03__ASM_ALL_CURVES
100
AcDbLine
 62
40
  6
CONTINUOUS
 10
5.7093045889
 20
5.1897468701
 11
5.7093045889
 21
5.0765343701
  0
LINE
  5
35E
100
AcDbEntity
  8
0
100
AcDbLine
 62
7
  6
CONTINUOUS
 10
5.7114333398
 20
3.6849978969
 11
5.7114333398
 21
4.3779968433
  0
LINE
  5
35F
100
AcDbEntity
  8
0
100
AcDbLine
 62
7
  6
CONTINUOUS
 10
5.7614333398
 20
3.6849978969
 11
5.7614333398
 21
4.3779968433
  0
LINE
  5
360
100
AcDbEntity
  8
0
100
AcDbLine
 62
7
  6
CONTINUOUS
 10
5.7889333398
 20
4.3784879119
 11
5.7889333398
 21
3.6845068283
  0
LINE
  5
361
100
AcDbEntity
  8
03__ASM_ALL_CURVES
100
AcDbLine
 62
40
  6
CONTINUOUS
 10
6.3885795889
 20
5.1520093723
 11
6.3815038077
 21
5.1425749928
  0
LINE
  5
362
100
AcDbEntity
  8
03__ASM_ALL_CURVES
100
AcDbLine
 62
40
  6
CONTINUOUS
 10
5.1381885192
 20
3.4411942468
 11
5.1328816832
 21
3.4341184622
  0
LINE
  5
363
100
AcDbEntity
  8
03__ASM_ALL_CURVES
100
AcDbLine
 62
40
  6
CONTINUOUS
 10
5.1753363707
 20
3.4482700263
 11
5.1859500426
 21
3.4624215905
  0
LINE
  5
364
100
AcDbEntity
  8
0
100
AcDbLine
 62
7
  6
CONTINUOUS
 10
5.0274333398
 20
3.6984973701
 11
5.0174333398
 21
3.6884973701
  0
LINE
  5
365
100
AcDbEntity
  8
THREAD
100
AcDbLine
 62
7
  6
CONTINUOUS
 10
4.3550217971
 20
3.6264973701
 11
4.3394333398
 21
3.6174973701
  0
LINE
  5
366
100
AcDbEntity
  8
03__ASM_ALL_CURVES
100
AcDbLine
 62
40
  6
CONTINUOUS
 10
8.0894333406
 20
4.1390492451
 11
8.1159675203
 21
4.1390492451
  0
LINE
  5
367
100
AcDbEntity
  8
03__ASM_ALL_CURVES
100
AcDbLine
 62
40
  6
CONTINUOUS
 10
8.1902632234
 20
4.1390492451
 11
8.2008768953
 21
4.1390492451
  0
LINE
  5
368
100
AcDbEntity
  8
03__ASM_ALL_CURVES
100
AcDbLine
 62
40
  6
CONTINUOUS
 10
8.2592520906
 20
4.1390492451
 11
8.2857862703
 21
4.1390492451
  0
LINE
  5
369
100
AcDbEntity
  8
03__ASM_ALL_CURVES
100
AcDbLine
 62
40
  6
CONTINUOUS
 10
8.3388546296
 20
4.1390492451
 11
8.391922989
 21
4.1390492451
  0
LINE
  5
36A
100
AcDbEntity
  8
0
100
AcDbLine
 62
7
  6
CONTINUOUS
 10
6.1335763852
 20
4.1469973701
 11
5.9892907843
 21
4.1469973701
  0
LINE
  5
36B
100
AcDbEntity
  8
0
100
AcDbLine
 62
7
  6
CONTINUOUS
 10
4.0599333398
 20
4.2499023151
 11
3.6864970057
 21
4.2499023151
  0
LINE
  5
36C
100
AcDbEntity
  8
0
100
AcDbLine
 62
7
  6
CONTINUOUS
 10
7.5984333398
 20
4.2879973701
 11
7.5709333398
 21
4.2879973701
  0
LINE
  5
36D
100
AcDbEntity
  8
0
100
AcDbLine
 62
7
  6
CONTINUOUS
 10
4.0599333398
 20
4.3011948976
 11
3.6864970057
 21
4.3011948976
  0
LINE
  5
36E
100
AcDbEntity
  8
0
100
AcDbLine
 62
7
  6
CONTINUOUS
 10
6.6889333398
 20
4.3054973701
 11
6.6614333398
 21
4.3054973701
  0
LINE
  5
36F
100
AcDbEntity
  8
0
100
AcDbLine
 62
7
  6
CONTINUOUS
 10
5.4829333398
 20
4.3114973701
 11
5.4364333398
 21
4.3114973701
  0
LINE
  5
370
100
AcDbEntity
  8
0
100
AcDbLine
 62
7
  6
CONTINUOUS
 10
5.2964333398
 20
4.3114973701
 11
5.0274333398
 21
4.3114973701
  0
LINE
  5
371
100
AcDbEntity
  8
03__ASM_ALL_CURVES
100
AcDbLine
 62
40
  6
CONTINUOUS
 10
3.8591458398
 20
5.123706244
 11
3.8379184961
 21
5.1331406201
  0
LINE
  5
372
100
AcDbEntity
  8
03__ASM_ALL_CURVES
100
AcDbLine
 62
40
  6
CONTINUOUS
 10
7.0372171046
 20
3.3845879951
 11
7.0266034328
 21
3.3916637766
  0
LINE
  5
373
100
AcDbEntity
  8
03__ASM_ALL_CURVES
100
AcDbLine
 62
40
  6
CONTINUOUS
 10
6.9629214015
 20
3.4694973701
 11
6.9735350734
 21
3.4624215905
  0
LINE
  5
374
100
AcDbEntity
  8
03__ASM_ALL_CURVES
100
AcDbLine
 62
40
  6
CONTINUOUS
 10
7.0478307765
 20
3.4694973701
 11
7.0584444484
 21
3.4624215905
  0
LINE
  5
375
100
AcDbEntity
  8
03__ASM_ALL_CURVES
100
AcDbLine
 62
40
  6
CONTINUOUS
 10
4.6550131827
 20
5.0765343701
 11
4.6408616202
 21
5.0859687454
  0
LINE
  5
376
100
AcDbEntity
  8
03__ASM_ALL_CURVES
100
AcDbLine
 62
40
  6
CONTINUOUS
 10
6.253700463
 20
3.4624215905
 11
6.259007299
 21
3.4553458059
  0
LINE
  5
377
100
AcDbEntity
  8
03__ASM_ALL_CURVES
100
AcDbLine
 62
40
  6
CONTINUOUS
 10
6.3916781974
 20
3.3916637766
 11
6.3863713615
 21
3.398739558
  0
LINE
  5
378
100
AcDbEntity
  8
03__ASM_ALL_CURVES
100
AcDbLine
 62
40
  6
CONTINUOUS
 10
6.423519213
 20
3.4270426826
 11
6.4341328849
 21
3.4128911209
  0
LINE
  5
379
100
AcDbEntity
  8
03__ASM_ALL_CURVES
100
AcDbLine
 62
40
  6
CONTINUOUS
 10
6.423519213
 20
3.4624215905
 11
6.428826049
 21
3.4553458059
  0
LINE
  5
37A
100
AcDbEntity
  8
03__ASM_ALL_CURVES
100
AcDbLine
 62
40
  6
CONTINUOUS
 10
5.1998483389
 20
5.1897468701
 11
5.2564545889
 21
5.0765343701
  0
LINE
  5
37B
100
AcDbEntity
  8
0
100
AcDbLine
 62
7
  6
CONTINUOUS
 10
5.8539333398
 20
4.3784879119
 11
5.8539333398
 21
3.6845068283
  0
LINE
  5
37C
100
AcDbEntity
  8
03__ASM_ALL_CURVES
100
AcDbLine
 62
40
  6
CONTINUOUS
 10
5.8791233389
 20
5.0954031207
 11
5.8791233389
 21
5.1897468701
  0
LINE
  5
37D
100
AcDbEntity
  8
0
100
AcDbLine
 62
7
  6
CONTINUOUS
 10
5.8999333398
 20
3.7502473701
 11
5.8999333398
 21
4.3127473701
  0
LINE
  5
37E
100
AcDbEntity
  8
03__ASM_ALL_CURVES
100
AcDbLine
 62
40
  6
CONTINUOUS
 10
5.9357295889
 20
5.1897468701
 11
5.9357295889
 21
5.0954031207
  0
LINE
  5
37F
100
AcDbEntity
  8
03__ASM_ALL_CURVES
100
AcDbLine
 62
40
  6
CONTINUOUS
 10
5.9923358389
 20
5.1897468701
 11
5.9923358389
 21
5.0765343701
  0
LINE
  5
380
100
AcDbEntity
  8
03__ASM_ALL_CURVES
100
AcDbLine
 62
40
  6
CONTINUOUS
 10
6.1692303702
 20
5.1331406201
 11
6.1621545889
 21
5.1048374951
  0
LINE
  5
381
100
AcDbEntity
  8
03__ASM_ALL_CURVES
100
AcDbLine
 62
40
  6
CONTINUOUS
 10
5.4725191832
 20
3.4694973701
 11
5.4353713317
 21
3.4058153388
  0
LINE
  5
382
100
AcDbEntity
  8
03__ASM_ALL_CURVES
100
AcDbLine
 62
40
  6
CONTINUOUS
 10
5.2284047301
 20
3.4058153388
 11
5.2177910582
 21
3.3916637766
  0
LINE
  5
383
100
AcDbEntity
  8
03__ASM_ALL_CURVES
100
AcDbLine
 62
40
  6
CONTINUOUS
 10
5.3080072692
 20
3.4411942468
 11
5.3027004332
 21
3.4341184622
  0
LINE
  5
384
100
AcDbEntity
  8
0
100
AcDbLine
 62
7
  6
CONTINUOUS
 10
7.2899333398
 20
4.3127473701
 11
7.044427622
 21
4.3127473701
  0
LINE
  5
385
100
AcDbEntity
  8
0
100
AcDbLine
 62
7
  6
CONTINUOUS
 10
6.8584333635
 20
4.3127473701
 11
6.7999333398
 21
4.3127473701
  0
LINE
  5
386
100
AcDbEntity
  8
0
100
AcDbLine
 62
7
  6
CONTINUOUS
 10
6.3829333398
 20
4.3127473701
 11
6.1774333398
 21
4.3127473701
  0
LINE
  5
387
100
AcDbEntity
  8
0
100
AcDbLine
 62
7
  6
CONTINUOUS
 10
6.0214333398
 20
4.3127473701
 11
5.8999333398
 21
4.3127473701
  0
LINE
  5
388
100
AcDbEntity
  8
0
100
AcDbLine
 62
7
  6
CONTINUOUS
 10
5.7889333398
 20
4.3239973701
 11
5.7614333398
 21
4.3239973701
  0
LINE
  5
389
100
AcDbEntity
  8
0
100
AcDbLine
 62
7
  6
CONTINUOUS
 10
7.6684333398
 20
4.3424973701
 11
7.5984333398
 21
4.3424973701
  0
LINE
  5
38A
100
AcDbEntity
  8
0
100
AcDbLine
 62
7
  6
CONTINUOUS
 10
7.4009333398
 20
4.3424973701
 11
7.3329674832
 21
4.3424973701
  0
LINE
  5
38B
100
AcDbEntity
  8
0
100
AcDbLine
 62
7
  6
CONTINUOUS
 10
6.4914333398
 20
4.3594973701
 11
6.5414333398
 21
4.3594973701
  0
LINE
  5
38C
100
AcDbEntity
  8
0
100
AcDbLine
 62
7
  6
CONTINUOUS
 10
6.6114333398
 20
4.3594973701
 11
6.6614333398
 21
4.3594973701
  0
LINE
  5
38D
100
AcDbEntity
  8
0
100
AcDbLine
 62
7
  6
CONTINUOUS
 10
7.4009333398
 20
4.3594973701
 11
7.4509333398
 21
4.3594973701
  0
LINE
  5
38E
100
AcDbEntity
  8
0
100
AcDbLine
 62
7
  6
CONTINUOUS
 10
7.5209333398
 20
4.3594973701
 11
7.5709333398
 21
4.3594973701
  0
LINE
  5
38F
100
AcDbEntity
  8
0
100
AcDbLine
 62
7
  6
CONTINUOUS
 10
6.7539333398
 20
4.3604973701
 11
6.6889333398
 21
4.3604973701
  0
LINE
  5
390
100
AcDbEntity
  8
0
100
AcDbLine
 62
7
  6
CONTINUOUS
 10
6.4914333398
 20
4.3604973701
 11
6.4289333398
 21
4.3604973701
  0
LINE
  5
391
100
AcDbEntity
  8
THREAD
100
AcDbLine
 62
7
  6
CONTINUOUS
 10
5.0174333398
 20
4.3744973701
 11
4.8394333398
 21
4.3744973701
  0
LINE
  5
392
100
AcDbEntity
  8
0
100
AcDbLine
 62
7
  6
CONTINUOUS
 10
5.5914333398
 20
4.3779973701
 11
5.6414333398
 21
4.3779973701
  0
LINE
  5
393
100
AcDbEntity
  8
0
100
AcDbLine
 62
7
  6
CONTINUOUS
 10
5.7114333398
 20
4.3779973701
 11
5.7614333398
 21
4.3779973701
  0
LINE
  5
394
100
AcDbEntity
  8
0
100
AcDbLine
 62
7
  6
CONTINUOUS
 10
5.5289333398
 20
4.3784973701
 11
5.5914333398
 21
4.3784973701
  0
LINE
  5
395
100
AcDbEntity
  8
0
100
AcDbLine
 62
7
  6
CONTINUOUS
 10
5.7889333398
 20
4.3784973701
 11
5.8539333398
 21
4.3784973701
  0
LINE
  5
396
100
AcDbEntity
  8
THREAD
100
AcDbLine
 62
7
  6
CONTINUOUS
 10
4.5218145377
 20
4.3819973701
 11
4.5064333398
 21
4.3819973701
  0
LINE
  5
397
100
AcDbEntity
  8
0
100
AcDbLine
 62
7
  6
CONTINUOUS
 10
3.6524333398
 20
4.4049973701
 11
3.2024333398
 21
4.4049973701
  0
LINE
  5
398
100
AcDbEntity
  8
THREAD
100
AcDbLine
 62
7
  6
CONTINUOUS
 10
4.7949333398
 20
4.4189973701
 11
4.5477952998
 21
4.4189973701
  0
LINE
  5
399
100
AcDbEntity
  8
0
100
AcDbLine
 62
7
  6
CONTINUOUS
 10
4.4564333398
 20
4.4359973701
 11
4.5064333398
 21
4.4359973701
  0
LINE
  5
39A
100
AcDbEntity
  8
THREAD
100
AcDbLine
 62
7
  6
CONTINUOUS
 10
4.3864333398
 20
4.4364973701
 11
4.3550217971
 21
4.4364973701
  0
LINE
  5
39B
100
AcDbEntity
  8
0
100
AcDbLine
 62
7
  6
CONTINUOUS
 10
4.3394333398
 20
4.4599973701
 11
4.2864333398
 21
4.4599973701
  0
LINE
  5
39C
100
AcDbEntity
  8
0
100
AcDbLine
 62
7
  6
CONTINUOUS
 10
4.2664333398
 20
4.4599973701
 11
4.1204333398
 21
4.4599973701
  0
LINE
  5
39D
100
AcDbEntity
  8
03__ASM_ALL_CURVES
100
AcDbLine
 62
40
  6
CONTINUOUS
 10
4.0855708398
 20
5.123706244
 11
4.0643434961
 21
5.1331406201
  0
LINE
  5
39E
100
AcDbEntity
  8
03__ASM_ALL_CURVES
100
AcDbLine
 62
40
  6
CONTINUOUS
 10
7.1327401515
 20
3.4694973701
 11
7.1433538234
 21
3.4624215905
  0
LINE
  5
39F
100
AcDbEntity
  8
03__ASM_ALL_CURVES
100
AcDbLine
 62
40
  6
CONTINUOUS
 10
4.7682256827
 20
5.0765343701
 11
4.7540741202
 21
5.0859687454
  0
LINE
  5
3A0
100
AcDbEntity
  8
03__ASM_ALL_CURVES
100
AcDbLine
 62
40
  6
CONTINUOUS
 10
4.6691647452
 20
5.1897468701
 11
4.6833163077
 21
5.1803124973
  0
LINE
  5
3A1
100
AcDbEntity
  8
03__ASM_ALL_CURVES
100
AcDbLine
 62
40
  6
CONTINUOUS
 10
7.3025589015
 20
3.4694973701
 11
7.3131725734
 21
3.4624215905
  0
LINE
  5
3A2
100
AcDbEntity
  8
03__ASM_ALL_CURVES
100
AcDbLine
 62
40
  6
CONTINUOUS
 10
4.7823772452
 20
5.1897468701
 11
4.7965288077
 21
5.1803124973
  0
LINE
  5
3A3
100
AcDbEntity
  8
03__ASM_ALL_CURVES
100
AcDbLine
 62
40
  6
CONTINUOUS
 10
5.3201366202
 20
5.0859687454
 11
5.3059850577
 21
5.1048374951
  0
LINE
  5
3A4
100
AcDbEntity
  8
03__ASM_ALL_CURVES
100
AcDbLine
 62
40
  6
CONTINUOUS
 10
5.3625913077
 20
5.1803124973
 11
5.3696670889
 21
5.1708781178
  0
LINE
  5
3A5
100
AcDbEntity
  8
03__ASM_ALL_CURVES
100
AcDbLine
 62
40
  6
CONTINUOUS
 10
6.2430867911
 20
3.4270426826
 11
6.259007299
 21
3.3845879951
  0
LINE
  5
3A6
100
AcDbEntity
  8
03__ASM_ALL_CURVES
100
AcDbLine
 62
40
  6
CONTINUOUS
 10
6.1263364005
 20
3.4058153388
 11
6.1210295646
 21
3.4270426826
  0
LINE
  5
3A7
100
AcDbEntity
  8
03__ASM_ALL_CURVES
100
AcDbLine
 62
40
  6
CONTINUOUS
 10
5.7588350577
 20
5.1048374951
 11
5.7517592764
 21
5.1331406201
  0
LINE
  5
3A8
100
AcDbEntity
  8
03__ASM_ALL_CURVES
100
AcDbLine
 62
40
  6
CONTINUOUS
 10
6.1794047599
 20
3.4482700263
 11
6.1847115958
 21
3.4270426826
  0
LINE
  5
3A9
100
AcDbEntity
  8
03__ASM_ALL_CURVES
100
AcDbLine
 62
40
  6
CONTINUOUS
 10
6.0467338615
 20
3.3845879951
 11
6.0467338615
 21
3.4694973701
  0
LINE
  5
3AA
100
AcDbEntity
  8
03__ASM_ALL_CURVES
100
AcDbLine
 62
40
  6
CONTINUOUS
 10
6.089188549
 20
3.4553458059
 11
6.089188549
 21
3.4411942468
  0
LINE
  5
3AB
100
AcDbEntity
  8
03__ASM_ALL_CURVES
100
AcDbLine
 62
40
  6
CONTINUOUS
 10
6.1055483389
 20
5.0765343701
 11
6.1055483389
 21
5.1897468701
  0
LINE
  5
3AC
100
AcDbEntity
  8
03__ASM_ALL_CURVES
100
AcDbLine
 62
40
  6
CONTINUOUS
 10
5.1328816832
 20
3.4341184622
 11
5.1222680113
 21
3.4270426826
  0
LINE
  5
3AD
100
AcDbEntity
  8
03__ASM_ALL_CURVES
100
AcDbLine
 62
40
  6
CONTINUOUS
 10
5.1859500426
 20
3.4624215905
 11
5.1965637145
 21
3.4694973701
  0
LINE
  5
3AE
100
AcDbEntity
  8
0
100
AcDbLine
 62
7
  6
CONTINUOUS
 10
4.0599333398
 20
4.5195998426
 11
3.6864970057
 21
4.5195998426
  0
LINE
  5
3AF
100
AcDbEntity
  8
0
100
AcDbLine
 62
7
  6
CONTINUOUS
 10
4.0599333398
 20
4.5204973701
 11
3.6864970057
 21
4.5204973701
  0
LINE
  5
3B0
100
AcDbEntity
  8
03__ASM_ALL_CURVES
100
AcDbLine
 62
40
  6
CONTINUOUS
 10
3.2882883398
 20
5.0123806201
 11
3.1524333398
 21
5.0312493701
  0
LINE
  5
3B1
100
AcDbEntity
  8
03__ASM_ALL_CURVES
100
AcDbLine
 62
40
  6
CONTINUOUS
 10
3.2882883398
 20
5.0086068701
 11
3.1524333398
 21
5.0312493701
  0
LINE
  5
3B2
100
AcDbEntity
  8
03__ASM_ALL_CURVES
100
AcDbLine
 62
40
  6
CONTINUOUS
 10
5.3342881827
 20
5.0765343701
 11
5.3201366202
 21
5.0859687454
  0
LINE
  5
3B3
100
AcDbEntity
  8
03__ASM_ALL_CURVES
100
AcDbLine
 62
40
  6
CONTINUOUS
 10
5.5465616202
 20
5.0859687454
 11
5.5324100577
 21
5.1048374951
  0
LINE
  5
3B4
100
AcDbEntity
  8
03__ASM_ALL_CURVES
100
AcDbLine
 62
40
  6
CONTINUOUS
 10
5.5394858389
 20
5.1614437451
 11
5.5465616202
 21
5.1520093723
  0
LINE
  5
3B5
100
AcDbEntity
  8
03__ASM_ALL_CURVES
100
AcDbLine
 62
40
  6
CONTINUOUS
 10
5.5890163077
 20
5.123706244
 11
5.5960920889
 21
5.1142718712
  0
LINE
  5
3B6
100
AcDbEntity
  8
03__ASM_ALL_CURVES
100
AcDbLine
 62
40
  6
CONTINUOUS
 10
5.5960920889
 20
5.1708781178
 11
5.5890163077
 21
5.1803124973
  0
LINE
  5
3B7
100
AcDbEntity
  8
03__ASM_ALL_CURVES
100
AcDbLine
 62
40
  6
CONTINUOUS
 10
5.8295928702
 20
5.1614437451
 11
5.8366686514
 21
5.1331406201
  0
LINE
  5
3B8
100
AcDbEntity
  8
03__ASM_ALL_CURVES
100
AcDbLine
 62
40
  6
CONTINUOUS
 10
6.2165526115
 20
3.3845879951
 11
6.2165526115
 21
3.4694973701
  0
LINE
  5
3B9
100
AcDbEntity
  8
03__ASM_ALL_CURVES
100
AcDbLine
 62
40
  6
CONTINUOUS
 10
6.2187608389
 20
5.0765343701
 11
6.2187608389
 21
5.1897468701
  0
LINE
  5
3BA
100
AcDbEntity
  8
03__ASM_ALL_CURVES
100
AcDbLine
 62
40
  6
CONTINUOUS
 10
6.259007299
 20
3.4553458059
 11
6.259007299
 21
3.4411942468
  0
LINE
  5
3BB
100
AcDbEntity
  8
03__ASM_ALL_CURVES
100
AcDbLine
 62
40
  6
CONTINUOUS
 10
6.3226893302
 20
3.4694973701
 11
6.3226893302
 21
3.3845879951
  0
LINE
  5
3BC
100
AcDbEntity
  8
03__ASM_ALL_CURVES
100
AcDbLine
 62
40
  6
CONTINUOUS
 10
6.3319733389
 20
5.0765343701
 11
6.3319733389
 21
5.1897468701
  0
LINE
  5
3BD
100
AcDbEntity
  8
0
100
AcDbLine
 62
7
  6
CONTINUOUS
 10
6.3829333398
 20
3.7502473701
 11
6.3829333398
 21
4.3127473701
  0
LINE
  5
3BE
100
AcDbEntity
  8
03__ASM_ALL_CURVES
100
AcDbLine
 62
40
  6
CONTINUOUS
 10
6.1210295646
 20
3.4270426826
 11
6.1263364005
 21
3.4482700263
  0
LINE
  5
3BF
100
AcDbEntity
  8
03__ASM_ALL_CURVES
100
AcDbLine
 62
40
  6
CONTINUOUS
 10
6.1847115958
 20
3.4270426826
 11
6.1794047599
 21
3.4058153388
  0
LINE
  5
3C0
100
AcDbEntity
  8
03__ASM_ALL_CURVES
100
AcDbLine
 62
40
  6
CONTINUOUS
 10
5.2177910582
 20
3.3916637766
 11
5.2071773863
 21
3.3845879951
  0
LINE
  5
3C1
100
AcDbEntity
  8
03__ASM_ALL_CURVES
100
AcDbLine
 62
40
  6
CONTINUOUS
 10
5.3027004332
 20
3.4341184622
 11
5.2920867613
 21
3.4270426826
  0
LINE
  5
3C2
100
AcDbEntity
  8
03__ASM_ALL_CURVES
100
AcDbLine
 62
40
  6
CONTINUOUS
 10
3.2882883398
 20
5.0199281201
 11
3.1524333398
 21
5.0312493701
  0
LINE
  5
3C3
100
AcDbEntity
  8
03__ASM_ALL_CURVES
100
AcDbLine
 62
40
  6
CONTINUOUS
 10
3.2882883398
 20
5.0161543701
 11
3.1524333398
 21
5.0312493701
  0
LINE
  5
3C4
100
AcDbEntity
  8
03__ASM_ALL_CURVES
100
AcDbLine
 62
40
  6
CONTINUOUS
 10
4.2035783398
 20
5.0463443701
 11
4.4752883398
 21
5.0161543701
  0
LINE
  5
3C5
100
AcDbEntity
  8
03__ASM_ALL_CURVES
100
AcDbLine
 62
40
  6
CONTINUOUS
 10
4.2035783398
 20
5.0501181201
 11
4.4752883398
 21
5.0123806201
  0
LINE
  5
3C6
100
AcDbEntity
  8
03__ASM_ALL_CURVES
100
AcDbLine
 62
40
  6
CONTINUOUS
 10
4.4752883398
 20
5.0086068701
 11
4.2035783398
 21
5.0538918701
  0
LINE
  5
3C7
100
AcDbEntity
  8
03__ASM_ALL_CURVES
100
AcDbLine
 62
40
  6
CONTINUOUS
 10
5.3484397452
 20
5.1897468701
 11
5.3625913077
 21
5.1803124973
  0
LINE
  5
3C8
100
AcDbEntity
  8
03__ASM_ALL_CURVES
100
AcDbLine
 62
40
  6
CONTINUOUS
 10
5.5607131827
 20
5.0765343701
 11
5.5465616202
 21
5.0859687454
  0
LINE
  5
3C9
100
AcDbEntity
  8
03__ASM_ALL_CURVES
100
AcDbLine
 62
40
  6
CONTINUOUS
 10
5.5465616202
 20
5.1520093723
 11
5.5890163077
 21
5.123706244
  0
LINE
  5
3CA
100
AcDbEntity
  8
03__ASM_ALL_CURVES
100
AcDbLine
 62
40
  6
CONTINUOUS
 10
7.0266034328
 20
3.3916637766
 11
7.0159897609
 21
3.4058153388
  0
LINE
  5
3CB
100
AcDbEntity
  8
03__ASM_ALL_CURVES
100
AcDbLine
 62
40
  6
CONTINUOUS
 10
6.9735350734
 20
3.4624215905
 11
6.9788419093
 21
3.4553458059
  0
LINE
  5
3CC
100
AcDbEntity
  8
03__ASM_ALL_CURVES
100
AcDbLine
 62
40
  6
CONTINUOUS
 10
5.7729866202
 20
5.0859687454
 11
5.7588350577
 21
5.1048374951
  0
LINE
  5
3CD
100
AcDbEntity
  8
03__ASM_ALL_CURVES
100
AcDbLine
 62
40
  6
CONTINUOUS
 10
7.0584444484
 20
3.4624215905
 11
7.0690581203
 21
3.4482700263
  0
LINE
  5
3CE
100
AcDbEntity
  8
03__ASM_ALL_CURVES
100
AcDbLine
 62
40
  6
CONTINUOUS
 10
5.8861991202
 20
5.0859687454
 11
5.8791233389
 21
5.0954031207
  0
LINE
  5
3CF
100
AcDbEntity
  8
03__ASM_ALL_CURVES
100
AcDbLine
 62
40
  6
CONTINUOUS
 10
5.8154413077
 20
5.1803124973
 11
5.8295928702
 21
5.1614437451
  0
LINE
  5
3D0
100
AcDbEntity
  8
03__ASM_ALL_CURVES
100
AcDbLine
 62
40
  6
CONTINUOUS
 10
7.1433538234
 20
3.4624215905
 11
7.1486606593
 21
3.4553458059
  0
LINE
  5
3D1
100
AcDbEntity
  8
03__ASM_ALL_CURVES
100
AcDbLine
 62
40
  6
CONTINUOUS
 10
6.1621545889
 20
5.1614437451
 11
6.1692303702
 21
5.1331406201
  0
LINE
  5
3D2
100
AcDbEntity
  8
03__ASM_ALL_CURVES
100
AcDbLine
 62
40
  6
CONTINUOUS
 10
6.3885795889
 20
5.1708781178
 11
6.3885795889
 21
5.1520093723
  0
LINE
  5
3D3
100
AcDbEntity
  8
03__ASM_ALL_CURVES
100
AcDbLine
 62
40
  6
CONTINUOUS
 10
6.428826049
 20
3.4553458059
 11
6.428826049
 21
3.4482700263
  0
LINE
  5
3D4
100
AcDbEntity
  8
0
100
AcDbLine
 62
7
  6
CONTINUOUS
 10
6.4289333398
 20
3.7025063377
 11
6.4289333398
 21
4.3604884025
  0
LINE
  5
3D5
100
AcDbEntity
  8
03__ASM_ALL_CURVES
100
AcDbLine
 62
40
  6
CONTINUOUS
 10
6.4341328849
 20
3.4128911209
 11
6.4341328849
 21
3.4058153388
  0
LINE
  5
3D6
100
AcDbEntity
  8
0
100
AcDbLine
 62
7
  6
CONTINUOUS
 10
6.4914333398
 20
3.7025063377
 11
6.4914333398
 21
4.3604884025
  0
LINE
  5
3D7
100
AcDbEntity
  8
0
100
AcDbLine
 62
7
  6
CONTINUOUS
 10
6.5414333398
 20
3.7034978688
 11
6.5414333398
 21
4.3594968714
  0
LINE
  5
3D8
100
AcDbEntity
  8
03__ASM_ALL_CURVES
100
AcDbLine
 62
40
  6
CONTINUOUS
 10
6.089188549
 20
3.4411942468
 11
6.083881713
 21
3.4341184622
  0
LINE
  5
3D9
100
AcDbEntity
  8
03__ASM_ALL_CURVES
100
AcDbLine
 62
40
  6
CONTINUOUS
 10
6.1263364005
 20
3.4482700263
 11
6.1369500724
 21
3.4624215905
  0
LINE
  5
3DA
100
AcDbEntity
  8
03__ASM_ALL_CURVES
100
AcDbLine
 62
40
  6
CONTINUOUS
 10
3.1524333398
 20
5.0312493701
 11
6.5131133398
 21
5.0312493701
  0
LINE
  5
3DB
100
AcDbEntity
  8
03__ASM_ALL_CURVES
100
AcDbLine
 62
40
  6
CONTINUOUS
 10
3.2882883398
 20
5.0274756201
 11
3.1524333398
 21
5.0312493701
  0
LINE
  5
3DC
100
AcDbEntity
  8
03__ASM_ALL_CURVES
100
AcDbLine
 62
40
  6
CONTINUOUS
 10
4.2035783398
 20
5.0350231201
 11
4.4752883398
 21
5.0274756201
  0
LINE
  5
3DD
100
AcDbEntity
  8
03__ASM_ALL_CURVES
100
AcDbLine
 62
40
  6
CONTINUOUS
 10
3.2882883398
 20
5.0237018701
 11
3.1524333398
 21
5.0312493701
  0
LINE
  5
3DE
100
AcDbEntity
  8
03__ASM_ALL_CURVES
100
AcDbLine
 62
40
  6
CONTINUOUS
 10
4.2035783398
 20
5.0387968701
 11
4.4752883398
 21
5.0237018701
  0
LINE
  5
3DF
100
AcDbEntity
  8
03__ASM_ALL_CURVES
100
AcDbLine
 62
40
  6
CONTINUOUS
 10
4.2035783398
 20
5.0425706201
 11
4.4752883398
 21
5.0199281201
  0
LINE
  5
3E0
100
AcDbEntity
  8
03__ASM_ALL_CURVES
100
AcDbLine
 62
40
  6
CONTINUOUS
 10
5.5890163077
 20
5.1803124973
 11
5.5748647452
 21
5.1897468701
  0
LINE
  5
3E1
100
AcDbEntity
  8
03__ASM_ALL_CURVES
100
AcDbLine
 62
40
  6
CONTINUOUS
 10
5.7871381827
 20
5.0765343701
 11
5.7729866202
 21
5.0859687454
  0
LINE
  5
3E2
100
AcDbEntity
  8
03__ASM_ALL_CURVES
100
AcDbLine
 62
40
  6
CONTINUOUS
 10
5.9003506827
 20
5.0765343701
 11
5.8861991202
 21
5.0859687454
  0
LINE
  5
3E3
100
AcDbEntity
  8
03__ASM_ALL_CURVES
100
AcDbLine
 62
40
  6
CONTINUOUS
 10
5.8012897452
 20
5.1897468701
 11
5.8154413077
 21
5.1803124973
  0
LINE
  5
3E4
100
AcDbEntity
  8
03__ASM_ALL_CURVES
100
AcDbLine
 62
40
  6
CONTINUOUS
 10
7.3131725734
 20
3.4624215905
 11
7.3184794093
 21
3.4553458059
  0
LINE
  5
3E5
100
AcDbEntity
  8
0
100
AcDbLine
 62
7
  6
CONTINUOUS
 10
6.6114333398
 20
3.7034978688
 11
6.6114333398
 21
4.3594968714
  0
LINE
  5
3E6
100
AcDbEntity
  8
0
100
AcDbLine
 62
7
  6
CONTINUOUS
 10
6.6614333398
 20
3.7034978688
 11
6.6614333398
 21
4.3594968714
  0
LINE
  5
3E7
100
AcDbEntity
  8
0
100
AcDbLine
 62
7
  6
CONTINUOUS
 10
6.6889333398
 20
3.7025063377
 11
6.6889333398
 21
4.3604884025
  0
LINE
  5
3E8
100
AcDbEntity
  8
0
100
AcDbLine
 62
7
  6
CONTINUOUS
 10
6.7539333398
 20
3.7025063377
 11
6.7539333398
 21
4.3604884025
  0
LINE
  5
3E9
100
AcDbEntity
  8
03__ASM_ALL_CURVES
100
AcDbLine
 62
40
  6
CONTINUOUS
 10
6.1794047599
 20
3.4058153388
 11
6.168791088
 21
3.3916637766
  0
LINE
  5
3EA
100
AcDbEntity
  8
03__ASM_ALL_CURVES
100
AcDbLine
 62
40
  6
CONTINUOUS
 10
6.259007299
 20
3.4411942468
 11
6.253700463
 21
3.4341184622
  0
LINE
  5
3EB
100
AcDbEntity
  8
03__ASM_ALL_CURVES
100
AcDbLine
 62
40
  6
CONTINUOUS
 10
6.083881713
 20
3.4341184622
 11
6.0732680411
 21
3.4270426826
  0
LINE
  5
3EC
100
AcDbEntity
  8
03__ASM_ALL_CURVES
100
AcDbLine
 62
40
  6
CONTINUOUS
 10
6.1369500724
 20
3.4624215905
 11
6.1475637443
 21
3.4694973701
  0
LINE
  5
3ED
100
AcDbEntity
  8
03__ASM_ALL_CURVES
100
AcDbLine
 62
40
  6
CONTINUOUS
 10
6.168791088
 20
3.3916637766
 11
6.1581774161
 21
3.3845879951
  0
LINE
  5
3EE
100
AcDbEntity
  8
03__ASM_ALL_CURVES
100
AcDbLine
 62
40
  6
CONTINUOUS
 10
4.2035783398
 20
5.0123806201
 11
4.4752883398
 21
5.0501181201
  0
LINE
  5
3EF
100
AcDbEntity
  8
03__ASM_ALL_CURVES
100
AcDbLine
 62
40
  6
CONTINUOUS
 10
4.2035783398
 20
5.0161543701
 11
4.4752883398
 21
5.0463443701
  0
LINE
  5
3F0
100
AcDbEntity
  8
03__ASM_ALL_CURVES
100
AcDbLine
 62
40
  6
CONTINUOUS
 10
4.2035783398
 20
5.0199281201
 11
4.4752883398
 21
5.0425706201
  0
LINE
  5
3F1
100
AcDbEntity
  8
03__ASM_ALL_CURVES
100
AcDbLine
 62
40
  6
CONTINUOUS
 10
4.2035783398
 20
5.0237018701
 11
4.4752883398
 21
5.0387968701
  0
LINE
  5
3F2
100
AcDbEntity
  8
03__ASM_ALL_CURVES
100
AcDbLine
 62
40
  6
CONTINUOUS
 10
3.2882883398
 20
5.0387968701
 11
3.1524333398
 21
5.0312493701
  0
LINE
  5
3F3
100
AcDbEntity
  8
03__ASM_ALL_CURVES
100
AcDbLine
 62
40
  6
CONTINUOUS
 10
4.2035783398
 20
5.0274756201
 11
4.4752883398
 21
5.0350231201
  0
LINE
  5
3F4
100
AcDbEntity
  8
03__ASM_ALL_CURVES
100
AcDbLine
 62
40
  6
CONTINUOUS
 10
3.2882883398
 20
5.0350231201
 11
3.1524333398
 21
5.0312493701
  0
LINE
  5
3F5
100
AcDbEntity
  8
03__ASM_ALL_CURVES
100
AcDbLine
 62
40
  6
CONTINUOUS
 10
6.2753670889
 20
5.0765343701
 11
6.2187608389
 21
5.0765343701
  0
LINE
  5
3F6
100
AcDbEntity
  8
03__ASM_ALL_CURVES
100
AcDbLine
 62
40
  6
CONTINUOUS
 10
6.1338514639
 20
5.0765343701
 11
6.1055483389
 21
5.0765343701
  0
LINE
  5
3F7
100
AcDbEntity
  8
03__ASM_ALL_CURVES
100
AcDbLine
 62
40
  6
CONTINUOUS
 10
5.9145022452
 20
5.0765343701
 11
5.9003506827
 21
5.0765343701
  0
LINE
  5
3F8
100
AcDbEntity
  8
03__ASM_ALL_CURVES
100
AcDbLine
 62
40
  6
CONTINUOUS
 10
5.8012897452
 20
5.0765343701
 11
5.7871381827
 21
5.0765343701
  0
LINE
  5
3F9
100
AcDbEntity
  8
03__ASM_ALL_CURVES
100
AcDbLine
 62
40
  6
CONTINUOUS
 10
5.5748647452
 20
5.0765343701
 11
5.5607131827
 21
5.0765343701
  0
LINE
  5
3FA
100
AcDbEntity
  8
03__ASM_ALL_CURVES
100
AcDbLine
 62
40
  6
CONTINUOUS
 10
5.3484397452
 20
5.0765343701
 11
5.3342881827
 21
5.0765343701
  0
LINE
  5
3FB
100
AcDbEntity
  8
03__ASM_ALL_CURVES
100
AcDbLine
 62
40
  6
CONTINUOUS
 10
4.7823772452
 20
5.0765343701
 11
4.7682256827
 21
5.0765343701
  0
LINE
  5
3FC
100
AcDbEntity
  8
03__ASM_ALL_CURVES
100
AcDbLine
 62
40
  6
CONTINUOUS
 10
4.6691647452
 20
5.0765343701
 11
4.6550131827
 21
5.0765343701
  0
LINE
  5
3FD
100
AcDbEntity
  8
03__ASM_ALL_CURVES
100
AcDbLine
 62
40
  6
CONTINUOUS
 10
3.9723583398
 20
5.0765343701
 11
3.9652825586
 21
5.0765343701
  0
LINE
  5
3FE
100
AcDbEntity
  8
03__ASM_ALL_CURVES
100
AcDbLine
 62
40
  6
CONTINUOUS
 10
3.5265841211
 20
5.0765343701
 11
3.5124325586
 21
5.0765343701
  0
LINE
  5
3FF
100
AcDbEntity
  8
03__ASM_ALL_CURVES
100
AcDbLine
 62
40
  6
CONTINUOUS
 10
3.2930833398
 20
5.0765343701
 11
3.2860075586
 21
5.0765343701
  0
LINE
  5
400
100
AcDbEntity
  8
03__ASM_ALL_CURVES
100
AcDbLine
 62
40
  6
CONTINUOUS
 10
3.7176302148
 20
5.0765343701
 11
3.7742364648
 21
5.0765343701
  0
LINE
  5
401
100
AcDbEntity
  8
03__ASM_ALL_CURVES
100
AcDbLine
 62
40
  6
CONTINUOUS
 10
4.5205733389
 20
5.0765343701
 11
4.5771795889
 21
5.0765343701
  0
LINE
  5
402
100
AcDbEntity
  8
03__ASM_ALL_CURVES
100
AcDbLine
 62
40
  6
CONTINUOUS
 10
5.9923358389
 20
5.0765343701
 11
6.0489420889
 21
5.0765343701
  0
LINE
  5
403
100
AcDbEntity
  8
03__ASM_ALL_CURVES
100
AcDbLine
 62
40
  6
CONTINUOUS
 10
4.8672866202
 20
5.1142718712
 11
4.9097413077
 21
5.1142718712
  0
LINE
  5
404
100
AcDbEntity
  8
03__ASM_ALL_CURVES
100
AcDbLine
 62
40
  6
CONTINUOUS
 10
6.3673522452
 20
5.1331406201
 11
6.3319733389
 21
5.1331406201
  0
LINE
  5
405
100
AcDbEntity
  8
03__ASM_ALL_CURVES
100
AcDbLine
 62
40
  6
CONTINUOUS
 10
5.3413639639
 20
5.1331406201
 11
5.3696670889
 21
5.1331406201
  0
LINE
  5
406
100
AcDbEntity
  8
03__ASM_ALL_CURVES
100
AcDbLine
 62
40
  6
CONTINUOUS
 10
5.6526983389
 20
5.1331406201
 11
5.7093045889
 21
5.1331406201
  0
LINE
  5
407
100
AcDbEntity
  8
03__ASM_ALL_CURVES
100
AcDbLine
 62
40
  6
CONTINUOUS
 10
6.2187608389
 20
5.1331406201
 11
6.2541397452
 21
5.1331406201
  0
LINE
  5
408
100
AcDbEntity
  8
03__ASM_ALL_CURVES
100
AcDbLine
 62
40
  6
CONTINUOUS
 10
3.5124325586
 20
5.1425749928
 11
3.5265841211
 21
5.1425749928
  0
LINE
  5
409
100
AcDbEntity
  8
03__ASM_ALL_CURVES
100
AcDbLine
 62
40
  6
CONTINUOUS
 10
5.5748647452
 20
5.1897468701
 11
5.5607131827
 21
5.1897468701
  0
LINE
  5
40A
100
AcDbEntity
  8
03__ASM_ALL_CURVES
100
AcDbLine
 62
40
  6
CONTINUOUS
 10
4.2270864648
 20
5.1897468701
 11
4.1704802148
 21
5.1897468701
  0
LINE
  5
40B
100
AcDbEntity
  8
03__ASM_ALL_CURVES
100
AcDbLine
 62
40
  6
CONTINUOUS
 10
3.5124325586
 20
5.1897468701
 11
3.5265841211
 21
5.1897468701
  0
LINE
  5
40C
100
AcDbEntity
  8
03__ASM_ALL_CURVES
100
AcDbLine
 62
40
  6
CONTINUOUS
 10
3.7388575586
 20
5.1897468701
 11
3.7530091211
 21
5.1897468701
  0
LINE
  5
40D
100
AcDbEntity
  8
03__ASM_ALL_CURVES
100
AcDbLine
 62
40
  6
CONTINUOUS
 10
4.6550131827
 20
5.1897468701
 11
4.6691647452
 21
5.1897468701
  0
LINE
  5
40E
100
AcDbEntity
  8
03__ASM_ALL_CURVES
100
AcDbLine
 62
40
  6
CONTINUOUS
 10
4.7682256827
 20
5.1897468701
 11
4.7823772452
 21
5.1897468701
  0
LINE
  5
40F
100
AcDbEntity
  8
03__ASM_ALL_CURVES
100
AcDbLine
 62
40
  6
CONTINUOUS
 10
4.9663475577
 20
5.1897468701
 11
5.0371053702
 21
5.1897468701
  0
LINE
  5
410
100
AcDbEntity
  8
03__ASM_ALL_CURVES
100
AcDbLine
 62
40
  6
CONTINUOUS
 10
5.3342881827
 20
5.1897468701
 11
5.3484397452
 21
5.1897468701
  0
LINE
  5
411
100
AcDbEntity
  8
03__ASM_ALL_CURVES
100
AcDbLine
 62
40
  6
CONTINUOUS
 10
5.7871381827
 20
5.1897468701
 11
5.8012897452
 21
5.1897468701
  0
LINE
  5
412
100
AcDbEntity
  8
03__ASM_ALL_CURVES
100
AcDbLine
 62
40
  6
CONTINUOUS
 10
6.1055483389
 20
5.1897468701
 11
6.1338514639
 21
5.1897468701
  0
LINE
  5
413
100
AcDbEntity
  8
03__ASM_ALL_CURVES
100
AcDbLine
 62
40
  6
CONTINUOUS
 10
6.2187608389
 20
5.1897468701
 11
6.2753670889
 21
5.1897468701
  0
LINE
  5
414
100
AcDbEntity
  8
03__ASM_ALL_CURVES
100
AcDbLine
 62
40
  6
CONTINUOUS
 10
6.3319733389
 20
5.1897468701
 11
6.3673522452
 21
5.1897468701
  0
LINE
  5
415
100
AcDbEntity
  8
03__ASM_ALL_CURVES
100
AcDbLine
 62
40
  6
CONTINUOUS
 10
6.1338514639
 20
5.1897468701
 11
6.1480030264
 21
5.1803124973
  0
LINE
  5
416
100
AcDbEntity
  8
03__ASM_ALL_CURVES
100
AcDbLine
 62
40
  6
CONTINUOUS
 10
6.1480030264
 20
5.1803124973
 11
6.1621545889
 21
5.1614437451
  0
LINE
  5
417
100
AcDbEntity
  8
03__ASM_ALL_CURVES
100
AcDbLine
 62
40
  6
CONTINUOUS
 10
6.3673522452
 20
5.1331406201
 11
6.3885795889
 21
5.0765343701
  0
LINE
  5
418
100
AcDbEntity
  8
03__ASM_ALL_CURVES
100
AcDbLine
 62
40
  6
CONTINUOUS
 10
7.1327401515
 20
3.4270426826
 11
7.1486606593
 21
3.3845879951
  0
LINE
  5
419
100
AcDbEntity
  8
0
100
AcDbLine
 62
7
  6
CONTINUOUS
 10
6.7999333398
 20
3.7502473701
 11
6.7999333398
 21
4.3127473701
  0
LINE
  5
41A
100
AcDbEntity
  8
0
100
AcDbLine
 62
7
  6
CONTINUOUS
 10
6.8794333398
 20
4.1732776537
 11
6.8794333398
 21
4.1266926267
  0
LINE
  5
41B
100
AcDbEntity
  8
0
100
AcDbLine
 62
7
  6
CONTINUOUS
 10
6.8794333398
 20
3.9362072107
 11
6.8794333398
 21
3.8898420839
  0
LINE
  5
41C
100
AcDbEntity
  8
0
100
AcDbLine
 62
7
  6
CONTINUOUS
 10
6.8864333398
 20
4.1771659099
 11
6.8864333398
 21
4.1215095491
  0
LINE
  5
41D
100
AcDbEntity
  8
0
100
AcDbLine
 62
7
  6
CONTINUOUS
 10
6.8864333398
 20
3.8858722385
 11
6.8864333398
 21
3.9414559149
  0
LINE
  5
41E
100
AcDbEntity
  8
0
100
AcDbLine
 62
7
  6
CONTINUOUS
 10
6.8964333398
 20
4.1819908717
 11
6.8964333398
 21
4.115089476
  0
LINE
  5
41F
100
AcDbEntity
  8
0
100
AcDbLine
 62
7
  6
CONTINUOUS
 10
6.8964333398
 20
3.8808530116
 11
6.8964333398
 21
3.9481599151
  0
LINE
  5
420
100
AcDbEntity
  8
0
100
AcDbLine
 62
7
  6
CONTINUOUS
 10
6.9034333398
 20
4.1839511676
 11
6.9034333398
 21
4.1122454505
  0
LINE
  5
421
100
AcDbEntity
  8
0
100
AcDbLine
 62
7
  6
CONTINUOUS
 10
6.9034333398
 20
3.9506985537
 11
6.9034333398
 21
3.8790751005
  0
LINE
  5
422
100
AcDbEntity
  8
0
100
AcDbLine
 62
7
  6
CONTINUOUS
 10
6.9318543925
 20
3.8754716922
 11
6.9318543925
 21
3.8347374728
  0
LINE
  5
423
100
AcDbEntity
  8
03__ASM_ALL_CURVES
100
AcDbLine
 62
40
  6
CONTINUOUS
 10
6.9363872218
 20
3.3845879951
 11
6.9363872218
 21
3.4694973701
  0
LINE
  5
424
100
AcDbEntity
  8
0
100
AcDbLine
 62
7
  6
CONTINUOUS
 10
6.9414333398
 20
4.1864285533
 11
6.9414333398
 21
4.1087696674
  0
LINE
  5
425
100
AcDbEntity
  8
0
100
AcDbLine
 62
7
  6
CONTINUOUS
 10
6.9414333398
 20
3.9591489047
 11
6.9414333398
 21
3.8732422447
  0
LINE
  5
426
100
AcDbEntity
  8
03__ASM_ALL_CURVES
100
AcDbLine
 62
40
  6
CONTINUOUS
 10
6.428826049
 20
3.4482700263
 11
6.423519213
 21
3.4411942468
  0
LINE
  5
427
100
AcDbEntity
  8
03__ASM_ALL_CURVES
100
AcDbLine
 62
40
  6
CONTINUOUS
 10
6.4341328849
 20
3.4058153388
 11
6.423519213
 21
3.3916637766
  0
LINE
  5
428
100
AcDbEntity
  8
03__ASM_ALL_CURVES
100
AcDbLine
 62
40
  6
CONTINUOUS
 10
6.253700463
 20
3.4341184622
 11
6.2430867911
 21
3.4270426826
  0
LINE
  5
429
100
AcDbEntity
  8
03__ASM_ALL_CURVES
100
AcDbLine
 62
40
  6
CONTINUOUS
 10
6.3916781974
 20
3.4624215905
 11
6.4022918693
 21
3.4694973701
  0
LINE
  5
42A
100
AcDbEntity
  8
03__ASM_ALL_CURVES
100
AcDbLine
 62
40
  6
CONTINUOUS
 10
6.423519213
 20
3.4411942468
 11
6.4129055411
 21
3.4341184622
  0
LINE
  5
42B
100
AcDbEntity
  8
03__ASM_ALL_CURVES
100
AcDbLine
 62
40
  6
CONTINUOUS
 10
6.423519213
 20
3.3916637766
 11
6.4129055411
 21
3.3845879951
  0
LINE
  5
42C
100
AcDbEntity
  8
03__ASM_ALL_CURVES
100
AcDbLine
 62
40
  6
CONTINUOUS
 10
4.2035783398
 20
5.0086068701
 11
4.4752883398
 21
5.0538918701
  0
LINE
  5
42D
100
AcDbEntity
  8
03__ASM_ALL_CURVES
100
AcDbLine
 62
40
  6
CONTINUOUS
 10
3.2882883398
 20
5.0501181201
 11
3.1524333398
 21
5.0312493701
  0
LINE
  5
42E
100
AcDbEntity
  8
03__ASM_ALL_CURVES
100
AcDbLine
 62
40
  6
CONTINUOUS
 10
3.2882883398
 20
5.0463443701
 11
3.1524333398
 21
5.0312493701
  0
LINE
  5
42F
100
AcDbEntity
  8
03__ASM_ALL_CURVES
100
AcDbLine
 62
40
  6
CONTINUOUS
 10
3.2882883398
 20
5.0425706201
 11
3.1524333398
 21
5.0312493701
  0
LINE
  5
430
100
AcDbEntity
  8
03__ASM_ALL_CURVES
100
AcDbLine
 62
40
  6
CONTINUOUS
 10
6.3673522452
 20
5.1897468701
 11
6.3815038077
 21
5.1803124973
  0
LINE
  5
431
100
AcDbEntity
  8
03__ASM_ALL_CURVES
100
AcDbLine
 62
40
  6
CONTINUOUS
 10
8.1902632234
 20
4.0541398701
 11
8.1796495515
 21
4.0612156516
  0
LINE
  5
432
100
AcDbEntity
  8
03__ASM_ALL_CURVES
100
AcDbLine
 62
40
  6
CONTINUOUS
 10
6.3815038077
 20
5.1803124973
 11
6.3885795889
 21
5.1708781178
  0
LINE
  5
433
100
AcDbEntity
  8
03__ASM_ALL_CURVES
100
AcDbLine
 62
40
  6
CONTINUOUS
 10
7.0159897609
 20
3.4058153388
 11
7.010682925
 21
3.4270426826
  0
LINE
  5
434
100
AcDbEntity
  8
03__ASM_ALL_CURVES
100
AcDbLine
 62
40
  6
CONTINUOUS
 10
7.0690581203
 20
3.4482700263
 11
7.0743649562
 21
3.4270426826
  0
LINE
  5
435
100
AcDbEntity
  8
03__ASM_ALL_CURVES
100
AcDbLine
 62
40
  6
CONTINUOUS
 10
6.9788419093
 20
3.4553458059
 11
6.9788419093
 21
3.4411942468
  0
LINE
  5
436
100
AcDbEntity
  8
0
100
AcDbLine
 62
7
  6
CONTINUOUS
 10
7.0044333398
 20
3.9536853089
 11
7.0044333398
 21
3.8769506081
  0
LINE
  5
437
100
AcDbEntity
  8
03__ASM_ALL_CURVES
100
AcDbLine
 62
40
  6
CONTINUOUS
 10
7.1062059718
 20
3.3845879951
 11
7.1062059718
 21
3.4694973701
  0
LINE
  5
438
100
AcDbEntity
  8
03__ASM_ALL_CURVES
100
AcDbLine
 62
40
  6
CONTINUOUS
 10
3.1524333398
 20
5.0312493701
 11
3.2882883398
 21
5.0538918701
  0
LINE
  5
439
100
AcDbEntity
  8
03__ASM_ALL_CURVES
100
AcDbLine
 62
40
  6
CONTINUOUS
 10
8.1159675203
 20
4.1390492451
 11
8.1265811921
 21
4.1319734655
  0
LINE
  5
43A
100
AcDbEntity
  8
03__ASM_ALL_CURVES
100
AcDbLine
 62
40
  6
CONTINUOUS
 10
8.2008768953
 20
4.1390492451
 11
8.2114905671
 21
4.1319734655
  0
LINE
  5
43B
100
AcDbEntity
  8
03__ASM_ALL_CURVES
100
AcDbLine
 62
40
  6
CONTINUOUS
 10
8.2857862703
 20
4.1390492451
 11
8.2963999421
 21
4.1319734655
  0
LINE
  5
43C
100
AcDbEntity
  8
03__ASM_ALL_CURVES
100
AcDbLine
 62
40
  6
CONTINUOUS
 10
7.1486606593
 20
3.4553458059
 11
7.1486606593
 21
3.4411942468
  0
LINE
  5
43D
100
AcDbEntity
  8
03__ASM_ALL_CURVES
100
AcDbLine
 62
40
  6
CONTINUOUS
 10
7.2123426906
 20
3.4694973701
 11
7.2123426906
 21
3.3845879951
  0
LINE
  5
43E
100
AcDbEntity
  8
0
100
AcDbLine
 62
7
  6
CONTINUOUS
 10
7.2899333398
 20
3.7502473701
 11
7.2899333398
 21
4.3127473701
  0
LINE
  5
43F
100
AcDbEntity
  8
03__ASM_ALL_CURVES
100
AcDbLine
 62
40
  6
CONTINUOUS
 10
7.3184794093
 20
3.4553458059
 11
7.3184794093
 21
3.4411942468
  0
LINE
  5
440
100
AcDbEntity
  8
03__ASM_ALL_CURVES
100
AcDbLine
 62
40
  6
CONTINUOUS
 10
7.010682925
 20
3.4270426826
 11
7.0159897609
 21
3.4482700263
  0
LINE
  5
441
100
AcDbEntity
  8
03__ASM_ALL_CURVES
100
AcDbLine
 62
40
  6
CONTINUOUS
 10
7.0743649562
 20
3.4270426826
 11
7.0690581203
 21
3.4058153388
  0
LINE
  5
442
100
AcDbEntity
  8
03__ASM_ALL_CURVES
100
AcDbLine
 62
40
  6
CONTINUOUS
 10
6.9788419093
 20
3.4411942468
 11
6.9735350734
 21
3.4341184622
  0
LINE
  5
443
100
AcDbEntity
  8
03__ASM_ALL_CURVES
100
AcDbLine
 62
40
  6
CONTINUOUS
 10
7.0159897609
 20
3.4482700263
 11
7.0266034328
 21
3.4624215905
  0
LINE
  5
444
100
AcDbEntity
  8
03__ASM_ALL_CURVES
100
AcDbLine
 62
40
  6
CONTINUOUS
 10
6.9735350734
 20
3.4341184622
 11
6.9629214015
 21
3.4270426826
  0
LINE
  5
445
100
AcDbEntity
  8
03__ASM_ALL_CURVES
100
AcDbLine
 62
40
  6
CONTINUOUS
 10
7.0266034328
 20
3.4624215905
 11
7.0372171046
 21
3.4694973701
  0
LINE
  5
446
100
AcDbEntity
  8
03__ASM_ALL_CURVES
100
AcDbLine
 62
40
  6
CONTINUOUS
 10
7.0584444484
 20
3.3916637766
 11
7.0478307765
 21
3.3845879951
  0
LINE
  5
447
100
AcDbEntity
  8
03__ASM_ALL_CURVES
100
AcDbLine
 62
40
  6
CONTINUOUS
 10
8.1265811921
 20
4.1036703372
 11
8.1159675203
 21
4.0965945576
  0
LINE
  5
448
100
AcDbEntity
  8
03__ASM_ALL_CURVES
100
AcDbLine
 62
40
  6
CONTINUOUS
 10
8.1796495515
 20
4.1319734655
 11
8.1902632234
 21
4.1390492451
  0
LINE
  5
449
100
AcDbEntity
  8
03__ASM_ALL_CURVES
100
AcDbLine
 62
40
  6
CONTINUOUS
 10
7.1433538234
 20
3.4341184622
 11
7.1327401515
 21
3.4270426826
  0
LINE
  5
44A
100
AcDbEntity
  8
03__ASM_ALL_CURVES
100
AcDbLine
 62
40
  6
CONTINUOUS
 10
7.2813315578
 20
3.4624215905
 11
7.2919452296
 21
3.4694973701
  0
LINE
  5
44B
100
AcDbEntity
  8
0
100
AcDbLine
 62
7
  6
CONTINUOUS
 10
7.6809333398
 20
4.3299973701
 11
7.6684333398
 21
4.3424973701
  0
LINE
  5
44C
100
AcDbEntity
  8
0
100
AcDbLine
 62
7
  6
CONTINUOUS
 10
7.3329674832
 20
3.7204973701
 11
7.3329674832
 21
4.3424973701
  0
LINE
  5
44D
100
AcDbEntity
  8
0
100
AcDbLine
 62
7
  6
CONTINUOUS
 10
7.4009333398
 20
3.7034978688
 11
7.4009333398
 21
4.3594968714
  0
LINE
  5
44E
100
AcDbEntity
  8
0
100
AcDbLine
 62
7
  6
CONTINUOUS
 10
7.4509333398
 20
3.7034978688
 11
7.4509333398
 21
4.3594968714
  0
LINE
  5
44F
100
AcDbEntity
  8
03__ASM_ALL_CURVES
100
AcDbLine
 62
40
  6
CONTINUOUS
 10
7.2813315578
 20
3.4058153388
 11
7.2760247218
 21
3.3845879951
  0
LINE
  5
450
100
AcDbEntity
  8
03__ASM_ALL_CURVES
100
AcDbLine
 62
40
  6
CONTINUOUS
 10
7.0690581203
 20
3.4058153388
 11
7.0584444484
 21
3.3916637766
  0
LINE
  5
451
100
AcDbEntity
  8
03__ASM_ALL_CURVES
100
AcDbLine
 62
40
  6
CONTINUOUS
 10
7.1486606593
 20
3.4411942468
 11
7.1433538234
 21
3.4341184622
  0
LINE
  5
452
100
AcDbEntity
  8
03__ASM_ALL_CURVES
100
AcDbLine
 62
40
  6
CONTINUOUS
 10
7.2760247218
 20
3.4553458059
 11
7.2813315578
 21
3.4624215905
  0
LINE
  5
453
100
AcDbEntity
  8
03__ASM_ALL_CURVES
100
AcDbLine
 62
40
  6
CONTINUOUS
 10
8.2114905671
 20
4.0612156516
 11
8.2008768953
 21
4.0541398701
  0
LINE
  5
454
100
AcDbEntity
  8
03__ASM_ALL_CURVES
100
AcDbLine
 62
40
  6
CONTINUOUS
 10
8.2963999421
 20
4.1036703372
 11
8.2857862703
 21
4.0965945576
  0
LINE
  5
455
100
AcDbEntity
  8
03__ASM_ALL_CURVES
100
AcDbLine
 62
40
  6
CONTINUOUS
 10
7.3131725734
 20
3.4341184622
 11
7.2919452296
 21
3.4199669005
  0
LINE
  5
456
100
AcDbEntity
  8
0
100
AcDbLine
 62
7
  6
CONTINUOUS
 10
7.5209333398
 20
3.7034978688
 11
7.5209333398
 21
4.3594968714
  0
LINE
  5
457
100
AcDbEntity
  8
0
100
AcDbLine
 62
7
  6
CONTINUOUS
 10
7.5709333398
 20
3.7034978688
 11
7.5709333398
 21
4.3594968714
  0
LINE
  5
458
100
AcDbEntity
  8
0
100
AcDbLine
 62
7
  6
CONTINUOUS
 10
7.5984333398
 20
3.720505847
 11
7.5984333398
 21
4.3424888931
  0
LINE
  5
459
100
AcDbEntity
  8
0
100
AcDbLine
 62
7
  6
CONTINUOUS
 10
7.6684333398
 20
3.7204973701
 11
7.6684333398
 21
4.3424973701
  0
LINE
  5
45A
100
AcDbEntity
  8
0
100
AcDbLine
 62
7
  6
CONTINUOUS
 10
7.6809333398
 20
3.7330107824
 11
7.6809333398
 21
4.3299839578
  0
LINE
  5
45B
100
AcDbEntity
  8
03__ASM_ALL_CURVES
100
AcDbLine
 62
40
  6
CONTINUOUS
 10
7.2919452296
 20
3.4199669005
 11
7.2813315578
 21
3.4058153388
  0
LINE
  5
45C
100
AcDbEntity
  8
03__ASM_ALL_CURVES
100
AcDbLine
 62
40
  6
CONTINUOUS
 10
7.3184794093
 20
3.4411942468
 11
7.3131725734
 21
3.4341184622
  0
LINE
  5
45D
100
AcDbEntity
  8
0
100
AcDbLine
 62
7
  6
CONTINUOUS
 10
7.6809333398
 20
3.7329973701
 11
7.6684333398
 21
3.7204973701
  0
LINE
  5
45E
100
AcDbEntity
  8
03__ASM_ALL_CURVES
100
AcDbLine
 62
40
  6
CONTINUOUS
 10
8.1796495515
 20
4.0612156516
 11
8.1690358796
 21
4.0753672138
  0
LINE
  5
45F
100
AcDbEntity
  8
03__ASM_ALL_CURVES
100
AcDbLine
 62
40
  6
CONTINUOUS
 10
8.1265811921
 20
4.1319734655
 11
8.1318880281
 21
4.1248976809
  0
LINE
  5
460
100
AcDbEntity
  8
03__ASM_ALL_CURVES
100
AcDbLine
 62
40
  6
CONTINUOUS
 10
8.2114905671
 20
4.1319734655
 11
8.222104239
 21
4.1178219013
  0
LINE
  5
461
100
AcDbEntity
  8
03__ASM_ALL_CURVES
100
AcDbLine
 62
40
  6
CONTINUOUS
 10
8.1318880281
 20
4.1107461218
 11
8.1265811921
 21
4.1036703372
  0
LINE
  5
462
100
AcDbEntity
  8
03__ASM_ALL_CURVES
100
AcDbLine
 62
40
  6
CONTINUOUS
 10
8.1690358796
 20
4.1178219013
 11
8.1796495515
 21
4.1319734655
  0
LINE
  5
463
100
AcDbEntity
  8
03__ASM_ALL_CURVES
100
AcDbLine
 62
40
  6
CONTINUOUS
 10
8.222104239
 20
4.0753672138
 11
8.2114905671
 21
4.0612156516
  0
LINE
  5
464
100
AcDbEntity
  8
03__ASM_ALL_CURVES
100
AcDbLine
 62
40
  6
CONTINUOUS
 10
8.2963999421
 20
4.1319734655
 11
8.3017067781
 21
4.1248976809
  0
LINE
  5
465
100
AcDbEntity
  8
03__ASM_ALL_CURVES
100
AcDbLine
 62
40
  6
CONTINUOUS
 10
8.3017067781
 20
4.1107461218
 11
8.2963999421
 21
4.1036703372
  0
LINE
  5
466
100
AcDbEntity
  8
03__ASM_ALL_CURVES
100
AcDbLine
 62
40
  6
CONTINUOUS
 10
8.2857862703
 20
4.0965945576
 11
8.3017067781
 21
4.0541398701
  0
LINE
  5
467
100
AcDbEntity
  8
03__ASM_ALL_CURVES
100
AcDbLine
 62
40
  6
CONTINUOUS
 10
8.1690358796
 20
4.0753672138
 11
8.1637290437
 21
4.0965945576
  0
LINE
  5
468
100
AcDbEntity
  8
03__ASM_ALL_CURVES
100
AcDbLine
 62
40
  6
CONTINUOUS
 10
8.0894333406
 20
4.0541398701
 11
8.0894333406
 21
4.1390492451
  0
LINE
  5
469
100
AcDbEntity
  8
03__ASM_ALL_CURVES
100
AcDbLine
 62
40
  6
CONTINUOUS
 10
8.1318880281
 20
4.1248976809
 11
8.1318880281
 21
4.1107461218
  0
LINE
  5
46A
100
AcDbEntity
  8
03__ASM_ALL_CURVES
100
AcDbLine
 62
40
  6
CONTINUOUS
 10
8.1637290437
 20
4.0965945576
 11
8.1690358796
 21
4.1178219013
  0
LINE
  5
46B
100
AcDbEntity
  8
03__ASM_ALL_CURVES
100
AcDbLine
 62
40
  6
CONTINUOUS
 10
8.2274110749
 20
4.0965945576
 11
8.222104239
 21
4.0753672138
  0
LINE
  5
46C
100
AcDbEntity
  8
03__ASM_ALL_CURVES
100
AcDbLine
 62
40
  6
CONTINUOUS
 10
8.222104239
 20
4.1178219013
 11
8.2274110749
 21
4.0965945576
  0
LINE
  5
46D
100
AcDbEntity
  8
03__ASM_ALL_CURVES
100
AcDbLine
 62
40
  6
CONTINUOUS
 10
8.2592520906
 20
4.0541398701
 11
8.2592520906
 21
4.1390492451
  0
LINE
  5
46E
100
AcDbEntity
  8
03__ASM_ALL_CURVES
100
AcDbLine
 62
40
  6
CONTINUOUS
 10
8.3017067781
 20
4.1248976809
 11
8.3017067781
 21
4.1107461218
  0
LINE
  5
46F
100
AcDbEntity
  8
03__ASM_ALL_CURVES
100
AcDbLine
 62
40
  6
CONTINUOUS
 10
8.3653888093
 20
4.1390492451
 11
8.3653888093
 21
4.0541398701
  0
LINE
  5
470
100
AcDbEntity
  8
03__ASM_ALL_CURVES
100
AcDbLine
 62
40
  6
CONTINUOUS
 10
8.4502981843
 20
4.1390492451
 11
8.4502981843
 21
4.0541398701
  0
ARC
  5
471
100
AcDbEntity
  8
0
100
AcDbCircle
 62
7
  6
CONTINUOUS
 10
5.4829333398
 20
3.7054973701
 40
0.046
100
AcDbArc
 50
0.0000393254
 51
90.0
  0
ARC
  5
472
100
AcDbEntity
  8
0
100
AcDbCircle
 62
7
  6
CONTINUOUS
 10
5.4829333398
 20
4.3574973701
 40
0.046
100
AcDbArc
 50
270.0
 51
359.9999606746
  0
ARC
  5
473
100
AcDbEntity
  8
0
100
AcDbCircle
 62
7
  6
CONTINUOUS
 10
7.2899333398
 20
4.3587473701
 40
0.046
100
AcDbArc
 50
270.0
 51
339.3131053161
  0
ARC
  5
474
100
AcDbEntity
  8
0
100
AcDbCircle
 62
7
  6
CONTINUOUS
 10
7.2899333398
 20
3.7042473701
 40
0.046
100
AcDbArc
 50
20.6868946839
 51
90.0
  0
ARC
  5
475
100
AcDbEntity
  8
0
100
AcDbCircle
 62
7
  6
CONTINUOUS
 10
6.7999333398
 20
4.3587473701
 40
0.046
100
AcDbArc
 50
180.0000035528
 51
270.0
  0
ARC
  5
476
100
AcDbEntity
  8
0
100
AcDbCircle
 62
7
  6
CONTINUOUS
 10
6.7999333398
 20
3.7042473701
 40
0.046
100
AcDbArc
 50
90.0
 51
179.9999964472
  0
ARC
  5
477
100
AcDbEntity
  8
0
100
AcDbCircle
 62
7
  6
CONTINUOUS
 10
6.3829333398
 20
4.3587473701
 40
0.046
100
AcDbArc
 50
270.0
 51
359.9999605717
  0
ARC
  5
478
100
AcDbEntity
  8
0
100
AcDbCircle
 62
7
  6
CONTINUOUS
 10
6.3829333398
 20
3.7042473701
 40
0.046
100
AcDbArc
 50
0.0000394283
 51
90.0
  0
ARC
  5
479
100
AcDbEntity
  8
0
100
AcDbCircle
 62
7
  6
CONTINUOUS
 10
5.8999333398
 20
4.3587473701
 40
0.046
100
AcDbArc
 50
180.0000035528
 51
270.0
  0
ARC
  5
47A
100
AcDbEntity
  8
0
100
AcDbCircle
 62
7
  6
CONTINUOUS
 10
5.8999333398
 20
3.7042473701
 40
0.046
100
AcDbArc
 50
90.0
 51
179.9999964472
  0
ARC
  5
47B
100
AcDbEntity
  8
0
100
AcDbCircle
 62
7
  6
CONTINUOUS
 10
4.5218145377
 20
3.6729973701
 40
0.008
100
AcDbArc
 50
29.9999999771
 51
90.0
  0
ARC
  5
47C
100
AcDbEntity
  8
0
100
AcDbCircle
 62
7
  6
CONTINUOUS
 10
4.5218145377
 20
4.3899973701
 40
0.008
100
AcDbArc
 50
270.0
 51
330.0000000114
  0
ARC
  5
47D
100
AcDbEntity
  8
0
100
AcDbCircle
 62
7
  6
CONTINUOUS
 10
4.2764333398
 20
4.4519973701
 40
0.002
100
AcDbArc
 50
222.3553148142
 51
317.6446851858
  0
ARC
  5
47E
100
AcDbEntity
  8
0
100
AcDbCircle
 62
7
  6
CONTINUOUS
 10
4.2764333398
 20
3.6109973701
 40
0.002
100
AcDbArc
 50
42.3553148142
 51
137.6446851858
  0
SPLINE
  5
47F
100
AcDbEntity
  8
0
100
AcDbSpline
 62
7
  6
CONTINUOUS
 70
0
 71
3
 72
15
 73
11
 74
9
 42
0.0000001
 43
0.0000001
 44
0.0000000001
 12
0.0
 22
0.1099409465
 32
0.0
 13
0.0
 23
-0.1099409465
 33
0.0
 40
0.0
 40
0.0
 40
0.0
 40
0.0
 40
0.125
 40
0.25
 40
0.375
 40
0.5
 40
0.625
 40
0.75
 40
0.875
 40
1.0
 40
1.0
 40
1.0
 40
1.0
 10
6.6114333398
 20
4.3229973701
 30
0.0
 10
6.6114333398
 20
4.3275782429
 30
0.0
 10
6.6096109553
 20
4.3367399884
 30
0.0
 10
6.6018263874
 20
4.3483904177
 30
0.0
 10
6.5901759581
 20
4.3561749856
 30
0.0
 10
6.5764333398
 20
4.3589085623
 30
0.0
 10
6.5626907215
 20
4.3561749856
 30
0.0
 10
6.5510402923
 20
4.3483904177
 30
0.0
 10
6.5432557243
 20
4.3367399884
 30
0.0
 10
6.5414333398
 20
4.3275782429
 30
0.0
 10
6.5414333398
 20
4.3229973701
 30
0.0
 11
6.6114333398
 21
4.3229973701
 31
0.0
 11
6.6087691235
 21
4.3363912902
 31
0.0
 11
6.6011820772
 21
4.3477461074
 31
0.0
 11
6.58982726
 21
4.3553331537
 31
0.0
 11
6.5764333398
 21
4.3579973701
 31
0.0
 11
6.5630394197
 21
4.3553331537
 31
0.0
 11
6.5516846025
 21
4.3477461074
 31
0.0
 11
6.5440975562
 21
4.3363912902
 31
0.0
 11
6.5414333398
 21
4.3229973701
 31
0.0
  0
SPLINE
  5
480
100
AcDbEntity
  8
0
100
AcDbSpline
 62
7
  6
CONTINUOUS
 70
0
 71
3
 72
15
 73
11
 74
9
 42
0.0000001
 43
0.0000001
 44
0.0000000001
 12
0.0
 22
-0.1099409465
 32
0.0
 13
0.0
 23
0.1099409465
 33
0.0
 40
0.0
 40
0.0
 40
0.0
 40
0.0
 40
0.125
 40
0.25
 40
0.375
 40
0.5
 40
0.625
 40
0.75
 40
0.875
 40
1.0
 40
1.0
 40
1.0
 40
1.0
 10
6.6114333398
 20
3.7399973701
 30
0.0
 10
6.6114333398
 20
3.7354164973
 30
0.0
 10
6.6096109553
 20
3.7262547518
 30
0.0
 10
6.6018263874
 20
3.7146043225
 30
0.0
 10
6.5901759581
 20
3.7068197546
 30
0.0
 10
6.5764333398
 20
3.7040861778
 30
0.0
 10
6.5626907215
 20
3.7068197546
 30
0.0
 10
6.5510402923
 20
3.7146043225
 30
0.0
 10
6.5432557243
 20
3.7262547518
 30
0.0
 10
6.5414333398
 20
3.7354164973
 30
0.0
 10
6.5414333398
 20
3.7399973701
 30
0.0
 11
6.6114333398
 21
3.7399973701
 31
0.0
 11
6.6087691235
 21
3.72660345
 31
0.0
 11
6.6011820772
 21
3.7152486328
 31
0.0
 11
6.58982726
 21
3.7076615865
 31
0.0
 11
6.5764333398
 21
3.7049973701
 31
0.0
 11
6.5630394197
 21
3.7076615865
 31
0.0
 11
6.5516846025
 21
3.7152486328
 31
0.0
 11
6.5440975562
 21
3.72660345
 31
0.0
 11
6.5414333398
 21
3.7399973701
 31
0.0
  0
SPLINE
  5
481
100
AcDbEntity
  8
0
100
AcDbSpline
 62
7
  6
CONTINUOUS
 70
0
 71
3
 72
15
 73
11
 74
9
 42
0.0000001
 43
0.0000001
 44
0.0000000001
 12
0.0
 22
0.1099409465
 32
0.0
 13
0.0
 23
-0.1099409465
 33
0.0
 40
0.0
 40
0.0
 40
0.0
 40
0.0
 40
0.125
 40
0.25
 40
0.375
 40
0.5
 40
0.625
 40
0.75
 40
0.875
 40
1.0
 40
1.0
 40
1.0
 40
1.0
 10
7.5209333398
 20
4.3229973701
 30
0.0
 10
7.5209333398
 20
4.3275782429
 30
0.0
 10
7.5191109553
 20
4.3367399884
 30
0.0
 10
7.5113263874
 20
4.3483904177
 30
0.0
 10
7.4996759581
 20
4.3561749856
 30
0.0
 10
7.4859333398
 20
4.3589085623
 30
0.0
 10
7.4721907215
 20
4.3561749856
 30
0.0
 10
7.4605402923
 20
4.3483904177
 30
0.0
 10
7.4527557243
 20
4.3367399884
 30
0.0
 10
7.4509333398
 20
4.3275782429
 30
0.0
 10
7.4509333398
 20
4.3229973701
 30
0.0
 11
7.5209333398
 21
4.3229973701
 31
0.0
 11
7.5182691235
 21
4.3363912902
 31
0.0
 11
7.5106820772
 21
4.3477461074
 31
0.0
 11
7.49932726
 21
4.3553331537
 31
0.0
 11
7.4859333398
 21
4.3579973701
 31
0.0
 11
7.4725394197
 21
4.3553331537
 31
0.0
 11
7.4611846025
 21
4.3477461074
 31
0.0
 11
7.4535975562
 21
4.3363912902
 31
0.0
 11
7.4509333398
 21
4.3229973701
 31
0.0
  0
SPLINE
  5
482
100
AcDbEntity
  8
0
100
AcDbSpline
 62
7
  6
CONTINUOUS
 70
0
 71
3
 72
15
 73
11
 74
9
 42
0.0000001
 43
0.0000001
 44
0.0000000001
 12
0.0
 22
-0.1099409465
 32
0.0
 13
0.0
 23
0.1099409465
 33
0.0
 40
0.0
 40
0.0
 40
0.0
 40
0.0
 40
0.125
 40
0.25
 40
0.375
 40
0.5
 40
0.625
 40
0.75
 40
0.875
 40
1.0
 40
1.0
 40
1.0
 40
1.0
 10
7.5209333398
 20
3.7399973701
 30
0.0
 10
7.5209333398
 20
3.7354164973
 30
0.0
 10
7.5191109553
 20
3.7262547518
 30
0.0
 10
7.5113263874
 20
3.7146043225
 30
0.0
 10
7.4996759581
 20
3.7068197546
 30
0.0
 10
7.4859333398
 20
3.7040861778
 30
0.0
 10
7.4721907215
 20
3.7068197546
 30
0.0
 10
7.4605402923
 20
3.7146043225
 30
0.0
 10
7.4527557243
 20
3.7262547518
 30
0.0
 10
7.4509333398
 20
3.7354164973
 30
0.0
 10
7.4509333398
 20
3.7399973701
 30
0.0
 11
7.5209333398
 21
3.7399973701
 31
0.0
 11
7.5182691235
 21
3.72660345
 31
0.0
 11
7.5106820772
 21
3.7152486328
 31
0.0
 11
7.49932726
 21
3.7076615865
 31
0.0
 11
7.4859333398
 21
3.7049973701
 31
0.0
 11
7.4725394197
 21
3.7076615865
 31
0.0
 11
7.4611846025
 21
3.7152486328
 31
0.0
 11
7.4535975562
 21
3.72660345
 31
0.0
 11
7.4509333398
 21
3.7399973701
 31
0.0
  0
SPLINE
  5
483
100
AcDbEntity
  8
0
100
AcDbSpline
 62
7
  6
CONTINUOUS
 70
0
 71
3
 72
15
 73
11
 74
9
 42
0.0000001
 43
0.0000001
 44
0.0000000001
 12
0.0
 22
0.1099409465
 32
0.0
 13
-0.0
 23
-0.1099409465
 33
0.0
 40
0.0
 40
0.0
 40
0.0
 40
0.0
 40
0.125
 40
0.25
 40
0.375
 40
0.5
 40
0.625
 40
0.75
 40
0.875
 40
1.0
 40
1.0
 40
1.0
 40
1.0
 10
5.7114333398
 20
4.3589973701
 30
0.0
 10
5.7114333398
 20
4.3635782429
 30
0.0
 10
5.7096109553
 20
4.3727399884
 30
0.0
 10
5.7018263874
 20
4.3843904177
 30
0.0
 10
5.6901759581
 20
4.3921749856
 30
0.0
 10
5.6764333398
 20
4.3949085623
 30
0.0
 10
5.6626907215
 20
4.3921749856
 30
0.0
 10
5.6510402923
 20
4.3843904177
 30
0.0
 10
5.6432557243
 20
4.3727399884
 30
0.0
 10
5.6414333398
 20
4.3635782429
 30
0.0
 10
5.6414333398
 20
4.3589973701
 30
0.0
 11
5.7114333398
 21
4.3589973701
 31
0.0
 11
5.7087691235
 21
4.3723912902
 31
0.0
 11
5.7011820772
 21
4.3837461074
 31
0.0
 11
5.68982726
 21
4.3913331537
 31
0.0
 11
5.6764333398
 21
4.3939973701
 31
0.0
 11
5.6630394197
 21
4.3913331537
 31
0.0
 11
5.6516846025
 21
4.3837461074
 31
0.0
 11
5.6440975562
 21
4.3723912902
 31
0.0
 11
5.6414333398
 21
4.3589973701
 31
0.0
  0
SPLINE
  5
484
100
AcDbEntity
  8
0
100
AcDbSpline
 62
7
  6
CONTINUOUS
 70
0
 71
3
 72
15
 73
11
 74
9
 42
0.0000001
 43
0.0000001
 44
0.0000000001
 12
0.0
 22
-0.1099409465
 32
0.0
 13
-0.0
 23
0.1099409465
 33
0.0
 40
0.0
 40
0.0
 40
0.0
 40
0.0
 40
0.125
 40
0.25
 40
0.375
 40
0.5
 40
0.625
 40
0.75
 40
0.875
 40
1.0
 40
1.0
 40
1.0
 40
1.0
 10
5.7114333398
 20
3.7039973701
 30
0.0
 10
5.7114333398
 20
3.6994164973
 30
0.0
 10
5.7096109553
 20
3.6902547518
 30
0.0
 10
5.7018263874
 20
3.6786043225
 30
0.0
 10
5.6901759581
 20
3.6708197546
 30
0.0
 10
5.6764333398
 20
3.6680861778
 30
0.0
 10
5.6626907215
 20
3.6708197546
 30
0.0
 10
5.6510402923
 20
3.6786043225
 30
0.0
 10
5.6432557243
 20
3.6902547518
 30
0.0
 10
5.6414333398
 20
3.6994164973
 30
0.0
 10
5.6414333398
 20
3.7039973701
 30
0.0
 11
5.7114333398
 21
3.7039973701
 31
0.0
 11
5.7087691235
 21
3.69060345
 31
0.0
 11
5.7011820772
 21
3.6792486328
 31
0.0
 11
5.68982726
 21
3.6716615865
 31
0.0
 11
5.6764333398
 21
3.6689973701
 31
0.0
 11
5.6630394197
 21
3.6716615865
 31
0.0
 11
5.6516846025
 21
3.6792486328
 31
0.0
 11
5.6440975562
 21
3.69060345
 31
0.0
 11
5.6414333398
 21
3.7039973701
 31
0.0
  0
SPLINE
  5
485
100
AcDbEntity
  8
0
100
AcDbSpline
 62
7
  6
CONTINUOUS
 70
0
 71
3
 72
14
 73
10
 74
8
 42
0.0000001
 43
0.0000001
 44
0.0000000001
 12
0.0
 22
0.0923501321
 32
0.0
 13
-0.0445331995
 23
-0.0809161858
 33
0.0
 40
0.0
 40
0.0
 40
0.0
 40
0.0
 40
0.1488099475
 40
0.297619895
 40
0.4464298425
 40
0.59523979
 40
0.7440497375
 40
0.892859685
 40
1.0
 40
1.0
 40
1.0
 40
1.0
 10
4.4564333398
 20
4.4169973701
 30
0.0
 10
4.4564333398
 20
4.4215782429
 30
0.0
 10
4.4546109553
 20
4.4307399884
 30
0.0
 10
4.4468263874
 20
4.4423904177
 30
0.0
 10
4.4351759581
 20
4.4501749856
 30
0.0
 10
4.4214333398
 20
4.4529085623
 30
0.0
 10
4.4076907215
 20
4.4501749856
 30
0.0
 10
4.39712774
 20
4.443117027
 30
0.0
 10
4.3923543198
 20
4.4367478394
 30
0.0
 10
4.3907638861
 20
4.4338580442
 30
0.0
 11
4.4564333398
 21
4.4169973701
 31
0.0
 11
4.4537691235
 21
4.4303912902
 31
0.0
 11
4.4461820772
 21
4.4417461074
 31
0.0
 11
4.43482726
 21
4.4493331537
 31
0.0
 11
4.4214333398
 21
4.4519973701
 31
0.0
 11
4.4080394197
 21
4.4493331537
 31
0.0
 11
4.3966846025
 21
4.4417461074
 31
0.0
 11
4.3907638861
 21
4.4338580442
 31
0.0
  0
SPLINE
  5
486
100
AcDbEntity
  8
0
100
AcDbSpline
 62
7
  6
CONTINUOUS
 70
0
 71
3
 72
9
 73
5
 74
3
 42
0.0000001
 43
0.0000001
 44
0.0000000001
 12
-0.0084826651
 22
-0.0154128811
 32
0.0
 13
0.0
 23
-0.0175908144
 33
0.0
 40
0.0
 40
0.0
 40
0.0
 40
0.0
 40
0.2187616778
 40
1.0
 40
1.0
 40
1.0
 40
1.0
 10
4.3907638861
 20
4.4338580442
 30
0.0
 10
4.3901453254
 20
4.4327341283
 30
0.0
 10
4.3875996833
 20
4.4274418477
 30
0.0
 10
4.3864333398
 20
4.4215782429
 30
0.0
 10
4.3864333398
 20
4.4169973701
 30
0.0
 11
4.3907638861
 21
4.4338580442
 31
0.0
 11
4.3890975562
 21
4.4303912902
 31
0.0
 11
4.3864333398
 21
4.4169973701
 31
0.0
  0
SPLINE
  5
487
100
AcDbEntity
  8
0
100
AcDbSpline
 62
7
  6
CONTINUOUS
 70
0
 71
3
 72
14
 73
10
 74
8
 42
0.0000001
 43
0.0000001
 44
0.0000000001
 12
0.0
 22
-0.0923501321
 32
0.0
 13
-0.0445331995
 23
0.0809161858
 33
0.0
 40
0.0
 40
0.0
 40
0.0
 40
0.0
 40
0.1488099475
 40
0.297619895
 40
0.4464298425
 40
0.59523979
 40
0.7440497375
 40
0.892859685
 40
1.0
 40
1.0
 40
1.0
 40
1.0
 10
4.4564333398
 20
3.6459973701
 30
0.0
 10
4.4564333398
 20
3.6414164973
 30
0.0
 10
4.4546109553
 20
3.6322547518
 30
0.0
 10
4.4468263874
 20
3.6206043225
 30
0.0
 10
4.4351759581
 20
3.6128197546
 30
0.0
 10
4.4214333398
 20
3.6100861778
 30
0.0
 10
4.4076907215
 20
3.6128197546
 30
0.0
 10
4.39712774
 20
3.6198777132
 30
0.0
 10
4.3923543198
 20
3.6262469008
 30
0.0
 10
4.3907638861
 20
3.629136696
 30
0.0
 11
4.4564333398
 21
3.6459973701
 31
0.0
 11
4.4537691235
 21
3.63260345
 31
0.0
 11
4.4461820772
 21
3.6212486328
 31
0.0
 11
4.43482726
 21
3.6136615865
 31
0.0
 11
4.4214333398
 21
3.6109973701
 31
0.0
 11
4.4080394197
 21
3.6136615865
 31
0.0
 11
4.3966846025
 21
3.6212486328
 31
0.0
 11
4.3907638861
 21
3.629136696
 31
0.0
  0
SPLINE
  5
488
100
AcDbEntity
  8
0
100
AcDbSpline
 62
7
  6
CONTINUOUS
 70
0
 71
3
 72
9
 73
5
 74
3
 42
0.0000001
 43
0.0000001
 44
0.0000000001
 12
-0.0084826651
 22
0.0154128811
 32
0.0
 13
0.0
 23
0.0175908144
 33
0.0
 40
0.0
 40
0.0
 40
0.0
 40
0.0
 40
0.2187616778
 40
1.0
 40
1.0
 40
1.0
 40
1.0
 10
4.3907638861
 20
3.629136696
 30
0.0
 10
4.3901453254
 20
3.6302606119
 30
0.0
 10
4.3875996833
 20
3.6355528925
 30
0.0
 10
4.3864333398
 20
3.6414164973
 30
0.0
 10
4.3864333398
 20
3.6459973701
 30
0.0
 11
4.3907638861
 21
3.629136696
 31
0.0
 11
4.3890975562
 21
3.63260345
 31
0.0
 11
4.3864333398
 21
3.6459973701
 31
0.0
  0
SPLINE
  5
489
100
AcDbEntity
  8
0
100
AcDbSpline
 62
7
  6
CONTINUOUS
 70
0
 71
3
 72
14
 73
10
 74
8
 42
0.0000001
 43
0.0000001
 44
0.0000000001
 12
-0.1046826132
 22
0.2029792199
 32
0.0
 13
0.1046826132
 23
0.2029792199
 33
0.0
 40
0.0
 40
0.0
 40
0.0
 40
0.0
 40
0.1530438599
 40
0.2956043717
 40
0.4324922324
 40
0.5675957362
 40
0.7044780411
 40
0.8469906498
 40
1.0
 40
1.0
 40
1.0
 40
1.0
 10
3.6864970057
 20
3.5433948976
 30
0.0
 10
3.681156662
 20
3.5537498054
 30
0.0
 10
3.6717516686
 20
3.5742495337
 30
0.0
 10
3.6617100505
 20
3.605705058
 30
0.0
 10
3.6565663404
 20
3.6369727268
 30
0.0
 10
3.6565680335
 20
3.668241751
 30
0.0
 10
3.6617141139
 20
3.699504856
 30
0.0
 10
3.6717552963
 20
3.730953371
 30
0.0
 10
3.6811578662
 20
3.7514472697
 30
0.0
 10
3.6864970057
 20
3.7617998426
 30
0.0
 11
3.6864970057
 21
3.5433948976
 31
0.0
 11
3.672099407
 21
3.5752445385
 31
0.0
 11
3.6623645348
 21
3.6063135897
 31
0.0
 11
3.657399301
 21
3.6371797035
 31
0.0
 11
3.6574009317
 21
3.6680351116
 31
0.0
 11
3.6623689207
 21
3.6988994969
 31
0.0
 11
3.6721022431
 21
3.729957569
 31
0.0
 11
3.6864970057
 21
3.7617998426
 31
0.0
  0
SPLINE
  5
48A
100
AcDbEntity
  8
0
100
AcDbSpline
 62
7
  6
CONTINUOUS
 70
0
 71
3
 72
15
 73
11
 74
9
 42
0.0000001
 43
0.0000001
 44
0.0000000001
 12
0.1643031241
 22
0.1839340856
 32
0.0
 13
-0.1643031241
 23
0.1839340856
 33
0.0
 40
0.0
 40
0.0
 40
0.0
 40
0.0
 40
0.1498215377
 40
0.2783315905
 40
0.3927788038
 40
0.5000592815
 40
0.6073304266
 40
0.7217569014
 40
0.8502022558
 40
1.0
 40
1.0
 40
1.0
 40
1.0
 10
4.0599333398
 20
3.5433948976
 30
0.0
 10
4.0681387221
 20
3.5525806601
 30
0.0
 10
4.0825705015
 20
3.5704236187
 30
0.0
 10
4.0991682303
 20
3.5982820328
 30
0.0
 10
4.1091533372
 20
3.6255091068
 30
0.0
 10
4.1125143604
 20
3.6526114625
 30
0.0
 10
4.1091465867
 20
3.6797111263
 30
0.0
 10
4.0991594694
 20
3.7069289029
 30
0.0
 10
4.0825647398
 20
3.7347783633
 30
0.0
 10
4.0681374189
 20
3.7526155389
 30
0.0
 10
4.0599333398
 20
3.7617998426
 30
0.0
 11
4.0599333398
 21
3.5433948976
 31
0.0
 11
4.0829018136
 21
3.5723398106
 31
0.0
 11
4.0988279984
 21
3.5997425256
 31
0.0
 11
4.1082769959
 21
3.626340307
 31
0.0
 11
4.1114173048
 21
3.6526120709
 31
0.0
 11
4.1082707166
 21
3.6788807654
 31
0.0
 11
4.0988186845
 21
3.7054720402
 31
0.0
 11
4.0828984769
 21
3.7328597732
 31
0.0
 11
4.0599333398
 21
3.7617998426
 31
0.0
  0
SPLINE
  5
48B
100
AcDbEntity
  8
0
100
AcDbSpline
 62
7
  6
CONTINUOUS
 70
0
 71
3
 72
14
 73
10
 74
8
 42
0.0000001
 43
0.0000001
 44
0.0000000001
 12
-0.1103507163
 22
0.4279393037
 32
0.0
 13
0.1103507163
 23
0.4279393037
 33
0.0
 40
0.0
 40
0.0
 40
0.0
 40
0.0
 40
0.1477720816
 40
0.2900907235
 40
0.430227046
 40
0.569863817
 40
0.7099928421
 40
0.8522618536
 40
1.0
 40
1.0
 40
1.0
 40
1.0
 10
3.6864970057
 20
3.8130924251
 30
0.0
 10
3.6810614207
 20
3.8341715857
 30
0.0
 10
3.6715460685
 20
3.8758656246
 30
0.0
 10
3.6616189852
 20
3.9385142636
 30
0.0
 10
3.6565644423
 20
4.0005536985
 30
0.0
 10
3.656566101
 20
4.0624801595
 30
0.0
 10
3.661623019
 20
4.1245109659
 30
0.0
 10
3.6715497944
 20
4.1871460413
 30
0.0
 10
3.6810626689
 20
4.2288279953
 30
0.0
 10
3.6864970057
 20
4.2499023151
 30
0.0
 11
3.6864970057
 21
3.8130924251
 31
0.0
 11
3.672099407
 21
3.8767917069
 31
0.0
 11
3.6623645348
 21
3.9389298093
 31
0.0
 11
3.657399301
 21
4.000662037
 31
0.0
 11
3.6574009317
 21
4.0623728532
 31
0.0
 11
3.6623689207
 21
4.1241016238
 31
0.0
 11
3.6721022431
 21
4.1862177678
 31
0.0
 11
3.6864970057
 21
4.2499023151
 31
0.0
  0
SPLINE
  5
48C
100
AcDbEntity
  8
0
100
AcDbSpline
 62
7
  6
CONTINUOUS
 70
0
 71
3
 72
15
 73
11
 74
9
 42
0.0000001
 43
0.0000001
 44
0.0000000001
 12
0.1843202379
 22
0.4126856942
 32
0.0
 13
-0.1843202379
 23
0.4126856942
 33
0.0
 40
0.0
 40
0.0
 40
0.0
 40
0.0
 40
0.1377942686
 40
0.2640673782
 40
0.3836049145
 40
0.5000649493
 40
0.6165122554
 40
0.736022619
 40
0.8622283762
 40
1.0
 40
1.0
 40
1.0
 40
1.0
 10
4.0599333398
 20
3.8130924251
 30
0.0
 10
4.0683994306
 20
3.8320476662
 30
0.0
 10
4.0832309734
 20
3.8690286051
 30
0.0
 10
4.0995680886
 20
3.9245648862
 30
0.0
 10
4.1092612581
 20
3.9783956255
 30
0.0
 10
4.1124829146
 20
4.0315249284
 30
0.0
 10
4.1092547245
 20
4.084649679
 30
0.0
 10
4.0995592029
 20
4.1384634616
 30
0.0
 10
4.0832247534
 20
4.1939819568
 30
0.0
 10
4.0683980393
 20
4.230950189
 30
0.0
 10
4.0599333398
 20
4.2499023151
 30
0.0
 11
4.0599333398
 21
3.8130924251
 31
0.0
 11
4.0829018136
 21
3.8709822511
 31
0.0
 11
4.0988279984
 21
3.9257876812
 31
0.0
 11
4.1082769959
 21
3.9789832438
 31
0.0
 11
4.1114173048
 21
4.0315267718
 31
0.0
 11
4.1082707166
 21
4.0840641607
 31
0.0
 11
4.0988186845
 21
4.1372467104
 31
0.0
 11
4.0828984769
 21
4.1920221764
 31
0.0
 11
4.0599333398
 21
4.2499023151
 31
0.0
  0
SPLINE
  5
48D
100
AcDbEntity
  8
0
100
AcDbSpline
 62
7
  6
CONTINUOUS
 70
0
 71
3
 72
14
 73
10
 74
8
 42
0.0000001
 43
0.0000001
 44
0.0000000001
 12
-0.1046826132
 22
0.2029792199
 32
0.0
 13
0.1046826132
 23
0.2029792199
 33
0.0
 40
0.0
 40
0.0
 40
0.0
 40
0.0
 40
0.1530438599
 40
0.2956043717
 40
0.4324922324
 40
0.5675957362
 40
0.7044780411
 40
0.8469906498
 40
1.0
 40
1.0
 40
1.0
 40
1.0
 10
3.6864970057
 20
4.3011948976
 30
0.0
 10
3.681156662
 20
4.3115498054
 30
0.0
 10
3.6717516686
 20
4.3320495337
 30
0.0
 10
3.6617100505
 20
4.363505058
 30
0.0
 10
3.6565663404
 20
4.3947727268
 30
0.0
 10
3.6565680335
 20
4.426041751
 30
0.0
 10
3.6617141139
 20
4.457304856
 30
0.0
 10
3.6717552963
 20
4.488753371
 30
0.0
 10
3.6811578662
 20
4.5092472697
 30
0.0
 10
3.6864970057
 20
4.5195998426
 30
0.0
 11
3.6864970057
 21
4.3011948976
 31
0.0
 11
3.672099407
 21
4.3330445385
 31
0.0
 11
3.6623645348
 21
4.3641135897
 31
0.0
 11
3.657399301
 21
4.3949797035
 31
0.0
 11
3.6574009317
 21
4.4258351116
 31
0.0
 11
3.6623689207
 21
4.4566994969
 31
0.0
 11
3.6721022431
 21
4.487757569
 31
0.0
 11
3.6864970057
 21
4.5195998426
 31
0.0
  0
SPLINE
  5
48E
100
AcDbEntity
  8
0
100
AcDbSpline
 62
7
  6
CONTINUOUS
 70
0
 71
3
 72
15
 73
11
 74
9
 42
0.0000001
 43
0.0000001
 44
0.0000000001
 12
0.1643031241
 22
0.1839340856
 32
0.0
 13
-0.1643031241
 23
0.1839340856
 33
0.0
 40
0.0
 40
0.0
 40
0.0
 40
0.0
 40
0.1498215377
 40
0.2783315905
 40
0.3927788038
 40
0.5000592815
 40
0.6073304266
 40
0.7217569014
 40
0.8502022558
 40
1.0
 40
1.0
 40
1.0
 40
1.0
 10
4.0599333398
 20
4.3011948976
 30
0.0
 10
4.0681387221
 20
4.3103806601
 30
0.0
 10
4.0825705015
 20
4.3282236187
 30
0.0
 10
4.0991682303
 20
4.3560820328
 30
0.0
 10
4.1091533372
 20
4.3833091068
 30
0.0
 10
4.1125143604
 20
4.4104114625
 30
0.0
 10
4.1091465867
 20
4.4375111263
 30
0.0
 10
4.0991594694
 20
4.4647289029
 30
0.0
 10
4.0825647398
 20
4.4925783633
 30
0.0
 10
4.0681374189
 20
4.5104155389
 30
0.0
 10
4.0599333398
 20
4.5195998426
 30
0.0
 11
4.0599333398
 21
4.3011948976
 31
0.0
 11
4.0829018136
 21
4.3301398106
 31
0.0
 11
4.0988279984
 21
4.3575425256
 31
0.0
 11
4.1082769959
 21
4.384140307
 31
0.0
 11
4.1114173048
 21
4.4104120709
 31
0.0
 11
4.1082707166
 21
4.4366807654
 31
0.0
 11
4.0988186845
 21
4.4632720402
 31
0.0
 11
4.0828984769
 21
4.4906597732
 31
0.0
 11
4.0599333398
 21
4.5195998426
 31
0.0
  0
SPLINE
  5
48F
100
AcDbEntity
  8
0
100
AcDbSpline
 62
7
  6
CONTINUOUS
 70
0
 71
3
 72
20
 73
16
 74
14
 42
0.0000001
 43
0.0000001
 44
0.0000000001
 12
-0.1522730511
 22
-0.0422304946
 32
0.0
 13
-0.1522731514
 23
0.0422304977
 33
0.0
 40
0.0
 40
0.0
 40
0.0
 40
0.0
 40
0.015256177
 40
0.0610692946
 40
0.1340023554
 40
0.2300164665
 40
0.341773183
 40
0.4620730042
 40
0.5793720565
 40
0.6905400458
 40
0.7907108406
 40
0.8774786456
 40
0.944098047
 40
0.9860923909
 40
1.0
 40
1.0
 40
1.0
 40
1.0
 10
6.1774333398
 20
4.3127473701
 30
0.0
 10
6.1766589716
 20
4.3125326115
 30
0.0
 10
6.1735561725
 20
4.3116839202
 30
0.0
 10
6.1667213005
 20
4.3099194334
 30
0.0
 10
6.1556885186
 20
4.3074093973
 30
0.0
 10
6.1411361593
 20
4.3047570903
 30
0.0
 10
6.1239763122
 20
4.3026236386
 30
0.0
 10
6.1055896187
 20
4.3015672806
 30
0.0
 10
6.0872056403
 20
4.3017909827
 30
0.0
 10
6.0699368184
 20
4.3031528442
 30
0.0
 10
6.0543766223
 20
4.3053198494
 30
0.0
 10
6.041253346
 20
4.3078261397
 30
0.0
 10
6.0312259699
 20
4.3101509055
 30
0.0
 10
6.0249792683
 20
4.3117738275
 30
0.0
 10
6.0221392583
 20
4.312551595
 30
0.0
 10
6.0214333398
 20
4.3127473701
 30
0.0
 11
6.1774333398
 21
4.3127473701
 31
0.0
 11
6.175107951
 21
4.3121113563
 31
0.0
 11
6.1680980843
 21
4.3103026958
 31
0.0
 11
6.156859458
 21
4.3077496489
 31
0.0
 11
6.1419317524
 21
4.3050365402
 31
0.0
 11
6.1244056719
 21
4.3028664543
 31
0.0
 11
6.1054267502
 21
4.3017814493
 31
0.0
 11
6.0868923826
 21
4.3020058508
 31
0.0
 11
6.069379414
 21
4.3033811706
 31
0.0
 11
6.0537006606
 21
4.3055576563
 31
0.0
 11
6.0402318607
 21
4.3081241541
 31
0.0
 11
6.02997595
 21
4.3104989678
 31
0.0
 11
6.0235529932
 21
4.312166908
 31
0.0
 11
6.0214333398
 21
4.3127473701
 31
0.0
  0
SPLINE
  5
490
100
AcDbEntity
  8
0
100
AcDbSpline
 62
7
  6
CONTINUOUS
 70
0
 71
3
 72
19
 73
15
 74
13
 42
0.0000001
 43
0.0000001
 44
0.0000000001
 12
0.0
 22
0.2105302517
 32
0.0
 13
0.0
 23
-0.2105302517
 33
0.0
 40
0.0
 40
0.0
 40
0.0
 40
0.0
 40
0.0759858365
 40
0.1568130793
 40
0.2409273657
 40
0.3268728557
 40
0.4133998462
 40
0.4999742669
 40
0.5865391152
 40
0.6730818619
 40
0.7590909726
 40
0.8432700407
 40
0.9241058426
 40
1.0
 40
1.0
 40
1.0
 40
1.0
 10
5.2964333398
 20
3.8914973701
 30
0.0
 10
5.2964333398
 20
3.8968298092
 30
0.0
 10
5.2981355624
 20
3.9078843988
 30
0.0
 10
5.3052569894
 20
3.9234275777
 30
0.0
 10
5.316520554
 20
3.9372028201
 30
0.0
 10
5.331140489
 20
3.9480285102
 30
0.0
 10
5.3481548602
 20
3.9549680468
 30
0.0
 10
5.3664271556
 20
3.9573624941
 30
0.0
 10
5.3847009093
 20
3.9549710037
 30
0.0
 10
5.4017210213
 20
3.9480322379
 30
0.0
 10
5.4163498248
 20
3.9372008664
 30
0.0
 10
5.4276176875
 20
3.9234161979
 30
0.0
 10
5.434734135
 20
3.9078719839
 30
0.0
 10
5.4364333398
 20
3.8968233754
 30
0.0
 10
5.4364333398
 20
3.8914973701
 30
0.0
 11
5.2964333398
 21
3.8914973701
 31
0.0
 11
5.2987716625
 21
3.9073228687
 31
0.0
 11
5.3057672841
 21
3.9228349693
 31
0.0
 11
5.3169410697
 21
3.936573277
 31
0.0
 11
5.3314800498
 21
3.9473443233
 31
0.0
 11
5.3483544968
 21
3.954206954
 31
0.0
 11
5.3664278875
 21
3.956564731
 31
0.0
 11
5.3844996773
 21
3.9542102641
 31
0.0
 11
5.4013782723
 21
3.9473490283
 31
0.0
 11
5.4159284355
 21
3.9365705766
 31
0.0
 11
5.427108697
 21
3.9228199563
 31
0.0
 11
5.4341005337
 21
3.9073041728
 31
0.0
 11
5.4364333398
 21
3.8914973701
 31
0.0
  0
SPLINE
  5
491
100
AcDbEntity
  8
0
100
AcDbSpline
 62
7
  6
CONTINUOUS
 70
0
 71
3
 72
19
 73
15
 74
13
 42
0.0000001
 43
0.0000001
 44
0.0000000001
 12
0.0
 22
-0.2105302517
 32
0.0
 13
0.0
 23
0.2105302517
 33
0.0
 40
0.0
 40
0.0
 40
0.0
 40
0.0
 40
0.0759858365
 40
0.1568130793
 40
0.2409273657
 40
0.3268728557
 40
0.4133998462
 40
0.4999742669
 40
0.5865391152
 40
0.6730818619
 40
0.7590909726
 40
0.8432700407
 40
0.9241058426
 40
1.0
 40
1.0
 40
1.0
 40
1.0
 10
5.4364333398
 20
4.1714973701
 30
0.0
 10
5.4364333398
 20
4.166164931
 30
0.0
 10
5.4347311172
 20
4.1551103414
 30
0.0
 10
5.4276096902
 20
4.1395671625
 30
0.0
 10
5.4163461256
 20
4.1257919201
 30
0.0
 10
5.4017261907
 20
4.1149662299
 30
0.0
 10
5.3847118194
 20
4.1080266934
 30
0.0
 10
5.366439524
 20
4.1056322461
 30
0.0
 10
5.3481657704
 20
4.1080237365
 30
0.0
 10
5.3311456584
 20
4.1149625023
 30
0.0
 10
5.3165168549
 20
4.1257938738
 30
0.0
 10
5.3052489922
 20
4.1395785423
 30
0.0
 10
5.2981325446
 20
4.1551227563
 30
0.0
 10
5.2964333398
 20
4.1661713647
 30
0.0
 10
5.2964333398
 20
4.1714973701
 30
0.0
 11
5.4364333398
 21
4.1714973701
 31
0.0
 11
5.4340950172
 21
4.1556718714
 31
0.0
 11
5.4270993955
 21
4.1401597709
 31
0.0
 11
5.4159256099
 21
4.1264214632
 31
0.0
 11
5.4013866298
 21
4.1156504169
 31
0.0
 11
5.3845121828
 21
4.1087877862
 31
0.0
 11
5.3664387922
 21
4.1064300092
 31
0.0
 11
5.3483670023
 21
4.1087844761
 31
0.0
 11
5.3314884073
 21
4.1156457119
 31
0.0
 11
5.3169382441
 21
4.1264241636
 31
0.0
 11
5.3057579827
 21
4.1401747839
 31
0.0
 11
5.298766146
 21
4.1556905674
 31
0.0
 11
5.2964333398
 21
4.1714973701
 31
0.0
  0
SPLINE
  5
492
100
AcDbEntity
  8
0
100
AcDbSpline
 62
7
  6
CONTINUOUS
 70
0
 71
3
 72
13
 73
9
 74
7
 42
0.0000001
 43
0.0000001
 44
0.0000000001
 12
0.0315108462
 22
-0.0852037746
 32
0.0
 13
0.0904776191
 23
0.0
 33
0.0
 40
0.0
 40
0.0
 40
0.0
 40
0.0
 40
0.0964078399
 40
0.2571494249
 40
0.4249301506
 40
0.6075954351
 40
0.8023783883
 40
1.0
 40
1.0
 40
1.0
 40
1.0
 10
6.0247187324
 20
3.9110553251
 30
0.0
 10
6.0257313633
 20
3.9083172211
 30
0.0
 10
6.0290473561
 20
3.9012418639
 30
0.0
 10
6.0370883306
 20
3.8910568183
 30
0.0
 10
6.0495479242
 20
3.8817272573
 30
0.0
 10
6.0646665933
 20
3.8749727901
 30
0.0
 10
6.0816178396
 20
3.8709347883
 30
0.0
 10
6.0934732288
 20
3.8700495418
 30
0.0
 10
6.0994333398
 20
3.8700495418
 30
0.0
 11
6.0247187324
 21
3.9110553251
 31
0.0
 11
6.0284356318
 21
3.9031401407
 31
0.0
 11
6.0373838245
 21
3.8916752507
 31
0.0
 11
6.0494546455
 21
3.882469826
 31
0.0
 11
6.0644850903
 21
3.8755973136
 31
0.0
 11
6.08160526
 21
3.8714155118
 31
0.0
 11
6.0994333398
 21
3.8700495418
 31
0.0
  0
SPLINE
  5
493
100
AcDbEntity
  8
0
100
AcDbSpline
 62
7
  6
CONTINUOUS
 70
0
 71
3
 72
19
 73
15
 74
13
 42
0.0000001
 43
0.0000001
 44
0.0000000001
 12
-0.1372416405
 22
-0.0343105332
 32
0.0
 13
-0.1372416462
 23
0.0343105325
 33
0.0
 40
0.0
 40
0.0
 40
0.0
 40
0.0
 40
0.0168874346
 40
0.0689716895
 40
0.1517952026
 40
0.2552638643
 40
0.3732694941
 40
0.4993234829
 40
0.6253757629
 40
0.7435611185
 40
0.8474327056
 40
0.9309126105
 40
0.9831682582
 40
1.0
 40
1.0
 40
1.0
 40
1.0
 10
5.4364333398
 20
4.3114973701
 30
0.0
 10
5.4356607867
 20
4.3113042311
 30
0.0
 10
5.4325026224
 20
4.3105269341
 30
0.0
 10
5.4255264626
 20
4.3089211655
 30
0.0
 10
5.4144975946
 20
4.3067347949
 30
0.0
 10
5.4003066222
 20
4.3045687478
 30
0.0
 10
5.3839849301
 20
4.3029920057
 30
0.0
 10
5.3665292203
 20
4.3024101543
 30
0.0
 10
5.3490646267
 20
4.3029799466
 30
0.0
 10
5.3327145994
 20
4.3045488145
 30
0.0
 10
5.3184647665
 20
4.306716957
 30
0.0
 10
5.3073784645
 20
4.308912381
 30
0.0
 10
5.3003667977
 20
4.3105262291
 30
0.0
 10
5.2972033451
 20
4.3113048681
 30
0.0
 10
5.2964333398
 20
4.3114973701
 30
0.0
 11
5.4364333398
 21
4.3114973701
 31
0.0
 11
5.4341135632
 21
4.3109264535
 31
0.0
 11
5.4269329571
 21
4.3092746256
 31
0.0
 11
5.415439205
 21
4.3069997745
 31
0.0
 11
5.4009686074
 21
4.3047969945
 31
0.0
 11
5.3843516101
 21
4.3031976911
 31
0.0
 11
5.3665290704
 21
4.3026062212
 31
0.0
 11
5.3487063605
 21
4.3031851427
 31
0.0
 11
5.3320630303
 21
4.3047761987
 31
0.0
 11
5.3175350338
 21
4.3069806624
 31
0.0
 11
5.3059497169
 21
4.3092711425
 31
0.0
 11
5.2987454592
 21
4.3109283082
 31
0.0
 11
5.2964333398
 21
4.3114973701
 31
0.0
  0
SPLINE
  5
494
100
AcDbEntity
  8
0
100
AcDbSpline
 62
7
  6
CONTINUOUS
 70
0
 71
3
 72
13
 73
9
 74
7
 42
0.0000001
 43
0.0000001
 44
0.0000000001
 12
0.0000417955
 22
0.1180857888
 32
0.0
 13
-0.117659976
 23
-0.0
 33
0.0
 40
0.0
 40
0.0
 40
0.0
 40
0.0
 40
0.1514547107
 40
0.3124564919
 40
0.4822910731
 40
0.6561731215
 40
0.8291650454
 40
1.0
 40
1.0
 40
1.0
 40
1.0
 10
6.1774333384
 20
3.8908724124
 30
0.0
 10
6.1774354484
 20
3.896833962
 30
0.0
 10
6.1755388283
 20
3.9091100491
 30
0.0
 10
6.1676344659
 20
3.926533045
 30
0.0
 10
6.155058327
 20
3.9420874145
 30
0.0
 10
6.1386583068
 20
3.9543551327
 30
0.0
 10
6.1196822818
 20
3.9621576146
 30
0.0
 10
6.1061334854
 20
3.9639385413
 30
0.0
 10
6.0994333398
 20
3.9639385413
 30
0.0
 11
6.1774333384
 21
3.8908724124
 31
0.0
 11
6.1748392131
 21
3.9085027133
 31
0.0
 11
6.1671110499
 21
3.9257980996
 31
0.0
 11
6.1545866722
 21
3.9413688918
 31
0.0
 11
6.1382016912
 21
3.9536204772
 31
0.0
 11
6.1193636888
 21
3.9613291843
 31
0.0
 11
6.0994333398
 21
3.9639385413
 31
0.0
  0
SPLINE
  5
495
100
AcDbEntity
  8
0
100
AcDbSpline
 62
7
  6
CONTINUOUS
 70
0
 71
3
 72
20
 73
16
 74
14
 42
0.0000001
 43
0.0000001
 44
0.0000000001
 12
0.1522733022
 22
0.0422305495
 32
0.0
 13
0.152273348
 23
-0.0422305564
 33
0.0
 40
0.0
 40
0.0
 40
0.0
 40
0.0
 40
0.0146872991
 40
0.0601701416
 40
0.133439235
 40
0.2263700401
 40
0.332094773
 40
0.4478376374
 40
0.5650005138
 40
0.6799822739
 40
0.7846223825
 40
0.8749645938
 40
0.9432818119
 40
0.9858334629
 40
1.0
 40
1.0
 40
1.0
 40
1.0
 10
5.9834333398
 20
3.7502473701
 30
0.0
 10
5.9841788343
 20
3.750454121
 30
0.0
 10
5.9872358409
 20
3.7512907208
 30
0.0
 10
5.9940413723
 20
3.7530501737
 30
0.0
 10
6.0049151973
 20
3.7555282572
 30
0.0
 10
6.0190092381
 20
3.7581129166
 30
0.0
 10
6.0354451054
 20
3.7602178822
 30
0.0
 10
6.053258635
 20
3.7613651599
 30
0.0
 10
6.0715974975
 20
3.7612960525
 30
0.0
 10
6.0893049835
 20
3.7600273925
 30
0.0
 10
6.1054951103
 20
3.7578482458
 30
0.0
 10
6.1191288019
 20
3.755276043
 30
0.0
 10
6.1294574282
 20
3.7528903477
 30
0.0
 10
6.1358327483
 20
3.7512357423
 30
0.0
 10
6.1387142778
 20
3.7504467903
 30
0.0
 10
6.1394333398
 20
3.7502473701
 30
0.0
 11
5.9834333398
 21
3.7502473701
 31
0.0
 11
5.9856719402
 21
3.7508599667
 31
0.0
 11
5.9926306487
 21
3.7526580386
 31
0.0
 11
6.0039201336
 21
3.7552269747
 31
0.0
 11
6.018365531
 21
3.7578691576
 31
0.0
 11
6.0349379113
 21
3.7599838893
 31
0.0
 11
6.0531902799
 21
3.7611540503
 31
0.0
 11
6.0717043816
 21
3.7610846174
 31
0.0
 11
6.0898279118
 21
3.7597919888
 31
0.0
 11
6.1062165329
 21
3.7575939256
 31
0.0
 11
6.1202462206
 21
3.7549534903
 31
0.0
 11
6.1307655451
 21
3.7525269107
 31
0.0
 11
6.1372741847
 21
3.7508385091
 31
0.0
 11
6.1394333398
 21
3.7502473701
 31
0.0
  0
SPLINE
  5
496
100
AcDbEntity
  8
0
100
AcDbSpline
 62
7
  6
CONTINUOUS
 70
0
 71
3
 72
13
 73
9
 74
7
 42
0.0000001
 43
0.0000001
 44
0.0000000001
 12
-0.117660005
 22
0.0
 32
0.0
 13
0.0000417291
 23
-0.1180855819
 33
0.0
 40
0.0
 40
0.0
 40
0.0
 40
0.0
 40
0.1709123861
 40
0.3438644342
 40
0.5177356734
 40
0.6875663961
 40
0.8485918807
 40
1.0
 40
1.0
 40
1.0
 40
1.0
 10
6.0994333398
 20
3.9639385413
 30
0.0
 10
6.0927301558
 20
3.9639385413
 30
0.0
 10
6.0791797971
 20
3.9621565755
 30
0.0
 10
6.0602035964
 20
3.9543521168
 30
0.0
 10
6.0438058783
 20
3.9420849409
 30
0.0
 10
6.031230099
 20
3.9265298334
 30
0.0
 10
6.0233271026
 20
3.9091072932
 30
0.0
 10
6.0214312323
 20
3.8968320321
 30
0.0
 10
6.0214333384
 20
3.8908723268
 30
0.0
 11
6.0994333398
 21
3.9639385413
 31
0.0
 11
6.0794941066
 21
3.9613268236
 31
0.0
 11
6.0606611037
 21
3.9536182742
 31
0.0
 11
6.0442777139
 21
3.9413666762
 31
0.0
 11
6.0317542003
 21
3.9257957652
 31
0.0
 11
6.0240259017
 21
3.9084973797
 31
0.0
 11
6.0214333384
 21
3.8908723268
 31
0.0
  0
SPLINE
  5
497
100
AcDbEntity
  8
0
100
AcDbSpline
 62
7
  6
CONTINUOUS
 70
0
 71
3
 72
20
 73
16
 74
14
 42
0.0000001
 43
0.0000001
 44
0.0000000001
 12
0.0
 22
-0.2354189062
 32
0.0
 13
0.0
 23
0.2354189062
 33
0.0
 40
0.0
 40
0.0
 40
0.0
 40
0.0
 40
0.069890021
 40
0.1443086749
 40
0.2216064507
 40
0.3010560587
 40
0.3804228049
 40
0.4604547391
 40
0.5395494634
 40
0.6195975036
 40
0.6989322951
 40
0.7785152884
 40
0.855787415
 40
0.930254003
 40
1.0
 40
1.0
 40
1.0
 40
1.0
 10
6.1394333398
 20
4.1721223701
 30
0.0
 10
6.1394333398
 20
4.1666378927
 30
0.0
 10
6.1378207278
 20
4.1552696283
 30
0.0
 10
6.1310401506
 20
4.1390751905
 30
0.0
 10
6.1202137401
 20
4.1243161872
 30
0.0
 10
6.106030035
 20
4.1121432646
 30
0.0
 10
6.0892531913
 20
4.1034151234
 30
0.0
 10
6.0709087218
 20
4.0988699669
 30
0.0
 10
6.0519556709
 20
4.098870082
 30
0.0
 10
6.0336124865
 20
4.1034156759
 30
0.0
 10
6.0168276989
 20
4.1121481899
 30
0.0
 10
6.0026408419
 20
4.1243277328
 30
0.0
 10
5.9918121087
 20
4.1391000336
 30
0.0
 10
5.9850414598
 20
4.155288707
 30
0.0
 10
5.9834333398
 20
4.1666491947
 30
0.0
 10
5.9834333398
 20
4.1721223701
 30
0.0
 11
6.1394333398
 21
4.1721223701
 31
0.0
 11
6.1372139091
 21
4.1558193163
 31
0.0
 11
6.1305355587
 21
4.1396225713
 31
0.0
 11
6.1198099284
 21
4.1249220717
 31
0.0
 11
6.1056208775
 21
4.1127356777
 31
0.0
 11
6.0890360324
 21
4.1041303925
 31
0.0
 11
6.070743032
 21
4.0996192325
 31
0.0
 11
6.0521226386
 21
4.0996193549
 31
0.0
 11
6.0338261249
 21
4.1041321043
 31
0.0
 11
6.0172480709
 21
4.112734144
 31
0.0
 11
6.0030371657
 21
4.1249432875
 31
0.0
 11
5.992319946
 21
4.1396424476
 31
0.0
 11
5.9856438296
 21
4.1558523185
 31
0.0
 11
5.9834333398
 21
4.1721223701
 31
0.0
  0
SPLINE
  5
498
100
AcDbEntity
  8
0
100
AcDbSpline
 62
7
  6
CONTINUOUS
 70
0
 71
3
 72
19
 73
15
 74
13
 42
0.0000001
 43
0.0000001
 44
0.0000000001
 12
0.1372644053
 22
0.0341637159
 32
0.0
 13
0.1372644787
 23
-0.0341637198
 33
0.0
 40
0.0
 40
0.0
 40
0.0
 40
0.0
 40
0.0172300814
 40
0.0703560542
 40
0.1546275491
 40
0.2596234798
 40
0.3793572231
 40
0.5065699065
 40
0.6334535783
 40
0.7519404493
 40
0.8547658343
 40
0.9339505426
 40
0.9834415439
 40
1.0
 40
1.0
 40
1.0
 40
1.0
 10
6.8584333398
 20
3.7502473701
 30
0.0
 10
6.8592216988
 20
3.7504435846
 30
0.0
 10
6.8624438243
 20
3.7512328375
 30
0.0
 10
6.8695517245
 20
3.7528587212
 30
0.0
 10
6.8807695456
 20
3.7550610533
 30
0.0
 10
6.8951839614
 20
3.7572252308
 30
0.0
 10
6.911716506
 20
3.7587706336
 30
0.0
 10
6.929348042
 20
3.7592943876
 30
0.0
 10
6.9469167572
 20
3.7586539752
 30
0.0
 10
6.9632632806
 20
3.7570242246
 30
0.0
 10
6.9772698501
 20
3.7548485958
 30
0.0
 10
6.9879765689
 20
3.7527116896
 30
0.0
 10
6.9946509257
 20
3.7511773153
 30
0.0
 10
6.9976757105
 20
3.7504359362
 30
0.0
 10
6.9984333398
 20
3.7502473701
 30
0.0
 11
6.8584333398
 21
3.7502473701
 31
0.0
 11
6.8608006045
 21
3.7508271911
 31
0.0
 11
6.8681264301
 21
3.7525018758
 31
0.0
 11
6.8798242774
 21
3.7547946353
 31
0.0
 11
6.8945124936
 21
3.7569938431
 31
0.0
 11
6.9113761783
 21
3.7585642111
 31
0.0
 11
6.9293628738
 21
3.7590961467
 31
0.0
 11
6.947299086
 21
3.758445216
 31
0.0
 11
6.9639772799
 21
3.756788553
 31
0.0
 11
6.978350731
 21
3.7545618028
 31
0.0
 11
6.9893355854
 21
3.7523725844
 31
0.0
 11
6.996158432
 21
3.7508049217
 31
0.0
 11
6.9984333398
 21
3.7502473701
 31
0.0
  0
SPLINE
  5
499
100
AcDbEntity
  8
0
100
AcDbSpline
 62
7
  6
CONTINUOUS
 70
0
 71
3
 72
19
 73
15
 74
13
 42
0.0000001
 43
0.0000001
 44
0.0000000001
 12
0.0
 22
-0.2105038487
 32
0.0
 13
-0.0
 23
0.2105038487
 33
0.0
 40
0.0
 40
0.0
 40
0.0
 40
0.0
 40
0.075992357
 40
0.1568107041
 40
0.2409133536
 40
0.326853745
 40
0.413386253
 40
0.4999737101
 40
0.5865518078
 40
0.673100238
 40
0.7591039771
 40
0.8432710956
 40
0.924098167
 40
1.0
 40
1.0
 40
1.0
 40
1.0
 10
6.9984333398
 20
4.1721223701
 30
0.0
 10
6.9984333398
 20
4.1667901422
 30
0.0
 10
6.9967313694
 20
4.1557370308
 30
0.0
 10
6.9896098505
 20
4.1401971875
 30
0.0
 10
6.9783462542
 20
4.1264270494
 30
0.0
 10
6.9637262325
 20
4.1156066153
 30
0.0
 10
6.9467118209
 20
4.1086710814
 30
0.0
 10
6.9284396278
 20
4.1062781329
 30
0.0
 10
6.9101659571
 20
4.1086680728
 30
0.0
 10
6.8931457816
 20
4.1156027979
 30
0.0
 10
6.8785168885
 20
4.1264288547
 30
0.0
 10
6.8672489655
 20
4.1402083543
 30
0.0
 10
6.8601323338
 20
4.1557492689
 30
0.0
 10
6.8584333398
 20
4.1667964941
 30
0.0
 10
6.8584333398
 20
4.1721223701
 30
0.0
 11
6.9984333398
 21
4.1721223701
 31
0.0
 11
6.9960948359
 21
4.1562975388
 31
0.0
 11
6.9890994363
 21
4.1407897334
 31
0.0
 11
6.9779262087
 21
4.1270569925
 31
0.0
 11
6.9633875839
 21
4.1162910822
 31
0.0
 11
6.9465129228
 21
4.1094319602
 31
0.0
 11
6.9284389097
 21
4.1070754108
 31
0.0
 11
6.9103664461
 21
4.1094286033
 31
0.0
 11
6.8934875892
 21
4.1162863031
 31
0.0
 11
6.8789377999
 21
4.1270595441
 31
0.0
 11
6.8677580887
 21
4.140804505
 31
0.0
 11
6.8607663964
 21
4.1563159966
 31
0.0
 11
6.8584333398
 21
4.1721223701
 31
0.0
  0
SPLINE
  5
49A
100
AcDbEntity
  8
0
100
AcDbSpline
 62
7
  6
CONTINUOUS
 70
0
 71
3
 72
13
 73
9
 74
7
 42
0.0000001
 43
0.0000001
 44
0.0000000001
 12
0.0904916342
 22
0.0
 32
0.0
 13
0.0314652461
 23
0.0852366705
 33
0.0
 40
0.0
 40
0.0
 40
0.0
 40
0.0
 40
0.2001264812
 40
0.396322962
 40
0.5799174455
 40
0.7497063452
 40
0.9132567755
 40
1.0
 40
1.0
 40
1.0
 40
1.0
 10
6.0994333398
 20
3.8700495418
 30
0.0
 10
6.1054699306
 20
3.8700495418
 30
0.0
 10
6.1174462101
 20
3.8709550116
 30
0.0
 10
6.1345332473
 20
3.8750760705
 30
0.0
 10
6.1497435648
 20
3.8819612025
 30
0.0
 10
6.1622705618
 20
3.8915059187
 30
0.0
 10
6.1700806089
 20
3.9016961798
 30
0.0
 10
6.1732442096
 20
3.9086074412
 30
0.0
 10
6.1741540086
 20
3.911072009
 30
0.0
 11
6.0994333398
 21
3.8700495418
 31
0.0
 11
6.1174887848
 21
3.8714512404
 31
0.0
 11
6.1347233062
 21
3.8757151316
 31
0.0
 11
6.1497972471
 21
3.8827003651
 31
0.0
 11
6.1619338386
 21
3.8921221611
 31
0.0
 11
6.1708724833
 21
3.9039178817
 31
0.0
 11
6.1741540086
 21
3.911072009
 31
0.0
  0
SPLINE
  5
49B
100
AcDbEntity
  8
0
100
AcDbSpline
 62
7
  6
CONTINUOUS
 70
0
 71
3
 72
9
 73
5
 74
3
 42
0.0000001
 43
0.0000001
 44
0.0000000001
 12
-0.0102125706
 22
0.024530317
 32
0.0
 13
-0.0211136593
 23
0.0160860937
 33
0.0
 40
0.0
 40
0.0
 40
0.0
 40
0.0
 40
0.4422725181
 40
1.0
 40
1.0
 40
1.0
 40
1.0
 10
5.4327725326
 20
4.1518953556
 30
0.0
 10
5.4312669529
 20
4.1555117172
 30
0.0
 10
5.4268418462
 20
4.1632639343
 30
0.0
 10
5.420469352
 20
4.1695285036
 30
0.0
 10
5.4165441293
 20
4.1725190558
 30
0.0
 11
5.4327725326
 21
4.1518953556
 31
0.0
 11
5.426971828
 21
4.162077911
 31
0.0
 11
5.4165441293
 21
4.1725190558
 31
0.0
  0
SPLINE
  5
49C
100
AcDbEntity
  8
0
100
AcDbSpline
 62
7
  6
CONTINUOUS
 70
0
 71
3
 72
10
 73
6
 74
4
 42
0.0000001
 43
0.0000001
 44
0.0000000001
 12
-0.0213460089
 22
0.0162631164
 32
0.0
 13
-0.0257830289
 23
0.00723125
 33
0.0
 40
0.0
 40
0.0
 40
0.0
 40
0.0
 40
0.0505319439
 40
0.668046812
 40
1.0
 40
1.0
 40
1.0
 40
1.0
 10
5.4165441293
 20
4.1725190558
 30
0.0
 10
5.4161845775
 20
4.1727929914
 30
0.0
 10
5.4113900342
 20
4.176358662
 30
0.0
 10
5.4034456135
 20
4.1805829639
 30
0.0
 10
5.3954047576
 20
4.1832923822
 30
0.0
 10
5.3925518381
 20
4.1840925277
 30
0.0
 11
5.4165441293
 21
4.1725190558
 31
0.0
 11
5.4154563129
 21
4.1733281607
 31
0.0
 11
5.4009663902
 21
4.1812387693
 31
0.0
 11
5.3925518381
 21
4.1840925277
 31
0.0
  0
SPLINE
  5
49D
100
AcDbEntity
  8
0
100
AcDbSpline
 62
7
  6
CONTINUOUS
 70
0
 71
3
 72
10
 73
6
 74
4
 42
0.0000001
 43
0.0000001
 44
0.0000000001
 12
-0.0370789789
 22
0.0103993742
 32
0.0
 13
-0.0382215479
 23
-0.0045831227
 33
0.0
 40
0.0
 40
0.0
 40
0.0
 40
0.0
 40
0.2204365004
 40
0.6815574544
 40
1.0
 40
1.0
 40
1.0
 40
1.0
 10
5.3925518381
 20
4.1840925277
 30
0.0
 10
5.389827318
 20
4.1848566616
 30
0.0
 10
5.3812859867
 20
4.1868043963
 30
0.0
 10
5.3684551729
 20
4.1879262562
 30
0.0
 10
5.3584502398
 20
4.1873536797
 30
0.0
 10
5.3543931175
 20
4.1868671926
 30
0.0
 11
5.3925518381
 21
4.1840925277
 31
0.0
 11
5.3842809644
 21
4.1859928121
 31
0.0
 11
5.3666236184
 21
4.1875799881
 31
0.0
 11
5.3543931175
 21
4.1868671926
 31
0.0
  0
SPLINE
  5
49E
100
AcDbEntity
  8
0
100
AcDbSpline
 62
7
  6
CONTINUOUS
 70
0
 71
3
 72
12
 73
8
 74
6
 42
0.0000001
 43
0.0000001
 44
0.0000000001
 12
-0.0671105515
 22
-0.0080471857
 32
0.0
 13
-0.0260901494
 23
-0.062619574
 33
0.0
 40
0.0
 40
0.0
 40
0.0
 40
0.0
 40
0.081098765
 40
0.3381917133
 40
0.583036311
 40
0.8225536541
 40
1.0
 40
1.0
 40
1.0
 40
1.0
 10
5.3543931175
 20
4.1868671926
 30
0.0
 10
5.3525789232
 20
4.1866496537
 30
0.0
 10
5.3450383402
 20
4.1855318662
 30
0.0
 10
5.3322979391
 20
4.1820607869
 30
0.0
 10
5.3173824683
 20
4.174234671
 30
0.0
 10
5.3063817899
 20
4.1638487375
 30
0.0
 10
5.301641348
 20
4.1556091642
 30
0.0
 10
5.3000981474
 20
4.1519052926
 30
0.0
 11
5.3543931175
 21
4.1868671926
 31
0.0
 11
5.3489710954
 21
4.1860620579
 31
0.0
 11
5.3322588034
 21
4.1813819095
 31
0.0
 11
5.3177077926
 21
4.1735424945
 31
0.0
 11
5.306072805
 21
4.1623149909
 31
0.0
 11
5.3000981474
 21
4.1519052926
 31
0.0
  0
SPLINE
  5
49F
100
AcDbEntity
  8
0
100
AcDbSpline
 62
7
  6
CONTINUOUS
 70
0
 71
3
 72
12
 73
8
 74
6
 42
0.0000001
 43
0.0000001
 44
0.0000000001
 12
-0.025991876
 22
0.0612112465
 32
0.0
 13
-0.0657094735
 23
0.0085637295
 33
0.0
 40
0.0
 40
0.0
 40
0.0
 40
0.0
 40
0.1717190213
 40
0.4149790035
 40
0.6644301787
 40
0.9265865005
 40
1.0
 40
1.0
 40
1.0
 40
1.0
 10
6.9946437417
 20
4.152201658
 30
0.0
 10
6.9931559752
 20
4.1557053698
 30
0.0
 10
6.9885348431
 20
4.1637373687
 30
0.0
 10
6.9777726268
 20
4.1740282977
 30
0.0
 10
6.9629271273
 20
4.1819221233
 30
0.0
 10
6.9504089176
 20
4.1853919994
 30
0.0
 10
6.9430821878
 20
4.1865325113
 30
0.0
 10
6.9414742003
 20
4.1867420758
 30
0.0
 11
6.9946437417
 21
4.152201658
 31
0.0
 11
6.988971828
 21
4.162077911
 31
0.0
 11
6.9774563129
 21
4.1733281607
 31
0.0
 11
6.9629663902
 21
4.1812387693
 31
0.0
 11
6.9462809644
 21
4.1859928121
 31
0.0
 11
6.9414742003
 21
4.1867420758
 31
0.0
  0
SPLINE
  5
4A0
100
AcDbEntity
  8
0
100
AcDbSpline
 62
7
  6
CONTINUOUS
 70
0
 71
3
 72
10
 73
6
 74
4
 42
0.0000001
 43
0.0000001
 44
0.0000000001
 12
-0.0381384628
 22
0.0049704778
 32
0.0
 13
-0.037167584
 23
-0.0099438491
 33
0.0
 40
0.0
 40
0.0
 40
0.0
 40
0.0
 40
0.3350569265
 40
0.7963163509
 40
1.0
 40
1.0
 40
1.0
 40
1.0
 10
6.9414742003
 20
4.1867420758
 30
0.0
 10
6.9372146816
 20
4.1872972068
 30
0.0
 10
6.9270062117
 20
4.1879503379
 30
0.0
 10
6.9141833269
 20
4.1868777536
 30
0.0
 10
6.9058451881
 20
4.1850435382
 30
0.0
 10
6.9033217117
 20
4.184368405
 30
0.0
 11
6.9414742003
 21
4.1867420758
 31
0.0
 11
6.9286236184
 21
4.1875799881
 31
0.0
 11
6.9109710954
 21
4.1860620579
 31
0.0
 11
6.9033217117
 21
4.184368405
 31
0.0
  0
SPLINE
  5
4A1
100
AcDbEntity
  8
0
100
AcDbSpline
 62
7
  6
CONTINUOUS
 70
0
 71
3
 72
10
 73
6
 74
4
 42
0.0000001
 43
0.0000001
 44
0.0000000001
 12
-0.0255801721
 22
-0.0068437425
 32
0.0
 13
-0.0214632102
 23
-0.0155909446
 33
0.0
 40
0.0
 40
0.0
 40
0.0
 40
0.0
 40
0.3605442532
 40
0.985761141
 40
1.0
 40
1.0
 40
1.0
 40
1.0
 10
6.9033217117
 20
4.184368405
 30
0.0
 10
6.9002474504
 20
4.1835459144
 30
0.0
 10
6.8919664731
 20
4.1808374716
 30
0.0
 10
6.8840885441
 20
4.176703939
 30
0.0
 10
6.8795033708
 20
4.1733954846
 30
0.0
 10
6.8794015002
 20
4.1733214855
 30
0.0
 11
6.9033217117
 21
4.184368405
 31
0.0
 11
6.8942588034
 21
4.1813819095
 31
0.0
 11
6.8797077926
 21
4.1735424945
 31
0.0
 11
6.8794015002
 21
4.1733214855
 31
0.0
  0
SPLINE
  5
4A2
100
AcDbEntity
  8
0
100
AcDbSpline
 62
7
  6
CONTINUOUS
 70
0
 71
3
 72
9
 73
5
 74
3
 42
0.0000001
 43
0.0000001
 44
0.0000000001
 12
-0.022279742
 22
-0.0161840759
 32
0.0
 13
-0.0107846219
 23
-0.0253806375
 33
0.0
 40
0.0
 40
0.0
 40
0.0
 40
0.0
 40
0.5754815211
 40
1.0
 40
1.0
 40
1.0
 40
1.0
 10
6.8794015002
 20
4.1733214855
 30
0.0
 10
6.8751276403
 20
4.17021694
 30
0.0
 10
6.8683990642
 20
4.1638152974
 30
0.0
 10
6.8637524655
 20
4.1558015506
 30
0.0
 10
6.8622263751
 20
4.152210034
 30
0.0
 11
6.8794015002
 21
4.1733214855
 31
0.0
 11
6.868072805
 21
4.1623149909
 31
0.0
 11
6.8622263751
 21
4.152210034
 31
0.0
  0
SPLINE
  5
4A3
100
AcDbEntity
  8
0
100
AcDbSpline
 62
7
  6
CONTINUOUS
 70
0
 71
3
 72
13
 73
9
 74
7
 42
0.0000001
 43
0.0000001
 44
0.0000000001
 12
-0.000041123
 22
0.1090626898
 32
0.0
 13
0.1085168069
 23
-0.0052797946
 33
0.0
 40
0.0
 40
0.0
 40
0.0
 40
0.0
 40
0.1520043272
 40
0.313101484
 40
0.4824733141
 40
0.6557253936
 40
0.8285422777
 40
1.0
 40
1.0
 40
1.0
 40
1.0
 10
6.8584333403
 20
3.89087237
 30
0.0
 10
6.8584312567
 20
3.8963983703
 30
0.0
 10
6.8602466249
 20
3.9077599946
 30
0.0
 10
6.8678055895
 20
3.9237523949
 30
0.0
 10
6.8797615332
 20
3.9378010754
 30
0.0
 10
6.8952503268
 20
3.9485929642
 30
0.0
 10
6.9130557245
 20
3.9550760249
 30
0.0
 10
6.9256523776
 20
3.9561379022
 30
0.0
 10
6.9318543925
 20
3.9558361483
 30
0.0
 11
6.8584333403
 21
3.89087237
 31
0.0
 11
6.8609221942
 21
3.9071982757
 31
0.0
 11
6.8683095534
 21
3.9230652832
 31
0.0
 11
6.880198116
 21
3.9371107369
 31
0.0
 11
6.895641151
 21
3.9478726178
 31
0.0
 11
6.9132919627
 21
3.9542739081
 31
0.0
 11
6.9318543925
 21
3.9558361483
 31
0.0
  0
SPLINE
  5
4A4
100
AcDbEntity
  8
0
100
AcDbSpline
 62
7
  6
CONTINUOUS
 70
0
 71
3
 72
9
 73
5
 74
3
 42
0.0000001
 43
0.0000001
 44
0.0000000001
 12
0.0107543479
 22
-0.0252843143
 32
0.0
 13
0.0221956602
 23
-0.0161662699
 33
0.0
 40
0.0
 40
0.0
 40
0.0
 40
0.0
 40
0.4358351121
 40
1.0
 40
1.0
 40
1.0
 40
1.0
 10
6.8622312971
 20
3.9107724003
 30
0.0
 10
6.8637936713
 20
3.9070991364
 30
0.0
 10
6.8684544767
 20
3.8991209832
 30
0.0
 10
6.8751681513
 20
3.8927570385
 30
0.0
 10
6.8793421554
 20
3.8897168913
 30
0.0
 11
6.8622312971
 21
3.9107724003
 31
0.0
 11
6.8682463037
 21
3.9004514403
 31
0.0
 11
6.8793421554
 21
3.8897168913
 31
0.0
  0
SPLINE
  5
4A5
100
AcDbEntity
  8
0
100
AcDbSpline
 62
7
  6
CONTINUOUS
 70
0
 71
3
 72
10
 73
6
 74
4
 42
0.0000001
 43
0.0000001
 44
0.0000000001
 12
0.0214998905
 22
-0.0156595041
 32
0.0
 13
0.0256328676
 23
-0.0068646305
 33
0.0
 40
0.0
 40
0.0
 40
0.0
 40
0.0
 40
0.0417747975
 40
0.7051487844
 40
1.0
 40
1.0
 40
1.0
 40
1.0
 10
6.8793421554
 20
3.8897168913
 30
0.0
 10
6.8796415399
 20
3.8894988337
 30
0.0
 10
6.8847286341
 20
3.8858658501
 30
0.0
 10
6.8927062389
 20
3.8818628619
 30
0.0
 10
6.9007942615
 20
3.8793025016
 30
0.0
 10
6.9033135555
 20
3.8786278201
 30
0.0
 11
6.8793421554
 21
3.8897168913
 31
0.0
 11
6.8802461739
 21
3.8890712233
 31
0.0
 11
6.8958588114
 21
3.8809989345
 31
0.0
 11
6.9033135555
 21
3.8786278201
 31
0.0
  0
SPLINE
  5
4A6
100
AcDbEntity
  8
0
100
AcDbSpline
 62
7
  6
CONTINUOUS
 70
0
 71
3
 72
9
 73
5
 74
3
 42
0.0000001
 43
0.0000001
 44
0.0000000001
 12
0.0278372756
 22
-0.0074549837
 32
0.0
 13
0.0287573692
 23
0.0009609946
 33
0.0
 40
0.0
 40
0.0
 40
0.0
 40
0.0
 40
0.3609814879
 40
1.0
 40
1.0
 40
1.0
 40
1.0
 10
6.9033135555
 20
3.8786278201
 30
0.0
 10
6.9066631359
 20
3.877730783
 30
0.0
 10
6.9160919054
 20
3.8757999214
 30
0.0
 10
6.9257288954
 20
3.8752669945
 30
0.0
 10
6.9318543925
 20
3.8754716922
 30
0.0
 11
6.9033135555
 21
3.8786278201
 31
0.0
 11
6.9134974911
 21
3.876518934
 31
0.0
 11
6.9318543925
 21
3.8754716922
 31
0.0
  0
SPLINE
  5
4A7
100
AcDbEntity
  8
0
100
AcDbSpline
 62
7
  6
CONTINUOUS
 70
0
 71
3
 72
18
 73
14
 74
12
 42
0.0000001
 43
0.0000001
 44
0.0000000001
 12
-0.0637307998
 22
0.169625118
 32
0.0
 13
-0.0637821274
 23
-0.1696160666
 33
0.0
 40
0.0
 40
0.0
 40
0.0
 40
0.0
 40
0.0673769499
 40
0.1573186334
 40
0.2503754449
 40
0.3475275104
 40
0.4485885598
 40
0.549598859
 40
0.6505959907
 40
0.7478821238
 40
0.8408813522
 40
0.9312754415
 40
1.0
 40
1.0
 40
1.0
 40
1.0
 10
6.1360675907
 20
4.1521600152
 30
0.0
 10
6.1346362617
 20
4.1559696229
 30
0.0
 10
6.1302402939
 20
4.1644683462
 30
0.0
 10
6.1197881578
 20
4.1756133326
 30
0.0
 10
6.1052692333
 20
4.184478465
 30
0.0
 10
6.0886097816
 20
4.1902340689
 30
0.0
 10
6.0707541923
 20
4.193050776
 30
0.0
 10
6.0524580183
 20
4.1930766165
 30
0.0
 10
6.03459024
 20
4.190314641
 30
0.0
 10
6.0179092009
 20
4.1846212318
 30
0.0
 10
6.0033227298
 20
4.1758099435
 30
0.0
 10
5.9927358955
 20
4.1646445654
 30
0.0
 10
5.9882647036
 20
4.1560577872
 30
0.0
 10
5.9868035708
 20
4.1521721907
 30
0.0
 11
6.1360675907
 21
4.1521600152
 31
0.0
 11
6.1304725236
 21
4.1629749429
 31
0.0
 11
6.1194726303
 21
4.1749057937
 31
0.0
 11
6.1052369714
 21
4.183807845
 31
0.0
 11
6.088715401
 21
4.1896641225
 31
0.0
 11
6.0707159521
 21
4.1925797801
 31
0.0
 11
6.0524910603
 21
4.1926062033
 31
0.0
 11
6.0344938192
 21
4.1897496148
 31
0.0
 11
6.0179272735
 21
4.1839481975
 31
0.0
 11
6.0036578535
 21
4.1751200955
 31
0.0
 11
5.9925393351
 21
4.1631879
 31
0.0
 11
5.9868035708
 21
4.1521721907
 31
0.0
  0
SPLINE
  5
4A8
100
AcDbEntity
  8
0
100
AcDbSpline
 62
7
  6
CONTINUOUS
 70
0
 71
3
 72
12
 73
8
 74
6
 42
0.0000001
 43
0.0000001
 44
0.0000000001
 12
0.0260743066
 22
-0.0626344195
 32
0.0
 13
0.0671218747
 23
-0.0080486245
 33
0.0
 40
0.0
 40
0.0
 40
0.0
 40
0.0
 40
0.1731391862
 40
0.411906436
 40
0.6563635238
 40
0.9132291007
 40
1.0
 40
1.0
 40
1.0
 40
1.0
 10
5.3000936808
 20
3.9111005739
 30
0.0
 10
5.3015985089
 20
3.9074857498
 30
0.0
 10
5.3062517705
 20
3.8993321159
 30
0.0
 10
5.3170998334
 20
3.8889614331
 30
0.0
 10
5.3319502393
 20
3.881068909
 30
0.0
 10
5.344788772
 20
3.8775115664
 30
0.0
 10
5.352450183
 20
3.8763604607
 30
0.0
 10
5.3543915915
 20
3.8761276652
 30
0.0
 11
5.3000936808
 21
3.9111005739
 31
0.0
 11
5.3058910455
 21
3.9009219326
 31
0.0
 11
5.3174232187
 21
3.8896572606
 31
0.0
 11
5.3319116586
 21
3.8817513996
 31
0.0
 11
5.3485912243
 21
3.8770009266
 31
0.0
 11
5.3543915915
 21
3.8761276652
 31
0.0
  0
SPLINE
  5
4A9
100
AcDbEntity
  8
0
100
AcDbSpline
 62
7
  6
CONTINUOUS
 70
0
 71
3
 72
10
 73
6
 74
4
 42
0.0000001
 43
0.0000001
 44
0.0000000001
 12
0.0382226487
 22
-0.0045833009
 32
0.0
 13
0.0370789133
 23
0.010400187
 33
0.0
 40
0.0
 40
0.0
 40
0.0
 40
0.0
 40
0.3084668503
 40
0.769018394
 40
1.0
 40
1.0
 40
1.0
 40
1.0
 10
5.3543915915
 20
3.8761276652
 30
0.0
 10
5.3583217315
 20
3.8756563998
 30
0.0
 10
5.3681896099
 20
3.875072736
 30
0.0
 10
5.3810246369
 20
3.8761451214
 30
0.0
 10
5.389696585
 20
3.8781013512
 30
0.0
 10
5.3925514339
 20
3.8789021019
 30
0.0
 11
5.3543915915
 21
3.8761276652
 31
0.0
 11
5.3662384931
 21
3.8754147607
 31
0.0
 11
5.3838807365
 21
3.8769300473
 31
0.0
 11
5.3925514339
 21
3.8789021019
 31
0.0
  0
SPLINE
  5
4AA
100
AcDbEntity
  8
0
100
AcDbSpline
 62
7
  6
CONTINUOUS
 70
0
 71
3
 72
10
 73
6
 74
4
 42
0.0000001
 43
0.0000001
 44
0.0000000001
 12
0.0258201489
 22
0.0072422397
 32
0.0
 13
0.0213692128
 23
0.0163029543
 33
0.0
 40
0.0
 40
0.0
 40
0.0
 40
0.0
 40
0.3162645008
 40
0.9336356454
 40
1.0
 40
1.0
 40
1.0
 40
1.0
 10
5.3925514339
 20
3.8789021019
 30
0.0
 10
5.3952734328
 20
3.8796655896
 30
0.0
 10
5.4031970557
 20
3.8823148872
 30
0.0
 10
5.4111766931
 20
3.8864985294
 30
0.0
 10
5.4161026558
 20
3.890139117
 30
0.0
 10
5.4165753738
 20
3.890499762
 30
0.0
 11
5.3925514339
 21
3.8789021019
 31
0.0
 11
5.4005872707
 21
3.8816046669
 31
0.0
 11
5.4151414206
 21
3.8894397447
 31
0.0
 11
5.4165753738
 21
3.890499762
 31
0.0
  0
SPLINE
  5
4AB
100
AcDbEntity
  8
0
100
AcDbSpline
 62
7
  6
CONTINUOUS
 70
0
 71
3
 72
9
 73
5
 74
3
 42
0.0000001
 43
0.0000001
 44
0.0000000001
 12
0.0210656283
 22
0.0160713443
 32
0.0
 13
0.0102000564
 23
0.0244830291
 33
0.0
 40
0.0
 40
0.0
 40
0.0
 40
0.0
 40
0.5460983848
 40
1.0
 40
1.0
 40
1.0
 40
1.0
 10
5.4165753738
 20
3.890499762
 30
0.0
 10
5.420410009
 20
3.8934252737
 30
0.0
 10
5.4267808398
 20
3.8996601216
 30
0.0
 10
5.4312257115
 20
3.907386314
 30
0.0
 10
5.4327689855
 20
3.9110906095
 30
0.0
 11
5.4165753738
 21
3.890499762
 31
0.0
 11
5.4267938437
 21
3.9006797083
 31
0.0
 11
5.4327689855
 21
3.9110906095
 31
0.0
  0
SPLINE
  5
4AC
100
AcDbEntity
  8
0
100
AcDbSpline
 62
7
  6
CONTINUOUS
 70
0
 71
3
 72
13
 73
9
 74
7
 42
0.0000001
 43
0.0000001
 44
0.0000000001
 12
-0.0741403422
 22
-0.0009310512
 32
0.0
 13
-0.0000000007
 23
0.0000000014
 33
0.0
 40
0.0
 40
0.0
 40
0.0
 40
0.0
 40
0.2503873866
 40
0.4893488925
 40
0.6998756342
 40
0.8632469717
 40
0.9654484389
 40
1.0
 40
1.0
 40
1.0
 40
1.0
 10
6.9318543925
 20
4.3039184891
 30
0.0
 10
6.9256664569
 20
4.3038407813
 30
0.0
 10
6.9135960726
 20
4.3040940211
 30
0.0
 10
6.8962189977
 20
4.3056442934
 30
0.0
 10
6.8816291467
 20
4.3077554748
 30
0.0
 10
6.8690606994
 20
4.3102653587
 30
0.0
 10
6.863717909
 20
4.3114456968
 30
0.0
 10
6.8584333398
 20
4.3127473701
 30
0.0
 10
6.8584333398
 20
4.3127473701
 30
0.0
 11
6.9318543925
 21
4.3039184891
 31
0.0
 11
6.9132934088
 21
4.3043174207
 31
0.0
 11
6.8956429087
 21
4.305863503
 31
0.0
 11
6.880199233
 21
4.3081344818
 31
0.0
 11
6.8683098779
 21
4.3104532684
 31
0.0
 11
6.8609217655
 21
4.3121383777
 31
0.0
 11
6.8584333398
 21
4.3127473701
 31
0.0
  0
SPLINE
  5
4AD
100
AcDbEntity
  8
0
100
AcDbSpline
 62
7
  6
CONTINUOUS
 70
0
 71
3
 72
15
 73
11
 74
9
 42
0.0000001
 43
0.0000001
 44
0.0000000001
 12
0.1376657491
 22
0.0677014448
 32
0.0
 13
-0.0000482499
 23
-0.1539376577
 33
0.0
 40
0.0
 40
0.0
 40
0.0
 40
0.0
 40
0.1283478307
 40
0.2553946749
 40
0.3828518568
 40
0.5119080448
 40
0.6412867187
 40
0.7674062071
 40
0.8870871212
 40
1.0
 40
1.0
 40
1.0
 40
1.0
 10
6.9318543925
 20
3.9558361483
 30
0.0
 10
6.9377440925
 20
3.9587325928
 30
0.0
 10
6.9502322355
 20
3.9630730763
 30
0.0
 10
6.9699455627
 20
3.9646920542
 30
0.0
 10
6.9894795961
 20
3.9612995189
 30
0.0
 10
7.0076610988
 20
3.953121227
 30
0.0
 10
7.0232627436
 20
3.9408335061
 30
0.0
 10
7.0351764289
 20
3.9255526496
 30
0.0
 10
7.0426471563
 20
3.9085808886
 30
0.0
 10
7.0444351515
 20
3.8966662182
 30
0.0
 10
7.0444333355
 20
3.8908723701
 30
0.0
 11
6.9318543925
 21
3.9558361483
 31
0.0
 11
6.9504631214
 21
3.9622717392
 31
0.0
 11
6.9698887573
 21
3.9638611789
 31
0.0
 11
6.9891566989
 21
3.9605316241
 31
0.0
 11
7.0072241081
 21
3.9524346099
 31
0.0
 11
7.0228173917
 21
3.9401543861
 31
0.0
 11
7.0346737026
 21
3.9248643886
 31
0.0
 11
7.0419789727
 21
3.9080197446
 31
0.0
 11
7.0444333355
 21
3.8908723701
 31
0.0
  0
SPLINE
  5
4AE
100
AcDbEntity
  8
0
100
AcDbSpline
 62
7
  6
CONTINUOUS
 70
0
 71
3
 72
8
 73
4
 74
2
 42
0.0000001
 43
0.0000001
 44
0.0000000001
 12
0.0093247395
 22
-0.0031496369
 32
0.0
 13
0.0096130583
 23
-0.0021922159
 33
0.0
 40
0.0
 40
0.0
 40
0.0
 40
0.0
 40
1.0
 40
1.0
 40
1.0
 40
1.0
 10
6.9318543925
 20
3.8754716922
 30
0.0
 10
6.934962639
 20
3.8744218133
 30
0.0
 10
6.9381296714
 20
3.8735374756
 30
0.0
 10
6.9413340242
 20
3.8728067369
 30
0.0
 11
6.9318543925
 21
3.8754716922
 31
0.0
 11
6.9413340242
 21
3.8728067369
 31
0.0
  0
SPLINE
  5
4AF
100
AcDbEntity
  8
0
100
AcDbSpline
 62
7
  6
CONTINUOUS
 70
0
 71
3
 72
11
 73
7
 74
5
 42
0.0000001
 43
0.0000001
 44
0.0000000001
 12
0.0625988332
 22
-0.0142753903
 32
0.0
 13
0.0599129995
 23
0.0230919071
 33
0.0
 40
0.0
 40
0.0
 40
0.0
 40
0.0
 40
0.144359772
 40
0.4442037383
 40
0.7437986634
 40
1.0
 40
1.0
 40
1.0
 40
1.0
 10
6.9413340242
 20
3.8728067369
 30
0.0
 10
6.9443462753
 20
3.8721198062
 30
0.0
 10
6.9537166345
 20
3.8704237422
 30
0.0
 10
6.9696470271
 20
3.8695784435
 30
0.0
 10
6.9879060587
 20
3.8715430177
 30
0.0
 10
6.9993993908
 20
3.8747641155
 30
0.0
 10
7.0045159876
 20
3.8767361747
 30
0.0
 11
6.9413340242
 21
3.8728067369
 31
0.0
 11
6.9504518848
 21
3.8711432277
 31
0.0
 11
6.9696406621
 21
3.87009298
 31
0.0
 11
6.9887253829
 21
3.8722077846
 31
0.0
 11
7.0045159876
 21
3.8767361747
 31
0.0
  0
SPLINE
  5
4B0
100
AcDbEntity
  8
0
100
AcDbSpline
 62
7
  6
CONTINUOUS
 70
0
 71
3
 72
11
 73
7
 74
5
 42
0.0000001
 43
0.0000001
 44
0.0000000001
 12
0.0480113974
 22
0.0185047442
 32
0.0
 13
0.0181557999
 23
0.0482691442
 33
0.0
 40
0.0
 40
0.0
 40
0.0
 40
0.0
 40
0.0497864634
 40
0.4051864308
 40
0.7389770092
 40
1.0
 40
1.0
 40
1.0
 40
1.0
 10
7.0045159876
 20
3.8767361747
 30
0.0
 10
7.0053127602
 20
3.8770432699
 30
0.0
 10
7.011761482
 20
3.8796387226
 30
0.0
 10
7.0229440844
 20
3.8858333698
 30
0.0
 10
7.0346259687
 20
3.8975197109
 30
0.0
 10
7.0394847759
 20
3.9066254845
 30
0.0
 10
7.0410644696
 20
3.91082527
 30
0.0
 11
7.0045159876
 21
3.8767361747
 31
0.0
 11
7.0068927182
 21
3.877693187
 31
0.0
 11
7.0227508566
 21
3.8867321918
 31
0.0
 11
7.0347478426
 21
3.8989784596
 31
0.0
 11
7.0410644696
 21
3.91082527
 31
0.0
  0
SPLINE
  5
4B1
100
AcDbEntity
  8
0
100
AcDbSpline
 62
7
  6
CONTINUOUS
 70
0
 71
3
 72
8
 73
4
 74
2
 42
0.0000001
 43
0.0000001
 44
0.0000000001
 12
0.0034074967
 22
0.0009252731
 32
0.0
 13
0.0000000004
 23
-0.0000000199
 33
0.0
 40
0.0
 40
0.0
 40
0.0
 40
0.0
 40
1.0
 40
1.0
 40
1.0
 40
1.0
 10
7.0419889115
 20
4.3120793064
 30
0.0
 10
7.0431247437
 20
4.3123877308
 30
0.0
 10
7.0444333306
 20
4.3127473742
 30
0.0
 10
7.0444333307
 20
4.3127473676
 30
0.0
 11
7.0419889115
 21
4.3120793064
 31
0.0
 11
7.0444333307
 21
4.3127473676
 31
0.0
  0
SPLINE
  5
4B2
100
AcDbEntity
  8
0
100
AcDbSpline
 62
7
  6
CONTINUOUS
 70
0
 71
3
 72
15
 73
11
 74
9
 42
0.0000001
 43
0.0000001
 44
0.0000000001
 12
0.1127673852
 22
-0.0143137856
 32
0.0
 13
0.000000014
 23
-0.0000008934
 33
0.0
 40
0.0
 40
0.0
 40
0.0
 40
0.0
 40
0.1645226444
 40
0.3354574682
 40
0.5050350472
 40
0.6650223798
 40
0.8043600165
 40
0.9112695472
 40
0.9776147796
 40
1.0
 40
1.0
 40
1.0
 40
1.0
 10
6.9318543925
 20
4.3039184891
 30
0.0
 10
6.9380386553
 20
4.3031335085
 30
0.0
 10
6.9507029767
 20
4.3019486182
 30
0.0
 10
6.9698612611
 20
4.3015073586
 30
0.0
 10
6.9887787443
 20
4.3024178219
 30
0.0
 10
7.0065743524
 20
4.3045245736
 30
0.0
 10
7.0213279659
 20
4.3071014348
 30
0.0
 10
7.0339071682
 20
4.309985456
 30
0.0
 10
7.0392077613
 20
4.3113112129
 30
0.0
 10
7.0444333306
 20
4.3127473742
 30
0.0
 10
7.0444333307
 20
4.3127473676
 30
0.0
 11
6.9318543925
 21
4.3039184891
 31
0.0
 11
6.950475601
 21
4.3021857739
 31
0.0
 11
6.9699009597
 21
4.3017372393
 31
0.0
 11
6.9891547031
 21
4.3026685759
 31
0.0
 11
7.0072183454
 21
4.3047755785
 31
0.0
 11
7.0228150372
 21
4.3075344298
 31
0.0
 11
7.0346721664
 21
4.3101981056
 31
0.0
 11
7.0419762642
 21
4.3120758723
 31
0.0
 11
7.0444333307
 21
4.3127473676
 31
0.0
  0
SPLINE
  5
4B3
100
AcDbEntity
  8
0
100
AcDbSpline
 62
7
  6
CONTINUOUS
 70
0
 71
3
 72
19
 73
15
 74
13
 42
0.0000001
 43
0.0000001
 44
0.0000000001
 12
0.1372414146
 22
0.0343104844
 32
0.0
 13
0.1372414886
 23
-0.0343104886
 33
0.0
 40
0.0
 40
0.0
 40
0.0
 40
0.0
 40
0.0172315396
 40
0.0703630534
 40
0.1546400568
 40
0.2596355934
 40
0.3793615726
 40
0.5065618011
 40
0.6334320355
 40
0.7519141441
 40
0.854746833
 40
0.9339427099
 40
0.9834402884
 40
1.0
 40
1.0
 40
1.0
 40
1.0
 10
5.2964333398
 20
3.7514973701
 30
0.0
 10
5.2972216334
 20
3.7516944443
 30
0.0
 10
5.300443563
 20
3.752487181
 30
0.0
 10
5.3075511064
 20
3.7541203303
 30
0.0
 10
5.3187685729
 20
3.7563327164
 30
0.0
 10
5.3331827712
 20
3.7585070097
 30
0.0
 10
5.349715299
 20
3.7600598009
 30
0.0
 10
5.3673469419
 20
3.7605861331
 30
0.0
 10
5.3849158655
 20
3.7599427238
 30
0.0
 10
5.4012627369
 20
3.7583052855
 30
0.0
 10
5.4152697666
 20
3.756119475
 30
0.0
 10
5.4259767805
 20
3.7539727242
 30
0.0
 10
5.4326511222
 20
3.7524314261
 30
0.0
 10
5.43567578
 20
3.7516867607
 30
0.0
 10
5.4364333398
 20
3.7514973701
 30
0.0
 11
5.2964333398
 21
3.7514973701
 31
0.0
 11
5.2988004253
 21
3.7520797416
 31
0.0
 11
5.306126054
 21
3.7537619407
 31
0.0
 11
5.3178237716
 21
3.7560651822
 31
0.0
 11
5.3325117997
 21
3.7582746205
 31
0.0
 11
5.3493752771
 21
3.7598524226
 31
0.0
 11
5.3673618156
 21
3.760386946
 31
0.0
 11
5.3852976951
 21
3.7597330165
 31
0.0
 11
5.4019760159
 21
3.7580686192
 31
0.0
 11
5.4163502704
 21
3.7558314492
 31
0.0
 11
5.4273357802
 21
3.7536321019
 31
0.0
 11
5.4341586248
 21
3.752057369
 31
0.0
 11
5.4364333398
 21
3.7514973701
 31
0.0
  0
SPLINE
  5
4B4
100
AcDbEntity
  8
0
100
AcDbSpline
 62
7
  6
CONTINUOUS
 70
0
 71
3
 72
12
 73
8
 74
6
 42
0.0000001
 43
0.0000001
 44
0.0000000001
 12
-0.0000233744
 22
-0.0745742395
 32
0.0
 13
-0.0695556191
 23
-0.0265471451
 33
0.0
 40
0.0
 40
0.0
 40
0.0
 40
0.0
 40
0.2237812869
 40
0.4478609048
 40
0.6808919953
 40
0.9267194991
 40
1.0
 40
1.0
 40
1.0
 40
1.0
 10
7.0444333355
 20
3.8908723701
 30
0.0
 10
7.0444315919
 20
3.8853095971
 30
0.0
 10
7.0428235878
 20
3.8741585844
 30
0.0
 10
7.0352781421
 20
3.8587630423
 30
0.0
 10
7.0230874713
 20
3.8459839861
 30
0.0
 10
7.0112288125
 20
3.8388907814
 30
0.0
 10
7.0039180794
 20
3.8358352484
 30
0.0
 10
7.0022190558
 20
3.8351867857
 30
0.0
 11
7.0444333355
 21
3.8908723701
 31
0.0
 11
7.0419870112
 21
3.8744217963
 31
0.0
 11
7.0346896236
 21
3.8594522084
 31
0.0
 11
7.022840451
 21
3.8468213586
 31
0.0
 11
7.0072516755
 21
3.8372936582
 31
0.0
 11
7.0022190558
 21
3.8351867857
 31
0.0
  0
SPLINE
  5
4B5
100
AcDbEntity
  8
0
100
AcDbSpline
 62
7
  6
CONTINUOUS
 70
0
 71
3
 72
11
 73
7
 74
5
 42
0.0000001
 43
0.0000001
 44
0.0000000001
 12
-0.0569510099
 22
-0.0217363708
 32
0.0
 13
-0.0593259583
 23
0.0141128707
 33
0.0
 40
0.0
 40
0.0
 40
0.0
 40
0.0
 40
0.2232940139
 40
0.5423772369
 40
0.8623177444
 40
1.0
 40
1.0
 40
1.0
 40
1.0
 10
7.0022190558
 20
3.8351867857
 30
0.0
 10
6.997980116
 20
3.8335689185
 30
0.0
 10
6.9873787763
 20
3.8304437378
 30
0.0
 10
6.9699180562
 20
3.8283142928
 30
0.0
 10
6.9541110425
 20
3.8292159634
 30
0.0
 10
6.9449643669
 20
3.8309814102
 30
0.0
 10
6.9422416564
 20
3.8316291075
 30
0.0
 11
7.0022190558
 21
3.8351867857
 31
0.0
 11
6.9891864954
 21
3.8312983578
 31
0.0
 11
6.9699190431
 21
3.8288948222
 31
0.0
 11
6.9504832566
 21
3.8300308097
 31
0.0
 11
6.9422416564
 21
3.8316291075
 31
0.0
  0
SPLINE
  5
4B6
100
AcDbEntity
  8
0
100
AcDbSpline
 62
7
  6
CONTINUOUS
 70
0
 71
3
 72
8
 73
4
 74
2
 42
0.0000001
 43
0.0000001
 44
0.0000000001
 12
-0.010564322
 22
0.0025131142
 32
0.0
 13
-0.0101796608
 23
0.0037140428
 33
0.0
 40
0.0
 40
0.0
 40
0.0
 40
0.0
 40
1.0
 40
1.0
 40
1.0
 40
1.0
 10
6.9422416564
 20
3.8316291075
 30
0.0
 10
6.9387202157
 20
3.8324668123
 30
0.0
 10
6.9352476127
 20
3.8334994586
 30
0.0
 10
6.9318543925
 20
3.8347374728
 30
0.0
 11
6.9422416564
 21
3.8316291075
 31
0.0
 11
6.9318543925
 21
3.8347374728
 31
0.0
  0
SPLINE
  5
4B7
100
AcDbEntity
  8
0
100
AcDbSpline
 62
7
  6
CONTINUOUS
 70
0
 71
3
 72
19
 73
15
 74
13
 42
0.0000001
 43
0.0000001
 44
0.0000000001
 12
0.0
 22
-0.1994466537
 32
0.0
 13
0.0
 23
0.1994466537
 33
0.0
 40
0.0
 40
0.0
 40
0.0
 40
0.0
 40
0.0766490994
 40
0.153777966
 40
0.233265516
 40
0.3169004577
 40
0.4044379676
 40
0.4983169465
 40
0.5935313428
 40
0.6829551721
 40
0.7668284549
 40
0.8462885495
 40
0.9233953813
 40
1.0
 40
1.0
 40
1.0
 40
1.0
 10
5.4364333398
 20
3.8914973701
 30
0.0
 10
5.4364333398
 20
3.886401568
 30
0.0
 10
5.4349116323
 20
3.8760991817
 30
0.0
 10
5.4278510837
 20
3.8620097289
 30
0.0
 10
5.4165605585
 20
3.8503934701
 30
0.0
 10
5.4020412004
 20
3.8418744
 30
0.0
 10
5.3851018561
 20
3.8365693038
 30
0.0
 10
5.3666841171
 20
3.8347009586
 30
0.0
 10
5.3481272507
 20
3.8364758073
 30
0.0
 10
5.3309462047
 20
3.8418035492
 30
0.0
 10
5.3163037081
 20
3.8503926774
 30
0.0
 10
5.3050078247
 20
3.8620213915
 30
0.0
 10
5.2979534501
 20
3.8761067044
 30
0.0
 10
5.2964333398
 20
3.8864045251
 30
0.0
 10
5.2964333398
 20
3.8914973701
 30
0.0
 11
5.4364333398
 21
3.8914973701
 31
0.0
 11
5.4341380371
 21
3.8763832582
 31
0.0
 11
5.4272871495
 21
3.8626099169
 31
0.0
 11
5.4163321137
 21
3.8511503588
 31
0.0
 11
5.4020226776
 21
3.8425779554
 31
0.0
 11
5.3853943975
 21
3.837256377
 31
0.0
 11
5.3667707619
 21
3.835321774
 31
0.0
 11
5.3478711194
 21
3.8371740521
 31
0.0
 11
5.3308704563
 21
3.8425661565
 31
0.0
 11
5.316519707
 21
3.8511620972
 31
0.0
 11
5.3055717812
 21
3.8626208758
 31
0.0
 11
5.2987259476
 21
3.8763918222
 31
0.0
 11
5.2964333398
 21
3.8914973701
 31
0.0
  0
SPLINE
  5
4B8
100
AcDbEntity
  8
0
100
AcDbSpline
 62
7
  6
CONTINUOUS
 70
0
 71
3
 72
13
 73
9
 74
7
 42
0.0000001
 43
0.0000001
 44
0.0000000001
 12
0.1107878065
 22
0.0
 32
0.0
 13
0.0000393544
 23
0.1111887489
 33
0.0
 40
0.0
 40
0.0
 40
0.0
 40
0.0
 40
0.1807691404
 40
0.3583118369
 40
0.5290188992
 40
0.6906309057
 40
0.8455169872
 40
1.0
 40
1.0
 40
1.0
 40
1.0
 10
6.0994333398
 20
3.8288385783
 30
0.0
 10
6.106109012
 20
3.8288385783
 30
0.0
 10
6.1193764157
 20
3.8300571555
 30
0.0
 10
6.1382472491
 20
3.8356119336
 30
0.0
 10
6.154823924
 20
3.8449508629
 30
0.0
 10
6.1677139861
 20
3.857881481
 30
0.0
 10
6.1757251941
 20
3.8736603269
 30
0.0
 10
6.1774313119
 20
3.8851468214
 30
0.0
 10
6.1774333384
 20
3.8908724124
 30
0.0
 11
6.0994333398
 21
3.8288385783
 31
0.0
 11
6.1193722037
 21
3.8307155703
 31
0.0
 11
6.138205127
 21
3.8363912045
 31
0.0
 11
6.1545886684
 21
3.845838595
 31
0.0
 11
6.1671122937
 21
3.8586344901
 31
0.0
 11
6.1748406991
 21
3.8739550586
 31
0.0
 11
6.1774333384
 21
3.8908724124
 31
0.0
  0
SPLINE
  5
4B9
100
AcDbEntity
  8
0
100
AcDbSpline
 62
7
  6
CONTINUOUS
 70
0
 71
3
 72
13
 73
9
 74
7
 42
0.0000001
 43
0.0000001
 44
0.0000000001
 12
0.0000392918
 22
-0.1111884905
 32
0.0
 13
0.1107877706
 23
0.0
 33
0.0
 40
0.0
 40
0.0
 40
0.0
 40
0.0
 40
0.1545293836
 40
0.3093914895
 40
0.4710073318
 40
0.6417261416
 40
0.819307755
 40
1.0
 40
1.0
 40
1.0
 40
1.0
 10
6.0214333384
 20
3.8908723268
 30
0.0
 10
6.0214353623
 20
3.8851450305
 30
0.0
 10
6.0231421798
 20
3.8736577142
 30
0.0
 10
6.0311549118
 20
3.8578786627
 30
0.0
 10
6.0440453332
 20
3.8449488463
 30
0.0
 10
6.0606242269
 20
3.8356097199
 30
0.0
 10
6.0794945698
 20
3.830056512
 30
0.0
 10
6.0927605095
 20
3.8288385783
 30
0.0
 10
6.0994333398
 20
3.8288385783
 30
0.0
 11
6.0214333384
 21
3.8908723268
 31
0.0
 11
6.0240275633
 21
3.8739500896
 31
0.0
 11
6.0317558566
 21
3.8586324459
 31
0.0
 11
6.044280344
 21
3.845836808
 31
0.0
 11
6.0606654547
 21
3.8363895459
 31
0.0
 11
6.0795028871
 21
3.8307139541
 31
0.0
 11
6.0994333398
 21
3.8288385783
 31
0.0
  0
SPLINE
  5
4BA
100
AcDbEntity
  8
0
100
AcDbSpline
 62
7
  6
CONTINUOUS
 70
0
 71
3
 72
13
 73
9
 74
7
 42
0.0000001
 43
0.0000001
 44
0.0000000001
 12
-0.1030638374
 22
-0.0037202137
 32
0.0
 13
-0.0000390358
 23
0.1035272844
 33
0.0
 40
0.0
 40
0.0
 40
0.0
 40
0.0
 40
0.1803967158
 40
0.3579059369
 40
0.528781247
 40
0.6906964879
 40
0.8457417278
 40
1.0
 40
1.0
 40
1.0
 40
1.0
 10
6.9318543925
 20
3.8347374728
 30
0.0
 10
6.9256569332
 20
3.8345137681
 30
0.0
 10
6.9132830764
 20
3.835270262
 30
0.0
 10
6.895601238
 20
3.8400241052
 30
0.0
 10
6.8799826882
 20
3.8484160777
 30
0.0
 10
6.8677510982
 20
3.8602547806
 30
0.0
 10
6.8600831186
 20
3.8748563714
 30
0.0
 10
6.8584353475
 20
3.8855490567
 30
0.0
 10
6.8584333403
 20
3.89087237
 30
0.0
 11
6.9318543925
 21
3.8347374728
 31
0.0
 11
6.9132863644
 21
3.8359016202
 31
0.0
 11
6.8956355683
 21
3.8407580097
 31
0.0
 11
6.8801939443
 21
3.8492497686
 31
0.0
 11
6.8683067569
 21
3.8609772496
 31
0.0
 11
6.8609209793
 21
3.8751592538
 31
0.0
 11
6.8584333403
 21
3.89087237
 31
0.0
  0
SPLINE
  5
4BB
100
AcDbEntity
  8
0
100
AcDbSpline
 62
7
  6
CONTINUOUS
 70
0
 71
3
 72
20
 73
16
 74
14
 42
0.0000001
 43
0.0000001
 44
0.0000000001
 12
0.0
 22
0.2216752286
 32
0.0
 13
-0.0
 23
-0.2216752286
 33
0.0
 40
0.0
 40
0.0
 40
0.0
 40
0.0
 40
0.0707015606
 40
0.1414403598
 40
0.2140162975
 40
0.2903932655
 40
0.3700605177
 40
0.4555203337
 40
0.5440315114
 40
0.6296385234
 40
0.7092438583
 40
0.7857110132
 40
0.8581220236
 40
0.9291931638
 40
1.0
 40
1.0
 40
1.0
 40
1.0
 10
5.9834333398
 20
4.1721223701
 30
0.0
 10
5.9834333398
 20
4.1773466316
 30
0.0
 10
5.9848590441
 20
4.187866854
 30
0.0
 10
5.991519314
 20
4.2024545905
 30
0.0
 10
6.0023286051
 20
4.2148457229
 30
0.0
 10
6.0164688846
 20
4.2243842694
 30
0.0
 10
6.0332029303
 20
4.2309254984
 30
0.0
 10
6.0517468557
 20
4.2343022853
 30
0.0
 10
6.0710305644
 20
4.2343110709
 30
0.0
 10
6.0895838511
 20
4.2309482691
 30
0.0
 10
6.106335058
 20
4.2244166503
 30
0.0
 10
6.1204767978
 20
4.2148978888
 30
0.0
 10
6.1313144449
 20
4.2025081012
 30
0.0
 10
6.1380011519
 20
4.1879073105
 30
0.0
 10
6.1394333398
 20
4.1773544106
 30
0.0
 10
6.1394333398
 20
4.1721223701
 30
0.0
 11
5.9834333398
 21
4.1721223701
 31
0.0
 11
5.9856022706
 21
4.1876443518
 31
0.0
 11
5.9920934824
 21
4.2019187754
 31
0.0
 11
6.0025888603
 21
4.2141122179
 31
0.0
 11
6.0165435259
 21
4.2236998177
 31
0.0
 11
6.0329484135
 21
4.2302392607
 31
0.0
 11
6.0515731755
 21
4.2337041798
 31
0.0
 11
6.0711939089
 21
4.2337133081
 31
0.0
 11
6.0898536071
 21
4.2302578131
 31
0.0
 11
6.1062513882
 21
4.2237376273
 31
0.0
 11
6.1202321739
 21
4.2141527557
 31
0.0
 11
6.1307201501
 21
4.2020012001
 31
0.0
 11
6.1372578583
 21
4.1876669998
 31
0.0
 11
6.1394333398
 21
4.1721223701
 31
0.0
  0
SPLINE
  5
4BC
100
AcDbEntity
  8
0
100
AcDbSpline
 62
7
  6
CONTINUOUS
 70
0
 71
3
 72
19
 73
15
 74
13
 42
0.0000001
 43
0.0000001
 44
0.0000000001
 12
0.0
 22
0.1994707162
 32
0.0
 13
0.0
 23
-0.1994707162
 33
0.0
 40
0.0
 40
0.0
 40
0.0
 40
0.0
 40
0.0766442194
 40
0.1537708572
 40
0.2332570088
 40
0.3168890888
 40
0.4044318228
 40
0.4983334238
 40
0.5935509982
 40
0.6829664981
 40
0.7668345501
 40
0.8462937822
 40
0.9233994886
 40
1.0
 40
1.0
 40
1.0
 40
1.0
 10
6.8584333398
 20
4.1721223701
 30
0.0
 10
6.8584333398
 20
4.1772184625
 30
0.0
 10
6.8599552515
 20
4.1875215294
 30
0.0
 10
6.8670145718
 20
4.2016127607
 30
0.0
 10
6.8783026115
 20
4.2132332608
 30
0.0
 10
6.8928207327
 20
4.2217585983
 30
0.0
 10
6.9097624013
 20
4.2270696164
 30
0.0
 10
6.9281845574
 20
4.2289400518
 30
0.0
 10
6.9467448401
 20
4.2271623938
 30
0.0
 10
6.9639258578
 20
4.221829092
 30
0.0
 10
6.9785662325
 20
4.2132342189
 30
0.0
 10
6.9898596884
 20
4.2016013872
 30
0.0
 10
6.9969129911
 20
4.1875141848
 30
0.0
 10
6.9984333398
 20
4.1772155564
 30
0.0
 10
6.9984333398
 20
4.1721223701
 30
0.0
 11
6.8584333398
 21
4.1721223701
 31
0.0
 11
6.8607285292
 21
4.1872373802
 31
0.0
 11
6.867578282
 21
4.2010128621
 31
0.0
 11
6.8785313107
 21
4.2124765983
 31
0.0
 11
6.89283911
 21
4.2210545372
 31
0.0
 11
6.9094689697
 21
4.2263815073
 31
0.0
 11
6.9280991774
 21
4.2283183788
 31
0.0
 11
6.947001492
 21
4.226463378
 31
0.0
 11
6.9640011072
 21
4.2210663501
 31
0.0
 11
6.9783498445
 21
4.2124651553
 31
0.0
 11
6.9892959267
 21
4.2010022095
 31
0.0
 11
6.9961407983
 21
4.1872289638
 31
0.0
 11
6.9984333398
 21
4.1721223701
 31
0.0
  0
SPLINE
  5
4BD
100
AcDbEntity
  8
0
100
AcDbSpline
 62
7
  6
CONTINUOUS
 70
0
 71
3
 72
19
 73
15
 74
13
 42
0.0000001
 43
0.0000001
 44
0.0000000001
 12
0.0
 22
0.1994415097
 32
0.0
 13
0.0
 23
-0.1994415097
 33
0.0
 40
0.0
 40
0.0
 40
0.0
 40
0.0
 40
0.0775634557
 40
0.1557052709
 40
0.2363367818
 40
0.321191028
 40
0.4099156906
 40
0.5001156124
 40
0.5900857548
 40
0.6787591459
 40
0.7636641997
 40
0.8443455601
 40
0.9225048463
 40
1.0
 40
1.0
 40
1.0
 40
1.0
 10
5.2964333398
 20
4.1714973701
 30
0.0
 10
5.2964333398
 20
4.1766538277
 30
0.0
 10
5.2979933633
 20
4.187087173
 30
0.0
 10
5.3052344731
 20
4.2013247278
 30
0.0
 10
5.3167955802
 20
4.2129997337
 30
0.0
 10
5.3316159013
 20
4.2214767125
 30
0.0
 10
5.3485362391
 20
4.2265571906
 30
0.0
 10
5.3664413868
 20
4.2282371248
 30
0.0
 10
5.38434201
 20
4.2265530449
 30
0.0
 10
5.401247709
 20
4.2214779323
 30
0.0
 10
5.4160717498
 20
4.2130004041
 30
0.0
 10
5.4276376927
 20
4.2013185086
 30
0.0
 10
5.4348753119
 20
4.1870790365
 30
0.0
 10
5.4364333398
 20
4.1766492869
 30
0.0
 10
5.4364333398
 20
4.1714973701
 30
0.0
 11
5.2964333398
 21
4.1714973701
 31
0.0
 11
5.2987842724
 21
4.1867870597
 31
0.0
 11
5.3058048696
 21
4.2007008931
 31
0.0
 11
5.3170212781
 21
4.2122247568
 31
0.0
 11
5.3316327776
 21
4.2207633483
 31
0.0
 11
5.3485490476
 21
4.2259562574
 31
0.0
 11
5.3664565008
 21
4.2276735627
 31
0.0
 11
5.3843179104
 21
4.2259562029
 31
0.0
 11
5.4012247196
 21
4.2207673195
 31
0.0
 11
5.4158455623
 21
4.2122246325
 31
0.0
 11
5.4270677946
 21
4.2006925635
 31
0.0
 11
5.4340865952
 21
4.1867739211
 31
0.0
 11
5.4364333398
 21
4.1714973701
 31
0.0
  0
ENDSEC
  0
SECTION
  2
OBJECTS
  0
DICTIONARY
  5
C
100
AcDbDictionary
280
0
281
1
  3
ACAD_GROUP
350
D
  3
ACAD_MLINESTYLE
350
17
  3
ACAD_LAYOUT
350
1A
  3
ACAD_PLOTSETTINGS
350
19
  3
ACAD_PLOTSTYLENAME
350
E
  0
DICTIONARY
  5
D
102
{ACAD_REACTORS
330
C
102
}
100
AcDbDictionary
280
0
281
1
  0
ACDBDICTIONARYWDFLT
  5
E
102
{ACAD_REACTORS
330
C
102
}
100
AcDbDictionary
281
1
  3
Normal
350
F
100
AcDbDictionaryWithDefault
340
F
  0
DICTIONARY
  5
17
102
{ACAD_REACTORS
330
C
102
}
100
AcDbDictionary
280
0
281
1
  3
Standard
350
18
  0
DICTIONARY
  5
19
102
{ACAD_REACTORS
330
C
102
}
100
AcDbDictionary
281
1
  0
DICTIONARY
  5
1A
102
{ACAD_REACTORS
330
C
102
}
100
AcDbDictionary
281
1
  3
Layout1
350
1E
  3
Model
350
22
  0
ACDBPLACEHOLDER
  5
F
102
{ACAD_REACTORS
330
E
102
}
  0
MLINESTYLE
  5
18
102
{ACAD_REACTORS
330
17
102
}
100
AcDbMlineStyle
  2
STANDARD
 70
0
  3

 62
256
 51
90.0
 52
90.0
 71
2
 49
0.5
 62
256
  6
BYLAYER
 49
-0.5
 62
256
  6
BYLAYER
  0
LAYOUT
  5
1E
102
{ACAD_REACTORS
330
1A
102
}
100
AcDbPlotSettings
  1

  2

  4

  6

 40
0.0
 41
0.0
 42
0.0
 43
0.0
 44
0.0
 45
0.0
 46
0.0
 47
0.0
 48
0.0
 49
0.0
140
0.0
141
0.0
142
1.0
143
1.0
 70
0
 72
0
 73
0
 74
0
  7

 75
0
147
1.0
148
0.0
149
0.0
100
AcDbLayout
  1
Layout1
 70
0
 71
0
 10
0.0
 20
0.0
 11
0.0
 21
0.0
 12
0.0
 22
0.0
 32
0.0
 14
0.0
 24
0.0
 34
0.0
 15
0.0
 25
0.0
 35
0.0
146
0.0
 13
0.0
 23
0.0
 33
0.0
 16
0.0
 26
0.0
 36
0.0
 17
0.0
 27
0.0
 37
0.0
 76
0
330
1B
331
0
345
0
346
0
  0
LAYOUT
  5
22
102
{ACAD_REACTORS
330
1A
102
}
100
AcDbPlotSettings
  1

  2

  4

  6

 40
0.0
 41
0.0
 42
0.0
 43
0.0
 44
0.0
 45
0.0
 46
0.0
 47
0.0
 48
0.0
 49
0.0
140
0.0
141
0.0
142
1.0
143
1.0
 70
0
 72
0
 73
0
 74
0
  7

 75
0
147
1.0
148
0.0
149
0.0
100
AcDbLayout
  1
Model
 70
0
 71
0
 10
0.0
 20
0.0
 11
0.0
 21
0.0
 12
0.0
 22
0.0
 32
0.0
 14
0.0
 24
0.0
 34
0.0
 15
0.0
 25
0.0
 35
0.0
146
0.0
 13
0.0
 23
0.0
 33
0.0
 16
0.0
 26
0.0
 36
0.0
 17
0.0
 27
0.0
 37
0.0
 76
0
330
1F
331
0
345
0
346
0
  0
ENDSEC
  0
EOF
