999
DXF file: CXZA-XAN.dxf
999
Pro/ENGINEER 2006240 by Parametric Technology Corporation
  0
SECTION
  2
HEADER
  9
$ACADVER
  1
AC1015
  9
$DWGCODEPAGE
  3
ANSI_1252
  9
$EXTMAX
 10
11.6929133858
 20
8.2677165354
 30
0.0
  9
$EXTMIN
 10
0.0
 20
0.0
 30
0.0
  9
$LIMMIN
 10
0.0
 20
0.0
  9
$LIMMAX
 10
11.6929133858
 20
8.2677165354
  9
$VIEWCTR
 10
5.8464566929
 20
4.1338582677
  9
$VIEWSIZE
 40
8.2677165354
  9
$CLAYER
  8
0
  9
$LTSCALE
 40
0.6431102362
  9
$CELTYPE
  6
BYLAYER
  9
$DIMSCALE
 40
1.0
  9
$DIMASZ
 40
0.1875
  9
$DIMEXO
 40
0.0730807087
  9
$DIMDLI
 40
0.4443307087
  9
$DIMEXE
 40
0.2104724409
  9
$DIMCEN
 40
0.1052362205
  9
$DIMLFAC
 40
1.0
  9
$DIMBLK
  1
_CLOSED
  9
$DIMTXT
 40
0.15625
  9
$DIMTOL
 70
0
  9
$DIMLIM
 70
0
  9
$DIMTFAC
 40
1.0
  9
$PDMODE
 70
3
  9
$PDSIZE
 40
0.3125
  9
$HANDSEED
  5
3CB
  9
$MEASUREMENT
 70
0
  9
$INSUNITS
 70
1
  0
ENDSEC
  0
SECTION
  2
CLASSES
  0
CLASS
  1
ACDBDICTIONARYWDFLT
  2
AcDbDictionaryWithDefault
  3
AutoCAD 2000
 90
0
280
0
281
0
  0
CLASS
  1
ACDBPLACEHOLDER
  2
AcDbPlaceHolder
  3
AutoCAD 2000
 90
0
280
0
281
0
  0
CLASS
  1
LAYOUT
  2
AcDbLayout
  3
AutoCAD 2000
 90
0
280
0
281
0
  0
ENDSEC
  0
SECTION
  2
TABLES
  0
TABLE
  2
VPORT
  5
8
100
AcDbSymbolTable
 70
2
  0
VPORT
  5
1F4
100
AcDbSymbolTableRecord
100
AcDbViewportTableRecord
  2
*ACTIVE
 70
0
 10
0.0
 20
0.0
 11
1.0
 21
1.0
 12
5.8464566929
 22
4.1338582677
 13
0.0
 23
0.0
 14
1.0
 24
1.0
 15
0.0
 25
0.0
 16
0.0
 26
0.0
 36
1.0
 17
0.0
 27
0.0
 37
0.0
 40
8.2677165354
 41
1.4142857143
 42
50.0
 43
0.0
 44
0.0
 50
0.0
 51
0.0
 71
0
 72
100
 73
1
 74
1
 75
0
 76
0
 77
0
 78
0
  0
ENDTAB
  0
TABLE
  2
LTYPE
  5
5
100
AcDbSymbolTable
 70
6
  0
LTYPE
  5
14
100
AcDbSymbolTableRecord
100
AcDbLinetypeTableRecord
  2
BYBLOCK
 70
0
  3

 72
65
 73
0
 40
0.0
  0
LTYPE
  5
15
100
AcDbSymbolTableRecord
100
AcDbLinetypeTableRecord
  2
BYLAYER
 70
0
  3

 72
65
 73
0
 40
0.0
  0
LTYPE
  5
16
100
AcDbSymbolTableRecord
100
AcDbLinetypeTableRecord
  2
CONTINUOUS
 70
64
  3
Solid line
 72
65
 73
0
 40
0.0
  0
LTYPE
  5
1F5
100
AcDbSymbolTableRecord
100
AcDbLinetypeTableRecord
  2
CENTER
 70
64
  3
____ _ ____ _ ____ _ ____ _ ____ _ ____ _ ____
 72
65
 73
4
 40
0.6
 49
0.375
 74
0
 49
-0.075
 74
0
 49
0.075
 74
0
 49
-0.075
 74
0
  0
LTYPE
  5
1F6
100
AcDbSymbolTableRecord
100
AcDbLinetypeTableRecord
  2
HIDDEN
 70
64
  3
- - - - - - - - - - - - - - - - - - - -
 72
65
 73
2
 40
0.2
 49
0.1
 74
0
 49
-0.1
 74
0
  0
LTYPE
  5
1F7
100
AcDbSymbolTableRecord
100
AcDbLinetypeTableRecord
  2
PHANTOM
 70
64
  3
_____ _ _ _____ _ _ _____ _ _ _____
 72
65
 73
6
 40
0.8
 49
0.45
 74
0
 49
-0.05
 74
0
 49
0.1
 74
0
 49
-0.05
 74
0
 49
0.1
 74
0
 49
-0.05
 74
0
  0
LTYPE
  5
1F8
100
AcDbSymbolTableRecord
100
AcDbLinetypeTableRecord
  2
DOT
 70
64
  3
. . . . . . . . . . . . . . . . . . . .
 72
65
 73
2
 40
0.2
 49
0.1
 74
0
 49
-0.1
 74
0
  0
LTYPE
  5
1F9
100
AcDbSymbolTableRecord
100
AcDbLinetypeTableRecord
  2
DASHED
 70
64
  3
- - - - - - - - - - - - - - - - - - - -
 72
65
 73
2
 40
0.2
 49
0.1
 74
0
 49
-0.1
 74
0
  0
ENDTAB
  0
TABLE
  2
LAYER
  5
2
100
AcDbSymbolTable
 70
36
  0
LAYER
  5
10
100
AcDbSymbolTableRecord
100
AcDbLayerTableRecord
  2
0
 70
0
 62
7
  6
CONTINUOUS
370
-3
390
F
  0
LAYER
  5
1FA
100
AcDbSymbolTableRecord
100
AcDbLayerTableRecord
  2
DEFAULT_1
 70
0
 62
7
  6
CENTER
370
-3
390
F
  0
LAYER
  5
1FB
100
AcDbSymbolTableRecord
100
AcDbLayerTableRecord
  2
DEFAULT_2
 70
0
 62
8
  6
HIDDEN
370
-3
390
F
  0
LAYER
  5
1FC
100
AcDbSymbolTableRecord
100
AcDbLayerTableRecord
  2
DEFAULT_3
 70
0
 62
7
  6
PHANTOM
370
-3
390
F
  0
LAYER
  5
1FD
100
AcDbSymbolTableRecord
100
AcDbLayerTableRecord
  2
01_ALL_DTM_PLN
 70
0
 62
7
  6
CONTINUOUS
370
-3
390
F
  0
LAYER
  5
1FE
100
AcDbSymbolTableRecord
100
AcDbLayerTableRecord
  2
01__ASM_ALL_DTM_PLN
 70
0
 62
7
  6
CONTINUOUS
370
-3
390
F
  0
LAYER
  5
1FF
100
AcDbSymbolTableRecord
100
AcDbLayerTableRecord
  2
01__ASM_DEF_DTM_PLN
 70
0
 62
7
  6
CONTINUOUS
370
-3
390
F
  0
LAYER
  5
200
100
AcDbSymbolTableRecord
100
AcDbLayerTableRecord
  2
01___PRT_ALL_DTM_PLN
 70
0
 62
7
  6
CONTINUOUS
370
-3
390
F
  0
LAYER
  5
201
100
AcDbSymbolTableRecord
100
AcDbLayerTableRecord
  2
01___PRT_DEF_DTM_PLN
 70
0
 62
7
  6
CONTINUOUS
370
-3
390
F
  0
LAYER
  5
202
100
AcDbSymbolTableRecord
100
AcDbLayerTableRecord
  2
02_ALL_AXES
 70
0
 62
7
  6
CONTINUOUS
370
-3
390
F
  0
LAYER
  5
203
100
AcDbSymbolTableRecord
100
AcDbLayerTableRecord
  2
02__ASM_ALL_AXES
 70
0
 62
7
  6
CONTINUOUS
370
-3
390
F
  0
LAYER
  5
204
100
AcDbSymbolTableRecord
100
AcDbLayerTableRecord
  2
02___PRT_ALL_AXES
 70
0
 62
7
  6
CONTINUOUS
370
-3
390
F
  0
LAYER
  5
205
100
AcDbSymbolTableRecord
100
AcDbLayerTableRecord
  2
03_ALL_CURVES
 70
0
 62
7
  6
CONTINUOUS
370
-3
390
F
  0
LAYER
  5
206
100
AcDbSymbolTableRecord
100
AcDbLayerTableRecord
  2
03__ASM_ALL_CURVES
 70
0
 62
7
  6
CONTINUOUS
370
-3
390
F
  0
LAYER
  5
207
100
AcDbSymbolTableRecord
100
AcDbLayerTableRecord
  2
03___PRT_ALL_CURVES
 70
0
 62
7
  6
CONTINUOUS
370
-3
390
F
  0
LAYER
  5
208
100
AcDbSymbolTableRecord
100
AcDbLayerTableRecord
  2
04_ALL_DTM_PNT
 70
0
 62
7
  6
CONTINUOUS
370
-3
390
F
  0
LAYER
  5
209
100
AcDbSymbolTableRecord
100
AcDbLayerTableRecord
  2
04__ASM_ALL_DTM_PNT
 70
0
 62
7
  6
CONTINUOUS
370
-3
390
F
  0
LAYER
  5
20A
100
AcDbSymbolTableRecord
100
AcDbLayerTableRecord
  2
04___PRT_ALL_DTM_PNT
 70
0
 62
7
  6
CONTINUOUS
370
-3
390
F
  0
LAYER
  5
20B
100
AcDbSymbolTableRecord
100
AcDbLayerTableRecord
  2
05_ALL_DTM_CSYS
 70
0
 62
7
  6
CONTINUOUS
370
-3
390
F
  0
LAYER
  5
20C
100
AcDbSymbolTableRecord
100
AcDbLayerTableRecord
  2
05__ASM_ALL_DTM_CSYS
 70
0
 62
7
  6
CONTINUOUS
370
-3
390
F
  0
LAYER
  5
20D
100
AcDbSymbolTableRecord
100
AcDbLayerTableRecord
  2
05__ASM_DEF_DTM_CSYS
 70
0
 62
7
  6
CONTINUOUS
370
-3
390
F
  0
LAYER
  5
20E
100
AcDbSymbolTableRecord
100
AcDbLayerTableRecord
  2
05___PRT_ALL_DTM_CSYS
 70
0
 62
7
  6
CONTINUOUS
370
-3
390
F
  0
LAYER
  5
20F
100
AcDbSymbolTableRecord
100
AcDbLayerTableRecord
  2
05___PRT_DEF_DTM_CSYS
 70
0
 62
7
  6
CONTINUOUS
370
-3
390
F
  0
LAYER
  5
210
100
AcDbSymbolTableRecord
100
AcDbLayerTableRecord
  2
06_ALL_SURFS
 70
0
 62
7
  6
CONTINUOUS
370
-3
390
F
  0
LAYER
  5
211
100
AcDbSymbolTableRecord
100
AcDbLayerTableRecord
  2
06__ASM_ALL_SURFS
 70
0
 62
7
  6
CONTINUOUS
370
-3
390
F
  0
LAYER
  5
212
100
AcDbSymbolTableRecord
100
AcDbLayerTableRecord
  2
06___PRT_ALL_SURFS
 70
0
 62
7
  6
CONTINUOUS
370
-3
390
F
  0
LAYER
  5
213
100
AcDbSymbolTableRecord
100
AcDbLayerTableRecord
  2
07__ASM_ALL_SKELETONS
 70
0
 62
7
  6
CONTINUOUS
370
-3
390
F
  0
LAYER
  5
214
100
AcDbSymbolTableRecord
100
AcDbLayerTableRecord
  2
COPY_GEO_FET
 70
0
 62
7
  6
CONTINUOUS
370
-3
390
F
  0
LAYER
  5
215
100
AcDbSymbolTableRecord
100
AcDbLayerTableRecord
  2
COSMETIC
 70
0
 62
7
  6
CONTINUOUS
370
-3
390
F
  0
LAYER
  5
216
100
AcDbSymbolTableRecord
100
AcDbLayerTableRecord
  2
CUT_REF_SURF
 70
0
 62
7
  6
CONTINUOUS
370
-3
390
F
  0
LAYER
  5
217
100
AcDbSymbolTableRecord
100
AcDbLayerTableRecord
  2
DATUM
 70
0
 62
7
  6
CONTINUOUS
370
-3
390
F
  0
LAYER
  5
218
100
AcDbSymbolTableRecord
100
AcDbLayerTableRecord
  2
DIMENSIONS
 70
0
 62
7
  6
CONTINUOUS
370
-3
390
F
  0
LAYER
  5
219
100
AcDbSymbolTableRecord
100
AcDbLayerTableRecord
  2
DRAWINGNOTES
 70
0
 62
7
  6
CONTINUOUS
370
-3
390
F
  0
LAYER
  5
21A
100
AcDbSymbolTableRecord
100
AcDbLayerTableRecord
  2
DTM_500051
 70
0
 62
7
  6
CONTINUOUS
370
-3
390
F
  0
LAYER
  5
21B
100
AcDbSymbolTableRecord
100
AcDbLayerTableRecord
  2
DTM_515002
 70
0
 62
7
  6
CONTINUOUS
370
-3
390
F
  0
LAYER
  5
21C
100
AcDbSymbolTableRecord
100
AcDbLayerTableRecord
  2
DTM_800001
 70
0
 62
7
  6
CONTINUOUS
370
-3
390
F
  0
LAYER
  5
21D
100
AcDbSymbolTableRecord
100
AcDbLayerTableRecord
  2
DTM_SPRING_RH
 70
0
 62
7
  6
CONTINUOUS
370
-3
390
F
  0
LAYER
  5
21E
100
AcDbSymbolTableRecord
100
AcDbLayerTableRecord
  2
DTM_SP_RH_CONSTR
 70
0
 62
7
  6
CONTINUOUS
370
-3
390
F
  0
LAYER
  5
21F
100
AcDbSymbolTableRecord
100
AcDbLayerTableRecord
  2
PARAMETERDIMENSIONS
 70
0
 62
7
  6
CONTINUOUS
370
-3
390
F
  0
LAYER
  5
220
100
AcDbSymbolTableRecord
100
AcDbLayerTableRecord
  2
PLANE
 70
0
 62
7
  6
CONTINUOUS
370
-3
390
F
  0
LAYER
  5
221
100
AcDbSymbolTableRecord
100
AcDbLayerTableRecord
  2
PROTRUSIONS
 70
0
 62
7
  6
CONTINUOUS
370
-3
390
F
  0
LAYER
  5
222
100
AcDbSymbolTableRecord
100
AcDbLayerTableRecord
  2
TEXT
 70
0
 62
7
  6
CONTINUOUS
370
-3
390
F
  0
LAYER
  5
223
100
AcDbSymbolTableRecord
100
AcDbLayerTableRecord
  2
THREAD
 70
0
 62
7
  6
CONTINUOUS
370
-3
390
F
  0
ENDTAB
  0
TABLE
  2
STYLE
  5
3
100
AcDbSymbolTable
 70
1
  0
STYLE
  5
11
100
AcDbSymbolTableRecord
100
AcDbTextStyleTableRecord
  2
STANDARD
 70
0
 40
0.0
 41
0.8
 50
0.0
 71
0
 42
0.2
  3
txt
  4

  0
ENDTAB
  0
TABLE
  2
VIEW
  5
6
100
AcDbSymbolTable
 70
0
  0
ENDTAB
  0
TABLE
  2
UCS
  5
7
100
AcDbSymbolTable
 70
0
  0
ENDTAB
  0
TABLE
  2
APPID
  5
9
100
AcDbSymbolTable
 70
1
  0
APPID
  5
224
100
AcDbSymbolTableRecord
100
AcDbRegAppTableRecord
  2
ACAD
 70
0
  0
ENDTAB
  0
TABLE
  2
BLOCK_RECORD
  5
1
100
AcDbSymbolTable
 70
0
  0
BLOCK_RECORD
  5
1F
100
AcDbSymbolTableRecord
100
AcDbBlockTableRecord
  2
*MODEL_SPACE
  0
BLOCK_RECORD
  5
1B
100
AcDbSymbolTableRecord
100
AcDbBlockTableRecord
  2
*PAPER_SPACE
  0
ENDTAB
  0
TABLE
  2
DIMSTYLE
  5
A
100
AcDbSymbolTable
 70
1
100
AcDbDimStyleTable
 71
0
  0
DIMSTYLE
105
225
100
AcDbSymbolTableRecord
100
AcDbDimStyleTableRecord
  2
STANDARD
 70
0
  3

  4

 40
1.0
 41
0.1875
 42
0.0625
 43
0.38
 44
0.18
 45
0.0
 46
0.0
 47
0.01
 48
0.01
140
0.15625
141
0.09
142
0.0
143
25.4
144
1.0
145
0.0
146
1.0
147
0.09
 71
0.0
 72
0.0
 73
1
 74
1
 75
0
 76
0
 77
0
 78
4
170
0
171
2
172
0
173
0
174
0
175
0
176
0
177
0
178
0
270
2
271
2
272
2
273
2
274
2
275
0
280
0
281
0
282
0
283
1
284
4
285
0
286
0
287
3
288
0
340
11
  0
ENDTAB
  0
ENDSEC
  0
SECTION
  2
BLOCKS
  0
BLOCK
  5
20
100
AcDbEntity
  8
0
100
AcDbBlockBegin
  2
*MODEL_SPACE
 70
0
 10
0.0
 20
0.0
 30
0.0
  3
*MODEL_SPACE
  1

  0
ENDBLK
  5
21
100
AcDbEntity
  8
0
100
AcDbBlockEnd
  0
BLOCK
  5
1C
100
AcDbEntity
  8
0
100
AcDbBlockBegin
  2
*PAPER_SPACE
 70
0
 10
0.0
 20
0.0
 30
0.0
  3
*PAPER_SPACE
  1

  0
ENDBLK
  5
1D
100
AcDbEntity
  8
0
100
AcDbBlockEnd
  0
ENDSEC
  0
SECTION
  2
ENTITIES
  0
LINE
  5
226
100
AcDbEntity
  8
0
100
AcDbLine
 62
7
  6
CONTINUOUS
 10
5.2150213498
 20
4.1384982191
 11
5.2150213498
 21
4.4564982191
  0
LINE
  5
227
100
AcDbEntity
  8
03__ASM_ALL_CURVES
100
AcDbLine
 62
40
  6
CONTINUOUS
 10
5.2150213498
 20
4.4564982191
 11
5.2150213498
 21
4.5207434049
  0
LINE
  5
228
100
AcDbEntity
  8
0
100
AcDbLine
 62
7
  6
CONTINUOUS
 10
5.2200213498
 20
4.1334982191
 11
5.2200213498
 21
4.4614982191
  0
LINE
  5
229
100
AcDbEntity
  8
03__ASM_ALL_CURVES
100
AcDbLine
 62
40
  6
CONTINUOUS
 10
5.2442689073
 20
4.515868812
 11
5.2442689073
 21
4.5061196262
  0
LINE
  5
22A
100
AcDbEntity
  8
03__ASM_ALL_CURVES
100
AcDbLine
 62
40
  6
CONTINUOUS
 10
5.2967497679
 20
4.5369920485
 11
5.2982730782
 21
4.5410542083
  0
LINE
  5
22B
100
AcDbEntity
  8
03__ASM_ALL_CURVES
100
AcDbLine
 62
40
  6
CONTINUOUS
 10
5.2982730782
 20
4.5410542083
 11
5.2997963885
 21
4.5430852896
  0
LINE
  5
22C
100
AcDbEntity
  8
0
100
AcDbLine
 62
7
  6
CONTINUOUS
 10
5.2680213498
 20
4.1334982191
 11
5.2680213498
 21
4.4614982191
  0
LINE
  5
22D
100
AcDbEntity
  8
0
100
AcDbLine
 62
7
  6
CONTINUOUS
 10
5.281300406
 20
4.4844982191
 11
5.281300406
 21
4.1104982191
  0
LINE
  5
22E
100
AcDbEntity
  8
03__ASM_ALL_CURVES
100
AcDbLine
 62
40
  6
CONTINUOUS
 10
5.3089362502
 20
4.5288677267
 11
5.3074129399
 21
4.5248055658
  0
LINE
  5
22F
100
AcDbEntity
  8
0
100
AcDbLine
 62
7
  6
CONTINUOUS
 10
5.2680213498
 20
4.4614982191
 11
5.281300406
 21
4.4844982191
  0
LINE
  5
230
100
AcDbEntity
  8
03__ASM_ALL_CURVES
100
AcDbLine
 62
40
  6
CONTINUOUS
 10
5.3074129399
 20
4.5248055658
 11
5.3058896296
 21
4.5227744854
  0
LINE
  5
231
100
AcDbEntity
  8
0
100
AcDbLine
 62
7
  6
CONTINUOUS
 10
5.2680213498
 20
4.1334982191
 11
5.281300406
 21
4.1104982191
  0
LINE
  5
232
100
AcDbEntity
  8
03__ASM_ALL_CURVES
100
AcDbLine
 62
40
  6
CONTINUOUS
 10
5.2967497679
 20
4.5288677267
 11
5.2967497679
 21
4.5369920485
  0
LINE
  5
233
100
AcDbEntity
  8
03__ASM_ALL_CURVES
100
AcDbLine
 62
40
  6
CONTINUOUS
 10
5.3089362502
 20
4.5369920485
 11
5.3089362502
 21
4.5288677267
  0
LINE
  5
234
100
AcDbEntity
  8
03__ASM_ALL_CURVES
100
AcDbLine
 62
40
  6
CONTINUOUS
 10
5.3256926634
 20
4.5207434049
 11
5.3256926634
 21
4.5227744854
  0
LINE
  5
235
100
AcDbEntity
  8
03__ASM_ALL_CURVES
100
AcDbLine
 62
40
  6
CONTINUOUS
 10
5.3698686617
 20
4.5369920485
 11
5.371391972
 21
4.5410542083
  0
LINE
  5
236
100
AcDbEntity
  8
03__ASM_ALL_CURVES
100
AcDbLine
 62
40
  6
CONTINUOUS
 10
5.382055144
 20
4.5369920485
 11
5.3805318337
 21
4.5329298872
  0
LINE
  5
237
100
AcDbEntity
  8
03__ASM_ALL_CURVES
100
AcDbLine
 62
40
  6
CONTINUOUS
 10
5.382055144
 20
4.5288677267
 11
5.3805318337
 21
4.5248055658
  0
LINE
  5
238
100
AcDbEntity
  8
03__ASM_ALL_CURVES
100
AcDbLine
 62
40
  6
CONTINUOUS
 10
5.3576821794
 20
4.5390231284
 11
5.3561588691
 21
4.5369920485
  0
LINE
  5
239
100
AcDbEntity
  8
03__ASM_ALL_CURVES
100
AcDbLine
 62
40
  6
CONTINUOUS
 10
5.3592054897
 20
4.5268366461
 11
5.3561588691
 21
4.5227744854
  0
LINE
  5
23A
100
AcDbEntity
  8
03__ASM_ALL_CURVES
100
AcDbLine
 62
40
  6
CONTINUOUS
 10
5.371391972
 20
4.5410542083
 11
5.3729152823
 21
4.5430852896
  0
LINE
  5
23B
100
AcDbEntity
  8
03__ASM_ALL_CURVES
100
AcDbLine
 62
40
  6
CONTINUOUS
 10
5.3805318337
 20
4.5248055658
 11
5.3790085234
 21
4.5227744854
  0
LINE
  5
23C
100
AcDbEntity
  8
03__ASM_ALL_CURVES
100
AcDbLine
 62
40
  6
CONTINUOUS
 10
5.4018581778
 20
4.5451163695
 11
5.3988115572
 21
4.5410542083
  0
LINE
  5
23D
100
AcDbEntity
  8
03__ASM_ALL_CURVES
100
AcDbLine
 62
40
  6
CONTINUOUS
 10
5.2997963885
 20
4.5430852896
 11
5.302843009
 21
4.5451163695
  0
LINE
  5
23E
100
AcDbEntity
  8
03__ASM_ALL_CURVES
100
AcDbLine
 62
40
  6
CONTINUOUS
 10
5.3058896296
 20
4.5227744854
 11
5.302843009
 21
4.5207434049
  0
LINE
  5
23F
100
AcDbEntity
  8
03__ASM_ALL_CURVES
100
AcDbLine
 62
40
  6
CONTINUOUS
 10
5.3470190074
 20
4.5430852896
 11
5.350065628
 21
4.5451163695
  0
LINE
  5
240
100
AcDbEntity
  8
03__ASM_ALL_CURVES
100
AcDbLine
 62
40
  6
CONTINUOUS
 10
5.3576821794
 20
4.5410542083
 11
5.3576821794
 21
4.5390231284
  0
LINE
  5
241
100
AcDbEntity
  8
03__ASM_ALL_CURVES
100
AcDbLine
 62
40
  6
CONTINUOUS
 10
5.3592054897
 20
4.5288677267
 11
5.3592054897
 21
4.5268366461
  0
LINE
  5
242
100
AcDbEntity
  8
03__ASM_ALL_CURVES
100
AcDbLine
 62
40
  6
CONTINUOUS
 10
5.3988115572
 20
4.5410542083
 11
5.3972882469
 21
4.5349609671
  0
LINE
  5
243
100
AcDbEntity
  8
03__ASM_ALL_CURVES
100
AcDbLine
 62
40
  6
CONTINUOUS
 10
5.4186145909
 20
4.5369920485
 11
5.4201379012
 21
4.5410542083
  0
LINE
  5
244
100
AcDbEntity
  8
03__ASM_ALL_CURVES
100
AcDbLine
 62
40
  6
CONTINUOUS
 10
5.4308010732
 20
4.5369920485
 11
5.4292777629
 21
4.5329298872
  0
LINE
  5
245
100
AcDbEntity
  8
03__ASM_ALL_CURVES
100
AcDbLine
 62
40
  6
CONTINUOUS
 10
5.4308010732
 20
4.5288677267
 11
5.4292777629
 21
4.5248055658
  0
LINE
  5
246
100
AcDbEntity
  8
03__ASM_ALL_CURVES
100
AcDbLine
 62
40
  6
CONTINUOUS
 10
5.4201379012
 20
4.5410542083
 11
5.4216612115
 21
4.5430852896
  0
LINE
  5
247
100
AcDbEntity
  8
03__ASM_ALL_CURVES
100
AcDbLine
 62
40
  6
CONTINUOUS
 10
5.4292777629
 20
4.5248055658
 11
5.4277544526
 21
4.5227744854
  0
LINE
  5
248
100
AcDbEntity
  8
03__ASM_ALL_CURVES
100
AcDbLine
 62
40
  6
CONTINUOUS
 10
5.3561588691
 20
4.5369920485
 11
5.3531122485
 21
4.5349609671
  0
LINE
  5
249
100
AcDbEntity
  8
03__ASM_ALL_CURVES
100
AcDbLine
 62
40
  6
CONTINUOUS
 10
5.3729152823
 20
4.5430852896
 11
5.3759619029
 21
4.5451163695
  0
LINE
  5
24A
100
AcDbEntity
  8
03__ASM_ALL_CURVES
100
AcDbLine
 62
40
  6
CONTINUOUS
 10
5.3561588691
 20
4.5227744854
 11
5.3531122485
 21
4.5207434049
  0
LINE
  5
24B
100
AcDbEntity
  8
03__ASM_ALL_CURVES
100
AcDbLine
 62
40
  6
CONTINUOUS
 10
5.3790085234
 20
4.5227744854
 11
5.3759619029
 21
4.5207434049
  0
LINE
  5
24C
100
AcDbEntity
  8
03__ASM_ALL_CURVES
100
AcDbLine
 62
40
  6
CONTINUOUS
 10
5.4216612115
 20
4.5430852896
 11
5.4247078321
 21
4.5451163695
  0
LINE
  5
24D
100
AcDbEntity
  8
03__ASM_ALL_CURVES
100
AcDbLine
 62
40
  6
CONTINUOUS
 10
5.382055144
 20
4.5369920485
 11
5.382055144
 21
4.5288677267
  0
LINE
  5
24E
100
AcDbEntity
  8
03__ASM_ALL_CURVES
100
AcDbLine
 62
40
  6
CONTINUOUS
 10
5.3972882469
 20
4.5349609671
 11
5.3972882469
 21
4.5308988066
  0
LINE
  5
24F
100
AcDbEntity
  8
03__ASM_ALL_CURVES
100
AcDbLine
 62
40
  6
CONTINUOUS
 10
5.4673605201
 20
4.5369920485
 11
5.4688838304
 21
4.5410542083
  0
LINE
  5
250
100
AcDbEntity
  8
03__ASM_ALL_CURVES
100
AcDbLine
 62
40
  6
CONTINUOUS
 10
5.4795470024
 20
4.5369920485
 11
5.4780236922
 21
4.5329298872
  0
LINE
  5
251
100
AcDbEntity
  8
03__ASM_ALL_CURVES
100
AcDbLine
 62
40
  6
CONTINUOUS
 10
5.4795470024
 20
4.5288677267
 11
5.4780236922
 21
4.5248055658
  0
LINE
  5
252
100
AcDbEntity
  8
03__ASM_ALL_CURVES
100
AcDbLine
 62
40
  6
CONTINUOUS
 10
5.4688838304
 20
4.5410542083
 11
5.4704071407
 21
4.5430852896
  0
LINE
  5
253
100
AcDbEntity
  8
03__ASM_ALL_CURVES
100
AcDbLine
 62
40
  6
CONTINUOUS
 10
5.4780236922
 20
4.5248055658
 11
5.4765003819
 21
4.5227744854
  0
LINE
  5
254
100
AcDbEntity
  8
03__ASM_ALL_CURVES
100
AcDbLine
 62
40
  6
CONTINUOUS
 10
5.493256795
 20
4.5410542083
 11
5.4947801053
 21
4.5430852896
  0
LINE
  5
255
100
AcDbEntity
  8
03__ASM_ALL_CURVES
100
AcDbLine
 62
40
  6
CONTINUOUS
 10
5.5023966568
 20
4.5248055658
 11
5.5008733465
 21
4.5227744854
  0
LINE
  5
256
100
AcDbEntity
  8
03__ASM_ALL_CURVES
100
AcDbLine
 62
40
  6
CONTINUOUS
 10
5.4277544526
 20
4.5227744854
 11
5.4247078321
 21
4.5207434049
  0
LINE
  5
257
100
AcDbEntity
  8
03__ASM_ALL_CURVES
100
AcDbLine
 62
40
  6
CONTINUOUS
 10
5.4704071407
 20
4.5430852896
 11
5.4734537613
 21
4.5451163695
  0
LINE
  5
258
100
AcDbEntity
  8
03__ASM_ALL_CURVES
100
AcDbLine
 62
40
  6
CONTINUOUS
 10
5.4947801053
 20
4.5430852896
 11
5.4978267259
 21
4.5451163695
  0
LINE
  5
259
100
AcDbEntity
  8
03__ASM_ALL_CURVES
100
AcDbLine
 62
40
  6
CONTINUOUS
 10
5.3805318337
 20
4.5329298872
 11
5.3759619029
 21
4.5308988066
  0
LINE
  5
25A
100
AcDbEntity
  8
03__ASM_ALL_CURVES
100
AcDbLine
 62
40
  6
CONTINUOUS
 10
5.2982730782
 20
4.5248055658
 11
5.2967497679
 21
4.5288677267
  0
LINE
  5
25B
100
AcDbEntity
  8
03__ASM_ALL_CURVES
100
AcDbLine
 62
40
  6
CONTINUOUS
 10
5.4308010732
 20
4.5369920485
 11
5.4308010732
 21
4.5288677267
  0
LINE
  5
25C
100
AcDbEntity
  8
03__ASM_ALL_CURVES
100
AcDbLine
 62
40
  6
CONTINUOUS
 10
5.4475574864
 20
4.5207434049
 11
5.4475574864
 21
4.5227744854
  0
LINE
  5
25D
100
AcDbEntity
  8
0
100
AcDbLine
 62
7
  6
CONTINUOUS
 10
5.4620213498
 20
4.4844982191
 11
5.4620213498
 21
4.1104982191
  0
LINE
  5
25E
100
AcDbEntity
  8
03__ASM_ALL_CURVES
100
AcDbLine
 62
40
  6
CONTINUOUS
 10
5.4917334847
 20
4.5369920485
 11
5.493256795
 21
4.5410542083
  0
LINE
  5
25F
100
AcDbEntity
  8
03__ASM_ALL_CURVES
100
AcDbLine
 62
40
  6
CONTINUOUS
 10
5.503919967
 20
4.5288677267
 11
5.5023966568
 21
4.5248055658
  0
LINE
  5
260
100
AcDbEntity
  8
03__ASM_ALL_CURVES
100
AcDbLine
 62
40
  6
CONTINUOUS
 10
5.5237230008
 20
4.5248055658
 11
5.5206763802
 21
4.5207434049
  0
LINE
  5
261
100
AcDbEntity
  8
03__ASM_ALL_CURVES
100
AcDbLine
 62
40
  6
CONTINUOUS
 10
5.4765003819
 20
4.5227744854
 11
5.4734537613
 21
4.5207434049
  0
LINE
  5
262
100
AcDbEntity
  8
03__ASM_ALL_CURVES
100
AcDbLine
 62
40
  6
CONTINUOUS
 10
5.5008733465
 20
4.5227744854
 11
5.4978267259
 21
4.5207434049
  0
LINE
  5
263
100
AcDbEntity
  8
03__ASM_ALL_CURVES
100
AcDbLine
 62
40
  6
CONTINUOUS
 10
5.4292777629
 20
4.5329298872
 11
5.4247078321
 21
4.5308988066
  0
LINE
  5
264
100
AcDbEntity
  8
03__ASM_ALL_CURVES
100
AcDbLine
 62
40
  6
CONTINUOUS
 10
5.4780236922
 20
4.5329298872
 11
5.4734537613
 21
4.5308988066
  0
LINE
  5
265
100
AcDbEntity
  8
03__ASM_ALL_CURVES
100
AcDbLine
 62
40
  6
CONTINUOUS
 10
5.3074129399
 20
4.5410542083
 11
5.3089362502
 21
4.5369920485
  0
LINE
  5
266
100
AcDbEntity
  8
03__ASM_ALL_CURVES
100
AcDbLine
 62
40
  6
CONTINUOUS
 10
5.4795470024
 20
4.5369920485
 11
5.4795470024
 21
4.5288677267
  0
LINE
  5
267
100
AcDbEntity
  8
0
100
AcDbLine
 62
7
  6
CONTINUOUS
 10
5.4850213498
 20
4.1334982191
 11
5.4850213498
 21
4.4614982191
  0
LINE
  5
268
100
AcDbEntity
  8
03__ASM_ALL_CURVES
100
AcDbLine
 62
40
  6
CONTINUOUS
 10
5.4917334847
 20
4.5288677267
 11
5.4917334847
 21
4.5369920485
  0
LINE
  5
269
100
AcDbEntity
  8
03__ASM_ALL_CURVES
100
AcDbLine
 62
40
  6
CONTINUOUS
 10
5.503919967
 20
4.5369920485
 11
5.503919967
 21
4.5288677267
  0
LINE
  5
26A
100
AcDbEntity
  8
03__ASM_ALL_CURVES
100
AcDbLine
 62
40
  6
CONTINUOUS
 10
5.5252463111
 20
4.5308988066
 11
5.5237230008
 21
4.5248055658
  0
LINE
  5
26B
100
AcDbEntity
  8
03__ASM_ALL_CURVES
100
AcDbLine
 62
40
  6
CONTINUOUS
 10
5.371391972
 20
4.5329298872
 11
5.3698686617
 21
4.5369920485
  0
LINE
  5
26C
100
AcDbEntity
  8
03__ASM_ALL_CURVES
100
AcDbLine
 62
40
  6
CONTINUOUS
 10
5.3805318337
 20
4.5410542083
 11
5.382055144
 21
4.5369920485
  0
LINE
  5
26D
100
AcDbEntity
  8
03__ASM_ALL_CURVES
100
AcDbLine
 62
40
  6
CONTINUOUS
 10
5.3972882469
 20
4.5308988066
 11
5.3988115572
 21
4.5248055658
  0
LINE
  5
26E
100
AcDbEntity
  8
03__ASM_ALL_CURVES
100
AcDbLine
 62
40
  6
CONTINUOUS
 10
5.5252463111
 20
4.5349609671
 11
5.5252463111
 21
4.5308988066
  0
LINE
  5
26F
100
AcDbEntity
  8
03__ASM_ALL_CURVES
100
AcDbLine
 62
40
  6
CONTINUOUS
 10
5.6718677473
 20
4.5390231284
 11
5.6749143679
 21
4.5430852896
  0
LINE
  5
270
100
AcDbEntity
  8
03__ASM_ALL_CURVES
100
AcDbLine
 62
40
  6
CONTINUOUS
 10
5.6749143679
 20
4.5430852896
 11
5.6779609885
 21
4.5451163695
  0
LINE
  5
271
100
AcDbEntity
  8
03__ASM_ALL_CURVES
100
AcDbLine
 62
40
  6
CONTINUOUS
 10
5.6992873325
 20
4.5430852896
 11
5.7023339531
 21
4.5451163695
  0
LINE
  5
272
100
AcDbEntity
  8
03__ASM_ALL_CURVES
100
AcDbLine
 62
40
  6
CONTINUOUS
 10
5.6840542296
 20
4.5227744854
 11
5.6810076091
 21
4.5207434049
  0
LINE
  5
273
100
AcDbEntity
  8
03__ASM_ALL_CURVES
100
AcDbLine
 62
40
  6
CONTINUOUS
 10
5.9328841062
 20
4.0292184956
 11
5.9305991408
 21
4.0292184956
  0
LINE
  5
274
100
AcDbEntity
  8
03__ASM_ALL_CURVES
100
AcDbLine
 62
40
  6
CONTINUOUS
 10
5.982010863
 20
4.0292184956
 11
5.9911507248
 21
4.0292184956
  0
LINE
  5
275
100
AcDbEntity
  8
03__ASM_ALL_CURVES
100
AcDbLine
 62
40
  6
CONTINUOUS
 10
5.2997963885
 20
4.5227744854
 11
5.2982730782
 21
4.5248055658
  0
LINE
  5
276
100
AcDbEntity
  8
03__ASM_ALL_CURVES
100
AcDbLine
 62
40
  6
CONTINUOUS
 10
5.4201379012
 20
4.5329298872
 11
5.4186145909
 21
4.5369920485
  0
LINE
  5
277
100
AcDbEntity
  8
03__ASM_ALL_CURVES
100
AcDbLine
 62
40
  6
CONTINUOUS
 10
5.4292777629
 20
4.5410542083
 11
5.4308010732
 21
4.5369920485
  0
LINE
  5
278
100
AcDbEntity
  8
03__ASM_ALL_CURVES
100
AcDbLine
 62
40
  6
CONTINUOUS
 10
5.5807737922
 20
4.515868812
 11
5.5807737922
 21
4.5061196262
  0
LINE
  5
279
100
AcDbEntity
  8
03__ASM_ALL_CURVES
100
AcDbLine
 62
40
  6
CONTINUOUS
 10
5.6871008502
 20
4.5268366461
 11
5.6840542296
 21
4.5227744854
  0
LINE
  5
27A
100
AcDbEntity
  8
03__ASM_ALL_CURVES
100
AcDbLine
 62
40
  6
CONTINUOUS
 10
5.6962407119
 20
4.5390231284
 11
5.6992873325
 21
4.5430852896
  0
LINE
  5
27B
100
AcDbEntity
  8
03__ASM_ALL_CURVES
100
AcDbLine
 62
40
  6
CONTINUOUS
 10
5.7099505045
 20
4.5248055658
 11
5.7084271942
 21
4.5227744854
  0
LINE
  5
27C
100
AcDbEntity
  8
03__ASM_ALL_CURVES
100
AcDbLine
 62
40
  6
CONTINUOUS
 10
5.7084271942
 20
4.5227744854
 11
5.7053805737
 21
4.5207434049
  0
LINE
  5
27D
100
AcDbEntity
  8
03__ASM_ALL_CURVES
100
AcDbLine
 62
40
  6
CONTINUOUS
 10
5.9511638297
 20
4.0383583574
 11
5.9454514161
 21
4.0383583574
  0
LINE
  5
27E
100
AcDbEntity
  8
03__ASM_ALL_CURVES
100
AcDbLine
 62
40
  6
CONTINUOUS
 10
5.9146043828
 20
4.0383583574
 11
5.9088919692
 21
4.0383583574
  0
LINE
  5
27F
100
AcDbEntity
  8
03__ASM_ALL_CURVES
100
AcDbLine
 62
40
  6
CONTINUOUS
 10
5.9088919692
 20
4.0474982191
 11
5.9146043828
 21
4.0474982191
  0
LINE
  5
280
100
AcDbEntity
  8
03__ASM_ALL_CURVES
100
AcDbLine
 62
40
  6
CONTINUOUS
 10
5.9305991408
 20
4.0474982191
 11
5.9328841062
 21
4.0474982191
  0
LINE
  5
281
100
AcDbEntity
  8
03__ASM_ALL_CURVES
100
AcDbLine
 62
40
  6
CONTINUOUS
 10
5.9454514161
 20
4.0474982191
 11
5.9511638297
 21
4.0474982191
  0
LINE
  5
282
100
AcDbEntity
  8
03__ASM_ALL_CURVES
100
AcDbLine
 62
40
  6
CONTINUOUS
 10
5.9625886569
 20
4.0474982191
 11
5.974013484
 21
4.0474982191
  0
LINE
  5
283
100
AcDbEntity
  8
03__ASM_ALL_CURVES
100
AcDbLine
 62
40
  6
CONTINUOUS
 10
5.9854383112
 20
4.0474982191
 11
5.9877232766
 21
4.0474982191
  0
LINE
  5
284
100
AcDbEntity
  8
03__ASM_ALL_CURVES
100
AcDbLine
 62
40
  6
CONTINUOUS
 10
5.3058896296
 20
4.5430852896
 11
5.3074129399
 21
4.5410542083
  0
LINE
  5
285
100
AcDbEntity
  8
03__ASM_ALL_CURVES
100
AcDbLine
 62
40
  6
CONTINUOUS
 10
5.3256926634
 20
4.5227744854
 11
5.3272159736
 21
4.5207434049
  0
LINE
  5
286
100
AcDbEntity
  8
03__ASM_ALL_CURVES
100
AcDbLine
 62
40
  6
CONTINUOUS
 10
5.3470190074
 20
4.5227744854
 11
5.3454956971
 21
4.5248055658
  0
LINE
  5
287
100
AcDbEntity
  8
03__ASM_ALL_CURVES
100
AcDbLine
 62
40
  6
CONTINUOUS
 10
5.3561588691
 20
4.5329298872
 11
5.3592054897
 21
4.5288677267
  0
LINE
  5
288
100
AcDbEntity
  8
03__ASM_ALL_CURVES
100
AcDbLine
 62
40
  6
CONTINUOUS
 10
5.4688838304
 20
4.5329298872
 11
5.4673605201
 21
4.5369920485
  0
LINE
  5
289
100
AcDbEntity
  8
03__ASM_ALL_CURVES
100
AcDbLine
 62
40
  6
CONTINUOUS
 10
5.4780236922
 20
4.5410542083
 11
5.4795470024
 21
4.5369920485
  0
LINE
  5
28A
100
AcDbEntity
  8
0
100
AcDbLine
 62
7
  6
CONTINUOUS
 10
5.6100213498
 20
4.1334982191
 11
5.6100213498
 21
4.4614982191
  0
LINE
  5
28B
100
AcDbEntity
  8
03__ASM_ALL_CURVES
100
AcDbLine
 62
40
  6
CONTINUOUS
 10
5.6100213498
 20
4.4614982191
 11
5.6100213498
 21
4.5207434049
  0
LINE
  5
28C
100
AcDbEntity
  8
0
100
AcDbLine
 62
7
  6
CONTINUOUS
 10
5.6159399341
 20
4.1489153153
 11
5.6159399341
 21
4.4460811229
  0
LINE
  5
28D
100
AcDbEntity
  8
0
100
AcDbLine
 62
7
  6
CONTINUOUS
 10
5.6169399341
 20
4.1506473662
 11
5.6169399341
 21
4.4443490721
  0
LINE
  5
28E
100
AcDbEntity
  8
03__ASM_ALL_CURVES
100
AcDbLine
 62
40
  6
CONTINUOUS
 10
5.6703444371
 20
4.5329298872
 11
5.6718677473
 21
4.5390231284
  0
LINE
  5
28F
100
AcDbEntity
  8
03__ASM_ALL_CURVES
100
AcDbLine
 62
40
  6
CONTINUOUS
 10
5.6886241605
 20
4.5329298872
 11
5.6871008502
 21
4.5268366461
  0
LINE
  5
290
100
AcDbEntity
  8
0
100
AcDbLine
 62
7
  6
CONTINUOUS
 10
5.6669399341
 20
4.4123044758
 11
5.6795876679
 21
4.4291969091
  0
LINE
  5
291
100
AcDbEntity
  8
03__ASM_ALL_CURVES
100
AcDbLine
 62
40
  6
CONTINUOUS
 10
5.8211521556
 20
4.5430852896
 11
5.8241987761
 21
4.5451163695
  0
LINE
  5
292
100
AcDbEntity
  8
03__ASM_ALL_CURVES
100
AcDbLine
 62
40
  6
CONTINUOUS
 10
5.8302920173
 20
4.5227744854
 11
5.8272453967
 21
4.5207434049
  0
LINE
  5
293
100
AcDbEntity
  8
03__ASM_ALL_CURVES
100
AcDbLine
 62
40
  6
CONTINUOUS
 10
5.8729447053
 20
4.5451163695
 11
5.8698980848
 21
4.5430852896
  0
LINE
  5
294
100
AcDbEntity
  8
0
100
AcDbLine
 62
7
  6
CONTINUOUS
 10
5.281300406
 20
4.1104982191
 11
5.4620213498
 21
4.1104982191
  0
LINE
  5
295
100
AcDbEntity
  8
03__ASM_ALL_CURVES
100
AcDbLine
 62
40
  6
CONTINUOUS
 10
5.3561588691
 20
4.5430852896
 11
5.3576821794
 21
4.5410542083
  0
LINE
  5
296
100
AcDbEntity
  8
03__ASM_ALL_CURVES
100
AcDbLine
 62
40
  6
CONTINUOUS
 10
5.3729152823
 20
4.5227744854
 11
5.371391972
 21
4.5248055658
  0
LINE
  5
297
100
AcDbEntity
  8
03__ASM_ALL_CURVES
100
AcDbLine
 62
40
  6
CONTINUOUS
 10
5.3790085234
 20
4.5430852896
 11
5.3805318337
 21
4.5410542083
  0
LINE
  5
298
100
AcDbEntity
  8
03__ASM_ALL_CURVES
100
AcDbLine
 62
40
  6
CONTINUOUS
 10
5.3988115572
 20
4.5248055658
 11
5.4018581778
 21
4.5207434049
  0
LINE
  5
299
100
AcDbEntity
  8
0
100
AcDbLine
 62
7
  6
CONTINUOUS
 10
5.6669399341
 20
4.1826919624
 11
5.6795876679
 21
4.1657995291
  0
LINE
  5
29A
100
AcDbEntity
  8
03__ASM_ALL_CURVES
100
AcDbLine
 62
40
  6
CONTINUOUS
 10
5.493256795
 20
4.5248055658
 11
5.4917334847
 21
4.5288677267
  0
LINE
  5
29B
100
AcDbEntity
  8
03__ASM_ALL_CURVES
100
AcDbLine
 62
40
  6
CONTINUOUS
 10
5.5023966568
 20
4.5410542083
 11
5.503919967
 21
4.5369920485
  0
LINE
  5
29C
100
AcDbEntity
  8
03__ASM_ALL_CURVES
100
AcDbLine
 62
40
  6
CONTINUOUS
 10
5.5237230008
 20
4.5410542083
 11
5.5252463111
 21
4.5349609671
  0
LINE
  5
29D
100
AcDbEntity
  8
03__ASM_ALL_CURVES
100
AcDbLine
 62
40
  6
CONTINUOUS
 10
5.6392689073
 20
4.515868812
 11
5.6392689073
 21
4.5061196262
  0
LINE
  5
29E
100
AcDbEntity
  8
03__ASM_ALL_CURVES
100
AcDbLine
 62
40
  6
CONTINUOUS
 10
5.649018093
 20
4.5451163695
 11
5.649018093
 21
4.5207434049
  0
LINE
  5
29F
100
AcDbEntity
  8
0
100
AcDbLine
 62
7
  6
CONTINUOUS
 10
5.6669399341
 20
4.4244982191
 11
5.6669399341
 21
4.1704982191
  0
LINE
  5
2A0
100
AcDbEntity
  8
03__ASM_ALL_CURVES
100
AcDbLine
 62
40
  6
CONTINUOUS
 10
5.6947174017
 20
4.5329298872
 11
5.6962407119
 21
4.5390231284
  0
LINE
  5
2A1
100
AcDbEntity
  8
03__ASM_ALL_CURVES
100
AcDbLine
 62
40
  6
CONTINUOUS
 10
5.7206136766
 20
4.5207434049
 11
5.728230228
 21
4.5451163695
  0
LINE
  5
2A2
100
AcDbEntity
  8
03__ASM_ALL_CURVES
100
AcDbLine
 62
40
  6
CONTINUOUS
 10
5.818105535
 20
4.5390231284
 11
5.8211521556
 21
4.5430852896
  0
LINE
  5
2A3
100
AcDbEntity
  8
03__ASM_ALL_CURVES
100
AcDbLine
 62
40
  6
CONTINUOUS
 10
5.8790379465
 20
4.5227744854
 11
5.8759913259
 21
4.5207434049
  0
LINE
  5
2A4
100
AcDbEntity
  8
03__ASM_ALL_CURVES
100
AcDbLine
 62
40
  6
CONTINUOUS
 10
5.918644014
 20
4.5430852896
 11
5.9216906346
 21
4.5451163695
  0
LINE
  5
2A5
100
AcDbEntity
  8
03__ASM_ALL_CURVES
100
AcDbLine
 62
40
  6
CONTINUOUS
 10
5.9277838757
 20
4.5227744854
 11
5.9247372551
 21
4.5207434049
  0
LINE
  5
2A6
100
AcDbEntity
  8
0
100
AcDbLine
 62
7
  6
CONTINUOUS
 10
5.6100213498
 20
4.1334982191
 11
5.4850213498
 21
4.1334982191
  0
LINE
  5
2A7
100
AcDbEntity
  8
0
100
AcDbLine
 62
7
  6
CONTINUOUS
 10
5.2200213498
 20
4.1334982191
 11
5.2680213498
 21
4.1334982191
  0
LINE
  5
2A8
100
AcDbEntity
  8
03__ASM_ALL_CURVES
100
AcDbLine
 62
40
  6
CONTINUOUS
 10
5.9305991408
 20
4.0292184956
 11
5.9283141754
 21
4.030741806
  0
LINE
  5
2A9
100
AcDbEntity
  8
03__ASM_ALL_CURVES
100
AcDbLine
 62
40
  6
CONTINUOUS
 10
5.9146043828
 20
4.0474982191
 11
5.9168893482
 21
4.0459749092
  0
LINE
  5
2AA
100
AcDbEntity
  8
03__ASM_ALL_CURVES
100
AcDbLine
 62
40
  6
CONTINUOUS
 10
5.9328841062
 20
4.0474982191
 11
5.9351690717
 21
4.0459749092
  0
LINE
  5
2AB
100
AcDbEntity
  8
03__ASM_ALL_CURVES
100
AcDbLine
 62
40
  6
CONTINUOUS
 10
5.4216612115
 20
4.5227744854
 11
5.4201379012
 21
4.5248055658
  0
LINE
  5
2AC
100
AcDbEntity
  8
03__ASM_ALL_CURVES
100
AcDbLine
 62
40
  6
CONTINUOUS
 10
5.4277544526
 20
4.5430852896
 11
5.4292777629
 21
4.5410542083
  0
LINE
  5
2AD
100
AcDbEntity
  8
03__ASM_ALL_CURVES
100
AcDbLine
 62
40
  6
CONTINUOUS
 10
5.4475574864
 20
4.5227744854
 11
5.4490807967
 21
4.5207434049
  0
LINE
  5
2AE
100
AcDbEntity
  8
03__ASM_ALL_CURVES
100
AcDbLine
 62
40
  6
CONTINUOUS
 10
5.4704071407
 20
4.5227744854
 11
5.4688838304
 21
4.5248055658
  0
LINE
  5
2AF
100
AcDbEntity
  8
0
100
AcDbLine
 62
7
  6
CONTINUOUS
 10
5.6795876679
 20
4.1657995291
 11
5.6795876679
 21
4.4291969091
  0
LINE
  5
2B0
100
AcDbEntity
  8
0
100
AcDbLine
 62
7
  6
CONTINUOUS
 10
5.6811886496
 20
4.1649982191
 11
5.6811886496
 21
4.4299982191
  0
LINE
  5
2B1
100
AcDbEntity
  8
03__ASM_ALL_CURVES
100
AcDbLine
 62
40
  6
CONTINUOUS
 10
5.8318153276
 20
4.5248055658
 11
5.8302920173
 21
4.5227744854
  0
LINE
  5
2B2
100
AcDbEntity
  8
03__ASM_ALL_CURVES
100
AcDbLine
 62
40
  6
CONTINUOUS
 10
5.8698980848
 20
4.5430852896
 11
5.8683747745
 21
4.5410542083
  0
LINE
  5
2B3
100
AcDbEntity
  8
0
100
AcDbLine
 62
7
  6
CONTINUOUS
 10
5.4850213498
 20
4.1334982191
 11
5.4620213498
 21
4.1104982191
  0
LINE
  5
2B4
100
AcDbEntity
  8
03__ASM_ALL_CURVES
100
AcDbLine
 62
40
  6
CONTINUOUS
 10
5.9521568403
 20
4.5227744854
 11
5.9491102197
 21
4.5207434049
  0
LINE
  5
2B5
100
AcDbEntity
  8
03__ASM_ALL_CURVES
100
AcDbLine
 62
40
  6
CONTINUOUS
 10
5.9993794592
 20
4.5227744854
 11
5.9963328387
 21
4.5207434049
  0
LINE
  5
2B6
100
AcDbEntity
  8
0
100
AcDbLine
 62
7
  6
CONTINUOUS
 10
5.6811886496
 20
4.1649982191
 11
5.7616912185
 21
4.1649982191
  0
LINE
  5
2B7
100
AcDbEntity
  8
0
100
AcDbLine
 62
7
  6
CONTINUOUS
 10
5.8239399341
 20
4.1659982191
 11
5.7889399341
 21
4.1659982191
  0
LINE
  5
2B8
100
AcDbEntity
  8
0
100
AcDbLine
 62
7
  6
CONTINUOUS
 10
6.0879399341
 20
4.1719982191
 11
6.1379399341
 21
4.1719982191
  0
LINE
  5
2B9
100
AcDbEntity
  8
0
100
AcDbLine
 62
7
  6
CONTINUOUS
 10
5.8304399341
 20
4.1724982191
 11
5.9099399341
 21
4.1724982191
  0
LINE
  5
2BA
100
AcDbEntity
  8
0
100
AcDbLine
 62
7
  6
CONTINUOUS
 10
5.9659399341
 20
4.1724982191
 11
6.0329399341
 21
4.1724982191
  0
LINE
  5
2BB
100
AcDbEntity
  8
0
100
AcDbLine
 62
7
  6
CONTINUOUS
 10
6.1549399341
 20
4.1724982191
 11
6.1849399341
 21
4.1724982191
  0
LINE
  5
2BC
100
AcDbEntity
  8
03__ASM_ALL_CURVES
100
AcDbLine
 62
40
  6
CONTINUOUS
 10
5.9511638297
 20
4.0474982191
 11
5.9534487951
 21
4.0459749092
  0
LINE
  5
2BD
100
AcDbEntity
  8
03__ASM_ALL_CURVES
100
AcDbLine
 62
40
  6
CONTINUOUS
 10
5.9877232766
 20
4.0474982191
 11
5.990008242
 21
4.0459749092
  0
LINE
  5
2BE
100
AcDbEntity
  8
03__ASM_ALL_CURVES
100
AcDbLine
 62
40
  6
CONTINUOUS
 10
5.302843009
 20
4.5207434049
 11
5.2997963885
 21
4.5227744854
  0
LINE
  5
2BF
100
AcDbEntity
  8
0
100
AcDbLine
 62
7
  6
CONTINUOUS
 10
5.4850213498
 20
4.4614982191
 11
5.4620213498
 21
4.4844982191
  0
LINE
  5
2C0
100
AcDbEntity
  8
03__ASM_ALL_CURVES
100
AcDbLine
 62
40
  6
CONTINUOUS
 10
5.4765003819
 20
4.5430852896
 11
5.4780236922
 21
4.5410542083
  0
LINE
  5
2C1
100
AcDbEntity
  8
03__ASM_ALL_CURVES
100
AcDbLine
 62
40
  6
CONTINUOUS
 10
5.4947801053
 20
4.5227744854
 11
5.493256795
 21
4.5248055658
  0
LINE
  5
2C2
100
AcDbEntity
  8
03__ASM_ALL_CURVES
100
AcDbLine
 62
40
  6
CONTINUOUS
 10
5.5008733465
 20
4.5430852896
 11
5.5023966568
 21
4.5410542083
  0
LINE
  5
2C3
100
AcDbEntity
  8
03__ASM_ALL_CURVES
100
AcDbLine
 62
40
  6
CONTINUOUS
 10
5.7526031926
 20
4.5451163695
 11
5.7526031926
 21
4.5207434049
  0
LINE
  5
2C4
100
AcDbEntity
  8
0
100
AcDbLine
 62
7
  6
CONTINUOUS
 10
5.7616912185
 20
4.1649982191
 11
5.7616912185
 21
4.4299982191
  0
LINE
  5
2C5
100
AcDbEntity
  8
0
100
AcDbLine
 62
7
  6
CONTINUOUS
 10
5.7632922002
 20
4.1657995291
 11
5.7632922002
 21
4.4291969091
  0
LINE
  5
2C6
100
AcDbEntity
  8
03__ASM_ALL_CURVES
100
AcDbLine
 62
40
  6
CONTINUOUS
 10
5.8165822247
 20
4.5329298872
 11
5.818105535
 21
4.5390231284
  0
LINE
  5
2C7
100
AcDbEntity
  8
03__ASM_ALL_CURVES
100
AcDbLine
 62
40
  6
CONTINUOUS
 10
5.8805612568
 20
4.5248055658
 11
5.8790379465
 21
4.5227744854
  0
LINE
  5
2C8
100
AcDbEntity
  8
03__ASM_ALL_CURVES
100
AcDbLine
 62
40
  6
CONTINUOUS
 10
5.9155973934
 20
4.5390231284
 11
5.918644014
 21
4.5430852896
  0
LINE
  5
2C9
100
AcDbEntity
  8
03__ASM_ALL_CURVES
100
AcDbLine
 62
40
  6
CONTINUOUS
 10
5.9308304963
 20
4.5268366461
 11
5.9277838757
 21
4.5227744854
  0
LINE
  5
2CA
100
AcDbEntity
  8
03__ASM_ALL_CURVES
100
AcDbLine
 62
40
  6
CONTINUOUS
 10
6.0496486987
 20
4.5349609671
 11
6.0466020782
 21
4.5329298872
  0
LINE
  5
2CB
100
AcDbEntity
  8
03__ASM_ALL_CURVES
100
AcDbLine
 62
40
  6
CONTINUOUS
 10
5.302843009
 20
4.5451163695
 11
5.3058896296
 21
4.5430852896
  0
LINE
  5
2CC
100
AcDbEntity
  8
03__ASM_ALL_CURVES
100
AcDbLine
 62
40
  6
CONTINUOUS
 10
5.350065628
 20
4.5207434049
 11
5.3470190074
 21
4.5227744854
  0
LINE
  5
2CD
100
AcDbEntity
  8
03__ASM_ALL_CURVES
100
AcDbLine
 62
40
  6
CONTINUOUS
 10
5.3531122485
 20
4.5349609671
 11
5.3561588691
 21
4.5329298872
  0
LINE
  5
2CE
100
AcDbEntity
  8
03__ASM_ALL_CURVES
100
AcDbLine
 62
40
  6
CONTINUOUS
 10
5.3759619029
 20
4.5207434049
 11
5.3729152823
 21
4.5227744854
  0
LINE
  5
2CF
100
AcDbEntity
  8
03__ASM_ALL_CURVES
100
AcDbLine
 62
40
  6
CONTINUOUS
 10
5.5206763802
 20
4.5451163695
 11
5.5237230008
 21
4.5410542083
  0
LINE
  5
2D0
100
AcDbEntity
  8
03__ASM_ALL_CURVES
100
AcDbLine
 62
40
  6
CONTINUOUS
 10
5.9283141754
 20
4.030741806
 11
5.92602921
 21
4.0337884265
  0
LINE
  5
2D1
100
AcDbEntity
  8
03__ASM_ALL_CURVES
100
AcDbLine
 62
40
  6
CONTINUOUS
 10
5.9168893482
 20
4.0459749092
 11
5.9180318309
 21
4.0444515982
  0
LINE
  5
2D2
100
AcDbEntity
  8
03__ASM_ALL_CURVES
100
AcDbLine
 62
40
  6
CONTINUOUS
 10
5.9351690717
 20
4.0459749092
 11
5.9374540371
 21
4.0429282882
  0
LINE
  5
2D3
100
AcDbEntity
  8
03__ASM_ALL_CURVES
100
AcDbLine
 62
40
  6
CONTINUOUS
 10
5.6718677473
 20
4.5268366461
 11
5.6703444371
 21
4.5329298872
  0
LINE
  5
2D4
100
AcDbEntity
  8
03__ASM_ALL_CURVES
100
AcDbLine
 62
40
  6
CONTINUOUS
 10
5.6871008502
 20
4.5390231284
 11
5.6886241605
 21
4.5329298872
  0
LINE
  5
2D5
100
AcDbEntity
  8
03__ASM_ALL_CURVES
100
AcDbLine
 62
40
  6
CONTINUOUS
 10
5.6962407119
 20
4.5268366461
 11
5.6947174017
 21
4.5329298872
  0
LINE
  5
2D6
100
AcDbEntity
  8
03__ASM_ALL_CURVES
100
AcDbLine
 62
40
  6
CONTINUOUS
 10
5.7769761572
 20
4.5451163695
 11
5.7769761572
 21
4.5207434049
  0
LINE
  5
2D7
100
AcDbEntity
  8
0
100
AcDbLine
 62
7
  6
CONTINUOUS
 10
5.7839399341
 20
4.1709990331
 11
5.7839399341
 21
4.4239974051
  0
LINE
  5
2D8
100
AcDbEntity
  8
0
100
AcDbLine
 62
7
  6
CONTINUOUS
 10
5.7889399341
 20
4.1659982191
 11
5.7889399341
 21
4.4289982191
  0
LINE
  5
2D9
100
AcDbEntity
  8
03__ASM_ALL_CURVES
100
AcDbLine
 62
40
  6
CONTINUOUS
 10
5.7952558807
 20
4.5207434049
 11
5.7952558807
 21
4.5451163695
  0
LINE
  5
2DA
100
AcDbEntity
  8
03__ASM_ALL_CURVES
100
AcDbLine
 62
40
  6
CONTINUOUS
 10
5.9536801506
 20
4.5248055658
 11
5.9521568403
 21
4.5227744854
  0
LINE
  5
2DB
100
AcDbEntity
  8
03__ASM_ALL_CURVES
100
AcDbLine
 62
40
  6
CONTINUOUS
 10
5.3531122485
 20
4.5451163695
 11
5.3561588691
 21
4.5430852896
  0
LINE
  5
2DC
100
AcDbEntity
  8
03__ASM_ALL_CURVES
100
AcDbLine
 62
40
  6
CONTINUOUS
 10
5.3759619029
 20
4.5451163695
 11
5.3790085234
 21
4.5430852896
  0
LINE
  5
2DD
100
AcDbEntity
  8
03__ASM_ALL_CURVES
100
AcDbLine
 62
40
  6
CONTINUOUS
 10
5.4247078321
 20
4.5207434049
 11
5.4216612115
 21
4.5227744854
  0
LINE
  5
2DE
100
AcDbEntity
  8
03__ASM_ALL_CURVES
100
AcDbLine
 62
40
  6
CONTINUOUS
 10
5.4247078321
 20
4.5451163695
 11
5.4277544526
 21
4.5430852896
  0
LINE
  5
2DF
100
AcDbEntity
  8
03__ASM_ALL_CURVES
100
AcDbLine
 62
40
  6
CONTINUOUS
 10
5.9534487951
 20
4.0459749092
 11
5.9545912779
 21
4.0444515982
  0
LINE
  5
2E0
100
AcDbEntity
  8
03__ASM_ALL_CURVES
100
AcDbLine
 62
40
  6
CONTINUOUS
 10
5.807442363
 20
4.5207434049
 11
5.807442363
 21
4.5451163695
  0
LINE
  5
2E1
100
AcDbEntity
  8
0
100
AcDbLine
 62
7
  6
CONTINUOUS
 10
5.8239399341
 20
4.1659982191
 11
5.8239399341
 21
4.4289982191
  0
LINE
  5
2E2
100
AcDbEntity
  8
0
100
AcDbLine
 62
7
  6
CONTINUOUS
 10
5.8304399341
 20
4.4224982191
 11
5.8304399341
 21
4.1724982191
  0
LINE
  5
2E3
100
AcDbEntity
  8
03__ASM_ALL_CURVES
100
AcDbLine
 62
40
  6
CONTINUOUS
 10
5.8318153276
 20
4.5329298872
 11
5.8318153276
 21
4.5248055658
  0
LINE
  5
2E4
100
AcDbEntity
  8
0
100
AcDbLine
 62
7
  6
CONTINUOUS
 10
5.7632922002
 20
4.1657995291
 11
5.7833899952
 21
4.1926423347
  0
LINE
  5
2E5
100
AcDbEntity
  8
03__ASM_ALL_CURVES
100
AcDbLine
 62
40
  6
CONTINUOUS
 10
6.0024260798
 20
4.5268366461
 11
5.9993794592
 21
4.5227744854
  0
LINE
  5
2E6
100
AcDbEntity
  8
0
100
AcDbLine
 62
7
  6
CONTINUOUS
 10
5.6159399341
 20
4.1489153153
 11
5.6100213498
 21
4.1454982191
  0
LINE
  5
2E7
100
AcDbEntity
  8
03__ASM_ALL_CURVES
100
AcDbLine
 62
40
  6
CONTINUOUS
 10
6.3340134867
 20
4.302372812
 11
6.3317285213
 21
4.302372812
  0
LINE
  5
2E8
100
AcDbEntity
  8
03__ASM_ALL_CURVES
100
AcDbLine
 62
40
  6
CONTINUOUS
 10
6.3522932102
 20
4.3115126737
 11
6.3465807966
 21
4.3115126737
  0
LINE
  5
2E9
100
AcDbEntity
  8
03__ASM_ALL_CURVES
100
AcDbLine
 62
40
  6
CONTINUOUS
 10
6.3157337633
 20
4.3115126737
 11
6.3100213497
 21
4.3115126737
  0
LINE
  5
2EA
100
AcDbEntity
  8
03__ASM_ALL_CURVES
100
AcDbLine
 62
40
  6
CONTINUOUS
 10
6.3100213497
 20
4.3206525355
 11
6.3157337633
 21
4.3206525355
  0
LINE
  5
2EB
100
AcDbEntity
  8
03__ASM_ALL_CURVES
100
AcDbLine
 62
40
  6
CONTINUOUS
 10
6.3317285213
 20
4.3206525355
 11
6.3340134867
 21
4.3206525355
  0
LINE
  5
2EC
100
AcDbEntity
  8
03__ASM_ALL_CURVES
100
AcDbLine
 62
40
  6
CONTINUOUS
 10
6.3465807966
 20
4.3206525355
 11
6.3522932102
 21
4.3206525355
  0
LINE
  5
2ED
100
AcDbEntity
  8
03__ASM_ALL_CURVES
100
AcDbLine
 62
40
  6
CONTINUOUS
 10
6.3637180373
 20
4.3206525355
 11
6.3751428645
 21
4.3206525355
  0
LINE
  5
2EE
100
AcDbEntity
  8
0
100
AcDbLine
 62
7
  6
CONTINUOUS
 10
5.6159399341
 20
4.4460811229
 11
5.6100213498
 21
4.4494982191
  0
LINE
  5
2EF
100
AcDbEntity
  8
03__ASM_ALL_CURVES
100
AcDbLine
 62
40
  6
CONTINUOUS
 10
5.4734537613
 20
4.5207434049
 11
5.4704071407
 21
4.5227744854
  0
LINE
  5
2F0
100
AcDbEntity
  8
03__ASM_ALL_CURVES
100
AcDbLine
 62
40
  6
CONTINUOUS
 10
5.4978267259
 20
4.5207434049
 11
5.4947801053
 21
4.5227744854
  0
LINE
  5
2F1
100
AcDbEntity
  8
03__ASM_ALL_CURVES
100
AcDbLine
 62
40
  6
CONTINUOUS
 10
5.4734537613
 20
4.5451163695
 11
5.4765003819
 21
4.5430852896
  0
LINE
  5
2F2
100
AcDbEntity
  8
03__ASM_ALL_CURVES
100
AcDbLine
 62
40
  6
CONTINUOUS
 10
5.4978267259
 20
4.5451163695
 11
5.5008733465
 21
4.5430852896
  0
LINE
  5
2F3
100
AcDbEntity
  8
03__ASM_ALL_CURVES
100
AcDbLine
 62
40
  6
CONTINUOUS
 10
5.990008242
 20
4.0459749092
 11
5.9911507248
 21
4.0444515982
  0
LINE
  5
2F4
100
AcDbEntity
  8
03__ASM_ALL_CURVES
100
AcDbLine
 62
40
  6
CONTINUOUS
 10
5.6749143679
 20
4.5227744854
 11
5.6718677473
 21
4.5268366461
  0
LINE
  5
2F5
100
AcDbEntity
  8
03__ASM_ALL_CURVES
100
AcDbLine
 62
40
  6
CONTINUOUS
 10
5.728230228
 20
4.5451163695
 11
5.7358467794
 21
4.5207434049
  0
LINE
  5
2F6
100
AcDbEntity
  8
03__ASM_ALL_CURVES
100
AcDbLine
 62
40
  6
CONTINUOUS
 10
5.8683747745
 20
4.5410542083
 11
5.8683747745
 21
4.5390231284
  0
LINE
  5
2F7
100
AcDbEntity
  8
03__ASM_ALL_CURVES
100
AcDbLine
 62
40
  6
CONTINUOUS
 10
5.8805612568
 20
4.5288677267
 11
5.8805612568
 21
4.5248055658
  0
LINE
  5
2F8
100
AcDbEntity
  8
03__ASM_ALL_CURVES
100
AcDbLine
 62
40
  6
CONTINUOUS
 10
5.9140740831
 20
4.5329298872
 11
5.9155973934
 21
4.5390231284
  0
LINE
  5
2F9
100
AcDbEntity
  8
03__ASM_ALL_CURVES
100
AcDbLine
 62
40
  6
CONTINUOUS
 10
5.9323538066
 20
4.5329298872
 11
5.9308304963
 21
4.5268366461
  0
LINE
  5
2FA
100
AcDbEntity
  8
03__ASM_ALL_CURVES
100
AcDbLine
 62
40
  6
CONTINUOUS
 10
6.051172009
 20
4.5369920485
 11
6.0496486987
 21
4.5349609671
  0
LINE
  5
2FB
100
AcDbEntity
  8
03__ASM_ALL_CURVES
100
AcDbLine
 62
40
  6
CONTINUOUS
 10
5.3759619029
 20
4.5308988066
 11
5.371391972
 21
4.5329298872
  0
LINE
  5
2FC
100
AcDbEntity
  8
03__ASM_ALL_CURVES
100
AcDbLine
 62
40
  6
CONTINUOUS
 10
5.4247078321
 20
4.5308988066
 11
5.4201379012
 21
4.5329298872
  0
LINE
  5
2FD
100
AcDbEntity
  8
03__ASM_ALL_CURVES
100
AcDbLine
 62
40
  6
CONTINUOUS
 10
5.4734537613
 20
4.5308988066
 11
5.4688838304
 21
4.5329298872
  0
LINE
  5
2FE
100
AcDbEntity
  8
03__ASM_ALL_CURVES
100
AcDbLine
 62
40
  6
CONTINUOUS
 10
5.6992873325
 20
4.5227744854
 11
5.6962407119
 21
4.5268366461
  0
LINE
  5
2FF
100
AcDbEntity
  8
03__ASM_ALL_CURVES
100
AcDbLine
 62
40
  6
CONTINUOUS
 10
5.6840542296
 20
4.5430852896
 11
5.6871008502
 21
4.5390231284
  0
LINE
  5
300
100
AcDbEntity
  8
03__ASM_ALL_CURVES
100
AcDbLine
 62
40
  6
CONTINUOUS
 10
5.7084271942
 20
4.5430852896
 11
5.7099505045
 21
4.5410542083
  0
LINE
  5
301
100
AcDbEntity
  8
0
100
AcDbLine
 62
7
  6
CONTINUOUS
 10
5.7632922002
 20
4.4291969091
 11
5.7833899952
 21
4.4023541035
  0
LINE
  5
302
100
AcDbEntity
  8
03__ASM_ALL_CURVES
100
AcDbLine
 62
40
  6
CONTINUOUS
 10
5.9511638297
 20
4.0383583574
 11
5.9545912779
 21
4.0292184956
  0
LINE
  5
303
100
AcDbEntity
  8
03__ASM_ALL_CURVES
100
AcDbLine
 62
40
  6
CONTINUOUS
 10
5.92602921
 20
4.0337884265
 11
5.9248867272
 21
4.0383583574
  0
LINE
  5
304
100
AcDbEntity
  8
03__ASM_ALL_CURVES
100
AcDbLine
 62
40
  6
CONTINUOUS
 10
5.9374540371
 20
4.0429282882
 11
5.9385965198
 21
4.0383583574
  0
LINE
  5
305
100
AcDbEntity
  8
03__ASM_ALL_CURVES
100
AcDbLine
 62
40
  6
CONTINUOUS
 10
5.818105535
 20
4.5268366461
 11
5.8165822247
 21
4.5329298872
  0
LINE
  5
306
100
AcDbEntity
  8
03__ASM_ALL_CURVES
100
AcDbLine
 62
40
  6
CONTINUOUS
 10
5.8927477391
 20
4.5451163695
 11
5.8927477391
 21
4.5207434049
  0
LINE
  5
307
100
AcDbEntity
  8
03__ASM_ALL_CURVES
100
AcDbLine
 62
40
  6
CONTINUOUS
 10
5.9049342214
 20
4.5451163695
 11
5.9049342214
 21
4.5207434049
  0
LINE
  5
308
100
AcDbEntity
  8
03__ASM_ALL_CURVES
100
AcDbLine
 62
40
  6
CONTINUOUS
 10
5.9088919692
 20
4.0292184956
 11
5.9088919692
 21
4.0474982191
  0
LINE
  5
309
100
AcDbEntity
  8
03__ASM_ALL_CURVES
100
AcDbLine
 62
40
  6
CONTINUOUS
 10
5.9180318309
 20
4.0444515982
 11
5.9180318309
 21
4.0414049783
  0
LINE
  5
30A
100
AcDbEntity
  8
0
100
AcDbLine
 62
7
  6
CONTINUOUS
 10
5.8304399341
 20
4.1724982191
 11
5.8239399341
 21
4.1659982191
  0
LINE
  5
30B
100
AcDbEntity
  8
03__ASM_ALL_CURVES
100
AcDbLine
 62
40
  6
CONTINUOUS
 10
5.2442689073
 20
4.5061196262
 11
5.2150213498
 21
4.5109942191
  0
LINE
  5
30C
100
AcDbEntity
  8
03__ASM_ALL_CURVES
100
AcDbLine
 62
40
  6
CONTINUOUS
 10
5.6779609885
 20
4.5207434049
 11
5.6749143679
 21
4.5227744854
  0
LINE
  5
30D
100
AcDbEntity
  8
0
100
AcDbLine
 62
7
  6
CONTINUOUS
 10
5.8304399341
 20
4.4224982191
 11
5.8239399341
 21
4.4289982191
  0
LINE
  5
30E
100
AcDbEntity
  8
03__ASM_ALL_CURVES
100
AcDbLine
 62
40
  6
CONTINUOUS
 10
5.7952558807
 20
4.5451163695
 11
5.807442363
 21
4.5207434049
  0
LINE
  5
30F
100
AcDbEntity
  8
03__ASM_ALL_CURVES
100
AcDbLine
 62
40
  6
CONTINUOUS
 10
5.9414936683
 20
4.5248055658
 11
5.9414936683
 21
4.5451163695
  0
LINE
  5
310
100
AcDbEntity
  8
03__ASM_ALL_CURVES
100
AcDbLine
 62
40
  6
CONTINUOUS
 10
5.9454514161
 20
4.0292184956
 11
5.9454514161
 21
4.0474982191
  0
LINE
  5
311
100
AcDbEntity
  8
03__ASM_ALL_CURVES
100
AcDbLine
 62
40
  6
CONTINUOUS
 10
5.9536801506
 20
4.5451163695
 11
5.9536801506
 21
4.5248055658
  0
LINE
  5
312
100
AcDbEntity
  8
03__ASM_ALL_CURVES
100
AcDbLine
 62
40
  6
CONTINUOUS
 10
5.9545912779
 20
4.0444515982
 11
5.9545912779
 21
4.0414049783
  0
LINE
  5
313
100
AcDbEntity
  8
03__ASM_ALL_CURVES
100
AcDbLine
 62
40
  6
CONTINUOUS
 10
5.9658666329
 20
4.5451163695
 11
5.9658666329
 21
4.5207434049
  0
LINE
  5
314
100
AcDbEntity
  8
03__ASM_ALL_CURVES
100
AcDbLine
 62
40
  6
CONTINUOUS
 10
5.9683010704
 20
4.0474982191
 11
5.9683010704
 21
4.0292184956
  0
LINE
  5
315
100
AcDbEntity
  8
03__ASM_ALL_CURVES
100
AcDbLine
 62
40
  6
CONTINUOUS
 10
6.0039493901
 20
4.5329298872
 11
6.0024260798
 21
4.5268366461
  0
LINE
  5
316
100
AcDbEntity
  8
0
100
AcDbLine
 62
7
  6
CONTINUOUS
 10
5.8304399341
 20
4.4224982191
 11
5.9099399341
 21
4.4224982191
  0
LINE
  5
317
100
AcDbEntity
  8
0
100
AcDbLine
 62
7
  6
CONTINUOUS
 10
5.9659399341
 20
4.4224982191
 11
6.0329399341
 21
4.4224982191
  0
LINE
  5
318
100
AcDbEntity
  8
0
100
AcDbLine
 62
7
  6
CONTINUOUS
 10
6.1549399341
 20
4.4224982191
 11
6.1849399341
 21
4.4224982191
  0
LINE
  5
319
100
AcDbEntity
  8
0
100
AcDbLine
 62
7
  6
CONTINUOUS
 10
6.0879399341
 20
4.4229982191
 11
6.1113237411
 21
4.4229982191
  0
LINE
  5
31A
100
AcDbEntity
  8
0
100
AcDbLine
 62
7
  6
CONTINUOUS
 10
6.114556127
 20
4.4229982191
 11
6.1379399341
 21
4.4229982191
  0
LINE
  5
31B
100
AcDbEntity
  8
0
100
AcDbLine
 62
7
  6
CONTINUOUS
 10
5.8239399341
 20
4.4289982191
 11
5.7889399341
 21
4.4289982191
  0
LINE
  5
31C
100
AcDbEntity
  8
0
100
AcDbLine
 62
7
  6
CONTINUOUS
 10
5.6811886496
 20
4.4299982191
 11
5.7616912185
 21
4.4299982191
  0
LINE
  5
31D
100
AcDbEntity
  8
0
100
AcDbLine
 62
7
  6
CONTINUOUS
 10
5.6100213498
 20
4.4614982191
 11
5.4850213498
 21
4.4614982191
  0
LINE
  5
31E
100
AcDbEntity
  8
0
100
AcDbLine
 62
7
  6
CONTINUOUS
 10
5.2200213498
 20
4.4614982191
 11
5.2680213498
 21
4.4614982191
  0
LINE
  5
31F
100
AcDbEntity
  8
03__ASM_ALL_CURVES
100
AcDbLine
 62
40
  6
CONTINUOUS
 10
5.2442689073
 20
4.5085569226
 11
5.2150213498
 21
4.5109942191
  0
LINE
  5
320
100
AcDbEntity
  8
03__ASM_ALL_CURVES
100
AcDbLine
 62
40
  6
CONTINUOUS
 10
5.2442689073
 20
4.5077444905
 11
5.2150213498
 21
4.5109942191
  0
LINE
  5
321
100
AcDbEntity
  8
03__ASM_ALL_CURVES
100
AcDbLine
 62
40
  6
CONTINUOUS
 10
5.2442689073
 20
4.5069320583
 11
5.2150213498
 21
4.5109942191
  0
LINE
  5
322
100
AcDbEntity
  8
03__ASM_ALL_CURVES
100
AcDbLine
 62
40
  6
CONTINUOUS
 10
5.7023339531
 20
4.5207434049
 11
5.6992873325
 21
4.5227744854
  0
LINE
  5
323
100
AcDbEntity
  8
03__ASM_ALL_CURVES
100
AcDbLine
 62
40
  6
CONTINUOUS
 10
5.6810076091
 20
4.5451163695
 11
5.6840542296
 21
4.5430852896
  0
LINE
  5
324
100
AcDbEntity
  8
03__ASM_ALL_CURVES
100
AcDbLine
 62
40
  6
CONTINUOUS
 10
5.7053805737
 20
4.5451163695
 11
5.7084271942
 21
4.5430852896
  0
LINE
  5
325
100
AcDbEntity
  8
03__ASM_ALL_CURVES
100
AcDbLine
 62
40
  6
CONTINUOUS
 10
5.8211521556
 20
4.5227744854
 11
5.818105535
 21
4.5268366461
  0
LINE
  5
326
100
AcDbEntity
  8
03__ASM_ALL_CURVES
100
AcDbLine
 62
40
  6
CONTINUOUS
 10
5.9155973934
 20
4.5268366461
 11
5.9140740831
 21
4.5329298872
  0
LINE
  5
327
100
AcDbEntity
  8
03__ASM_ALL_CURVES
100
AcDbLine
 62
40
  6
CONTINUOUS
 10
5.9902395975
 20
4.5207434049
 11
5.9902395975
 21
4.5451163695
  0
LINE
  5
328
100
AcDbEntity
  8
03__ASM_ALL_CURVES
100
AcDbLine
 62
40
  6
CONTINUOUS
 10
5.9911507248
 20
4.0444515982
 11
5.9911507248
 21
4.0414049783
  0
LINE
  5
329
100
AcDbEntity
  8
03__ASM_ALL_CURVES
100
AcDbLine
 62
40
  6
CONTINUOUS
 10
6.0146125621
 20
4.5207434049
 11
6.0146125621
 21
4.5451163695
  0
LINE
  5
32A
100
AcDbEntity
  8
03__ASM_ALL_CURVES
100
AcDbLine
 62
40
  6
CONTINUOUS
 10
5.9248867272
 20
4.0383583574
 11
5.92602921
 21
4.0429282882
  0
LINE
  5
32B
100
AcDbEntity
  8
03__ASM_ALL_CURVES
100
AcDbLine
 62
40
  6
CONTINUOUS
 10
5.9385965198
 20
4.0383583574
 11
5.9374540371
 21
4.0337884265
  0
LINE
  5
32C
100
AcDbEntity
  8
0
100
AcDbLine
 62
7
  6
CONTINUOUS
 10
5.281300406
 20
4.4844982191
 11
5.4620213498
 21
4.4844982191
  0
LINE
  5
32D
100
AcDbEntity
  8
03__ASM_ALL_CURVES
100
AcDbLine
 62
40
  6
CONTINUOUS
 10
5.2442689073
 20
4.5101817869
 11
5.2150213498
 21
4.5109942191
  0
LINE
  5
32E
100
AcDbEntity
  8
03__ASM_ALL_CURVES
100
AcDbLine
 62
40
  6
CONTINUOUS
 10
5.5807737922
 20
4.5118066513
 11
5.6392689073
 21
4.5101817869
  0
LINE
  5
32F
100
AcDbEntity
  8
03__ASM_ALL_CURVES
100
AcDbLine
 62
40
  6
CONTINUOUS
 10
5.2442689073
 20
4.5093693548
 11
5.2150213498
 21
4.5109942191
  0
LINE
  5
330
100
AcDbEntity
  8
03__ASM_ALL_CURVES
100
AcDbLine
 62
40
  6
CONTINUOUS
 10
5.5807737922
 20
4.5126190834
 11
5.6392689073
 21
4.5093693548
  0
LINE
  5
331
100
AcDbEntity
  8
03__ASM_ALL_CURVES
100
AcDbLine
 62
40
  6
CONTINUOUS
 10
5.5807737922
 20
4.5134315156
 11
5.6392689073
 21
4.5085569226
  0
LINE
  5
332
100
AcDbEntity
  8
03__ASM_ALL_CURVES
100
AcDbLine
 62
40
  6
CONTINUOUS
 10
5.5807737922
 20
4.5142439477
 11
5.6392689073
 21
4.5077444905
  0
LINE
  5
333
100
AcDbEntity
  8
03__ASM_ALL_CURVES
100
AcDbLine
 62
40
  6
CONTINUOUS
 10
5.5807737922
 20
4.5150563799
 11
5.6392689073
 21
4.5069320583
  0
LINE
  5
334
100
AcDbEntity
  8
03__ASM_ALL_CURVES
100
AcDbLine
 62
40
  6
CONTINUOUS
 10
5.6392689073
 20
4.5061196262
 11
5.5807737922
 21
4.515868812
  0
LINE
  5
335
100
AcDbEntity
  8
03__ASM_ALL_CURVES
100
AcDbLine
 62
40
  6
CONTINUOUS
 10
5.8241987761
 20
4.5207434049
 11
5.8211521556
 21
4.5227744854
  0
LINE
  5
336
100
AcDbEntity
  8
03__ASM_ALL_CURVES
100
AcDbLine
 62
40
  6
CONTINUOUS
 10
5.8302920173
 20
4.5430852896
 11
5.8318153276
 21
4.5410542083
  0
LINE
  5
337
100
AcDbEntity
  8
03__ASM_ALL_CURVES
100
AcDbLine
 62
40
  6
CONTINUOUS
 10
5.8698980848
 20
4.5227744854
 11
5.8668514642
 21
4.5268366461
  0
LINE
  5
338
100
AcDbEntity
  8
03__ASM_ALL_CURVES
100
AcDbLine
 62
40
  6
CONTINUOUS
 10
5.8683747745
 20
4.5390231284
 11
5.8698980848
 21
4.5369920485
  0
LINE
  5
339
100
AcDbEntity
  8
03__ASM_ALL_CURVES
100
AcDbLine
 62
40
  6
CONTINUOUS
 10
5.8790379465
 20
4.5308988066
 11
5.8805612568
 21
4.5288677267
  0
LINE
  5
33A
100
AcDbEntity
  8
03__ASM_ALL_CURVES
100
AcDbLine
 62
40
  6
CONTINUOUS
 10
5.8805612568
 20
4.5410542083
 11
5.8790379465
 21
4.5430852896
  0
LINE
  5
33B
100
AcDbEntity
  8
03__ASM_ALL_CURVES
100
AcDbLine
 62
40
  6
CONTINUOUS
 10
5.9308304963
 20
4.5390231284
 11
5.9323538066
 21
4.5329298872
  0
LINE
  5
33C
100
AcDbEntity
  8
0
100
AcDbLine
 62
7
  6
CONTINUOUS
 10
6.0329399341
 20
4.1724982191
 11
6.0329399341
 21
4.4224982191
  0
LINE
  5
33D
100
AcDbEntity
  8
0
100
AcDbLine
 62
7
  6
CONTINUOUS
 10
6.0379399341
 20
4.4174982189
 11
6.0379399341
 21
4.1774982193
  0
LINE
  5
33E
100
AcDbEntity
  8
03__ASM_ALL_CURVES
100
AcDbLine
 62
40
  6
CONTINUOUS
 10
6.0389855267
 20
4.5207434049
 11
6.0389855267
 21
4.5451163695
  0
LINE
  5
33F
100
AcDbEntity
  8
03__ASM_ALL_CURVES
100
AcDbLine
 62
40
  6
CONTINUOUS
 10
6.051172009
 20
4.5410542083
 11
6.051172009
 21
4.5369920485
  0
LINE
  5
340
100
AcDbEntity
  8
03__ASM_ALL_CURVES
100
AcDbLine
 62
40
  6
CONTINUOUS
 10
5.9831533458
 20
4.0337884265
 11
5.982010863
 21
4.0292184956
  0
LINE
  5
341
100
AcDbEntity
  8
03__ASM_ALL_CURVES
100
AcDbLine
 62
40
  6
CONTINUOUS
 10
5.9180318309
 20
4.0414049783
 11
5.9168893482
 21
4.0398816673
  0
LINE
  5
342
100
AcDbEntity
  8
03__ASM_ALL_CURVES
100
AcDbLine
 62
40
  6
CONTINUOUS
 10
5.92602921
 20
4.0429282882
 11
5.9283141754
 21
4.0459749092
  0
LINE
  5
343
100
AcDbEntity
  8
03__ASM_ALL_CURVES
100
AcDbLine
 62
40
  6
CONTINUOUS
 10
5.9374540371
 20
4.0337884265
 11
5.9351690717
 21
4.030741806
  0
LINE
  5
344
100
AcDbEntity
  8
03__ASM_ALL_CURVES
100
AcDbLine
 62
40
  6
CONTINUOUS
 10
5.5807737922
 20
4.5061196262
 11
5.6392689073
 21
4.515868812
  0
LINE
  5
345
100
AcDbEntity
  8
03__ASM_ALL_CURVES
100
AcDbLine
 62
40
  6
CONTINUOUS
 10
5.5807737922
 20
4.5069320583
 11
5.6392689073
 21
4.5150563799
  0
LINE
  5
346
100
AcDbEntity
  8
03__ASM_ALL_CURVES
100
AcDbLine
 62
40
  6
CONTINUOUS
 10
5.5807737922
 20
4.5077444905
 11
5.6392689073
 21
4.5142439477
  0
LINE
  5
347
100
AcDbEntity
  8
03__ASM_ALL_CURVES
100
AcDbLine
 62
40
  6
CONTINUOUS
 10
5.5807737922
 20
4.5085569226
 11
5.6392689073
 21
4.5134315156
  0
LINE
  5
348
100
AcDbEntity
  8
03__ASM_ALL_CURVES
100
AcDbLine
 62
40
  6
CONTINUOUS
 10
5.5807737922
 20
4.5093693548
 11
5.6392689073
 21
4.5126190834
  0
LINE
  5
349
100
AcDbEntity
  8
03__ASM_ALL_CURVES
100
AcDbLine
 62
40
  6
CONTINUOUS
 10
5.2442689073
 20
4.5126190834
 11
5.2150213498
 21
4.5109942191
  0
LINE
  5
34A
100
AcDbEntity
  8
03__ASM_ALL_CURVES
100
AcDbLine
 62
40
  6
CONTINUOUS
 10
5.5807737922
 20
4.5101817869
 11
5.6392689073
 21
4.5118066513
  0
LINE
  5
34B
100
AcDbEntity
  8
03__ASM_ALL_CURVES
100
AcDbLine
 62
40
  6
CONTINUOUS
 10
5.2442689073
 20
4.5118066513
 11
5.2150213498
 21
4.5109942191
  0
LINE
  5
34C
100
AcDbEntity
  8
03__ASM_ALL_CURVES
100
AcDbLine
 62
40
  6
CONTINUOUS
 10
5.2150213498
 20
4.5109942191
 11
6.0779822702
 21
4.5109942191
  0
LINE
  5
34D
100
AcDbEntity
  8
03__ASM_ALL_CURVES
100
AcDbLine
 62
40
  6
CONTINUOUS
 10
6.0267990444
 20
4.5207434049
 11
6.0146125621
 21
4.5207434049
  0
LINE
  5
34E
100
AcDbEntity
  8
03__ASM_ALL_CURVES
100
AcDbLine
 62
40
  6
CONTINUOUS
 10
5.9963328387
 20
4.5207434049
 11
5.9902395975
 21
4.5207434049
  0
LINE
  5
34F
100
AcDbEntity
  8
03__ASM_ALL_CURVES
100
AcDbLine
 62
40
  6
CONTINUOUS
 10
5.9491102197
 20
4.5207434049
 11
5.9460635992
 21
4.5207434049
  0
LINE
  5
350
100
AcDbEntity
  8
03__ASM_ALL_CURVES
100
AcDbLine
 62
40
  6
CONTINUOUS
 10
5.9247372551
 20
4.5207434049
 11
5.9216906346
 21
4.5207434049
  0
LINE
  5
351
100
AcDbEntity
  8
03__ASM_ALL_CURVES
100
AcDbLine
 62
40
  6
CONTINUOUS
 10
5.8759913259
 20
4.5207434049
 11
5.8729447053
 21
4.5207434049
  0
LINE
  5
352
100
AcDbEntity
  8
03__ASM_ALL_CURVES
100
AcDbLine
 62
40
  6
CONTINUOUS
 10
5.8272453967
 20
4.5207434049
 11
5.8241987761
 21
4.5207434049
  0
LINE
  5
353
100
AcDbEntity
  8
03__ASM_ALL_CURVES
100
AcDbLine
 62
40
  6
CONTINUOUS
 10
5.7053805737
 20
4.5207434049
 11
5.7023339531
 21
4.5207434049
  0
LINE
  5
354
100
AcDbEntity
  8
03__ASM_ALL_CURVES
100
AcDbLine
 62
40
  6
CONTINUOUS
 10
5.6810076091
 20
4.5207434049
 11
5.6779609885
 21
4.5207434049
  0
LINE
  5
355
100
AcDbEntity
  8
03__ASM_ALL_CURVES
100
AcDbLine
 62
40
  6
CONTINUOUS
 10
5.4490807967
 20
4.5207434049
 11
5.4475574864
 21
4.5207434049
  0
LINE
  5
356
100
AcDbEntity
  8
03__ASM_ALL_CURVES
100
AcDbLine
 62
40
  6
CONTINUOUS
 10
5.3531122485
 20
4.5207434049
 11
5.350065628
 21
4.5207434049
  0
LINE
  5
357
100
AcDbEntity
  8
03__ASM_ALL_CURVES
100
AcDbLine
 62
40
  6
CONTINUOUS
 10
5.3272159736
 20
4.5207434049
 11
5.3256926634
 21
4.5207434049
  0
LINE
  5
358
100
AcDbEntity
  8
03__ASM_ALL_CURVES
100
AcDbLine
 62
40
  6
CONTINUOUS
 10
5.649018093
 20
4.5207434049
 11
5.6612045753
 21
4.5207434049
  0
LINE
  5
359
100
AcDbEntity
  8
03__ASM_ALL_CURVES
100
AcDbLine
 62
40
  6
CONTINUOUS
 10
5.9658666329
 20
4.5207434049
 11
5.9780531152
 21
4.5207434049
  0
LINE
  5
35A
100
AcDbEntity
  8
03__ASM_ALL_CURVES
100
AcDbLine
 62
40
  6
CONTINUOUS
 10
5.7236602971
 20
4.5288677267
 11
5.7328001589
 21
4.5288677267
  0
LINE
  5
35B
100
AcDbEntity
  8
03__ASM_ALL_CURVES
100
AcDbLine
 62
40
  6
CONTINUOUS
 10
6.0466020782
 20
4.5329298872
 11
6.0389855267
 21
4.5329298872
  0
LINE
  5
35C
100
AcDbEntity
  8
03__ASM_ALL_CURVES
100
AcDbLine
 62
40
  6
CONTINUOUS
 10
5.8257220864
 20
4.5329298872
 11
5.8318153276
 21
4.5329298872
  0
LINE
  5
35D
100
AcDbEntity
  8
03__ASM_ALL_CURVES
100
AcDbLine
 62
40
  6
CONTINUOUS
 10
5.8927477391
 20
4.5329298872
 11
5.9049342214
 21
4.5329298872
  0
LINE
  5
35E
100
AcDbEntity
  8
03__ASM_ALL_CURVES
100
AcDbLine
 62
40
  6
CONTINUOUS
 10
6.0146125621
 20
4.5329298872
 11
6.0222291136
 21
4.5329298872
  0
LINE
  5
35F
100
AcDbEntity
  8
03__ASM_ALL_CURVES
100
AcDbLine
 62
40
  6
CONTINUOUS
 10
5.350065628
 20
4.5349609671
 11
5.3531122485
 21
4.5349609671
  0
LINE
  5
360
100
AcDbEntity
  8
03__ASM_ALL_CURVES
100
AcDbLine
 62
40
  6
CONTINUOUS
 10
5.8759913259
 20
4.5451163695
 11
5.8729447053
 21
4.5451163695
  0
LINE
  5
361
100
AcDbEntity
  8
03__ASM_ALL_CURVES
100
AcDbLine
 62
40
  6
CONTINUOUS
 10
5.350065628
 20
4.5451163695
 11
5.3531122485
 21
4.5451163695
  0
LINE
  5
362
100
AcDbEntity
  8
03__ASM_ALL_CURVES
100
AcDbLine
 62
40
  6
CONTINUOUS
 10
5.6779609885
 20
4.5451163695
 11
5.6810076091
 21
4.5451163695
  0
LINE
  5
363
100
AcDbEntity
  8
03__ASM_ALL_CURVES
100
AcDbLine
 62
40
  6
CONTINUOUS
 10
5.7023339531
 20
4.5451163695
 11
5.7053805737
 21
4.5451163695
  0
LINE
  5
364
100
AcDbEntity
  8
03__ASM_ALL_CURVES
100
AcDbLine
 62
40
  6
CONTINUOUS
 10
5.7449866412
 20
4.5451163695
 11
5.760219744
 21
4.5451163695
  0
LINE
  5
365
100
AcDbEntity
  8
03__ASM_ALL_CURVES
100
AcDbLine
 62
40
  6
CONTINUOUS
 10
5.8241987761
 20
4.5451163695
 11
5.8272453967
 21
4.5451163695
  0
LINE
  5
366
100
AcDbEntity
  8
03__ASM_ALL_CURVES
100
AcDbLine
 62
40
  6
CONTINUOUS
 10
5.9216906346
 20
4.5451163695
 11
5.9247372551
 21
4.5451163695
  0
LINE
  5
367
100
AcDbEntity
  8
03__ASM_ALL_CURVES
100
AcDbLine
 62
40
  6
CONTINUOUS
 10
5.9902395975
 20
4.5451163695
 11
5.9963328387
 21
4.5451163695
  0
LINE
  5
368
100
AcDbEntity
  8
03__ASM_ALL_CURVES
100
AcDbLine
 62
40
  6
CONTINUOUS
 10
6.0146125621
 20
4.5451163695
 11
6.0267990444
 21
4.5451163695
  0
LINE
  5
369
100
AcDbEntity
  8
03__ASM_ALL_CURVES
100
AcDbLine
 62
40
  6
CONTINUOUS
 10
6.0389855267
 20
4.5451163695
 11
6.0466020782
 21
4.5451163695
  0
LINE
  5
36A
100
AcDbEntity
  8
03__ASM_ALL_CURVES
100
AcDbLine
 62
40
  6
CONTINUOUS
 10
5.8272453967
 20
4.5451163695
 11
5.8302920173
 21
4.5430852896
  0
LINE
  5
36B
100
AcDbEntity
  8
03__ASM_ALL_CURVES
100
AcDbLine
 62
40
  6
CONTINUOUS
 10
5.8729447053
 20
4.5207434049
 11
5.8698980848
 21
4.5227744854
  0
LINE
  5
36C
100
AcDbEntity
  8
03__ASM_ALL_CURVES
100
AcDbLine
 62
40
  6
CONTINUOUS
 10
5.8698980848
 20
4.5369920485
 11
5.8790379465
 21
4.5308988066
  0
LINE
  5
36D
100
AcDbEntity
  8
03__ASM_ALL_CURVES
100
AcDbLine
 62
40
  6
CONTINUOUS
 10
5.8790379465
 20
4.5430852896
 11
5.8759913259
 21
4.5451163695
  0
LINE
  5
36E
100
AcDbEntity
  8
03__ASM_ALL_CURVES
100
AcDbLine
 62
40
  6
CONTINUOUS
 10
5.9216906346
 20
4.5207434049
 11
5.918644014
 21
4.5227744854
  0
LINE
  5
36F
100
AcDbEntity
  8
03__ASM_ALL_CURVES
100
AcDbLine
 62
40
  6
CONTINUOUS
 10
5.918644014
 20
4.5227744854
 11
5.9155973934
 21
4.5268366461
  0
LINE
  5
370
100
AcDbEntity
  8
03__ASM_ALL_CURVES
100
AcDbLine
 62
40
  6
CONTINUOUS
 10
5.9430169786
 20
4.5227744854
 11
5.9414936683
 21
4.5248055658
  0
LINE
  5
371
100
AcDbEntity
  8
03__ASM_ALL_CURVES
100
AcDbLine
 62
40
  6
CONTINUOUS
 10
5.9277838757
 20
4.5430852896
 11
5.9308304963
 21
4.5390231284
  0
LINE
  5
372
100
AcDbEntity
  8
03__ASM_ALL_CURVES
100
AcDbLine
 62
40
  6
CONTINUOUS
 10
6.0024260798
 20
4.5390231284
 11
6.0039493901
 21
4.5329298872
  0
LINE
  5
373
100
AcDbEntity
  8
0
100
AcDbLine
 62
7
  6
CONTINUOUS
 10
6.0879399341
 20
4.171998864
 11
6.0879399341
 21
4.4229980555
  0
LINE
  5
374
100
AcDbEntity
  8
03__ASM_ALL_CURVES
100
AcDbLine
 62
40
  6
CONTINUOUS
 10
5.9545912779
 20
4.0414049783
 11
5.9534487951
 21
4.0398816673
  0
LINE
  5
375
100
AcDbEntity
  8
03__ASM_ALL_CURVES
100
AcDbLine
 62
40
  6
CONTINUOUS
 10
5.982010863
 20
4.0444515982
 11
5.9831533458
 21
4.0459749092
  0
LINE
  5
376
100
AcDbEntity
  8
03__ASM_ALL_CURVES
100
AcDbLine
 62
40
  6
CONTINUOUS
 10
5.9854383112
 20
4.0368350469
 11
5.9831533458
 21
4.0337884265
  0
LINE
  5
377
100
AcDbEntity
  8
03__ASM_ALL_CURVES
100
AcDbLine
 62
40
  6
CONTINUOUS
 10
5.9911507248
 20
4.0414049783
 11
5.990008242
 21
4.0398816673
  0
LINE
  5
378
100
AcDbEntity
  8
03__ASM_ALL_CURVES
100
AcDbLine
 62
40
  6
CONTINUOUS
 10
6.3180187287
 20
4.3130359837
 11
6.3157337633
 21
4.3115126737
  0
LINE
  5
379
100
AcDbEntity
  8
03__ASM_ALL_CURVES
100
AcDbLine
 62
40
  6
CONTINUOUS
 10
6.3294435558
 20
4.3191292256
 11
6.3317285213
 21
4.3206525355
  0
LINE
  5
37A
100
AcDbEntity
  8
03__ASM_ALL_CURVES
100
AcDbLine
 62
40
  6
CONTINUOUS
 10
5.9168893482
 20
4.0398816673
 11
5.9146043828
 21
4.0383583574
  0
LINE
  5
37B
100
AcDbEntity
  8
03__ASM_ALL_CURVES
100
AcDbLine
 62
40
  6
CONTINUOUS
 10
5.9283141754
 20
4.0459749092
 11
5.9305991408
 21
4.0474982191
  0
LINE
  5
37C
100
AcDbEntity
  8
03__ASM_ALL_CURVES
100
AcDbLine
 62
40
  6
CONTINUOUS
 10
6.3362984521
 20
4.3038961224
 11
6.3340134867
 21
4.302372812
  0
LINE
  5
37D
100
AcDbEntity
  8
03__ASM_ALL_CURVES
100
AcDbLine
 62
40
  6
CONTINUOUS
 10
6.3545781756
 20
4.3130359837
 11
6.3522932102
 21
4.3115126737
  0
LINE
  5
37E
100
AcDbEntity
  8
03__ASM_ALL_CURVES
100
AcDbLine
 62
40
  6
CONTINUOUS
 10
5.9351690717
 20
4.030741806
 11
5.9328841062
 21
4.0292184956
  0
LINE
  5
37F
100
AcDbEntity
  8
03__ASM_ALL_CURVES
100
AcDbLine
 62
40
  6
CONTINUOUS
 10
5.9534487951
 20
4.0398816673
 11
5.9511638297
 21
4.0383583574
  0
LINE
  5
380
100
AcDbEntity
  8
03__ASM_ALL_CURVES
100
AcDbLine
 62
40
  6
CONTINUOUS
 10
5.9831533458
 20
4.0459749092
 11
5.9854383112
 21
4.0474982191
  0
LINE
  5
381
100
AcDbEntity
  8
03__ASM_ALL_CURVES
100
AcDbLine
 62
40
  6
CONTINUOUS
 10
5.2442689073
 20
4.5150563799
 11
5.2150213498
 21
4.5109942191
  0
LINE
  5
382
100
AcDbEntity
  8
03__ASM_ALL_CURVES
100
AcDbLine
 62
40
  6
CONTINUOUS
 10
5.2442689073
 20
4.5142439477
 11
5.2150213498
 21
4.5109942191
  0
LINE
  5
383
100
AcDbEntity
  8
03__ASM_ALL_CURVES
100
AcDbLine
 62
40
  6
CONTINUOUS
 10
5.2442689073
 20
4.5134315156
 11
5.2150213498
 21
4.5109942191
  0
LINE
  5
384
100
AcDbEntity
  8
03__ASM_ALL_CURVES
100
AcDbLine
 62
40
  6
CONTINUOUS
 10
5.9460635992
 20
4.5207434049
 11
5.9430169786
 21
4.5227744854
  0
LINE
  5
385
100
AcDbEntity
  8
03__ASM_ALL_CURVES
100
AcDbLine
 62
40
  6
CONTINUOUS
 10
5.9247372551
 20
4.5451163695
 11
5.9277838757
 21
4.5430852896
  0
LINE
  5
386
100
AcDbEntity
  8
0
100
AcDbLine
 62
7
  6
CONTINUOUS
 10
6.1379399341
 20
4.4229972211
 11
6.1379399341
 21
4.1719992816
  0
LINE
  5
387
100
AcDbEntity
  8
03__ASM_ALL_CURVES
100
AcDbLine
 62
40
  6
CONTINUOUS
 10
5.990008242
 20
4.0398816673
 11
5.9854383112
 21
4.0368350469
  0
LINE
  5
388
100
AcDbEntity
  8
03__ASM_ALL_CURVES
100
AcDbLine
 62
40
  6
CONTINUOUS
 10
5.2150213498
 20
4.5109942191
 11
5.2442689073
 21
4.515868812
  0
LINE
  5
389
100
AcDbEntity
  8
03__ASM_ALL_CURVES
100
AcDbLine
 62
40
  6
CONTINUOUS
 10
6.3317285213
 20
4.302372812
 11
6.3294435558
 21
4.3038961224
  0
LINE
  5
38A
100
AcDbEntity
  8
03__ASM_ALL_CURVES
100
AcDbLine
 62
40
  6
CONTINUOUS
 10
6.3157337633
 20
4.3206525355
 11
6.3180187287
 21
4.3191292256
  0
LINE
  5
38B
100
AcDbEntity
  8
03__ASM_ALL_CURVES
100
AcDbLine
 62
40
  6
CONTINUOUS
 10
5.9963328387
 20
4.5451163695
 11
5.9993794592
 21
4.5430852896
  0
LINE
  5
38C
100
AcDbEntity
  8
03__ASM_ALL_CURVES
100
AcDbLine
 62
40
  6
CONTINUOUS
 10
6.3340134867
 20
4.3206525355
 11
6.3362984521
 21
4.3191292256
  0
LINE
  5
38D
100
AcDbEntity
  8
03__ASM_ALL_CURVES
100
AcDbLine
 62
40
  6
CONTINUOUS
 10
6.3522932102
 20
4.3206525355
 11
6.3545781756
 21
4.3191292256
  0
LINE
  5
38E
100
AcDbEntity
  8
03__ASM_ALL_CURVES
100
AcDbLine
 62
40
  6
CONTINUOUS
 10
5.9993794592
 20
4.5430852896
 11
6.0024260798
 21
4.5390231284
  0
LINE
  5
38F
100
AcDbEntity
  8
03__ASM_ALL_CURVES
100
AcDbLine
 62
40
  6
CONTINUOUS
 10
6.0466020782
 20
4.5329298872
 11
6.051172009
 21
4.5207434049
  0
LINE
  5
390
100
AcDbEntity
  8
0
100
AcDbLine
 62
7
  6
CONTINUOUS
 10
6.1499399341
 20
4.4174982191
 11
6.1499399341
 21
4.1774982191
  0
LINE
  5
391
100
AcDbEntity
  8
0
100
AcDbLine
 62
7
  6
CONTINUOUS
 10
6.1549399341
 20
4.1724982191
 11
6.1549399341
 21
4.4224982191
  0
LINE
  5
392
100
AcDbEntity
  8
0
100
AcDbLine
 62
7
  6
CONTINUOUS
 10
6.1849399341
 20
4.1724982191
 11
6.1849399341
 21
4.4224982191
  0
LINE
  5
393
100
AcDbEntity
  8
0
100
AcDbLine
 62
7
  6
CONTINUOUS
 10
6.1899399341
 20
4.4174982189
 11
6.1899399341
 21
4.1774982193
  0
LINE
  5
394
100
AcDbEntity
  8
03__ASM_ALL_CURVES
100
AcDbLine
 62
40
  6
CONTINUOUS
 10
6.0466020782
 20
4.5451163695
 11
6.0496486987
 21
4.5430852896
  0
LINE
  5
395
100
AcDbEntity
  8
03__ASM_ALL_CURVES
100
AcDbLine
 62
40
  6
CONTINUOUS
 10
6.0496486987
 20
4.5430852896
 11
6.051172009
 21
4.5410542083
  0
LINE
  5
396
100
AcDbEntity
  8
03__ASM_ALL_CURVES
100
AcDbLine
 62
40
  6
CONTINUOUS
 10
6.3191612114
 20
4.3145592947
 11
6.3180187287
 21
4.3130359837
  0
LINE
  5
397
100
AcDbEntity
  8
03__ASM_ALL_CURVES
100
AcDbLine
 62
40
  6
CONTINUOUS
 10
6.3271585904
 20
4.3160826046
 11
6.3294435558
 21
4.3191292256
  0
LINE
  5
398
100
AcDbEntity
  8
03__ASM_ALL_CURVES
100
AcDbLine
 62
40
  6
CONTINUOUS
 10
6.3385834176
 20
4.3069427429
 11
6.3362984521
 21
4.3038961224
  0
LINE
  5
399
100
AcDbEntity
  8
03__ASM_ALL_CURVES
100
AcDbLine
 62
40
  6
CONTINUOUS
 10
6.3557206583
 20
4.3145592947
 11
6.3545781756
 21
4.3130359837
  0
LINE
  5
39A
100
AcDbEntity
  8
03__ASM_ALL_CURVES
100
AcDbLine
 62
40
  6
CONTINUOUS
 10
6.3294435558
 20
4.3038961224
 11
6.3271585904
 21
4.3069427429
  0
LINE
  5
39B
100
AcDbEntity
  8
03__ASM_ALL_CURVES
100
AcDbLine
 62
40
  6
CONTINUOUS
 10
6.3180187287
 20
4.3191292256
 11
6.3191612114
 21
4.3176059145
  0
LINE
  5
39C
100
AcDbEntity
  8
03__ASM_ALL_CURVES
100
AcDbLine
 62
40
  6
CONTINUOUS
 10
6.3362984521
 20
4.3191292256
 11
6.3385834176
 21
4.3160826046
  0
LINE
  5
39D
100
AcDbEntity
  8
03__ASM_ALL_CURVES
100
AcDbLine
 62
40
  6
CONTINUOUS
 10
6.3545781756
 20
4.3191292256
 11
6.3557206583
 21
4.3176059145
  0
LINE
  5
39E
100
AcDbEntity
  8
03__ASM_ALL_CURVES
100
AcDbLine
 62
40
  6
CONTINUOUS
 10
6.3100213497
 20
4.302372812
 11
6.3100213497
 21
4.3206525355
  0
LINE
  5
39F
100
AcDbEntity
  8
03__ASM_ALL_CURVES
100
AcDbLine
 62
40
  6
CONTINUOUS
 10
6.3191612114
 20
4.3176059145
 11
6.3191612114
 21
4.3145592947
  0
LINE
  5
3A0
100
AcDbEntity
  8
03__ASM_ALL_CURVES
100
AcDbLine
 62
40
  6
CONTINUOUS
 10
6.3260161077
 20
4.3115126737
 11
6.3271585904
 21
4.3160826046
  0
LINE
  5
3A1
100
AcDbEntity
  8
03__ASM_ALL_CURVES
100
AcDbLine
 62
40
  6
CONTINUOUS
 10
6.3397259003
 20
4.3115126737
 11
6.3385834176
 21
4.3069427429
  0
LINE
  5
3A2
100
AcDbEntity
  8
03__ASM_ALL_CURVES
100
AcDbLine
 62
40
  6
CONTINUOUS
 10
6.3271585904
 20
4.3069427429
 11
6.3260161077
 21
4.3115126737
  0
LINE
  5
3A3
100
AcDbEntity
  8
03__ASM_ALL_CURVES
100
AcDbLine
 62
40
  6
CONTINUOUS
 10
6.3465807966
 20
4.302372812
 11
6.3465807966
 21
4.3206525355
  0
LINE
  5
3A4
100
AcDbEntity
  8
03__ASM_ALL_CURVES
100
AcDbLine
 62
40
  6
CONTINUOUS
 10
6.3557206583
 20
4.3176059145
 11
6.3557206583
 21
4.3145592947
  0
LINE
  5
3A5
100
AcDbEntity
  8
03__ASM_ALL_CURVES
100
AcDbLine
 62
40
  6
CONTINUOUS
 10
6.3522932102
 20
4.3115126737
 11
6.3557206583
 21
4.302372812
  0
LINE
  5
3A6
100
AcDbEntity
  8
03__ASM_ALL_CURVES
100
AcDbLine
 62
40
  6
CONTINUOUS
 10
6.3385834176
 20
4.3160826046
 11
6.3397259003
 21
4.3115126737
  0
LINE
  5
3A7
100
AcDbEntity
  8
03__ASM_ALL_CURVES
100
AcDbLine
 62
40
  6
CONTINUOUS
 10
6.3694304509
 20
4.3206525355
 11
6.3694304509
 21
4.302372812
  0
LINE
  5
3A8
100
AcDbEntity
  8
03__ASM_ALL_CURVES
100
AcDbLine
 62
40
  6
CONTINUOUS
 10
6.3877101744
 20
4.3206525355
 11
6.3877101744
 21
4.302372812
  0
CIRCLE
  5
3A9
100
AcDbEntity
  8
0
100
AcDbCircle
 62
7
  6
CONTINUOUS
 10
5.9379399341
 20
4.2974982191
 40
0.028
  0
ARC
  5
3AA
100
AcDbEntity
  8
0
100
AcDbCircle
 62
7
  6
CONTINUOUS
 10
6.1379399341
 20
4.3929982191
 40
0.012
100
AcDbArc
 50
270.0
 51
359.999999839
  0
ARC
  5
3AB
100
AcDbEntity
  8
0
100
AcDbCircle
 62
7
  6
CONTINUOUS
 10
6.1379399341
 20
4.2019982191
 40
0.012
100
AcDbArc
 50
0.000000161
 51
90.0
  0
ARC
  5
3AC
100
AcDbEntity
  8
0
100
AcDbCircle
 62
7
  6
CONTINUOUS
 10
5.7889399341
 20
4.4239982191
 40
0.005
100
AcDbArc
 50
90.0
 51
180.0
  0
ARC
  5
3AD
100
AcDbEntity
  8
0
100
AcDbCircle
 62
7
  6
CONTINUOUS
 10
5.7889399341
 20
4.1709982191
 40
0.005
100
AcDbArc
 50
180.0
 51
270.0
  0
ARC
  5
3AE
100
AcDbEntity
  8
0
100
AcDbCircle
 62
7
  6
CONTINUOUS
 10
6.0329399341
 20
4.1774982191
 40
0.005
100
AcDbArc
 50
270.0
 51
360.0
  0
ARC
  5
3AF
100
AcDbEntity
  8
0
100
AcDbCircle
 62
7
  6
CONTINUOUS
 10
6.0329399341
 20
4.4174982191
 40
0.005
100
AcDbArc
 50
0.0
 51
90.0
  0
ARC
  5
3B0
100
AcDbEntity
  8
0
100
AcDbCircle
 62
7
  6
CONTINUOUS
 10
6.1549399341
 20
4.4174982191
 40
0.005
100
AcDbArc
 50
90.0
 51
180.0
  0
ARC
  5
3B1
100
AcDbEntity
  8
0
100
AcDbCircle
 62
7
  6
CONTINUOUS
 10
6.1549399341
 20
4.1774982191
 40
0.005
100
AcDbArc
 50
180.0
 51
270.0
  0
ARC
  5
3B2
100
AcDbEntity
  8
0
100
AcDbCircle
 62
7
  6
CONTINUOUS
 10
6.1849399341
 20
4.1774982191
 40
0.005
100
AcDbArc
 50
270.0
 51
360.0
  0
ARC
  5
3B3
100
AcDbEntity
  8
0
100
AcDbCircle
 62
7
  6
CONTINUOUS
 10
6.1849399341
 20
4.4174982191
 40
0.005
100
AcDbArc
 50
0.0
 51
90.0
  0
ARC
  5
3B4
100
AcDbEntity
  8
0
100
AcDbCircle
 62
7
  6
CONTINUOUS
 10
5.7789399341
 20
4.4044982191
 40
0.005
100
AcDbArc
 50
334.2641464169
 51
359.999978619
  0
ARC
  5
3B5
100
AcDbEntity
  8
0
100
AcDbCircle
 62
7
  6
CONTINUOUS
 10
5.7789399341
 20
4.1904982191
 40
0.005
100
AcDbArc
 50
0.000021381
 51
25.7358535831
  0
ARC
  5
3B6
100
AcDbEntity
  8
0
100
AcDbCircle
 62
7
  6
CONTINUOUS
 10
5.2200213498
 20
4.4564982191
 40
0.005
100
AcDbArc
 50
90.0
 51
180.0
  0
ARC
  5
3B7
100
AcDbEntity
  8
0
100
AcDbCircle
 62
7
  6
CONTINUOUS
 10
5.2200213498
 20
4.1384982191
 40
0.005
100
AcDbArc
 50
180.0
 51
270.0
  0
ARC
  5
3B8
100
AcDbEntity
  8
0
100
AcDbCircle
 62
7
  6
CONTINUOUS
 10
5.7616912185
 20
4.1669982191
 40
0.002
100
AcDbArc
 50
270.0
 51
323.177
  0
ARC
  5
3B9
100
AcDbEntity
  8
0
100
AcDbCircle
 62
7
  6
CONTINUOUS
 10
5.7616912185
 20
4.4279982191
 40
0.002
100
AcDbArc
 50
36.823
 51
90.0
  0
ARC
  5
3BA
100
AcDbEntity
  8
0
100
AcDbCircle
 62
7
  6
CONTINUOUS
 10
5.6811886496
 20
4.1669982191
 40
0.002
100
AcDbArc
 50
216.823
 51
270.0
  0
ARC
  5
3BB
100
AcDbEntity
  8
0
100
AcDbCircle
 62
7
  6
CONTINUOUS
 10
5.6811886496
 20
4.4279982191
 40
0.002
100
AcDbArc
 50
90.0
 51
143.177
  0
ARC
  5
3BC
100
AcDbEntity
  8
0
100
AcDbCircle
 62
7
  6
CONTINUOUS
 10
5.6149399341
 20
4.4443490721
 40
0.002
100
AcDbArc
 50
0.0
 51
59.9999996906
  0
ARC
  5
3BD
100
AcDbEntity
  8
0
100
AcDbCircle
 62
7
  6
CONTINUOUS
 10
5.6149399341
 20
4.1506473661
 40
0.002
100
AcDbArc
 50
300.0000003094
 51
360.0
  0
SPLINE
  5
3BE
100
AcDbEntity
  8
0
100
AcDbSpline
 62
7
  6
CONTINUOUS
 70
0
 71
3
 72
9
 73
5
 74
3
 42
0.0000001
 43
0.0000001
 44
0.0000000001
 12
-0.003169231
 22
0.0000035276
 32
0.0
 13
-0.0031290795
 23
-0.0004854708
 33
0.0
 40
0.0
 40
0.0
 40
0.0
 40
0.0
 40
0.6001780132
 40
1.0
 40
1.0
 40
1.0
 40
1.0
 10
6.1145561173
 20
4.4229960973
 30
0.0
 10
6.113922083
 20
4.422996803
 30
0.0
 10
6.1128659792
 20
4.4229493957
 30
0.0
 10
6.1118181838
 20
4.4228191195
 30
0.0
 10
6.1114011588
 20
4.4227544188
 30
0.0
 11
6.1145561173
 21
4.4229960973
 31
0.0
 11
6.1126573752
 21
4.4229100468
 31
0.0
 11
6.1114011588
 21
4.4227544188
 31
0.0
  0
SPLINE
  5
3BF
100
AcDbEntity
  8
0
100
AcDbSpline
 62
7
  6
CONTINUOUS
 70
0
 71
3
 72
11
 73
7
 74
5
 42
0.0000001
 43
0.0000001
 44
0.0000000001
 12
-0.029167724
 22
-0.0045253175
 32
0.0
 13
-0.0165240777
 23
-0.0243560529
 33
0.0
 40
0.0
 40
0.0
 40
0.0
 40
0.0
 40
0.1866397146
 40
0.4378154221
 40
0.7212807478
 40
1.0
 40
1.0
 40
1.0
 40
1.0
 10
6.1114011588
 20
4.4227544188
 30
0.0
 10
6.1095865403
 20
4.4224728842
 30
0.0
 10
6.1054145353
 20
4.4212522406
 30
0.0
 10
6.0993007619
 20
4.4175497306
 30
0.0
 10
6.0935101092
 20
4.4119974995
 30
0.0
 10
6.0901560245
 20
4.4075996387
 30
0.0
 10
6.0886208316
 20
4.4053368051
 30
0.0
 11
6.1114011588
 21
4.4227544188
 31
0.0
 11
6.1061132783
 21
4.4212455744
 31
0.0
 11
6.0997345705
 21
4.4175156969
 31
0.0
 11
6.0936411539
 21
4.4118226699
 31
0.0
 11
6.0886208316
 21
4.4053368051
 31
0.0
  0
SPLINE
  5
3C0
100
AcDbEntity
  8
0
100
AcDbSpline
 62
7
  6
CONTINUOUS
 70
0
 71
3
 72
8
 73
4
 74
2
 42
0.0000001
 43
0.0000001
 44
0.0000000001
 12
-0.0006893741
 22
-0.0010161191
 32
0.0
 13
-0.0006725272
 23
-0.0010266494
 33
0.0
 40
0.0
 40
0.0
 40
0.0
 40
0.0
 40
1.0
 40
1.0
 40
1.0
 40
1.0
 10
6.0886208316
 20
4.4053368051
 30
0.0
 10
6.0883910403
 20
4.4049980988
 30
0.0
 10
6.0881641098
 20
4.4046575447
 30
0.0
 10
6.0879399341
 20
4.4043153283
 30
0.0
 11
6.0886208316
 21
4.4053368051
 31
0.0
 11
6.0879399341
 21
4.4043153283
 31
0.0
  0
SPLINE
  5
3C1
100
AcDbEntity
  8
0
100
AcDbSpline
 62
7
  6
CONTINUOUS
 70
0
 71
3
 72
8
 73
4
 74
2
 42
0.0000001
 43
0.0000001
 44
0.0000000001
 12
-0.0016131456
 22
0.000126249
 32
0.0
 13
-0.001619143
 23
-0.0000018021
 33
0.0
 40
0.0
 40
0.0
 40
0.0
 40
0.0
 40
1.0
 40
1.0
 40
1.0
 40
1.0
 10
6.1129407626
 20
4.4229340871
 30
0.0
 10
6.1124030474
 20
4.4229761701
 30
0.0
 10
6.1118634664
 20
4.4229966978
 30
0.0
 10
6.1113237521
 20
4.4229960972
 30
0.0
 11
6.1129407626
 21
4.4229340871
 31
0.0
 11
6.1113237521
 21
4.4229960972
 31
0.0
  0
SPLINE
  5
3C2
100
AcDbEntity
  8
0
100
AcDbSpline
 62
7
  6
CONTINUOUS
 70
0
 71
3
 72
11
 73
7
 74
5
 42
0.0000001
 43
0.0000001
 44
0.0000000001
 12
-0.0283476702
 22
-0.0000315501
 32
0.0
 13
-0.0173261192
 23
-0.0222863887
 33
0.0
 40
0.0
 40
0.0
 40
0.0
 40
0.0
 40
0.1665875507
 40
0.4135491131
 40
0.6885779888
 40
1.0
 40
1.0
 40
1.0
 40
1.0
 10
6.1113237521
 20
4.4229960972
 30
0.0
 10
6.1097496291
 20
4.4229943452
 30
0.0
 10
6.1058390962
 20
4.4225438249
 30
0.0
 10
6.0997573091
 20
4.4200581284
 30
0.0
 10
6.0934402013
 20
4.4153048918
 30
0.0
 10
6.0897385124
 20
4.4111713491
 30
0.0
 10
6.0879399341
 20
4.4088578584
 30
0.0
 11
6.1113237521
 21
4.4229960972
 31
0.0
 11
6.1066409652
 21
4.4224622451
 31
0.0
 11
6.1001515631
 21
4.419914848
 31
0.0
 11
6.093879575
 21
4.4153389673
 31
0.0
 11
6.0879399341
 21
4.4088578584
 31
0.0
  0
SPLINE
  5
3C3
100
AcDbEntity
  8
0
100
AcDbSpline
 62
7
  6
CONTINUOUS
 70
0
 71
3
 72
8
 73
4
 74
2
 42
0.0000001
 43
0.0000001
 44
0.0000000001
 12
0.0
 22
0.0026178326
 32
0.0
 13
-0.0002749182
 23
0.0026036602
 33
0.0
 40
0.0
 40
0.0
 40
0.0
 40
0.0
 40
1.0
 40
1.0
 40
1.0
 40
1.0
 10
6.0879399341
 20
4.4059982191
 30
0.0
 10
6.0879399341
 20
4.40687083
 30
0.0
 10
6.0878936445
 20
4.4077434409
 30
0.0
 10
6.0878020051
 20
4.4086113276
 30
0.0
 11
6.0879399341
 21
4.4059982191
 31
0.0
 11
6.0878020051
 21
4.4086113276
 31
0.0
  0
SPLINE
  5
3C4
100
AcDbEntity
  8
0
100
AcDbSpline
 62
7
  6
CONTINUOUS
 70
0
 71
3
 72
8
 73
4
 74
2
 42
0.0000001
 43
0.0000001
 44
0.0000000001
 12
-0.0000232857
 22
0.0002205311
 32
0.0
 13
-0.0000252361
 23
0.0002203192
 33
0.0
 40
0.0
 40
0.0
 40
0.0
 40
0.0
 40
1.0
 40
1.0
 40
1.0
 40
1.0
 10
6.0878020051
 20
4.4086113276
 30
0.0
 10
6.0877942432
 20
4.408684838
 30
0.0
 10
6.087786156
 20
4.4087583144
 30
0.0
 10
6.087777744
 20
4.4088317542
 30
0.0
 11
6.0878020051
 21
4.4086113276
 31
0.0
 11
6.087777744
 21
4.4088317542
 31
0.0
  0
SPLINE
  5
3C5
100
AcDbEntity
  8
0
100
AcDbSpline
 62
7
  6
CONTINUOUS
 70
0
 71
3
 72
15
 73
11
 74
9
 42
0.0000001
 43
0.0000001
 44
0.0000000001
 12
-0.0086145118
 22
0.0752075595
 32
0.0
 13
0.0
 23
-0.0756896833
 33
0.0
 40
0.0
 40
0.0
 40
0.0
 40
0.0
 40
0.0921736155
 40
0.221863099
 40
0.3515525825
 40
0.481242066
 40
0.6109315495
 40
0.740621033
 40
0.8703105165
 40
1.0
 40
1.0
 40
1.0
 40
1.0
 10
6.087777744
 20
4.4088317542
 30
0.0
 10
6.0875130671
 20
4.4111424717
 30
0.0
 10
6.0861020695
 20
4.4166167971
 30
0.0
 10
6.0810778252
 20
4.4241361102
 30
0.0
 10
6.07275609
 20
4.4296965159
 30
0.0
 10
6.0629399341
 20
4.4316490707
 30
0.0
 10
6.0531237781
 20
4.4296965159
 30
0.0
 10
6.0448020429
 20
4.4241361102
 30
0.0
 10
6.0392416373
 20
4.415814375
 30
0.0
 10
6.0379399341
 20
4.4092702711
 30
0.0
 10
6.0379399341
 20
4.4059982191
 30
0.0
 11
6.087777744
 21
4.4088317542
 31
0.0
 11
6.0860369224
 21
4.4155653049
 31
0.0
 11
6.0806176036
 21
4.4236758886
 31
0.0
 11
6.0725070199
 21
4.4290952074
 31
0.0
 11
6.0629399341
 21
4.4309982191
 31
0.0
 11
6.0533728482
 21
4.4290952074
 31
0.0
 11
6.0452622645
 21
4.4236758886
 31
0.0
 11
6.0398429457
 21
4.4155653049
 31
0.0
 11
6.0379399341
 21
4.4059982191
 31
0.0
  0
SPLINE
  5
3C6
100
AcDbEntity
  8
0
100
AcDbSpline
 62
7
  6
CONTINUOUS
 70
0
 71
3
 72
15
 73
11
 74
9
 42
0.0000001
 43
0.0000001
 44
0.0000000001
 12
0.0
 22
-0.0785292475
 32
0.0
 13
0.0
 23
0.0785292475
 33
0.0
 40
0.0
 40
0.0
 40
0.0
 40
0.0
 40
0.125
 40
0.25
 40
0.375
 40
0.5
 40
0.625
 40
0.75
 40
0.875
 40
1.0
 40
1.0
 40
1.0
 40
1.0
 10
6.0879399341
 20
4.1889982191
 30
0.0
 10
6.0879399341
 20
4.1857261671
 30
0.0
 10
6.0866382308
 20
4.1791820632
 30
0.0
 10
6.0810778252
 20
4.170860328
 30
0.0
 10
6.07275609
 20
4.1652999223
 30
0.0
 10
6.0629399341
 20
4.1633473675
 30
0.0
 10
6.0531237781
 20
4.1652999223
 30
0.0
 10
6.0448020429
 20
4.170860328
 30
0.0
 10
6.0392416373
 20
4.1791820632
 30
0.0
 10
6.0379399341
 20
4.1857261671
 30
0.0
 10
6.0379399341
 20
4.1889982191
 30
0.0
 11
6.0879399341
 21
4.1889982191
 31
0.0
 11
6.0860369224
 21
4.1794311333
 31
0.0
 11
6.0806176036
 21
4.1713205496
 31
0.0
 11
6.0725070199
 21
4.1659012308
 31
0.0
 11
6.0629399341
 21
4.1639982191
 31
0.0
 11
6.0533728482
 21
4.1659012308
 31
0.0
 11
6.0452622645
 21
4.1713205496
 31
0.0
 11
6.0398429457
 21
4.1794311333
 31
0.0
 11
6.0379399341
 21
4.1889982191
 31
0.0
  0
SPLINE
  5
3C7
100
AcDbEntity
  8
0
100
AcDbSpline
 62
7
  6
CONTINUOUS
 70
0
 71
3
 72
15
 73
11
 74
9
 42
0.0000001
 43
0.0000001
 44
0.0000000001
 12
0.0
 22
0.0785292475
 32
0.0
 13
0.0
 23
-0.0785292475
 33
0.0
 40
0.0
 40
0.0
 40
0.0
 40
0.0
 40
0.125
 40
0.25
 40
0.375
 40
0.5
 40
0.625
 40
0.75
 40
0.875
 40
1.0
 40
1.0
 40
1.0
 40
1.0
 10
5.6669399341
 20
4.4244982191
 30
0.0
 10
5.6669399341
 20
4.4277702711
 30
0.0
 10
5.6656382308
 20
4.434314375
 30
0.0
 10
5.6600778252
 20
4.4426361102
 30
0.0
 10
5.65175609
 20
4.4481965159
 30
0.0
 10
5.6419399341
 20
4.4501490707
 30
0.0
 10
5.6321237781
 20
4.4481965159
 30
0.0
 10
5.6238020429
 20
4.4426361102
 30
0.0
 10
5.6182416373
 20
4.434314375
 30
0.0
 10
5.6169399341
 20
4.4277702711
 30
0.0
 10
5.6169399341
 20
4.4244982191
 30
0.0
 11
5.6669399341
 21
4.4244982191
 31
0.0
 11
5.6650369224
 21
4.4340653049
 31
0.0
 11
5.6596176036
 21
4.4421758886
 31
0.0
 11
5.6515070199
 21
4.4475952074
 31
0.0
 11
5.6419399341
 21
4.4494982191
 31
0.0
 11
5.6323728482
 21
4.4475952074
 31
0.0
 11
5.6242622645
 21
4.4421758886
 31
0.0
 11
5.6188429457
 21
4.4340653049
 31
0.0
 11
5.6169399341
 21
4.4244982191
 31
0.0
  0
SPLINE
  5
3C8
100
AcDbEntity
  8
0
100
AcDbSpline
 62
7
  6
CONTINUOUS
 70
0
 71
3
 72
15
 73
11
 74
9
 42
0.0000001
 43
0.0000001
 44
0.0000000001
 12
0.0
 22
-0.0785292475
 32
0.0
 13
0.0
 23
0.0785292475
 33
0.0
 40
0.0
 40
0.0
 40
0.0
 40
0.0
 40
0.125
 40
0.25
 40
0.375
 40
0.5
 40
0.625
 40
0.75
 40
0.875
 40
1.0
 40
1.0
 40
1.0
 40
1.0
 10
5.6669399341
 20
4.1704982191
 30
0.0
 10
5.6669399341
 20
4.1672261671
 30
0.0
 10
5.6656382308
 20
4.1606820632
 30
0.0
 10
5.6600778252
 20
4.152360328
 30
0.0
 10
5.65175609
 20
4.1467999223
 30
0.0
 10
5.6419399341
 20
4.1448473675
 30
0.0
 10
5.6321237781
 20
4.1467999223
 30
0.0
 10
5.6238020429
 20
4.152360328
 30
0.0
 10
5.6182416373
 20
4.1606820632
 30
0.0
 10
5.6169399341
 20
4.1672261671
 30
0.0
 10
5.6169399341
 20
4.1704982191
 30
0.0
 11
5.6669399341
 21
4.1704982191
 31
0.0
 11
5.6650369224
 21
4.1609311333
 31
0.0
 11
5.6596176036
 21
4.1528205496
 31
0.0
 11
5.6515070199
 21
4.1474012308
 31
0.0
 11
5.6419399341
 21
4.1454982191
 31
0.0
 11
5.6323728482
 21
4.1474012308
 31
0.0
 11
5.6242622645
 21
4.1528205496
 31
0.0
 11
5.6188429457
 21
4.1609311333
 31
0.0
 11
5.6169399341
 21
4.1704982191
 31
0.0
  0
SPLINE
  5
3C9
100
AcDbEntity
  8
0
100
AcDbSpline
 62
7
  6
CONTINUOUS
 70
0
 71
3
 72
23
 73
19
 74
17
 42
0.0000001
 43
0.0000001
 44
0.0000000001
 12
0.0551057815
 22
0.0123437035
 32
0.0
 13
0.0551057816
 23
-0.0123437035
 33
0.0
 40
0.0
 40
0.0
 40
0.0
 40
0.0
 40
0.0097746666
 40
0.0386882834
 40
0.0853458183
 40
0.1477451948
 40
0.2234219371
 40
0.3095328836
 40
0.402929522
 40
0.5000626048
 40
0.597214149
 40
0.690643602
 40
0.7767737325
 40
0.8524309604
 40
0.9147789556
 40
0.9613750838
 40
0.9902442651
 40
1.0
 40
1.0
 40
1.0
 40
1.0
 10
5.9099399341
 20
4.1724982191
 30
0.0
 10
5.9101194809
 20
4.1725384376
 30
0.0
 10
5.9108304416
 20
4.1726962384
 30
0.0
 10
5.9124014949
 20
4.1730321782
 30
0.0
 10
5.9149494242
 20
4.1735361308
 30
0.0
 10
5.9183755882
 20
4.1741331605
 30
0.0
 10
5.9225533898
 20
4.1747342229
 30
0.0
 10
5.9273305739
 20
4.175248002
 30
0.0
 10
5.9325280995
 20
4.1755938793
 30
0.0
 10
5.9379438181
 20
4.1757158036
 30
0.0
 10
5.9433601475
 20
4.1755935278
 30
0.0
 10
5.9485589726
 20
4.1752471808
 30
0.0
 10
5.9533367222
 20
4.1747329374
 30
0.0
 10
5.957513511
 20
4.1741316755
 30
0.0
 10
5.9609371826
 20
4.1735348559
 30
0.0
 10
5.9634821886
 20
4.1730313793
 30
0.0
 10
5.9650509393
 20
4.1726959048
 30
0.0
 10
5.9657607349
 20
4.1725383597
 30
0.0
 10
5.9659399341
 20
4.1724982191
 30
0.0
 11
5.9099399341
 21
4.1724982191
 31
0.0
 11
5.9104788097
 21
4.1726178229
 31
0.0
 11
5.9120755172
 21
4.1729591969
 31
0.0
 11
5.9146602995
 21
4.1734702328
 31
0.0
 11
5.9181318444
 21
4.1740747188
 31
0.0
 11
5.9223619603
 21
4.1746826123
 31
0.0
 11
5.9271969694
 21
4.1752018116
 31
0.0
 11
5.9324596119
 21
4.1755513703
 31
0.0
 11
5.9379434694
 21
4.175674576
 31
0.0
 11
5.9434283614
 21
4.1755510058
 31
0.0
 11
5.9486928273
 21
4.175200939
 31
0.0
 11
5.9535288703
 21
4.1746812214
 31
0.0
 11
5.9577578462
 21
4.1740731421
 31
0.0
 11
5.961226494
 21
4.1734689327
 31
0.0
 11
5.9638078546
 21
4.1729584692
 31
0.0
 11
5.9654021026
 21
4.1726175933
 31
0.0
 11
5.9659399341
 21
4.1724982191
 31
0.0
  0
SPLINE
  5
3CA
100
AcDbEntity
  8
0
100
AcDbSpline
 62
7
  6
CONTINUOUS
 70
0
 71
3
 72
23
 73
19
 74
17
 42
0.0000001
 43
0.0000001
 44
0.0000000001
 12
-0.0551057815
 22
-0.0123437035
 32
0.0
 13
-0.0551057816
 23
0.0123437035
 33
0.0
 40
0.0
 40
0.0
 40
0.0
 40
0.0
 40
0.0097746666
 40
0.0386882834
 40
0.0853458183
 40
0.1477451948
 40
0.2234219371
 40
0.3095328836
 40
0.402929522
 40
0.5000626048
 40
0.597214149
 40
0.690643602
 40
0.7767737325
 40
0.8524309604
 40
0.9147789556
 40
0.9613750838
 40
0.9902442651
 40
1.0
 40
1.0
 40
1.0
 40
1.0
 10
5.9659399341
 20
4.4224982191
 30
0.0
 10
5.9657603872
 20
4.4224580006
 30
0.0
 10
5.9650494265
 20
4.4223001998
 30
0.0
 10
5.9634783732
 20
4.42196426
 30
0.0
 10
5.9609304439
 20
4.4214603074
 30
0.0
 10
5.9575042799
 20
4.4208632777
 30
0.0
 10
5.9533264783
 20
4.4202622153
 30
0.0
 10
5.9485492942
 20
4.4197484362
 30
0.0
 10
5.9433517686
 20
4.4194025589
 30
0.0
 10
5.9379360501
 20
4.4192806346
 30
0.0
 10
5.9325197206
 20
4.4194029104
 30
0.0
 10
5.9273208956
 20
4.4197492574
 30
0.0
 10
5.9225431459
 20
4.4202635008
 30
0.0
 10
5.9183663571
 20
4.4208647627
 30
0.0
 10
5.9149426855
 20
4.4214615823
 30
0.0
 10
5.9123976796
 20
4.4219650589
 30
0.0
 10
5.9108289288
 20
4.4223005334
 30
0.0
 10
5.9101191332
 20
4.4224580785
 30
0.0
 10
5.9099399341
 20
4.4224982191
 30
0.0
 11
5.9659399341
 21
4.4224982191
 31
0.0
 11
5.9654010585
 21
4.4223786153
 31
0.0
 11
5.9638043509
 21
4.4220372413
 31
0.0
 11
5.9612195686
 21
4.4215262054
 31
0.0
 11
5.9577480237
 21
4.4209217194
 31
0.0
 11
5.9535179078
 21
4.4203138259
 31
0.0
 11
5.9486828987
 21
4.4197946266
 31
0.0
 11
5.9434202562
 21
4.4194450679
 31
0.0
 11
5.9379363988
 21
4.4193218622
 31
0.0
 11
5.9324515067
 21
4.4194454324
 31
0.0
 11
5.9271870408
 21
4.4197954992
 31
0.0
 11
5.9223509978
 21
4.4203152168
 31
0.0
 11
5.918122022
 21
4.4209232961
 31
0.0
 11
5.9146533741
 21
4.4215275054
 31
0.0
 11
5.9120720135
 21
4.422037969
 31
0.0
 11
5.9104777655
 21
4.4223788449
 31
0.0
 11
5.9099399341
 21
4.4224982191
 31
0.0
  0
ENDSEC
  0
SECTION
  2
OBJECTS
  0
DICTIONARY
  5
C
100
AcDbDictionary
280
0
281
1
  3
ACAD_GROUP
350
D
  3
ACAD_MLINESTYLE
350
17
  3
ACAD_LAYOUT
350
1A
  3
ACAD_PLOTSETTINGS
350
19
  3
ACAD_PLOTSTYLENAME
350
E
  0
DICTIONARY
  5
D
102
{ACAD_REACTORS
330
C
102
}
100
AcDbDictionary
280
0
281
1
  0
ACDBDICTIONARYWDFLT
  5
E
102
{ACAD_REACTORS
330
C
102
}
100
AcDbDictionary
281
1
  3
Normal
350
F
100
AcDbDictionaryWithDefault
340
F
  0
DICTIONARY
  5
17
102
{ACAD_REACTORS
330
C
102
}
100
AcDbDictionary
280
0
281
1
  3
Standard
350
18
  0
DICTIONARY
  5
19
102
{ACAD_REACTORS
330
C
102
}
100
AcDbDictionary
281
1
  0
DICTIONARY
  5
1A
102
{ACAD_REACTORS
330
C
102
}
100
AcDbDictionary
281
1
  3
Layout1
350
1E
  3
Model
350
22
  0
ACDBPLACEHOLDER
  5
F
102
{ACAD_REACTORS
330
E
102
}
  0
MLINESTYLE
  5
18
102
{ACAD_REACTORS
330
17
102
}
100
AcDbMlineStyle
  2
STANDARD
 70
0
  3

 62
256
 51
90.0
 52
90.0
 71
2
 49
0.5
 62
256
  6
BYLAYER
 49
-0.5
 62
256
  6
BYLAYER
  0
LAYOUT
  5
1E
102
{ACAD_REACTORS
330
1A
102
}
100
AcDbPlotSettings
  1

  2

  4

  6

 40
0.0
 41
0.0
 42
0.0
 43
0.0
 44
0.0
 45
0.0
 46
0.0
 47
0.0
 48
0.0
 49
0.0
140
0.0
141
0.0
142
1.0
143
1.0
 70
0
 72
0
 73
0
 74
0
  7

 75
0
147
1.0
148
0.0
149
0.0
100
AcDbLayout
  1
Layout1
 70
0
 71
0
 10
0.0
 20
0.0
 11
0.0
 21
0.0
 12
0.0
 22
0.0
 32
0.0
 14
0.0
 24
0.0
 34
0.0
 15
0.0
 25
0.0
 35
0.0
146
0.0
 13
0.0
 23
0.0
 33
0.0
 16
0.0
 26
0.0
 36
0.0
 17
0.0
 27
0.0
 37
0.0
 76
0
330
1B
331
0
345
0
346
0
  0
LAYOUT
  5
22
102
{ACAD_REACTORS
330
1A
102
}
100
AcDbPlotSettings
  1

  2

  4

  6

 40
0.0
 41
0.0
 42
0.0
 43
0.0
 44
0.0
 45
0.0
 46
0.0
 47
0.0
 48
0.0
 49
0.0
140
0.0
141
0.0
142
1.0
143
1.0
 70
0
 72
0
 73
0
 74
0
  7

 75
0
147
1.0
148
0.0
149
0.0
100
AcDbLayout
  1
Model
 70
0
 71
0
 10
0.0
 20
0.0
 11
0.0
 21
0.0
 12
0.0
 22
0.0
 32
0.0
 14
0.0
 24
0.0
 34
0.0
 15
0.0
 25
0.0
 35
0.0
146
0.0
 13
0.0
 23
0.0
 33
0.0
 16
0.0
 26
0.0
 36
0.0
 17
0.0
 27
0.0
 37
0.0
 76
0
330
1F
331
0
345
0
346
0
  0
ENDSEC
  0
EOF
