999
DXF file: CXJA-XCN.dxf
999
Pro/ENGINEER 2006240 by Parametric Technology Corporation
  0
SECTION
  2
HEADER
  9
$ACADVER
  1
AC1015
  9
$DWGCODEPAGE
  3
ANSI_1252
  9
$EXTMAX
 10
11.6929133858
 20
8.2677165354
 30
0.0
  9
$EXTMIN
 10
0.0
 20
0.0
 30
0.0
  9
$LIMMIN
 10
0.0
 20
0.0
  9
$LIMMAX
 10
11.6929133858
 20
8.2677165354
  9
$VIEWCTR
 10
5.8464566929
 20
4.1338582677
  9
$VIEWSIZE
 40
8.2677165354
  9
$CLAYER
  8
0
  9
$LTSCALE
 40
0.6431102362
  9
$CELTYPE
  6
BYLAYER
  9
$DIMSCALE
 40
1.0
  9
$DIMASZ
 40
0.1875
  9
$DIMEXO
 40
0.0730807087
  9
$DIMDLI
 40
0.4443307087
  9
$DIMEXE
 40
0.2104724409
  9
$DIMCEN
 40
0.1052362205
  9
$DIMLFAC
 40
1.0
  9
$DIMBLK
  1
_CLOSED
  9
$DIMTXT
 40
0.15625
  9
$DIMTOL
 70
0
  9
$DIMLIM
 70
0
  9
$DIMTFAC
 40
1.0
  9
$PDMODE
 70
3
  9
$PDSIZE
 40
0.3125
  9
$HANDSEED
  5
40C
  9
$MEASUREMENT
 70
0
  9
$INSUNITS
 70
1
  0
ENDSEC
  0
SECTION
  2
CLASSES
  0
CLASS
  1
ACDBDICTIONARYWDFLT
  2
AcDbDictionaryWithDefault
  3
AutoCAD 2000
 90
0
280
0
281
0
  0
CLASS
  1
ACDBPLACEHOLDER
  2
AcDbPlaceHolder
  3
AutoCAD 2000
 90
0
280
0
281
0
  0
CLASS
  1
LAYOUT
  2
AcDbLayout
  3
AutoCAD 2000
 90
0
280
0
281
0
  0
ENDSEC
  0
SECTION
  2
TABLES
  0
TABLE
  2
VPORT
  5
8
100
AcDbSymbolTable
 70
2
  0
VPORT
  5
1F4
100
AcDbSymbolTableRecord
100
AcDbViewportTableRecord
  2
*ACTIVE
 70
0
 10
0.0
 20
0.0
 11
1.0
 21
1.0
 12
5.8464566929
 22
4.1338582677
 13
0.0
 23
0.0
 14
1.0
 24
1.0
 15
0.0
 25
0.0
 16
0.0
 26
0.0
 36
1.0
 17
0.0
 27
0.0
 37
0.0
 40
8.2677165354
 41
1.4142857143
 42
50.0
 43
0.0
 44
0.0
 50
0.0
 51
0.0
 71
0
 72
100
 73
1
 74
1
 75
0
 76
0
 77
0
 78
0
  0
ENDTAB
  0
TABLE
  2
LTYPE
  5
5
100
AcDbSymbolTable
 70
6
  0
LTYPE
  5
14
100
AcDbSymbolTableRecord
100
AcDbLinetypeTableRecord
  2
BYBLOCK
 70
0
  3

 72
65
 73
0
 40
0.0
  0
LTYPE
  5
15
100
AcDbSymbolTableRecord
100
AcDbLinetypeTableRecord
  2
BYLAYER
 70
0
  3

 72
65
 73
0
 40
0.0
  0
LTYPE
  5
16
100
AcDbSymbolTableRecord
100
AcDbLinetypeTableRecord
  2
CONTINUOUS
 70
64
  3
Solid line
 72
65
 73
0
 40
0.0
  0
LTYPE
  5
1F5
100
AcDbSymbolTableRecord
100
AcDbLinetypeTableRecord
  2
CENTER
 70
64
  3
____ _ ____ _ ____ _ ____ _ ____ _ ____ _ ____
 72
65
 73
4
 40
0.6
 49
0.375
 74
0
 49
-0.075
 74
0
 49
0.075
 74
0
 49
-0.075
 74
0
  0
LTYPE
  5
1F6
100
AcDbSymbolTableRecord
100
AcDbLinetypeTableRecord
  2
HIDDEN
 70
64
  3
- - - - - - - - - - - - - - - - - - - -
 72
65
 73
2
 40
0.2
 49
0.1
 74
0
 49
-0.1
 74
0
  0
LTYPE
  5
1F7
100
AcDbSymbolTableRecord
100
AcDbLinetypeTableRecord
  2
PHANTOM
 70
64
  3
_____ _ _ _____ _ _ _____ _ _ _____
 72
65
 73
6
 40
0.8
 49
0.45
 74
0
 49
-0.05
 74
0
 49
0.1
 74
0
 49
-0.05
 74
0
 49
0.1
 74
0
 49
-0.05
 74
0
  0
LTYPE
  5
1F8
100
AcDbSymbolTableRecord
100
AcDbLinetypeTableRecord
  2
DOT
 70
64
  3
. . . . . . . . . . . . . . . . . . . .
 72
65
 73
2
 40
0.2
 49
0.1
 74
0
 49
-0.1
 74
0
  0
LTYPE
  5
1F9
100
AcDbSymbolTableRecord
100
AcDbLinetypeTableRecord
  2
DASHED
 70
64
  3
- - - - - - - - - - - - - - - - - - - -
 72
65
 73
2
 40
0.2
 49
0.1
 74
0
 49
-0.1
 74
0
  0
ENDTAB
  0
TABLE
  2
LAYER
  5
2
100
AcDbSymbolTable
 70
36
  0
LAYER
  5
10
100
AcDbSymbolTableRecord
100
AcDbLayerTableRecord
  2
0
 70
0
 62
7
  6
CONTINUOUS
370
-3
390
F
  0
LAYER
  5
1FA
100
AcDbSymbolTableRecord
100
AcDbLayerTableRecord
  2
DEFAULT_1
 70
0
 62
7
  6
CENTER
370
-3
390
F
  0
LAYER
  5
1FB
100
AcDbSymbolTableRecord
100
AcDbLayerTableRecord
  2
DEFAULT_2
 70
0
 62
8
  6
HIDDEN
370
-3
390
F
  0
LAYER
  5
1FC
100
AcDbSymbolTableRecord
100
AcDbLayerTableRecord
  2
DEFAULT_3
 70
0
 62
7
  6
PHANTOM
370
-3
390
F
  0
LAYER
  5
1FD
100
AcDbSymbolTableRecord
100
AcDbLayerTableRecord
  2
_BLACK_HOLE
 70
0
 62
7
  6
CONTINUOUS
370
-3
390
F
  0
LAYER
  5
1FE
100
AcDbSymbolTableRecord
100
AcDbLayerTableRecord
  2
01_ALL_DTM_PLN
 70
0
 62
7
  6
CONTINUOUS
370
-3
390
F
  0
LAYER
  5
1FF
100
AcDbSymbolTableRecord
100
AcDbLayerTableRecord
  2
01__ASM_ALL_DTM_PLN
 70
0
 62
7
  6
CONTINUOUS
370
-3
390
F
  0
LAYER
  5
200
100
AcDbSymbolTableRecord
100
AcDbLayerTableRecord
  2
01__ASM_DEF_DTM_PLN
 70
0
 62
7
  6
CONTINUOUS
370
-3
390
F
  0
LAYER
  5
201
100
AcDbSymbolTableRecord
100
AcDbLayerTableRecord
  2
01___PRT_ALL_DTM_PLN
 70
0
 62
7
  6
CONTINUOUS
370
-3
390
F
  0
LAYER
  5
202
100
AcDbSymbolTableRecord
100
AcDbLayerTableRecord
  2
01___PRT_DEF_DTM_PLN
 70
0
 62
7
  6
CONTINUOUS
370
-3
390
F
  0
LAYER
  5
203
100
AcDbSymbolTableRecord
100
AcDbLayerTableRecord
  2
02_ALL_AXES
 70
0
 62
7
  6
CONTINUOUS
370
-3
390
F
  0
LAYER
  5
204
100
AcDbSymbolTableRecord
100
AcDbLayerTableRecord
  2
02__ASM_ALL_AXES
 70
0
 62
7
  6
CONTINUOUS
370
-3
390
F
  0
LAYER
  5
205
100
AcDbSymbolTableRecord
100
AcDbLayerTableRecord
  2
02___PRT_ALL_AXES
 70
0
 62
7
  6
CONTINUOUS
370
-3
390
F
  0
LAYER
  5
206
100
AcDbSymbolTableRecord
100
AcDbLayerTableRecord
  2
03_ALL_CURVES
 70
0
 62
7
  6
CONTINUOUS
370
-3
390
F
  0
LAYER
  5
207
100
AcDbSymbolTableRecord
100
AcDbLayerTableRecord
  2
03__ASM_ALL_CURVES
 70
0
 62
7
  6
CONTINUOUS
370
-3
390
F
  0
LAYER
  5
208
100
AcDbSymbolTableRecord
100
AcDbLayerTableRecord
  2
03___PRT_ALL_CURVES
 70
0
 62
7
  6
CONTINUOUS
370
-3
390
F
  0
LAYER
  5
209
100
AcDbSymbolTableRecord
100
AcDbLayerTableRecord
  2
04_ALL_DTM_PNT
 70
0
 62
7
  6
CONTINUOUS
370
-3
390
F
  0
LAYER
  5
20A
100
AcDbSymbolTableRecord
100
AcDbLayerTableRecord
  2
04__ASM_ALL_DTM_PNT
 70
0
 62
7
  6
CONTINUOUS
370
-3
390
F
  0
LAYER
  5
20B
100
AcDbSymbolTableRecord
100
AcDbLayerTableRecord
  2
04___PRT_ALL_DTM_PNT
 70
0
 62
7
  6
CONTINUOUS
370
-3
390
F
  0
LAYER
  5
20C
100
AcDbSymbolTableRecord
100
AcDbLayerTableRecord
  2
05_ALL_DTM_CSYS
 70
0
 62
7
  6
CONTINUOUS
370
-3
390
F
  0
LAYER
  5
20D
100
AcDbSymbolTableRecord
100
AcDbLayerTableRecord
  2
05__ASM_ALL_DTM_CSYS
 70
0
 62
7
  6
CONTINUOUS
370
-3
390
F
  0
LAYER
  5
20E
100
AcDbSymbolTableRecord
100
AcDbLayerTableRecord
  2
05__ASM_DEF_DTM_CSYS
 70
0
 62
7
  6
CONTINUOUS
370
-3
390
F
  0
LAYER
  5
20F
100
AcDbSymbolTableRecord
100
AcDbLayerTableRecord
  2
05___PRT_ALL_DTM_CSYS
 70
0
 62
7
  6
CONTINUOUS
370
-3
390
F
  0
LAYER
  5
210
100
AcDbSymbolTableRecord
100
AcDbLayerTableRecord
  2
05___PRT_DEF_DTM_CSYS
 70
0
 62
7
  6
CONTINUOUS
370
-3
390
F
  0
LAYER
  5
211
100
AcDbSymbolTableRecord
100
AcDbLayerTableRecord
  2
06_ALL_SURFS
 70
0
 62
7
  6
CONTINUOUS
370
-3
390
F
  0
LAYER
  5
212
100
AcDbSymbolTableRecord
100
AcDbLayerTableRecord
  2
06__ASM_ALL_SURFS
 70
0
 62
7
  6
CONTINUOUS
370
-3
390
F
  0
LAYER
  5
213
100
AcDbSymbolTableRecord
100
AcDbLayerTableRecord
  2
06___PRT_ALL_SURFS
 70
0
 62
7
  6
CONTINUOUS
370
-3
390
F
  0
LAYER
  5
214
100
AcDbSymbolTableRecord
100
AcDbLayerTableRecord
  2
07__ASM_ALL_SKELETONS
 70
0
 62
7
  6
CONTINUOUS
370
-3
390
F
  0
LAYER
  5
215
100
AcDbSymbolTableRecord
100
AcDbLayerTableRecord
  2
129-007_FEATURES
 70
0
 62
7
  6
CONTINUOUS
370
-3
390
F
  0
LAYER
  5
216
100
AcDbSymbolTableRecord
100
AcDbLayerTableRecord
  2
129-007_REF_GEOMETRY
 70
0
 62
7
  6
CONTINUOUS
370
-3
390
F
  0
LAYER
  5
217
100
AcDbSymbolTableRecord
100
AcDbLayerTableRecord
  2
129-009_FEATURES
 70
0
 62
7
  6
CONTINUOUS
370
-3
390
F
  0
LAYER
  5
218
100
AcDbSymbolTableRecord
100
AcDbLayerTableRecord
  2
129-009_REF_GEOMETRY
 70
0
 62
7
  6
CONTINUOUS
370
-3
390
F
  0
LAYER
  5
219
100
AcDbSymbolTableRecord
100
AcDbLayerTableRecord
  2
129-100_FEATURES
 70
0
 62
7
  6
CONTINUOUS
370
-3
390
F
  0
LAYER
  5
21A
100
AcDbSymbolTableRecord
100
AcDbLayerTableRecord
  2
129-100_REF_GEOMETRY
 70
0
 62
7
  6
CONTINUOUS
370
-3
390
F
  0
LAYER
  5
21B
100
AcDbSymbolTableRecord
100
AcDbLayerTableRecord
  2
129-101_FEATURES
 70
0
 62
7
  6
CONTINUOUS
370
-3
390
F
  0
LAYER
  5
21C
100
AcDbSymbolTableRecord
100
AcDbLayerTableRecord
  2
129-101_REF_GEOMETRY
 70
0
 62
7
  6
CONTINUOUS
370
-3
390
F
  0
LAYER
  5
21D
100
AcDbSymbolTableRecord
100
AcDbLayerTableRecord
  2
129-102_FEATURES
 70
0
 62
7
  6
CONTINUOUS
370
-3
390
F
  0
LAYER
  5
21E
100
AcDbSymbolTableRecord
100
AcDbLayerTableRecord
  2
129-102_REF_GEOMETRY
 70
0
 62
7
  6
CONTINUOUS
370
-3
390
F
  0
LAYER
  5
21F
100
AcDbSymbolTableRecord
100
AcDbLayerTableRecord
  2
129-103_FEATURES
 70
0
 62
7
  6
CONTINUOUS
370
-3
390
F
  0
LAYER
  5
220
100
AcDbSymbolTableRecord
100
AcDbLayerTableRecord
  2
129-103_REF_GEOMETRY
 70
0
 62
7
  6
CONTINUOUS
370
-3
390
F
  0
LAYER
  5
221
100
AcDbSymbolTableRecord
100
AcDbLayerTableRecord
  2
129-104_FEATURES
 70
0
 62
7
  6
CONTINUOUS
370
-3
390
F
  0
LAYER
  5
222
100
AcDbSymbolTableRecord
100
AcDbLayerTableRecord
  2
129-104_REF_GEOMETRY
 70
0
 62
7
  6
CONTINUOUS
370
-3
390
F
  0
LAYER
  5
223
100
AcDbSymbolTableRecord
100
AcDbLayerTableRecord
  2
COPY_GEO_FET
 70
0
 62
7
  6
CONTINUOUS
370
-3
390
F
  0
LAYER
  5
224
100
AcDbSymbolTableRecord
100
AcDbLayerTableRecord
  2
COSMETIC
 70
0
 62
7
  6
CONTINUOUS
370
-3
390
F
  0
LAYER
  5
225
100
AcDbSymbolTableRecord
100
AcDbLayerTableRecord
  2
CURVES
 70
0
 62
7
  6
CONTINUOUS
370
-3
390
F
  0
LAYER
  5
226
100
AcDbSymbolTableRecord
100
AcDbLayerTableRecord
  2
CUT_REF_SURF
 70
0
 62
7
  6
CONTINUOUS
370
-3
390
F
  0
LAYER
  5
227
100
AcDbSymbolTableRecord
100
AcDbLayerTableRecord
  2
DATUM
 70
0
 62
7
  6
CONTINUOUS
370
-3
390
F
  0
LAYER
  5
228
100
AcDbSymbolTableRecord
100
AcDbLayerTableRecord
  2
DATUMCURVES
 70
0
 62
7
  6
CONTINUOUS
370
-3
390
F
  0
LAYER
  5
229
100
AcDbSymbolTableRecord
100
AcDbLayerTableRecord
  2
DIMENSIONS
 70
0
 62
7
  6
CONTINUOUS
370
-3
390
F
  0
LAYER
  5
22A
100
AcDbSymbolTableRecord
100
AcDbLayerTableRecord
  2
DTM
 70
0
 62
7
  6
CONTINUOUS
370
-3
390
F
  0
LAYER
  5
22B
100
AcDbSymbolTableRecord
100
AcDbLayerTableRecord
  2
DTM230
 70
0
 62
7
  6
CONTINUOUS
370
-3
390
F
  0
LAYER
  5
22C
100
AcDbSymbolTableRecord
100
AcDbLayerTableRecord
  2
DTM_500001
 70
0
 62
7
  6
CONTINUOUS
370
-3
390
F
  0
LAYER
  5
22D
100
AcDbSymbolTableRecord
100
AcDbLayerTableRecord
  2
DTM_500002
 70
0
 62
7
  6
CONTINUOUS
370
-3
390
F
  0
LAYER
  5
22E
100
AcDbSymbolTableRecord
100
AcDbLayerTableRecord
  2
DTM_515002
 70
0
 62
7
  6
CONTINUOUS
370
-3
390
F
  0
LAYER
  5
22F
100
AcDbSymbolTableRecord
100
AcDbLayerTableRecord
  2
DTM_SPRING_RH
 70
0
 62
7
  6
CONTINUOUS
370
-3
390
F
  0
LAYER
  5
230
100
AcDbSymbolTableRecord
100
AcDbLayerTableRecord
  2
DTM_SP_RH_CONSTR
 70
0
 62
7
  6
CONTINUOUS
370
-3
390
F
  0
LAYER
  5
231
100
AcDbSymbolTableRecord
100
AcDbLayerTableRecord
  2
GEOMETRICTOLERANCES
 70
0
 62
7
  6
CONTINUOUS
370
-3
390
F
  0
LAYER
  5
232
100
AcDbSymbolTableRecord
100
AcDbLayerTableRecord
  2
PARAMETERDIMENSIONS
 70
0
 62
7
  6
CONTINUOUS
370
-3
390
F
  0
LAYER
  5
233
100
AcDbSymbolTableRecord
100
AcDbLayerTableRecord
  2
PLANE
 70
0
 62
7
  6
CONTINUOUS
370
-3
390
F
  0
LAYER
  5
234
100
AcDbSymbolTableRecord
100
AcDbLayerTableRecord
  2
T-8A_CAVITY
 70
0
 62
7
  6
CONTINUOUS
370
-3
390
F
  0
LAYER
  5
235
100
AcDbSymbolTableRecord
100
AcDbLayerTableRecord
  2
TEXT
 70
0
 62
7
  6
CONTINUOUS
370
-3
390
F
  0
LAYER
  5
236
100
AcDbSymbolTableRecord
100
AcDbLayerTableRecord
  2
THREAD
 70
0
 62
7
  6
CONTINUOUS
370
-3
390
F
  0
ENDTAB
  0
TABLE
  2
STYLE
  5
3
100
AcDbSymbolTable
 70
1
  0
STYLE
  5
11
100
AcDbSymbolTableRecord
100
AcDbTextStyleTableRecord
  2
STANDARD
 70
0
 40
0.0
 41
0.8
 50
0.0
 71
0
 42
0.2
  3
txt
  4

  0
ENDTAB
  0
TABLE
  2
VIEW
  5
6
100
AcDbSymbolTable
 70
0
  0
ENDTAB
  0
TABLE
  2
UCS
  5
7
100
AcDbSymbolTable
 70
0
  0
ENDTAB
  0
TABLE
  2
APPID
  5
9
100
AcDbSymbolTable
 70
1
  0
APPID
  5
237
100
AcDbSymbolTableRecord
100
AcDbRegAppTableRecord
  2
ACAD
 70
0
  0
ENDTAB
  0
TABLE
  2
BLOCK_RECORD
  5
1
100
AcDbSymbolTable
 70
0
  0
BLOCK_RECORD
  5
1F
100
AcDbSymbolTableRecord
100
AcDbBlockTableRecord
  2
*MODEL_SPACE
  0
BLOCK_RECORD
  5
1B
100
AcDbSymbolTableRecord
100
AcDbBlockTableRecord
  2
*PAPER_SPACE
  0
ENDTAB
  0
TABLE
  2
DIMSTYLE
  5
A
100
AcDbSymbolTable
 70
1
100
AcDbDimStyleTable
 71
0
  0
DIMSTYLE
105
238
100
AcDbSymbolTableRecord
100
AcDbDimStyleTableRecord
  2
STANDARD
 70
0
  3

  4

 40
1.0
 41
0.1875
 42
0.0625
 43
0.38
 44
0.18
 45
0.0
 46
0.0
 47
0.01
 48
0.01
140
0.15625
141
0.09
142
0.0
143
25.4
144
1.0
145
0.0
146
1.0
147
0.09
 71
0.0
 72
0.0
 73
1
 74
1
 75
0
 76
0
 77
0
 78
4
170
0
171
2
172
0
173
0
174
0
175
0
176
0
177
0
178
0
270
2
271
2
272
2
273
2
274
2
275
0
280
0
281
0
282
0
283
1
284
4
285
0
286
0
287
3
288
0
340
11
  0
ENDTAB
  0
ENDSEC
  0
SECTION
  2
BLOCKS
  0
BLOCK
  5
20
100
AcDbEntity
  8
0
100
AcDbBlockBegin
  2
*MODEL_SPACE
 70
0
 10
0.0
 20
0.0
 30
0.0
  3
*MODEL_SPACE
  1

  0
ENDBLK
  5
21
100
AcDbEntity
  8
0
100
AcDbBlockEnd
  0
BLOCK
  5
1C
100
AcDbEntity
  8
0
100
AcDbBlockBegin
  2
*PAPER_SPACE
 70
0
 10
0.0
 20
0.0
 30
0.0
  3
*PAPER_SPACE
  1

  0
ENDBLK
  5
1D
100
AcDbEntity
  8
0
100
AcDbBlockEnd
  0
ENDSEC
  0
SECTION
  2
ENTITIES
  0
LINE
  5
239
100
AcDbEntity
  8
0
100
AcDbLine
 62
7
  6
CONTINUOUS
 10
3.4271265174
 20
5.3027836826
 11
3.3601538861
 21
5.1867836826
  0
LINE
  5
23A
100
AcDbEntity
  8
03__ASM_ALL_CURVES
100
AcDbLine
 62
40
  6
CONTINUOUS
 10
3.7110476361
 20
5.7564478471
 11
3.7177866986
 21
5.7654332681
  0
LINE
  5
23B
100
AcDbEntity
  8
03__ASM_ALL_CURVES
100
AcDbLine
 62
40
  6
CONTINUOUS
 10
3.7043085736
 20
5.7025353503
 11
3.7177866986
 21
5.7205061826
  0
LINE
  5
23C
100
AcDbEntity
  8
03__ASM_ALL_CURVES
100
AcDbLine
 62
40
  6
CONTINUOUS
 10
3.7649601361
 20
5.7474624326
 11
3.7582210736
 21
5.7384770181
  0
LINE
  5
23D
100
AcDbEntity
  8
0
100
AcDbLine
 62
7
  6
CONTINUOUS
 10
3.3601538861
 20
3.5727836826
 11
3.3601538861
 21
5.1867836826
  0
LINE
  5
23E
100
AcDbEntity
  8
03__ASM_ALL_CURVES
100
AcDbLine
 62
40
  6
CONTINUOUS
 10
3.3601538861
 20
5.1867836826
 11
3.3601538861
 21
5.6665936826
  0
LINE
  5
23F
100
AcDbEntity
  8
03__ASM_ALL_CURVES
100
AcDbLine
 62
40
  6
CONTINUOUS
 10
3.4145288861
 20
5.7744186826
 11
3.4145288861
 21
5.6665936826
  0
LINE
  5
240
100
AcDbEntity
  8
0
100
AcDbLine
 62
7
  6
CONTINUOUS
 10
3.4271265174
 20
3.4567836826
 11
3.4271265174
 21
3.457179024
  0
LINE
  5
241
100
AcDbEntity
  8
0
100
AcDbLine
 62
7
  6
CONTINUOUS
 10
3.4271265174
 20
3.8950883411
 11
3.4271265174
 21
3.9418743655
  0
LINE
  5
242
100
AcDbEntity
  8
0
100
AcDbLine
 62
7
  6
CONTINUOUS
 10
3.4271265174
 20
4.8176929997
 11
3.4271265174
 21
4.864479024
  0
LINE
  5
243
100
AcDbEntity
  8
0
100
AcDbLine
 62
7
  6
CONTINUOUS
 10
3.4271265174
 20
5.3023883411
 11
3.4271265174
 21
5.3027836826
  0
LINE
  5
244
100
AcDbEntity
  8
03__ASM_ALL_CURVES
100
AcDbLine
 62
40
  6
CONTINUOUS
 10
3.4895438861
 20
5.6450286826
 11
3.4895438861
 21
5.6018986826
  0
LINE
  5
245
100
AcDbEntity
  8
03__ASM_ALL_CURVES
100
AcDbLine
 62
40
  6
CONTINUOUS
 10
3.7716991986
 20
5.6935499326
 11
3.7582210736
 21
5.6755790995
  0
LINE
  5
246
100
AcDbEntity
  8
03__ASM_ALL_CURVES
100
AcDbLine
 62
40
  6
CONTINUOUS
 10
3.8525679486
 20
5.7744186826
 11
3.8390898236
 21
5.7564478471
  0
LINE
  5
247
100
AcDbEntity
  8
03__ASM_ALL_CURVES
100
AcDbLine
 62
40
  6
CONTINUOUS
 10
3.9266976361
 20
5.7564478471
 11
3.9334366986
 21
5.7654332681
  0
LINE
  5
248
100
AcDbEntity
  8
03__ASM_ALL_CURVES
100
AcDbLine
 62
40
  6
CONTINUOUS
 10
3.9469148236
 20
5.7115207649
 11
3.9334366986
 21
5.6935499326
  0
LINE
  5
249
100
AcDbEntity
  8
03__ASM_ALL_CURVES
100
AcDbLine
 62
40
  6
CONTINUOUS
 10
3.9806101361
 20
5.7384770181
 11
3.9738710736
 21
5.7294915971
  0
LINE
  5
24A
100
AcDbEntity
  8
03__ASM_ALL_CURVES
100
AcDbLine
 62
40
  6
CONTINUOUS
 10
4.0412616986
 20
5.7564478471
 11
4.0480007611
 21
5.7654332681
  0
LINE
  5
24B
100
AcDbEntity
  8
03__ASM_ALL_CURVES
100
AcDbLine
 62
40
  6
CONTINUOUS
 10
3.7177866986
 20
5.7654332681
 11
3.7312648236
 21
5.7744186826
  0
LINE
  5
24C
100
AcDbEntity
  8
03__ASM_ALL_CURVES
100
AcDbLine
 62
40
  6
CONTINUOUS
 10
3.7177866986
 20
5.7205061826
 11
3.7312648236
 21
5.7294915971
  0
LINE
  5
24D
100
AcDbEntity
  8
03__ASM_ALL_CURVES
100
AcDbLine
 62
40
  6
CONTINUOUS
 10
3.7582210736
 20
5.7384770181
 11
3.7447429486
 21
5.7294915971
  0
LINE
  5
24E
100
AcDbEntity
  8
03__ASM_ALL_CURVES
100
AcDbLine
 62
40
  6
CONTINUOUS
 10
3.7582210736
 20
5.6755790995
 11
3.7447429486
 21
5.6665936826
  0
LINE
  5
24F
100
AcDbEntity
  8
0
100
AcDbLine
 62
7
  6
CONTINUOUS
 10
3.4271265174
 20
3.4567836826
 11
3.3601538861
 21
3.5727836826
  0
LINE
  5
250
100
AcDbEntity
  8
03__ASM_ALL_CURVES
100
AcDbLine
 62
40
  6
CONTINUOUS
 10
3.5156148236
 20
5.6665936826
 11
3.5156148236
 21
5.6755790995
  0
LINE
  5
251
100
AcDbEntity
  8
03__ASM_ALL_CURVES
100
AcDbLine
 62
40
  6
CONTINUOUS
 10
3.6301788861
 20
5.7744186826
 11
3.6301788861
 21
5.6665936826
  0
LINE
  5
252
100
AcDbEntity
  8
03__ASM_ALL_CURVES
100
AcDbLine
 62
40
  6
CONTINUOUS
 10
3.7043085736
 20
5.6935499326
 11
3.7043085736
 21
5.7025353503
  0
LINE
  5
253
100
AcDbEntity
  8
03__ASM_ALL_CURVES
100
AcDbLine
 62
40
  6
CONTINUOUS
 10
3.8390898236
 20
5.7564478471
 11
3.8323507611
 21
5.7294915971
  0
LINE
  5
254
100
AcDbEntity
  8
03__ASM_ALL_CURVES
100
AcDbLine
 62
40
  6
CONTINUOUS
 10
3.9334366986
 20
5.6935499326
 11
3.9266976361
 21
5.6665936826
  0
LINE
  5
255
100
AcDbEntity
  8
03__ASM_ALL_CURVES
100
AcDbLine
 62
40
  6
CONTINUOUS
 10
4.0345226361
 20
5.7384770181
 11
4.0412616986
 21
5.7564478471
  0
LINE
  5
256
100
AcDbEntity
  8
03__ASM_ALL_CURVES
100
AcDbLine
 62
40
  6
CONTINUOUS
 10
4.0884351361
 20
5.7384770181
 11
4.0816960736
 21
5.7205061826
  0
LINE
  5
257
100
AcDbEntity
  8
03__ASM_ALL_CURVES
100
AcDbLine
 62
40
  6
CONTINUOUS
 10
4.0884351361
 20
5.7025353503
 11
4.0816960736
 21
5.6845645165
  0
LINE
  5
258
100
AcDbEntity
  8
03__ASM_ALL_CURVES
100
AcDbLine
 62
40
  6
CONTINUOUS
 10
4.0816960736
 20
5.6845645165
 11
4.0749570111
 21
5.6755790995
  0
LINE
  5
259
100
AcDbEntity
  8
03__ASM_ALL_CURVES
100
AcDbLine
 62
40
  6
CONTINUOUS
 10
4.2569116986
 20
5.7564478471
 11
4.2636507611
 21
5.7654332681
  0
LINE
  5
25A
100
AcDbEntity
  8
03__ASM_ALL_CURVES
100
AcDbLine
 62
40
  6
CONTINUOUS
 10
3.9334366986
 20
5.7654332681
 11
3.9469148236
 21
5.7744186826
  0
LINE
  5
25B
100
AcDbEntity
  8
03__ASM_ALL_CURVES
100
AcDbLine
 62
40
  6
CONTINUOUS
 10
3.9738710736
 20
5.7294915971
 11
3.9469148236
 21
5.7115207649
  0
LINE
  5
25C
100
AcDbEntity
  8
03__ASM_ALL_CURVES
100
AcDbLine
 62
40
  6
CONTINUOUS
 10
4.0480007611
 20
5.7654332681
 11
4.0614788861
 21
5.7744186826
  0
LINE
  5
25D
100
AcDbEntity
  8
03__ASM_ALL_CURVES
100
AcDbLine
 62
40
  6
CONTINUOUS
 10
4.0749570111
 20
5.6755790995
 11
4.0614788861
 21
5.6665936826
  0
LINE
  5
25E
100
AcDbEntity
  8
03__ASM_ALL_CURVES
100
AcDbLine
 62
40
  6
CONTINUOUS
 10
3.7110476361
 20
5.7474624326
 11
3.7110476361
 21
5.7564478471
  0
LINE
  5
25F
100
AcDbEntity
  8
03__ASM_ALL_CURVES
100
AcDbLine
 62
40
  6
CONTINUOUS
 10
3.7649601361
 20
5.7564478471
 11
3.7649601361
 21
5.7474624326
  0
LINE
  5
260
100
AcDbEntity
  8
03__ASM_ALL_CURVES
100
AcDbLine
 62
40
  6
CONTINUOUS
 10
3.7716991986
 20
5.7025353503
 11
3.7716991986
 21
5.6935499326
  0
LINE
  5
261
100
AcDbEntity
  8
03__ASM_ALL_CURVES
100
AcDbLine
 62
40
  6
CONTINUOUS
 10
3.8323507611
 20
5.7294915971
 11
3.8323507611
 21
5.7115207649
  0
LINE
  5
262
100
AcDbEntity
  8
03__ASM_ALL_CURVES
100
AcDbLine
 62
40
  6
CONTINUOUS
 10
4.2501726361
 20
5.7384770181
 11
4.2569116986
 21
5.7564478471
  0
LINE
  5
263
100
AcDbEntity
  8
03__ASM_ALL_CURVES
100
AcDbLine
 62
40
  6
CONTINUOUS
 10
4.3040851361
 20
5.7384770181
 11
4.2973460736
 21
5.7205061826
  0
LINE
  5
264
100
AcDbEntity
  8
03__ASM_ALL_CURVES
100
AcDbLine
 62
40
  6
CONTINUOUS
 10
4.2973460736
 20
5.6845645165
 11
4.2906070111
 21
5.6755790995
  0
LINE
  5
265
100
AcDbEntity
  8
03__ASM_ALL_CURVES
100
AcDbLine
 62
40
  6
CONTINUOUS
 10
4.2636507611
 20
5.7654332681
 11
4.2771288861
 21
5.7744186826
  0
LINE
  5
266
100
AcDbEntity
  8
03__ASM_ALL_CURVES
100
AcDbLine
 62
40
  6
CONTINUOUS
 10
4.2906070111
 20
5.6755790995
 11
4.2771288861
 21
5.6665936826
  0
LINE
  5
267
100
AcDbEntity
  8
03__ASM_ALL_CURVES
100
AcDbLine
 62
40
  6
CONTINUOUS
 10
4.0816960736
 20
5.7205061826
 11
4.0614788861
 21
5.7115207649
  0
LINE
  5
268
100
AcDbEntity
  8
03__ASM_ALL_CURVES
100
AcDbLine
 62
40
  6
CONTINUOUS
 10
4.2973460736
 20
5.7205061826
 11
4.2771288861
 21
5.7115207649
  0
LINE
  5
269
100
AcDbEntity
  8
03__ASM_ALL_CURVES
100
AcDbLine
 62
40
  6
CONTINUOUS
 10
3.9806101361
 20
5.7564478471
 11
3.9806101361
 21
5.7384770181
  0
LINE
  5
26A
100
AcDbEntity
  8
03__ASM_ALL_CURVES
100
AcDbLine
 62
40
  6
CONTINUOUS
 10
4.0884351361
 20
5.7384770181
 11
4.0884351361
 21
5.7025353503
  0
LINE
  5
26B
100
AcDbEntity
  8
03__ASM_ALL_CURVES
100
AcDbLine
 62
40
  6
CONTINUOUS
 10
4.3916929486
 20
5.7115207649
 11
4.3984320111
 21
5.7384770181
  0
LINE
  5
26C
100
AcDbEntity
  8
03__ASM_ALL_CURVES
100
AcDbLine
 62
40
  6
CONTINUOUS
 10
4.3040851361
 20
5.7025353503
 11
4.2973460736
 21
5.6845645165
  0
LINE
  5
26D
100
AcDbEntity
  8
03__ASM_ALL_CURVES
100
AcDbLine
 62
40
  6
CONTINUOUS
 10
4.3984320111
 20
5.7384770181
 11
4.4119101361
 21
5.7744186826
  0
LINE
  5
26E
100
AcDbEntity
  8
0
100
AcDbLine
 62
7
  6
CONTINUOUS
 10
4.3591538861
 20
5.4092836826
 11
4.2976660825
 21
5.3027836826
  0
LINE
  5
26F
100
AcDbEntity
  8
03__ASM_ALL_CURVES
100
AcDbLine
 62
40
  6
CONTINUOUS
 10
4.4995179486
 20
5.6845645165
 11
4.4860398236
 21
5.6665936826
  0
LINE
  5
270
100
AcDbEntity
  8
03__ASM_ALL_CURVES
100
AcDbLine
 62
40
  6
CONTINUOUS
 10
4.8342379478
 20
5.7654332681
 11
4.8477160728
 21
5.7744186826
  0
LINE
  5
271
100
AcDbEntity
  8
0
100
AcDbLine
 62
7
  6
CONTINUOUS
 10
4.3591538861
 20
3.3502836826
 11
4.2976660825
 21
3.4567836826
  0
LINE
  5
272
100
AcDbEntity
  8
03__ASM_ALL_CURVES
100
AcDbLine
 62
40
  6
CONTINUOUS
 10
4.1625648236
 20
5.6665936826
 11
4.1625648236
 21
5.6755790995
  0
LINE
  5
273
100
AcDbEntity
  8
03__ASM_ALL_CURVES
100
AcDbLine
 62
40
  6
CONTINUOUS
 10
4.3849538861
 20
5.6665936826
 11
4.3916929486
 21
5.7115207649
  0
LINE
  5
274
100
AcDbEntity
  8
03__ASM_ALL_CURVES
100
AcDbLine
 62
40
  6
CONTINUOUS
 10
4.5062570111
 20
5.7115207649
 11
4.4995179486
 21
5.6845645165
  0
LINE
  5
275
100
AcDbEntity
  8
03__ASM_ALL_CURVES
100
AcDbLine
 62
40
  6
CONTINUOUS
 10
4.8207598228
 20
5.7474624326
 11
4.8342379478
 21
5.7654332681
  0
LINE
  5
276
100
AcDbEntity
  8
03__ASM_ALL_CURVES
100
AcDbLine
 62
40
  6
CONTINUOUS
 10
4.8881504478
 20
5.6935499326
 11
4.8746723228
 21
5.6755790995
  0
LINE
  5
277
100
AcDbEntity
  8
03__ASM_ALL_CURVES
100
AcDbLine
 62
40
  6
CONTINUOUS
 10
4.9285848228
 20
5.7474624326
 11
4.9420629478
 21
5.7654332681
  0
LINE
  5
278
100
AcDbEntity
  8
03__ASM_ALL_CURVES
100
AcDbLine
 62
40
  6
CONTINUOUS
 10
4.9420629478
 20
5.7654332681
 11
4.9555410728
 21
5.7744186826
  0
LINE
  5
279
100
AcDbEntity
  8
03__ASM_ALL_CURVES
100
AcDbLine
 62
40
  6
CONTINUOUS
 10
4.8746723228
 20
5.6755790995
 11
4.8611941978
 21
5.6665936826
  0
LINE
  5
27A
100
AcDbEntity
  8
03__ASM_ALL_CURVES
100
AcDbLine
 62
40
  6
CONTINUOUS
 10
4.9824973228
 20
5.6755790995
 11
4.9690191978
 21
5.6665936826
  0
LINE
  5
27B
100
AcDbEntity
  8
03__ASM_ALL_CURVES
100
AcDbLine
 62
40
  6
CONTINUOUS
 10
3.8323507611
 20
5.7115207649
 11
3.8390898236
 21
5.6845645165
  0
LINE
  5
27C
100
AcDbEntity
  8
0
100
AcDbLine
 62
7
  6
CONTINUOUS
 10
4.2976660825
 20
3.4567836826
 11
4.2976660825
 21
5.3027836826
  0
LINE
  5
27D
100
AcDbEntity
  8
03__ASM_ALL_CURVES
100
AcDbLine
 62
40
  6
CONTINUOUS
 10
4.3040851361
 20
5.7384770181
 11
4.3040851361
 21
5.7025353503
  0
LINE
  5
27E
100
AcDbEntity
  8
0
100
AcDbLine
 62
7
  6
CONTINUOUS
 10
4.3591538861
 20
3.3502836826
 11
4.3591538861
 21
5.4092836826
  0
LINE
  5
27F
100
AcDbEntity
  8
03__ASM_ALL_CURVES
100
AcDbLine
 62
40
  6
CONTINUOUS
 10
4.4177638861
 20
5.6450286826
 11
4.4177638861
 21
5.6018986826
  0
LINE
  5
280
100
AcDbEntity
  8
THREAD
100
AcDbLine
 62
7
  6
CONTINUOUS
 10
4.7981761001
 20
5.3212836826
 11
4.7681538861
 21
5.2692836826
  0
LINE
  5
281
100
AcDbEntity
  8
03__ASM_ALL_CURVES
100
AcDbLine
 62
40
  6
CONTINUOUS
 10
4.9892363853
 20
5.6845645165
 11
4.9824973228
 21
5.6755790995
  0
LINE
  5
282
100
AcDbEntity
  8
03__ASM_ALL_CURVES
100
AcDbLine
 62
40
  6
CONTINUOUS
 10
5.4811879478
 20
5.7654332681
 11
5.4946660728
 21
5.7744186826
  0
LINE
  5
283
100
AcDbEntity
  8
03__ASM_ALL_CURVES
100
AcDbLine
 62
40
  6
CONTINUOUS
 10
6.62920134
 20
2.7999161826
 11
6.588766965
 21
2.7999161826
  0
LINE
  5
284
100
AcDbEntity
  8
03__ASM_ALL_CURVES
100
AcDbLine
 62
40
  6
CONTINUOUS
 10
6.3714321994
 20
2.7999161826
 11
6.3613236056
 21
2.7999161826
  0
LINE
  5
285
100
AcDbEntity
  8
03__ASM_ALL_CURVES
100
AcDbLine
 62
40
  6
CONTINUOUS
 10
6.2905634494
 20
2.7999161826
 11
6.2804548556
 21
2.7999161826
  0
LINE
  5
286
100
AcDbEntity
  8
03__ASM_ALL_CURVES
100
AcDbLine
 62
40
  6
CONTINUOUS
 10
6.507898215
 20
2.7999161826
 11
6.54833259
 21
2.7999161826
  0
LINE
  5
287
100
AcDbEntity
  8
03__ASM_ALL_CURVES
100
AcDbLine
 62
40
  6
CONTINUOUS
 10
6.588766965
 20
2.8403505576
 11
6.6140384494
 21
2.8403505576
  0
LINE
  5
288
100
AcDbEntity
  8
03__ASM_ALL_CURVES
100
AcDbLine
 62
40
  6
CONTINUOUS
 10
6.2804548556
 20
2.8807849326
 11
6.2905634494
 21
2.8807849326
  0
LINE
  5
289
100
AcDbEntity
  8
03__ASM_ALL_CURVES
100
AcDbLine
 62
40
  6
CONTINUOUS
 10
6.4219751681
 20
2.8807849326
 11
6.4725181369
 21
2.8807849326
  0
LINE
  5
28A
100
AcDbEntity
  8
03__ASM_ALL_CURVES
100
AcDbLine
 62
40
  6
CONTINUOUS
 10
6.588766965
 20
2.8807849326
 11
6.62920134
 21
2.8807849326
  0
LINE
  5
28B
100
AcDbEntity
  8
03__ASM_ALL_CURVES
100
AcDbLine
 62
40
  6
CONTINUOUS
 10
6.6645814181
 20
2.8807849326
 11
6.7151243869
 21
2.8807849326
  0
LINE
  5
28C
100
AcDbEntity
  8
03__ASM_ALL_CURVES
100
AcDbLine
 62
40
  6
CONTINUOUS
 10
6.4093393788
 20
2.9239149326
 11
6.3992307851
 21
2.9239149326
  0
LINE
  5
28D
100
AcDbEntity
  8
03__ASM_ALL_CURVES
100
AcDbLine
 62
40
  6
CONTINUOUS
 10
6.6266741445
 20
2.9239149326
 11
6.6671085195
 21
2.9239149326
  0
LINE
  5
28E
100
AcDbEntity
  8
03__ASM_ALL_CURVES
100
AcDbLine
 62
40
  6
CONTINUOUS
 10
4.5062570111
 20
5.7294915971
 11
4.5062570111
 21
5.7115207649
  0
LINE
  5
28F
100
AcDbEntity
  8
0
100
AcDbLine
 62
7
  6
CONTINUOUS
 10
4.5471538861
 20
3.3502836826
 11
4.5471538861
 21
5.4092836826
  0
LINE
  5
290
100
AcDbEntity
  8
03__ASM_ALL_CURVES
100
AcDbLine
 62
40
  6
CONTINUOUS
 10
4.5471538861
 20
5.4308486826
 11
4.5471538861
 21
5.6665936826
  0
LINE
  5
291
100
AcDbEntity
  8
THREAD
100
AcDbLine
 62
7
  6
CONTINUOUS
 10
4.5941538861
 20
3.4262836826
 11
4.5941538861
 21
5.3332836826
  0
LINE
  5
292
100
AcDbEntity
  8
03__ASM_ALL_CURVES
100
AcDbLine
 62
40
  6
CONTINUOUS
 10
4.8140207603
 20
5.7205061826
 11
4.8207598228
 21
5.7474624326
  0
LINE
  5
293
100
AcDbEntity
  8
03__ASM_ALL_CURVES
100
AcDbLine
 62
40
  6
CONTINUOUS
 10
4.8948895103
 20
5.7205061826
 11
4.8881504478
 21
5.6935499326
  0
LINE
  5
294
100
AcDbEntity
  8
03__ASM_ALL_CURVES
100
AcDbLine
 62
40
  6
CONTINUOUS
 10
4.9218457603
 20
5.7205061826
 11
4.9285848228
 21
5.7474624326
  0
LINE
  5
295
100
AcDbEntity
  8
03__ASM_ALL_CURVES
100
AcDbLine
 62
40
  6
CONTINUOUS
 10
5.0364098228
 20
5.6665936826
 11
5.0701051353
 21
5.7744186826
  0
LINE
  5
296
100
AcDbEntity
  8
03__ASM_ALL_CURVES
100
AcDbLine
 62
40
  6
CONTINUOUS
 10
5.4677098228
 20
5.7474624326
 11
5.4811879478
 21
5.7654332681
  0
LINE
  5
297
100
AcDbEntity
  8
03__ASM_ALL_CURVES
100
AcDbLine
 62
40
  6
CONTINUOUS
 10
5.5216223228
 20
5.6755790995
 11
5.5081441978
 21
5.6665936826
  0
LINE
  5
298
100
AcDbEntity
  8
03__ASM_ALL_CURVES
100
AcDbLine
 62
40
  6
CONTINUOUS
 10
5.7103160728
 20
5.7744186826
 11
5.6968379478
 21
5.7654332681
  0
LINE
  5
299
100
AcDbEntity
  8
03__ASM_ALL_CURVES
100
AcDbLine
 62
40
  6
CONTINUOUS
 10
5.7372723228
 20
5.6755790995
 11
5.7237941978
 21
5.6665936826
  0
LINE
  5
29A
100
AcDbEntity
  8
03__ASM_ALL_CURVES
100
AcDbLine
 62
40
  6
CONTINUOUS
 10
5.9124879478
 20
5.7654332681
 11
5.9259660728
 21
5.7744186826
  0
LINE
  5
29B
100
AcDbEntity
  8
03__ASM_ALL_CURVES
100
AcDbLine
 62
40
  6
CONTINUOUS
 10
6.4902081288
 20
2.9643493076
 11
6.4649366445
 21
2.9643493076
  0
LINE
  5
29C
100
AcDbEntity
  8
03__ASM_ALL_CURVES
100
AcDbLine
 62
40
  6
CONTINUOUS
 10
6.3284706288
 20
2.9643493076
 11
6.3031991445
 21
2.9643493076
  0
LINE
  5
29D
100
AcDbEntity
  8
03__ASM_ALL_CURVES
100
AcDbLine
 62
40
  6
CONTINUOUS
 10
6.3031991445
 20
3.0047836826
 11
6.3284706288
 21
3.0047836826
  0
LINE
  5
29E
100
AcDbEntity
  8
03__ASM_ALL_CURVES
100
AcDbLine
 62
40
  6
CONTINUOUS
 10
6.3992307851
 20
3.0047836826
 11
6.4093393788
 21
3.0047836826
  0
LINE
  5
29F
100
AcDbEntity
  8
03__ASM_ALL_CURVES
100
AcDbLine
 62
40
  6
CONTINUOUS
 10
6.4649366445
 20
3.0047836826
 11
6.4902081288
 21
3.0047836826
  0
LINE
  5
2A0
100
AcDbEntity
  8
03__ASM_ALL_CURVES
100
AcDbLine
 62
40
  6
CONTINUOUS
 10
6.5407510976
 20
3.0047836826
 11
6.5912940663
 21
3.0047836826
  0
LINE
  5
2A1
100
AcDbEntity
  8
03__ASM_ALL_CURVES
100
AcDbLine
 62
40
  6
CONTINUOUS
 10
6.6418370351
 20
3.0047836826
 11
6.6519456288
 21
3.0047836826
  0
LINE
  5
2A2
100
AcDbEntity
  8
THREAD
100
AcDbLine
 62
7
  6
CONTINUOUS
 10
4.7981761001
 20
3.4382836826
 11
4.7681538861
 21
3.4902836826
  0
LINE
  5
2A3
100
AcDbEntity
  8
03__ASM_ALL_CURVES
100
AcDbLine
 62
40
  6
CONTINUOUS
 10
4.0412616986
 20
5.7205061826
 11
4.0345226361
 21
5.7384770181
  0
LINE
  5
2A4
100
AcDbEntity
  8
03__ASM_ALL_CURVES
100
AcDbLine
 62
40
  6
CONTINUOUS
 10
4.6765438861
 20
5.6450286826
 11
4.6765438861
 21
5.6018986826
  0
LINE
  5
2A5
100
AcDbEntity
  8
0
100
AcDbLine
 62
7
  6
CONTINUOUS
 10
4.6971538861
 20
3.4257836826
 11
4.6971538861
 21
5.3337836826
  0
LINE
  5
2A6
100
AcDbEntity
  8
03__ASM_ALL_CURVES
100
AcDbLine
 62
40
  6
CONTINUOUS
 10
4.7196738853
 20
5.7744186826
 11
4.7196738853
 21
5.6665936826
  0
LINE
  5
2A7
100
AcDbEntity
  8
0
100
AcDbLine
 62
7
  6
CONTINUOUS
 10
4.7471538861
 20
3.4257836826
 11
4.7471538861
 21
5.3337836826
  0
LINE
  5
2A8
100
AcDbEntity
  8
0
100
AcDbLine
 62
7
  6
CONTINUOUS
 10
4.7681538861
 20
3.4902836826
 11
4.7681538861
 21
5.2692836826
  0
LINE
  5
2A9
100
AcDbEntity
  8
THREAD
100
AcDbLine
 62
7
  6
CONTINUOUS
 10
4.7981761001
 20
3.4382836826
 11
4.7981761001
 21
5.3212836826
  0
LINE
  5
2AA
100
AcDbEntity
  8
03__ASM_ALL_CURVES
100
AcDbLine
 62
40
  6
CONTINUOUS
 10
5.5283613853
 20
5.6845645165
 11
5.5216223228
 21
5.6755790995
  0
LINE
  5
2AB
100
AcDbEntity
  8
03__ASM_ALL_CURVES
100
AcDbLine
 62
40
  6
CONTINUOUS
 10
5.6968379478
 20
5.7654332681
 11
5.6900988853
 21
5.7564478471
  0
LINE
  5
2AC
100
AcDbEntity
  8
03__ASM_ALL_CURVES
100
AcDbLine
 62
40
  6
CONTINUOUS
 10
5.9529223228
 20
5.6755790995
 11
5.9394441978
 21
5.6665936826
  0
LINE
  5
2AD
100
AcDbEntity
  8
03__ASM_ALL_CURVES
100
AcDbLine
 62
40
  6
CONTINUOUS
 10
6.0607473228
 20
5.6755790995
 11
6.0472691978
 21
5.6665936826
  0
LINE
  5
2AE
100
AcDbEntity
  8
03__ASM_ALL_CURVES
100
AcDbLine
 62
40
  6
CONTINUOUS
 10
6.2804548556
 20
2.7999161826
 11
6.2703462619
 21
2.8066552453
  0
LINE
  5
2AF
100
AcDbEntity
  8
03__ASM_ALL_CURVES
100
AcDbLine
 62
40
  6
CONTINUOUS
 10
3.5156148236
 20
5.6755790995
 11
3.5223538861
 21
5.6665936826
  0
LINE
  5
2B0
100
AcDbEntity
  8
03__ASM_ALL_CURVES
100
AcDbLine
 62
40
  6
CONTINUOUS
 10
4.0816960736
 20
5.7564478471
 11
4.0884351361
 21
5.7384770181
  0
LINE
  5
2B1
100
AcDbEntity
  8
03__ASM_ALL_CURVES
100
AcDbLine
 62
40
  6
CONTINUOUS
 10
4.2569116986
 20
5.7205061826
 11
4.2501726361
 21
5.7384770181
  0
LINE
  5
2B2
100
AcDbEntity
  8
03__ASM_ALL_CURVES
100
AcDbLine
 62
40
  6
CONTINUOUS
 10
5.7440113853
 20
5.6845645165
 11
5.7372723228
 21
5.6755790995
  0
LINE
  5
2B3
100
AcDbEntity
  8
03__ASM_ALL_CURVES
100
AcDbLine
 62
40
  6
CONTINUOUS
 10
5.8990098228
 20
5.7474624326
 11
5.9124879478
 21
5.7654332681
  0
LINE
  5
2B4
100
AcDbEntity
  8
03__ASM_ALL_CURVES
100
AcDbLine
 62
40
  6
CONTINUOUS
 10
6.2696582603
 20
5.6755790995
 11
6.2561801353
 21
5.6665936826
  0
LINE
  5
2B5
100
AcDbEntity
  8
03__ASM_ALL_CURVES
100
AcDbLine
 62
40
  6
CONTINUOUS
 10
6.4920473228
 20
5.7294915971
 11
6.4785691978
 21
5.7205061826
  0
LINE
  5
2B6
100
AcDbEntity
  8
0
100
AcDbLine
 62
7
  6
CONTINUOUS
 10
4.5471538861
 20
3.3502836826
 11
4.3591538861
 21
3.3502836826
  0
LINE
  5
2B7
100
AcDbEntity
  8
0
100
AcDbLine
 62
7
  6
CONTINUOUS
 10
4.6971538861
 20
3.4257836826
 11
4.7471538861
 21
3.4257836826
  0
LINE
  5
2B8
100
AcDbEntity
  8
THREAD
100
AcDbLine
 62
7
  6
CONTINUOUS
 10
4.5941538861
 20
3.4262836826
 11
4.5471538861
 21
3.4262836826
  0
LINE
  5
2B9
100
AcDbEntity
  8
THREAD
100
AcDbLine
 62
7
  6
CONTINUOUS
 10
5.2676538861
 20
3.4382836826
 11
4.7981761001
 21
3.4382836826
  0
LINE
  5
2BA
100
AcDbEntity
  8
0
100
AcDbLine
 62
7
  6
CONTINUOUS
 10
4.2976660825
 20
3.4567836826
 11
3.4271265174
 21
3.4567836826
  0
LINE
  5
2BB
100
AcDbEntity
  8
0
100
AcDbLine
 62
7
  6
CONTINUOUS
 10
4.2976660825
 20
3.457179024
 11
3.4271265174
 21
3.457179024
  0
LINE
  5
2BC
100
AcDbEntity
  8
THREAD
100
AcDbLine
 62
7
  6
CONTINUOUS
 10
5.5961538861
 20
3.5357836826
 11
5.3651538861
 21
3.5357836826
  0
LINE
  5
2BD
100
AcDbEntity
  8
03__ASM_ALL_CURVES
100
AcDbLine
 62
40
  6
CONTINUOUS
 10
6.3613236056
 20
2.7999161826
 11
6.3512150119
 21
2.8066552453
  0
LINE
  5
2BE
100
AcDbEntity
  8
03__ASM_ALL_CURVES
100
AcDbLine
 62
40
  6
CONTINUOUS
 10
6.2905634494
 20
2.8807849326
 11
6.3006720431
 21
2.8740458717
  0
LINE
  5
2BF
100
AcDbEntity
  8
03__ASM_ALL_CURVES
100
AcDbLine
 62
40
  6
CONTINUOUS
 10
6.3992307851
 20
2.9239149326
 11
6.3891221913
 21
2.9306539953
  0
LINE
  5
2C0
100
AcDbEntity
  8
03__ASM_ALL_CURVES
100
AcDbLine
 62
40
  6
CONTINUOUS
 10
6.3284706288
 20
3.0047836826
 11
6.3385792226
 21
2.9980446217
  0
LINE
  5
2C1
100
AcDbEntity
  8
03__ASM_ALL_CURVES
100
AcDbLine
 62
40
  6
CONTINUOUS
 10
3.7177866986
 20
5.6755790995
 11
3.7043085736
 21
5.6935499326
  0
LINE
  5
2C2
100
AcDbEntity
  8
03__ASM_ALL_CURVES
100
AcDbLine
 62
40
  6
CONTINUOUS
 10
3.7177866986
 20
5.7384770181
 11
3.7110476361
 21
5.7474624326
  0
LINE
  5
2C3
100
AcDbEntity
  8
03__ASM_ALL_CURVES
100
AcDbLine
 62
40
  6
CONTINUOUS
 10
3.7582210736
 20
5.7205061826
 11
3.7716991986
 21
5.7025353503
  0
LINE
  5
2C4
100
AcDbEntity
  8
03__ASM_ALL_CURVES
100
AcDbLine
 62
40
  6
CONTINUOUS
 10
3.7582210736
 20
5.7654332681
 11
3.7649601361
 21
5.7564478471
  0
LINE
  5
2C5
100
AcDbEntity
  8
03__ASM_ALL_CURVES
100
AcDbLine
 62
40
  6
CONTINUOUS
 10
4.2973460736
 20
5.7564478471
 11
4.3040851361
 21
5.7384770181
  0
LINE
  5
2C6
100
AcDbEntity
  8
03__ASM_ALL_CURVES
100
AcDbLine
 62
40
  6
CONTINUOUS
 10
4.4995179486
 20
5.7564478471
 11
4.5062570111
 21
5.7294915971
  0
LINE
  5
2C7
100
AcDbEntity
  8
03__ASM_ALL_CURVES
100
AcDbLine
 62
40
  6
CONTINUOUS
 10
5.1779301353
 20
5.7744186826
 11
5.1779301353
 21
5.6665936826
  0
LINE
  5
2C8
100
AcDbEntity
  8
03__ASM_ALL_CURVES
100
AcDbLine
 62
40
  6
CONTINUOUS
 10
5.4609707603
 20
5.7205061826
 11
5.4677098228
 21
5.7474624326
  0
LINE
  5
2C9
100
AcDbEntity
  8
03__ASM_ALL_CURVES
100
AcDbLine
 62
40
  6
CONTINUOUS
 10
5.9664004478
 20
5.6935499326
 11
5.9529223228
 21
5.6755790995
  0
LINE
  5
2CA
100
AcDbEntity
  8
03__ASM_ALL_CURVES
100
AcDbLine
 62
40
  6
CONTINUOUS
 10
6.0674863853
 20
5.6845645165
 11
6.0607473228
 21
5.6755790995
  0
LINE
  5
2CB
100
AcDbEntity
  8
0
100
AcDbLine
 62
7
  6
CONTINUOUS
 10
7.3291538861
 20
3.5682836826
 11
7.3791538861
 21
3.5682836826
  0
LINE
  5
2CC
100
AcDbEntity
  8
0
100
AcDbLine
 62
7
  6
CONTINUOUS
 10
7.4821538861
 20
3.5682836826
 11
7.5321538861
 21
3.5682836826
  0
LINE
  5
2CD
100
AcDbEntity
  8
0
100
AcDbLine
 62
7
  6
CONTINUOUS
 10
7.2351538861
 20
3.5687836826
 11
7.3291538861
 21
3.5687836826
  0
LINE
  5
2CE
100
AcDbEntity
  8
0
100
AcDbLine
 62
7
  6
CONTINUOUS
 10
7.5721538861
 20
3.5687836826
 11
7.6421538861
 21
3.5687836826
  0
LINE
  5
2CF
100
AcDbEntity
  8
0
100
AcDbLine
 62
7
  6
CONTINUOUS
 10
7.5721538861
 20
3.6562836826
 11
7.5321538861
 21
3.6562836826
  0
LINE
  5
2D0
100
AcDbEntity
  8
0
100
AcDbLine
 62
7
  6
CONTINUOUS
 10
7.2351538861
 20
3.6617836826
 11
7.2041538861
 21
3.6617836826
  0
LINE
  5
2D1
100
AcDbEntity
  8
0
100
AcDbLine
 62
7
  6
CONTINUOUS
 10
6.8921538861
 20
3.6617836826
 11
6.4221538861
 21
3.6617836826
  0
LINE
  5
2D2
100
AcDbEntity
  8
0
100
AcDbLine
 62
7
  6
CONTINUOUS
 10
6.1101538861
 20
3.6617836826
 11
6.0336538861
 21
3.6617836826
  0
LINE
  5
2D3
100
AcDbEntity
  8
0
100
AcDbLine
 62
7
  6
CONTINUOUS
 10
5.9866538861
 20
3.6617836826
 11
5.6091538861
 21
3.6617836826
  0
LINE
  5
2D4
100
AcDbEntity
  8
03__ASM_ALL_CURVES
100
AcDbLine
 62
40
  6
CONTINUOUS
 10
6.4093393788
 20
3.0047836826
 11
6.4194479726
 21
2.9980446217
  0
LINE
  5
2D5
100
AcDbEntity
  8
03__ASM_ALL_CURVES
100
AcDbLine
 62
40
  6
CONTINUOUS
 10
6.4902081288
 20
3.0047836826
 11
6.5003167226
 21
2.9980446217
  0
LINE
  5
2D6
100
AcDbEntity
  8
03__ASM_ALL_CURVES
100
AcDbLine
 62
40
  6
CONTINUOUS
 10
6.6519456288
 20
3.0047836826
 11
6.6620542226
 21
2.9980446217
  0
LINE
  5
2D7
100
AcDbEntity
  8
03__ASM_ALL_CURVES
100
AcDbLine
 62
40
  6
CONTINUOUS
 10
3.8390898236
 20
5.6845645165
 11
3.8525679486
 21
5.6665936826
  0
LINE
  5
2D8
100
AcDbEntity
  8
03__ASM_ALL_CURVES
100
AcDbLine
 62
40
  6
CONTINUOUS
 10
3.9738710736
 20
5.7654332681
 11
3.9806101361
 21
5.7564478471
  0
LINE
  5
2D9
100
AcDbEntity
  8
03__ASM_ALL_CURVES
100
AcDbLine
 62
40
  6
CONTINUOUS
 10
4.0480007611
 20
5.6755790995
 11
4.0412616986
 21
5.6845645165
  0
LINE
  5
2DA
100
AcDbEntity
  8
03__ASM_ALL_CURVES
100
AcDbLine
 62
40
  6
CONTINUOUS
 10
4.8207598228
 20
5.6935499326
 11
4.8140207603
 21
5.7205061826
  0
LINE
  5
2DB
100
AcDbEntity
  8
THREAD
100
AcDbLine
 62
7
  6
CONTINUOUS
 10
5.2676538861
 20
3.4382836826
 11
5.2676538861
 21
5.3212836826
  0
LINE
  5
2DC
100
AcDbEntity
  8
03__ASM_ALL_CURVES
100
AcDbLine
 62
40
  6
CONTINUOUS
 10
5.2857551353
 20
5.7744186826
 11
5.2857551353
 21
5.6665936826
  0
LINE
  5
2DD
100
AcDbEntity
  8
THREAD
100
AcDbLine
 62
7
  6
CONTINUOUS
 10
5.3651538861
 20
3.5357836826
 11
5.3651538861
 21
5.2237836826
  0
LINE
  5
2DE
100
AcDbEntity
  8
03__ASM_ALL_CURVES
100
AcDbLine
 62
40
  6
CONTINUOUS
 10
5.3666238853
 20
5.6665936826
 11
5.3666238853
 21
5.7744186826
  0
LINE
  5
2DF
100
AcDbEntity
  8
03__ASM_ALL_CURVES
100
AcDbLine
 62
40
  6
CONTINUOUS
 10
5.4205363853
 20
5.6665936826
 11
5.4205363853
 21
5.7744186826
  0
LINE
  5
2E0
100
AcDbEntity
  8
03__ASM_ALL_CURVES
100
AcDbLine
 62
40
  6
CONTINUOUS
 10
6.2831363853
 20
5.6935499326
 11
6.2696582603
 21
5.6755790995
  0
LINE
  5
2E1
100
AcDbEntity
  8
0
100
AcDbLine
 62
7
  6
CONTINUOUS
 10
4.2976660825
 20
3.8950883411
 11
3.4271265174
 21
3.8950883411
  0
LINE
  5
2E2
100
AcDbEntity
  8
03__ASM_ALL_CURVES
100
AcDbLine
 62
40
  6
CONTINUOUS
 10
6.2703462619
 20
2.8066552453
 11
6.2602376681
 21
2.8201333701
  0
LINE
  5
2E3
100
AcDbEntity
  8
03__ASM_ALL_CURVES
100
AcDbLine
 62
40
  6
CONTINUOUS
 10
4.0749570111
 20
5.7654332681
 11
4.0816960736
 21
5.7564478471
  0
LINE
  5
2E4
100
AcDbEntity
  8
03__ASM_ALL_CURVES
100
AcDbLine
 62
40
  6
CONTINUOUS
 10
4.1625648236
 20
5.6755790995
 11
4.1693038861
 21
5.6665936826
  0
LINE
  5
2E5
100
AcDbEntity
  8
03__ASM_ALL_CURVES
100
AcDbLine
 62
40
  6
CONTINUOUS
 10
6.3512150119
 20
2.8066552453
 11
6.346160715
 21
2.813394308
  0
LINE
  5
2E6
100
AcDbEntity
  8
03__ASM_ALL_CURVES
100
AcDbLine
 62
40
  6
CONTINUOUS
 10
6.3006720431
 20
2.8740458717
 11
6.3107806369
 21
2.8605677451
  0
LINE
  5
2E7
100
AcDbEntity
  8
03__ASM_ALL_CURVES
100
AcDbLine
 62
40
  6
CONTINUOUS
 10
4.2636507611
 20
5.6755790995
 11
4.2569116986
 21
5.6845645165
  0
LINE
  5
2E8
100
AcDbEntity
  8
03__ASM_ALL_CURVES
100
AcDbLine
 62
40
  6
CONTINUOUS
 10
4.8881504478
 20
5.7474624326
 11
4.8948895103
 21
5.7205061826
  0
LINE
  5
2E9
100
AcDbEntity
  8
03__ASM_ALL_CURVES
100
AcDbLine
 62
40
  6
CONTINUOUS
 10
4.9285848228
 20
5.6935499326
 11
4.9218457603
 21
5.7205061826
  0
LINE
  5
2EA
100
AcDbEntity
  8
03__ASM_ALL_CURVES
100
AcDbLine
 62
40
  6
CONTINUOUS
 10
5.5283613853
 20
5.7205061826
 11
5.5283613853
 21
5.6845645165
  0
LINE
  5
2EB
100
AcDbEntity
  8
0
100
AcDbLine
 62
7
  6
CONTINUOUS
 10
5.5961538861
 20
3.5357836826
 11
5.5961538861
 21
5.2237836826
  0
LINE
  5
2EC
100
AcDbEntity
  8
0
100
AcDbLine
 62
7
  6
CONTINUOUS
 10
5.6091538861
 20
3.5487836826
 11
5.6091538861
 21
5.2107836826
  0
LINE
  5
2ED
100
AcDbEntity
  8
03__ASM_ALL_CURVES
100
AcDbLine
 62
40
  6
CONTINUOUS
 10
5.8922707603
 20
5.7205061826
 11
5.8990098228
 21
5.7474624326
  0
LINE
  5
2EE
100
AcDbEntity
  8
03__ASM_ALL_CURVES
100
AcDbLine
 62
40
  6
CONTINUOUS
 10
5.9731395103
 20
5.7205061826
 11
5.9664004478
 21
5.6935499326
  0
LINE
  5
2EF
100
AcDbEntity
  8
03__ASM_ALL_CURVES
100
AcDbLine
 62
40
  6
CONTINUOUS
 10
6.4987863853
 20
5.7384770181
 11
6.4920473228
 21
5.7294915971
  0
LINE
  5
2F0
100
AcDbEntity
  8
0
100
AcDbLine
 62
7
  6
CONTINUOUS
 10
4.2976660825
 20
3.9418743655
 11
3.4271265174
 21
3.9418743655
  0
LINE
  5
2F1
100
AcDbEntity
  8
03__ASM_ALL_CURVES
100
AcDbLine
 62
40
  6
CONTINUOUS
 10
6.3891221913
 20
2.9306539953
 11
6.3790135976
 21
2.9441321201
  0
LINE
  5
2F2
100
AcDbEntity
  8
03__ASM_ALL_CURVES
100
AcDbLine
 62
40
  6
CONTINUOUS
 10
6.3385792226
 20
2.9980446217
 11
6.3436335195
 21
2.991305556
  0
LINE
  5
2F3
100
AcDbEntity
  8
03__ASM_ALL_CURVES
100
AcDbLine
 62
40
  6
CONTINUOUS
 10
4.2906070111
 20
5.7654332681
 11
4.2973460736
 21
5.7564478471
  0
LINE
  5
2F4
100
AcDbEntity
  8
03__ASM_ALL_CURVES
100
AcDbLine
 62
40
  6
CONTINUOUS
 10
6.4194479726
 20
2.9980446217
 11
6.4295565663
 21
2.9845664951
  0
LINE
  5
2F5
100
AcDbEntity
  8
03__ASM_ALL_CURVES
100
AcDbLine
 62
40
  6
CONTINUOUS
 10
6.5003167226
 20
2.9980446217
 11
6.5053710195
 21
2.991305556
  0
LINE
  5
2F6
100
AcDbEntity
  8
03__ASM_ALL_CURVES
100
AcDbLine
 62
40
  6
CONTINUOUS
 10
5.0701051353
 20
5.7744186826
 11
5.1038004478
 21
5.6665936826
  0
LINE
  5
2F7
100
AcDbEntity
  8
03__ASM_ALL_CURVES
100
AcDbLine
 62
40
  6
CONTINUOUS
 10
5.6900988853
 20
5.7564478471
 11
5.6900988853
 21
5.7474624326
  0
LINE
  5
2F8
100
AcDbEntity
  8
03__ASM_ALL_CURVES
100
AcDbLine
 62
40
  6
CONTINUOUS
 10
5.7440113853
 20
5.7025353503
 11
5.7440113853
 21
5.6845645165
  0
LINE
  5
2F9
100
AcDbEntity
  8
03__ASM_ALL_CURVES
100
AcDbLine
 62
40
  6
CONTINUOUS
 10
5.7979238853
 20
5.7744186826
 11
5.7979238853
 21
5.6665936826
  0
LINE
  5
2FA
100
AcDbEntity
  8
03__ASM_ALL_CURVES
100
AcDbLine
 62
40
  6
CONTINUOUS
 10
8.1949773232
 20
4.2773499326
 11
8.1545429482
 21
4.2773499326
  0
LINE
  5
2FB
100
AcDbEntity
  8
03__ASM_ALL_CURVES
100
AcDbLine
 62
40
  6
CONTINUOUS
 10
8.0736741982
 20
4.2773499326
 11
8.1141085732
 21
4.2773499326
  0
LINE
  5
2FC
100
AcDbEntity
  8
03__ASM_ALL_CURVES
100
AcDbLine
 62
40
  6
CONTINUOUS
 10
3.7312648236
 20
5.6665936826
 11
3.7177866986
 21
5.6755790995
  0
LINE
  5
2FD
100
AcDbEntity
  8
03__ASM_ALL_CURVES
100
AcDbLine
 62
40
  6
CONTINUOUS
 10
4.4860398236
 20
5.7744186826
 11
4.4995179486
 21
5.7564478471
  0
LINE
  5
2FE
100
AcDbEntity
  8
03__ASM_ALL_CURVES
100
AcDbLine
 62
40
  6
CONTINUOUS
 10
6.6620542226
 20
2.9980446217
 11
6.6671085195
 21
2.991305556
  0
LINE
  5
2FF
100
AcDbEntity
  8
03__ASM_ALL_CURVES
100
AcDbLine
 62
40
  6
CONTINUOUS
 10
5.4677098228
 20
5.6935499326
 11
5.4609707603
 21
5.7205061826
  0
LINE
  5
300
100
AcDbEntity
  8
03__ASM_ALL_CURVES
100
AcDbLine
 62
40
  6
CONTINUOUS
 10
5.8518363853
 20
5.7744186826
 11
5.8518363853
 21
5.6665936826
  0
LINE
  5
301
100
AcDbEntity
  8
0
100
AcDbLine
 62
7
  6
CONTINUOUS
 10
5.9891598394
 20
3.661861333
 11
5.9891598394
 21
5.0977836826
  0
LINE
  5
302
100
AcDbEntity
  8
03__ASM_ALL_CURVES
100
AcDbLine
 62
40
  6
CONTINUOUS
 10
6.0135738853
 20
5.6845645165
 11
6.0135738853
 21
5.7744186826
  0
LINE
  5
303
100
AcDbEntity
  8
03__ASM_ALL_CURVES
100
AcDbLine
 62
40
  6
CONTINUOUS
 10
6.2898754478
 20
5.7205061826
 11
6.2831363853
 21
5.6935499326
  0
LINE
  5
304
100
AcDbEntity
  8
03__ASM_ALL_CURVES
100
AcDbLine
 62
40
  6
CONTINUOUS
 10
8.1545429482
 20
4.3177843076
 11
8.1798144326
 21
4.3177843076
  0
LINE
  5
305
100
AcDbEntity
  8
03__ASM_ALL_CURVES
100
AcDbLine
 62
40
  6
CONTINUOUS
 10
8.1545429482
 20
4.3582186826
 11
8.1949773232
 21
4.3582186826
  0
LINE
  5
306
100
AcDbEntity
  8
03__ASM_ALL_CURVES
100
AcDbLine
 62
40
  6
CONTINUOUS
 10
8.2303574014
 20
4.3582186826
 11
8.2809003701
 21
4.3582186826
  0
LINE
  5
307
100
AcDbEntity
  8
03__ASM_ALL_CURVES
100
AcDbLine
 62
40
  6
CONTINUOUS
 10
8.0382941203
 20
4.4013486826
 11
8.0281855266
 21
4.4013486826
  0
LINE
  5
308
100
AcDbEntity
  8
03__ASM_ALL_CURVES
100
AcDbLine
 62
40
  6
CONTINUOUS
 10
8.1191628703
 20
4.4417830576
 11
8.0938913859
 21
4.4417830576
  0
LINE
  5
309
100
AcDbEntity
  8
03__ASM_ALL_CURVES
100
AcDbLine
 62
40
  6
CONTINUOUS
 10
7.9574253703
 20
4.4417830576
 11
7.9321538859
 21
4.4417830576
  0
LINE
  5
30A
100
AcDbEntity
  8
03__ASM_ALL_CURVES
100
AcDbLine
 62
40
  6
CONTINUOUS
 10
7.9321538859
 20
4.4822174326
 11
7.9574253703
 21
4.4822174326
  0
LINE
  5
30B
100
AcDbEntity
  8
03__ASM_ALL_CURVES
100
AcDbLine
 62
40
  6
CONTINUOUS
 10
8.0281855266
 20
4.4822174326
 11
8.0382941203
 21
4.4822174326
  0
LINE
  5
30C
100
AcDbEntity
  8
03__ASM_ALL_CURVES
100
AcDbLine
 62
40
  6
CONTINUOUS
 10
8.0938913859
 20
4.4822174326
 11
8.1191628703
 21
4.4822174326
  0
LINE
  5
30D
100
AcDbEntity
  8
03__ASM_ALL_CURVES
100
AcDbLine
 62
40
  6
CONTINUOUS
 10
8.1697058391
 20
4.4822174326
 11
8.2202488078
 21
4.4822174326
  0
LINE
  5
30E
100
AcDbEntity
  8
03__ASM_ALL_CURVES
100
AcDbLine
 62
40
  6
CONTINUOUS
 10
3.7312648236
 20
5.7294915971
 11
3.7177866986
 21
5.7384770181
  0
LINE
  5
30F
100
AcDbEntity
  8
03__ASM_ALL_CURVES
100
AcDbLine
 62
40
  6
CONTINUOUS
 10
3.7447429486
 20
5.7294915971
 11
3.7582210736
 21
5.7205061826
  0
LINE
  5
310
100
AcDbEntity
  8
03__ASM_ALL_CURVES
100
AcDbLine
 62
40
  6
CONTINUOUS
 10
3.7447429486
 20
5.7744186826
 11
3.7582210736
 21
5.7654332681
  0
LINE
  5
311
100
AcDbEntity
  8
03__ASM_ALL_CURVES
100
AcDbLine
 62
40
  6
CONTINUOUS
 10
4.0614788861
 20
5.6665936826
 11
4.0480007611
 21
5.6755790995
  0
LINE
  5
312
100
AcDbEntity
  8
03__ASM_ALL_CURVES
100
AcDbLine
 62
40
  6
CONTINUOUS
 10
3.9603929486
 20
5.7744186826
 11
3.9738710736
 21
5.7654332681
  0
LINE
  5
313
100
AcDbEntity
  8
03__ASM_ALL_CURVES
100
AcDbLine
 62
40
  6
CONTINUOUS
 10
4.8342379478
 20
5.6755790995
 11
4.8207598228
 21
5.6935499326
  0
LINE
  5
314
100
AcDbEntity
  8
03__ASM_ALL_CURVES
100
AcDbLine
 62
40
  6
CONTINUOUS
 10
4.9420629478
 20
5.6755790995
 11
4.9285848228
 21
5.6935499326
  0
LINE
  5
315
100
AcDbEntity
  8
03__ASM_ALL_CURVES
100
AcDbLine
 62
40
  6
CONTINUOUS
 10
4.8746723228
 20
5.7654332681
 11
4.8881504478
 21
5.7474624326
  0
LINE
  5
316
100
AcDbEntity
  8
03__ASM_ALL_CURVES
100
AcDbLine
 62
40
  6
CONTINUOUS
 10
6.4902081288
 20
2.9643493076
 11
6.5053710195
 21
2.9239149326
  0
LINE
  5
317
100
AcDbEntity
  8
03__ASM_ALL_CURVES
100
AcDbLine
 62
40
  6
CONTINUOUS
 10
6.2602376681
 20
2.8201333701
 11
6.2551833713
 21
2.8403505576
  0
LINE
  5
318
100
AcDbEntity
  8
03__ASM_ALL_CURVES
100
AcDbLine
 62
40
  6
CONTINUOUS
 10
6.3107806369
 20
2.8605677451
 11
6.3158349338
 21
2.8403505576
  0
LINE
  5
319
100
AcDbEntity
  8
0
100
AcDbLine
 62
7
  6
CONTINUOUS
 10
6.0311479329
 20
3.661861333
 11
6.0311479329
 21
5.0977836826
  0
LINE
  5
31A
100
AcDbEntity
  8
03__ASM_ALL_CURVES
100
AcDbLine
 62
40
  6
CONTINUOUS
 10
6.0674863853
 20
5.7744186826
 11
6.0674863853
 21
5.6845645165
  0
LINE
  5
31B
100
AcDbEntity
  8
03__ASM_ALL_CURVES
100
AcDbLine
 62
40
  6
CONTINUOUS
 10
6.1213988853
 20
5.7744186826
 11
6.1213988853
 21
5.6665936826
  0
LINE
  5
31C
100
AcDbEntity
  8
THREAD
100
AcDbLine
 62
7
  6
CONTINUOUS
 10
5.3651538861
 20
3.5357836826
 11
5.2676538861
 21
3.4382836826
  0
LINE
  5
31D
100
AcDbEntity
  8
0
100
AcDbLine
 62
7
  6
CONTINUOUS
 10
5.6091538861
 20
3.5487836826
 11
5.5961538861
 21
3.5357836826
  0
LINE
  5
31E
100
AcDbEntity
  8
03__ASM_ALL_CURVES
100
AcDbLine
 62
40
  6
CONTINUOUS
 10
4.0614788861
 20
5.7744186826
 11
4.0749570111
 21
5.7654332681
  0
LINE
  5
31F
100
AcDbEntity
  8
03__ASM_ALL_CURVES
100
AcDbLine
 62
40
  6
CONTINUOUS
 10
4.2771288861
 20
5.6665936826
 11
4.2636507611
 21
5.6755790995
  0
LINE
  5
320
100
AcDbEntity
  8
03__ASM_ALL_CURVES
100
AcDbLine
 62
40
  6
CONTINUOUS
 10
4.2771288861
 20
5.7744186826
 11
4.2906070111
 21
5.7654332681
  0
LINE
  5
321
100
AcDbEntity
  8
THREAD
100
AcDbLine
 62
7
  6
CONTINUOUS
 10
5.3651538861
 20
5.2237836826
 11
5.2676538861
 21
5.3212836826
  0
LINE
  5
322
100
AcDbEntity
  8
03__ASM_ALL_CURVES
100
AcDbLine
 62
40
  6
CONTINUOUS
 10
4.9824973228
 20
5.7654332681
 11
4.9892363853
 21
5.7564478471
  0
LINE
  5
323
100
AcDbEntity
  8
03__ASM_ALL_CURVES
100
AcDbLine
 62
40
  6
CONTINUOUS
 10
5.3666238853
 20
5.7744186826
 11
5.4205363853
 21
5.6665936826
  0
LINE
  5
324
100
AcDbEntity
  8
03__ASM_ALL_CURVES
100
AcDbLine
 62
40
  6
CONTINUOUS
 10
6.3790135976
 20
2.9441321201
 11
6.3739593007
 21
2.9643493076
  0
LINE
  5
325
100
AcDbEntity
  8
03__ASM_ALL_CURVES
100
AcDbLine
 62
40
  6
CONTINUOUS
 10
6.4295565663
 20
2.9845664951
 11
6.4346108632
 21
2.9643493076
  0
LINE
  5
326
100
AcDbEntity
  8
03__ASM_ALL_CURVES
100
AcDbLine
 62
40
  6
CONTINUOUS
 10
6.2292238853
 20
5.6665936826
 11
6.2292238853
 21
5.7744186826
  0
LINE
  5
327
100
AcDbEntity
  8
03__ASM_ALL_CURVES
100
AcDbLine
 62
40
  6
CONTINUOUS
 10
6.3031991445
 20
2.9239149326
 11
6.3031991445
 21
3.0047836826
  0
LINE
  5
328
100
AcDbEntity
  8
03__ASM_ALL_CURVES
100
AcDbLine
 62
40
  6
CONTINUOUS
 10
6.3370488853
 20
5.6665936826
 11
6.3370488853
 21
5.7744186826
  0
LINE
  5
329
100
AcDbEntity
  8
03__ASM_ALL_CURVES
100
AcDbLine
 62
40
  6
CONTINUOUS
 10
6.3436335195
 20
2.991305556
 11
6.3436335195
 21
2.9778274342
  0
LINE
  5
32A
100
AcDbEntity
  8
03__ASM_ALL_CURVES
100
AcDbLine
 62
40
  6
CONTINUOUS
 10
6.346160715
 20
2.813394308
 11
6.346160715
 21
2.8807849326
  0
LINE
  5
32B
100
AcDbEntity
  8
03__ASM_ALL_CURVES
100
AcDbLine
 62
40
  6
CONTINUOUS
 10
6.38659509
 20
2.8807849326
 11
6.38659509
 21
2.813394308
  0
LINE
  5
32C
100
AcDbEntity
  8
0
100
AcDbLine
 62
7
  6
CONTINUOUS
 10
4.2976660825
 20
4.8176929997
 11
3.4271265174
 21
4.8176929997
  0
LINE
  5
32D
100
AcDbEntity
  8
0
100
AcDbLine
 62
7
  6
CONTINUOUS
 10
4.2976660825
 20
4.864479024
 11
3.4271265174
 21
4.864479024
  0
LINE
  5
32E
100
AcDbEntity
  8
03__ASM_ALL_CURVES
100
AcDbLine
 62
40
  6
CONTINUOUS
 10
4.0614788861
 20
5.7115207649
 11
4.0412616986
 21
5.7205061826
  0
LINE
  5
32F
100
AcDbEntity
  8
0
100
AcDbLine
 62
7
  6
CONTINUOUS
 10
5.6091538861
 20
5.2107836826
 11
5.5961538861
 21
5.2237836826
  0
LINE
  5
330
100
AcDbEntity
  8
03__ASM_ALL_CURVES
100
AcDbLine
 62
40
  6
CONTINUOUS
 10
5.4811879478
 20
5.6755790995
 11
5.4677098228
 21
5.6935499326
  0
LINE
  5
331
100
AcDbEntity
  8
03__ASM_ALL_CURVES
100
AcDbLine
 62
40
  6
CONTINUOUS
 10
5.8990098228
 20
5.6935499326
 11
5.8922707603
 21
5.7205061826
  0
LINE
  5
332
100
AcDbEntity
  8
03__ASM_ALL_CURVES
100
AcDbLine
 62
40
  6
CONTINUOUS
 10
5.9664004478
 20
5.7474624326
 11
5.9731395103
 21
5.7205061826
  0
LINE
  5
333
100
AcDbEntity
  8
03__ASM_ALL_CURVES
100
AcDbLine
 62
40
  6
CONTINUOUS
 10
6.4448738853
 20
5.6665936826
 11
6.4448738853
 21
5.7744186826
  0
LINE
  5
334
100
AcDbEntity
  8
03__ASM_ALL_CURVES
100
AcDbLine
 62
40
  6
CONTINUOUS
 10
6.4472466525
 20
2.8807849326
 11
6.4472466525
 21
2.7999161826
  0
LINE
  5
335
100
AcDbEntity
  8
03__ASM_ALL_CURVES
100
AcDbLine
 62
40
  6
CONTINUOUS
 10
6.4649366445
 20
2.9239149326
 11
6.4649366445
 21
3.0047836826
  0
LINE
  5
336
100
AcDbEntity
  8
03__ASM_ALL_CURVES
100
AcDbLine
 62
40
  6
CONTINUOUS
 10
6.4987863853
 20
5.7564478471
 11
6.4987863853
 21
5.7384770181
  0
LINE
  5
337
100
AcDbEntity
  8
03__ASM_ALL_CURVES
100
AcDbLine
 62
40
  6
CONTINUOUS
 10
6.5053710195
 20
2.991305556
 11
6.5053710195
 21
2.9778274342
  0
LINE
  5
338
100
AcDbEntity
  8
03__ASM_ALL_CURVES
100
AcDbLine
 62
40
  6
CONTINUOUS
 10
6.507898215
 20
2.8807849326
 11
6.507898215
 21
2.7999161826
  0
LINE
  5
339
100
AcDbEntity
  8
03__ASM_ALL_CURVES
100
AcDbLine
 62
40
  6
CONTINUOUS
 10
6.566022582
 20
3.0047836826
 11
6.566022582
 21
2.9239149326
  0
LINE
  5
33A
100
AcDbEntity
  8
03__ASM_ALL_CURVES
100
AcDbLine
 62
40
  6
CONTINUOUS
 10
6.588766965
 20
2.7999161826
 11
6.588766965
 21
2.8807849326
  0
LINE
  5
33B
100
AcDbEntity
  8
03__ASM_ALL_CURVES
100
AcDbLine
 62
40
  6
CONTINUOUS
 10
6.2551833713
 20
2.8403505576
 11
6.2602376681
 21
2.8605677451
  0
LINE
  5
33C
100
AcDbEntity
  8
03__ASM_ALL_CURVES
100
AcDbLine
 62
40
  6
CONTINUOUS
 10
4.2771288861
 20
5.7115207649
 11
4.2569116986
 21
5.7205061826
  0
LINE
  5
33D
100
AcDbEntity
  8
03__ASM_ALL_CURVES
100
AcDbLine
 62
40
  6
CONTINUOUS
 10
4.8477160728
 20
5.6665936826
 11
4.8342379478
 21
5.6755790995
  0
LINE
  5
33E
100
AcDbEntity
  8
03__ASM_ALL_CURVES
100
AcDbLine
 62
40
  6
CONTINUOUS
 10
4.9555410728
 20
5.6665936826
 11
4.9420629478
 21
5.6755790995
  0
LINE
  5
33F
100
AcDbEntity
  8
03__ASM_ALL_CURVES
100
AcDbLine
 62
40
  6
CONTINUOUS
 10
4.8611941978
 20
5.7744186826
 11
4.8746723228
 21
5.7654332681
  0
LINE
  5
340
100
AcDbEntity
  8
03__ASM_ALL_CURVES
100
AcDbLine
 62
40
  6
CONTINUOUS
 10
4.9690191978
 20
5.7744186826
 11
4.9824973228
 21
5.7654332681
  0
LINE
  5
341
100
AcDbEntity
  8
03__ASM_ALL_CURVES
100
AcDbLine
 62
40
  6
CONTINUOUS
 10
5.5216223228
 20
5.7654332681
 11
5.5283613853
 21
5.7564478471
  0
LINE
  5
342
100
AcDbEntity
  8
03__ASM_ALL_CURVES
100
AcDbLine
 62
40
  6
CONTINUOUS
 10
5.6968379478
 20
5.6755790995
 11
5.6833598228
 21
5.6935499326
  0
LINE
  5
343
100
AcDbEntity
  8
03__ASM_ALL_CURVES
100
AcDbLine
 62
40
  6
CONTINUOUS
 10
5.6900988853
 20
5.7474624326
 11
5.6968379478
 21
5.7384770181
  0
LINE
  5
344
100
AcDbEntity
  8
03__ASM_ALL_CURVES
100
AcDbLine
 62
40
  6
CONTINUOUS
 10
6.6671085195
 20
2.991305556
 11
6.6671085195
 21
2.9778274342
  0
LINE
  5
345
100
AcDbEntity
  8
03__ASM_ALL_CURVES
100
AcDbLine
 62
40
  6
CONTINUOUS
 10
6.6898529025
 20
2.8807849326
 11
6.6898529025
 21
2.7999161826
  0
LINE
  5
346
100
AcDbEntity
  8
03__ASM_ALL_CURVES
100
AcDbLine
 62
40
  6
CONTINUOUS
 10
6.3158349338
 20
2.8403505576
 11
6.3107806369
 21
2.8201333701
  0
LINE
  5
347
100
AcDbEntity
  8
03__ASM_ALL_CURVES
100
AcDbLine
 62
40
  6
CONTINUOUS
 10
6.3739593007
 20
2.9643493076
 11
6.3790135976
 21
2.9845664951
  0
LINE
  5
348
100
AcDbEntity
  8
03__ASM_ALL_CURVES
100
AcDbLine
 62
40
  6
CONTINUOUS
 10
6.4346108632
 20
2.9643493076
 11
6.4295565663
 21
2.9441321201
  0
LINE
  5
349
100
AcDbEntity
  8
0
100
AcDbLine
 62
7
  6
CONTINUOUS
 10
7.2351538861
 20
5.0977836826
 11
7.2041538861
 21
5.0977836826
  0
LINE
  5
34A
100
AcDbEntity
  8
0
100
AcDbLine
 62
7
  6
CONTINUOUS
 10
6.8921538861
 20
5.0977836826
 11
6.4221538861
 21
5.0977836826
  0
LINE
  5
34B
100
AcDbEntity
  8
0
100
AcDbLine
 62
7
  6
CONTINUOUS
 10
6.1101538861
 20
5.0977836826
 11
6.0311479329
 21
5.0977836826
  0
LINE
  5
34C
100
AcDbEntity
  8
0
100
AcDbLine
 62
7
  6
CONTINUOUS
 10
5.9891598394
 20
5.0977836826
 11
5.6091538861
 21
5.0977836826
  0
LINE
  5
34D
100
AcDbEntity
  8
0
100
AcDbLine
 62
7
  6
CONTINUOUS
 10
7.5721538861
 20
5.1032836826
 11
7.5321538861
 21
5.1032836826
  0
LINE
  5
34E
100
AcDbEntity
  8
0
100
AcDbLine
 62
7
  6
CONTINUOUS
 10
7.2351538861
 20
5.1907836826
 11
7.3291538861
 21
5.1907836826
  0
LINE
  5
34F
100
AcDbEntity
  8
0
100
AcDbLine
 62
7
  6
CONTINUOUS
 10
7.5721538861
 20
5.1907836826
 11
7.6421538861
 21
5.1907836826
  0
LINE
  5
350
100
AcDbEntity
  8
0
100
AcDbLine
 62
7
  6
CONTINUOUS
 10
7.3291538861
 20
5.1912836826
 11
7.3791538861
 21
5.1912836826
  0
LINE
  5
351
100
AcDbEntity
  8
0
100
AcDbLine
 62
7
  6
CONTINUOUS
 10
7.4821538861
 20
5.1912836826
 11
7.5321538861
 21
5.1912836826
  0
LINE
  5
352
100
AcDbEntity
  8
THREAD
100
AcDbLine
 62
7
  6
CONTINUOUS
 10
5.5961538861
 20
5.2237836826
 11
5.3651538861
 21
5.2237836826
  0
LINE
  5
353
100
AcDbEntity
  8
03__ASM_ALL_CURVES
100
AcDbLine
 62
40
  6
CONTINUOUS
 10
3.4895438861
 20
5.6054928493
 11
3.3601538861
 21
5.6234636826
  0
LINE
  5
354
100
AcDbEntity
  8
03__ASM_ALL_CURVES
100
AcDbLine
 62
40
  6
CONTINUOUS
 10
3.4895438861
 20
5.6018986826
 11
3.3601538861
 21
5.6234636826
  0
LINE
  5
355
100
AcDbEntity
  8
03__ASM_ALL_CURVES
100
AcDbLine
 62
40
  6
CONTINUOUS
 10
5.4946660728
 20
5.6665936826
 11
5.4811879478
 21
5.6755790995
  0
LINE
  5
356
100
AcDbEntity
  8
03__ASM_ALL_CURVES
100
AcDbLine
 62
40
  6
CONTINUOUS
 10
5.7372723228
 20
5.7115207649
 11
5.7440113853
 21
5.7025353503
  0
LINE
  5
357
100
AcDbEntity
  8
03__ASM_ALL_CURVES
100
AcDbLine
 62
40
  6
CONTINUOUS
 10
5.7440113853
 20
5.7564478471
 11
5.7372723228
 21
5.7654332681
  0
LINE
  5
358
100
AcDbEntity
  8
03__ASM_ALL_CURVES
100
AcDbLine
 62
40
  6
CONTINUOUS
 10
5.9124879478
 20
5.6755790995
 11
5.8990098228
 21
5.6935499326
  0
LINE
  5
359
100
AcDbEntity
  8
03__ASM_ALL_CURVES
100
AcDbLine
 62
40
  6
CONTINUOUS
 10
6.2831363853
 20
5.7474624326
 11
6.2898754478
 21
5.7205061826
  0
LINE
  5
35A
100
AcDbEntity
  8
0
100
AcDbLine
 62
7
  6
CONTINUOUS
 10
6.9334371846
 20
3.9372273791
 11
6.9334371846
 21
3.951435756
  0
LINE
  5
35B
100
AcDbEntity
  8
0
100
AcDbLine
 62
7
  6
CONTINUOUS
 10
6.9334371846
 20
4.2747555596
 11
6.9334371846
 21
4.4846968706
  0
LINE
  5
35C
100
AcDbEntity
  8
0
100
AcDbLine
 62
7
  6
CONTINUOUS
 10
6.9334371846
 20
4.8081314922
 11
6.9334371846
 21
4.8223379867
  0
LINE
  5
35D
100
AcDbEntity
  8
0
100
AcDbLine
 62
7
  6
CONTINUOUS
 10
6.958927199
 20
3.9699402154
 11
6.958927199
 21
3.9247406446
  0
LINE
  5
35E
100
AcDbEntity
  8
0
100
AcDbLine
 62
7
  6
CONTINUOUS
 10
6.958927199
 20
4.2520447489
 11
6.958927199
 21
4.5073631626
  0
LINE
  5
35F
100
AcDbEntity
  8
0
100
AcDbLine
 62
7
  6
CONTINUOUS
 10
6.958927199
 20
4.7896270612
 11
6.958927199
 21
4.8348247071
  0
LINE
  5
360
100
AcDbEntity
  8
03__ASM_ALL_CURVES
100
AcDbLine
 62
40
  6
CONTINUOUS
 10
6.6317284413
 20
2.9441321201
 11
6.6266741445
 21
2.9239149326
  0
LINE
  5
361
100
AcDbEntity
  8
03__ASM_ALL_CURVES
100
AcDbLine
 62
40
  6
CONTINUOUS
 10
7.9675339641
 20
4.4485221185
 11
7.9574253703
 21
4.4417830576
  0
LINE
  5
362
100
AcDbEntity
  8
03__ASM_ALL_CURVES
100
AcDbLine
 62
40
  6
CONTINUOUS
 10
8.0180769328
 20
4.4754783717
 11
8.0281855266
 21
4.4822174326
  0
LINE
  5
363
100
AcDbEntity
  8
03__ASM_ALL_CURVES
100
AcDbLine
 62
40
  6
CONTINUOUS
 10
8.0484027141
 20
4.4080877453
 11
8.0382941203
 21
4.4013486826
  0
LINE
  5
364
100
AcDbEntity
  8
03__ASM_ALL_CURVES
100
AcDbLine
 62
40
  6
CONTINUOUS
 10
8.1292714641
 20
4.4485221185
 11
8.1191628703
 21
4.4417830576
  0
LINE
  5
365
100
AcDbEntity
  8
0
100
AcDbLine
 62
7
  6
CONTINUOUS
 10
4.2976660825
 20
5.3023883411
 11
3.4271265174
 21
5.3023883411
  0
LINE
  5
366
100
AcDbEntity
  8
0
100
AcDbLine
 62
7
  6
CONTINUOUS
 10
4.2976660825
 20
5.3027836826
 11
3.4271265174
 21
5.3027836826
  0
LINE
  5
367
100
AcDbEntity
  8
THREAD
100
AcDbLine
 62
7
  6
CONTINUOUS
 10
5.2676538861
 20
5.3212836826
 11
4.7981761001
 21
5.3212836826
  0
LINE
  5
368
100
AcDbEntity
  8
THREAD
100
AcDbLine
 62
7
  6
CONTINUOUS
 10
4.5941538861
 20
5.3332836826
 11
4.5471538861
 21
5.3332836826
  0
LINE
  5
369
100
AcDbEntity
  8
0
100
AcDbLine
 62
7
  6
CONTINUOUS
 10
4.6971538861
 20
5.3337836826
 11
4.7471538861
 21
5.3337836826
  0
LINE
  5
36A
100
AcDbEntity
  8
0
100
AcDbLine
 62
7
  6
CONTINUOUS
 10
4.5471538861
 20
5.4092836826
 11
4.3591538861
 21
5.4092836826
  0
LINE
  5
36B
100
AcDbEntity
  8
03__ASM_ALL_CURVES
100
AcDbLine
 62
40
  6
CONTINUOUS
 10
3.4895438861
 20
5.6126811826
 11
3.3601538861
 21
5.6234636826
  0
LINE
  5
36C
100
AcDbEntity
  8
03__ASM_ALL_CURVES
100
AcDbLine
 62
40
  6
CONTINUOUS
 10
3.4895438861
 20
5.6090870159
 11
3.3601538861
 21
5.6234636826
  0
LINE
  5
36D
100
AcDbEntity
  8
03__ASM_ALL_CURVES
100
AcDbLine
 62
40
  6
CONTINUOUS
 10
4.4177638861
 20
5.6414345159
 11
4.6765438861
 21
5.6054928493
  0
LINE
  5
36E
100
AcDbEntity
  8
03__ASM_ALL_CURVES
100
AcDbLine
 62
40
  6
CONTINUOUS
 10
4.6765438861
 20
5.6018986826
 11
4.4177638861
 21
5.6450286826
  0
LINE
  5
36F
100
AcDbEntity
  8
03__ASM_ALL_CURVES
100
AcDbLine
 62
40
  6
CONTINUOUS
 10
5.5081441978
 20
5.7744186826
 11
5.5216223228
 21
5.7654332681
  0
LINE
  5
370
100
AcDbEntity
  8
03__ASM_ALL_CURVES
100
AcDbLine
 62
40
  6
CONTINUOUS
 10
5.7103160728
 20
5.6665936826
 11
5.6968379478
 21
5.6755790995
  0
LINE
  5
371
100
AcDbEntity
  8
03__ASM_ALL_CURVES
100
AcDbLine
 62
40
  6
CONTINUOUS
 10
5.6968379478
 20
5.7384770181
 11
5.7372723228
 21
5.7115207649
  0
LINE
  5
372
100
AcDbEntity
  8
03__ASM_ALL_CURVES
100
AcDbLine
 62
40
  6
CONTINUOUS
 10
6.0203129478
 20
5.6755790995
 11
6.0135738853
 21
5.6845645165
  0
LINE
  5
373
100
AcDbEntity
  8
03__ASM_ALL_CURVES
100
AcDbLine
 62
40
  6
CONTINUOUS
 10
5.9529223228
 20
5.7654332681
 11
5.9664004478
 21
5.7474624326
  0
LINE
  5
374
100
AcDbEntity
  8
03__ASM_ALL_CURVES
100
AcDbLine
 62
40
  6
CONTINUOUS
 10
6.4785691978
 20
5.7205061826
 11
6.4987863853
 21
5.6665936826
  0
LINE
  5
375
100
AcDbEntity
  8
03__ASM_ALL_CURVES
100
AcDbLine
 62
40
  6
CONTINUOUS
 10
6.3436335195
 20
2.9778274342
 11
6.3385792226
 21
2.9710883685
  0
LINE
  5
376
100
AcDbEntity
  8
03__ASM_ALL_CURVES
100
AcDbLine
 62
40
  6
CONTINUOUS
 10
6.2602376681
 20
2.8605677451
 11
6.2703462619
 21
2.8740458717
  0
LINE
  5
377
100
AcDbEntity
  8
03__ASM_ALL_CURVES
100
AcDbLine
 62
40
  6
CONTINUOUS
 10
6.3790135976
 20
2.9845664951
 11
6.3891221913
 21
2.9980446217
  0
LINE
  5
378
100
AcDbEntity
  8
03__ASM_ALL_CURVES
100
AcDbLine
 62
40
  6
CONTINUOUS
 10
6.3107806369
 20
2.8201333701
 11
6.3006720431
 21
2.8066552453
  0
LINE
  5
379
100
AcDbEntity
  8
03__ASM_ALL_CURVES
100
AcDbLine
 62
40
  6
CONTINUOUS
 10
6.4295565663
 20
2.9441321201
 11
6.4194479726
 21
2.9306539953
  0
LINE
  5
37A
100
AcDbEntity
  8
03__ASM_ALL_CURVES
100
AcDbLine
 62
40
  6
CONTINUOUS
 10
6.5053710195
 20
2.9778274342
 11
6.5003167226
 21
2.9710883685
  0
LINE
  5
37B
100
AcDbEntity
  8
03__ASM_ALL_CURVES
100
AcDbLine
 62
40
  6
CONTINUOUS
 10
6.38659509
 20
2.813394308
 11
6.3815407931
 21
2.8066552453
  0
LINE
  5
37C
100
AcDbEntity
  8
03__ASM_ALL_CURVES
100
AcDbLine
 62
40
  6
CONTINUOUS
 10
4.4177638861
 20
5.6198695159
 11
4.6765438861
 21
5.6270578493
  0
LINE
  5
37D
100
AcDbEntity
  8
03__ASM_ALL_CURVES
100
AcDbLine
 62
40
  6
CONTINUOUS
 10
3.3601538861
 20
5.6234636826
 11
6.6173938861
 21
5.6234636826
  0
LINE
  5
37E
100
AcDbEntity
  8
03__ASM_ALL_CURVES
100
AcDbLine
 62
40
  6
CONTINUOUS
 10
3.4895438861
 20
5.6198695159
 11
3.3601538861
 21
5.6234636826
  0
LINE
  5
37F
100
AcDbEntity
  8
03__ASM_ALL_CURVES
100
AcDbLine
 62
40
  6
CONTINUOUS
 10
4.4177638861
 20
5.6270578493
 11
4.6765438861
 21
5.6198695159
  0
LINE
  5
380
100
AcDbEntity
  8
03__ASM_ALL_CURVES
100
AcDbLine
 62
40
  6
CONTINUOUS
 10
3.4895438861
 20
5.6162753493
 11
3.3601538861
 21
5.6234636826
  0
LINE
  5
381
100
AcDbEntity
  8
03__ASM_ALL_CURVES
100
AcDbLine
 62
40
  6
CONTINUOUS
 10
4.4177638861
 20
5.6306520159
 11
4.6765438861
 21
5.6162753493
  0
LINE
  5
382
100
AcDbEntity
  8
03__ASM_ALL_CURVES
100
AcDbLine
 62
40
  6
CONTINUOUS
 10
4.4177638861
 20
5.6342461826
 11
4.6765438861
 21
5.6126811826
  0
LINE
  5
383
100
AcDbEntity
  8
03__ASM_ALL_CURVES
100
AcDbLine
 62
40
  6
CONTINUOUS
 10
4.4177638861
 20
5.6378403493
 11
4.6765438861
 21
5.6090870159
  0
LINE
  5
384
100
AcDbEntity
  8
03__ASM_ALL_CURVES
100
AcDbLine
 62
40
  6
CONTINUOUS
 10
5.7372723228
 20
5.7654332681
 11
5.7237941978
 21
5.7744186826
  0
LINE
  5
385
100
AcDbEntity
  8
03__ASM_ALL_CURVES
100
AcDbLine
 62
40
  6
CONTINUOUS
 10
5.9259660728
 20
5.6665936826
 11
5.9124879478
 21
5.6755790995
  0
LINE
  5
386
100
AcDbEntity
  8
03__ASM_ALL_CURVES
100
AcDbLine
 62
40
  6
CONTINUOUS
 10
6.0337910728
 20
5.6665936826
 11
6.0203129478
 21
5.6755790995
  0
LINE
  5
387
100
AcDbEntity
  8
03__ASM_ALL_CURVES
100
AcDbLine
 62
40
  6
CONTINUOUS
 10
5.9394441978
 20
5.7744186826
 11
5.9529223228
 21
5.7654332681
  0
LINE
  5
388
100
AcDbEntity
  8
03__ASM_ALL_CURVES
100
AcDbLine
 62
40
  6
CONTINUOUS
 10
8.0281855266
 20
4.4013486826
 11
8.0180769328
 21
4.4080877453
  0
LINE
  5
389
100
AcDbEntity
  8
03__ASM_ALL_CURVES
100
AcDbLine
 62
40
  6
CONTINUOUS
 10
7.9574253703
 20
4.4822174326
 11
7.9675339641
 21
4.4754783717
  0
LINE
  5
38A
100
AcDbEntity
  8
03__ASM_ALL_CURVES
100
AcDbLine
 62
40
  6
CONTINUOUS
 10
6.2696582603
 20
5.7654332681
 11
6.2831363853
 21
5.7474624326
  0
LINE
  5
38B
100
AcDbEntity
  8
0
100
AcDbLine
 62
7
  6
CONTINUOUS
 10
7.2351538861
 20
5.19077418
 11
7.2351538861
 21
3.5687931852
  0
LINE
  5
38C
100
AcDbEntity
  8
0
100
AcDbLine
 62
7
  6
CONTINUOUS
 10
7.3291538861
 20
3.5682836826
 11
7.3291538861
 21
5.1912836826
  0
LINE
  5
38D
100
AcDbEntity
  8
03__ASM_ALL_CURVES
100
AcDbLine
 62
40
  6
CONTINUOUS
 10
6.6266741445
 20
2.991305556
 11
6.6317284413
 21
2.9980446217
  0
LINE
  5
38E
100
AcDbEntity
  8
03__ASM_ALL_CURVES
100
AcDbLine
 62
40
  6
CONTINUOUS
 10
6.6418370351
 20
2.9576102443
 11
6.6317284413
 21
2.9441321201
  0
LINE
  5
38F
100
AcDbEntity
  8
03__ASM_ALL_CURVES
100
AcDbLine
 62
40
  6
CONTINUOUS
 10
6.6671085195
 20
2.9778274342
 11
6.6620542226
 21
2.9710883685
  0
LINE
  5
390
100
AcDbEntity
  8
03__ASM_ALL_CURVES
100
AcDbLine
 62
40
  6
CONTINUOUS
 10
6.3385792226
 20
2.9710883685
 11
6.3284706288
 21
2.9643493076
  0
LINE
  5
391
100
AcDbEntity
  8
03__ASM_ALL_CURVES
100
AcDbLine
 62
40
  6
CONTINUOUS
 10
6.3891221913
 20
2.9980446217
 11
6.3992307851
 21
3.0047836826
  0
LINE
  5
392
100
AcDbEntity
  8
03__ASM_ALL_CURVES
100
AcDbLine
 62
40
  6
CONTINUOUS
 10
6.2703462619
 20
2.8740458717
 11
6.2804548556
 21
2.8807849326
  0
LINE
  5
393
100
AcDbEntity
  8
03__ASM_ALL_CURVES
100
AcDbLine
 62
40
  6
CONTINUOUS
 10
6.4194479726
 20
2.9306539953
 11
6.4093393788
 21
2.9239149326
  0
LINE
  5
394
100
AcDbEntity
  8
03__ASM_ALL_CURVES
100
AcDbLine
 62
40
  6
CONTINUOUS
 10
6.5003167226
 20
2.9710883685
 11
6.4902081288
 21
2.9643493076
  0
LINE
  5
395
100
AcDbEntity
  8
03__ASM_ALL_CURVES
100
AcDbLine
 62
40
  6
CONTINUOUS
 10
6.3006720431
 20
2.8066552453
 11
6.2905634494
 21
2.7999161826
  0
LINE
  5
396
100
AcDbEntity
  8
03__ASM_ALL_CURVES
100
AcDbLine
 62
40
  6
CONTINUOUS
 10
6.6317284413
 20
2.9980446217
 11
6.6418370351
 21
3.0047836826
  0
LINE
  5
397
100
AcDbEntity
  8
03__ASM_ALL_CURVES
100
AcDbLine
 62
40
  6
CONTINUOUS
 10
6.3815407931
 20
2.8066552453
 11
6.3714321994
 21
2.7999161826
  0
LINE
  5
398
100
AcDbEntity
  8
03__ASM_ALL_CURVES
100
AcDbLine
 62
40
  6
CONTINUOUS
 10
4.4177638861
 20
5.6018986826
 11
4.6765438861
 21
5.6450286826
  0
LINE
  5
399
100
AcDbEntity
  8
03__ASM_ALL_CURVES
100
AcDbLine
 62
40
  6
CONTINUOUS
 10
4.4177638861
 20
5.6054928493
 11
4.6765438861
 21
5.6414345159
  0
LINE
  5
39A
100
AcDbEntity
  8
03__ASM_ALL_CURVES
100
AcDbLine
 62
40
  6
CONTINUOUS
 10
4.4177638861
 20
5.6090870159
 11
4.6765438861
 21
5.6378403493
  0
LINE
  5
39B
100
AcDbEntity
  8
03__ASM_ALL_CURVES
100
AcDbLine
 62
40
  6
CONTINUOUS
 10
4.4177638861
 20
5.6126811826
 11
4.6765438861
 21
5.6342461826
  0
LINE
  5
39C
100
AcDbEntity
  8
03__ASM_ALL_CURVES
100
AcDbLine
 62
40
  6
CONTINUOUS
 10
3.4895438861
 20
5.6342461826
 11
3.3601538861
 21
5.6234636826
  0
LINE
  5
39D
100
AcDbEntity
  8
03__ASM_ALL_CURVES
100
AcDbLine
 62
40
  6
CONTINUOUS
 10
4.4177638861
 20
5.6162753493
 11
4.6765438861
 21
5.6306520159
  0
LINE
  5
39E
100
AcDbEntity
  8
03__ASM_ALL_CURVES
100
AcDbLine
 62
40
  6
CONTINUOUS
 10
3.4895438861
 20
5.6306520159
 11
3.3601538861
 21
5.6234636826
  0
LINE
  5
39F
100
AcDbEntity
  8
03__ASM_ALL_CURVES
100
AcDbLine
 62
40
  6
CONTINUOUS
 10
3.4895438861
 20
5.6270578493
 11
3.3601538861
 21
5.6234636826
  0
LINE
  5
3A0
100
AcDbEntity
  8
03__ASM_ALL_CURVES
100
AcDbLine
 62
40
  6
CONTINUOUS
 10
6.3909613853
 20
5.6665936826
 11
6.3370488853
 21
5.6665936826
  0
LINE
  5
3A1
100
AcDbEntity
  8
03__ASM_ALL_CURVES
100
AcDbLine
 62
40
  6
CONTINUOUS
 10
6.2561801353
 20
5.6665936826
 11
6.2292238853
 21
5.6665936826
  0
LINE
  5
3A2
100
AcDbEntity
  8
03__ASM_ALL_CURVES
100
AcDbLine
 62
40
  6
CONTINUOUS
 10
6.0472691978
 20
5.6665936826
 11
6.0337910728
 21
5.6665936826
  0
LINE
  5
3A3
100
AcDbEntity
  8
03__ASM_ALL_CURVES
100
AcDbLine
 62
40
  6
CONTINUOUS
 10
5.9394441978
 20
5.6665936826
 11
5.9259660728
 21
5.6665936826
  0
LINE
  5
3A4
100
AcDbEntity
  8
03__ASM_ALL_CURVES
100
AcDbLine
 62
40
  6
CONTINUOUS
 10
5.7237941978
 20
5.6665936826
 11
5.7103160728
 21
5.6665936826
  0
LINE
  5
3A5
100
AcDbEntity
  8
03__ASM_ALL_CURVES
100
AcDbLine
 62
40
  6
CONTINUOUS
 10
5.5081441978
 20
5.6665936826
 11
5.4946660728
 21
5.6665936826
  0
LINE
  5
3A6
100
AcDbEntity
  8
03__ASM_ALL_CURVES
100
AcDbLine
 62
40
  6
CONTINUOUS
 10
4.9690191978
 20
5.6665936826
 11
4.9555410728
 21
5.6665936826
  0
LINE
  5
3A7
100
AcDbEntity
  8
03__ASM_ALL_CURVES
100
AcDbLine
 62
40
  6
CONTINUOUS
 10
4.8611941978
 20
5.6665936826
 11
4.8477160728
 21
5.6665936826
  0
LINE
  5
3A8
100
AcDbEntity
  8
03__ASM_ALL_CURVES
100
AcDbLine
 62
40
  6
CONTINUOUS
 10
4.1693038861
 20
5.6665936826
 11
4.1625648236
 21
5.6665936826
  0
LINE
  5
3A9
100
AcDbEntity
  8
03__ASM_ALL_CURVES
100
AcDbLine
 62
40
  6
CONTINUOUS
 10
3.7447429486
 20
5.6665936826
 11
3.7312648236
 21
5.6665936826
  0
LINE
  5
3AA
100
AcDbEntity
  8
03__ASM_ALL_CURVES
100
AcDbLine
 62
40
  6
CONTINUOUS
 10
3.5223538861
 20
5.6665936826
 11
3.5156148236
 21
5.6665936826
  0
LINE
  5
3AB
100
AcDbEntity
  8
03__ASM_ALL_CURVES
100
AcDbLine
 62
40
  6
CONTINUOUS
 10
3.9266976361
 20
5.6665936826
 11
3.9806101361
 21
5.6665936826
  0
LINE
  5
3AC
100
AcDbEntity
  8
03__ASM_ALL_CURVES
100
AcDbLine
 62
40
  6
CONTINUOUS
 10
4.7196738853
 20
5.6665936826
 11
4.7735863853
 21
5.6665936826
  0
LINE
  5
3AD
100
AcDbEntity
  8
03__ASM_ALL_CURVES
100
AcDbLine
 62
40
  6
CONTINUOUS
 10
6.1213988853
 20
5.6665936826
 11
6.1753113853
 21
5.6665936826
  0
LINE
  5
3AE
100
AcDbEntity
  8
03__ASM_ALL_CURVES
100
AcDbLine
 62
40
  6
CONTINUOUS
 10
5.0498879478
 20
5.7025353503
 11
5.0903223228
 21
5.7025353503
  0
LINE
  5
3AF
100
AcDbEntity
  8
03__ASM_ALL_CURVES
100
AcDbLine
 62
40
  6
CONTINUOUS
 10
6.4785691978
 20
5.7205061826
 11
6.4448738853
 21
5.7205061826
  0
LINE
  5
3B0
100
AcDbEntity
  8
03__ASM_ALL_CURVES
100
AcDbLine
 62
40
  6
CONTINUOUS
 10
5.5014051353
 20
5.7205061826
 11
5.5283613853
 21
5.7205061826
  0
LINE
  5
3B1
100
AcDbEntity
  8
03__ASM_ALL_CURVES
100
AcDbLine
 62
40
  6
CONTINUOUS
 10
5.7979238853
 20
5.7205061826
 11
5.8518363853
 21
5.7205061826
  0
LINE
  5
3B2
100
AcDbEntity
  8
03__ASM_ALL_CURVES
100
AcDbLine
 62
40
  6
CONTINUOUS
 10
6.3370488853
 20
5.7205061826
 11
6.3707441978
 21
5.7205061826
  0
LINE
  5
3B3
100
AcDbEntity
  8
03__ASM_ALL_CURVES
100
AcDbLine
 62
40
  6
CONTINUOUS
 10
3.7312648236
 20
5.7294915971
 11
3.7447429486
 21
5.7294915971
  0
LINE
  5
3B4
100
AcDbEntity
  8
03__ASM_ALL_CURVES
100
AcDbLine
 62
40
  6
CONTINUOUS
 10
5.7237941978
 20
5.7744186826
 11
5.7103160728
 21
5.7744186826
  0
LINE
  5
3B5
100
AcDbEntity
  8
03__ASM_ALL_CURVES
100
AcDbLine
 62
40
  6
CONTINUOUS
 10
4.4119101361
 20
5.7744186826
 11
4.3579976361
 21
5.7744186826
  0
LINE
  5
3B6
100
AcDbEntity
  8
03__ASM_ALL_CURVES
100
AcDbLine
 62
40
  6
CONTINUOUS
 10
3.7312648236
 20
5.7744186826
 11
3.7447429486
 21
5.7744186826
  0
LINE
  5
3B7
100
AcDbEntity
  8
03__ASM_ALL_CURVES
100
AcDbLine
 62
40
  6
CONTINUOUS
 10
3.9469148236
 20
5.7744186826
 11
3.9603929486
 21
5.7744186826
  0
LINE
  5
3B8
100
AcDbEntity
  8
03__ASM_ALL_CURVES
100
AcDbLine
 62
40
  6
CONTINUOUS
 10
4.8477160728
 20
5.7744186826
 11
4.8611941978
 21
5.7744186826
  0
LINE
  5
3B9
100
AcDbEntity
  8
03__ASM_ALL_CURVES
100
AcDbLine
 62
40
  6
CONTINUOUS
 10
4.9555410728
 20
5.7744186826
 11
4.9690191978
 21
5.7744186826
  0
LINE
  5
3BA
100
AcDbEntity
  8
03__ASM_ALL_CURVES
100
AcDbLine
 62
40
  6
CONTINUOUS
 10
5.1442348228
 20
5.7744186826
 11
5.2116254478
 21
5.7744186826
  0
LINE
  5
3BB
100
AcDbEntity
  8
03__ASM_ALL_CURVES
100
AcDbLine
 62
40
  6
CONTINUOUS
 10
5.4946660728
 20
5.7744186826
 11
5.5081441978
 21
5.7744186826
  0
LINE
  5
3BC
100
AcDbEntity
  8
03__ASM_ALL_CURVES
100
AcDbLine
 62
40
  6
CONTINUOUS
 10
5.9259660728
 20
5.7744186826
 11
5.9394441978
 21
5.7744186826
  0
LINE
  5
3BD
100
AcDbEntity
  8
03__ASM_ALL_CURVES
100
AcDbLine
 62
40
  6
CONTINUOUS
 10
6.2292238853
 20
5.7744186826
 11
6.2561801353
 21
5.7744186826
  0
LINE
  5
3BE
100
AcDbEntity
  8
03__ASM_ALL_CURVES
100
AcDbLine
 62
40
  6
CONTINUOUS
 10
6.3370488853
 20
5.7744186826
 11
6.3909613853
 21
5.7744186826
  0
LINE
  5
3BF
100
AcDbEntity
  8
03__ASM_ALL_CURVES
100
AcDbLine
 62
40
  6
CONTINUOUS
 10
6.4448738853
 20
5.7744186826
 11
6.4785691978
 21
5.7744186826
  0
LINE
  5
3C0
100
AcDbEntity
  8
03__ASM_ALL_CURVES
100
AcDbLine
 62
40
  6
CONTINUOUS
 10
8.0382941203
 20
4.4822174326
 11
8.0484027141
 21
4.4754783717
  0
LINE
  5
3C1
100
AcDbEntity
  8
03__ASM_ALL_CURVES
100
AcDbLine
 62
40
  6
CONTINUOUS
 10
8.1191628703
 20
4.4822174326
 11
8.1292714641
 21
4.4754783717
  0
LINE
  5
3C2
100
AcDbEntity
  8
03__ASM_ALL_CURVES
100
AcDbLine
 62
40
  6
CONTINUOUS
 10
6.2561801353
 20
5.7744186826
 11
6.2696582603
 21
5.7654332681
  0
LINE
  5
3C3
100
AcDbEntity
  8
03__ASM_ALL_CURVES
100
AcDbLine
 62
40
  6
CONTINUOUS
 10
6.4920473228
 20
5.7654332681
 11
6.4987863853
 21
5.7564478471
  0
LINE
  5
3C4
100
AcDbEntity
  8
0
100
AcDbLine
 62
7
  6
CONTINUOUS
 10
7.3791538861
 20
3.5682836826
 11
7.3791538861
 21
5.1912836826
  0
LINE
  5
3C5
100
AcDbEntity
  8
0
100
AcDbLine
 62
7
  6
CONTINUOUS
 10
7.4821538861
 20
3.5682836826
 11
7.4821538861
 21
5.1912836826
  0
LINE
  5
3C6
100
AcDbEntity
  8
0
100
AcDbLine
 62
7
  6
CONTINUOUS
 10
7.5321538861
 20
3.5682836826
 11
7.5321538861
 21
5.1912836826
  0
LINE
  5
3C7
100
AcDbEntity
  8
03__ASM_ALL_CURVES
100
AcDbLine
 62
40
  6
CONTINUOUS
 10
7.9725882609
 20
4.4552611842
 11
7.9675339641
 21
4.4485221185
  0
LINE
  5
3C8
100
AcDbEntity
  8
03__ASM_ALL_CURVES
100
AcDbLine
 62
40
  6
CONTINUOUS
 10
8.0079683391
 20
4.4620002451
 11
8.0180769328
 21
4.4754783717
  0
LINE
  5
3C9
100
AcDbEntity
  8
03__ASM_ALL_CURVES
100
AcDbLine
 62
40
  6
CONTINUOUS
 10
8.0585113078
 20
4.4215658701
 11
8.0484027141
 21
4.4080877453
  0
LINE
  5
3CA
100
AcDbEntity
  8
03__ASM_ALL_CURVES
100
AcDbLine
 62
40
  6
CONTINUOUS
 10
6.6620542226
 20
2.9710883685
 11
6.6418370351
 21
2.9576102443
  0
LINE
  5
3CB
100
AcDbEntity
  8
03__ASM_ALL_CURVES
100
AcDbLine
 62
40
  6
CONTINUOUS
 10
3.3601538861
 20
5.6234636826
 11
3.4895438861
 21
5.6450286826
  0
LINE
  5
3CC
100
AcDbEntity
  8
03__ASM_ALL_CURVES
100
AcDbLine
 62
40
  6
CONTINUOUS
 10
3.4895438861
 20
5.6414345159
 11
3.3601538861
 21
5.6234636826
  0
LINE
  5
3CD
100
AcDbEntity
  8
03__ASM_ALL_CURVES
100
AcDbLine
 62
40
  6
CONTINUOUS
 10
3.4895438861
 20
5.6378403493
 11
3.3601538861
 21
5.6234636826
  0
LINE
  5
3CE
100
AcDbEntity
  8
03__ASM_ALL_CURVES
100
AcDbLine
 62
40
  6
CONTINUOUS
 10
6.4785691978
 20
5.7744186826
 11
6.4920473228
 21
5.7654332681
  0
LINE
  5
3CF
100
AcDbEntity
  8
0
100
AcDbLine
 62
7
  6
CONTINUOUS
 10
7.5721538861
 20
5.19077418
 11
7.5721538861
 21
3.5687931852
  0
LINE
  5
3D0
100
AcDbEntity
  8
0
100
AcDbLine
 62
7
  6
CONTINUOUS
 10
7.6421538861
 20
3.5687836826
 11
7.6421538861
 21
5.1907836826
  0
LINE
  5
3D1
100
AcDbEntity
  8
0
100
AcDbLine
 62
7
  6
CONTINUOUS
 10
7.6731538861
 20
3.5997973159
 11
7.6731538861
 21
5.1597700493
  0
LINE
  5
3D2
100
AcDbEntity
  8
03__ASM_ALL_CURVES
100
AcDbLine
 62
40
  6
CONTINUOUS
 10
8.1343257609
 20
4.4552611842
 11
8.1292714641
 21
4.4485221185
  0
LINE
  5
3D3
100
AcDbEntity
  8
0
100
AcDbLine
 62
7
  6
CONTINUOUS
 10
7.6421538861
 20
3.5687836826
 11
7.6731538861
 21
3.5997836826
  0
LINE
  5
3D4
100
AcDbEntity
  8
0
100
AcDbLine
 62
7
  6
CONTINUOUS
 10
7.6421538861
 20
5.1907836826
 11
7.6731538861
 21
5.1597836826
  0
LINE
  5
3D5
100
AcDbEntity
  8
03__ASM_ALL_CURVES
100
AcDbLine
 62
40
  6
CONTINUOUS
 10
8.0180769328
 20
4.4080877453
 11
8.0079683391
 21
4.4215658701
  0
LINE
  5
3D6
100
AcDbEntity
  8
03__ASM_ALL_CURVES
100
AcDbLine
 62
40
  6
CONTINUOUS
 10
7.9675339641
 20
4.4754783717
 11
7.9725882609
 21
4.468739306
  0
LINE
  5
3D7
100
AcDbEntity
  8
03__ASM_ALL_CURVES
100
AcDbLine
 62
40
  6
CONTINUOUS
 10
8.0484027141
 20
4.4754783717
 11
8.0585113078
 21
4.4620002451
  0
LINE
  5
3D8
100
AcDbEntity
  8
03__ASM_ALL_CURVES
100
AcDbLine
 62
40
  6
CONTINUOUS
 10
7.9321538857
 20
4.3582186826
 11
7.9321538857
 21
4.2773499326
  0
LINE
  5
3D9
100
AcDbEntity
  8
03__ASM_ALL_CURVES
100
AcDbLine
 62
40
  6
CONTINUOUS
 10
7.9321538859
 20
4.4013486826
 11
7.9321538859
 21
4.4822174326
  0
LINE
  5
3DA
100
AcDbEntity
  8
03__ASM_ALL_CURVES
100
AcDbLine
 62
40
  6
CONTINUOUS
 10
8.0029140422
 20
4.4417830576
 11
8.0079683391
 21
4.4620002451
  0
LINE
  5
3DB
100
AcDbEntity
  8
03__ASM_ALL_CURVES
100
AcDbLine
 62
40
  6
CONTINUOUS
 10
8.1292714641
 20
4.4754783717
 11
8.1343257609
 21
4.468739306
  0
LINE
  5
3DC
100
AcDbEntity
  8
03__ASM_ALL_CURVES
100
AcDbLine
 62
40
  6
CONTINUOUS
 10
7.9928054482
 20
4.3582186826
 11
8.0332398232
 21
4.2773499326
  0
LINE
  5
3DD
100
AcDbEntity
  8
03__ASM_ALL_CURVES
100
AcDbLine
 62
40
  6
CONTINUOUS
 10
7.9725882609
 20
4.468739306
 11
7.9725882609
 21
4.4552611842
  0
LINE
  5
3DE
100
AcDbEntity
  8
03__ASM_ALL_CURVES
100
AcDbLine
 62
40
  6
CONTINUOUS
 10
7.9928054482
 20
4.2773499326
 11
7.9928054482
 21
4.3582186826
  0
LINE
  5
3DF
100
AcDbEntity
  8
03__ASM_ALL_CURVES
100
AcDbLine
 62
40
  6
CONTINUOUS
 10
8.0332398232
 20
4.2773499326
 11
8.0332398232
 21
4.3582186826
  0
LINE
  5
3E0
100
AcDbEntity
  8
03__ASM_ALL_CURVES
100
AcDbLine
 62
40
  6
CONTINUOUS
 10
8.0736741982
 20
4.3582186826
 11
8.0736741982
 21
4.2773499326
  0
LINE
  5
3E1
100
AcDbEntity
  8
03__ASM_ALL_CURVES
100
AcDbLine
 62
40
  6
CONTINUOUS
 10
8.0938913859
 20
4.4013486826
 11
8.0938913859
 21
4.4822174326
  0
LINE
  5
3E2
100
AcDbEntity
  8
03__ASM_ALL_CURVES
100
AcDbLine
 62
40
  6
CONTINUOUS
 10
8.1343257609
 20
4.468739306
 11
8.1343257609
 21
4.4552611842
  0
LINE
  5
3E3
100
AcDbEntity
  8
03__ASM_ALL_CURVES
100
AcDbLine
 62
40
  6
CONTINUOUS
 10
8.0635656047
 20
4.4417830576
 11
8.0585113078
 21
4.4215658701
  0
LINE
  5
3E4
100
AcDbEntity
  8
03__ASM_ALL_CURVES
100
AcDbLine
 62
40
  6
CONTINUOUS
 10
8.1191628703
 20
4.4417830576
 11
8.1343257609
 21
4.4013486826
  0
LINE
  5
3E5
100
AcDbEntity
  8
03__ASM_ALL_CURVES
100
AcDbLine
 62
40
  6
CONTINUOUS
 10
8.0079683391
 20
4.4215658701
 11
8.0029140422
 21
4.4417830576
  0
LINE
  5
3E6
100
AcDbEntity
  8
03__ASM_ALL_CURVES
100
AcDbLine
 62
40
  6
CONTINUOUS
 10
8.0585113078
 20
4.4620002451
 11
8.0635656047
 21
4.4417830576
  0
LINE
  5
3E7
100
AcDbEntity
  8
03__ASM_ALL_CURVES
100
AcDbLine
 62
40
  6
CONTINUOUS
 10
8.1545429482
 20
4.2773499326
 11
8.1545429482
 21
4.3582186826
  0
LINE
  5
3E8
100
AcDbEntity
  8
03__ASM_ALL_CURVES
100
AcDbLine
 62
40
  6
CONTINUOUS
 10
8.1949773234
 20
4.4822174326
 11
8.1949773234
 21
4.4013486826
  0
LINE
  5
3E9
100
AcDbEntity
  8
03__ASM_ALL_CURVES
100
AcDbLine
 62
40
  6
CONTINUOUS
 10
8.2556288857
 20
4.3582186826
 11
8.2556288857
 21
4.2773499326
  0
LINE
  5
3EA
100
AcDbEntity
  8
03__ASM_ALL_CURVES
100
AcDbLine
 62
40
  6
CONTINUOUS
 10
8.2758460734
 20
4.4822174326
 11
8.2758460734
 21
4.4013486826
  0
CIRCLE
  5
3EB
100
AcDbEntity
  8
0
100
AcDbCircle
 62
7
  6
CONTINUOUS
 10
6.2661538861
 20
4.3797836826
 40
0.156
  0
CIRCLE
  5
3EC
100
AcDbEntity
  8
0
100
AcDbCircle
 62
7
  6
CONTINUOUS
 10
7.0481538861
 20
4.3797836826
 40
0.156
  0
ARC
  5
3ED
100
AcDbEntity
  8
0
100
AcDbCircle
 62
7
  6
CONTINUOUS
 10
4.7405178576
 20
3.4857836826
 40
0.028
100
AcDbArc
 50
9.2483578877
 51
76.1357488605
  0
ARC
  5
3EE
100
AcDbEntity
  8
0
100
AcDbCircle
 62
7
  6
CONTINUOUS
 10
4.7405178576
 20
5.2737836826
 40
0.028
100
AcDbArc
 50
283.8642511395
 51
350.7516421123
  0
ARC
  5
3EF
100
AcDbEntity
  8
0
100
AcDbCircle
 62
7
  6
CONTINUOUS
 10
6.0101538861
 20
5.0982836826
 40
0.021
100
AcDbArc
 50
181.3643141507
 51
358.6356858493
  0
SPLINE
  5
3F0
100
AcDbEntity
  8
0
100
AcDbSpline
 62
7
  6
CONTINUOUS
 70
0
 71
3
 72
15
 73
11
 74
9
 42
0.0000001
 43
0.0000001
 44
0.0000000001
 12
0.0
 22
0.1617702498
 32
0.0
 13
0.0
 23
-0.1617702498
 33
0.0
 40
0.0
 40
0.0
 40
0.0
 40
0.0
 40
0.125
 40
0.25
 40
0.375
 40
0.5
 40
0.625
 40
0.75
 40
0.875
 40
1.0
 40
1.0
 40
1.0
 40
1.0
 10
7.4821538861
 20
5.1547836826
 30
0.0
 10
7.4821538861
 20
5.1615241097
 30
0.0
 10
7.4794723775
 20
5.1750049638
 30
0.0
 10
7.4680179418
 20
5.1921477383
 30
0.0
 10
7.4508751674
 20
5.203602174
 30
0.0
 10
7.4306538861
 20
5.2076244369
 30
0.0
 10
7.4104326049
 20
5.203602174
 30
0.0
 10
7.3932898305
 20
5.1921477383
 30
0.0
 10
7.3818353948
 20
5.1750049638
 30
0.0
 10
7.3791538861
 20
5.1615241097
 30
0.0
 10
7.3791538861
 20
5.1547836826
 30
0.0
 11
7.4821538861
 21
5.1547836826
 31
0.0
 11
7.4782336821
 21
5.1744918794
 31
0.0
 11
7.4670698854
 21
5.1911996818
 31
0.0
 11
7.4503620829
 21
5.2023634785
 31
0.0
 11
7.4306538861
 21
5.2062836826
 31
0.0
 11
7.4109456894
 21
5.2023634785
 31
0.0
 11
7.3942378869
 21
5.1911996818
 31
0.0
 11
7.3830740902
 21
5.1744918794
 31
0.0
 11
7.3791538861
 21
5.1547836826
 31
0.0
  0
SPLINE
  5
3F1
100
AcDbEntity
  8
0
100
AcDbSpline
 62
7
  6
CONTINUOUS
 70
0
 71
3
 72
15
 73
11
 74
9
 42
0.0000001
 43
0.0000001
 44
0.0000000001
 12
0.0
 22
-0.1617702498
 32
0.0
 13
0.0
 23
0.1617702498
 33
0.0
 40
0.0
 40
0.0
 40
0.0
 40
0.0
 40
0.125
 40
0.25
 40
0.375
 40
0.5
 40
0.625
 40
0.75
 40
0.875
 40
1.0
 40
1.0
 40
1.0
 40
1.0
 10
7.4821538861
 20
3.6047836826
 30
0.0
 10
7.4821538861
 20
3.5980432555
 30
0.0
 10
7.4794723775
 20
3.5845624014
 30
0.0
 10
7.4680179418
 20
3.5674196269
 30
0.0
 10
7.4508751674
 20
3.5559651912
 30
0.0
 10
7.4306538861
 20
3.5519429283
 30
0.0
 10
7.4104326049
 20
3.5559651912
 30
0.0
 10
7.3932898305
 20
3.5674196269
 30
0.0
 10
7.3818353948
 20
3.5845624014
 30
0.0
 10
7.3791538861
 20
3.5980432555
 30
0.0
 10
7.3791538861
 20
3.6047836826
 30
0.0
 11
7.4821538861
 21
3.6047836826
 31
0.0
 11
7.4782336821
 21
3.5850754858
 31
0.0
 11
7.4670698854
 21
3.5683676834
 31
0.0
 11
7.4503620829
 21
3.5572038867
 31
0.0
 11
7.4306538861
 21
3.5532836826
 31
0.0
 11
7.4109456894
 21
3.5572038867
 31
0.0
 11
7.3942378869
 21
3.5683676834
 31
0.0
 11
7.3830740902
 21
3.5850754858
 31
0.0
 11
7.3791538861
 21
3.6047836826
 31
0.0
  0
SPLINE
  5
3F2
100
AcDbEntity
  8
0
100
AcDbSpline
 62
7
  6
CONTINUOUS
 70
0
 71
3
 72
15
 73
11
 74
9
 42
0.0000001
 43
0.0000001
 44
0.0000000001
 12
0.0
 22
0.1617702498
 32
0.0
 13
-0.0
 23
-0.1617702498
 33
0.0
 40
0.0
 40
0.0
 40
0.0
 40
0.0
 40
0.125
 40
0.25
 40
0.375
 40
0.5
 40
0.625
 40
0.75
 40
0.875
 40
1.0
 40
1.0
 40
1.0
 40
1.0
 10
4.6971538861
 20
5.2972836826
 30
0.0
 10
4.6971538861
 20
5.3040241097
 30
0.0
 10
4.6944723775
 20
5.3175049638
 30
0.0
 10
4.6830179418
 20
5.3346477383
 30
0.0
 10
4.6658751674
 20
5.346102174
 30
0.0
 10
4.6456538861
 20
5.3501244369
 30
0.0
 10
4.6254326049
 20
5.346102174
 30
0.0
 10
4.6082898305
 20
5.3346477383
 30
0.0
 10
4.5968353948
 20
5.3175049638
 30
0.0
 10
4.5941538861
 20
5.3040241097
 30
0.0
 10
4.5941538861
 20
5.2972836826
 30
0.0
 11
4.6971538861
 21
5.2972836826
 31
0.0
 11
4.6932336821
 21
5.3169918794
 31
0.0
 11
4.6820698854
 21
5.3336996818
 31
0.0
 11
4.6653620829
 21
5.3448634785
 31
0.0
 11
4.6456538861
 21
5.3487836826
 31
0.0
 11
4.6259456894
 21
5.3448634785
 31
0.0
 11
4.6092378869
 21
5.3336996818
 31
0.0
 11
4.5980740902
 21
5.3169918794
 31
0.0
 11
4.5941538861
 21
5.2972836826
 31
0.0
  0
SPLINE
  5
3F3
100
AcDbEntity
  8
0
100
AcDbSpline
 62
7
  6
CONTINUOUS
 70
0
 71
3
 72
15
 73
11
 74
9
 42
0.0000001
 43
0.0000001
 44
0.0000000001
 12
0.0
 22
-0.1617702498
 32
0.0
 13
-0.0
 23
0.1617702498
 33
0.0
 40
0.0
 40
0.0
 40
0.0
 40
0.0
 40
0.125
 40
0.25
 40
0.375
 40
0.5
 40
0.625
 40
0.75
 40
0.875
 40
1.0
 40
1.0
 40
1.0
 40
1.0
 10
4.6971538861
 20
3.4622836826
 30
0.0
 10
4.6971538861
 20
3.4555432555
 30
0.0
 10
4.6944723775
 20
3.4420624014
 30
0.0
 10
4.6830179418
 20
3.4249196269
 30
0.0
 10
4.6658751674
 20
3.4134651912
 30
0.0
 10
4.6456538861
 20
3.4094429283
 30
0.0
 10
4.6254326049
 20
3.4134651912
 30
0.0
 10
4.6082898305
 20
3.4249196269
 30
0.0
 10
4.5968353948
 20
3.4420624014
 30
0.0
 10
4.5941538861
 20
3.4555432555
 30
0.0
 10
4.5941538861
 20
3.4622836826
 30
0.0
 11
4.6971538861
 21
3.4622836826
 31
0.0
 11
4.6932336821
 21
3.4425754858
 31
0.0
 11
4.6820698854
 21
3.4258676834
 31
0.0
 11
4.6653620829
 21
3.4147038867
 31
0.0
 11
4.6456538861
 21
3.4107836826
 31
0.0
 11
4.6259456894
 21
3.4147038867
 31
0.0
 11
4.6092378869
 21
3.4258676834
 31
0.0
 11
4.5980740902
 21
3.4425754858
 31
0.0
 11
4.5941538861
 21
3.4622836826
 31
0.0
  0
SPLINE
  5
3F4
100
AcDbEntity
  8
0
100
AcDbSpline
 62
7
  6
CONTINUOUS
 70
0
 71
3
 72
12
 73
8
 74
6
 42
0.0000001
 43
0.0000001
 44
0.0000000001
 12
0.1039395426
 22
-0.0788124363
 32
0.0
 13
0.1302162115
 23
0.0
 33
0.0
 40
0.0
 40
0.0
 40
0.0
 40
0.0
 40
0.1261337607
 40
0.3238019152
 40
0.5379373713
 40
0.7655307344
 40
1.0
 40
1.0
 40
1.0
 40
1.0
 10
6.9241789841
 20
3.9430108712
 30
0.0
 10
6.9285490793
 20
3.9396972349
 30
0.0
 10
6.9404428613
 20
3.9320819685
 30
0.0
 10
6.9619575663
 20
3.9227456383
 30
0.0
 10
6.9888218801
 20
3.9154767448
 30
0.0
 10
7.0179062807
 20
3.9111522369
 30
0.0
 10
7.037976653
 20
3.9102005823
 30
0.0
 10
7.0481538861
 20
3.9102005823
 30
0.0
 11
6.9241789841
 21
3.9430108712
 31
0.0
 11
6.9379756164
 21
3.9340671236
 31
0.0
 11
6.9614906461
 21
3.9235995406
 31
0.0
 11
6.9883598958
 21
3.9161459683
 31
0.0
 11
7.0176581603
 21
3.9116822621
 31
0.0
 11
7.0481538861
 21
3.9102005823
 31
0.0
  0
SPLINE
  5
3F5
100
AcDbEntity
  8
0
100
AcDbSpline
 62
7
  6
CONTINUOUS
 70
0
 71
3
 72
14
 73
10
 74
8
 42
0.0000001
 43
0.0000001
 44
0.0000000001
 12
0.0001343628
 22
0.218235613
 32
0.0
 13
-0.2174036516
 23
-0.0
 33
0.0
 40
0.0
 40
0.0
 40
0.0
 40
0.0
 40
0.1160495366
 40
0.2422755693
 40
0.380205849
 40
0.5282560033
 40
0.6829988886
 40
0.8409868615
 40
1.0
 40
1.0
 40
1.0
 40
1.0
 10
7.2041538868
 20
3.8720810051
 30
0.0
 10
7.2041590844
 20
3.8805230524
 30
0.0
 10
7.2012540254
 20
3.8981047878
 30
0.0
 10
7.1893734686
 20
3.9232959397
 30
0.0
 10
7.1704739044
 20
3.9467487434
 30
0.0
 10
7.1454731193
 20
3.966979915
 30
0.0
 10
7.1156837362
 20
3.9825400453
 30
0.0
 10
7.0827107379
 20
3.9923055007
 30
0.0
 10
7.0596772318
 20
3.9945179263
 30
0.0
 10
7.0481538861
 20
3.9945179263
 30
0.0
 11
7.2041538868
 21
3.8720810051
 31
0.0
 11
7.2003056018
 21
3.8970153891
 31
0.0
 11
7.188858453
 21
3.9219558416
 31
0.0
 11
7.1702143116
 21
3.9454417727
 31
0.0
 11
7.1452792352
 21
3.965794218
 31
0.0
 11
7.1154918366
 21
3.9814298418
 31
0.0
 11
7.0825647052
 21
3.9912038671
 31
0.0
 11
7.0481538861
 21
3.9945179263
 31
0.0
  0
SPLINE
  5
3F6
100
AcDbEntity
  8
0
100
AcDbSpline
 62
7
  6
CONTINUOUS
 70
0
 71
3
 72
14
 73
10
 74
8
 42
0.0000001
 43
0.0000001
 44
0.0000000001
 12
-0.0001343562
 22
-0.2182356124
 32
0.0
 13
0.2174036509
 23
0.0
 33
0.0
 40
0.0
 40
0.0
 40
0.0
 40
0.0
 40
0.1160503238
 40
0.2422770617
 40
0.3802076205
 40
0.5282575277
 40
0.6829999936
 40
0.840987514
 40
1.0
 40
1.0
 40
1.0
 40
1.0
 10
6.8921538854
 20
4.8874863608
 30
0.0
 10
6.8921486881
 20
4.8790442563
 30
0.0
 10
6.8950537849
 20
4.861462411
 30
0.0
 10
6.9069344585
 20
4.8362711693
 30
0.0
 10
6.9258341185
 20
4.812818374
 30
0.0
 10
6.9508349264
 20
4.7925872781
 30
0.0
 10
6.9806242616
 20
4.7770272356
 30
0.0
 10
7.0135971626
 20
4.7672618476
 30
0.0
 10
7.0366305878
 20
4.7650494389
 30
0.0
 10
7.0481538861
 20
4.7650494389
 30
0.0
 11
6.8921538854
 21
4.8874863608
 31
0.0
 11
6.896002221
 21
4.8625518109
 31
0.0
 11
6.9074494914
 21
4.8376112455
 31
0.0
 11
6.9260937335
 21
4.814125317
 31
0.0
 11
6.9510288154
 21
4.7937729636
 31
0.0
 11
6.9808161595
 21
4.7781374325
 31
0.0
 11
7.0137432071
 21
4.7683634709
 31
0.0
 11
7.0481538861
 21
4.7650494389
 31
0.0
  0
SPLINE
  5
3F7
100
AcDbEntity
  8
0
100
AcDbSpline
 62
7
  6
CONTINUOUS
 70
0
 71
3
 72
12
 73
8
 74
6
 42
0.0000001
 43
0.0000001
 44
0.0000000001
 12
-0.1039397186
 22
0.0788122877
 32
0.0
 13
-0.1302160995
 23
0.0
 33
0.0
 40
0.0
 40
0.0
 40
0.0
 40
0.0
 40
0.12597885
 40
0.3236712555
 40
0.5378458943
 40
0.7654849143
 40
1.0
 40
1.0
 40
1.0
 40
1.0
 10
7.1721287411
 20
4.8165565321
 30
0.0
 10
7.1677640057
 20
4.8198660926
 30
0.0
 10
7.1558757958
 20
4.827479394
 30
0.0
 10
7.1343657756
 20
4.8368166396
 30
0.0
 10
7.1074973217
 20
4.8440885144
 30
0.0
 10
7.0784074337
 20
4.8484147593
 30
0.0
 10
7.0583330994
 20
4.8493667829
 30
0.0
 10
7.0481538861
 20
4.8493667829
 30
0.0
 11
7.1721287411
 21
4.8165565321
 31
0.0
 11
7.1583497558
 21
4.8254904615
 31
0.0
 11
7.1348331288
 21
4.8359621663
 31
0.0
 11
7.1079594991
 21
4.8434189466
 31
0.0
 11
7.0786555309
 21
4.8478845195
 31
0.0
 11
7.0481538861
 21
4.8493667829
 31
0.0
  0
SPLINE
  5
3F8
100
AcDbEntity
  8
0
100
AcDbSpline
 62
7
  6
CONTINUOUS
 70
0
 71
3
 72
14
 73
10
 74
8
 42
0.0000001
 43
0.0000001
 44
0.0000000001
 12
-0.2174036545
 22
0.0
 32
0.0
 13
0.000134384
 23
-0.218235612
 33
0.0
 40
0.0
 40
0.0
 40
0.0
 40
0.0
 40
0.1590178562
 40
0.3170069555
 40
0.4717498287
 40
0.6198008871
 40
0.7577303451
 40
0.8839535806
 40
1.0
 40
1.0
 40
1.0
 40
1.0
 10
7.0481538861
 20
3.9945179263
 30
0.0
 10
7.0366301985
 20
3.9945179263
 30
0.0
 10
7.013596263
 20
3.9923053933
 30
0.0
 10
6.9806229176
 20
3.982539603
 30
0.0
 10
6.9508335184
 20
3.9669791835
 30
0.0
 10
6.9258328997
 20
3.9467477884
 30
0.0
 10
6.9069336995
 20
3.9232949432
 30
0.0
 10
6.8950535962
 20
3.898104129
 30
0.0
 10
6.8921486874
 20
3.8805228278
 30
0.0
 10
6.8921538857
 20
3.8720810073
 30
0.0
 11
7.0481538861
 21
3.9945179263
 31
0.0
 11
7.0137420552
 21
3.9912036702
 31
0.0
 11
6.9808147521
 21
3.9814293613
 31
0.0
 11
6.9510274724
 21
3.9657935157
 31
0.0
 11
6.9260924234
 21
3.9454407253
 31
0.0
 11
6.9074486374
 21
3.9219547395
 31
0.0
 11
6.8960019706
 21
3.8970147345
 31
0.0
 11
6.8921538857
 21
3.8720810073
 31
0.0
  0
SPLINE
  5
3F9
100
AcDbEntity
  8
0
100
AcDbSpline
 62
7
  6
CONTINUOUS
 70
0
 71
3
 72
8
 73
4
 74
2
 42
0.0000001
 43
0.0000001
 44
0.0000000001
 12
0.0018755244
 22
-0.0000548456
 32
0.0
 13
0.0018753754
 23
-0.0000597355
 33
0.0
 40
0.0
 40
0.0
 40
0.0
 40
0.0
 40
1.0
 40
1.0
 40
1.0
 40
1.0
 10
6.0311479329
 20
3.661861333
 30
0.0
 10
6.0317731077
 20
3.6618430512
 30
0.0
 10
6.0323982591
 20
3.6618239541
 30
0.0
 10
6.0330233842
 20
3.6618040423
 30
0.0
 11
6.0311479329
 21
3.661861333
 31
0.0
 11
6.0330233842
 21
3.6618040423
 31
0.0
  0
SPLINE
  5
3FA
100
AcDbEntity
  8
0
100
AcDbSpline
 62
7
  6
CONTINUOUS
 70
0
 71
3
 72
8
 73
4
 74
2
 42
0.0000001
 43
0.0000001
 44
0.0000000001
 12
0.0006305109
 22
-0.0000200834
 32
0.0
 13
0.0006304928
 23
-0.0000206359
 33
0.0
 40
0.0
 40
0.0
 40
0.0
 40
0.0
 40
1.0
 40
1.0
 40
1.0
 40
1.0
 10
6.0330233842
 20
3.6618040423
 30
0.0
 10
6.0332335545
 20
3.6617973478
 30
0.0
 10
6.0334437219
 20
3.6617905612
 30
0.0
 10
6.0336538861
 20
3.6617836826
 30
0.0
 11
6.0330233842
 21
3.6618040423
 31
0.0
 11
6.0336538861
 21
3.6617836826
 31
0.0
  0
SPLINE
  5
3FB
100
AcDbEntity
  8
0
100
AcDbSpline
 62
7
  6
CONTINUOUS
 70
0
 71
3
 72
14
 73
10
 74
8
 42
0.0000001
 43
0.0000001
 44
0.0000000001
 12
0.2174036538
 22
0.0
 32
0.0
 13
-0.0001343782
 23
0.2182356118
 33
0.0
 40
0.0
 40
0.0
 40
0.0
 40
0.0
 40
0.1590172011
 40
0.3170058297
 40
0.4717483082
 40
0.6197991931
 40
0.7577289398
 40
0.8839528223
 40
1.0
 40
1.0
 40
1.0
 40
1.0
 10
7.0481538861
 20
4.7650494389
 30
0.0
 10
7.0596775263
 20
4.7650494389
 30
0.0
 10
7.0827113793
 20
4.7672619548
 30
0.0
 10
7.1156846278
 20
4.7770276773
 30
0.0
 10
7.1454739846
 20
4.7925880113
 30
0.0
 10
7.1704746313
 20
4.8128193373
 30
0.0
 10
7.1893739255
 20
4.8362721781
 30
0.0
 10
7.2012541399
 20
4.8614630783
 30
0.0
 10
7.2041590848
 20
4.8790444829
 30
0.0
 10
7.2041538867
 20
4.8874863585
 30
0.0
 11
7.0481538861
 21
4.7650494389
 31
0.0
 11
7.0825655765
 21
4.7683636677
 31
0.0
 11
7.1154927922
 21
4.7781379113
 31
0.0
 11
7.1452800224
 21
4.7937736664
 31
0.0
 11
7.1702150881
 21
4.8141263765
 31
0.0
 11
7.1888589728
 21
4.8376123638
 31
0.0
 11
7.200305753
 21
4.8625524714
 31
0.0
 11
7.2041538867
 21
4.8874863585
 31
0.0
  0
SPLINE
  5
3FC
100
AcDbEntity
  8
0
100
AcDbSpline
 62
7
  6
CONTINUOUS
 70
0
 71
3
 72
19
 73
15
 74
13
 42
0.0000001
 43
0.0000001
 44
0.0000000001
 12
0.0015512599
 22
0.0651868556
 32
0.0
 13
0.0015512599
 23
-0.0651868556
 33
0.0
 40
0.0
 40
0.0
 40
0.0
 40
0.0
 40
0.0643420566
 40
0.1272493715
 40
0.1928108259
 40
0.2674102989
 40
0.3521466202
 40
0.4411868066
 40
0.5305375936
 40
0.6228737029
 40
0.7194715118
 40
0.815301594
 40
0.9070567855
 40
1.0
 40
1.0
 40
1.0
 40
1.0
 10
5.9891598394
 20
3.661861333
 30
0.0
 10
5.9891931098
 20
3.6632594185
 30
0.0
 10
5.9895364502
 20
3.6660255161
 30
0.0
 10
5.990853635
 20
3.6700291889
 30
0.0
 10
5.9930287519
 20
3.6739028505
 30
0.0
 10
5.9962910272
 20
3.6775987754
 30
0.0
 10
6.0007852242
 20
3.6807011037
 30
0.0
 10
6.0062647602
 20
3.6825901215
 30
0.0
 10
6.0122239651
 20
3.6828670095
 30
0.0
 10
6.0181767747
 20
3.6813757312
 30
0.0
 10
6.0235545124
 20
3.6781252899
 30
0.0
 10
6.0277401482
 20
3.6734628046
 30
0.0
 10
6.030418305
 20
3.6679030103
 30
0.0
 10
6.0310998732
 20
3.6638808917
 30
0.0
 10
6.0311479329
 20
3.661861333
 30
0.0
 11
5.9891598394
 21
3.661861333
 31
0.0
 11
5.9896747938
 21
3.6660250538
 31
0.0
 11
5.9909550152
 21
3.6699220453
 31
0.0
 11
5.9930483049
 21
3.6736494276
 31
0.0
 11
5.9962693277
 21
3.6772944584
 31
0.0
 11
6.0008201627
 21
3.6804278876
 31
0.0
 11
6.0063110541
 21
3.6823142878
 31
0.0
 11
6.0121309749
 21
3.6825835412
 31
0.0
 11
6.0179725166
 21
3.6811252959
 31
0.0
 11
6.0233674684
 21
3.677874451
 31
0.0
 11
6.0275464846
 21
3.6732288935
 31
0.0
 11
6.030140002
 21
3.6678373197
 31
0.0
 11
6.0311479329
 21
3.661861333
 31
0.0
  0
SPLINE
  5
3FD
100
AcDbEntity
  8
0
100
AcDbSpline
 62
7
  6
CONTINUOUS
 70
0
 71
3
 72
12
 73
8
 74
6
 42
0.0000001
 43
0.0000001
 44
0.0000000001
 12
0.1302160977
 22
0.0
 32
0.0
 13
0.1039396507
 23
0.0788126259
 33
0.0
 40
0.0
 40
0.0
 40
0.0
 40
0.0
 40
0.2342982195
 40
0.4617724536
 40
0.675845941
 40
0.8735609636
 40
1.0
 40
1.0
 40
1.0
 40
1.0
 10
7.0481538861
 20
3.9102005823
 30
0.0
 10
7.0583236861
 20
3.9102005823
 30
0.0
 10
7.0783814123
 20
3.9111509593
 30
0.0
 10
7.1074510228
 20
3.9154701372
 30
0.0
 10
7.1343109384
 20
3.9227323686
 30
0.0
 10
7.1558397097
 20
3.9320677885
 30
0.0
 10
7.1677480137
 20
3.9396891213
 30
0.0
 10
7.1721286901
 20
3.9430107855
 30
0.0
 11
7.0481538861
 21
3.9102005823
 31
0.0
 11
7.0786273925
 21
3.9116800725
 31
0.0
 11
7.1079107959
 21
3.9161381549
 31
0.0
 11
7.1347737322
 21
3.9235842054
 31
0.0
 11
7.1582972258
 21
3.9340477239
 31
0.0
 11
7.1721286901
 21
3.9430107855
 31
0.0
  0
SPLINE
  5
3FE
100
AcDbEntity
  8
0
100
AcDbSpline
 62
7
  6
CONTINUOUS
 70
0
 71
3
 72
23
 73
19
 74
17
 42
0.0000001
 43
0.0000001
 44
0.0000000001
 12
-0.3072991383
 22
-0.066766989
 32
0.0
 13
-0.3072991391
 23
0.0667669889
 33
0.0
 40
0.0
 40
0.0
 40
0.0
 40
0.0
 40
0.0097611232
 40
0.0386445207
 40
0.0852731206
 40
0.1476587938
 40
0.223342144
 40
0.3094760686
 40
0.4029009765
 40
0.5000636728
 40
0.5972441022
 40
0.6907002158
 40
0.7768520539
 40
0.8525155297
 40
0.9148502624
 40
0.9614181579
 40
0.990257558
 40
1.0
 40
1.0
 40
1.0
 40
1.0
 10
6.4221538861
 20
5.0977836826
 30
0.0
 10
6.4211540246
 20
5.0975664423
 30
0.0
 10
6.4171939082
 20
5.0967139057
 30
0.0
 10
6.4084413587
 20
5.0948988044
 30
0.0
 10
6.3942443951
 20
5.0921760857
 30
0.0
 10
6.3751521592
 20
5.0889511627
 30
0.0
 10
6.3518716492
 20
5.0857056502
 30
0.0
 10
6.325254182
 20
5.082932772
 30
0.0
 10
6.2962991281
 20
5.0810669266
 30
0.0
 10
6.2661319982
 20
5.0804094003
 30
0.0
 10
6.2359616336
 20
5.0810688421
 30
0.0
 10
6.2069997125
 20
5.0829372052
 30
0.0
 10
6.180379417
 20
5.0857125466
 30
0.0
 10
6.1571046561
 20
5.0889591084
 30
0.0
 10
6.1380262163
 20
5.0921829019
 30
0.0
 10
6.1238453801
 20
5.0949030753
 30
0.0
 10
6.1151055243
 20
5.0967156899
 30
0.0
 10
6.1111518342
 20
5.0975668581
 30
0.0
 10
6.1101538861
 20
5.0977836826
 30
0.0
 11
6.4221538861
 21
5.0977836826
 31
0.0
 11
6.4191530638
 21
5.0971376736
 31
0.0
 11
6.4102593088
 21
5.0952935517
 31
0.0
 11
6.3958583077
 21
5.0925327527
 31
0.0
 11
6.376513592
 21
5.0892674842
 31
0.0
 11
6.3529410011
 21
5.0859847894
 31
0.0
 11
6.3259999282
 21
5.0831822529
 31
0.0
 11
6.2966812897
 21
5.0812962786
 31
0.0
 11
6.2661338634
 21
5.0806317406
 31
0.0
 11
6.2355809025
 21
5.0812982636
 31
0.0
 11
6.2062526053
 21
5.0831869549
 31
0.0
 11
6.1793061549
 21
5.0859922413
 31
0.0
 11
6.1557400102
 21
5.0892759123
 31
0.0
 11
6.1364112905
 21
5.0925397005
 31
0.0
 11
6.1220291408
 21
5.0952974436
 31
0.0
 11
6.1131489631
 21
5.097138899
 31
0.0
 11
6.1101538861
 21
5.0977836826
 31
0.0
  0
SPLINE
  5
3FF
100
AcDbEntity
  8
0
100
AcDbSpline
 62
7
  6
CONTINUOUS
 70
0
 71
3
 72
23
 73
19
 74
17
 42
0.0000001
 43
0.0000001
 44
0.0000000001
 12
-0.3072991383
 22
-0.066766989
 32
0.0
 13
-0.3072991391
 23
0.0667669889
 33
0.0
 40
0.0
 40
0.0
 40
0.0
 40
0.0
 40
0.0097611232
 40
0.0386445207
 40
0.0852731206
 40
0.1476587938
 40
0.223342144
 40
0.3094760686
 40
0.4029009765
 40
0.5000636728
 40
0.5972441022
 40
0.6907002158
 40
0.7768520539
 40
0.8525155297
 40
0.9148502624
 40
0.9614181579
 40
0.990257558
 40
1.0
 40
1.0
 40
1.0
 40
1.0
 10
7.2041538861
 20
5.0977836826
 30
0.0
 10
7.2031540246
 20
5.0975664423
 30
0.0
 10
7.1991939082
 20
5.0967139057
 30
0.0
 10
7.1904413587
 20
5.0948988044
 30
0.0
 10
7.1762443951
 20
5.0921760857
 30
0.0
 10
7.1571521592
 20
5.0889511627
 30
0.0
 10
7.1338716492
 20
5.0857056502
 30
0.0
 10
7.107254182
 20
5.082932772
 30
0.0
 10
7.0782991281
 20
5.0810669266
 30
0.0
 10
7.0481319982
 20
5.0804094003
 30
0.0
 10
7.0179616336
 20
5.0810688421
 30
0.0
 10
6.9889997125
 20
5.0829372052
 30
0.0
 10
6.962379417
 20
5.0857125466
 30
0.0
 10
6.9391046561
 20
5.0889591084
 30
0.0
 10
6.9200262163
 20
5.0921829019
 30
0.0
 10
6.9058453801
 20
5.0949030753
 30
0.0
 10
6.8971055243
 20
5.0967156899
 30
0.0
 10
6.8931518342
 20
5.0975668581
 30
0.0
 10
6.8921538861
 20
5.0977836826
 30
0.0
 11
7.2041538861
 21
5.0977836826
 31
0.0
 11
7.2011530638
 21
5.0971376736
 31
0.0
 11
7.1922593088
 21
5.0952935517
 31
0.0
 11
7.1778583077
 21
5.0925327527
 31
0.0
 11
7.158513592
 21
5.0892674842
 31
0.0
 11
7.1349410011
 21
5.0859847894
 31
0.0
 11
7.1079999282
 21
5.0831822529
 31
0.0
 11
7.0786812897
 21
5.0812962786
 31
0.0
 11
7.0481338634
 21
5.0806317406
 31
0.0
 11
7.0175809025
 21
5.0812982636
 31
0.0
 11
6.9882526053
 21
5.0831869549
 31
0.0
 11
6.9613061549
 21
5.0859922413
 31
0.0
 11
6.9377400102
 21
5.0892759123
 31
0.0
 11
6.9184112905
 21
5.0925397005
 31
0.0
 11
6.9040291408
 21
5.0952974436
 31
0.0
 11
6.8951489631
 21
5.097138899
 31
0.0
 11
6.8921538861
 21
5.0977836826
 31
0.0
  0
SPLINE
  5
400
100
AcDbEntity
  8
0
100
AcDbSpline
 62
7
  6
CONTINUOUS
 70
0
 71
3
 72
12
 73
8
 74
6
 42
0.0000001
 43
0.0000001
 44
0.0000000001
 12
-0.1302159831
 22
0.0
 32
0.0
 13
-0.1039398285
 23
-0.0788124738
 33
0.0
 40
0.0
 40
0.0
 40
0.0
 40
0.0
 40
0.2343447892
 40
0.4618653146
 40
0.6759779095
 40
0.8737173552
 40
1.0
 40
1.0
 40
1.0
 40
1.0
 10
7.0481538861
 20
4.8493667829
 30
0.0
 10
7.0379820738
 20
4.8493667829
 30
0.0
 10
7.0179203258
 20
4.8484160314
 30
0.0
 10
6.9888451735
 20
4.8440950953
 30
0.0
 10
6.9619810926
 20
4.8368298547
 30
0.0
 10
6.9404570716
 20
4.8274935177
 30
0.0
 10
6.9285543962
 20
4.8198741685
 30
0.0
 10
6.9241791307
 20
4.8165566193
 30
0.0
 11
7.0481538861
 21
4.8493667829
 31
0.0
 11
7.0176743642
 21
4.8478867001
 31
0.0
 11
6.988385178
 21
4.8434267249
 31
0.0
 11
6.9615178768
 21
4.8359774492
 31
0.0
 11
6.9379927765
 21
4.8255097738
 31
0.0
 11
6.9241791307
 21
4.8165566193
 31
0.0
  0
SPLINE
  5
401
100
AcDbEntity
  8
0
100
AcDbSpline
 62
7
  6
CONTINUOUS
 70
0
 71
3
 72
8
 73
4
 74
2
 42
0.0000001
 43
0.0000001
 44
0.0000000001
 12
0.0006304928
 22
0.0000206359
 32
0.0
 13
0.0006305109
 23
0.0000200834
 33
0.0
 40
0.0
 40
0.0
 40
0.0
 40
0.0
 40
1.0
 40
1.0
 40
1.0
 40
1.0
 10
5.9866538861
 20
3.6617836826
 30
0.0
 10
5.9868640504
 20
3.6617905612
 30
0.0
 10
5.9870742178
 20
3.6617973478
 30
0.0
 10
5.9872843881
 20
3.6618040423
 30
0.0
 11
5.9866538861
 21
3.6617836826
 31
0.0
 11
5.9872843881
 21
3.6618040423
 31
0.0
  0
SPLINE
  5
402
100
AcDbEntity
  8
0
100
AcDbSpline
 62
7
  6
CONTINUOUS
 70
0
 71
3
 72
8
 73
4
 74
2
 42
0.0000001
 43
0.0000001
 44
0.0000000001
 12
0.0018753754
 22
0.0000597355
 32
0.0
 13
0.0018755244
 23
0.0000548456
 33
0.0
 40
0.0
 40
0.0
 40
0.0
 40
0.0
 40
1.0
 40
1.0
 40
1.0
 40
1.0
 10
5.9872843881
 20
3.6618040423
 30
0.0
 10
5.9879095132
 20
3.6618239541
 30
0.0
 10
5.9885346646
 20
3.6618430512
 30
0.0
 10
5.9891598394
 20
3.661861333
 30
0.0
 11
5.9872843881
 21
3.6618040423
 31
0.0
 11
5.9891598394
 21
3.661861333
 31
0.0
  0
SPLINE
  5
403
100
AcDbEntity
  8
0
100
AcDbSpline
 62
7
  6
CONTINUOUS
 70
0
 71
3
 72
23
 73
19
 74
17
 42
0.0000001
 43
0.0000001
 44
0.0000000001
 12
0.3072991383
 22
0.066766989
 32
0.0
 13
0.3072991391
 23
-0.0667669889
 33
0.0
 40
0.0
 40
0.0
 40
0.0
 40
0.0
 40
0.0097611232
 40
0.0386445207
 40
0.0852731206
 40
0.1476587938
 40
0.223342144
 40
0.3094760686
 40
0.4029009765
 40
0.5000636728
 40
0.5972441022
 40
0.6907002158
 40
0.7768520539
 40
0.8525155297
 40
0.9148502624
 40
0.9614181579
 40
0.990257558
 40
1.0
 40
1.0
 40
1.0
 40
1.0
 10
6.1101538861
 20
3.6617836826
 30
0.0
 10
6.1111537477
 20
3.6620009229
 30
0.0
 10
6.1151138641
 20
3.6628534595
 30
0.0
 10
6.1238664136
 20
3.6646685608
 30
0.0
 10
6.1380633772
 20
3.6673912795
 30
0.0
 10
6.1571556131
 20
3.6706162025
 30
0.0
 10
6.1804361231
 20
3.673861715
 30
0.0
 10
6.2070535903
 20
3.6766345932
 30
0.0
 10
6.2360086442
 20
3.6785004386
 30
0.0
 10
6.2661757741
 20
3.6791579649
 30
0.0
 10
6.2963461387
 20
3.6784985231
 30
0.0
 10
6.3253080598
 20
3.67663016
 30
0.0
 10
6.3519283553
 20
3.6738548186
 30
0.0
 10
6.3752031162
 20
3.6706082568
 30
0.0
 10
6.394281556
 20
3.6673844633
 30
0.0
 10
6.4084623922
 20
3.6646642899
 30
0.0
 10
6.417202248
 20
3.6628516753
 30
0.0
 10
6.4211559381
 20
3.6620005071
 30
0.0
 10
6.4221538861
 20
3.6617836826
 30
0.0
 11
6.1101538861
 21
3.6617836826
 31
0.0
 11
6.1131547085
 21
3.6624296916
 31
0.0
 11
6.1220484635
 21
3.6642738135
 31
0.0
 11
6.1364494646
 21
3.6670346125
 31
0.0
 11
6.1557941803
 21
3.670299881
 31
0.0
 11
6.1793667712
 21
3.6735825757
 31
0.0
 11
6.2063078441
 21
3.6763851123
 31
0.0
 11
6.2356264826
 21
3.6782710866
 31
0.0
 11
6.2661739089
 21
3.6789356246
 31
0.0
 11
6.2967268698
 21
3.6782691016
 31
0.0
 11
6.326055167
 21
3.6763804103
 31
0.0
 11
6.3530016174
 21
3.6735751239
 31
0.0
 11
6.3765677621
 21
3.6702914529
 31
0.0
 11
6.3958964818
 21
3.6670276646
 31
0.0
 11
6.4102786315
 21
3.6642699216
 31
0.0
 11
6.4191588092
 21
3.6624284662
 31
0.0
 11
6.4221538861
 21
3.6617836826
 31
0.0
  0
SPLINE
  5
404
100
AcDbEntity
  8
0
100
AcDbSpline
 62
7
  6
CONTINUOUS
 70
0
 71
3
 72
23
 73
19
 74
17
 42
0.0000001
 43
0.0000001
 44
0.0000000001
 12
0.3072991383
 22
0.066766989
 32
0.0
 13
0.3072991391
 23
-0.0667669889
 33
0.0
 40
0.0
 40
0.0
 40
0.0
 40
0.0
 40
0.0097611232
 40
0.0386445207
 40
0.0852731206
 40
0.1476587938
 40
0.223342144
 40
0.3094760686
 40
0.4029009765
 40
0.5000636728
 40
0.5972441022
 40
0.6907002158
 40
0.7768520539
 40
0.8525155297
 40
0.9148502624
 40
0.9614181579
 40
0.990257558
 40
1.0
 40
1.0
 40
1.0
 40
1.0
 10
6.8921538861
 20
3.6617836826
 30
0.0
 10
6.8931537477
 20
3.6620009229
 30
0.0
 10
6.8971138641
 20
3.6628534595
 30
0.0
 10
6.9058664136
 20
3.6646685608
 30
0.0
 10
6.9200633772
 20
3.6673912795
 30
0.0
 10
6.9391556131
 20
3.6706162025
 30
0.0
 10
6.9624361231
 20
3.673861715
 30
0.0
 10
6.9890535903
 20
3.6766345932
 30
0.0
 10
7.0180086442
 20
3.6785004386
 30
0.0
 10
7.0481757741
 20
3.6791579649
 30
0.0
 10
7.0783461387
 20
3.6784985231
 30
0.0
 10
7.1073080598
 20
3.67663016
 30
0.0
 10
7.1339283553
 20
3.6738548186
 30
0.0
 10
7.1572031162
 20
3.6706082568
 30
0.0
 10
7.176281556
 20
3.6673844633
 30
0.0
 10
7.1904623922
 20
3.6646642899
 30
0.0
 10
7.199202248
 20
3.6628516753
 30
0.0
 10
7.2031559381
 20
3.6620005071
 30
0.0
 10
7.2041538861
 20
3.6617836826
 30
0.0
 11
6.8921538861
 21
3.6617836826
 31
0.0
 11
6.8951547085
 21
3.6624296916
 31
0.0
 11
6.9040484635
 21
3.6642738135
 31
0.0
 11
6.9184494646
 21
3.6670346125
 31
0.0
 11
6.9377941803
 21
3.670299881
 31
0.0
 11
6.9613667712
 21
3.6735825757
 31
0.0
 11
6.9883078441
 21
3.6763851123
 31
0.0
 11
7.0176264826
 21
3.6782710866
 31
0.0
 11
7.0481739089
 21
3.6789356246
 31
0.0
 11
7.0787268698
 21
3.6782691016
 31
0.0
 11
7.108055167
 21
3.6763804103
 31
0.0
 11
7.1350016174
 21
3.6735751239
 31
0.0
 11
7.1585677621
 21
3.6702914529
 31
0.0
 11
7.1778964818
 21
3.6670276646
 31
0.0
 11
7.1922786315
 21
3.6642699216
 31
0.0
 11
7.2011588092
 21
3.6624284662
 31
0.0
 11
7.2041538861
 21
3.6617836826
 31
0.0
  0
SPLINE
  5
405
100
AcDbEntity
  8
0
100
AcDbSpline
 62
7
  6
CONTINUOUS
 70
0
 71
3
 72
14
 73
10
 74
8
 42
0.0000001
 43
0.0000001
 44
0.0000000001
 12
-0.000125867
 22
0.2044130028
 32
0.0
 13
-0.2036337395
 23
0.0
 33
0.0
 40
0.0
 40
0.0
 40
0.0
 40
0.0
 40
0.1182322401
 40
0.2384026826
 40
0.3678235868
 40
0.5104885803
 40
0.6659646052
 40
0.8306778655
 40
1.0
 40
1.0
 40
1.0
 40
1.0
 10
7.2041538867
 20
4.8874863585
 30
0.0
 10
7.2041489262
 20
4.8955424275
 30
0.0
 10
7.2015742195
 20
4.9118241598
 30
0.0
 10
7.1895109933
 20
4.9341911848
 30
0.0
 10
7.170168339
 20
4.9529777821
 30
0.0
 10
7.1448775245
 20
4.9676600239
 30
0.0
 10
7.1150890509
 20
4.9780960913
 30
0.0
 10
7.082346811
 20
4.9843028364
 30
0.0
 10
7.0596471193
 20
4.9856667547
 30
0.0
 10
7.0481538861
 20
4.9856667547
 30
0.0
 11
7.2041538867
 21
4.8874863585
 31
0.0
 11
7.2003053813
 21
4.9112528459
 31
0.0
 11
7.1888588416
 21
4.9328814071
 31
0.0
 11
7.1702156672
 21
4.9515090679
 31
0.0
 11
7.145279846
 21
4.9664150742
 31
0.0
 11
7.1154925865
 21
4.9771428501
 31
0.0
 11
7.0825683153
 21
4.983546203
 31
0.0
 11
7.0481538861
 21
4.9856667547
 31
0.0
  0
SPLINE
  5
406
100
AcDbEntity
  8
0
100
AcDbSpline
 62
7
  6
CONTINUOUS
 70
0
 71
3
 72
14
 73
10
 74
8
 42
0.0000001
 43
0.0000001
 44
0.0000000001
 12
-0.2036337381
 22
0.0
 32
0.0
 13
-0.0001258464
 23
-0.2044130048
 33
0.0
 40
0.0
 40
0.0
 40
0.0
 40
0.0
 40
0.1693212398
 40
0.3340341273
 40
0.4895100158
 40
0.6321749678
 40
0.7615958757
 40
0.8817665611
 40
1.0
 40
1.0
 40
1.0
 40
1.0
 10
7.0481538861
 20
4.9856667547
 30
0.0
 10
7.0366607138
 20
4.9856667547
 30
0.0
 10
7.0139611088
 20
4.9843028486
 30
0.0
 10
6.9812189581
 20
4.9780961502
 30
0.0
 10
6.9514305064
 20
4.967660138
 30
0.0
 10
6.9261396726
 20
4.9529779567
 30
0.0
 10
6.9067969523
 20
4.9341914113
 30
0.0
 10
6.8947335975
 20
4.9118243414
 30
0.0
 10
6.8921588452
 20
4.8955425116
 30
0.0
 10
6.8921538854
 20
4.8874863608
 30
0.0
 11
7.0481538861
 21
4.9856667547
 31
0.0
 11
7.0137396384
 21
4.9835462257
 31
0.0
 11
6.980815436
 21
4.9771429178
 31
0.0
 11
6.9510281869
 21
4.9664151955
 31
0.0
 11
6.9260923404
 21
4.9515092485
 31
0.0
 11
6.9074491082
 21
4.9328816446
 31
0.0
 11
6.8960024696
 21
4.91125308
 31
0.0
 11
6.8921538854
 21
4.8874863608
 31
0.0
  0
SPLINE
  5
407
100
AcDbEntity
  8
0
100
AcDbSpline
 62
7
  6
CONTINUOUS
 70
0
 71
3
 72
14
 73
10
 74
8
 42
0.0000001
 43
0.0000001
 44
0.0000000001
 12
0.2036337383
 22
0.0
 32
0.0
 13
0.0001258525
 23
0.2044130049
 33
0.0
 40
0.0
 40
0.0
 40
0.0
 40
0.0
 40
0.1693213295
 40
0.3340342981
 40
0.4895102439
 40
0.6321752397
 40
0.7615961952
 40
0.8817668857
 40
1.0
 40
1.0
 40
1.0
 40
1.0
 10
7.0481538861
 20
3.7739006105
 30
0.0
 10
7.0596470646
 20
3.7739006105
 30
0.0
 10
7.0823466813
 20
3.775264518
 30
0.0
 10
7.1150888467
 20
3.7814712227
 30
0.0
 10
7.1448773082
 20
3.7919072454
 30
0.0
 10
7.1701681457
 20
3.8065894413
 30
0.0
 10
7.1895108597
 20
3.8253760039
 30
0.0
 10
7.2015741862
 20
3.8477430681
 30
0.0
 10
7.2041489268
 20
3.8640248764
 30
0.0
 10
7.2041538868
 20
3.8720810051
 30
0.0
 11
7.0481538861
 21
3.7739006105
 31
0.0
 11
7.0825681521
 21
3.7760211418
 31
0.0
 11
7.1154923701
 21
3.7824244565
 31
0.0
 11
7.1452796278
 21
3.7931521894
 31
0.0
 11
7.1702154761
 21
3.8080581507
 31
0.0
 11
7.1888587034
 21
3.8266857733
 31
0.0
 11
7.200305324
 21
3.8483143486
 31
0.0
 11
7.2041538868
 21
3.8720810051
 31
0.0
  0
SPLINE
  5
408
100
AcDbEntity
  8
0
100
AcDbSpline
 62
7
  6
CONTINUOUS
 70
0
 71
3
 72
14
 73
10
 74
8
 42
0.0000001
 43
0.0000001
 44
0.0000000001
 12
0.0001258724
 22
-0.2044130026
 32
0.0
 13
0.2036337396
 23
0.0
 33
0.0
 40
0.0
 40
0.0
 40
0.0
 40
0.0
 40
0.1182319771
 40
0.2384024232
 40
0.3678233679
 40
0.5104883976
 40
0.6659644686
 40
0.8306777968
 40
1.0
 40
1.0
 40
1.0
 40
1.0
 10
6.8921538857
 20
3.8720810073
 30
0.0
 10
6.8921588464
 20
3.8640249562
 30
0.0
 10
6.8947335435
 20
3.8477432414
 30
0.0
 10
6.9067967468
 20
3.8253762209
 30
0.0
 10
6.9261393961
 20
3.8065896095
 30
0.0
 10
6.9514302139
 20
3.7919073558
 30
0.0
 10
6.9812186955
 20
3.7814712801
 30
0.0
 10
7.0139609473
 20
3.7752645299
 30
0.0
 10
7.0366606483
 20
3.7739006105
 30
0.0
 10
7.0481538861
 20
3.7739006105
 30
0.0
 11
6.8921538857
 21
3.8720810073
 31
0.0
 11
6.8960023737
 21
3.8483145706
 31
0.0
 11
6.9074488987
 21
3.8266860009
 31
0.0
 11
6.9260920695
 21
3.8080583246
 31
0.0
 11
6.9510278923
 21
3.7931523068
 31
0.0
 11
6.9808151588
 21
3.7824245224
 31
0.0
 11
7.0137394431
 21
3.776021164
 31
0.0
 11
7.0481538861
 21
3.7739006105
 31
0.0
  0
SPLINE
  5
409
100
AcDbEntity
  8
0
100
AcDbSpline
 62
7
  6
CONTINUOUS
 70
0
 71
3
 72
15
 73
11
 74
9
 42
0.0000001
 43
0.0000001
 44
0.0000000001
 12
-0.2213747391
 22
0.4040882383
 32
0.0
 13
0.2213747391
 23
0.4040882383
 33
0.0
 40
0.0
 40
0.0
 40
0.0
 40
0.0
 40
0.1363385306
 40
0.2625242499
 40
0.3826814249
 40
0.5000474403
 40
0.6174094987
 40
0.7375563123
 40
0.8636900968
 40
1.0
 40
1.0
 40
1.0
 40
1.0
 10
3.4271265174
 20
3.457179024
 30
0.0
 10
3.4170658818
 20
3.4755432896
 30
0.0
 10
3.3991186783
 20
3.5117270653
 30
0.0
 10
3.3786972306
 20
3.5669777831
 30
0.0
 10
3.3661730512
 20
3.6216008257
 30
0.0
 10
3.3619268659
 20
3.6761550732
 30
0.0
 10
3.3661795704
 20
3.7307071708
 30
0.0
 10
3.3787068398
 20
3.7853189545
 30
0.0
 10
3.3991260066
 20
3.8405554306
 30
0.0
 10
3.4170679943
 20
3.8767279316
 30
0.0
 10
3.4271265174
 20
3.8950883411
 30
0.0
 11
3.4271265174
 21
3.457179024
 31
0.0
 11
3.3994866683
 21
3.5135900378
 31
0.0
 11
3.3795990647
 21
3.5682234249
 31
0.0
 11
3.3674427481
 21
3.6222352024
 31
0.0
 11
3.3633322196
 21
3.6761555893
 31
0.0
 11
3.3674490535
 21
3.7300736667
 31
0.0
 11
3.3796096344
 21
3.7840795908
 31
0.0
 11
3.3994918747
 21
3.8386894648
 31
0.0
 11
3.4271265174
 21
3.8950883411
 31
0.0
  0
SPLINE
  5
40A
100
AcDbEntity
  8
0
100
AcDbSpline
 62
7
  6
CONTINUOUS
 70
0
 71
3
 72
15
 73
11
 74
9
 42
0.0000001
 43
0.0000001
 44
0.0000000001
 12
-0.2344928018
 22
0.8560668082
 32
0.0
 13
0.2344928018
 23
0.8560668082
 33
0.0
 40
0.0
 40
0.0
 40
0.0
 40
0.0
 40
0.130867655
 40
0.2559934432
 40
0.3784643323
 40
0.5000493322
 40
0.6216294027
 40
0.7440877225
 40
0.8691603039
 40
1.0
 40
1.0
 40
1.0
 40
1.0
 10
3.4271265174
 20
3.9418743655
 30
0.0
 10
3.416897343
 20
3.9792181841
 30
0.0
 10
3.3987247099
 20
4.0527932848
 30
0.0
 10
3.3784743113
 20
4.1629980684
 30
0.0
 10
3.3661166883
 20
4.2716209272
 30
0.0
 10
3.3619434174
 20
4.3798260821
 30
0.0
 10
3.3661231103
 20
4.4880272475
 30
0.0
 10
3.3784839254
 20
4.5966286392
 30
0.0
 10
3.3987322676
 20
4.7068054997
 30
0.0
 10
3.4168995284
 20
4.7803571594
 30
0.0
 10
3.4271265174
 20
4.8176929997
 30
0.0
 11
3.4271265174
 21
3.9418743655
 31
0.0
 11
3.3994866683
 21
4.054696393
 31
0.0
 11
3.3795990647
 21
4.1639631672
 31
0.0
 11
3.3674427481
 21
4.2719867222
 31
0.0
 11
3.3633322196
 21
4.3798274961
 31
0.0
 11
3.3674490535
 21
4.4876636509
 31
0.0
 11
3.3796096344
 21
4.5956754989
 31
0.0
 11
3.3994918747
 21
4.704895247
 31
0.0
 11
3.4271265174
 21
4.8176929997
 31
0.0
  0
SPLINE
  5
40B
100
AcDbEntity
  8
0
100
AcDbSpline
 62
7
  6
CONTINUOUS
 70
0
 71
3
 72
15
 73
11
 74
9
 42
0.0000001
 43
0.0000001
 44
0.0000000001
 12
-0.2213747391
 22
0.4040882383
 32
0.0
 13
0.2213747391
 23
0.4040882383
 33
0.0
 40
0.0
 40
0.0
 40
0.0
 40
0.0
 40
0.1363385306
 40
0.2625242499
 40
0.3826814249
 40
0.5000474403
 40
0.6174094987
 40
0.7375563123
 40
0.8636900968
 40
1.0
 40
1.0
 40
1.0
 40
1.0
 10
3.4271265174
 20
4.864479024
 30
0.0
 10
3.4170658818
 20
4.8828432896
 30
0.0
 10
3.3991186783
 20
4.9190270653
 30
0.0
 10
3.3786972306
 20
4.9742777831
 30
0.0
 10
3.3661730512
 20
5.0289008257
 30
0.0
 10
3.3619268659
 20
5.0834550732
 30
0.0
 10
3.3661795704
 20
5.1380071708
 30
0.0
 10
3.3787068398
 20
5.1926189545
 30
0.0
 10
3.3991260066
 20
5.2478554306
 30
0.0
 10
3.4170679943
 20
5.2840279316
 30
0.0
 10
3.4271265174
 20
5.3023883411
 30
0.0
 11
3.4271265174
 21
4.864479024
 31
0.0
 11
3.3994866683
 21
4.9208900378
 31
0.0
 11
3.3795990647
 21
4.9755234249
 31
0.0
 11
3.3674427481
 21
5.0295352024
 31
0.0
 11
3.3633322196
 21
5.0834555893
 31
0.0
 11
3.3674490535
 21
5.1373736667
 31
0.0
 11
3.3796096344
 21
5.1913795908
 31
0.0
 11
3.3994918747
 21
5.2459894648
 31
0.0
 11
3.4271265174
 21
5.3023883411
 31
0.0
  0
ENDSEC
  0
SECTION
  2
OBJECTS
  0
DICTIONARY
  5
C
100
AcDbDictionary
280
0
281
1
  3
ACAD_GROUP
350
D
  3
ACAD_MLINESTYLE
350
17
  3
ACAD_LAYOUT
350
1A
  3
ACAD_PLOTSETTINGS
350
19
  3
ACAD_PLOTSTYLENAME
350
E
  0
DICTIONARY
  5
D
102
{ACAD_REACTORS
330
C
102
}
100
AcDbDictionary
280
0
281
1
  0
ACDBDICTIONARYWDFLT
  5
E
102
{ACAD_REACTORS
330
C
102
}
100
AcDbDictionary
281
1
  3
Normal
350
F
100
AcDbDictionaryWithDefault
340
F
  0
DICTIONARY
  5
17
102
{ACAD_REACTORS
330
C
102
}
100
AcDbDictionary
280
0
281
1
  3
Standard
350
18
  0
DICTIONARY
  5
19
102
{ACAD_REACTORS
330
C
102
}
100
AcDbDictionary
281
1
  0
DICTIONARY
  5
1A
102
{ACAD_REACTORS
330
C
102
}
100
AcDbDictionary
281
1
  3
Layout1
350
1E
  3
Model
350
22
  0
ACDBPLACEHOLDER
  5
F
102
{ACAD_REACTORS
330
E
102
}
  0
MLINESTYLE
  5
18
102
{ACAD_REACTORS
330
17
102
}
100
AcDbMlineStyle
  2
STANDARD
 70
0
  3

 62
256
 51
90.0
 52
90.0
 71
2
 49
0.5
 62
256
  6
BYLAYER
 49
-0.5
 62
256
  6
BYLAYER
  0
LAYOUT
  5
1E
102
{ACAD_REACTORS
330
1A
102
}
100
AcDbPlotSettings
  1

  2

  4

  6

 40
0.0
 41
0.0
 42
0.0
 43
0.0
 44
0.0
 45
0.0
 46
0.0
 47
0.0
 48
0.0
 49
0.0
140
0.0
141
0.0
142
1.0
143
1.0
 70
0
 72
0
 73
0
 74
0
  7

 75
0
147
1.0
148
0.0
149
0.0
100
AcDbLayout
  1
Layout1
 70
0
 71
0
 10
0.0
 20
0.0
 11
0.0
 21
0.0
 12
0.0
 22
0.0
 32
0.0
 14
0.0
 24
0.0
 34
0.0
 15
0.0
 25
0.0
 35
0.0
146
0.0
 13
0.0
 23
0.0
 33
0.0
 16
0.0
 26
0.0
 36
0.0
 17
0.0
 27
0.0
 37
0.0
 76
0
330
1B
331
0
345
0
346
0
  0
LAYOUT
  5
22
102
{ACAD_REACTORS
330
1A
102
}
100
AcDbPlotSettings
  1

  2

  4

  6

 40
0.0
 41
0.0
 42
0.0
 43
0.0
 44
0.0
 45
0.0
 46
0.0
 47
0.0
 48
0.0
 49
0.0
140
0.0
141
0.0
142
1.0
143
1.0
 70
0
 72
0
 73
0
 74
0
  7

 75
0
147
1.0
148
0.0
149
0.0
100
AcDbLayout
  1
Model
 70
0
 71
0
 10
0.0
 20
0.0
 11
0.0
 21
0.0
 12
0.0
 22
0.0
 32
0.0
 14
0.0
 24
0.0
 34
0.0
 15
0.0
 25
0.0
 35
0.0
146
0.0
 13
0.0
 23
0.0
 33
0.0
 16
0.0
 26
0.0
 36
0.0
 17
0.0
 27
0.0
 37
0.0
 76
0
330
1F
331
0
345
0
346
0
  0
ENDSEC
  0
EOF
