999
DXF file: CXID-XCN.dxf
999
Pro/ENGINEER 2006240 by Parametric Technology Corporation
  0
SECTION
  2
HEADER
  9
$ACADVER
  1
AC1015
  9
$DWGCODEPAGE
  3
ANSI_1252
  9
$EXTMAX
 10
11.6929133858
 20
8.2677165354
 30
0.0
  9
$EXTMIN
 10
0.0
 20
0.0
 30
0.0
  9
$LIMMIN
 10
0.0
 20
0.0
  9
$LIMMAX
 10
11.6929133858
 20
8.2677165354
  9
$VIEWCTR
 10
5.8464566929
 20
4.1338582677
  9
$VIEWSIZE
 40
8.2677165354
  9
$CLAYER
  8
0
  9
$LTSCALE
 40
0.6431102362
  9
$CELTYPE
  6
BYLAYER
  9
$DIMSCALE
 40
1.0
  9
$DIMASZ
 40
0.1875
  9
$DIMEXO
 40
0.0730807087
  9
$DIMDLI
 40
0.4443307087
  9
$DIMEXE
 40
0.2104724409
  9
$DIMCEN
 40
0.1052362205
  9
$DIMLFAC
 40
1.0
  9
$DIMBLK
  1
_CLOSED
  9
$DIMTXT
 40
0.15625
  9
$DIMTOL
 70
0
  9
$DIMLIM
 70
0
  9
$DIMTFAC
 40
1.0
  9
$PDMODE
 70
3
  9
$PDSIZE
 40
0.3125
  9
$HANDSEED
  5
40A
  9
$MEASUREMENT
 70
0
  9
$INSUNITS
 70
1
  0
ENDSEC
  0
SECTION
  2
CLASSES
  0
CLASS
  1
ACDBDICTIONARYWDFLT
  2
AcDbDictionaryWithDefault
  3
AutoCAD 2000
 90
0
280
0
281
0
  0
CLASS
  1
ACDBPLACEHOLDER
  2
AcDbPlaceHolder
  3
AutoCAD 2000
 90
0
280
0
281
0
  0
CLASS
  1
LAYOUT
  2
AcDbLayout
  3
AutoCAD 2000
 90
0
280
0
281
0
  0
ENDSEC
  0
SECTION
  2
TABLES
  0
TABLE
  2
VPORT
  5
8
100
AcDbSymbolTable
 70
2
  0
VPORT
  5
1F4
100
AcDbSymbolTableRecord
100
AcDbViewportTableRecord
  2
*ACTIVE
 70
0
 10
0.0
 20
0.0
 11
1.0
 21
1.0
 12
5.8464566929
 22
4.1338582677
 13
0.0
 23
0.0
 14
1.0
 24
1.0
 15
0.0
 25
0.0
 16
0.0
 26
0.0
 36
1.0
 17
0.0
 27
0.0
 37
0.0
 40
8.2677165354
 41
1.4142857143
 42
50.0
 43
0.0
 44
0.0
 50
0.0
 51
0.0
 71
0
 72
100
 73
1
 74
1
 75
0
 76
0
 77
0
 78
0
  0
ENDTAB
  0
TABLE
  2
LTYPE
  5
5
100
AcDbSymbolTable
 70
6
  0
LTYPE
  5
14
100
AcDbSymbolTableRecord
100
AcDbLinetypeTableRecord
  2
BYBLOCK
 70
0
  3

 72
65
 73
0
 40
0.0
  0
LTYPE
  5
15
100
AcDbSymbolTableRecord
100
AcDbLinetypeTableRecord
  2
BYLAYER
 70
0
  3

 72
65
 73
0
 40
0.0
  0
LTYPE
  5
16
100
AcDbSymbolTableRecord
100
AcDbLinetypeTableRecord
  2
CONTINUOUS
 70
64
  3
Solid line
 72
65
 73
0
 40
0.0
  0
LTYPE
  5
1F5
100
AcDbSymbolTableRecord
100
AcDbLinetypeTableRecord
  2
CENTER
 70
64
  3
____ _ ____ _ ____ _ ____ _ ____ _ ____ _ ____
 72
65
 73
4
 40
0.6
 49
0.375
 74
0
 49
-0.075
 74
0
 49
0.075
 74
0
 49
-0.075
 74
0
  0
LTYPE
  5
1F6
100
AcDbSymbolTableRecord
100
AcDbLinetypeTableRecord
  2
HIDDEN
 70
64
  3
- - - - - - - - - - - - - - - - - - - -
 72
65
 73
2
 40
0.2
 49
0.1
 74
0
 49
-0.1
 74
0
  0
LTYPE
  5
1F7
100
AcDbSymbolTableRecord
100
AcDbLinetypeTableRecord
  2
PHANTOM
 70
64
  3
_____ _ _ _____ _ _ _____ _ _ _____
 72
65
 73
6
 40
0.8
 49
0.45
 74
0
 49
-0.05
 74
0
 49
0.1
 74
0
 49
-0.05
 74
0
 49
0.1
 74
0
 49
-0.05
 74
0
  0
LTYPE
  5
1F8
100
AcDbSymbolTableRecord
100
AcDbLinetypeTableRecord
  2
DOT
 70
64
  3
. . . . . . . . . . . . . . . . . . . .
 72
65
 73
2
 40
0.2
 49
0.1
 74
0
 49
-0.1
 74
0
  0
LTYPE
  5
1F9
100
AcDbSymbolTableRecord
100
AcDbLinetypeTableRecord
  2
DASHED
 70
64
  3
- - - - - - - - - - - - - - - - - - - -
 72
65
 73
2
 40
0.2
 49
0.1
 74
0
 49
-0.1
 74
0
  0
ENDTAB
  0
TABLE
  2
LAYER
  5
2
100
AcDbSymbolTable
 70
36
  0
LAYER
  5
10
100
AcDbSymbolTableRecord
100
AcDbLayerTableRecord
  2
0
 70
0
 62
7
  6
CONTINUOUS
370
-3
390
F
  0
LAYER
  5
1FA
100
AcDbSymbolTableRecord
100
AcDbLayerTableRecord
  2
DEFAULT_1
 70
0
 62
7
  6
CENTER
370
-3
390
F
  0
LAYER
  5
1FB
100
AcDbSymbolTableRecord
100
AcDbLayerTableRecord
  2
DEFAULT_2
 70
0
 62
8
  6
HIDDEN
370
-3
390
F
  0
LAYER
  5
1FC
100
AcDbSymbolTableRecord
100
AcDbLayerTableRecord
  2
DEFAULT_3
 70
0
 62
7
  6
PHANTOM
370
-3
390
F
  0
LAYER
  5
1FD
100
AcDbSymbolTableRecord
100
AcDbLayerTableRecord
  2
_BLACK_HOLE
 70
0
 62
7
  6
CONTINUOUS
370
-3
390
F
  0
LAYER
  5
1FE
100
AcDbSymbolTableRecord
100
AcDbLayerTableRecord
  2
01_ALL_DTM_PLN
 70
0
 62
7
  6
CONTINUOUS
370
-3
390
F
  0
LAYER
  5
1FF
100
AcDbSymbolTableRecord
100
AcDbLayerTableRecord
  2
01__ASM_ALL_DTM_PLN
 70
0
 62
7
  6
CONTINUOUS
370
-3
390
F
  0
LAYER
  5
200
100
AcDbSymbolTableRecord
100
AcDbLayerTableRecord
  2
01__ASM_DEF_DTM_PLN
 70
0
 62
7
  6
CONTINUOUS
370
-3
390
F
  0
LAYER
  5
201
100
AcDbSymbolTableRecord
100
AcDbLayerTableRecord
  2
01___PRT_ALL_DTM_PLN
 70
0
 62
7
  6
CONTINUOUS
370
-3
390
F
  0
LAYER
  5
202
100
AcDbSymbolTableRecord
100
AcDbLayerTableRecord
  2
01___PRT_DEF_DTM_PLN
 70
0
 62
7
  6
CONTINUOUS
370
-3
390
F
  0
LAYER
  5
203
100
AcDbSymbolTableRecord
100
AcDbLayerTableRecord
  2
02_ALL_AXES
 70
0
 62
7
  6
CONTINUOUS
370
-3
390
F
  0
LAYER
  5
204
100
AcDbSymbolTableRecord
100
AcDbLayerTableRecord
  2
02__ASM_ALL_AXES
 70
0
 62
7
  6
CONTINUOUS
370
-3
390
F
  0
LAYER
  5
205
100
AcDbSymbolTableRecord
100
AcDbLayerTableRecord
  2
02___PRT_ALL_AXES
 70
0
 62
7
  6
CONTINUOUS
370
-3
390
F
  0
LAYER
  5
206
100
AcDbSymbolTableRecord
100
AcDbLayerTableRecord
  2
03_ALL_CURVES
 70
0
 62
7
  6
CONTINUOUS
370
-3
390
F
  0
LAYER
  5
207
100
AcDbSymbolTableRecord
100
AcDbLayerTableRecord
  2
03__ASM_ALL_CURVES
 70
0
 62
7
  6
CONTINUOUS
370
-3
390
F
  0
LAYER
  5
208
100
AcDbSymbolTableRecord
100
AcDbLayerTableRecord
  2
03___PRT_ALL_CURVES
 70
0
 62
7
  6
CONTINUOUS
370
-3
390
F
  0
LAYER
  5
209
100
AcDbSymbolTableRecord
100
AcDbLayerTableRecord
  2
04_ALL_DTM_PNT
 70
0
 62
7
  6
CONTINUOUS
370
-3
390
F
  0
LAYER
  5
20A
100
AcDbSymbolTableRecord
100
AcDbLayerTableRecord
  2
04__ASM_ALL_DTM_PNT
 70
0
 62
7
  6
CONTINUOUS
370
-3
390
F
  0
LAYER
  5
20B
100
AcDbSymbolTableRecord
100
AcDbLayerTableRecord
  2
04___PRT_ALL_DTM_PNT
 70
0
 62
7
  6
CONTINUOUS
370
-3
390
F
  0
LAYER
  5
20C
100
AcDbSymbolTableRecord
100
AcDbLayerTableRecord
  2
05_ALL_DTM_CSYS
 70
0
 62
7
  6
CONTINUOUS
370
-3
390
F
  0
LAYER
  5
20D
100
AcDbSymbolTableRecord
100
AcDbLayerTableRecord
  2
05__ASM_ALL_DTM_CSYS
 70
0
 62
7
  6
CONTINUOUS
370
-3
390
F
  0
LAYER
  5
20E
100
AcDbSymbolTableRecord
100
AcDbLayerTableRecord
  2
05__ASM_DEF_DTM_CSYS
 70
0
 62
7
  6
CONTINUOUS
370
-3
390
F
  0
LAYER
  5
20F
100
AcDbSymbolTableRecord
100
AcDbLayerTableRecord
  2
05___PRT_ALL_DTM_CSYS
 70
0
 62
7
  6
CONTINUOUS
370
-3
390
F
  0
LAYER
  5
210
100
AcDbSymbolTableRecord
100
AcDbLayerTableRecord
  2
05___PRT_DEF_DTM_CSYS
 70
0
 62
7
  6
CONTINUOUS
370
-3
390
F
  0
LAYER
  5
211
100
AcDbSymbolTableRecord
100
AcDbLayerTableRecord
  2
06_ALL_SURFS
 70
0
 62
7
  6
CONTINUOUS
370
-3
390
F
  0
LAYER
  5
212
100
AcDbSymbolTableRecord
100
AcDbLayerTableRecord
  2
06__ASM_ALL_SURFS
 70
0
 62
7
  6
CONTINUOUS
370
-3
390
F
  0
LAYER
  5
213
100
AcDbSymbolTableRecord
100
AcDbLayerTableRecord
  2
06___PRT_ALL_SURFS
 70
0
 62
7
  6
CONTINUOUS
370
-3
390
F
  0
LAYER
  5
214
100
AcDbSymbolTableRecord
100
AcDbLayerTableRecord
  2
07__ASM_ALL_SKELETONS
 70
0
 62
7
  6
CONTINUOUS
370
-3
390
F
  0
LAYER
  5
215
100
AcDbSymbolTableRecord
100
AcDbLayerTableRecord
  2
129-007_FEATURES
 70
0
 62
7
  6
CONTINUOUS
370
-3
390
F
  0
LAYER
  5
216
100
AcDbSymbolTableRecord
100
AcDbLayerTableRecord
  2
129-007_REF_GEOMETRY
 70
0
 62
7
  6
CONTINUOUS
370
-3
390
F
  0
LAYER
  5
217
100
AcDbSymbolTableRecord
100
AcDbLayerTableRecord
  2
129-009_FEATURES
 70
0
 62
7
  6
CONTINUOUS
370
-3
390
F
  0
LAYER
  5
218
100
AcDbSymbolTableRecord
100
AcDbLayerTableRecord
  2
129-009_REF_GEOMETRY
 70
0
 62
7
  6
CONTINUOUS
370
-3
390
F
  0
LAYER
  5
219
100
AcDbSymbolTableRecord
100
AcDbLayerTableRecord
  2
129-100_FEATURES
 70
0
 62
7
  6
CONTINUOUS
370
-3
390
F
  0
LAYER
  5
21A
100
AcDbSymbolTableRecord
100
AcDbLayerTableRecord
  2
129-100_REF_GEOMETRY
 70
0
 62
7
  6
CONTINUOUS
370
-3
390
F
  0
LAYER
  5
21B
100
AcDbSymbolTableRecord
100
AcDbLayerTableRecord
  2
129-101_FEATURES
 70
0
 62
7
  6
CONTINUOUS
370
-3
390
F
  0
LAYER
  5
21C
100
AcDbSymbolTableRecord
100
AcDbLayerTableRecord
  2
129-101_REF_GEOMETRY
 70
0
 62
7
  6
CONTINUOUS
370
-3
390
F
  0
LAYER
  5
21D
100
AcDbSymbolTableRecord
100
AcDbLayerTableRecord
  2
129-102_FEATURES
 70
0
 62
7
  6
CONTINUOUS
370
-3
390
F
  0
LAYER
  5
21E
100
AcDbSymbolTableRecord
100
AcDbLayerTableRecord
  2
129-102_REF_GEOMETRY
 70
0
 62
7
  6
CONTINUOUS
370
-3
390
F
  0
LAYER
  5
21F
100
AcDbSymbolTableRecord
100
AcDbLayerTableRecord
  2
129-103_FEATURES
 70
0
 62
7
  6
CONTINUOUS
370
-3
390
F
  0
LAYER
  5
220
100
AcDbSymbolTableRecord
100
AcDbLayerTableRecord
  2
129-103_REF_GEOMETRY
 70
0
 62
7
  6
CONTINUOUS
370
-3
390
F
  0
LAYER
  5
221
100
AcDbSymbolTableRecord
100
AcDbLayerTableRecord
  2
129-104_FEATURES
 70
0
 62
7
  6
CONTINUOUS
370
-3
390
F
  0
LAYER
  5
222
100
AcDbSymbolTableRecord
100
AcDbLayerTableRecord
  2
129-104_REF_GEOMETRY
 70
0
 62
7
  6
CONTINUOUS
370
-3
390
F
  0
LAYER
  5
223
100
AcDbSymbolTableRecord
100
AcDbLayerTableRecord
  2
COPY_GEO_FET
 70
0
 62
7
  6
CONTINUOUS
370
-3
390
F
  0
LAYER
  5
224
100
AcDbSymbolTableRecord
100
AcDbLayerTableRecord
  2
COSMETIC
 70
0
 62
7
  6
CONTINUOUS
370
-3
390
F
  0
LAYER
  5
225
100
AcDbSymbolTableRecord
100
AcDbLayerTableRecord
  2
CROSS_HOLE_DATUMS
 70
0
 62
7
  6
CONTINUOUS
370
-3
390
F
  0
LAYER
  5
226
100
AcDbSymbolTableRecord
100
AcDbLayerTableRecord
  2
CURVES
 70
0
 62
7
  6
CONTINUOUS
370
-3
390
F
  0
LAYER
  5
227
100
AcDbSymbolTableRecord
100
AcDbLayerTableRecord
  2
CUT_REF_SURF
 70
0
 62
7
  6
CONTINUOUS
370
-3
390
F
  0
LAYER
  5
228
100
AcDbSymbolTableRecord
100
AcDbLayerTableRecord
  2
DATUM
 70
0
 62
7
  6
CONTINUOUS
370
-3
390
F
  0
LAYER
  5
229
100
AcDbSymbolTableRecord
100
AcDbLayerTableRecord
  2
DATUMCURVES
 70
0
 62
7
  6
CONTINUOUS
370
-3
390
F
  0
LAYER
  5
22A
100
AcDbSymbolTableRecord
100
AcDbLayerTableRecord
  2
DIMENSIONS
 70
0
 62
7
  6
CONTINUOUS
370
-3
390
F
  0
LAYER
  5
22B
100
AcDbSymbolTableRecord
100
AcDbLayerTableRecord
  2
DRAWINGNOTES
 70
0
 62
7
  6
CONTINUOUS
370
-3
390
F
  0
LAYER
  5
22C
100
AcDbSymbolTableRecord
100
AcDbLayerTableRecord
  2
DTM
 70
0
 62
7
  6
CONTINUOUS
370
-3
390
F
  0
LAYER
  5
22D
100
AcDbSymbolTableRecord
100
AcDbLayerTableRecord
  2
DTM230
 70
0
 62
7
  6
CONTINUOUS
370
-3
390
F
  0
LAYER
  5
22E
100
AcDbSymbolTableRecord
100
AcDbLayerTableRecord
  2
DTM_500001
 70
0
 62
7
  6
CONTINUOUS
370
-3
390
F
  0
LAYER
  5
22F
100
AcDbSymbolTableRecord
100
AcDbLayerTableRecord
  2
DTM_500002
 70
0
 62
7
  6
CONTINUOUS
370
-3
390
F
  0
LAYER
  5
230
100
AcDbSymbolTableRecord
100
AcDbLayerTableRecord
  2
DTM_515002
 70
0
 62
7
  6
CONTINUOUS
370
-3
390
F
  0
LAYER
  5
231
100
AcDbSymbolTableRecord
100
AcDbLayerTableRecord
  2
DTM_SPRING_RH
 70
0
 62
7
  6
CONTINUOUS
370
-3
390
F
  0
LAYER
  5
232
100
AcDbSymbolTableRecord
100
AcDbLayerTableRecord
  2
DTM_SP_RH_CONSTR
 70
0
 62
7
  6
CONTINUOUS
370
-3
390
F
  0
LAYER
  5
233
100
AcDbSymbolTableRecord
100
AcDbLayerTableRecord
  2
FLUTE_DATUMS
 70
0
 62
7
  6
CONTINUOUS
370
-3
390
F
  0
LAYER
  5
234
100
AcDbSymbolTableRecord
100
AcDbLayerTableRecord
  2
GEOMETRICTOLERANCES
 70
0
 62
7
  6
CONTINUOUS
370
-3
390
F
  0
LAYER
  5
235
100
AcDbSymbolTableRecord
100
AcDbLayerTableRecord
  2
PARAMETERDIMENSIONS
 70
0
 62
7
  6
CONTINUOUS
370
-3
390
F
  0
LAYER
  5
236
100
AcDbSymbolTableRecord
100
AcDbLayerTableRecord
  2
PLANE
 70
0
 62
7
  6
CONTINUOUS
370
-3
390
F
  0
LAYER
  5
237
100
AcDbSymbolTableRecord
100
AcDbLayerTableRecord
  2
T-8A_CAVITY
 70
0
 62
7
  6
CONTINUOUS
370
-3
390
F
  0
LAYER
  5
238
100
AcDbSymbolTableRecord
100
AcDbLayerTableRecord
  2
TEXT
 70
0
 62
7
  6
CONTINUOUS
370
-3
390
F
  0
LAYER
  5
239
100
AcDbSymbolTableRecord
100
AcDbLayerTableRecord
  2
THREAD
 70
0
 62
7
  6
CONTINUOUS
370
-3
390
F
  0
ENDTAB
  0
TABLE
  2
STYLE
  5
3
100
AcDbSymbolTable
 70
1
  0
STYLE
  5
11
100
AcDbSymbolTableRecord
100
AcDbTextStyleTableRecord
  2
STANDARD
 70
0
 40
0.0
 41
0.8
 50
0.0
 71
0
 42
0.2
  3
txt
  4

  0
ENDTAB
  0
TABLE
  2
VIEW
  5
6
100
AcDbSymbolTable
 70
0
  0
ENDTAB
  0
TABLE
  2
UCS
  5
7
100
AcDbSymbolTable
 70
0
  0
ENDTAB
  0
TABLE
  2
APPID
  5
9
100
AcDbSymbolTable
 70
1
  0
APPID
  5
23A
100
AcDbSymbolTableRecord
100
AcDbRegAppTableRecord
  2
ACAD
 70
0
  0
ENDTAB
  0
TABLE
  2
BLOCK_RECORD
  5
1
100
AcDbSymbolTable
 70
0
  0
BLOCK_RECORD
  5
1F
100
AcDbSymbolTableRecord
100
AcDbBlockTableRecord
  2
*MODEL_SPACE
  0
BLOCK_RECORD
  5
1B
100
AcDbSymbolTableRecord
100
AcDbBlockTableRecord
  2
*PAPER_SPACE
  0
ENDTAB
  0
TABLE
  2
DIMSTYLE
  5
A
100
AcDbSymbolTable
 70
1
100
AcDbDimStyleTable
 71
0
  0
DIMSTYLE
105
23B
100
AcDbSymbolTableRecord
100
AcDbDimStyleTableRecord
  2
STANDARD
 70
0
  3

  4

 40
1.0
 41
0.1875
 42
0.0625
 43
0.38
 44
0.18
 45
0.0
 46
0.0
 47
0.01
 48
0.01
140
0.15625
141
0.09
142
0.0
143
25.4
144
1.0
145
0.0
146
1.0
147
0.09
 71
0.0
 72
0.0
 73
1
 74
1
 75
0
 76
0
 77
0
 78
4
170
0
171
2
172
0
173
0
174
0
175
0
176
0
177
0
178
0
270
2
271
2
272
2
273
2
274
2
275
0
280
0
281
0
282
0
283
1
284
4
285
0
286
0
287
3
288
0
340
11
  0
ENDTAB
  0
ENDSEC
  0
SECTION
  2
BLOCKS
  0
BLOCK
  5
20
100
AcDbEntity
  8
0
100
AcDbBlockBegin
  2
*MODEL_SPACE
 70
0
 10
0.0
 20
0.0
 30
0.0
  3
*MODEL_SPACE
  1

  0
ENDBLK
  5
21
100
AcDbEntity
  8
0
100
AcDbBlockEnd
  0
BLOCK
  5
1C
100
AcDbEntity
  8
0
100
AcDbBlockBegin
  2
*PAPER_SPACE
 70
0
 10
0.0
 20
0.0
 30
0.0
  3
*PAPER_SPACE
  1

  0
ENDBLK
  5
1D
100
AcDbEntity
  8
0
100
AcDbBlockEnd
  0
ENDSEC
  0
SECTION
  2
ENTITIES
  0
LINE
  5
23C
100
AcDbEntity
  8
0
100
AcDbLine
 62
7
  6
CONTINUOUS
 10
3.3715292516
 20
5.3027836826
 11
3.3045566204
 21
5.1867836826
  0
LINE
  5
23D
100
AcDbEntity
  8
03__ASM_ALL_CURVES
100
AcDbLine
 62
40
  6
CONTINUOUS
 10
3.6554503704
 20
5.7564478471
 11
3.6621894329
 21
5.7654332681
  0
LINE
  5
23E
100
AcDbEntity
  8
03__ASM_ALL_CURVES
100
AcDbLine
 62
40
  6
CONTINUOUS
 10
3.6487113079
 20
5.7025353503
 11
3.6621894329
 21
5.7205061826
  0
LINE
  5
23F
100
AcDbEntity
  8
03__ASM_ALL_CURVES
100
AcDbLine
 62
40
  6
CONTINUOUS
 10
3.7093628704
 20
5.7474624326
 11
3.7026238079
 21
5.7384770181
  0
LINE
  5
240
100
AcDbEntity
  8
0
100
AcDbLine
 62
7
  6
CONTINUOUS
 10
3.3045566204
 20
3.5727836826
 11
3.3045566204
 21
5.1867836826
  0
LINE
  5
241
100
AcDbEntity
  8
03__ASM_ALL_CURVES
100
AcDbLine
 62
40
  6
CONTINUOUS
 10
3.3045566204
 20
5.1867836826
 11
3.3045566204
 21
5.6665936826
  0
LINE
  5
242
100
AcDbEntity
  8
03__ASM_ALL_CURVES
100
AcDbLine
 62
40
  6
CONTINUOUS
 10
3.3589316204
 20
5.7744186826
 11
3.3589316204
 21
5.6665936826
  0
LINE
  5
243
100
AcDbEntity
  8
0
100
AcDbLine
 62
7
  6
CONTINUOUS
 10
3.3715292516
 20
3.4567836826
 11
3.3715292516
 21
3.457179024
  0
LINE
  5
244
100
AcDbEntity
  8
0
100
AcDbLine
 62
7
  6
CONTINUOUS
 10
3.3715292516
 20
3.8950883411
 11
3.3715292516
 21
3.9418743655
  0
LINE
  5
245
100
AcDbEntity
  8
0
100
AcDbLine
 62
7
  6
CONTINUOUS
 10
3.3715292516
 20
4.8176929997
 11
3.3715292516
 21
4.864479024
  0
LINE
  5
246
100
AcDbEntity
  8
0
100
AcDbLine
 62
7
  6
CONTINUOUS
 10
3.3715292516
 20
5.3023883411
 11
3.3715292516
 21
5.3027836826
  0
LINE
  5
247
100
AcDbEntity
  8
03__ASM_ALL_CURVES
100
AcDbLine
 62
40
  6
CONTINUOUS
 10
3.4339466204
 20
5.6450286826
 11
3.4339466204
 21
5.6018986826
  0
LINE
  5
248
100
AcDbEntity
  8
03__ASM_ALL_CURVES
100
AcDbLine
 62
40
  6
CONTINUOUS
 10
3.4600175579
 20
5.6665936826
 11
3.4600175579
 21
5.6755790995
  0
LINE
  5
249
100
AcDbEntity
  8
03__ASM_ALL_CURVES
100
AcDbLine
 62
40
  6
CONTINUOUS
 10
3.7161019329
 20
5.6935499326
 11
3.7026238079
 21
5.6755790995
  0
LINE
  5
24A
100
AcDbEntity
  8
03__ASM_ALL_CURVES
100
AcDbLine
 62
40
  6
CONTINUOUS
 10
3.7969706829
 20
5.7744186826
 11
3.7834925579
 21
5.7564478471
  0
LINE
  5
24B
100
AcDbEntity
  8
03__ASM_ALL_CURVES
100
AcDbLine
 62
40
  6
CONTINUOUS
 10
3.8711003704
 20
5.7564478471
 11
3.8778394329
 21
5.7654332681
  0
LINE
  5
24C
100
AcDbEntity
  8
03__ASM_ALL_CURVES
100
AcDbLine
 62
40
  6
CONTINUOUS
 10
3.8913175579
 20
5.7115207649
 11
3.8778394329
 21
5.6935499326
  0
LINE
  5
24D
100
AcDbEntity
  8
03__ASM_ALL_CURVES
100
AcDbLine
 62
40
  6
CONTINUOUS
 10
3.9250128704
 20
5.7384770181
 11
3.9182738079
 21
5.7294915971
  0
LINE
  5
24E
100
AcDbEntity
  8
03__ASM_ALL_CURVES
100
AcDbLine
 62
40
  6
CONTINUOUS
 10
3.9856644329
 20
5.7564478471
 11
3.9924034954
 21
5.7654332681
  0
LINE
  5
24F
100
AcDbEntity
  8
03__ASM_ALL_CURVES
100
AcDbLine
 62
40
  6
CONTINUOUS
 10
3.6621894329
 20
5.7654332681
 11
3.6756675579
 21
5.7744186826
  0
LINE
  5
250
100
AcDbEntity
  8
03__ASM_ALL_CURVES
100
AcDbLine
 62
40
  6
CONTINUOUS
 10
3.6621894329
 20
5.7205061826
 11
3.6756675579
 21
5.7294915971
  0
LINE
  5
251
100
AcDbEntity
  8
03__ASM_ALL_CURVES
100
AcDbLine
 62
40
  6
CONTINUOUS
 10
3.7026238079
 20
5.7384770181
 11
3.6891456829
 21
5.7294915971
  0
LINE
  5
252
100
AcDbEntity
  8
0
100
AcDbLine
 62
7
  6
CONTINUOUS
 10
3.3715292516
 20
3.4567836826
 11
3.3045566204
 21
3.5727836826
  0
LINE
  5
253
100
AcDbEntity
  8
03__ASM_ALL_CURVES
100
AcDbLine
 62
40
  6
CONTINUOUS
 10
3.5745816204
 20
5.7744186826
 11
3.5745816204
 21
5.6665936826
  0
LINE
  5
254
100
AcDbEntity
  8
03__ASM_ALL_CURVES
100
AcDbLine
 62
40
  6
CONTINUOUS
 10
3.6487113079
 20
5.6935499326
 11
3.6487113079
 21
5.7025353503
  0
LINE
  5
255
100
AcDbEntity
  8
03__ASM_ALL_CURVES
100
AcDbLine
 62
40
  6
CONTINUOUS
 10
3.6554503704
 20
5.7474624326
 11
3.6554503704
 21
5.7564478471
  0
LINE
  5
256
100
AcDbEntity
  8
03__ASM_ALL_CURVES
100
AcDbLine
 62
40
  6
CONTINUOUS
 10
3.7834925579
 20
5.7564478471
 11
3.7767534954
 21
5.7294915971
  0
LINE
  5
257
100
AcDbEntity
  8
03__ASM_ALL_CURVES
100
AcDbLine
 62
40
  6
CONTINUOUS
 10
3.8778394329
 20
5.6935499326
 11
3.8711003704
 21
5.6665936826
  0
LINE
  5
258
100
AcDbEntity
  8
03__ASM_ALL_CURVES
100
AcDbLine
 62
40
  6
CONTINUOUS
 10
3.9789253704
 20
5.7384770181
 11
3.9856644329
 21
5.7564478471
  0
LINE
  5
259
100
AcDbEntity
  8
03__ASM_ALL_CURVES
100
AcDbLine
 62
40
  6
CONTINUOUS
 10
4.0328378704
 20
5.7384770181
 11
4.0260988079
 21
5.7205061826
  0
LINE
  5
25A
100
AcDbEntity
  8
03__ASM_ALL_CURVES
100
AcDbLine
 62
40
  6
CONTINUOUS
 10
4.0328378704
 20
5.7025353503
 11
4.0260988079
 21
5.6845645165
  0
LINE
  5
25B
100
AcDbEntity
  8
03__ASM_ALL_CURVES
100
AcDbLine
 62
40
  6
CONTINUOUS
 10
4.0260988079
 20
5.6845645165
 11
4.0193597454
 21
5.6755790995
  0
LINE
  5
25C
100
AcDbEntity
  8
03__ASM_ALL_CURVES
100
AcDbLine
 62
40
  6
CONTINUOUS
 10
4.2013144329
 20
5.7564478471
 11
4.2080534954
 21
5.7654332681
  0
LINE
  5
25D
100
AcDbEntity
  8
03__ASM_ALL_CURVES
100
AcDbLine
 62
40
  6
CONTINUOUS
 10
3.7026238079
 20
5.6755790995
 11
3.6891456829
 21
5.6665936826
  0
LINE
  5
25E
100
AcDbEntity
  8
03__ASM_ALL_CURVES
100
AcDbLine
 62
40
  6
CONTINUOUS
 10
3.8778394329
 20
5.7654332681
 11
3.8913175579
 21
5.7744186826
  0
LINE
  5
25F
100
AcDbEntity
  8
03__ASM_ALL_CURVES
100
AcDbLine
 62
40
  6
CONTINUOUS
 10
3.9182738079
 20
5.7294915971
 11
3.8913175579
 21
5.7115207649
  0
LINE
  5
260
100
AcDbEntity
  8
03__ASM_ALL_CURVES
100
AcDbLine
 62
40
  6
CONTINUOUS
 10
3.9924034954
 20
5.7654332681
 11
4.0058816204
 21
5.7744186826
  0
LINE
  5
261
100
AcDbEntity
  8
03__ASM_ALL_CURVES
100
AcDbLine
 62
40
  6
CONTINUOUS
 10
4.0193597454
 20
5.6755790995
 11
4.0058816204
 21
5.6665936826
  0
LINE
  5
262
100
AcDbEntity
  8
03__ASM_ALL_CURVES
100
AcDbLine
 62
40
  6
CONTINUOUS
 10
3.7093628704
 20
5.7564478471
 11
3.7093628704
 21
5.7474624326
  0
LINE
  5
263
100
AcDbEntity
  8
03__ASM_ALL_CURVES
100
AcDbLine
 62
40
  6
CONTINUOUS
 10
3.7161019329
 20
5.7025353503
 11
3.7161019329
 21
5.6935499326
  0
LINE
  5
264
100
AcDbEntity
  8
03__ASM_ALL_CURVES
100
AcDbLine
 62
40
  6
CONTINUOUS
 10
3.7767534954
 20
5.7294915971
 11
3.7767534954
 21
5.7115207649
  0
LINE
  5
265
100
AcDbEntity
  8
03__ASM_ALL_CURVES
100
AcDbLine
 62
40
  6
CONTINUOUS
 10
4.1945753704
 20
5.7384770181
 11
4.2013144329
 21
5.7564478471
  0
LINE
  5
266
100
AcDbEntity
  8
03__ASM_ALL_CURVES
100
AcDbLine
 62
40
  6
CONTINUOUS
 10
4.2484878704
 20
5.7384770181
 11
4.2417488079
 21
5.7205061826
  0
LINE
  5
267
100
AcDbEntity
  8
03__ASM_ALL_CURVES
100
AcDbLine
 62
40
  6
CONTINUOUS
 10
4.2484878704
 20
5.7025353503
 11
4.2417488079
 21
5.6845645165
  0
LINE
  5
268
100
AcDbEntity
  8
03__ASM_ALL_CURVES
100
AcDbLine
 62
40
  6
CONTINUOUS
 10
4.2417488079
 20
5.6845645165
 11
4.2350097454
 21
5.6755790995
  0
LINE
  5
269
100
AcDbEntity
  8
03__ASM_ALL_CURVES
100
AcDbLine
 62
40
  6
CONTINUOUS
 10
4.2080534954
 20
5.7654332681
 11
4.2215316204
 21
5.7744186826
  0
LINE
  5
26A
100
AcDbEntity
  8
03__ASM_ALL_CURVES
100
AcDbLine
 62
40
  6
CONTINUOUS
 10
4.2350097454
 20
5.6755790995
 11
4.2215316204
 21
5.6665936826
  0
LINE
  5
26B
100
AcDbEntity
  8
03__ASM_ALL_CURVES
100
AcDbLine
 62
40
  6
CONTINUOUS
 10
4.0260988079
 20
5.7205061826
 11
4.0058816204
 21
5.7115207649
  0
LINE
  5
26C
100
AcDbEntity
  8
03__ASM_ALL_CURVES
100
AcDbLine
 62
40
  6
CONTINUOUS
 10
4.2417488079
 20
5.7205061826
 11
4.2215316204
 21
5.7115207649
  0
LINE
  5
26D
100
AcDbEntity
  8
03__ASM_ALL_CURVES
100
AcDbLine
 62
40
  6
CONTINUOUS
 10
3.9250128704
 20
5.7564478471
 11
3.9250128704
 21
5.7384770181
  0
LINE
  5
26E
100
AcDbEntity
  8
03__ASM_ALL_CURVES
100
AcDbLine
 62
40
  6
CONTINUOUS
 10
4.0328378704
 20
5.7384770181
 11
4.0328378704
 21
5.7025353503
  0
LINE
  5
26F
100
AcDbEntity
  8
03__ASM_ALL_CURVES
100
AcDbLine
 62
40
  6
CONTINUOUS
 10
4.3360956829
 20
5.7115207649
 11
4.3428347454
 21
5.7384770181
  0
LINE
  5
270
100
AcDbEntity
  8
03__ASM_ALL_CURVES
100
AcDbLine
 62
40
  6
CONTINUOUS
 10
4.3428347454
 20
5.7384770181
 11
4.3563128704
 21
5.7744186826
  0
LINE
  5
271
100
AcDbEntity
  8
0
100
AcDbLine
 62
7
  6
CONTINUOUS
 10
4.3035566204
 20
5.4092836826
 11
4.2420688167
 21
5.3027836826
  0
LINE
  5
272
100
AcDbEntity
  8
03__ASM_ALL_CURVES
100
AcDbLine
 62
40
  6
CONTINUOUS
 10
4.4439206829
 20
5.6845645165
 11
4.4304425579
 21
5.6665936826
  0
LINE
  5
273
100
AcDbEntity
  8
03__ASM_ALL_CURVES
100
AcDbLine
 62
40
  6
CONTINUOUS
 10
4.778640682
 20
5.7654332681
 11
4.792118807
 21
5.7744186826
  0
LINE
  5
274
100
AcDbEntity
  8
03__ASM_ALL_CURVES
100
AcDbLine
 62
40
  6
CONTINUOUS
 10
4.886465682
 20
5.7654332681
 11
4.899943807
 21
5.7744186826
  0
LINE
  5
275
100
AcDbEntity
  8
0
100
AcDbLine
 62
7
  6
CONTINUOUS
 10
4.3035566204
 20
3.3502836826
 11
4.2420688167
 21
3.4567836826
  0
LINE
  5
276
100
AcDbEntity
  8
03__ASM_ALL_CURVES
100
AcDbLine
 62
40
  6
CONTINUOUS
 10
4.1069675579
 20
5.6665936826
 11
4.1069675579
 21
5.6755790995
  0
LINE
  5
277
100
AcDbEntity
  8
0
100
AcDbLine
 62
7
  6
CONTINUOUS
 10
4.2420688167
 20
3.4567836826
 11
4.2420688167
 21
5.3027836826
  0
LINE
  5
278
100
AcDbEntity
  8
03__ASM_ALL_CURVES
100
AcDbLine
 62
40
  6
CONTINUOUS
 10
4.2484878704
 20
5.7384770181
 11
4.2484878704
 21
5.7025353503
  0
LINE
  5
279
100
AcDbEntity
  8
03__ASM_ALL_CURVES
100
AcDbLine
 62
40
  6
CONTINUOUS
 10
4.3293566204
 20
5.6665936826
 11
4.3360956829
 21
5.7115207649
  0
LINE
  5
27A
100
AcDbEntity
  8
03__ASM_ALL_CURVES
100
AcDbLine
 62
40
  6
CONTINUOUS
 10
4.4506597454
 20
5.7115207649
 11
4.4439206829
 21
5.6845645165
  0
LINE
  5
27B
100
AcDbEntity
  8
03__ASM_ALL_CURVES
100
AcDbLine
 62
40
  6
CONTINUOUS
 10
4.765162557
 20
5.7474624326
 11
4.778640682
 21
5.7654332681
  0
LINE
  5
27C
100
AcDbEntity
  8
03__ASM_ALL_CURVES
100
AcDbLine
 62
40
  6
CONTINUOUS
 10
4.832553182
 20
5.6935499326
 11
4.819075057
 21
5.6755790995
  0
LINE
  5
27D
100
AcDbEntity
  8
03__ASM_ALL_CURVES
100
AcDbLine
 62
40
  6
CONTINUOUS
 10
4.872987557
 20
5.7474624326
 11
4.886465682
 21
5.7654332681
  0
LINE
  5
27E
100
AcDbEntity
  8
03__ASM_ALL_CURVES
100
AcDbLine
 62
40
  6
CONTINUOUS
 10
4.819075057
 20
5.6755790995
 11
4.805596932
 21
5.6665936826
  0
LINE
  5
27F
100
AcDbEntity
  8
03__ASM_ALL_CURVES
100
AcDbLine
 62
40
  6
CONTINUOUS
 10
4.926900057
 20
5.6755790995
 11
4.913421932
 21
5.6665936826
  0
LINE
  5
280
100
AcDbEntity
  8
03__ASM_ALL_CURVES
100
AcDbLine
 62
40
  6
CONTINUOUS
 10
3.7767534954
 20
5.7115207649
 11
3.7834925579
 21
5.6845645165
  0
LINE
  5
281
100
AcDbEntity
  8
0
100
AcDbLine
 62
7
  6
CONTINUOUS
 10
4.3035566204
 20
3.3502836826
 11
4.3035566204
 21
5.4092836826
  0
LINE
  5
282
100
AcDbEntity
  8
03__ASM_ALL_CURVES
100
AcDbLine
 62
40
  6
CONTINUOUS
 10
4.3621666204
 20
5.6450286826
 11
4.3621666204
 21
5.6018986826
  0
LINE
  5
283
100
AcDbEntity
  8
03__ASM_ALL_CURVES
100
AcDbLine
 62
40
  6
CONTINUOUS
 10
4.4506597454
 20
5.7294915971
 11
4.4506597454
 21
5.7115207649
  0
LINE
  5
284
100
AcDbEntity
  8
03__ASM_ALL_CURVES
100
AcDbLine
 62
40
  6
CONTINUOUS
 10
4.7584234945
 20
5.7205061826
 11
4.765162557
 21
5.7474624326
  0
LINE
  5
285
100
AcDbEntity
  8
THREAD
100
AcDbLine
 62
7
  6
CONTINUOUS
 10
4.7425788344
 20
5.3212836826
 11
4.7125566204
 21
5.2692836826
  0
LINE
  5
286
100
AcDbEntity
  8
03__ASM_ALL_CURVES
100
AcDbLine
 62
40
  6
CONTINUOUS
 10
4.9336391195
 20
5.6845645165
 11
4.926900057
 21
5.6755790995
  0
LINE
  5
287
100
AcDbEntity
  8
03__ASM_ALL_CURVES
100
AcDbLine
 62
40
  6
CONTINUOUS
 10
5.425590682
 20
5.7654332681
 11
5.439068807
 21
5.7744186826
  0
LINE
  5
288
100
AcDbEntity
  8
03__ASM_ALL_CURVES
100
AcDbLine
 62
40
  6
CONTINUOUS
 10
6.5180067884
 20
2.7999161826
 11
6.4775724134
 21
2.7999161826
  0
LINE
  5
289
100
AcDbEntity
  8
03__ASM_ALL_CURVES
100
AcDbLine
 62
40
  6
CONTINUOUS
 10
6.3967036634
 20
2.7999161826
 11
6.4371380384
 21
2.7999161826
  0
LINE
  5
28A
100
AcDbEntity
  8
03__ASM_ALL_CURVES
100
AcDbLine
 62
40
  6
CONTINUOUS
 10
6.4775724134
 20
2.8403505576
 11
6.5028438978
 21
2.8403505576
  0
LINE
  5
28B
100
AcDbEntity
  8
03__ASM_ALL_CURVES
100
AcDbLine
 62
40
  6
CONTINUOUS
 10
6.4775724134
 20
2.8807849326
 11
6.5180067884
 21
2.8807849326
  0
LINE
  5
28C
100
AcDbEntity
  8
03__ASM_ALL_CURVES
100
AcDbLine
 62
40
  6
CONTINUOUS
 10
6.5533868665
 20
2.8807849326
 11
6.6039298353
 21
2.8807849326
  0
LINE
  5
28D
100
AcDbEntity
  8
03__ASM_ALL_CURVES
100
AcDbLine
 62
40
  6
CONTINUOUS
 10
6.3537421131
 20
2.9239149326
 11
6.3436335193
 21
2.9239149326
  0
LINE
  5
28E
100
AcDbEntity
  8
03__ASM_ALL_CURVES
100
AcDbLine
 62
40
  6
CONTINUOUS
 10
6.5710768787
 20
2.9239149326
 11
6.6115112537
 21
2.9239149326
  0
LINE
  5
28F
100
AcDbEntity
  8
0
100
AcDbLine
 62
7
  6
CONTINUOUS
 10
4.4915566204
 20
3.3502836826
 11
4.4915566204
 21
5.4092836826
  0
LINE
  5
290
100
AcDbEntity
  8
03__ASM_ALL_CURVES
100
AcDbLine
 62
40
  6
CONTINUOUS
 10
4.4915566204
 20
5.4308486826
 11
4.4915566204
 21
5.6665936826
  0
LINE
  5
291
100
AcDbEntity
  8
THREAD
100
AcDbLine
 62
7
  6
CONTINUOUS
 10
4.5385566204
 20
3.4262836826
 11
4.5385566204
 21
5.3332836826
  0
LINE
  5
292
100
AcDbEntity
  8
03__ASM_ALL_CURVES
100
AcDbLine
 62
40
  6
CONTINUOUS
 10
4.6209466204
 20
5.6450286826
 11
4.6209466204
 21
5.6018986826
  0
LINE
  5
293
100
AcDbEntity
  8
0
100
AcDbLine
 62
7
  6
CONTINUOUS
 10
4.6415566204
 20
3.4257836826
 11
4.6415566204
 21
5.3337836826
  0
LINE
  5
294
100
AcDbEntity
  8
03__ASM_ALL_CURVES
100
AcDbLine
 62
40
  6
CONTINUOUS
 10
4.8392922445
 20
5.7205061826
 11
4.832553182
 21
5.6935499326
  0
LINE
  5
295
100
AcDbEntity
  8
03__ASM_ALL_CURVES
100
AcDbLine
 62
40
  6
CONTINUOUS
 10
4.8662484945
 20
5.7205061826
 11
4.872987557
 21
5.7474624326
  0
LINE
  5
296
100
AcDbEntity
  8
03__ASM_ALL_CURVES
100
AcDbLine
 62
40
  6
CONTINUOUS
 10
4.980812557
 20
5.6665936826
 11
5.0145078695
 21
5.7744186826
  0
LINE
  5
297
100
AcDbEntity
  8
03__ASM_ALL_CURVES
100
AcDbLine
 62
40
  6
CONTINUOUS
 10
5.412112557
 20
5.7474624326
 11
5.425590682
 21
5.7654332681
  0
LINE
  5
298
100
AcDbEntity
  8
03__ASM_ALL_CURVES
100
AcDbLine
 62
40
  6
CONTINUOUS
 10
5.466025057
 20
5.6755790995
 11
5.452546932
 21
5.6665936826
  0
LINE
  5
299
100
AcDbEntity
  8
03__ASM_ALL_CURVES
100
AcDbLine
 62
40
  6
CONTINUOUS
 10
5.654718807
 20
5.7744186826
 11
5.641240682
 21
5.7654332681
  0
LINE
  5
29A
100
AcDbEntity
  8
03__ASM_ALL_CURVES
100
AcDbLine
 62
40
  6
CONTINUOUS
 10
5.681675057
 20
5.6755790995
 11
5.668196932
 21
5.6665936826
  0
LINE
  5
29B
100
AcDbEntity
  8
03__ASM_ALL_CURVES
100
AcDbLine
 62
40
  6
CONTINUOUS
 10
5.856890682
 20
5.7654332681
 11
5.870368807
 21
5.7744186826
  0
LINE
  5
29C
100
AcDbEntity
  8
03__ASM_ALL_CURVES
100
AcDbLine
 62
40
  6
CONTINUOUS
 10
6.4346108631
 20
2.9643493076
 11
6.4093393787
 21
2.9643493076
  0
LINE
  5
29D
100
AcDbEntity
  8
03__ASM_ALL_CURVES
100
AcDbLine
 62
40
  6
CONTINUOUS
 10
6.2728733631
 20
2.9643493076
 11
6.2476018787
 21
2.9643493076
  0
LINE
  5
29E
100
AcDbEntity
  8
03__ASM_ALL_CURVES
100
AcDbLine
 62
40
  6
CONTINUOUS
 10
6.2476018787
 20
3.0047836826
 11
6.2728733631
 21
3.0047836826
  0
LINE
  5
29F
100
AcDbEntity
  8
03__ASM_ALL_CURVES
100
AcDbLine
 62
40
  6
CONTINUOUS
 10
6.3436335193
 20
3.0047836826
 11
6.3537421131
 21
3.0047836826
  0
LINE
  5
2A0
100
AcDbEntity
  8
03__ASM_ALL_CURVES
100
AcDbLine
 62
40
  6
CONTINUOUS
 10
6.4093393787
 20
3.0047836826
 11
6.4346108631
 21
3.0047836826
  0
LINE
  5
2A1
100
AcDbEntity
  8
03__ASM_ALL_CURVES
100
AcDbLine
 62
40
  6
CONTINUOUS
 10
6.4851538318
 20
3.0047836826
 11
6.5356968006
 21
3.0047836826
  0
LINE
  5
2A2
100
AcDbEntity
  8
03__ASM_ALL_CURVES
100
AcDbLine
 62
40
  6
CONTINUOUS
 10
6.5862397693
 20
3.0047836826
 11
6.5963483631
 21
3.0047836826
  0
LINE
  5
2A3
100
AcDbEntity
  8
THREAD
100
AcDbLine
 62
7
  6
CONTINUOUS
 10
4.7425788344
 20
3.4382836826
 11
4.7125566204
 21
3.4902836826
  0
LINE
  5
2A4
100
AcDbEntity
  8
03__ASM_ALL_CURVES
100
AcDbLine
 62
40
  6
CONTINUOUS
 10
3.9856644329
 20
5.7205061826
 11
3.9789253704
 21
5.7384770181
  0
LINE
  5
2A5
100
AcDbEntity
  8
03__ASM_ALL_CURVES
100
AcDbLine
 62
40
  6
CONTINUOUS
 10
4.6640766195
 20
5.7744186826
 11
4.6640766195
 21
5.6665936826
  0
LINE
  5
2A6
100
AcDbEntity
  8
0
100
AcDbLine
 62
7
  6
CONTINUOUS
 10
4.6915566204
 20
3.4257836826
 11
4.6915566204
 21
5.3337836826
  0
LINE
  5
2A7
100
AcDbEntity
  8
0
100
AcDbLine
 62
7
  6
CONTINUOUS
 10
4.7125566204
 20
3.4902836826
 11
4.7125566204
 21
5.2692836826
  0
LINE
  5
2A8
100
AcDbEntity
  8
THREAD
100
AcDbLine
 62
7
  6
CONTINUOUS
 10
4.7425788344
 20
3.4382836826
 11
4.7425788344
 21
5.3212836826
  0
LINE
  5
2A9
100
AcDbEntity
  8
03__ASM_ALL_CURVES
100
AcDbLine
 62
40
  6
CONTINUOUS
 10
5.4727641195
 20
5.6845645165
 11
5.466025057
 21
5.6755790995
  0
LINE
  5
2AA
100
AcDbEntity
  8
03__ASM_ALL_CURVES
100
AcDbLine
 62
40
  6
CONTINUOUS
 10
5.641240682
 20
5.7654332681
 11
5.6345016195
 21
5.7564478471
  0
LINE
  5
2AB
100
AcDbEntity
  8
03__ASM_ALL_CURVES
100
AcDbLine
 62
40
  6
CONTINUOUS
 10
5.897325057
 20
5.6755790995
 11
5.883846932
 21
5.6665936826
  0
LINE
  5
2AC
100
AcDbEntity
  8
03__ASM_ALL_CURVES
100
AcDbLine
 62
40
  6
CONTINUOUS
 10
6.005150057
 20
5.6755790995
 11
5.991671932
 21
5.6665936826
  0
LINE
  5
2AD
100
AcDbEntity
  8
03__ASM_ALL_CURVES
100
AcDbLine
 62
40
  6
CONTINUOUS
 10
3.4600175579
 20
5.6755790995
 11
3.4667566204
 21
5.6665936826
  0
LINE
  5
2AE
100
AcDbEntity
  8
03__ASM_ALL_CURVES
100
AcDbLine
 62
40
  6
CONTINUOUS
 10
4.0260988079
 20
5.7564478471
 11
4.0328378704
 21
5.7384770181
  0
LINE
  5
2AF
100
AcDbEntity
  8
03__ASM_ALL_CURVES
100
AcDbLine
 62
40
  6
CONTINUOUS
 10
4.2013144329
 20
5.7205061826
 11
4.1945753704
 21
5.7384770181
  0
LINE
  5
2B0
100
AcDbEntity
  8
03__ASM_ALL_CURVES
100
AcDbLine
 62
40
  6
CONTINUOUS
 10
4.4439206829
 20
5.7564478471
 11
4.4506597454
 21
5.7294915971
  0
LINE
  5
2B1
100
AcDbEntity
  8
03__ASM_ALL_CURVES
100
AcDbLine
 62
40
  6
CONTINUOUS
 10
5.6884141195
 20
5.6845645165
 11
5.681675057
 21
5.6755790995
  0
LINE
  5
2B2
100
AcDbEntity
  8
03__ASM_ALL_CURVES
100
AcDbLine
 62
40
  6
CONTINUOUS
 10
5.843412557
 20
5.7474624326
 11
5.856890682
 21
5.7654332681
  0
LINE
  5
2B3
100
AcDbEntity
  8
03__ASM_ALL_CURVES
100
AcDbLine
 62
40
  6
CONTINUOUS
 10
6.2140609945
 20
5.6755790995
 11
6.2005828695
 21
5.6665936826
  0
LINE
  5
2B4
100
AcDbEntity
  8
03__ASM_ALL_CURVES
100
AcDbLine
 62
40
  6
CONTINUOUS
 10
6.436450057
 20
5.7294915971
 11
6.422971932
 21
5.7205061826
  0
LINE
  5
2B5
100
AcDbEntity
  8
0
100
AcDbLine
 62
7
  6
CONTINUOUS
 10
4.4915566204
 20
3.3502836826
 11
4.3035566204
 21
3.3502836826
  0
LINE
  5
2B6
100
AcDbEntity
  8
0
100
AcDbLine
 62
7
  6
CONTINUOUS
 10
4.6415566204
 20
3.4257836826
 11
4.6915566204
 21
3.4257836826
  0
LINE
  5
2B7
100
AcDbEntity
  8
THREAD
100
AcDbLine
 62
7
  6
CONTINUOUS
 10
4.5385566204
 20
3.4262836826
 11
4.4915566204
 21
3.4262836826
  0
LINE
  5
2B8
100
AcDbEntity
  8
THREAD
100
AcDbLine
 62
7
  6
CONTINUOUS
 10
5.2120566204
 20
3.4382836826
 11
4.7425788344
 21
3.4382836826
  0
LINE
  5
2B9
100
AcDbEntity
  8
0
100
AcDbLine
 62
7
  6
CONTINUOUS
 10
4.2420688167
 20
3.4567836826
 11
3.3715292516
 21
3.4567836826
  0
LINE
  5
2BA
100
AcDbEntity
  8
0
100
AcDbLine
 62
7
  6
CONTINUOUS
 10
4.2420688167
 20
3.457179024
 11
3.3715292516
 21
3.457179024
  0
LINE
  5
2BB
100
AcDbEntity
  8
03__ASM_ALL_CURVES
100
AcDbLine
 62
40
  6
CONTINUOUS
 10
6.3436335193
 20
2.9239149326
 11
6.3335249256
 21
2.9306539953
  0
LINE
  5
2BC
100
AcDbEntity
  8
03__ASM_ALL_CURVES
100
AcDbLine
 62
40
  6
CONTINUOUS
 10
6.2728733631
 20
3.0047836826
 11
6.2829819568
 21
2.9980446217
  0
LINE
  5
2BD
100
AcDbEntity
  8
03__ASM_ALL_CURVES
100
AcDbLine
 62
40
  6
CONTINUOUS
 10
6.3537421131
 20
3.0047836826
 11
6.3638507068
 21
2.9980446217
  0
LINE
  5
2BE
100
AcDbEntity
  8
03__ASM_ALL_CURVES
100
AcDbLine
 62
40
  6
CONTINUOUS
 10
3.6621894329
 20
5.6755790995
 11
3.6487113079
 21
5.6935499326
  0
LINE
  5
2BF
100
AcDbEntity
  8
03__ASM_ALL_CURVES
100
AcDbLine
 62
40
  6
CONTINUOUS
 10
3.6621894329
 20
5.7384770181
 11
3.6554503704
 21
5.7474624326
  0
LINE
  5
2C0
100
AcDbEntity
  8
03__ASM_ALL_CURVES
100
AcDbLine
 62
40
  6
CONTINUOUS
 10
3.7026238079
 20
5.7205061826
 11
3.7161019329
 21
5.7025353503
  0
LINE
  5
2C1
100
AcDbEntity
  8
03__ASM_ALL_CURVES
100
AcDbLine
 62
40
  6
CONTINUOUS
 10
3.7026238079
 20
5.7654332681
 11
3.7093628704
 21
5.7564478471
  0
LINE
  5
2C2
100
AcDbEntity
  8
03__ASM_ALL_CURVES
100
AcDbLine
 62
40
  6
CONTINUOUS
 10
3.7834925579
 20
5.6845645165
 11
3.7969706829
 21
5.6665936826
  0
LINE
  5
2C3
100
AcDbEntity
  8
03__ASM_ALL_CURVES
100
AcDbLine
 62
40
  6
CONTINUOUS
 10
4.2417488079
 20
5.7564478471
 11
4.2484878704
 21
5.7384770181
  0
LINE
  5
2C4
100
AcDbEntity
  8
03__ASM_ALL_CURVES
100
AcDbLine
 62
40
  6
CONTINUOUS
 10
5.1223328695
 20
5.7744186826
 11
5.1223328695
 21
5.6665936826
  0
LINE
  5
2C5
100
AcDbEntity
  8
THREAD
100
AcDbLine
 62
7
  6
CONTINUOUS
 10
5.2120566204
 20
3.4382836826
 11
5.2120566204
 21
5.3212836826
  0
LINE
  5
2C6
100
AcDbEntity
  8
03__ASM_ALL_CURVES
100
AcDbLine
 62
40
  6
CONTINUOUS
 10
5.2301578695
 20
5.7744186826
 11
5.2301578695
 21
5.6665936826
  0
LINE
  5
2C7
100
AcDbEntity
  8
03__ASM_ALL_CURVES
100
AcDbLine
 62
40
  6
CONTINUOUS
 10
5.4053734945
 20
5.7205061826
 11
5.412112557
 21
5.7474624326
  0
LINE
  5
2C8
100
AcDbEntity
  8
03__ASM_ALL_CURVES
100
AcDbLine
 62
40
  6
CONTINUOUS
 10
5.910803182
 20
5.6935499326
 11
5.897325057
 21
5.6755790995
  0
LINE
  5
2C9
100
AcDbEntity
  8
03__ASM_ALL_CURVES
100
AcDbLine
 62
40
  6
CONTINUOUS
 10
6.0118891195
 20
5.6845645165
 11
6.005150057
 21
5.6755790995
  0
LINE
  5
2CA
100
AcDbEntity
  8
THREAD
100
AcDbLine
 62
7
  6
CONTINUOUS
 10
5.5405566204
 20
3.5357836826
 11
5.3095566204
 21
3.5357836826
  0
LINE
  5
2CB
100
AcDbEntity
  8
0
100
AcDbLine
 62
7
  6
CONTINUOUS
 10
7.2735566204
 20
3.5682836826
 11
7.3235566204
 21
3.5682836826
  0
LINE
  5
2CC
100
AcDbEntity
  8
0
100
AcDbLine
 62
7
  6
CONTINUOUS
 10
7.4265566204
 20
3.5682836826
 11
7.4765566204
 21
3.5682836826
  0
LINE
  5
2CD
100
AcDbEntity
  8
0
100
AcDbLine
 62
7
  6
CONTINUOUS
 10
7.1795566204
 20
3.5687836826
 11
7.2735566204
 21
3.5687836826
  0
LINE
  5
2CE
100
AcDbEntity
  8
0
100
AcDbLine
 62
7
  6
CONTINUOUS
 10
7.5165566204
 20
3.5687836826
 11
7.6025566204
 21
3.5687836826
  0
LINE
  5
2CF
100
AcDbEntity
  8
0
100
AcDbLine
 62
7
  6
CONTINUOUS
 10
6.0545566204
 20
3.6142836826
 11
6.1198438075
 21
3.6142836826
  0
LINE
  5
2D0
100
AcDbEntity
  8
0
100
AcDbLine
 62
7
  6
CONTINUOUS
 10
7.5165566204
 20
3.6562836826
 11
7.4765566204
 21
3.6562836826
  0
LINE
  5
2D1
100
AcDbEntity
  8
0
100
AcDbLine
 62
7
  6
CONTINUOUS
 10
7.1795566204
 20
3.6622836826
 11
6.5325683529
 21
3.6622836826
  0
LINE
  5
2D2
100
AcDbEntity
  8
0
100
AcDbLine
 62
7
  6
CONTINUOUS
 10
6.2005448879
 20
3.6622836826
 11
6.1475566204
 21
3.6622836826
  0
LINE
  5
2D3
100
AcDbEntity
  8
0
100
AcDbLine
 62
7
  6
CONTINUOUS
 10
6.0545566204
 20
3.6622836826
 11
5.9780566208
 21
3.6622836826
  0
LINE
  5
2D4
100
AcDbEntity
  8
0
100
AcDbLine
 62
7
  6
CONTINUOUS
 10
5.9310566199
 20
3.6622836826
 11
5.5535566204
 21
3.6622836826
  0
LINE
  5
2D5
100
AcDbEntity
  8
03__ASM_ALL_CURVES
100
AcDbLine
 62
40
  6
CONTINUOUS
 10
6.4346108631
 20
3.0047836826
 11
6.4447194568
 21
2.9980446217
  0
LINE
  5
2D6
100
AcDbEntity
  8
03__ASM_ALL_CURVES
100
AcDbLine
 62
40
  6
CONTINUOUS
 10
6.5963483631
 20
3.0047836826
 11
6.6064569568
 21
2.9980446217
  0
LINE
  5
2D7
100
AcDbEntity
  8
03__ASM_ALL_CURVES
100
AcDbLine
 62
40
  6
CONTINUOUS
 10
3.9182738079
 20
5.7654332681
 11
3.9250128704
 21
5.7564478471
  0
LINE
  5
2D8
100
AcDbEntity
  8
03__ASM_ALL_CURVES
100
AcDbLine
 62
40
  6
CONTINUOUS
 10
3.9924034954
 20
5.6755790995
 11
3.9856644329
 21
5.6845645165
  0
LINE
  5
2D9
100
AcDbEntity
  8
03__ASM_ALL_CURVES
100
AcDbLine
 62
40
  6
CONTINUOUS
 10
4.765162557
 20
5.6935499326
 11
4.7584234945
 21
5.7205061826
  0
LINE
  5
2DA
100
AcDbEntity
  8
03__ASM_ALL_CURVES
100
AcDbLine
 62
40
  6
CONTINUOUS
 10
4.832553182
 20
5.7474624326
 11
4.8392922445
 21
5.7205061826
  0
LINE
  5
2DB
100
AcDbEntity
  8
THREAD
100
AcDbLine
 62
7
  6
CONTINUOUS
 10
5.3095566204
 20
3.5357836826
 11
5.3095566204
 21
5.2237836826
  0
LINE
  5
2DC
100
AcDbEntity
  8
03__ASM_ALL_CURVES
100
AcDbLine
 62
40
  6
CONTINUOUS
 10
5.3110266195
 20
5.6665936826
 11
5.3110266195
 21
5.7744186826
  0
LINE
  5
2DD
100
AcDbEntity
  8
03__ASM_ALL_CURVES
100
AcDbLine
 62
40
  6
CONTINUOUS
 10
5.3649391195
 20
5.6665936826
 11
5.3649391195
 21
5.7744186826
  0
LINE
  5
2DE
100
AcDbEntity
  8
03__ASM_ALL_CURVES
100
AcDbLine
 62
40
  6
CONTINUOUS
 10
6.2275391195
 20
5.6935499326
 11
6.2140609945
 21
5.6755790995
  0
LINE
  5
2DF
100
AcDbEntity
  8
0
100
AcDbLine
 62
7
  6
CONTINUOUS
 10
4.2420688167
 20
3.8950883411
 11
3.3715292516
 21
3.8950883411
  0
LINE
  5
2E0
100
AcDbEntity
  8
03__ASM_ALL_CURVES
100
AcDbLine
 62
40
  6
CONTINUOUS
 10
4.0193597454
 20
5.7654332681
 11
4.0260988079
 21
5.7564478471
  0
LINE
  5
2E1
100
AcDbEntity
  8
03__ASM_ALL_CURVES
100
AcDbLine
 62
40
  6
CONTINUOUS
 10
4.1069675579
 20
5.6755790995
 11
4.1137066204
 21
5.6665936826
  0
LINE
  5
2E2
100
AcDbEntity
  8
03__ASM_ALL_CURVES
100
AcDbLine
 62
40
  6
CONTINUOUS
 10
4.2080534954
 20
5.6755790995
 11
4.2013144329
 21
5.6845645165
  0
LINE
  5
2E3
100
AcDbEntity
  8
03__ASM_ALL_CURVES
100
AcDbLine
 62
40
  6
CONTINUOUS
 10
6.3335249256
 20
2.9306539953
 11
6.3234163318
 21
2.9441321201
  0
LINE
  5
2E4
100
AcDbEntity
  8
03__ASM_ALL_CURVES
100
AcDbLine
 62
40
  6
CONTINUOUS
 10
6.2829819568
 20
2.9980446217
 11
6.2880362537
 21
2.991305556
  0
LINE
  5
2E5
100
AcDbEntity
  8
03__ASM_ALL_CURVES
100
AcDbLine
 62
40
  6
CONTINUOUS
 10
4.2350097454
 20
5.7654332681
 11
4.2417488079
 21
5.7564478471
  0
LINE
  5
2E6
100
AcDbEntity
  8
03__ASM_ALL_CURVES
100
AcDbLine
 62
40
  6
CONTINUOUS
 10
4.872987557
 20
5.6935499326
 11
4.8662484945
 21
5.7205061826
  0
LINE
  5
2E7
100
AcDbEntity
  8
03__ASM_ALL_CURVES
100
AcDbLine
 62
40
  6
CONTINUOUS
 10
5.4727641195
 20
5.7205061826
 11
5.4727641195
 21
5.6845645165
  0
LINE
  5
2E8
100
AcDbEntity
  8
0
100
AcDbLine
 62
7
  6
CONTINUOUS
 10
5.5405566204
 20
3.5357836826
 11
5.5405566204
 21
5.2237836826
  0
LINE
  5
2E9
100
AcDbEntity
  8
0
100
AcDbLine
 62
7
  6
CONTINUOUS
 10
5.5535566204
 20
3.5487836826
 11
5.5535566204
 21
5.2107836826
  0
LINE
  5
2EA
100
AcDbEntity
  8
03__ASM_ALL_CURVES
100
AcDbLine
 62
40
  6
CONTINUOUS
 10
5.8366734945
 20
5.7205061826
 11
5.843412557
 21
5.7474624326
  0
LINE
  5
2EB
100
AcDbEntity
  8
03__ASM_ALL_CURVES
100
AcDbLine
 62
40
  6
CONTINUOUS
 10
5.9175422445
 20
5.7205061826
 11
5.910803182
 21
5.6935499326
  0
LINE
  5
2EC
100
AcDbEntity
  8
03__ASM_ALL_CURVES
100
AcDbLine
 62
40
  6
CONTINUOUS
 10
6.4431891195
 20
5.7384770181
 11
6.436450057
 21
5.7294915971
  0
LINE
  5
2ED
100
AcDbEntity
  8
0
100
AcDbLine
 62
7
  6
CONTINUOUS
 10
4.2420688167
 20
3.9418743655
 11
3.3715292516
 21
3.9418743655
  0
LINE
  5
2EE
100
AcDbEntity
  8
03__ASM_ALL_CURVES
100
AcDbLine
 62
40
  6
CONTINUOUS
 10
6.3638507068
 20
2.9980446217
 11
6.3739593006
 21
2.9845664951
  0
LINE
  5
2EF
100
AcDbEntity
  8
03__ASM_ALL_CURVES
100
AcDbLine
 62
40
  6
CONTINUOUS
 10
6.4447194568
 20
2.9980446217
 11
6.4497737537
 21
2.991305556
  0
LINE
  5
2F0
100
AcDbEntity
  8
03__ASM_ALL_CURVES
100
AcDbLine
 62
40
  6
CONTINUOUS
 10
4.4304425579
 20
5.7744186826
 11
4.4439206829
 21
5.7564478471
  0
LINE
  5
2F1
100
AcDbEntity
  8
03__ASM_ALL_CURVES
100
AcDbLine
 62
40
  6
CONTINUOUS
 10
5.0145078695
 20
5.7744186826
 11
5.048203182
 21
5.6665936826
  0
LINE
  5
2F2
100
AcDbEntity
  8
03__ASM_ALL_CURVES
100
AcDbLine
 62
40
  6
CONTINUOUS
 10
5.6345016195
 20
5.7564478471
 11
5.6345016195
 21
5.7474624326
  0
LINE
  5
2F3
100
AcDbEntity
  8
03__ASM_ALL_CURVES
100
AcDbLine
 62
40
  6
CONTINUOUS
 10
5.6884141195
 20
5.7025353503
 11
5.6884141195
 21
5.6845645165
  0
LINE
  5
2F4
100
AcDbEntity
  8
03__ASM_ALL_CURVES
100
AcDbLine
 62
40
  6
CONTINUOUS
 10
5.7423266195
 20
5.7744186826
 11
5.7423266195
 21
5.6665936826
  0
LINE
  5
2F5
100
AcDbEntity
  8
03__ASM_ALL_CURVES
100
AcDbLine
 62
40
  6
CONTINUOUS
 10
5.7962391195
 20
5.7744186826
 11
5.7962391195
 21
5.6665936826
  0
LINE
  5
2F6
100
AcDbEntity
  8
03__ASM_ALL_CURVES
100
AcDbLine
 62
40
  6
CONTINUOUS
 10
8.250574589
 20
4.2773499326
 11
8.210140214
 21
4.2773499326
  0
LINE
  5
2F7
100
AcDbEntity
  8
03__ASM_ALL_CURVES
100
AcDbLine
 62
40
  6
CONTINUOUS
 10
7.9928054484
 20
4.2773499326
 11
7.9826968546
 21
4.2773499326
  0
LINE
  5
2F8
100
AcDbEntity
  8
03__ASM_ALL_CURVES
100
AcDbLine
 62
40
  6
CONTINUOUS
 10
7.9119366984
 20
4.2773499326
 11
7.9018281046
 21
4.2773499326
  0
LINE
  5
2F9
100
AcDbEntity
  8
03__ASM_ALL_CURVES
100
AcDbLine
 62
40
  6
CONTINUOUS
 10
8.129271464
 20
4.2773499326
 11
8.169705839
 21
4.2773499326
  0
LINE
  5
2FA
100
AcDbEntity
  8
03__ASM_ALL_CURVES
100
AcDbLine
 62
40
  6
CONTINUOUS
 10
3.6756675579
 20
5.6665936826
 11
3.6621894329
 21
5.6755790995
  0
LINE
  5
2FB
100
AcDbEntity
  8
03__ASM_ALL_CURVES
100
AcDbLine
 62
40
  6
CONTINUOUS
 10
3.6756675579
 20
5.7294915971
 11
3.6621894329
 21
5.7384770181
  0
LINE
  5
2FC
100
AcDbEntity
  8
03__ASM_ALL_CURVES
100
AcDbLine
 62
40
  6
CONTINUOUS
 10
6.6064569568
 20
2.9980446217
 11
6.6115112537
 21
2.991305556
  0
LINE
  5
2FD
100
AcDbEntity
  8
03__ASM_ALL_CURVES
100
AcDbLine
 62
40
  6
CONTINUOUS
 10
4.778640682
 20
5.6755790995
 11
4.765162557
 21
5.6935499326
  0
LINE
  5
2FE
100
AcDbEntity
  8
03__ASM_ALL_CURVES
100
AcDbLine
 62
40
  6
CONTINUOUS
 10
6.3158349134
 20
2.8807849326
 11
6.3562692884
 21
2.7999161826
  0
LINE
  5
2FF
100
AcDbEntity
  8
03__ASM_ALL_CURVES
100
AcDbLine
 62
40
  6
CONTINUOUS
 10
5.412112557
 20
5.6935499326
 11
5.4053734945
 21
5.7205061826
  0
LINE
  5
300
100
AcDbEntity
  8
0
100
AcDbLine
 62
7
  6
CONTINUOUS
 10
5.9326078163
 20
3.6623328132
 11
5.9326078163
 21
5.0972836826
  0
LINE
  5
301
100
AcDbEntity
  8
03__ASM_ALL_CURVES
100
AcDbLine
 62
40
  6
CONTINUOUS
 10
5.9579766195
 20
5.6845645165
 11
5.9579766195
 21
5.7744186826
  0
LINE
  5
302
100
AcDbEntity
  8
0
100
AcDbLine
 62
7
  6
CONTINUOUS
 10
5.9765054244
 20
3.6623328132
 11
5.9765054244
 21
5.0972836826
  0
LINE
  5
303
100
AcDbEntity
  8
03__ASM_ALL_CURVES
100
AcDbLine
 62
40
  6
CONTINUOUS
 10
6.0118891195
 20
5.7744186826
 11
6.0118891195
 21
5.6845645165
  0
LINE
  5
304
100
AcDbEntity
  8
03__ASM_ALL_CURVES
100
AcDbLine
 62
40
  6
CONTINUOUS
 10
6.234278182
 20
5.7205061826
 11
6.2275391195
 21
5.6935499326
  0
LINE
  5
305
100
AcDbEntity
  8
THREAD
100
AcDbLine
 62
7
  6
CONTINUOUS
 10
5.3095566204
 20
3.5357836826
 11
5.2120566204
 21
3.4382836826
  0
LINE
  5
306
100
AcDbEntity
  8
03__ASM_ALL_CURVES
100
AcDbLine
 62
40
  6
CONTINUOUS
 10
8.210140214
 20
4.3177843076
 11
8.2354116984
 21
4.3177843076
  0
LINE
  5
307
100
AcDbEntity
  8
03__ASM_ALL_CURVES
100
AcDbLine
 62
40
  6
CONTINUOUS
 10
7.9018281046
 20
4.3582186826
 11
7.9119366984
 21
4.3582186826
  0
LINE
  5
308
100
AcDbEntity
  8
03__ASM_ALL_CURVES
100
AcDbLine
 62
40
  6
CONTINUOUS
 10
8.0433484171
 20
4.3582186826
 11
8.0938913859
 21
4.3582186826
  0
LINE
  5
309
100
AcDbEntity
  8
03__ASM_ALL_CURVES
100
AcDbLine
 62
40
  6
CONTINUOUS
 10
8.210140214
 20
4.3582186826
 11
8.250574589
 21
4.3582186826
  0
LINE
  5
30A
100
AcDbEntity
  8
03__ASM_ALL_CURVES
100
AcDbLine
 62
40
  6
CONTINUOUS
 10
8.2859546671
 20
4.3582186826
 11
8.3364976359
 21
4.3582186826
  0
LINE
  5
30B
100
AcDbEntity
  8
03__ASM_ALL_CURVES
100
AcDbLine
 62
40
  6
CONTINUOUS
 10
7.9826968545
 20
4.4013486826
 11
7.9725882608
 21
4.4013486826
  0
LINE
  5
30C
100
AcDbEntity
  8
03__ASM_ALL_CURVES
100
AcDbLine
 62
40
  6
CONTINUOUS
 10
8.0635656045
 20
4.4417830576
 11
8.0382941202
 21
4.4417830576
  0
LINE
  5
30D
100
AcDbEntity
  8
03__ASM_ALL_CURVES
100
AcDbLine
 62
40
  6
CONTINUOUS
 10
7.9018281045
 20
4.4417830576
 11
7.8765566202
 21
4.4417830576
  0
LINE
  5
30E
100
AcDbEntity
  8
03__ASM_ALL_CURVES
100
AcDbLine
 62
40
  6
CONTINUOUS
 10
7.8765566202
 20
4.4822174326
 11
7.9018281045
 21
4.4822174326
  0
LINE
  5
30F
100
AcDbEntity
  8
03__ASM_ALL_CURVES
100
AcDbLine
 62
40
  6
CONTINUOUS
 10
7.9725882608
 20
4.4822174326
 11
7.9826968545
 21
4.4822174326
  0
LINE
  5
310
100
AcDbEntity
  8
03__ASM_ALL_CURVES
100
AcDbLine
 62
40
  6
CONTINUOUS
 10
8.0382941202
 20
4.4822174326
 11
8.0635656045
 21
4.4822174326
  0
LINE
  5
311
100
AcDbEntity
  8
03__ASM_ALL_CURVES
100
AcDbLine
 62
40
  6
CONTINUOUS
 10
8.1141085733
 20
4.4822174326
 11
8.164651542
 21
4.4822174326
  0
LINE
  5
312
100
AcDbEntity
  8
03__ASM_ALL_CURVES
100
AcDbLine
 62
40
  6
CONTINUOUS
 10
3.6891456829
 20
5.7294915971
 11
3.7026238079
 21
5.7205061826
  0
LINE
  5
313
100
AcDbEntity
  8
03__ASM_ALL_CURVES
100
AcDbLine
 62
40
  6
CONTINUOUS
 10
3.6891456829
 20
5.7744186826
 11
3.7026238079
 21
5.7654332681
  0
LINE
  5
314
100
AcDbEntity
  8
03__ASM_ALL_CURVES
100
AcDbLine
 62
40
  6
CONTINUOUS
 10
4.0058816204
 20
5.6665936826
 11
3.9924034954
 21
5.6755790995
  0
LINE
  5
315
100
AcDbEntity
  8
03__ASM_ALL_CURVES
100
AcDbLine
 62
40
  6
CONTINUOUS
 10
3.9047956829
 20
5.7744186826
 11
3.9182738079
 21
5.7654332681
  0
LINE
  5
316
100
AcDbEntity
  8
03__ASM_ALL_CURVES
100
AcDbLine
 62
40
  6
CONTINUOUS
 10
4.886465682
 20
5.6755790995
 11
4.872987557
 21
5.6935499326
  0
LINE
  5
317
100
AcDbEntity
  8
03__ASM_ALL_CURVES
100
AcDbLine
 62
40
  6
CONTINUOUS
 10
4.819075057
 20
5.7654332681
 11
4.832553182
 21
5.7474624326
  0
LINE
  5
318
100
AcDbEntity
  8
03__ASM_ALL_CURVES
100
AcDbLine
 62
40
  6
CONTINUOUS
 10
4.926900057
 20
5.7654332681
 11
4.9336391195
 21
5.7564478471
  0
LINE
  5
319
100
AcDbEntity
  8
03__ASM_ALL_CURVES
100
AcDbLine
 62
40
  6
CONTINUOUS
 10
6.4346108631
 20
2.9643493076
 11
6.4497737537
 21
2.9239149326
  0
LINE
  5
31A
100
AcDbEntity
  8
03__ASM_ALL_CURVES
100
AcDbLine
 62
40
  6
CONTINUOUS
 10
6.3234163318
 20
2.9441321201
 11
6.3183620349
 21
2.9643493076
  0
LINE
  5
31B
100
AcDbEntity
  8
0
100
AcDbLine
 62
7
  6
CONTINUOUS
 10
6.0545566204
 20
3.6142836826
 11
6.0545566204
 21
5.1452836826
  0
LINE
  5
31C
100
AcDbEntity
  8
03__ASM_ALL_CURVES
100
AcDbLine
 62
40
  6
CONTINUOUS
 10
6.0658016195
 20
5.7744186826
 11
6.0658016195
 21
5.6665936826
  0
LINE
  5
31D
100
AcDbEntity
  8
0
100
AcDbLine
 62
7
  6
CONTINUOUS
 10
6.1198438075
 20
3.6142836826
 11
6.1198438075
 21
5.1452836826
  0
LINE
  5
31E
100
AcDbEntity
  8
0
100
AcDbLine
 62
7
  6
CONTINUOUS
 10
6.1475566204
 20
3.6622836826
 11
6.1475566204
 21
5.0972836826
  0
LINE
  5
31F
100
AcDbEntity
  8
03__ASM_ALL_CURVES
100
AcDbLine
 62
40
  6
CONTINUOUS
 10
6.1736266195
 20
5.6665936826
 11
6.1736266195
 21
5.7744186826
  0
LINE
  5
320
100
AcDbEntity
  8
0
100
AcDbLine
 62
7
  6
CONTINUOUS
 10
5.5535566204
 20
3.5487836826
 11
5.5405566204
 21
3.5357836826
  0
LINE
  5
321
100
AcDbEntity
  8
03__ASM_ALL_CURVES
100
AcDbLine
 62
40
  6
CONTINUOUS
 10
4.0058816204
 20
5.7744186826
 11
4.0193597454
 21
5.7654332681
  0
LINE
  5
322
100
AcDbEntity
  8
03__ASM_ALL_CURVES
100
AcDbLine
 62
40
  6
CONTINUOUS
 10
4.2215316204
 20
5.6665936826
 11
4.2080534954
 21
5.6755790995
  0
LINE
  5
323
100
AcDbEntity
  8
03__ASM_ALL_CURVES
100
AcDbLine
 62
40
  6
CONTINUOUS
 10
4.2215316204
 20
5.7744186826
 11
4.2350097454
 21
5.7654332681
  0
LINE
  5
324
100
AcDbEntity
  8
THREAD
100
AcDbLine
 62
7
  6
CONTINUOUS
 10
5.3095566204
 20
5.2237836826
 11
5.2120566204
 21
5.3212836826
  0
LINE
  5
325
100
AcDbEntity
  8
03__ASM_ALL_CURVES
100
AcDbLine
 62
40
  6
CONTINUOUS
 10
5.3110266195
 20
5.7744186826
 11
5.3649391195
 21
5.6665936826
  0
LINE
  5
326
100
AcDbEntity
  8
03__ASM_ALL_CURVES
100
AcDbLine
 62
40
  6
CONTINUOUS
 10
6.3739593006
 20
2.9845664951
 11
6.3790135974
 21
2.9643493076
  0
LINE
  5
327
100
AcDbEntity
  8
03__ASM_ALL_CURVES
100
AcDbLine
 62
40
  6
CONTINUOUS
 10
5.843412557
 20
5.6935499326
 11
5.8366734945
 21
5.7205061826
  0
LINE
  5
328
100
AcDbEntity
  8
03__ASM_ALL_CURVES
100
AcDbLine
 62
40
  6
CONTINUOUS
 10
6.2476018787
 20
2.9239149326
 11
6.2476018787
 21
3.0047836826
  0
LINE
  5
329
100
AcDbEntity
  8
03__ASM_ALL_CURVES
100
AcDbLine
 62
40
  6
CONTINUOUS
 10
6.2551833509
 20
2.8807849326
 11
6.2551833509
 21
2.7999161826
  0
LINE
  5
32A
100
AcDbEntity
  8
03__ASM_ALL_CURVES
100
AcDbLine
 62
40
  6
CONTINUOUS
 10
6.2814516195
 20
5.6665936826
 11
6.2814516195
 21
5.7744186826
  0
LINE
  5
32B
100
AcDbEntity
  8
03__ASM_ALL_CURVES
100
AcDbLine
 62
40
  6
CONTINUOUS
 10
6.2880362537
 20
2.991305556
 11
6.2880362537
 21
2.9778274342
  0
LINE
  5
32C
100
AcDbEntity
  8
03__ASM_ALL_CURVES
100
AcDbLine
 62
40
  6
CONTINUOUS
 10
6.3158349134
 20
2.7999161826
 11
6.3158349134
 21
2.8807849326
  0
LINE
  5
32D
100
AcDbEntity
  8
03__ASM_ALL_CURVES
100
AcDbLine
 62
40
  6
CONTINUOUS
 10
6.3562692884
 20
2.7999161826
 11
6.3562692884
 21
2.8807849326
  0
LINE
  5
32E
100
AcDbEntity
  8
03__ASM_ALL_CURVES
100
AcDbLine
 62
40
  6
CONTINUOUS
 10
6.3892766195
 20
5.6665936826
 11
6.3892766195
 21
5.7744186826
  0
LINE
  5
32F
100
AcDbEntity
  8
03__ASM_ALL_CURVES
100
AcDbLine
 62
40
  6
CONTINUOUS
 10
6.3967036634
 20
2.8807849326
 11
6.3967036634
 21
2.7999161826
  0
LINE
  5
330
100
AcDbEntity
  8
03__ASM_ALL_CURVES
100
AcDbLine
 62
40
  6
CONTINUOUS
 10
6.4093393787
 20
2.9239149326
 11
6.4093393787
 21
3.0047836826
  0
LINE
  5
331
100
AcDbEntity
  8
0
100
AcDbLine
 62
7
  6
CONTINUOUS
 10
6.1198438075
 20
3.6142836826
 11
6.1475566204
 21
3.6622836826
  0
LINE
  5
332
100
AcDbEntity
  8
0
100
AcDbLine
 62
7
  6
CONTINUOUS
 10
4.2420688167
 20
4.8176929997
 11
3.3715292516
 21
4.8176929997
  0
LINE
  5
333
100
AcDbEntity
  8
0
100
AcDbLine
 62
7
  6
CONTINUOUS
 10
4.2420688167
 20
4.864479024
 11
3.3715292516
 21
4.864479024
  0
LINE
  5
334
100
AcDbEntity
  8
03__ASM_ALL_CURVES
100
AcDbLine
 62
40
  6
CONTINUOUS
 10
4.0058816204
 20
5.7115207649
 11
3.9856644329
 21
5.7205061826
  0
LINE
  5
335
100
AcDbEntity
  8
03__ASM_ALL_CURVES
100
AcDbLine
 62
40
  6
CONTINUOUS
 10
4.792118807
 20
5.6665936826
 11
4.778640682
 21
5.6755790995
  0
LINE
  5
336
100
AcDbEntity
  8
0
100
AcDbLine
 62
7
  6
CONTINUOUS
 10
5.5535566204
 20
5.2107836826
 11
5.5405566204
 21
5.2237836826
  0
LINE
  5
337
100
AcDbEntity
  8
03__ASM_ALL_CURVES
100
AcDbLine
 62
40
  6
CONTINUOUS
 10
5.425590682
 20
5.6755790995
 11
5.412112557
 21
5.6935499326
  0
LINE
  5
338
100
AcDbEntity
  8
03__ASM_ALL_CURVES
100
AcDbLine
 62
40
  6
CONTINUOUS
 10
5.910803182
 20
5.7474624326
 11
5.9175422445
 21
5.7205061826
  0
LINE
  5
339
100
AcDbEntity
  8
03__ASM_ALL_CURVES
100
AcDbLine
 62
40
  6
CONTINUOUS
 10
6.4431891195
 20
5.7564478471
 11
6.4431891195
 21
5.7384770181
  0
LINE
  5
33A
100
AcDbEntity
  8
03__ASM_ALL_CURVES
100
AcDbLine
 62
40
  6
CONTINUOUS
 10
6.4497737537
 20
2.991305556
 11
6.4497737537
 21
2.9778274342
  0
LINE
  5
33B
100
AcDbEntity
  8
03__ASM_ALL_CURVES
100
AcDbLine
 62
40
  6
CONTINUOUS
 10
6.4775724134
 20
2.7999161826
 11
6.4775724134
 21
2.8807849326
  0
LINE
  5
33C
100
AcDbEntity
  8
03__ASM_ALL_CURVES
100
AcDbLine
 62
40
  6
CONTINUOUS
 10
6.5104253162
 20
3.0047836826
 11
6.5104253162
 21
2.9239149326
  0
LINE
  5
33D
100
AcDbEntity
  8
03__ASM_ALL_CURVES
100
AcDbLine
 62
40
  6
CONTINUOUS
 10
6.5786583509
 20
2.8807849326
 11
6.5786583509
 21
2.7999161826
  0
LINE
  5
33E
100
AcDbEntity
  8
03__ASM_ALL_CURVES
100
AcDbLine
 62
40
  6
CONTINUOUS
 10
4.2215316204
 20
5.7115207649
 11
4.2013144329
 21
5.7205061826
  0
LINE
  5
33F
100
AcDbEntity
  8
03__ASM_ALL_CURVES
100
AcDbLine
 62
40
  6
CONTINUOUS
 10
4.899943807
 20
5.6665936826
 11
4.886465682
 21
5.6755790995
  0
LINE
  5
340
100
AcDbEntity
  8
03__ASM_ALL_CURVES
100
AcDbLine
 62
40
  6
CONTINUOUS
 10
4.805596932
 20
5.7744186826
 11
4.819075057
 21
5.7654332681
  0
LINE
  5
341
100
AcDbEntity
  8
03__ASM_ALL_CURVES
100
AcDbLine
 62
40
  6
CONTINUOUS
 10
4.913421932
 20
5.7744186826
 11
4.926900057
 21
5.7654332681
  0
LINE
  5
342
100
AcDbEntity
  8
03__ASM_ALL_CURVES
100
AcDbLine
 62
40
  6
CONTINUOUS
 10
5.466025057
 20
5.7654332681
 11
5.4727641195
 21
5.7564478471
  0
LINE
  5
343
100
AcDbEntity
  8
03__ASM_ALL_CURVES
100
AcDbLine
 62
40
  6
CONTINUOUS
 10
5.641240682
 20
5.6755790995
 11
5.627762557
 21
5.6935499326
  0
LINE
  5
344
100
AcDbEntity
  8
03__ASM_ALL_CURVES
100
AcDbLine
 62
40
  6
CONTINUOUS
 10
5.6345016195
 20
5.7474624326
 11
5.641240682
 21
5.7384770181
  0
LINE
  5
345
100
AcDbEntity
  8
03__ASM_ALL_CURVES
100
AcDbLine
 62
40
  6
CONTINUOUS
 10
5.681675057
 20
5.7115207649
 11
5.6884141195
 21
5.7025353503
  0
LINE
  5
346
100
AcDbEntity
  8
03__ASM_ALL_CURVES
100
AcDbLine
 62
40
  6
CONTINUOUS
 10
5.6884141195
 20
5.7564478471
 11
5.681675057
 21
5.7654332681
  0
LINE
  5
347
100
AcDbEntity
  8
0
100
AcDbLine
 62
7
  6
CONTINUOUS
 10
6.1198438075
 20
5.1452836826
 11
6.1475566204
 21
5.0972836826
  0
LINE
  5
348
100
AcDbEntity
  8
03__ASM_ALL_CURVES
100
AcDbLine
 62
40
  6
CONTINUOUS
 10
6.2275391195
 20
5.7474624326
 11
6.234278182
 21
5.7205061826
  0
LINE
  5
349
100
AcDbEntity
  8
03__ASM_ALL_CURVES
100
AcDbLine
 62
40
  6
CONTINUOUS
 10
6.6115112537
 20
2.991305556
 11
6.6115112537
 21
2.9778274342
  0
LINE
  5
34A
100
AcDbEntity
  8
03__ASM_ALL_CURVES
100
AcDbLine
 62
40
  6
CONTINUOUS
 10
6.3183620349
 20
2.9643493076
 11
6.3234163318
 21
2.9845664951
  0
LINE
  5
34B
100
AcDbEntity
  8
03__ASM_ALL_CURVES
100
AcDbLine
 62
40
  6
CONTINUOUS
 10
6.3790135974
 20
2.9643493076
 11
6.3739593006
 21
2.9441321201
  0
LINE
  5
34C
100
AcDbEntity
  8
0
100
AcDbLine
 62
7
  6
CONTINUOUS
 10
7.1795566204
 20
5.0972836826
 11
6.5325683529
 21
5.0972836826
  0
LINE
  5
34D
100
AcDbEntity
  8
0
100
AcDbLine
 62
7
  6
CONTINUOUS
 10
6.2005448879
 20
5.0972836826
 11
6.1475566204
 21
5.0972836826
  0
LINE
  5
34E
100
AcDbEntity
  8
0
100
AcDbLine
 62
7
  6
CONTINUOUS
 10
6.0545566204
 20
5.0972836826
 11
5.9765054244
 21
5.0972836826
  0
LINE
  5
34F
100
AcDbEntity
  8
0
100
AcDbLine
 62
7
  6
CONTINUOUS
 10
5.9326078163
 20
5.0972836826
 11
5.5535566204
 21
5.0972836826
  0
LINE
  5
350
100
AcDbEntity
  8
0
100
AcDbLine
 62
7
  6
CONTINUOUS
 10
7.5165566204
 20
5.1032836826
 11
7.4765566204
 21
5.1032836826
  0
LINE
  5
351
100
AcDbEntity
  8
0
100
AcDbLine
 62
7
  6
CONTINUOUS
 10
6.0545566204
 20
5.1452836826
 11
6.1198438075
 21
5.1452836826
  0
LINE
  5
352
100
AcDbEntity
  8
0
100
AcDbLine
 62
7
  6
CONTINUOUS
 10
7.1795566204
 20
5.1907836826
 11
7.2735566204
 21
5.1907836826
  0
LINE
  5
353
100
AcDbEntity
  8
0
100
AcDbLine
 62
7
  6
CONTINUOUS
 10
7.5165566204
 20
5.1907836826
 11
7.6025566204
 21
5.1907836826
  0
LINE
  5
354
100
AcDbEntity
  8
0
100
AcDbLine
 62
7
  6
CONTINUOUS
 10
7.2735566204
 20
5.1912836826
 11
7.3235566204
 21
5.1912836826
  0
LINE
  5
355
100
AcDbEntity
  8
0
100
AcDbLine
 62
7
  6
CONTINUOUS
 10
7.4265566204
 20
5.1912836826
 11
7.4765566204
 21
5.1912836826
  0
LINE
  5
356
100
AcDbEntity
  8
THREAD
100
AcDbLine
 62
7
  6
CONTINUOUS
 10
5.5405566204
 20
5.2237836826
 11
5.3095566204
 21
5.2237836826
  0
LINE
  5
357
100
AcDbEntity
  8
03__ASM_ALL_CURVES
100
AcDbLine
 62
40
  6
CONTINUOUS
 10
3.4339466204
 20
5.6054928493
 11
3.3045566204
 21
5.6234636826
  0
LINE
  5
358
100
AcDbEntity
  8
03__ASM_ALL_CURVES
100
AcDbLine
 62
40
  6
CONTINUOUS
 10
3.4339466204
 20
5.6018986826
 11
3.3045566204
 21
5.6234636826
  0
LINE
  5
359
100
AcDbEntity
  8
03__ASM_ALL_CURVES
100
AcDbLine
 62
40
  6
CONTINUOUS
 10
5.439068807
 20
5.6665936826
 11
5.425590682
 21
5.6755790995
  0
LINE
  5
35A
100
AcDbEntity
  8
03__ASM_ALL_CURVES
100
AcDbLine
 62
40
  6
CONTINUOUS
 10
5.856890682
 20
5.6755790995
 11
5.843412557
 21
5.6935499326
  0
LINE
  5
35B
100
AcDbEntity
  8
03__ASM_ALL_CURVES
100
AcDbLine
 62
40
  6
CONTINUOUS
 10
5.964715682
 20
5.6755790995
 11
5.9579766195
 21
5.6845645165
  0
LINE
  5
35C
100
AcDbEntity
  8
03__ASM_ALL_CURVES
100
AcDbLine
 62
40
  6
CONTINUOUS
 10
5.897325057
 20
5.7654332681
 11
5.910803182
 21
5.7474624326
  0
LINE
  5
35D
100
AcDbEntity
  8
03__ASM_ALL_CURVES
100
AcDbLine
 62
40
  6
CONTINUOUS
 10
6.5761311756
 20
2.9441321201
 11
6.5710768787
 21
2.9239149326
  0
LINE
  5
35E
100
AcDbEntity
  8
03__ASM_ALL_CURVES
100
AcDbLine
 62
40
  6
CONTINUOUS
 10
6.2880362537
 20
2.9778274342
 11
6.2829819568
 21
2.9710883685
  0
LINE
  5
35F
100
AcDbEntity
  8
03__ASM_ALL_CURVES
100
AcDbLine
 62
40
  6
CONTINUOUS
 10
6.3234163318
 20
2.9845664951
 11
6.3335249256
 21
2.9980446217
  0
LINE
  5
360
100
AcDbEntity
  8
03__ASM_ALL_CURVES
100
AcDbLine
 62
40
  6
CONTINUOUS
 10
7.9119366983
 20
4.4485221185
 11
7.9018281045
 21
4.4417830576
  0
LINE
  5
361
100
AcDbEntity
  8
03__ASM_ALL_CURVES
100
AcDbLine
 62
40
  6
CONTINUOUS
 10
7.962479667
 20
4.4754783717
 11
7.9725882608
 21
4.4822174326
  0
LINE
  5
362
100
AcDbEntity
  8
03__ASM_ALL_CURVES
100
AcDbLine
 62
40
  6
CONTINUOUS
 10
7.8917195109
 20
4.3514796217
 11
7.9018281046
 21
4.3582186826
  0
LINE
  5
363
100
AcDbEntity
  8
03__ASM_ALL_CURVES
100
AcDbLine
 62
40
  6
CONTINUOUS
 10
7.9928054483
 20
4.4080877453
 11
7.9826968545
 21
4.4013486826
  0
LINE
  5
364
100
AcDbEntity
  8
03__ASM_ALL_CURVES
100
AcDbLine
 62
40
  6
CONTINUOUS
 10
8.0736741983
 20
4.4485221185
 11
8.0635656045
 21
4.4417830576
  0
LINE
  5
365
100
AcDbEntity
  8
03__ASM_ALL_CURVES
100
AcDbLine
 62
40
  6
CONTINUOUS
 10
7.9220452921
 20
4.2840889953
 11
7.9119366984
 21
4.2773499326
  0
LINE
  5
366
100
AcDbEntity
  8
0
100
AcDbLine
 62
7
  6
CONTINUOUS
 10
4.2420688167
 20
5.3023883411
 11
3.3715292516
 21
5.3023883411
  0
LINE
  5
367
100
AcDbEntity
  8
0
100
AcDbLine
 62
7
  6
CONTINUOUS
 10
4.2420688167
 20
5.3027836826
 11
3.3715292516
 21
5.3027836826
  0
LINE
  5
368
100
AcDbEntity
  8
THREAD
100
AcDbLine
 62
7
  6
CONTINUOUS
 10
5.2120566204
 20
5.3212836826
 11
4.7425788344
 21
5.3212836826
  0
LINE
  5
369
100
AcDbEntity
  8
THREAD
100
AcDbLine
 62
7
  6
CONTINUOUS
 10
4.5385566204
 20
5.3332836826
 11
4.4915566204
 21
5.3332836826
  0
LINE
  5
36A
100
AcDbEntity
  8
0
100
AcDbLine
 62
7
  6
CONTINUOUS
 10
4.6415566204
 20
5.3337836826
 11
4.6915566204
 21
5.3337836826
  0
LINE
  5
36B
100
AcDbEntity
  8
0
100
AcDbLine
 62
7
  6
CONTINUOUS
 10
4.4915566204
 20
5.4092836826
 11
4.3035566204
 21
5.4092836826
  0
LINE
  5
36C
100
AcDbEntity
  8
03__ASM_ALL_CURVES
100
AcDbLine
 62
40
  6
CONTINUOUS
 10
3.4339466204
 20
5.6162753493
 11
3.3045566204
 21
5.6234636826
  0
LINE
  5
36D
100
AcDbEntity
  8
03__ASM_ALL_CURVES
100
AcDbLine
 62
40
  6
CONTINUOUS
 10
3.4339466204
 20
5.6126811826
 11
3.3045566204
 21
5.6234636826
  0
LINE
  5
36E
100
AcDbEntity
  8
03__ASM_ALL_CURVES
100
AcDbLine
 62
40
  6
CONTINUOUS
 10
3.4339466204
 20
5.6090870159
 11
3.3045566204
 21
5.6234636826
  0
LINE
  5
36F
100
AcDbEntity
  8
03__ASM_ALL_CURVES
100
AcDbLine
 62
40
  6
CONTINUOUS
 10
4.3621666204
 20
5.6378403493
 11
4.6209466204
 21
5.6090870159
  0
LINE
  5
370
100
AcDbEntity
  8
03__ASM_ALL_CURVES
100
AcDbLine
 62
40
  6
CONTINUOUS
 10
4.3621666204
 20
5.6414345159
 11
4.6209466204
 21
5.6054928493
  0
LINE
  5
371
100
AcDbEntity
  8
03__ASM_ALL_CURVES
100
AcDbLine
 62
40
  6
CONTINUOUS
 10
4.6209466204
 20
5.6018986826
 11
4.3621666204
 21
5.6450286826
  0
LINE
  5
372
100
AcDbEntity
  8
03__ASM_ALL_CURVES
100
AcDbLine
 62
40
  6
CONTINUOUS
 10
5.452546932
 20
5.7744186826
 11
5.466025057
 21
5.7654332681
  0
LINE
  5
373
100
AcDbEntity
  8
03__ASM_ALL_CURVES
100
AcDbLine
 62
40
  6
CONTINUOUS
 10
5.654718807
 20
5.6665936826
 11
5.641240682
 21
5.6755790995
  0
LINE
  5
374
100
AcDbEntity
  8
03__ASM_ALL_CURVES
100
AcDbLine
 62
40
  6
CONTINUOUS
 10
5.641240682
 20
5.7384770181
 11
5.681675057
 21
5.7115207649
  0
LINE
  5
375
100
AcDbEntity
  8
03__ASM_ALL_CURVES
100
AcDbLine
 62
40
  6
CONTINUOUS
 10
7.9018281046
 20
4.2773499326
 11
7.8917195109
 21
4.2840889953
  0
LINE
  5
376
100
AcDbEntity
  8
03__ASM_ALL_CURVES
100
AcDbLine
 62
40
  6
CONTINUOUS
 10
5.681675057
 20
5.7654332681
 11
5.668196932
 21
5.7744186826
  0
LINE
  5
377
100
AcDbEntity
  8
03__ASM_ALL_CURVES
100
AcDbLine
 62
40
  6
CONTINUOUS
 10
5.870368807
 20
5.6665936826
 11
5.856890682
 21
5.6755790995
  0
LINE
  5
378
100
AcDbEntity
  8
03__ASM_ALL_CURVES
100
AcDbLine
 62
40
  6
CONTINUOUS
 10
7.9826968546
 20
4.2773499326
 11
7.9725882609
 21
4.2840889953
  0
LINE
  5
379
100
AcDbEntity
  8
03__ASM_ALL_CURVES
100
AcDbLine
 62
40
  6
CONTINUOUS
 10
6.422971932
 20
5.7205061826
 11
6.4431891195
 21
5.6665936826
  0
LINE
  5
37A
100
AcDbEntity
  8
0
100
AcDbLine
 62
7
  6
CONTINUOUS
 10
7.1795566204
 20
5.19077418
 11
7.1795566204
 21
3.5687931852
  0
LINE
  5
37B
100
AcDbEntity
  8
03__ASM_ALL_CURVES
100
AcDbLine
 62
40
  6
CONTINUOUS
 10
6.3739593006
 20
2.9441321201
 11
6.3638507068
 21
2.9306539953
  0
LINE
  5
37C
100
AcDbEntity
  8
03__ASM_ALL_CURVES
100
AcDbLine
 62
40
  6
CONTINUOUS
 10
6.4497737537
 20
2.9778274342
 11
6.4447194568
 21
2.9710883685
  0
LINE
  5
37D
100
AcDbEntity
  8
03__ASM_ALL_CURVES
100
AcDbLine
 62
40
  6
CONTINUOUS
 10
6.5710768787
 20
2.991305556
 11
6.5761311756
 21
2.9980446217
  0
LINE
  5
37E
100
AcDbEntity
  8
03__ASM_ALL_CURVES
100
AcDbLine
 62
40
  6
CONTINUOUS
 10
8.0029140421
 20
4.2840889953
 11
7.9928054484
 21
4.2773499326
  0
LINE
  5
37F
100
AcDbEntity
  8
03__ASM_ALL_CURVES
100
AcDbLine
 62
40
  6
CONTINUOUS
 10
6.2829819568
 20
2.9710883685
 11
6.2728733631
 21
2.9643493076
  0
LINE
  5
380
100
AcDbEntity
  8
03__ASM_ALL_CURVES
100
AcDbLine
 62
40
  6
CONTINUOUS
 10
6.3335249256
 20
2.9980446217
 11
6.3436335193
 21
3.0047836826
  0
LINE
  5
381
100
AcDbEntity
  8
03__ASM_ALL_CURVES
100
AcDbLine
 62
40
  6
CONTINUOUS
 10
4.3621666204
 20
5.6198695159
 11
4.6209466204
 21
5.6270578493
  0
LINE
  5
382
100
AcDbEntity
  8
03__ASM_ALL_CURVES
100
AcDbLine
 62
40
  6
CONTINUOUS
 10
3.3045566204
 20
5.6234636826
 11
6.5617966204
 21
5.6234636826
  0
LINE
  5
383
100
AcDbEntity
  8
03__ASM_ALL_CURVES
100
AcDbLine
 62
40
  6
CONTINUOUS
 10
6.3353641195
 20
5.6665936826
 11
6.2814516195
 21
5.6665936826
  0
LINE
  5
384
100
AcDbEntity
  8
03__ASM_ALL_CURVES
100
AcDbLine
 62
40
  6
CONTINUOUS
 10
6.2005828695
 20
5.6665936826
 11
6.1736266195
 21
5.6665936826
  0
LINE
  5
385
100
AcDbEntity
  8
03__ASM_ALL_CURVES
100
AcDbLine
 62
40
  6
CONTINUOUS
 10
5.991671932
 20
5.6665936826
 11
5.978193807
 21
5.6665936826
  0
LINE
  5
386
100
AcDbEntity
  8
03__ASM_ALL_CURVES
100
AcDbLine
 62
40
  6
CONTINUOUS
 10
5.883846932
 20
5.6665936826
 11
5.870368807
 21
5.6665936826
  0
LINE
  5
387
100
AcDbEntity
  8
03__ASM_ALL_CURVES
100
AcDbLine
 62
40
  6
CONTINUOUS
 10
5.668196932
 20
5.6665936826
 11
5.654718807
 21
5.6665936826
  0
LINE
  5
388
100
AcDbEntity
  8
03__ASM_ALL_CURVES
100
AcDbLine
 62
40
  6
CONTINUOUS
 10
5.452546932
 20
5.6665936826
 11
5.439068807
 21
5.6665936826
  0
LINE
  5
389
100
AcDbEntity
  8
03__ASM_ALL_CURVES
100
AcDbLine
 62
40
  6
CONTINUOUS
 10
4.913421932
 20
5.6665936826
 11
4.899943807
 21
5.6665936826
  0
LINE
  5
38A
100
AcDbEntity
  8
03__ASM_ALL_CURVES
100
AcDbLine
 62
40
  6
CONTINUOUS
 10
4.805596932
 20
5.6665936826
 11
4.792118807
 21
5.6665936826
  0
LINE
  5
38B
100
AcDbEntity
  8
03__ASM_ALL_CURVES
100
AcDbLine
 62
40
  6
CONTINUOUS
 10
4.1137066204
 20
5.6665936826
 11
4.1069675579
 21
5.6665936826
  0
LINE
  5
38C
100
AcDbEntity
  8
03__ASM_ALL_CURVES
100
AcDbLine
 62
40
  6
CONTINUOUS
 10
3.6891456829
 20
5.6665936826
 11
3.6756675579
 21
5.6665936826
  0
LINE
  5
38D
100
AcDbEntity
  8
03__ASM_ALL_CURVES
100
AcDbLine
 62
40
  6
CONTINUOUS
 10
3.4667566204
 20
5.6665936826
 11
3.4600175579
 21
5.6665936826
  0
LINE
  5
38E
100
AcDbEntity
  8
03__ASM_ALL_CURVES
100
AcDbLine
 62
40
  6
CONTINUOUS
 10
3.8711003704
 20
5.6665936826
 11
3.9250128704
 21
5.6665936826
  0
LINE
  5
38F
100
AcDbEntity
  8
03__ASM_ALL_CURVES
100
AcDbLine
 62
40
  6
CONTINUOUS
 10
4.6640766195
 20
5.6665936826
 11
4.7179891195
 21
5.6665936826
  0
LINE
  5
390
100
AcDbEntity
  8
03__ASM_ALL_CURVES
100
AcDbLine
 62
40
  6
CONTINUOUS
 10
6.0658016195
 20
5.6665936826
 11
6.1197141195
 21
5.6665936826
  0
LINE
  5
391
100
AcDbEntity
  8
03__ASM_ALL_CURVES
100
AcDbLine
 62
40
  6
CONTINUOUS
 10
3.4339466204
 20
5.6198695159
 11
3.3045566204
 21
5.6234636826
  0
LINE
  5
392
100
AcDbEntity
  8
03__ASM_ALL_CURVES
100
AcDbLine
 62
40
  6
CONTINUOUS
 10
4.3621666204
 20
5.6270578493
 11
4.6209466204
 21
5.6198695159
  0
LINE
  5
393
100
AcDbEntity
  8
03__ASM_ALL_CURVES
100
AcDbLine
 62
40
  6
CONTINUOUS
 10
4.3621666204
 20
5.6306520159
 11
4.6209466204
 21
5.6162753493
  0
LINE
  5
394
100
AcDbEntity
  8
03__ASM_ALL_CURVES
100
AcDbLine
 62
40
  6
CONTINUOUS
 10
4.3621666204
 20
5.6342461826
 11
4.6209466204
 21
5.6126811826
  0
LINE
  5
395
100
AcDbEntity
  8
03__ASM_ALL_CURVES
100
AcDbLine
 62
40
  6
CONTINUOUS
 10
7.9119366984
 20
4.3582186826
 11
7.9220452921
 21
4.3514796217
  0
LINE
  5
396
100
AcDbEntity
  8
03__ASM_ALL_CURVES
100
AcDbLine
 62
40
  6
CONTINUOUS
 10
5.978193807
 20
5.6665936826
 11
5.964715682
 21
5.6755790995
  0
LINE
  5
397
100
AcDbEntity
  8
03__ASM_ALL_CURVES
100
AcDbLine
 62
40
  6
CONTINUOUS
 10
5.883846932
 20
5.7744186826
 11
5.897325057
 21
5.7654332681
  0
LINE
  5
398
100
AcDbEntity
  8
03__ASM_ALL_CURVES
100
AcDbLine
 62
40
  6
CONTINUOUS
 10
7.9725882608
 20
4.4013486826
 11
7.962479667
 21
4.4080877453
  0
LINE
  5
399
100
AcDbEntity
  8
03__ASM_ALL_CURVES
100
AcDbLine
 62
40
  6
CONTINUOUS
 10
7.9018281045
 20
4.4822174326
 11
7.9119366983
 21
4.4754783717
  0
LINE
  5
39A
100
AcDbEntity
  8
03__ASM_ALL_CURVES
100
AcDbLine
 62
40
  6
CONTINUOUS
 10
7.9826968545
 20
4.4822174326
 11
7.9928054483
 21
4.4754783717
  0
LINE
  5
39B
100
AcDbEntity
  8
03__ASM_ALL_CURVES
100
AcDbLine
 62
40
  6
CONTINUOUS
 10
6.2140609945
 20
5.7654332681
 11
6.2275391195
 21
5.7474624326
  0
LINE
  5
39C
100
AcDbEntity
  8
03__ASM_ALL_CURVES
100
AcDbLine
 62
40
  6
CONTINUOUS
 10
6.436450057
 20
5.7654332681
 11
6.4431891195
 21
5.7564478471
  0
LINE
  5
39D
100
AcDbEntity
  8
0
100
AcDbLine
 62
7
  6
CONTINUOUS
 10
7.2735566204
 20
3.5682836826
 11
7.2735566204
 21
5.1912836826
  0
LINE
  5
39E
100
AcDbEntity
  8
0
100
AcDbLine
 62
7
  6
CONTINUOUS
 10
7.3235566204
 20
3.5682836826
 11
7.3235566204
 21
5.1912836826
  0
LINE
  5
39F
100
AcDbEntity
  8
03__ASM_ALL_CURVES
100
AcDbLine
 62
40
  6
CONTINUOUS
 10
6.5862397693
 20
2.9576102443
 11
6.5761311756
 21
2.9441321201
  0
LINE
  5
3A0
100
AcDbEntity
  8
03__ASM_ALL_CURVES
100
AcDbLine
 62
40
  6
CONTINUOUS
 10
6.6115112537
 20
2.9778274342
 11
6.6064569568
 21
2.9710883685
  0
LINE
  5
3A1
100
AcDbEntity
  8
03__ASM_ALL_CURVES
100
AcDbLine
 62
40
  6
CONTINUOUS
 10
7.9169909952
 20
4.4552611842
 11
7.9119366983
 21
4.4485221185
  0
LINE
  5
3A2
100
AcDbEntity
  8
03__ASM_ALL_CURVES
100
AcDbLine
 62
40
  6
CONTINUOUS
 10
6.3638507068
 20
2.9306539953
 11
6.3537421131
 21
2.9239149326
  0
LINE
  5
3A3
100
AcDbEntity
  8
03__ASM_ALL_CURVES
100
AcDbLine
 62
40
  6
CONTINUOUS
 10
6.4447194568
 20
2.9710883685
 11
6.4346108631
 21
2.9643493076
  0
LINE
  5
3A4
100
AcDbEntity
  8
03__ASM_ALL_CURVES
100
AcDbLine
 62
40
  6
CONTINUOUS
 10
6.5761311756
 20
2.9980446217
 11
6.5862397693
 21
3.0047836826
  0
LINE
  5
3A5
100
AcDbEntity
  8
03__ASM_ALL_CURVES
100
AcDbLine
 62
40
  6
CONTINUOUS
 10
6.6064569568
 20
2.9710883685
 11
6.5862397693
 21
2.9576102443
  0
LINE
  5
3A6
100
AcDbEntity
  8
03__ASM_ALL_CURVES
100
AcDbLine
 62
40
  6
CONTINUOUS
 10
4.3621666204
 20
5.6018986826
 11
4.6209466204
 21
5.6450286826
  0
LINE
  5
3A7
100
AcDbEntity
  8
03__ASM_ALL_CURVES
100
AcDbLine
 62
40
  6
CONTINUOUS
 10
4.3621666204
 20
5.6054928493
 11
4.6209466204
 21
5.6414345159
  0
LINE
  5
3A8
100
AcDbEntity
  8
03__ASM_ALL_CURVES
100
AcDbLine
 62
40
  6
CONTINUOUS
 10
4.3621666204
 20
5.6090870159
 11
4.6209466204
 21
5.6378403493
  0
LINE
  5
3A9
100
AcDbEntity
  8
03__ASM_ALL_CURVES
100
AcDbLine
 62
40
  6
CONTINUOUS
 10
4.3621666204
 20
5.6126811826
 11
4.6209466204
 21
5.6342461826
  0
LINE
  5
3AA
100
AcDbEntity
  8
03__ASM_ALL_CURVES
100
AcDbLine
 62
40
  6
CONTINUOUS
 10
3.4339466204
 20
5.6342461826
 11
3.3045566204
 21
5.6234636826
  0
LINE
  5
3AB
100
AcDbEntity
  8
03__ASM_ALL_CURVES
100
AcDbLine
 62
40
  6
CONTINUOUS
 10
4.3621666204
 20
5.6162753493
 11
4.6209466204
 21
5.6306520159
  0
LINE
  5
3AC
100
AcDbEntity
  8
03__ASM_ALL_CURVES
100
AcDbLine
 62
40
  6
CONTINUOUS
 10
3.4339466204
 20
5.6306520159
 11
3.3045566204
 21
5.6234636826
  0
LINE
  5
3AD
100
AcDbEntity
  8
03__ASM_ALL_CURVES
100
AcDbLine
 62
40
  6
CONTINUOUS
 10
3.4339466204
 20
5.6270578493
 11
3.3045566204
 21
5.6234636826
  0
LINE
  5
3AE
100
AcDbEntity
  8
03__ASM_ALL_CURVES
100
AcDbLine
 62
40
  6
CONTINUOUS
 10
4.994290682
 20
5.7025353503
 11
5.034725057
 21
5.7025353503
  0
LINE
  5
3AF
100
AcDbEntity
  8
03__ASM_ALL_CURVES
100
AcDbLine
 62
40
  6
CONTINUOUS
 10
6.422971932
 20
5.7205061826
 11
6.3892766195
 21
5.7205061826
  0
LINE
  5
3B0
100
AcDbEntity
  8
03__ASM_ALL_CURVES
100
AcDbLine
 62
40
  6
CONTINUOUS
 10
5.4458078695
 20
5.7205061826
 11
5.4727641195
 21
5.7205061826
  0
LINE
  5
3B1
100
AcDbEntity
  8
03__ASM_ALL_CURVES
100
AcDbLine
 62
40
  6
CONTINUOUS
 10
5.7423266195
 20
5.7205061826
 11
5.7962391195
 21
5.7205061826
  0
LINE
  5
3B2
100
AcDbEntity
  8
03__ASM_ALL_CURVES
100
AcDbLine
 62
40
  6
CONTINUOUS
 10
6.2814516195
 20
5.7205061826
 11
6.315146932
 21
5.7205061826
  0
LINE
  5
3B3
100
AcDbEntity
  8
03__ASM_ALL_CURVES
100
AcDbLine
 62
40
  6
CONTINUOUS
 10
3.6756675579
 20
5.7294915971
 11
3.6891456829
 21
5.7294915971
  0
LINE
  5
3B4
100
AcDbEntity
  8
03__ASM_ALL_CURVES
100
AcDbLine
 62
40
  6
CONTINUOUS
 10
5.668196932
 20
5.7744186826
 11
5.654718807
 21
5.7744186826
  0
LINE
  5
3B5
100
AcDbEntity
  8
03__ASM_ALL_CURVES
100
AcDbLine
 62
40
  6
CONTINUOUS
 10
4.3563128704
 20
5.7744186826
 11
4.3024003704
 21
5.7744186826
  0
LINE
  5
3B6
100
AcDbEntity
  8
03__ASM_ALL_CURVES
100
AcDbLine
 62
40
  6
CONTINUOUS
 10
3.6756675579
 20
5.7744186826
 11
3.6891456829
 21
5.7744186826
  0
LINE
  5
3B7
100
AcDbEntity
  8
03__ASM_ALL_CURVES
100
AcDbLine
 62
40
  6
CONTINUOUS
 10
3.8913175579
 20
5.7744186826
 11
3.9047956829
 21
5.7744186826
  0
LINE
  5
3B8
100
AcDbEntity
  8
03__ASM_ALL_CURVES
100
AcDbLine
 62
40
  6
CONTINUOUS
 10
4.792118807
 20
5.7744186826
 11
4.805596932
 21
5.7744186826
  0
LINE
  5
3B9
100
AcDbEntity
  8
03__ASM_ALL_CURVES
100
AcDbLine
 62
40
  6
CONTINUOUS
 10
4.899943807
 20
5.7744186826
 11
4.913421932
 21
5.7744186826
  0
LINE
  5
3BA
100
AcDbEntity
  8
03__ASM_ALL_CURVES
100
AcDbLine
 62
40
  6
CONTINUOUS
 10
5.088637557
 20
5.7744186826
 11
5.156028182
 21
5.7744186826
  0
LINE
  5
3BB
100
AcDbEntity
  8
03__ASM_ALL_CURVES
100
AcDbLine
 62
40
  6
CONTINUOUS
 10
5.439068807
 20
5.7744186826
 11
5.452546932
 21
5.7744186826
  0
LINE
  5
3BC
100
AcDbEntity
  8
03__ASM_ALL_CURVES
100
AcDbLine
 62
40
  6
CONTINUOUS
 10
5.870368807
 20
5.7744186826
 11
5.883846932
 21
5.7744186826
  0
LINE
  5
3BD
100
AcDbEntity
  8
03__ASM_ALL_CURVES
100
AcDbLine
 62
40
  6
CONTINUOUS
 10
6.1736266195
 20
5.7744186826
 11
6.2005828695
 21
5.7744186826
  0
LINE
  5
3BE
100
AcDbEntity
  8
03__ASM_ALL_CURVES
100
AcDbLine
 62
40
  6
CONTINUOUS
 10
6.2814516195
 20
5.7744186826
 11
6.3353641195
 21
5.7744186826
  0
LINE
  5
3BF
100
AcDbEntity
  8
03__ASM_ALL_CURVES
100
AcDbLine
 62
40
  6
CONTINUOUS
 10
6.3892766195
 20
5.7744186826
 11
6.422971932
 21
5.7744186826
  0
LINE
  5
3C0
100
AcDbEntity
  8
03__ASM_ALL_CURVES
100
AcDbLine
 62
40
  6
CONTINUOUS
 10
8.0635656045
 20
4.4822174326
 11
8.0736741983
 21
4.4754783717
  0
LINE
  5
3C1
100
AcDbEntity
  8
03__ASM_ALL_CURVES
100
AcDbLine
 62
40
  6
CONTINUOUS
 10
6.2005828695
 20
5.7744186826
 11
6.2140609945
 21
5.7654332681
  0
LINE
  5
3C2
100
AcDbEntity
  8
03__ASM_ALL_CURVES
100
AcDbLine
 62
40
  6
CONTINUOUS
 10
6.422971932
 20
5.7744186826
 11
6.436450057
 21
5.7654332681
  0
LINE
  5
3C3
100
AcDbEntity
  8
0
100
AcDbLine
 62
7
  6
CONTINUOUS
 10
7.4265566204
 20
3.5682836826
 11
7.4265566204
 21
5.1912836826
  0
LINE
  5
3C4
100
AcDbEntity
  8
0
100
AcDbLine
 62
7
  6
CONTINUOUS
 10
7.4765566204
 20
3.5682836826
 11
7.4765566204
 21
5.1912836826
  0
LINE
  5
3C5
100
AcDbEntity
  8
0
100
AcDbLine
 62
7
  6
CONTINUOUS
 10
7.5165566204
 20
5.19077418
 11
7.5165566204
 21
3.5687931852
  0
LINE
  5
3C6
100
AcDbEntity
  8
03__ASM_ALL_CURVES
100
AcDbLine
 62
40
  6
CONTINUOUS
 10
7.9523710733
 20
4.4620002451
 11
7.962479667
 21
4.4754783717
  0
LINE
  5
3C7
100
AcDbEntity
  8
03__ASM_ALL_CURVES
100
AcDbLine
 62
40
  6
CONTINUOUS
 10
7.8816109171
 20
4.3380014951
 11
7.8917195109
 21
4.3514796217
  0
LINE
  5
3C8
100
AcDbEntity
  8
03__ASM_ALL_CURVES
100
AcDbLine
 62
40
  6
CONTINUOUS
 10
8.002914042
 20
4.4215658701
 11
7.9928054483
 21
4.4080877453
  0
LINE
  5
3C9
100
AcDbEntity
  8
03__ASM_ALL_CURVES
100
AcDbLine
 62
40
  6
CONTINUOUS
 10
7.9321538859
 20
4.2975671201
 11
7.9220452921
 21
4.2840889953
  0
LINE
  5
3CA
100
AcDbEntity
  8
03__ASM_ALL_CURVES
100
AcDbLine
 62
40
  6
CONTINUOUS
 10
8.0787284952
 20
4.4552611842
 11
8.0736741983
 21
4.4485221185
  0
LINE
  5
3CB
100
AcDbEntity
  8
03__ASM_ALL_CURVES
100
AcDbLine
 62
40
  6
CONTINUOUS
 10
8.007968339
 20
4.290828058
 11
8.0029140421
 21
4.2840889953
  0
LINE
  5
3CC
100
AcDbEntity
  8
0
100
AcDbLine
 62
7
  6
CONTINUOUS
 10
7.6025566204
 20
3.5687836826
 11
7.6175566204
 21
3.5837836826
  0
LINE
  5
3CD
100
AcDbEntity
  8
03__ASM_ALL_CURVES
100
AcDbLine
 62
40
  6
CONTINUOUS
 10
3.3045566204
 20
5.6234636826
 11
3.4339466204
 21
5.6450286826
  0
LINE
  5
3CE
100
AcDbEntity
  8
03__ASM_ALL_CURVES
100
AcDbLine
 62
40
  6
CONTINUOUS
 10
3.4339466204
 20
5.6414345159
 11
3.3045566204
 21
5.6234636826
  0
LINE
  5
3CF
100
AcDbEntity
  8
03__ASM_ALL_CURVES
100
AcDbLine
 62
40
  6
CONTINUOUS
 10
3.4339466204
 20
5.6378403493
 11
3.3045566204
 21
5.6234636826
  0
LINE
  5
3D0
100
AcDbEntity
  8
03__ASM_ALL_CURVES
100
AcDbLine
 62
40
  6
CONTINUOUS
 10
7.8917195109
 20
4.2840889953
 11
7.8816109171
 21
4.2975671201
  0
LINE
  5
3D1
100
AcDbEntity
  8
03__ASM_ALL_CURVES
100
AcDbLine
 62
40
  6
CONTINUOUS
 10
7.9725882609
 20
4.2840889953
 11
7.967533964
 21
4.290828058
  0
LINE
  5
3D2
100
AcDbEntity
  8
03__ASM_ALL_CURVES
100
AcDbLine
 62
40
  6
CONTINUOUS
 10
7.9220452921
 20
4.3514796217
 11
7.9321538859
 21
4.3380014951
  0
LINE
  5
3D3
100
AcDbEntity
  8
0
100
AcDbLine
 62
7
  6
CONTINUOUS
 10
7.6025566204
 20
3.5687836826
 11
7.6025566204
 21
5.1907836826
  0
LINE
  5
3D4
100
AcDbEntity
  8
0
100
AcDbLine
 62
7
  6
CONTINUOUS
 10
7.6175566204
 20
3.5837975956
 11
7.6175566204
 21
5.1757697696
  0
LINE
  5
3D5
100
AcDbEntity
  8
0
100
AcDbLine
 62
7
  6
CONTINUOUS
 10
7.6025566204
 20
5.1907836826
 11
7.6175566204
 21
5.1757836826
  0
LINE
  5
3D6
100
AcDbEntity
  8
03__ASM_ALL_CURVES
100
AcDbLine
 62
40
  6
CONTINUOUS
 10
7.962479667
 20
4.4080877453
 11
7.9523710733
 21
4.4215658701
  0
LINE
  5
3D7
100
AcDbEntity
  8
03__ASM_ALL_CURVES
100
AcDbLine
 62
40
  6
CONTINUOUS
 10
7.9119366983
 20
4.4754783717
 11
7.9169909952
 21
4.468739306
  0
LINE
  5
3D8
100
AcDbEntity
  8
03__ASM_ALL_CURVES
100
AcDbLine
 62
40
  6
CONTINUOUS
 10
7.9928054483
 20
4.4754783717
 11
8.002914042
 21
4.4620002451
  0
LINE
  5
3D9
100
AcDbEntity
  8
03__ASM_ALL_CURVES
100
AcDbLine
 62
40
  6
CONTINUOUS
 10
8.0736741983
 20
4.4754783717
 11
8.0787284952
 21
4.468739306
  0
LINE
  5
3DA
100
AcDbEntity
  8
03__ASM_ALL_CURVES
100
AcDbLine
 62
40
  6
CONTINUOUS
 10
7.8765566202
 20
4.4013486826
 11
7.8765566202
 21
4.4822174326
  0
LINE
  5
3DB
100
AcDbEntity
  8
03__ASM_ALL_CURVES
100
AcDbLine
 62
40
  6
CONTINUOUS
 10
7.9169909952
 20
4.468739306
 11
7.9169909952
 21
4.4552611842
  0
LINE
  5
3DC
100
AcDbEntity
  8
03__ASM_ALL_CURVES
100
AcDbLine
 62
40
  6
CONTINUOUS
 10
7.967533964
 20
4.290828058
 11
7.967533964
 21
4.3582186826
  0
LINE
  5
3DD
100
AcDbEntity
  8
03__ASM_ALL_CURVES
100
AcDbLine
 62
40
  6
CONTINUOUS
 10
7.8765566203
 20
4.3177843076
 11
7.8816109171
 21
4.3380014951
  0
LINE
  5
3DE
100
AcDbEntity
  8
03__ASM_ALL_CURVES
100
AcDbLine
 62
40
  6
CONTINUOUS
 10
7.9473167764
 20
4.4417830576
 11
7.9523710733
 21
4.4620002451
  0
LINE
  5
3DF
100
AcDbEntity
  8
03__ASM_ALL_CURVES
100
AcDbLine
 62
40
  6
CONTINUOUS
 10
7.9372081828
 20
4.3177843076
 11
7.9321538859
 21
4.2975671201
  0
LINE
  5
3E0
100
AcDbEntity
  8
03__ASM_ALL_CURVES
100
AcDbLine
 62
40
  6
CONTINUOUS
 10
8.0079683389
 20
4.4417830576
 11
8.002914042
 21
4.4215658701
  0
LINE
  5
3E1
100
AcDbEntity
  8
03__ASM_ALL_CURVES
100
AcDbLine
 62
40
  6
CONTINUOUS
 10
8.0635656045
 20
4.4417830576
 11
8.0787284952
 21
4.4013486826
  0
LINE
  5
3E2
100
AcDbEntity
  8
03__ASM_ALL_CURVES
100
AcDbLine
 62
40
  6
CONTINUOUS
 10
7.8816109171
 20
4.2975671201
 11
7.8765566203
 21
4.3177843076
  0
LINE
  5
3E3
100
AcDbEntity
  8
03__ASM_ALL_CURVES
100
AcDbLine
 62
40
  6
CONTINUOUS
 10
7.9321538859
 20
4.3380014951
 11
7.9372081828
 21
4.3177843076
  0
LINE
  5
3E4
100
AcDbEntity
  8
03__ASM_ALL_CURVES
100
AcDbLine
 62
40
  6
CONTINUOUS
 10
7.9523710733
 20
4.4215658701
 11
7.9473167764
 21
4.4417830576
  0
LINE
  5
3E5
100
AcDbEntity
  8
03__ASM_ALL_CURVES
100
AcDbLine
 62
40
  6
CONTINUOUS
 10
8.002914042
 20
4.4620002451
 11
8.0079683389
 21
4.4417830576
  0
LINE
  5
3E6
100
AcDbEntity
  8
03__ASM_ALL_CURVES
100
AcDbLine
 62
40
  6
CONTINUOUS
 10
8.007968339
 20
4.3582186826
 11
8.007968339
 21
4.290828058
  0
LINE
  5
3E7
100
AcDbEntity
  8
03__ASM_ALL_CURVES
100
AcDbLine
 62
40
  6
CONTINUOUS
 10
8.0382941202
 20
4.4013486826
 11
8.0382941202
 21
4.4822174326
  0
LINE
  5
3E8
100
AcDbEntity
  8
03__ASM_ALL_CURVES
100
AcDbLine
 62
40
  6
CONTINUOUS
 10
8.0686199015
 20
4.3582186826
 11
8.0686199015
 21
4.2773499326
  0
LINE
  5
3E9
100
AcDbEntity
  8
03__ASM_ALL_CURVES
100
AcDbLine
 62
40
  6
CONTINUOUS
 10
8.0787284952
 20
4.468739306
 11
8.0787284952
 21
4.4552611842
  0
LINE
  5
3EA
100
AcDbEntity
  8
03__ASM_ALL_CURVES
100
AcDbLine
 62
40
  6
CONTINUOUS
 10
8.129271464
 20
4.3582186826
 11
8.129271464
 21
4.2773499326
  0
LINE
  5
3EB
100
AcDbEntity
  8
03__ASM_ALL_CURVES
100
AcDbLine
 62
40
  6
CONTINUOUS
 10
8.1393800577
 20
4.4822174326
 11
8.1393800577
 21
4.4013486826
  0
LINE
  5
3EC
100
AcDbEntity
  8
03__ASM_ALL_CURVES
100
AcDbLine
 62
40
  6
CONTINUOUS
 10
8.210140214
 20
4.2773499326
 11
8.210140214
 21
4.3582186826
  0
LINE
  5
3ED
100
AcDbEntity
  8
03__ASM_ALL_CURVES
100
AcDbLine
 62
40
  6
CONTINUOUS
 10
8.2202488077
 20
4.4822174326
 11
8.2202488077
 21
4.4013486826
  0
LINE
  5
3EE
100
AcDbEntity
  8
03__ASM_ALL_CURVES
100
AcDbLine
 62
40
  6
CONTINUOUS
 10
8.3112261515
 20
4.3582186826
 11
8.3112261515
 21
4.2773499326
  0
ARC
  5
3EF
100
AcDbEntity
  8
0
100
AcDbCircle
 62
7
  6
CONTINUOUS
 10
4.6849205918
 20
3.4857836826
 40
0.028
100
AcDbArc
 50
9.2483578877
 51
76.1357488605
  0
ARC
  5
3F0
100
AcDbEntity
  8
0
100
AcDbCircle
 62
7
  6
CONTINUOUS
 10
4.6849205918
 20
5.2737836826
 40
0.028
100
AcDbArc
 50
283.8642511395
 51
350.7516421123
  0
ARC
  5
3F1
100
AcDbEntity
  8
0
100
AcDbCircle
 62
7
  6
CONTINUOUS
 10
5.9545566204
 20
5.0987836826
 40
0.022
100
AcDbArc
 50
183.9095635247
 51
356.0904364753
  0
SPLINE
  5
3F2
100
AcDbEntity
  8
0
100
AcDbSpline
 62
7
  6
CONTINUOUS
 70
0
 71
3
 72
15
 73
11
 74
9
 42
0.0000001
 43
0.0000001
 44
0.0000000001
 12
0.0
 22
0.1617702498
 32
0.0
 13
0.0
 23
-0.1617702498
 33
0.0
 40
0.0
 40
0.0
 40
0.0
 40
0.0
 40
0.125
 40
0.25
 40
0.375
 40
0.5
 40
0.625
 40
0.75
 40
0.875
 40
1.0
 40
1.0
 40
1.0
 40
1.0
 10
7.4265566204
 20
5.1547836826
 30
0.0
 10
7.4265566204
 20
5.1615241097
 30
0.0
 10
7.4238751118
 20
5.1750049638
 30
0.0
 10
7.4124206761
 20
5.1921477383
 30
0.0
 10
7.3952779016
 20
5.203602174
 30
0.0
 10
7.3750566204
 20
5.2076244369
 30
0.0
 10
7.3548353391
 20
5.203602174
 30
0.0
 10
7.3376925647
 20
5.1921477383
 30
0.0
 10
7.326238129
 20
5.1750049638
 30
0.0
 10
7.3235566204
 20
5.1615241097
 30
0.0
 10
7.3235566204
 20
5.1547836826
 30
0.0
 11
7.4265566204
 21
5.1547836826
 31
0.0
 11
7.4226364163
 21
5.1744918794
 31
0.0
 11
7.4114726196
 21
5.1911996818
 31
0.0
 11
7.3947648171
 21
5.2023634785
 31
0.0
 11
7.3750566204
 21
5.2062836826
 31
0.0
 11
7.3553484236
 21
5.2023634785
 31
0.0
 11
7.3386406211
 21
5.1911996818
 31
0.0
 11
7.3274768244
 21
5.1744918794
 31
0.0
 11
7.3235566204
 21
5.1547836826
 31
0.0
  0
SPLINE
  5
3F3
100
AcDbEntity
  8
0
100
AcDbSpline
 62
7
  6
CONTINUOUS
 70
0
 71
3
 72
15
 73
11
 74
9
 42
0.0000001
 43
0.0000001
 44
0.0000000001
 12
0.0
 22
-0.1617702498
 32
0.0
 13
0.0
 23
0.1617702498
 33
0.0
 40
0.0
 40
0.0
 40
0.0
 40
0.0
 40
0.125
 40
0.25
 40
0.375
 40
0.5
 40
0.625
 40
0.75
 40
0.875
 40
1.0
 40
1.0
 40
1.0
 40
1.0
 10
7.4265566204
 20
3.6047836826
 30
0.0
 10
7.4265566204
 20
3.5980432555
 30
0.0
 10
7.4238751118
 20
3.5845624014
 30
0.0
 10
7.4124206761
 20
3.5674196269
 30
0.0
 10
7.3952779016
 20
3.5559651912
 30
0.0
 10
7.3750566204
 20
3.5519429283
 30
0.0
 10
7.3548353391
 20
3.5559651912
 30
0.0
 10
7.3376925647
 20
3.5674196269
 30
0.0
 10
7.326238129
 20
3.5845624014
 30
0.0
 10
7.3235566204
 20
3.5980432555
 30
0.0
 10
7.3235566204
 20
3.6047836826
 30
0.0
 11
7.4265566204
 21
3.6047836826
 31
0.0
 11
7.4226364163
 21
3.5850754858
 31
0.0
 11
7.4114726196
 21
3.5683676834
 31
0.0
 11
7.3947648171
 21
3.5572038867
 31
0.0
 11
7.3750566204
 21
3.5532836826
 31
0.0
 11
7.3553484236
 21
3.5572038867
 31
0.0
 11
7.3386406211
 21
3.5683676834
 31
0.0
 11
7.3274768244
 21
3.5850754858
 31
0.0
 11
7.3235566204
 21
3.6047836826
 31
0.0
  0
SPLINE
  5
3F4
100
AcDbEntity
  8
0
100
AcDbSpline
 62
7
  6
CONTINUOUS
 70
0
 71
3
 72
15
 73
11
 74
9
 42
0.0000001
 43
0.0000001
 44
0.0000000001
 12
0.0
 22
0.1617702498
 32
0.0
 13
-0.0
 23
-0.1617702498
 33
0.0
 40
0.0
 40
0.0
 40
0.0
 40
0.0
 40
0.125
 40
0.25
 40
0.375
 40
0.5
 40
0.625
 40
0.75
 40
0.875
 40
1.0
 40
1.0
 40
1.0
 40
1.0
 10
4.6415566204
 20
5.2972836826
 30
0.0
 10
4.6415566204
 20
5.3040241097
 30
0.0
 10
4.6388751118
 20
5.3175049638
 30
0.0
 10
4.6274206761
 20
5.3346477383
 30
0.0
 10
4.6102779016
 20
5.346102174
 30
0.0
 10
4.5900566204
 20
5.3501244369
 30
0.0
 10
4.5698353391
 20
5.346102174
 30
0.0
 10
4.5526925647
 20
5.3346477383
 30
0.0
 10
4.541238129
 20
5.3175049638
 30
0.0
 10
4.5385566204
 20
5.3040241097
 30
0.0
 10
4.5385566204
 20
5.2972836826
 30
0.0
 11
4.6415566204
 21
5.2972836826
 31
0.0
 11
4.6376364163
 21
5.3169918794
 31
0.0
 11
4.6264726196
 21
5.3336996818
 31
0.0
 11
4.6097648171
 21
5.3448634785
 31
0.0
 11
4.5900566204
 21
5.3487836826
 31
0.0
 11
4.5703484236
 21
5.3448634785
 31
0.0
 11
4.5536406211
 21
5.3336996818
 31
0.0
 11
4.5424768244
 21
5.3169918794
 31
0.0
 11
4.5385566204
 21
5.2972836826
 31
0.0
  0
SPLINE
  5
3F5
100
AcDbEntity
  8
0
100
AcDbSpline
 62
7
  6
CONTINUOUS
 70
0
 71
3
 72
15
 73
11
 74
9
 42
0.0000001
 43
0.0000001
 44
0.0000000001
 12
0.0
 22
-0.1617702498
 32
0.0
 13
-0.0
 23
0.1617702498
 33
0.0
 40
0.0
 40
0.0
 40
0.0
 40
0.0
 40
0.125
 40
0.25
 40
0.375
 40
0.5
 40
0.625
 40
0.75
 40
0.875
 40
1.0
 40
1.0
 40
1.0
 40
1.0
 10
4.6415566204
 20
3.4622836826
 30
0.0
 10
4.6415566204
 20
3.4555432555
 30
0.0
 10
4.6388751118
 20
3.4420624014
 30
0.0
 10
4.6274206761
 20
3.4249196269
 30
0.0
 10
4.6102779016
 20
3.4134651912
 30
0.0
 10
4.5900566204
 20
3.4094429283
 30
0.0
 10
4.5698353391
 20
3.4134651912
 30
0.0
 10
4.5526925647
 20
3.4249196269
 30
0.0
 10
4.541238129
 20
3.4420624014
 30
0.0
 10
4.5385566204
 20
3.4555432555
 30
0.0
 10
4.5385566204
 20
3.4622836826
 30
0.0
 11
4.6415566204
 21
3.4622836826
 31
0.0
 11
4.6376364163
 21
3.4425754858
 31
0.0
 11
4.6264726196
 21
3.4258676834
 31
0.0
 11
4.6097648171
 21
3.4147038867
 31
0.0
 11
4.5900566204
 21
3.4107836826
 31
0.0
 11
4.5703484236
 21
3.4147038867
 31
0.0
 11
4.5536406211
 21
3.4258676834
 31
0.0
 11
4.5424768244
 21
3.4425754858
 31
0.0
 11
4.5385566204
 21
3.4622836826
 31
0.0
  0
SPLINE
  5
3F6
100
AcDbEntity
  8
0
100
AcDbSpline
 62
7
  6
CONTINUOUS
 70
0
 71
3
 72
10
 73
6
 74
4
 42
0.0000001
 43
0.0000001
 44
0.0000000001
 12
0.0420063758
 22
-0.0576032326
 32
0.0
 13
0.0
 23
-0.0711207903
 33
0.0
 40
0.0
 40
0.0
 40
0.0
 40
0.0
 40
0.1665924034
 40
0.5699147332
 40
1.0
 40
1.0
 40
1.0
 40
1.0
 10
6.5109457828
 20
4.8052457097
 30
0.0
 10
6.5132784305
 20
4.8020469561
 30
0.0
 10
6.5207002062
 20
4.790699256
 30
0.0
 10
6.5299832139
 20
4.7686045536
 30
0.0
 10
6.5325683529
 20
4.748729684
 30
0.0
 10
6.5325683529
 20
4.7385336826
 30
0.0
 11
6.5109457828
 21
4.8052457097
 31
0.0
 11
6.5174352588
 21
4.7953065102
 31
0.0
 11
6.5285283102
 21
4.7688537098
 31
0.0
 11
6.5325683529
 21
4.7385336826
 31
0.0
  0
SPLINE
  5
3F7
100
AcDbEntity
  8
0
100
AcDbSpline
 62
7
  6
CONTINUOUS
 70
0
 71
3
 72
8
 73
4
 74
2
 42
0.0000001
 43
0.0000001
 44
0.0000000001
 12
0.0011669325
 22
-0.0000356502
 32
0.0
 13
0.0011668712
 23
-0.0000376059
 33
0.0
 40
0.0
 40
0.0
 40
0.0
 40
0.0
 40
1.0
 40
1.0
 40
1.0
 40
1.0
 10
5.9765054244
 20
3.6623328132
 30
0.0
 10
5.9768944019
 20
3.6623209298
 30
0.0
 10
5.977283369
 20
3.6623087017
 30
0.0
 10
5.977672326
 20
3.6622961664
 30
0.0
 11
5.9765054244
 21
3.6623328132
 31
0.0
 11
5.977672326
 21
3.6622961664
 31
0.0
  0
SPLINE
  5
3F8
100
AcDbEntity
  8
0
100
AcDbSpline
 62
7
  6
CONTINUOUS
 70
0
 71
3
 72
8
 73
4
 74
2
 42
0.0000001
 43
0.0000001
 44
0.0000000001
 12
0.0003842995
 22
-0.0000123852
 32
0.0
 13
0.0003842931
 23
-0.0000125811
 33
0.0
 40
0.0
 40
0.0
 40
0.0
 40
0.0
 40
1.0
 40
1.0
 40
1.0
 40
1.0
 10
5.977672326
 20
3.6622961664
 30
0.0
 10
5.9778004259
 20
3.662292038
 30
0.0
 10
5.9779285247
 20
3.6622878763
 30
0.0
 10
5.9780566224
 20
3.6622836826
 30
0.0
 11
5.977672326
 21
3.6622961664
 31
0.0
 11
5.9780566224
 21
3.6622836826
 31
0.0
  0
SPLINE
  5
3F9
100
AcDbEntity
  8
0
100
AcDbSpline
 62
7
  6
CONTINUOUS
 70
0
 71
3
 72
15
 73
11
 74
9
 42
0.0000001
 43
0.0000001
 44
0.0000000001
 12
-0.1633511397
 22
-0.0095020712
 32
0.0
 13
-0.0956210365
 23
-0.1331010516
 33
0.0
 40
0.0
 40
0.0
 40
0.0
 40
0.0
 40
0.0031436177
 40
0.1962221456
 40
0.3835644041
 40
0.5586616719
 40
0.709936023
 40
0.8363564984
 40
0.9579136394
 40
1.0
 40
1.0
 40
1.0
 40
1.0
 10
6.504905746
 20
4.6589177904
 30
0.0
 10
6.5047345749
 20
4.6589078335
 30
0.0
 10
6.494050722
 20
4.658277473
 30
0.0
 10
6.4732314985
 20
4.6559665892
 30
0.0
 10
6.4435877398
 20
4.6494720719
 30
0.0
 10
6.4170563456
 20
4.6402672829
 30
0.0
 10
6.3949620069
 20
4.6290707459
 30
0.0
 10
6.3771384321
 20
4.6164365987
 30
0.0
 10
6.3658464342
 20
4.6052490987
 30
0.0
 10
6.3603734612
 20
4.5981734651
 30
0.0
 10
6.3590320141
 20
4.5963062189
 30
0.0
 11
6.504905746
 21
4.6589177904
 31
0.0
 11
6.5043922576
 21
4.6588874942
 31
0.0
 11
6.4730099002
 21
4.6553767745
 31
0.0
 11
6.4431004999
 21
4.6487259005
 31
0.0
 11
6.4160937527
 21
4.6392007294
 31
0.0
 11
6.3940915068
 21
4.6278861757
 31
0.0
 11
6.377289529
 21
4.6158364152
 31
0.0
 11
6.3632479422
 21
4.6017623964
 31
0.0
 11
6.3590320141
 21
4.5963062189
 31
0.0
  0
SPLINE
  5
3FA
100
AcDbEntity
  8
0
100
AcDbSpline
 62
7
  6
CONTINUOUS
 70
0
 71
3
 72
10
 73
6
 74
4
 42
0.0000001
 43
0.0000001
 44
0.0000000001
 12
0.0
 22
-0.0711207926
 32
0.0
 13
-0.042005927
 23
-0.0576032929
 33
0.0
 40
0.0
 40
0.0
 40
0.0
 40
0.0
 40
0.429608058
 40
0.8328378196
 40
1.0
 40
1.0
 40
1.0
 40
1.0
 10
6.5325683529
 20
4.0210336826
 30
0.0
 10
6.5325683529
 20
4.0108489941
 30
0.0
 10
6.5299879966
 20
3.9909880435
 30
0.0
 10
6.5207125765
 20
3.9688901928
 30
0.0
 10
6.5132865698
 20
3.9575315888
 30
0.0
 10
6.510945969
 20
3.9543218915
 30
0.0
 11
6.5325683529
 21
4.0210336826
 31
0.0
 11
6.5285373668
 21
3.9907466874
 31
0.0
 11
6.5174557797
 21
3.9642962192
 31
0.0
 11
6.510945969
 21
3.9543218915
 31
0.0
  0
SPLINE
  5
3FB
100
AcDbEntity
  8
0
100
AcDbSpline
 62
7
  6
CONTINUOUS
 70
0
 71
3
 72
21
 73
17
 74
15
 42
0.0000001
 43
0.0000001
 44
0.0000000001
 12
0.2404459833
 22
0.3302880582
 32
0.0
 13
0.0
 23
-0.4078374916
 33
0.0
 40
0.0
 40
0.0
 40
0.0
 40
0.0
 40
0.0161519881
 40
0.0897099569
 40
0.167792337
 40
0.2490062565
 40
0.3308532119
 40
0.4118905687
 40
0.4909112818
 40
0.5683820043
 40
0.6448313293
 40
0.7199971244
 40
0.7931630567
 40
0.8642446186
 40
0.9331291501
 40
1.0
 40
1.0
 40
1.0
 40
1.0
 10
6.2253381262
 20
4.0921055548
 30
0.0
 10
6.2266326864
 20
4.0938838244
 30
0.0
 10
6.2340396692
 20
4.1036025694
 30
0.0
 10
6.2499893393
 20
4.1200827561
 30
0.0
 10
6.2757904184
 20
4.1386998859
 30
0.0
 10
6.3054260019
 20
4.1530952477
 30
0.0
 10
6.3374884764
 20
4.1622831315
 30
0.0
 10
6.3703742864
 20
4.1656836022
 30
0.0
 10
6.4027475583
 20
4.1631818763
 30
0.0
 10
6.433515594
 20
4.1549444369
 30
0.0
 10
6.4617207002
 20
4.1412962559
 30
0.0
 10
6.4863225578
 20
4.1228468363
 30
0.0
 10
6.5063950151
 20
4.1005251634
 30
0.0
 10
6.5212515903
 20
4.0754194499
 30
0.0
 10
6.5304310149
 20
4.048635993
 30
0.0
 10
6.5325683529
 20
4.0301244958
 30
0.0
 10
6.5325683529
 20
4.0210336826
 30
0.0
 11
6.2253381262
 21
4.0921055548
 31
0.0
 11
6.2293362157
 21
4.0973540591
 31
0.0
 11
6.2501211646
 21
4.1189866213
 31
0.0
 11
6.2759062622
 21
4.137674259
 31
0.0
 11
6.3056901842
 21
4.1521652996
 31
0.0
 11
6.3377837722
 21
4.1613437071
 31
0.0
 11
6.3706626707
 21
4.1647030689
 31
0.0
 11
6.402790953
 21
4.1621747723
 31
0.0
 11
6.4333009391
 21
4.1539641591
 31
0.0
 11
6.4613516908
 21
4.1403524292
 31
0.0
 11
6.4858571334
 21
4.1219339973
 31
0.0
 11
6.50577754
 21
4.0997170741
 31
0.0
 11
6.520490503
 21
4.0747384246
 31
0.0
 11
6.5295194648
 21
4.0481351632
 31
0.0
 11
6.5325683529
 21
4.0210336826
 31
0.0
  0
SPLINE
  5
3FC
100
AcDbEntity
  8
0
100
AcDbSpline
 62
7
  6
CONTINUOUS
 70
0
 71
3
 72
21
 73
17
 74
15
 42
0.0000001
 43
0.0000001
 44
0.0000000001
 12
0.0
 22
-0.4078326537
 32
0.0
 13
-0.2404557843
 23
0.3302739729
 33
0.0
 40
0.0
 40
0.0
 40
0.0
 40
0.0
 40
0.0667537866
 40
0.1355863534
 40
0.2066208458
 40
0.2797440413
 40
0.3548203331
 40
0.4311420428
 40
0.50849837
 40
0.5874950106
 40
0.6685709466
 40
0.7504609352
 40
0.831651375
 40
0.9096543484
 40
0.9831639546
 40
1.0
 40
1.0
 40
1.0
 40
1.0
 10
6.5325683529
 20
4.7385336826
 30
0.0
 10
6.5325683529
 20
4.7294588913
 30
0.0
 10
6.5304375338
 20
4.7109708634
 30
0.0
 10
6.521279729
 20
4.6842117982
 30
0.0
 10
6.5064471892
 20
4.6591150698
 30
0.0
 10
6.48640592
 20
4.6367990368
 30
0.0
 10
6.4618478516
 20
4.6183518092
 30
0.0
 10
6.4336987293
 20
4.6046942636
 30
0.0
 10
6.4029774196
 20
4.5964263331
 30
0.0
 10
6.370621664
 20
4.5938801129
 30
0.0
 10
6.3377236463
 20
4.597237648
 30
0.0
 10
6.3056426651
 20
4.6063891127
 30
0.0
 10
6.2759979188
 20
4.6207456162
 30
0.0
 10
6.2501891996
 20
4.6393152662
 30
0.0
 10
6.2341599756
 20
4.6558231903
 30
0.0
 10
6.2266909383
 20
4.6656036809
 30
0.0
 10
6.2253414968
 20
4.6674571835
 30
0.0
 11
6.5325683529
 21
4.7385336826
 31
0.0
 11
6.5295300556
 21
4.7114793801
 31
0.0
 11
6.5205196973
 21
4.6848925397
 31
0.0
 11
6.5058304472
 21
4.6599226062
 31
0.0
 11
6.4859362982
 21
4.6377060329
 31
0.0
 11
6.4614749931
 21
4.6192902525
 31
0.0
 11
6.433485608
 21
4.605672161
 31
0.0
 11
6.4030317209
 21
4.5974341644
 31
0.0
 11
6.3709171962
 21
4.5948614641
 31
0.0
 11
6.338018581
 21
4.5981785
 31
0.0
 11
6.3058974167
 21
4.6073227817
 31
0.0
 11
6.2761052005
 21
4.6217739357
 31
0.0
 11
6.2503210868
 21
4.6404070508
 31
0.0
 11
6.2295140222
 21
4.6619904599
 31
0.0
 11
6.2253414968
 21
4.6674571835
 31
0.0
  0
SPLINE
  5
3FD
100
AcDbEntity
  8
0
100
AcDbSpline
 62
7
  6
CONTINUOUS
 70
0
 71
3
 72
19
 73
15
 74
13
 42
0.0000001
 43
0.0000001
 44
0.0000000001
 12
0.0145579154
 22
0.0563729145
 32
0.0
 13
0.0146201294
 23
-0.0563416431
 33
0.0
 40
0.0
 40
0.0
 40
0.0
 40
0.0
 40
0.0017542549
 40
0.0733748006
 40
0.1513712035
 40
0.2419207992
 40
0.3469568193
 40
0.4567806584
 40
0.5658240023
 40
0.6740540529
 40
0.7737611917
 40
0.859746644
 40
0.9340482901
 40
1.0
 40
1.0
 40
1.0
 40
1.0
 10
5.9332712365
 20
3.6664145284
 30
0.0
 10
5.9332797493
 20
3.6664474925
 30
0.0
 10
5.933638985
 20
3.6678254301
 30
0.0
 10
5.934653893
 20
3.6705935421
 30
0.0
 10
5.9370713562
 20
3.6746049374
 30
0.0
 10
5.9407512302
 20
3.6784857365
 30
0.0
 10
5.9458387019
 20
3.6816546105
 30
0.0
 10
5.9519787267
 20
3.6833469552
 30
0.0
 10
5.9584074387
 20
3.6831502203
 30
0.0
 10
5.9643065662
 20
3.6811480987
 30
0.0
 10
5.9690458088
 20
3.6778748883
 30
0.0
 10
5.9724142147
 20
3.6740750761
 30
0.0
 10
5.9746034723
 20
3.6702477585
 30
0.0
 10
5.9755151755
 20
3.6676747656
 30
0.0
 10
5.975836583
 20
3.6664361563
 30
0.0
 11
5.9332712365
 21
3.6664145284
 31
0.0
 11
5.9332970024
 21
3.6665133597
 31
0.0
 11
5.9347263742
 21
3.6704226289
 31
0.0
 11
5.9370671732
 21
3.6743044042
 31
0.0
 11
5.940690826
 21
3.6781205525
 31
0.0
 11
5.945876969
 21
3.6813404421
 31
0.0
 11
5.9520319579
 21
3.6830299588
 31
0.0
 11
5.9583663195
 21
3.6828369859
 31
0.0
 11
5.964325122
 21
3.6808227366
 31
0.0
 11
5.9690974296
 21
3.6775358393
 31
0.0
 11
5.9724143402
 21
3.6737981261
 31
0.0
 11
5.9745592431
 21
3.6700502851
 31
0.0
 11
5.975836583
 21
3.6664361563
 31
0.0
  0
SPLINE
  5
3FE
100
AcDbEntity
  8
0
100
AcDbSpline
 62
7
  6
CONTINUOUS
 70
0
 71
3
 72
15
 73
11
 74
9
 42
0.0000001
 43
0.0000001
 44
0.0000000001
 12
0.0954545655
 22
-0.1330209511
 32
0.0
 13
0.1631887665
 23
-0.0096150956
 33
0.0
 40
0.0
 40
0.0
 40
0.0
 40
0.0
 40
0.0340128671
 40
0.1535832482
 40
0.2757997317
 40
0.4202527972
 40
0.5898391451
 40
0.7736648958
 40
0.9650559052
 40
1.0
 40
1.0
 40
1.0
 40
1.0
 10
6.35900479
 20
4.1632986971
 30
0.0
 10
6.3600870178
 20
4.1617905557
 30
0.0
 10
6.3651684705
 20
4.1551208438
 30
0.0
 10
6.3757442361
 20
4.1443434577
 30
0.0
 10
6.3927783255
 20
4.1318690944
 30
0.0
 10
6.4138491197
 20
4.1207176636
 30
0.0
 10
6.4393701967
 20
4.11133351
 30
0.0
 10
6.4682995626
 20
4.1044594767
 30
0.0
 10
6.4904965363
 20
4.1016128145
 30
0.0
 10
6.5028016835
 20
4.1007730433
 30
0.0
 10
6.5047025114
 20
4.1006610464
 30
0.0
 11
6.35900479
 21
4.1632986971
 31
0.0
 11
6.3623773361
 21
4.1588691494
 31
0.0
 11
6.3759831584
 21
4.1448477623
 31
0.0
 11
6.3920327144
 21
4.1329645272
 31
0.0
 11
6.4128320072
 21
4.1218061575
 31
0.0
 11
6.4387899684
 21
4.1121089902
 31
0.0
 11
6.4679894462
 21
4.1050662097
 31
0.0
 11
6.4990034209
 21
4.1010497758
 31
0.0
 11
6.5047025114
 21
4.1006610464
 31
0.0
  0
SPLINE
  5
3FF
100
AcDbEntity
  8
0
100
AcDbSpline
 62
7
  6
CONTINUOUS
 70
0
 71
3
 72
8
 73
4
 74
2
 42
0.0000001
 43
0.0000001
 44
0.0000000001
 12
0.0003842931
 22
0.0000125809
 32
0.0
 13
0.0003842995
 23
0.0000123854
 33
0.0
 40
0.0
 40
0.0
 40
0.0
 40
0.0
 40
1.0
 40
1.0
 40
1.0
 40
1.0
 10
5.9310566184
 20
3.6622836826
 30
0.0
 10
5.9311847161
 20
3.6622878762
 30
0.0
 10
5.9313128149
 20
3.662292038
 30
0.0
 10
5.9314409147
 20
3.6622961664
 30
0.0
 11
5.9310566184
 21
3.6622836826
 31
0.0
 11
5.9314409147
 21
3.6622961664
 31
0.0
  0
SPLINE
  5
400
100
AcDbEntity
  8
0
100
AcDbSpline
 62
7
  6
CONTINUOUS
 70
0
 71
3
 72
8
 73
4
 74
2
 42
0.0000001
 43
0.0000001
 44
0.0000000001
 12
0.0011668712
 22
0.0000376064
 32
0.0
 13
0.0011669325
 23
0.0000356481
 33
0.0
 40
0.0
 40
0.0
 40
0.0
 40
0.0
 40
1.0
 40
1.0
 40
1.0
 40
1.0
 10
5.9314409147
 20
3.6622961664
 30
0.0
 10
5.9318298718
 20
3.6623087019
 30
0.0
 10
5.9322188388
 20
3.6623209305
 30
0.0
 10
5.9326078163
 20
3.6623328132
 30
0.0
 11
5.9314409147
 21
3.6622961664
 31
0.0
 11
5.9326078163
 21
3.6623328132
 31
0.0
  0
SPLINE
  5
401
100
AcDbEntity
  8
0
100
AcDbSpline
 62
7
  6
CONTINUOUS
 70
0
 71
3
 72
23
 73
19
 74
17
 42
0.0000001
 43
0.0000001
 44
0.0000000001
 12
-0.3264971643
 22
-0.0720655376
 32
0.0
 13
-0.3284693226
 23
0.0624643701
 33
0.0
 40
0.0
 40
0.0
 40
0.0
 40
0.0
 40
0.0093013557
 40
0.0368353212
 40
0.0815726122
 40
0.141897843
 40
0.2157254028
 40
0.2998442919
 40
0.3910854896
 40
0.4871501033
 40
0.5855694853
 40
0.6818210909
 40
0.7713431249
 40
0.8490809462
 40
0.9120212881
 40
0.9591032149
 40
0.989288104
 40
1.0
 40
1.0
 40
1.0
 40
1.0
 10
6.5325683529
 20
5.0972836826
 30
0.0
 10
6.5315560641
 20
5.0970602469
 30
0.0
 10
6.5275452873
 20
5.0961839763
 30
0.0
 10
6.5186469758
 20
5.0943188536
 30
0.0
 10
6.5041335083
 20
5.091528831
 30
0.0
 10
6.484466042
 20
5.0882417483
 30
0.0
 10
6.4603545458
 20
5.0849768047
 30
0.0
 10
6.4327095493
 20
5.0822485415
 30
0.0
 10
6.4025027617
 20
5.0804687064
 30
0.0
 10
6.370654091
 20
5.0799006273
 30
0.0
 10
6.3382507803
 20
5.0806486628
 30
0.0
 10
6.3066303789
 20
5.0826121136
 30
0.0
 10
6.2773945518
 20
5.0854595915
 30
0.0
 10
6.2519413402
 20
5.0887056388
 30
0.0
 10
6.2312502331
 20
5.0918437535
 30
0.0
 10
6.2158437655
 20
5.094459493
 30
0.0
 10
6.2061968825
 20
5.0962163019
 30
0.0
 10
6.2017177309
 20
5.0970606453
 30
0.0
 10
6.2005448879
 20
5.0972836826
 30
0.0
 11
6.5325683529
 21
5.0972836826
 31
0.0
 11
6.5295300556
 21
5.0966198803
 31
0.0
 11
6.5205196973
 21
5.0947313246
 31
0.0
 11
6.5058304472
 21
5.0919076218
 31
0.0
 11
6.4859362982
 21
5.0885825363
 31
0.0
 11
6.4614749931
 21
5.0852691075
 31
0.0
 11
6.433485608
 21
5.0825037131
 31
0.0
 11
6.4030317209
 21
5.0807034162
 31
0.0
 11
6.3709171962
 21
5.080121737
 31
0.0
 11
6.338018581
 21
5.0808699874
 31
0.0
 11
6.3058974167
 21
5.082852949
 31
0.0
 11
6.2761052005
 21
5.0857448129
 31
0.0
 11
6.2503210868
 21
5.0890265219
 31
0.0
 11
6.2295140222
 21
5.0921787556
 31
0.0
 11
6.2139937544
 21
5.0948123775
 31
0.0
 11
6.2040644917
 21
5.0966202357
 31
0.0
 11
6.2005448879
 21
5.0972836826
 31
0.0
  0
SPLINE
  5
402
100
AcDbEntity
  8
0
100
AcDbSpline
 62
7
  6
CONTINUOUS
 70
0
 71
3
 72
23
 73
19
 74
17
 42
0.0000001
 43
0.0000001
 44
0.0000000001
 12
0.3284693114
 22
0.0624643683
 32
0.0
 13
0.326497148
 23
-0.0720655349
 33
0.0
 40
0.0
 40
0.0
 40
0.0
 40
0.0
 40
0.0106032212
 40
0.0405506075
 40
0.0874299403
 40
0.1503018897
 40
0.2280515161
 40
0.3175669035
 40
0.4137561843
 40
0.512128133
 40
0.6082306368
 40
0.6996285093
 40
0.7839228618
 40
0.8578763259
 40
0.9182748382
 40
0.9630792235
 40
0.9906670759
 40
1.0
 40
1.0
 40
1.0
 40
1.0
 10
6.2005448879
 20
3.6622836826
 30
0.0
 10
6.2017058321
 20
3.6625044571
 30
0.0
 10
6.2061470552
 20
3.6633417257
 30
0.0
 10
6.2157336419
 20
3.6650882388
 30
0.0
 10
6.2310838625
 20
3.667696647
 30
0.0
 10
6.2517458024
 20
3.6708343829
 30
0.0
 10
6.2771913323
 20
3.6740849231
 30
0.0
 10
6.3064201749
 20
3.6769383061
 30
0.0
 10
6.338027116
 20
3.6789088482
 30
0.0
 10
6.3704221841
 20
3.679665979
 30
0.0
 10
6.4022874248
 20
3.6791072411
 30
0.0
 10
6.4325358978
 20
3.6773331439
 30
0.0
 10
6.4602322834
 20
3.6746054144
 30
0.0
 10
6.4843856156
 20
3.6713380828
 30
0.0
 10
6.5040826504
 20
3.6680478318
 30
0.0
 10
6.5186175374
 20
3.6652545212
 30
0.0
 10
6.5275325407
 20
3.6633861509
 30
0.0
 10
6.5315526285
 20
3.6625078767
 30
0.0
 10
6.5325683529
 20
3.6622836826
 30
0.0
 11
6.2005448879
 21
3.6622836826
 31
0.0
 11
6.2040287736
 21
3.6629404557
 31
0.0
 11
6.2138797846
 21
3.6647347759
 31
0.0
 11
6.2293328972
 21
3.667359248
 31
0.0
 11
6.2501167473
 21
3.6705120411
 31
0.0
 11
6.2759040805
 21
3.6737997033
 31
0.0
 11
6.3056934372
 21
3.6766980006
 31
0.0
 11
6.3377933042
 21
3.6786877075
 31
0.0
 11
6.3706758468
 21
3.6794450182
 31
0.0
 11
6.4028032107
 21
3.6788728019
 31
0.0
 11
6.4333098741
 21
3.6770776164
 31
0.0
 11
6.4613581936
 21
3.6743120547
 31
0.0
 11
6.4858616546
 21
3.6709962328
 31
0.0
 11
6.5057802608
 21
3.6676688514
 31
0.0
 11
6.5204916959
 21
3.6648417236
 31
0.0
 11
6.529519739
 21
3.6629497156
 31
0.0
 11
6.5325683529
 21
3.6622836826
 31
0.0
  0
SPLINE
  5
403
100
AcDbEntity
  8
0
100
AcDbSpline
 62
7
  6
CONTINUOUS
 70
0
 71
3
 72
20
 73
16
 74
14
 42
0.0000001
 43
0.0000001
 44
0.0000000001
 12
0.0
 22
0.392097033
 32
0.0
 13
0.2315859431
 23
-0.317573195
 33
0.0
 40
0.0
 40
0.0
 40
0.0
 40
0.0
 40
0.068337562
 40
0.1440599126
 40
0.2232300516
 40
0.3047830455
 40
0.3884127043
 40
0.4736283415
 40
0.5586879254
 40
0.642378096
 40
0.7257182671
 40
0.8068388499
 40
0.8851536716
 40
0.9588796544
 40
1.0
 40
1.0
 40
1.0
 40
1.0
 10
6.2005448879
 20
4.7385336826
 30
0.0
 10
6.2005448879
 20
4.7474653344
 30
0.0
 10
6.2030597992
 20
4.7663959609
 30
0.0
 10
6.2150890219
 20
4.7934207031
 30
0.0
 10
6.2351143607
 20
4.8174102845
 30
0.0
 10
6.2608862545
 20
4.8366669063
 30
0.0
 10
6.2905012621
 20
4.850981968
 30
0.0
 10
6.3224434913
 20
4.8604419066
 30
0.0
 10
6.3554077081
 20
4.8651768348
 30
0.0
 10
6.3884608115
 20
4.8653089377
 30
0.0
 10
6.4207003459
 20
4.8607874794
 30
0.0
 10
6.4511782416
 20
4.8514345209
 30
0.0
 10
6.4783925386
 20
4.8372923955
 30
0.0
 10
6.4980619201
 20
4.8211441158
 30
0.0
 10
6.5077714848
 20
4.8095986162
 30
0.0
 10
6.5109457828
 20
4.8052457097
 30
0.0
 11
6.2005448879
 21
4.7385336826
 31
0.0
 11
6.2041118301
 21
4.7650901612
 31
0.0
 11
6.2160436253
 21
4.7922776323
 31
0.0
 11
6.235722805
 21
4.816285111
 31
0.0
 11
6.2611826698
 21
4.8356320433
 31
0.0
 11
6.2906256899
 21
4.8500665293
 31
0.0
 11
6.3226334613
 21
4.8596538999
 31
0.0
 11
6.3556419753
 21
4.8644254743
 31
0.0
 11
6.3884564976
 21
4.8645231069
 31
0.0
 11
6.4208037482
 21
4.859889527
 31
0.0
 11
6.4511664102
 21
4.8504130877
 31
0.0
 11
6.4783274969
 21
4.8360884312
 31
0.0
 11
6.5005640445
 21
4.817617012
 31
0.0
 11
6.5109457828
 21
4.8052457097
 31
0.0
  0
SPLINE
  5
404
100
AcDbEntity
  8
0
100
AcDbSpline
 62
7
  6
CONTINUOUS
 70
0
 71
3
 72
10
 73
6
 74
4
 42
0.0000001
 43
0.0000001
 44
0.0000000001
 12
-0.0450284701
 22
0.0618480931
 32
0.0
 13
-0.0
 23
0.0763719639
 33
0.0
 40
0.0
 40
0.0
 40
0.0
 40
0.0
 40
0.2819062844
 40
0.6428661289
 40
1.0
 40
1.0
 40
1.0
 40
1.0
 10
6.2253414968
 20
4.6674571835
 30
0.0
 10
6.2211102273
 20
4.6732689722
 30
0.0
 10
6.2124123238
 20
4.687214978
 30
0.0
 10
6.2030229108
 20
4.7110904572
 30
0.0
 10
6.2005448879
 20
4.7294420109
 30
0.0
 10
6.2005448879
 20
4.7385336826
 30
0.0
 11
6.2253414968
 21
4.6674571835
 31
0.0
 11
6.2139937544
 21
4.6857697693
 31
0.0
 11
6.2040644917
 21
4.711486708
 31
0.0
 11
6.2005448879
 21
4.7385336826
 31
0.0
  0
SPLINE
  5
405
100
AcDbEntity
  8
0
100
AcDbSpline
 62
7
  6
CONTINUOUS
 70
0
 71
3
 72
10
 73
6
 74
4
 42
0.0000001
 43
0.0000001
 44
0.0000000001
 12
0.0
 22
0.0763674573
 32
0.0
 13
0.0450234438
 23
0.0618463474
 33
0.0
 40
0.0
 40
0.0
 40
0.0
 40
0.0
 40
0.3553052459
 40
0.7149369048
 40
1.0
 40
1.0
 40
1.0
 40
1.0
 10
6.2005448879
 20
4.0210336826
 30
0.0
 10
6.2005448879
 20
4.0300782687
 30
0.0
 10
6.20299869
 20
4.0483474604
 30
0.0
 10
6.2123488322
 20
4.0722357063
 30
0.0
 10
6.2210599521
 20
4.0862288511
 30
0.0
 10
6.2253381262
 20
4.0921055548
 30
0.0
 11
6.2005448879
 21
4.0210336826
 31
0.0
 11
6.2040288178
 21
4.0479428458
 31
0.0
 11
6.2138809881
 21
4.0735790424
 31
0.0
 11
6.2253381262
 21
4.0921055548
 31
0.0
  0
SPLINE
  5
406
100
AcDbEntity
  8
0
100
AcDbSpline
 62
7
  6
CONTINUOUS
 70
0
 71
3
 72
20
 73
16
 74
14
 42
0.0000001
 43
0.0000001
 44
0.0000000001
 12
-0.2315839456
 22
-0.317574181
 32
0.0
 13
0.0
 23
0.3920978526
 33
0.0
 40
0.0
 40
0.0
 40
0.0
 40
0.0
 40
0.0409490555
 40
0.1146760556
 40
0.1929108175
 40
0.2738991727
 40
0.3571347842
 40
0.4408629385
 40
0.5261529283
 40
0.6116490952
 40
0.6955621502
 40
0.7774099143
 40
0.8567277841
 40
0.9322459958
 40
1.0
 40
1.0
 40
1.0
 40
1.0
 10
6.510945969
 20
3.9543218915
 30
0.0
 10
6.5077849211
 20
3.9499871039
 30
0.0
 10
6.4980933542
 20
3.9384561495
 30
0.0
 10
6.478457506
 20
3.9223185559
 30
0.0
 10
6.4512755948
 20
3.9081748107
 30
0.0
 10
6.4208439725
 20
3.8988136929
 30
0.0
 10
6.3886339274
 20
3.8942704616
 30
0.0
 10
6.3555590367
 20
3.8943769699
 30
0.0
 10
6.322520305
 20
3.8991038736
 30
0.0
 10
6.2904758294
 20
3.9085886929
 30
0.0
 10
6.2607638249
 20
3.9229652438
 30
0.0
 10
6.2349371437
 20
3.9423123578
 30
0.0
 10
6.2149451827
 20
3.9663745971
 30
0.0
 10
6.2030234908
 20
3.9933531362
 30
0.0
 10
6.2005448879
 20
4.0121782827
 30
0.0
 10
6.2005448879
 20
4.0210336826
 30
0.0
 11
6.510945969
 21
3.9543218915
 31
0.0
 11
6.5006109078
 21
3.941999157
 31
0.0
 11
6.478383424
 21
3.9235161134
 31
0.0
 11
6.45125758
 21
3.9091917965
 31
0.0
 11
6.4209506264
 21
3.8997106854
 31
0.0
 11
6.3886475673
 21
3.8950573211
 31
0.0
 11
6.3558180164
 21
3.8951291231
 31
0.0
 11
6.322717353
 21
3.8998951394
 31
0.0
 11
6.2906028302
 21
3.9095097013
 31
0.0
 11
6.2610664018
 21
3.9240062343
 31
0.0
 11
6.2355398675
 21
3.9434565262
 31
0.0
 11
6.2158800956
 21
3.9675547867
 31
0.0
 11
6.20405095
 21
3.9946998548
 31
0.0
 11
6.2005448879
 21
4.0210336826
 31
0.0
  0
SPLINE
  5
407
100
AcDbEntity
  8
0
100
AcDbSpline
 62
7
  6
CONTINUOUS
 70
0
 71
3
 72
15
 73
11
 74
9
 42
0.0000001
 43
0.0000001
 44
0.0000000001
 12
-0.2213747391
 22
0.4040882383
 32
0.0
 13
0.2213747391
 23
0.4040882383
 33
0.0
 40
0.0
 40
0.0
 40
0.0
 40
0.0
 40
0.1363385306
 40
0.2625242499
 40
0.3826814249
 40
0.5000474403
 40
0.6174094987
 40
0.7375563123
 40
0.8636900968
 40
1.0
 40
1.0
 40
1.0
 40
1.0
 10
3.3715292516
 20
3.457179024
 30
0.0
 10
3.3614686161
 20
3.4755432896
 30
0.0
 10
3.3435214126
 20
3.5117270653
 30
0.0
 10
3.3230999648
 20
3.5669777831
 30
0.0
 10
3.3105757854
 20
3.6216008257
 30
0.0
 10
3.3063296001
 20
3.6761550732
 30
0.0
 10
3.3105823046
 20
3.7307071708
 30
0.0
 10
3.323109574
 20
3.7853189545
 30
0.0
 10
3.3435287408
 20
3.8405554306
 30
0.0
 10
3.3614707285
 20
3.8767279316
 30
0.0
 10
3.3715292516
 20
3.8950883411
 30
0.0
 11
3.3715292516
 21
3.457179024
 31
0.0
 11
3.3438894025
 21
3.5135900378
 31
0.0
 11
3.3240017989
 21
3.5682234249
 31
0.0
 11
3.3118454823
 21
3.6222352024
 31
0.0
 11
3.3077349538
 21
3.6761555893
 31
0.0
 11
3.3118517877
 21
3.7300736667
 31
0.0
 11
3.3240123686
 21
3.7840795908
 31
0.0
 11
3.3438946089
 21
3.8386894648
 31
0.0
 11
3.3715292516
 21
3.8950883411
 31
0.0
  0
SPLINE
  5
408
100
AcDbEntity
  8
0
100
AcDbSpline
 62
7
  6
CONTINUOUS
 70
0
 71
3
 72
15
 73
11
 74
9
 42
0.0000001
 43
0.0000001
 44
0.0000000001
 12
-0.2344928018
 22
0.8560668082
 32
0.0
 13
0.2344928018
 23
0.8560668082
 33
0.0
 40
0.0
 40
0.0
 40
0.0
 40
0.0
 40
0.130867655
 40
0.2559934432
 40
0.3784643323
 40
0.5000493322
 40
0.6216294027
 40
0.7440877225
 40
0.8691603039
 40
1.0
 40
1.0
 40
1.0
 40
1.0
 10
3.3715292516
 20
3.9418743655
 30
0.0
 10
3.3613000772
 20
3.9792181841
 30
0.0
 10
3.3431274441
 20
4.0527932848
 30
0.0
 10
3.3228770455
 20
4.1629980684
 30
0.0
 10
3.3105194226
 20
4.2716209272
 30
0.0
 10
3.3063461517
 20
4.3798260821
 30
0.0
 10
3.3105258446
 20
4.4880272475
 30
0.0
 10
3.3228866596
 20
4.5966286392
 30
0.0
 10
3.3431350018
 20
4.7068054997
 30
0.0
 10
3.3613022626
 20
4.7803571594
 30
0.0
 10
3.3715292516
 20
4.8176929997
 30
0.0
 11
3.3715292516
 21
3.9418743655
 31
0.0
 11
3.3438894025
 21
4.054696393
 31
0.0
 11
3.3240017989
 21
4.1639631672
 31
0.0
 11
3.3118454823
 21
4.2719867222
 31
0.0
 11
3.3077349538
 21
4.3798274961
 31
0.0
 11
3.3118517877
 21
4.4876636509
 31
0.0
 11
3.3240123686
 21
4.5956754989
 31
0.0
 11
3.3438946089
 21
4.704895247
 31
0.0
 11
3.3715292516
 21
4.8176929997
 31
0.0
  0
SPLINE
  5
409
100
AcDbEntity
  8
0
100
AcDbSpline
 62
7
  6
CONTINUOUS
 70
0
 71
3
 72
15
 73
11
 74
9
 42
0.0000001
 43
0.0000001
 44
0.0000000001
 12
-0.2213747391
 22
0.4040882383
 32
0.0
 13
0.2213747391
 23
0.4040882383
 33
0.0
 40
0.0
 40
0.0
 40
0.0
 40
0.0
 40
0.1363385306
 40
0.2625242499
 40
0.3826814249
 40
0.5000474403
 40
0.6174094987
 40
0.7375563123
 40
0.8636900968
 40
1.0
 40
1.0
 40
1.0
 40
1.0
 10
3.3715292516
 20
4.864479024
 30
0.0
 10
3.3614686161
 20
4.8828432896
 30
0.0
 10
3.3435214126
 20
4.9190270653
 30
0.0
 10
3.3230999648
 20
4.9742777831
 30
0.0
 10
3.3105757854
 20
5.0289008257
 30
0.0
 10
3.3063296001
 20
5.0834550732
 30
0.0
 10
3.3105823046
 20
5.1380071708
 30
0.0
 10
3.323109574
 20
5.1926189545
 30
0.0
 10
3.3435287408
 20
5.2478554306
 30
0.0
 10
3.3614707285
 20
5.2840279316
 30
0.0
 10
3.3715292516
 20
5.3023883411
 30
0.0
 11
3.3715292516
 21
4.864479024
 31
0.0
 11
3.3438894025
 21
4.9208900378
 31
0.0
 11
3.3240017989
 21
4.9755234249
 31
0.0
 11
3.3118454823
 21
5.0295352024
 31
0.0
 11
3.3077349538
 21
5.0834555893
 31
0.0
 11
3.3118517877
 21
5.1373736667
 31
0.0
 11
3.3240123686
 21
5.1913795908
 31
0.0
 11
3.3438946089
 21
5.2459894648
 31
0.0
 11
3.3715292516
 21
5.3023883411
 31
0.0
  0
ENDSEC
  0
SECTION
  2
OBJECTS
  0
DICTIONARY
  5
C
100
AcDbDictionary
280
0
281
1
  3
ACAD_GROUP
350
D
  3
ACAD_MLINESTYLE
350
17
  3
ACAD_LAYOUT
350
1A
  3
ACAD_PLOTSETTINGS
350
19
  3
ACAD_PLOTSTYLENAME
350
E
  0
DICTIONARY
  5
D
102
{ACAD_REACTORS
330
C
102
}
100
AcDbDictionary
280
0
281
1
  0
ACDBDICTIONARYWDFLT
  5
E
102
{ACAD_REACTORS
330
C
102
}
100
AcDbDictionary
281
1
  3
Normal
350
F
100
AcDbDictionaryWithDefault
340
F
  0
DICTIONARY
  5
17
102
{ACAD_REACTORS
330
C
102
}
100
AcDbDictionary
280
0
281
1
  3
Standard
350
18
  0
DICTIONARY
  5
19
102
{ACAD_REACTORS
330
C
102
}
100
AcDbDictionary
281
1
  0
DICTIONARY
  5
1A
102
{ACAD_REACTORS
330
C
102
}
100
AcDbDictionary
281
1
  3
Layout1
350
1E
  3
Model
350
22
  0
ACDBPLACEHOLDER
  5
F
102
{ACAD_REACTORS
330
E
102
}
  0
MLINESTYLE
  5
18
102
{ACAD_REACTORS
330
17
102
}
100
AcDbMlineStyle
  2
STANDARD
 70
0
  3

 62
256
 51
90.0
 52
90.0
 71
2
 49
0.5
 62
256
  6
BYLAYER
 49
-0.5
 62
256
  6
BYLAYER
  0
LAYOUT
  5
1E
102
{ACAD_REACTORS
330
1A
102
}
100
AcDbPlotSettings
  1

  2

  4

  6

 40
0.0
 41
0.0
 42
0.0
 43
0.0
 44
0.0
 45
0.0
 46
0.0
 47
0.0
 48
0.0
 49
0.0
140
0.0
141
0.0
142
1.0
143
1.0
 70
0
 72
0
 73
0
 74
0
  7

 75
0
147
1.0
148
0.0
149
0.0
100
AcDbLayout
  1
Layout1
 70
0
 71
0
 10
0.0
 20
0.0
 11
0.0
 21
0.0
 12
0.0
 22
0.0
 32
0.0
 14
0.0
 24
0.0
 34
0.0
 15
0.0
 25
0.0
 35
0.0
146
0.0
 13
0.0
 23
0.0
 33
0.0
 16
0.0
 26
0.0
 36
0.0
 17
0.0
 27
0.0
 37
0.0
 76
0
330
1B
331
0
345
0
346
0
  0
LAYOUT
  5
22
102
{ACAD_REACTORS
330
1A
102
}
100
AcDbPlotSettings
  1

  2

  4

  6

 40
0.0
 41
0.0
 42
0.0
 43
0.0
 44
0.0
 45
0.0
 46
0.0
 47
0.0
 48
0.0
 49
0.0
140
0.0
141
0.0
142
1.0
143
1.0
 70
0
 72
0
 73
0
 74
0
  7

 75
0
147
1.0
148
0.0
149
0.0
100
AcDbLayout
  1
Model
 70
0
 71
0
 10
0.0
 20
0.0
 11
0.0
 21
0.0
 12
0.0
 22
0.0
 32
0.0
 14
0.0
 24
0.0
 34
0.0
 15
0.0
 25
0.0
 35
0.0
146
0.0
 13
0.0
 23
0.0
 33
0.0
 16
0.0
 26
0.0
 36
0.0
 17
0.0
 27
0.0
 37
0.0
 76
0
330
1F
331
0
345
0
346
0
  0
ENDSEC
  0
EOF
