999
DXF file: CXHA-XAN.dxf
999
Pro/ENGINEER 2006240 by Parametric Technology Corporation
  0
SECTION
  2
HEADER
  9
$ACADVER
  1
AC1015
  9
$DWGCODEPAGE
  3
ANSI_1252
  9
$EXTMAX
 10
11.6929133858
 20
8.2677165354
 30
0.0
  9
$EXTMIN
 10
0.0
 20
0.0
 30
0.0
  9
$LIMMIN
 10
0.0
 20
0.0
  9
$LIMMAX
 10
11.6929133858
 20
8.2677165354
  9
$VIEWCTR
 10
5.8464566929
 20
4.1338582677
  9
$VIEWSIZE
 40
8.2677165354
  9
$CLAYER
  8
0
  9
$LTSCALE
 40
0.6431102362
  9
$CELTYPE
  6
BYLAYER
  9
$DIMSCALE
 40
1.0
  9
$DIMASZ
 40
0.1875
  9
$DIMEXO
 40
0.0730807087
  9
$DIMDLI
 40
0.4443307087
  9
$DIMEXE
 40
0.2104724409
  9
$DIMCEN
 40
0.1052362205
  9
$DIMLFAC
 40
1.0
  9
$DIMBLK
  1
_CLOSED
  9
$DIMTXT
 40
0.15625
  9
$DIMTOL
 70
0
  9
$DIMLIM
 70
0
  9
$DIMTFAC
 40
1.0
  9
$PDMODE
 70
3
  9
$PDSIZE
 40
0.3125
  9
$HANDSEED
  5
426
  9
$MEASUREMENT
 70
0
  9
$INSUNITS
 70
1
  0
ENDSEC
  0
SECTION
  2
CLASSES
  0
CLASS
  1
ACDBDICTIONARYWDFLT
  2
AcDbDictionaryWithDefault
  3
AutoCAD 2000
 90
0
280
0
281
0
  0
CLASS
  1
ACDBPLACEHOLDER
  2
AcDbPlaceHolder
  3
AutoCAD 2000
 90
0
280
0
281
0
  0
CLASS
  1
LAYOUT
  2
AcDbLayout
  3
AutoCAD 2000
 90
0
280
0
281
0
  0
ENDSEC
  0
SECTION
  2
TABLES
  0
TABLE
  2
VPORT
  5
8
100
AcDbSymbolTable
 70
2
  0
VPORT
  5
1F4
100
AcDbSymbolTableRecord
100
AcDbViewportTableRecord
  2
*ACTIVE
 70
0
 10
0.0
 20
0.0
 11
1.0
 21
1.0
 12
5.8464566929
 22
4.1338582677
 13
0.0
 23
0.0
 14
1.0
 24
1.0
 15
0.0
 25
0.0
 16
0.0
 26
0.0
 36
1.0
 17
0.0
 27
0.0
 37
0.0
 40
8.2677165354
 41
1.4142857143
 42
50.0
 43
0.0
 44
0.0
 50
0.0
 51
0.0
 71
0
 72
100
 73
1
 74
1
 75
0
 76
0
 77
0
 78
0
  0
ENDTAB
  0
TABLE
  2
LTYPE
  5
5
100
AcDbSymbolTable
 70
6
  0
LTYPE
  5
14
100
AcDbSymbolTableRecord
100
AcDbLinetypeTableRecord
  2
BYBLOCK
 70
0
  3

 72
65
 73
0
 40
0.0
  0
LTYPE
  5
15
100
AcDbSymbolTableRecord
100
AcDbLinetypeTableRecord
  2
BYLAYER
 70
0
  3

 72
65
 73
0
 40
0.0
  0
LTYPE
  5
16
100
AcDbSymbolTableRecord
100
AcDbLinetypeTableRecord
  2
CONTINUOUS
 70
64
  3
Solid line
 72
65
 73
0
 40
0.0
  0
LTYPE
  5
1F5
100
AcDbSymbolTableRecord
100
AcDbLinetypeTableRecord
  2
CENTER
 70
64
  3
____ _ ____ _ ____ _ ____ _ ____ _ ____ _ ____
 72
65
 73
4
 40
0.6
 49
0.375
 74
0
 49
-0.075
 74
0
 49
0.075
 74
0
 49
-0.075
 74
0
  0
LTYPE
  5
1F6
100
AcDbSymbolTableRecord
100
AcDbLinetypeTableRecord
  2
HIDDEN
 70
64
  3
- - - - - - - - - - - - - - - - - - - -
 72
65
 73
2
 40
0.2
 49
0.1
 74
0
 49
-0.1
 74
0
  0
LTYPE
  5
1F7
100
AcDbSymbolTableRecord
100
AcDbLinetypeTableRecord
  2
PHANTOM
 70
64
  3
_____ _ _ _____ _ _ _____ _ _ _____
 72
65
 73
6
 40
0.8
 49
0.45
 74
0
 49
-0.05
 74
0
 49
0.1
 74
0
 49
-0.05
 74
0
 49
0.1
 74
0
 49
-0.05
 74
0
  0
LTYPE
  5
1F8
100
AcDbSymbolTableRecord
100
AcDbLinetypeTableRecord
  2
DOT
 70
64
  3
. . . . . . . . . . . . . . . . . . . .
 72
65
 73
2
 40
0.2
 49
0.1
 74
0
 49
-0.1
 74
0
  0
LTYPE
  5
1F9
100
AcDbSymbolTableRecord
100
AcDbLinetypeTableRecord
  2
DASHED
 70
64
  3
- - - - - - - - - - - - - - - - - - - -
 72
65
 73
2
 40
0.2
 49
0.1
 74
0
 49
-0.1
 74
0
  0
ENDTAB
  0
TABLE
  2
LAYER
  5
2
100
AcDbSymbolTable
 70
36
  0
LAYER
  5
10
100
AcDbSymbolTableRecord
100
AcDbLayerTableRecord
  2
0
 70
0
 62
7
  6
CONTINUOUS
370
-3
390
F
  0
LAYER
  5
1FA
100
AcDbSymbolTableRecord
100
AcDbLayerTableRecord
  2
DEFAULT_1
 70
0
 62
7
  6
CENTER
370
-3
390
F
  0
LAYER
  5
1FB
100
AcDbSymbolTableRecord
100
AcDbLayerTableRecord
  2
DEFAULT_2
 70
0
 62
8
  6
HIDDEN
370
-3
390
F
  0
LAYER
  5
1FC
100
AcDbSymbolTableRecord
100
AcDbLayerTableRecord
  2
DEFAULT_3
 70
0
 62
7
  6
PHANTOM
370
-3
390
F
  0
LAYER
  5
1FD
100
AcDbSymbolTableRecord
100
AcDbLayerTableRecord
  2
01_ALL_DTM_PLN
 70
0
 62
7
  6
CONTINUOUS
370
-3
390
F
  0
LAYER
  5
1FE
100
AcDbSymbolTableRecord
100
AcDbLayerTableRecord
  2
01__ASM_ALL_DTM_PLN
 70
0
 62
7
  6
CONTINUOUS
370
-3
390
F
  0
LAYER
  5
1FF
100
AcDbSymbolTableRecord
100
AcDbLayerTableRecord
  2
01__ASM_DEF_DTM_PLN
 70
0
 62
7
  6
CONTINUOUS
370
-3
390
F
  0
LAYER
  5
200
100
AcDbSymbolTableRecord
100
AcDbLayerTableRecord
  2
01___PRT_ALL_DTM_PLN
 70
0
 62
7
  6
CONTINUOUS
370
-3
390
F
  0
LAYER
  5
201
100
AcDbSymbolTableRecord
100
AcDbLayerTableRecord
  2
01___PRT_DEF_DTM_PLN
 70
0
 62
7
  6
CONTINUOUS
370
-3
390
F
  0
LAYER
  5
202
100
AcDbSymbolTableRecord
100
AcDbLayerTableRecord
  2
02_ALL_AXES
 70
0
 62
7
  6
CONTINUOUS
370
-3
390
F
  0
LAYER
  5
203
100
AcDbSymbolTableRecord
100
AcDbLayerTableRecord
  2
02__ASM_ALL_AXES
 70
0
 62
7
  6
CONTINUOUS
370
-3
390
F
  0
LAYER
  5
204
100
AcDbSymbolTableRecord
100
AcDbLayerTableRecord
  2
02___PRT_ALL_AXES
 70
0
 62
7
  6
CONTINUOUS
370
-3
390
F
  0
LAYER
  5
205
100
AcDbSymbolTableRecord
100
AcDbLayerTableRecord
  2
03_ALL_CURVES
 70
0
 62
7
  6
CONTINUOUS
370
-3
390
F
  0
LAYER
  5
206
100
AcDbSymbolTableRecord
100
AcDbLayerTableRecord
  2
03__ASM_ALL_CURVES
 70
0
 62
7
  6
CONTINUOUS
370
-3
390
F
  0
LAYER
  5
207
100
AcDbSymbolTableRecord
100
AcDbLayerTableRecord
  2
03___PRT_ALL_CURVES
 70
0
 62
7
  6
CONTINUOUS
370
-3
390
F
  0
LAYER
  5
208
100
AcDbSymbolTableRecord
100
AcDbLayerTableRecord
  2
04_ALL_DTM_PNT
 70
0
 62
7
  6
CONTINUOUS
370
-3
390
F
  0
LAYER
  5
209
100
AcDbSymbolTableRecord
100
AcDbLayerTableRecord
  2
04__ASM_ALL_DTM_PNT
 70
0
 62
7
  6
CONTINUOUS
370
-3
390
F
  0
LAYER
  5
20A
100
AcDbSymbolTableRecord
100
AcDbLayerTableRecord
  2
04___PRT_ALL_DTM_PNT
 70
0
 62
7
  6
CONTINUOUS
370
-3
390
F
  0
LAYER
  5
20B
100
AcDbSymbolTableRecord
100
AcDbLayerTableRecord
  2
05_ALL_DTM_CSYS
 70
0
 62
7
  6
CONTINUOUS
370
-3
390
F
  0
LAYER
  5
20C
100
AcDbSymbolTableRecord
100
AcDbLayerTableRecord
  2
05__ASM_ALL_DTM_CSYS
 70
0
 62
7
  6
CONTINUOUS
370
-3
390
F
  0
LAYER
  5
20D
100
AcDbSymbolTableRecord
100
AcDbLayerTableRecord
  2
05__ASM_DEF_DTM_CSYS
 70
0
 62
7
  6
CONTINUOUS
370
-3
390
F
  0
LAYER
  5
20E
100
AcDbSymbolTableRecord
100
AcDbLayerTableRecord
  2
05___PRT_ALL_DTM_CSYS
 70
0
 62
7
  6
CONTINUOUS
370
-3
390
F
  0
LAYER
  5
20F
100
AcDbSymbolTableRecord
100
AcDbLayerTableRecord
  2
05___PRT_DEF_DTM_CSYS
 70
0
 62
7
  6
CONTINUOUS
370
-3
390
F
  0
LAYER
  5
210
100
AcDbSymbolTableRecord
100
AcDbLayerTableRecord
  2
06_ALL_SURFS
 70
0
 62
7
  6
CONTINUOUS
370
-3
390
F
  0
LAYER
  5
211
100
AcDbSymbolTableRecord
100
AcDbLayerTableRecord
  2
06__ASM_ALL_SURFS
 70
0
 62
7
  6
CONTINUOUS
370
-3
390
F
  0
LAYER
  5
212
100
AcDbSymbolTableRecord
100
AcDbLayerTableRecord
  2
06___PRT_ALL_SURFS
 70
0
 62
7
  6
CONTINUOUS
370
-3
390
F
  0
LAYER
  5
213
100
AcDbSymbolTableRecord
100
AcDbLayerTableRecord
  2
07__ASM_ALL_SKELETONS
 70
0
 62
7
  6
CONTINUOUS
370
-3
390
F
  0
LAYER
  5
214
100
AcDbSymbolTableRecord
100
AcDbLayerTableRecord
  2
128-002_FEATURES
 70
0
 62
7
  6
CONTINUOUS
370
-3
390
F
  0
LAYER
  5
215
100
AcDbSymbolTableRecord
100
AcDbLayerTableRecord
  2
128-002_REF_GEOMETRY
 70
0
 62
7
  6
CONTINUOUS
370
-3
390
F
  0
LAYER
  5
216
100
AcDbSymbolTableRecord
100
AcDbLayerTableRecord
  2
128-003_FEATURES
 70
0
 62
7
  6
CONTINUOUS
370
-3
390
F
  0
LAYER
  5
217
100
AcDbSymbolTableRecord
100
AcDbLayerTableRecord
  2
128-003_REF_GEOMETRY
 70
0
 62
7
  6
CONTINUOUS
370
-3
390
F
  0
LAYER
  5
218
100
AcDbSymbolTableRecord
100
AcDbLayerTableRecord
  2
128-016_FEATURES
 70
0
 62
7
  6
CONTINUOUS
370
-3
390
F
  0
LAYER
  5
219
100
AcDbSymbolTableRecord
100
AcDbLayerTableRecord
  2
128-016_REF_GEOMETRY
 70
0
 62
7
  6
CONTINUOUS
370
-3
390
F
  0
LAYER
  5
21A
100
AcDbSymbolTableRecord
100
AcDbLayerTableRecord
  2
128-100_FEATURES
 70
0
 62
7
  6
CONTINUOUS
370
-3
390
F
  0
LAYER
  5
21B
100
AcDbSymbolTableRecord
100
AcDbLayerTableRecord
  2
128-100_REF_GEOMETRY
 70
0
 62
7
  6
CONTINUOUS
370
-3
390
F
  0
LAYER
  5
21C
100
AcDbSymbolTableRecord
100
AcDbLayerTableRecord
  2
128-101_FEATURES
 70
0
 62
7
  6
CONTINUOUS
370
-3
390
F
  0
LAYER
  5
21D
100
AcDbSymbolTableRecord
100
AcDbLayerTableRecord
  2
128-101_REF_GEOMETRY
 70
0
 62
7
  6
CONTINUOUS
370
-3
390
F
  0
LAYER
  5
21E
100
AcDbSymbolTableRecord
100
AcDbLayerTableRecord
  2
128-102_FEATURES
 70
0
 62
7
  6
CONTINUOUS
370
-3
390
F
  0
LAYER
  5
21F
100
AcDbSymbolTableRecord
100
AcDbLayerTableRecord
  2
128-102_REF_GEOMETRY
 70
0
 62
7
  6
CONTINUOUS
370
-3
390
F
  0
LAYER
  5
220
100
AcDbSymbolTableRecord
100
AcDbLayerTableRecord
  2
128-103_FEATURES
 70
0
 62
7
  6
CONTINUOUS
370
-3
390
F
  0
LAYER
  5
221
100
AcDbSymbolTableRecord
100
AcDbLayerTableRecord
  2
128-103_REF_GEOMETRY
 70
0
 62
7
  6
CONTINUOUS
370
-3
390
F
  0
LAYER
  5
222
100
AcDbSymbolTableRecord
100
AcDbLayerTableRecord
  2
128-104_FEATURES
 70
0
 62
7
  6
CONTINUOUS
370
-3
390
F
  0
LAYER
  5
223
100
AcDbSymbolTableRecord
100
AcDbLayerTableRecord
  2
128-104_REF_GEOMETRY
 70
0
 62
7
  6
CONTINUOUS
370
-3
390
F
  0
LAYER
  5
224
100
AcDbSymbolTableRecord
100
AcDbLayerTableRecord
  2
COPY_GEO_FET
 70
0
 62
7
  6
CONTINUOUS
370
-3
390
F
  0
LAYER
  5
225
100
AcDbSymbolTableRecord
100
AcDbLayerTableRecord
  2
COSMETIC
 70
0
 62
7
  6
CONTINUOUS
370
-3
390
F
  0
LAYER
  5
226
100
AcDbSymbolTableRecord
100
AcDbLayerTableRecord
  2
CURVES
 70
0
 62
7
  6
CONTINUOUS
370
-3
390
F
  0
LAYER
  5
227
100
AcDbSymbolTableRecord
100
AcDbLayerTableRecord
  2
CUT_REF_SURF
 70
0
 62
7
  6
CONTINUOUS
370
-3
390
F
  0
LAYER
  5
228
100
AcDbSymbolTableRecord
100
AcDbLayerTableRecord
  2
DATUM
 70
0
 62
7
  6
CONTINUOUS
370
-3
390
F
  0
LAYER
  5
229
100
AcDbSymbolTableRecord
100
AcDbLayerTableRecord
  2
DATUMCURVES
 70
0
 62
7
  6
CONTINUOUS
370
-3
390
F
  0
LAYER
  5
22A
100
AcDbSymbolTableRecord
100
AcDbLayerTableRecord
  2
DIMENSIONS
 70
0
 62
7
  6
CONTINUOUS
370
-3
390
F
  0
LAYER
  5
22B
100
AcDbSymbolTableRecord
100
AcDbLayerTableRecord
  2
DTM
 70
0
 62
7
  6
CONTINUOUS
370
-3
390
F
  0
LAYER
  5
22C
100
AcDbSymbolTableRecord
100
AcDbLayerTableRecord
  2
DTM230
 70
0
 62
7
  6
CONTINUOUS
370
-3
390
F
  0
LAYER
  5
22D
100
AcDbSymbolTableRecord
100
AcDbLayerTableRecord
  2
DTM_500001
 70
0
 62
7
  6
CONTINUOUS
370
-3
390
F
  0
LAYER
  5
22E
100
AcDbSymbolTableRecord
100
AcDbLayerTableRecord
  2
DTM_500002
 70
0
 62
7
  6
CONTINUOUS
370
-3
390
F
  0
LAYER
  5
22F
100
AcDbSymbolTableRecord
100
AcDbLayerTableRecord
  2
DTM_515002
 70
0
 62
7
  6
CONTINUOUS
370
-3
390
F
  0
LAYER
  5
230
100
AcDbSymbolTableRecord
100
AcDbLayerTableRecord
  2
DTM_SPRING_RH
 70
0
 62
7
  6
CONTINUOUS
370
-3
390
F
  0
LAYER
  5
231
100
AcDbSymbolTableRecord
100
AcDbLayerTableRecord
  2
DTM_SP_RH_CONSTR
 70
0
 62
7
  6
CONTINUOUS
370
-3
390
F
  0
LAYER
  5
232
100
AcDbSymbolTableRecord
100
AcDbLayerTableRecord
  2
GEOMETRICTOLERANCES
 70
0
 62
7
  6
CONTINUOUS
370
-3
390
F
  0
LAYER
  5
233
100
AcDbSymbolTableRecord
100
AcDbLayerTableRecord
  2
PARAMETERDIMENSIONS
 70
0
 62
7
  6
CONTINUOUS
370
-3
390
F
  0
LAYER
  5
234
100
AcDbSymbolTableRecord
100
AcDbLayerTableRecord
  2
PLANE
 70
0
 62
7
  6
CONTINUOUS
370
-3
390
F
  0
LAYER
  5
235
100
AcDbSymbolTableRecord
100
AcDbLayerTableRecord
  2
T-8A_CAVITY-INCH
 70
0
 62
7
  6
CONTINUOUS
370
-3
390
F
  0
LAYER
  5
236
100
AcDbSymbolTableRecord
100
AcDbLayerTableRecord
  2
T-8A_CAVITY_REF_GEOMETRY
 70
0
 62
7
  6
CONTINUOUS
370
-3
390
F
  0
LAYER
  5
237
100
AcDbSymbolTableRecord
100
AcDbLayerTableRecord
  2
TEXT
 70
0
 62
7
  6
CONTINUOUS
370
-3
390
F
  0
LAYER
  5
238
100
AcDbSymbolTableRecord
100
AcDbLayerTableRecord
  2
THREAD
 70
0
 62
7
  6
CONTINUOUS
370
-3
390
F
  0
ENDTAB
  0
TABLE
  2
STYLE
  5
3
100
AcDbSymbolTable
 70
1
  0
STYLE
  5
11
100
AcDbSymbolTableRecord
100
AcDbTextStyleTableRecord
  2
STANDARD
 70
0
 40
0.0
 41
0.8
 50
0.0
 71
0
 42
0.2
  3
txt
  4

  0
ENDTAB
  0
TABLE
  2
VIEW
  5
6
100
AcDbSymbolTable
 70
0
  0
ENDTAB
  0
TABLE
  2
UCS
  5
7
100
AcDbSymbolTable
 70
0
  0
ENDTAB
  0
TABLE
  2
APPID
  5
9
100
AcDbSymbolTable
 70
1
  0
APPID
  5
239
100
AcDbSymbolTableRecord
100
AcDbRegAppTableRecord
  2
ACAD
 70
0
  0
ENDTAB
  0
TABLE
  2
BLOCK_RECORD
  5
1
100
AcDbSymbolTable
 70
0
  0
BLOCK_RECORD
  5
1F
100
AcDbSymbolTableRecord
100
AcDbBlockTableRecord
  2
*MODEL_SPACE
  0
BLOCK_RECORD
  5
1B
100
AcDbSymbolTableRecord
100
AcDbBlockTableRecord
  2
*PAPER_SPACE
  0
ENDTAB
  0
TABLE
  2
DIMSTYLE
  5
A
100
AcDbSymbolTable
 70
1
100
AcDbDimStyleTable
 71
0
  0
DIMSTYLE
105
23A
100
AcDbSymbolTableRecord
100
AcDbDimStyleTableRecord
  2
STANDARD
 70
0
  3

  4

 40
1.0
 41
0.1875
 42
0.0625
 43
0.38
 44
0.18
 45
0.0
 46
0.0
 47
0.01
 48
0.01
140
0.15625
141
0.09
142
0.0
143
25.4
144
1.0
145
0.0
146
1.0
147
0.09
 71
0.0
 72
0.0
 73
1
 74
1
 75
0
 76
0
 77
0
 78
4
170
0
171
2
172
0
173
0
174
0
175
0
176
0
177
0
178
0
270
2
271
2
272
2
273
2
274
2
275
0
280
0
281
0
282
0
283
1
284
4
285
0
286
0
287
3
288
0
340
11
  0
ENDTAB
  0
ENDSEC
  0
SECTION
  2
BLOCKS
  0
BLOCK
  5
20
100
AcDbEntity
  8
0
100
AcDbBlockBegin
  2
*MODEL_SPACE
 70
0
 10
0.0
 20
0.0
 30
0.0
  3
*MODEL_SPACE
  1

  0
ENDBLK
  5
21
100
AcDbEntity
  8
0
100
AcDbBlockEnd
  0
BLOCK
  5
1C
100
AcDbEntity
  8
0
100
AcDbBlockBegin
  2
*PAPER_SPACE
 70
0
 10
0.0
 20
0.0
 30
0.0
  3
*PAPER_SPACE
  1

  0
ENDBLK
  5
1D
100
AcDbEntity
  8
0
100
AcDbBlockEnd
  0
ENDSEC
  0
SECTION
  2
ENTITIES
  0
LINE
  5
23B
100
AcDbEntity
  8
03__ASM_ALL_CURVES
100
AcDbLine
 62
40
  6
CONTINUOUS
 10
3.8674530663
 20
5.3990965176
 11
3.8727765038
 21
5.4132923476
  0
LINE
  5
23C
100
AcDbEntity
  8
03__ASM_ALL_CURVES
100
AcDbLine
 62
40
  6
CONTINUOUS
 10
3.9100405663
 20
5.3707048501
 11
3.9047171288
 21
5.3565090164
  0
LINE
  5
23D
100
AcDbEntity
  8
03__ASM_ALL_CURVES
100
AcDbLine
 62
40
  6
CONTINUOUS
 10
3.8727765038
 20
5.4132923476
 11
3.8780999413
 21
5.4203902676
  0
LINE
  5
23E
100
AcDbEntity
  8
03__ASM_ALL_CURVES
100
AcDbLine
 62
40
  6
CONTINUOUS
 10
3.9047171288
 20
5.3565090164
 11
3.8993936913
 21
5.3494110995
  0
LINE
  5
23F
100
AcDbEntity
  8
0
100
AcDbLine
 62
7
  6
CONTINUOUS
 10
3.8301218163
 20
3.7196791826
 11
3.8301218163
 21
4.9596791826
  0
LINE
  5
240
100
AcDbEntity
  8
03__ASM_ALL_CURVES
100
AcDbLine
 62
40
  6
CONTINUOUS
 10
3.8301218163
 20
4.9596791826
 11
3.8301218163
 21
5.3423131826
  0
LINE
  5
241
100
AcDbEntity
  8
03__ASM_ALL_CURVES
100
AcDbLine
 62
40
  6
CONTINUOUS
 10
4.0378030663
 20
5.3990965176
 11
4.0431265038
 21
5.4132923476
  0
LINE
  5
242
100
AcDbEntity
  8
03__ASM_ALL_CURVES
100
AcDbLine
 62
40
  6
CONTINUOUS
 10
4.0803905663
 20
5.3990965176
 11
4.0750671288
 21
5.3849006826
  0
LINE
  5
243
100
AcDbEntity
  8
03__ASM_ALL_CURVES
100
AcDbLine
 62
40
  6
CONTINUOUS
 10
4.0803905663
 20
5.3707048501
 11
4.0750671288
 21
5.3565090164
  0
LINE
  5
244
100
AcDbEntity
  8
03__ASM_ALL_CURVES
100
AcDbLine
 62
40
  6
CONTINUOUS
 10
4.1229780663
 20
5.3990965176
 11
4.1283015038
 21
5.4132923476
  0
LINE
  5
245
100
AcDbEntity
  8
0
100
AcDbLine
 62
7
  6
CONTINUOUS
 10
3.8815059903
 20
5.0486791826
 11
3.8301218163
 21
4.9596791826
  0
LINE
  5
246
100
AcDbEntity
  8
03__ASM_ALL_CURVES
100
AcDbLine
 62
40
  6
CONTINUOUS
 10
4.0431265038
 20
5.4132923476
 11
4.0484499413
 21
5.4203902676
  0
LINE
  5
247
100
AcDbEntity
  8
03__ASM_ALL_CURVES
100
AcDbLine
 62
40
  6
CONTINUOUS
 10
4.0750671288
 20
5.3565090164
 11
4.0697436913
 21
5.3494110995
  0
LINE
  5
248
100
AcDbEntity
  8
03__ASM_ALL_CURVES
100
AcDbLine
 62
40
  6
CONTINUOUS
 10
4.1283015038
 20
5.4132923476
 11
4.1336249413
 21
5.4203902676
  0
LINE
  5
249
100
AcDbEntity
  8
03__ASM_ALL_CURVES
100
AcDbLine
 62
40
  6
CONTINUOUS
 10
4.1602421288
 20
5.3565090164
 11
4.1549186913
 21
5.3494110995
  0
LINE
  5
24A
100
AcDbEntity
  8
03__ASM_ALL_CURVES
100
AcDbLine
 62
40
  6
CONTINUOUS
 10
3.8780999413
 20
5.4203902676
 11
3.8887468163
 21
5.4274881826
  0
LINE
  5
24B
100
AcDbEntity
  8
0
100
AcDbLine
 62
7
  6
CONTINUOUS
 10
3.8815059903
 20
3.6306791826
 11
3.8301218163
 21
3.7196791826
  0
LINE
  5
24C
100
AcDbEntity
  8
03__ASM_ALL_CURVES
100
AcDbLine
 62
40
  6
CONTINUOUS
 10
3.8674530663
 20
5.3707048501
 11
3.8674530663
 21
5.3990965176
  0
LINE
  5
24D
100
AcDbEntity
  8
0
100
AcDbLine
 62
7
  6
CONTINUOUS
 10
3.8815059903
 20
3.6306791826
 11
3.8815059903
 21
3.6310401837
  0
LINE
  5
24E
100
AcDbEntity
  8
0
100
AcDbLine
 62
7
  6
CONTINUOUS
 10
3.8815059903
 20
3.9657681815
 11
3.8815059903
 21
4.0049511848
  0
LINE
  5
24F
100
AcDbEntity
  8
0
100
AcDbLine
 62
7
  6
CONTINUOUS
 10
3.8815059903
 20
4.6744071804
 11
3.8815059903
 21
4.7135901837
  0
LINE
  5
250
100
AcDbEntity
  8
0
100
AcDbLine
 62
7
  6
CONTINUOUS
 10
3.8815059903
 20
5.0483181815
 11
3.8815059903
 21
5.0486791826
  0
LINE
  5
251
100
AcDbEntity
  8
03__ASM_ALL_CURVES
100
AcDbLine
 62
40
  6
CONTINUOUS
 10
3.9100405663
 20
5.3990965176
 11
3.9100405663
 21
5.3707048501
  0
LINE
  5
252
100
AcDbEntity
  8
03__ASM_ALL_CURVES
100
AcDbLine
 62
40
  6
CONTINUOUS
 10
3.9323318163
 20
5.3252781826
 11
3.9323318163
 21
5.2912081826
  0
LINE
  5
253
100
AcDbEntity
  8
03__ASM_ALL_CURVES
100
AcDbLine
 62
40
  6
CONTINUOUS
 10
3.9685983788
 20
5.3423131826
 11
3.9685983788
 21
5.3494110995
  0
LINE
  5
254
100
AcDbEntity
  8
03__ASM_ALL_CURVES
100
AcDbLine
 62
40
  6
CONTINUOUS
 10
4.2241233788
 20
5.4132923476
 11
4.2187999413
 21
5.3919985976
  0
LINE
  5
255
100
AcDbEntity
  8
03__ASM_ALL_CURVES
100
AcDbLine
 62
40
  6
CONTINUOUS
 10
4.1229780663
 20
5.3707048501
 11
4.1283015038
 21
5.3849006826
  0
LINE
  5
256
100
AcDbEntity
  8
03__ASM_ALL_CURVES
100
AcDbLine
 62
40
  6
CONTINUOUS
 10
4.1655655663
 20
5.3707048501
 11
4.1602421288
 21
5.3565090164
  0
LINE
  5
257
100
AcDbEntity
  8
03__ASM_ALL_CURVES
100
AcDbLine
 62
40
  6
CONTINUOUS
 10
4.2347702538
 20
5.4274881826
 11
4.2241233788
 21
5.4132923476
  0
LINE
  5
258
100
AcDbEntity
  8
03__ASM_ALL_CURVES
100
AcDbLine
 62
40
  6
CONTINUOUS
 10
4.2933280663
 20
5.4132923476
 11
4.2986515038
 21
5.4203902676
  0
LINE
  5
259
100
AcDbEntity
  8
03__ASM_ALL_CURVES
100
AcDbLine
 62
40
  6
CONTINUOUS
 10
4.3092983788
 20
5.3778027651
 11
4.2986515038
 21
5.3636069326
  0
LINE
  5
25A
100
AcDbEntity
  8
03__ASM_ALL_CURVES
100
AcDbLine
 62
40
  6
CONTINUOUS
 10
4.3359155663
 20
5.3990965176
 11
4.3305921288
 21
5.3919985976
  0
LINE
  5
25B
100
AcDbEntity
  8
03__ASM_ALL_CURVES
100
AcDbLine
 62
40
  6
CONTINUOUS
 10
3.8993936913
 20
5.3494110995
 11
3.8887468163
 21
5.3423131826
  0
LINE
  5
25C
100
AcDbEntity
  8
03__ASM_ALL_CURVES
100
AcDbLine
 62
40
  6
CONTINUOUS
 10
4.0484499413
 20
5.4203902676
 11
4.0590968163
 21
5.4274881826
  0
LINE
  5
25D
100
AcDbEntity
  8
03__ASM_ALL_CURVES
100
AcDbLine
 62
40
  6
CONTINUOUS
 10
4.1336249413
 20
5.4203902676
 11
4.1442718163
 21
5.4274881826
  0
LINE
  5
25E
100
AcDbEntity
  8
03__ASM_ALL_CURVES
100
AcDbLine
 62
40
  6
CONTINUOUS
 10
4.0697436913
 20
5.3494110995
 11
4.0590968163
 21
5.3423131826
  0
LINE
  5
25F
100
AcDbEntity
  8
03__ASM_ALL_CURVES
100
AcDbLine
 62
40
  6
CONTINUOUS
 10
4.0803905663
 20
5.3990965176
 11
4.0803905663
 21
5.3707048501
  0
LINE
  5
260
100
AcDbEntity
  8
03__ASM_ALL_CURVES
100
AcDbLine
 62
40
  6
CONTINUOUS
 10
4.1229780663
 20
5.3707048501
 11
4.1229780663
 21
5.3990965176
  0
LINE
  5
261
100
AcDbEntity
  8
03__ASM_ALL_CURVES
100
AcDbLine
 62
40
  6
CONTINUOUS
 10
4.2986515038
 20
5.3636069326
 11
4.2933280663
 21
5.3423131826
  0
LINE
  5
262
100
AcDbEntity
  8
03__ASM_ALL_CURVES
100
AcDbLine
 62
40
  6
CONTINUOUS
 10
4.4157671288
 20
5.4274881826
 11
4.3785030663
 21
5.3636069326
  0
LINE
  5
263
100
AcDbEntity
  8
03__ASM_ALL_CURVES
100
AcDbLine
 62
40
  6
CONTINUOUS
 10
4.1549186913
 20
5.3494110995
 11
4.1442718163
 21
5.3423131826
  0
LINE
  5
264
100
AcDbEntity
  8
03__ASM_ALL_CURVES
100
AcDbLine
 62
40
  6
CONTINUOUS
 10
4.2986515038
 20
5.4203902676
 11
4.3092983788
 21
5.4274881826
  0
LINE
  5
265
100
AcDbEntity
  8
03__ASM_ALL_CURVES
100
AcDbLine
 62
40
  6
CONTINUOUS
 10
4.3305921288
 20
5.3919985976
 11
4.3092983788
 21
5.3778027651
  0
LINE
  5
266
100
AcDbEntity
  8
03__ASM_ALL_CURVES
100
AcDbLine
 62
40
  6
CONTINUOUS
 10
4.0750671288
 20
5.3849006826
 11
4.0590968163
 21
5.3778027651
  0
LINE
  5
267
100
AcDbEntity
  8
03__ASM_ALL_CURVES
100
AcDbLine
 62
40
  6
CONTINUOUS
 10
4.1283015038
 20
5.3849006826
 11
4.1442718163
 21
5.3919985976
  0
LINE
  5
268
100
AcDbEntity
  8
03__ASM_ALL_CURVES
100
AcDbLine
 62
40
  6
CONTINUOUS
 10
4.2187999413
 20
5.3919985976
 11
4.2187999413
 21
5.3778027651
  0
LINE
  5
269
100
AcDbEntity
  8
03__ASM_ALL_CURVES
100
AcDbLine
 62
40
  6
CONTINUOUS
 10
4.5914405663
 20
5.4061944326
 11
4.5861171288
 21
5.3990965176
  0
LINE
  5
26A
100
AcDbEntity
  8
03__ASM_ALL_CURVES
100
AcDbLine
 62
40
  6
CONTINUOUS
 10
4.5967640038
 20
5.3636069326
 11
4.5861171288
 21
5.3494110995
  0
LINE
  5
26B
100
AcDbEntity
  8
03__ASM_ALL_CURVES
100
AcDbLine
 62
40
  6
CONTINUOUS
 10
4.6340280663
 20
5.4132923476
 11
4.6393515038
 21
5.4203902676
  0
LINE
  5
26C
100
AcDbEntity
  8
03__ASM_ALL_CURVES
100
AcDbLine
 62
40
  6
CONTINUOUS
 10
4.6287046288
 20
5.3707048501
 11
4.6393515038
 21
5.3849006826
  0
LINE
  5
26D
100
AcDbEntity
  8
03__ASM_ALL_CURVES
100
AcDbLine
 62
40
  6
CONTINUOUS
 10
4.6766155663
 20
5.4061944326
 11
4.6712921288
 21
5.3990965176
  0
LINE
  5
26E
100
AcDbEntity
  8
03__ASM_ALL_CURVES
100
AcDbLine
 62
40
  6
CONTINUOUS
 10
4.6819390038
 20
5.3636069326
 11
4.6712921288
 21
5.3494110995
  0
LINE
  5
26F
100
AcDbEntity
  8
03__ASM_ALL_CURVES
100
AcDbLine
 62
40
  6
CONTINUOUS
 10
4.5541765038
 20
5.4203902676
 11
4.5648233788
 21
5.4274881826
  0
LINE
  5
270
100
AcDbEntity
  8
03__ASM_ALL_CURVES
100
AcDbLine
 62
40
  6
CONTINUOUS
 10
4.5861171288
 20
5.3990965176
 11
4.5754702538
 21
5.3919985976
  0
LINE
  5
271
100
AcDbEntity
  8
03__ASM_ALL_CURVES
100
AcDbLine
 62
40
  6
CONTINUOUS
 10
4.6393515038
 20
5.4203902676
 11
4.6499983788
 21
5.4274881826
  0
LINE
  5
272
100
AcDbEntity
  8
03__ASM_ALL_CURVES
100
AcDbLine
 62
40
  6
CONTINUOUS
 10
4.5861171288
 20
5.3494110995
 11
4.5754702538
 21
5.3423131826
  0
LINE
  5
273
100
AcDbEntity
  8
03__ASM_ALL_CURVES
100
AcDbLine
 62
40
  6
CONTINUOUS
 10
4.6393515038
 20
5.3849006826
 11
4.6499983788
 21
5.3919985976
  0
LINE
  5
274
100
AcDbEntity
  8
03__ASM_ALL_CURVES
100
AcDbLine
 62
40
  6
CONTINUOUS
 10
4.6712921288
 20
5.3990965176
 11
4.6606452538
 21
5.3919985976
  0
LINE
  5
275
100
AcDbEntity
  8
03__ASM_ALL_CURVES
100
AcDbLine
 62
40
  6
CONTINUOUS
 10
4.6712921288
 20
5.3494110995
 11
4.6606452538
 21
5.3423131826
  0
LINE
  5
276
100
AcDbEntity
  8
03__ASM_ALL_CURVES
100
AcDbLine
 62
40
  6
CONTINUOUS
 10
4.3359155663
 20
5.4132923476
 11
4.3359155663
 21
5.3990965176
  0
LINE
  5
277
100
AcDbEntity
  8
03__ASM_ALL_CURVES
100
AcDbLine
 62
40
  6
CONTINUOUS
 10
4.4157671288
 20
5.3423131826
 11
4.4157671288
 21
5.4274881826
  0
LINE
  5
278
100
AcDbEntity
  8
0
100
AcDbLine
 62
7
  6
CONTINUOUS
 10
4.6161218163
 20
5.1191791826
 11
4.5754186223
 21
5.0486791826
  0
LINE
  5
279
100
AcDbEntity
  8
03__ASM_ALL_CURVES
100
AcDbLine
 62
40
  6
CONTINUOUS
 10
4.7458202538
 20
5.3565090164
 11
4.7351733788
 21
5.3423131826
  0
LINE
  5
27A
100
AcDbEntity
  8
03__ASM_ALL_CURVES
100
AcDbLine
 62
40
  6
CONTINUOUS
 10
5.0259002538
 20
5.4203902676
 11
5.0365471288
 21
5.4274881826
  0
LINE
  5
27B
100
AcDbEntity
  8
0
100
AcDbLine
 62
7
  6
CONTINUOUS
 10
4.6161218163
 20
3.5601791826
 11
4.5754186223
 21
3.6306791826
  0
LINE
  5
27C
100
AcDbEntity
  8
03__ASM_ALL_CURVES
100
AcDbLine
 62
40
  6
CONTINUOUS
 10
3.8727765038
 20
5.3565090164
 11
3.8674530663
 21
5.3707048501
  0
LINE
  5
27D
100
AcDbEntity
  8
03__ASM_ALL_CURVES
100
AcDbLine
 62
40
  6
CONTINUOUS
 10
3.9047171288
 20
5.4132923476
 11
3.9100405663
 21
5.3990965176
  0
LINE
  5
27E
100
AcDbEntity
  8
03__ASM_ALL_CURVES
100
AcDbLine
 62
40
  6
CONTINUOUS
 10
4.4796483788
 20
5.3423131826
 11
4.4796483788
 21
5.3494110995
  0
LINE
  5
27F
100
AcDbEntity
  8
0
100
AcDbLine
 62
7
  6
CONTINUOUS
 10
4.5754186223
 20
3.6306791826
 11
4.5754186223
 21
5.0486791826
  0
LINE
  5
280
100
AcDbEntity
  8
03__ASM_ALL_CURVES
100
AcDbLine
 62
40
  6
CONTINUOUS
 10
4.5914405663
 20
5.4132923476
 11
4.5914405663
 21
5.4061944326
  0
LINE
  5
281
100
AcDbEntity
  8
03__ASM_ALL_CURVES
100
AcDbLine
 62
40
  6
CONTINUOUS
 10
4.5967640038
 20
5.3707048501
 11
4.5967640038
 21
5.3636069326
  0
LINE
  5
282
100
AcDbEntity
  8
03__ASM_ALL_CURVES
100
AcDbLine
 62
40
  6
CONTINUOUS
 10
4.7511436913
 20
5.3778027651
 11
4.7458202538
 21
5.3565090164
  0
LINE
  5
283
100
AcDbEntity
  8
03__ASM_ALL_CURVES
100
AcDbLine
 62
40
  6
CONTINUOUS
 10
5.0152533788
 20
5.4061944326
 11
5.0259002538
 21
5.4203902676
  0
LINE
  5
284
100
AcDbEntity
  8
03__ASM_ALL_CURVES
100
AcDbLine
 62
40
  6
CONTINUOUS
 10
5.0684877538
 20
5.3636069326
 11
5.0578408788
 21
5.3494110995
  0
LINE
  5
285
100
AcDbEntity
  8
03__ASM_ALL_CURVES
100
AcDbLine
 62
40
  6
CONTINUOUS
 10
5.1004283788
 20
5.4061944326
 11
5.1110752538
 21
5.4203902676
  0
LINE
  5
286
100
AcDbEntity
  8
03__ASM_ALL_CURVES
100
AcDbLine
 62
40
  6
CONTINUOUS
 10
5.1110752538
 20
5.4203902676
 11
5.1217221288
 21
5.4274881826
  0
LINE
  5
287
100
AcDbEntity
  8
03__ASM_ALL_CURVES
100
AcDbLine
 62
40
  6
CONTINUOUS
 10
5.0578408788
 20
5.3494110995
 11
5.0471940038
 21
5.3423131826
  0
LINE
  5
288
100
AcDbEntity
  8
03__ASM_ALL_CURVES
100
AcDbLine
 62
40
  6
CONTINUOUS
 10
5.1430158788
 20
5.3494110995
 11
5.1323690038
 21
5.3423131826
  0
LINE
  5
289
100
AcDbEntity
  8
03__ASM_ALL_CURVES
100
AcDbLine
 62
40
  6
CONTINUOUS
 10
4.0431265038
 20
5.3849006826
 11
4.0378030663
 21
5.3990965176
  0
LINE
  5
28A
100
AcDbEntity
  8
03__ASM_ALL_CURVES
100
AcDbLine
 62
40
  6
CONTINUOUS
 10
4.0750671288
 20
5.4132923476
 11
4.0803905663
 21
5.3990965176
  0
LINE
  5
28B
100
AcDbEntity
  8
03__ASM_ALL_CURVES
100
AcDbLine
 62
40
  6
CONTINUOUS
 10
4.2187999413
 20
5.3778027651
 11
4.2241233788
 21
5.3565090164
  0
LINE
  5
28C
100
AcDbEntity
  8
0
100
AcDbLine
 62
7
  6
CONTINUOUS
 10
4.6161218163
 20
3.5601791826
 11
4.6161218163
 21
5.1191791826
  0
LINE
  5
28D
100
AcDbEntity
  8
03__ASM_ALL_CURVES
100
AcDbLine
 62
40
  6
CONTINUOUS
 10
4.6287046288
 20
5.3636069326
 11
4.6287046288
 21
5.3707048501
  0
LINE
  5
28E
100
AcDbEntity
  8
03__ASM_ALL_CURVES
100
AcDbLine
 62
40
  6
CONTINUOUS
 10
4.6340280663
 20
5.4061944326
 11
4.6340280663
 21
5.4132923476
  0
LINE
  5
28F
100
AcDbEntity
  8
03__ASM_ALL_CURVES
100
AcDbLine
 62
40
  6
CONTINUOUS
 10
4.6766155663
 20
5.4132923476
 11
4.6766155663
 21
5.4061944326
  0
LINE
  5
290
100
AcDbEntity
  8
03__ASM_ALL_CURVES
100
AcDbLine
 62
40
  6
CONTINUOUS
 10
4.6819390038
 20
5.3707048501
 11
4.6819390038
 21
5.3636069326
  0
LINE
  5
291
100
AcDbEntity
  8
03__ASM_ALL_CURVES
100
AcDbLine
 62
40
  6
CONTINUOUS
 10
4.6969118163
 20
5.3252781826
 11
4.6969118163
 21
5.2912081826
  0
LINE
  5
292
100
AcDbEntity
  8
03__ASM_ALL_CURVES
100
AcDbLine
 62
40
  6
CONTINUOUS
 10
4.7511436913
 20
5.3919985976
 11
4.7511436913
 21
5.3778027651
  0
LINE
  5
293
100
AcDbEntity
  8
03__ASM_ALL_CURVES
100
AcDbLine
 62
40
  6
CONTINUOUS
 10
5.1483393163
 20
5.3565090164
 11
5.1430158788
 21
5.3494110995
  0
LINE
  5
294
100
AcDbEntity
  8
03__ASM_ALL_CURVES
100
AcDbLine
 62
40
  6
CONTINUOUS
 10
5.5369502538
 20
5.4203902676
 11
5.5475971288
 21
5.4274881826
  0
LINE
  5
295
100
AcDbEntity
  8
03__ASM_ALL_CURVES
100
AcDbLine
 62
40
  6
CONTINUOUS
 10
6.4749102767
 20
3.1468466826
 11
6.4429696517
 21
3.1468466826
  0
LINE
  5
296
100
AcDbEntity
  8
03__ASM_ALL_CURVES
100
AcDbLine
 62
40
  6
CONTINUOUS
 10
6.2712887923
 20
3.1468466826
 11
6.2633036361
 21
3.1468466826
  0
LINE
  5
297
100
AcDbEntity
  8
03__ASM_ALL_CURVES
100
AcDbLine
 62
40
  6
CONTINUOUS
 10
6.2074075423
 20
3.1468466826
 11
6.1994223861
 21
3.1468466826
  0
LINE
  5
298
100
AcDbEntity
  8
03__ASM_ALL_CURVES
100
AcDbLine
 62
40
  6
CONTINUOUS
 10
6.3790884017
 20
3.1468466826
 11
6.4110290267
 21
3.1468466826
  0
LINE
  5
299
100
AcDbEntity
  8
03__ASM_ALL_CURVES
100
AcDbLine
 62
40
  6
CONTINUOUS
 10
6.4429696517
 20
3.1787873076
 11
6.4629325423
 21
3.1787873076
  0
LINE
  5
29A
100
AcDbEntity
  8
03__ASM_ALL_CURVES
100
AcDbLine
 62
40
  6
CONTINUOUS
 10
6.1994223861
 20
3.2107279326
 11
6.2074075423
 21
3.2107279326
  0
LINE
  5
29B
100
AcDbEntity
  8
03__ASM_ALL_CURVES
100
AcDbLine
 62
40
  6
CONTINUOUS
 10
6.3112145736
 20
3.2107279326
 11
6.3511403548
 21
3.2107279326
  0
LINE
  5
29C
100
AcDbEntity
  8
03__ASM_ALL_CURVES
100
AcDbLine
 62
40
  6
CONTINUOUS
 10
6.4429696517
 20
3.2107279326
 11
6.4749102767
 21
3.2107279326
  0
LINE
  5
29D
100
AcDbEntity
  8
03__ASM_ALL_CURVES
100
AcDbLine
 62
40
  6
CONTINUOUS
 10
6.5028583236
 20
3.2107279326
 11
6.5427841048
 21
3.2107279326
  0
LINE
  5
29E
100
AcDbEntity
  8
03__ASM_ALL_CURVES
100
AcDbLine
 62
40
  6
CONTINUOUS
 10
4.1283015038
 20
5.3565090164
 11
4.1229780663
 21
5.3707048501
  0
LINE
  5
29F
100
AcDbEntity
  8
03__ASM_ALL_CURVES
100
AcDbLine
 62
40
  6
CONTINUOUS
 10
4.1602421288
 20
5.3849006826
 11
4.1655655663
 21
5.3707048501
  0
LINE
  5
2A0
100
AcDbEntity
  8
0
100
AcDbLine
 62
7
  6
CONTINUOUS
 10
4.7991218163
 20
3.5601791826
 11
4.7991218163
 21
5.1191791826
  0
LINE
  5
2A1
100
AcDbEntity
  8
03__ASM_ALL_CURVES
100
AcDbLine
 62
40
  6
CONTINUOUS
 10
4.7991218163
 20
5.1362141826
 11
4.7991218163
 21
5.3423131826
  0
LINE
  5
2A2
100
AcDbEntity
  8
THREAD
100
AcDbLine
 62
7
  6
CONTINUOUS
 10
4.8461218163
 20
3.6221791826
 11
4.8461218163
 21
5.0571791826
  0
LINE
  5
2A3
100
AcDbEntity
  8
03__ASM_ALL_CURVES
100
AcDbLine
 62
40
  6
CONTINUOUS
 10
4.9013318163
 20
5.3252781826
 11
4.9013318163
 21
5.2912081826
  0
LINE
  5
2A4
100
AcDbEntity
  8
03__ASM_ALL_CURVES
100
AcDbLine
 62
40
  6
CONTINUOUS
 10
5.0099299413
 20
5.3849006826
 11
5.0152533788
 21
5.4061944326
  0
LINE
  5
2A5
100
AcDbEntity
  8
03__ASM_ALL_CURVES
100
AcDbLine
 62
40
  6
CONTINUOUS
 10
5.0738111913
 20
5.3849006826
 11
5.0684877538
 21
5.3636069326
  0
LINE
  5
2A6
100
AcDbEntity
  8
03__ASM_ALL_CURVES
100
AcDbLine
 62
40
  6
CONTINUOUS
 10
5.0951049413
 20
5.3849006826
 11
5.1004283788
 21
5.4061944326
  0
LINE
  5
2A7
100
AcDbEntity
  8
03__ASM_ALL_CURVES
100
AcDbLine
 62
40
  6
CONTINUOUS
 10
5.1856033788
 20
5.3423131826
 11
5.2122205663
 21
5.4274881826
  0
LINE
  5
2A8
100
AcDbEntity
  8
THREAD
100
AcDbLine
 62
7
  6
CONTINUOUS
 10
5.0468346292
 20
5.0411791826
 11
5.0191218163
 21
4.9931791826
  0
LINE
  5
2A9
100
AcDbEntity
  8
03__ASM_ALL_CURVES
100
AcDbLine
 62
40
  6
CONTINUOUS
 10
5.5263033788
 20
5.4061944326
 11
5.5369502538
 21
5.4203902676
  0
LINE
  5
2AA
100
AcDbEntity
  8
03__ASM_ALL_CURVES
100
AcDbLine
 62
40
  6
CONTINUOUS
 10
5.5688908788
 20
5.3494110995
 11
5.5582440038
 21
5.3423131826
  0
LINE
  5
2AB
100
AcDbEntity
  8
03__ASM_ALL_CURVES
100
AcDbLine
 62
40
  6
CONTINUOUS
 10
5.7179471288
 20
5.4274881826
 11
5.7073002538
 21
5.4203902676
  0
LINE
  5
2AC
100
AcDbEntity
  8
03__ASM_ALL_CURVES
100
AcDbLine
 62
40
  6
CONTINUOUS
 10
5.7392408788
 20
5.3494110995
 11
5.7285940038
 21
5.3423131826
  0
LINE
  5
2AD
100
AcDbEntity
  8
03__ASM_ALL_CURVES
100
AcDbLine
 62
40
  6
CONTINUOUS
 10
5.8776502538
 20
5.4203902676
 11
5.8882971288
 21
5.4274881826
  0
LINE
  5
2AE
100
AcDbEntity
  8
03__ASM_ALL_CURVES
100
AcDbLine
 62
40
  6
CONTINUOUS
 10
6.3012331116
 20
3.2447979326
 11
6.2932479553
 21
3.2447979326
  0
LINE
  5
2AF
100
AcDbEntity
  8
03__ASM_ALL_CURVES
100
AcDbLine
 62
40
  6
CONTINUOUS
 10
6.472913971
 20
3.2447979326
 11
6.504854596
 21
3.2447979326
  0
LINE
  5
2B0
100
AcDbEntity
  8
03__ASM_ALL_CURVES
100
AcDbLine
 62
40
  6
CONTINUOUS
 10
6.3651143616
 20
3.2767385576
 11
6.345151471
 21
3.2767385576
  0
LINE
  5
2B1
100
AcDbEntity
  8
03__ASM_ALL_CURVES
100
AcDbLine
 62
40
  6
CONTINUOUS
 10
6.2373518616
 20
3.2767385576
 11
6.217388971
 21
3.2767385576
  0
LINE
  5
2B2
100
AcDbEntity
  8
03__ASM_ALL_CURVES
100
AcDbLine
 62
40
  6
CONTINUOUS
 10
6.217388971
 20
3.3086791826
 11
6.2373518616
 21
3.3086791826
  0
LINE
  5
2B3
100
AcDbEntity
  8
03__ASM_ALL_CURVES
100
AcDbLine
 62
40
  6
CONTINUOUS
 10
6.2932479553
 20
3.3086791826
 11
6.3012331116
 21
3.3086791826
  0
LINE
  5
2B4
100
AcDbEntity
  8
03__ASM_ALL_CURVES
100
AcDbLine
 62
40
  6
CONTINUOUS
 10
6.345151471
 20
3.3086791826
 11
6.3651143616
 21
3.3086791826
  0
LINE
  5
2B5
100
AcDbEntity
  8
03__ASM_ALL_CURVES
100
AcDbLine
 62
40
  6
CONTINUOUS
 10
6.4050401428
 20
3.3086791826
 11
6.4449659241
 21
3.3086791826
  0
LINE
  5
2B6
100
AcDbEntity
  8
03__ASM_ALL_CURVES
100
AcDbLine
 62
40
  6
CONTINUOUS
 10
6.4848917053
 20
3.3086791826
 11
6.4928768616
 21
3.3086791826
  0
LINE
  5
2B7
100
AcDbEntity
  8
03__ASM_ALL_CURVES
100
AcDbLine
 62
40
  6
CONTINUOUS
 10
3.8780999413
 20
5.3494110995
 11
3.8727765038
 21
5.3565090164
  0
LINE
  5
2B8
100
AcDbEntity
  8
THREAD
100
AcDbLine
 62
7
  6
CONTINUOUS
 10
5.0468346292
 20
3.6381791826
 11
5.0191218163
 21
3.6861791826
  0
LINE
  5
2B9
100
AcDbEntity
  8
03__ASM_ALL_CURVES
100
AcDbLine
 62
40
  6
CONTINUOUS
 10
4.9354018163
 20
5.4274881826
 11
4.9354018163
 21
5.3423131826
  0
LINE
  5
2BA
100
AcDbEntity
  8
0
100
AcDbLine
 62
7
  6
CONTINUOUS
 10
4.9491218163
 20
3.6216791826
 11
4.9491218163
 21
5.0576791826
  0
LINE
  5
2BB
100
AcDbEntity
  8
0
100
AcDbLine
 62
7
  6
CONTINUOUS
 10
4.9991218163
 20
3.6216791826
 11
4.9991218163
 21
5.0576791826
  0
LINE
  5
2BC
100
AcDbEntity
  8
0
100
AcDbLine
 62
7
  6
CONTINUOUS
 10
5.0191218163
 20
3.6861791826
 11
5.0191218163
 21
4.9931791826
  0
LINE
  5
2BD
100
AcDbEntity
  8
THREAD
100
AcDbLine
 62
7
  6
CONTINUOUS
 10
5.0468346292
 20
3.6381791826
 11
5.0468346292
 21
5.0411791826
  0
LINE
  5
2BE
100
AcDbEntity
  8
03__ASM_ALL_CURVES
100
AcDbLine
 62
40
  6
CONTINUOUS
 10
5.5742143163
 20
5.3565090164
 11
5.5688908788
 21
5.3494110995
  0
LINE
  5
2BF
100
AcDbEntity
  8
03__ASM_ALL_CURVES
100
AcDbLine
 62
40
  6
CONTINUOUS
 10
5.7073002538
 20
5.4203902676
 11
5.7019768163
 21
5.4132923476
  0
LINE
  5
2C0
100
AcDbEntity
  8
03__ASM_ALL_CURVES
100
AcDbLine
 62
40
  6
CONTINUOUS
 10
5.9095908788
 20
5.3494110995
 11
5.8989440038
 21
5.3423131826
  0
LINE
  5
2C1
100
AcDbEntity
  8
03__ASM_ALL_CURVES
100
AcDbLine
 62
40
  6
CONTINUOUS
 10
5.9947658788
 20
5.3494110995
 11
5.9841190038
 21
5.3423131826
  0
LINE
  5
2C2
100
AcDbEntity
  8
03__ASM_ALL_CURVES
100
AcDbLine
 62
40
  6
CONTINUOUS
 10
3.8993936913
 20
5.4203902676
 11
3.9047171288
 21
5.4132923476
  0
LINE
  5
2C3
100
AcDbEntity
  8
03__ASM_ALL_CURVES
100
AcDbLine
 62
40
  6
CONTINUOUS
 10
3.9685983788
 20
5.3494110995
 11
3.9739218163
 21
5.3423131826
  0
LINE
  5
2C4
100
AcDbEntity
  8
03__ASM_ALL_CURVES
100
AcDbLine
 62
40
  6
CONTINUOUS
 10
4.0484499413
 20
5.3494110995
 11
4.0431265038
 21
5.3565090164
  0
LINE
  5
2C5
100
AcDbEntity
  8
03__ASM_ALL_CURVES
100
AcDbLine
 62
40
  6
CONTINUOUS
 10
4.7458202538
 20
5.4132923476
 11
4.7511436913
 21
5.3919985976
  0
LINE
  5
2C6
100
AcDbEntity
  8
03__ASM_ALL_CURVES
100
AcDbLine
 62
40
  6
CONTINUOUS
 10
5.7445643163
 20
5.3565090164
 11
5.7392408788
 21
5.3494110995
  0
LINE
  5
2C7
100
AcDbEntity
  8
03__ASM_ALL_CURVES
100
AcDbLine
 62
40
  6
CONTINUOUS
 10
5.8670033788
 20
5.4061944326
 11
5.8776502538
 21
5.4203902676
  0
LINE
  5
2C8
100
AcDbEntity
  8
03__ASM_ALL_CURVES
100
AcDbLine
 62
40
  6
CONTINUOUS
 10
6.1597924413
 20
5.3494110995
 11
6.1491455663
 21
5.3423131826
  0
LINE
  5
2C9
100
AcDbEntity
  8
03__ASM_ALL_CURVES
100
AcDbLine
 62
40
  6
CONTINUOUS
 10
6.3354658788
 20
5.3919985976
 11
6.3248190038
 21
5.3849006826
  0
LINE
  5
2CA
100
AcDbEntity
  8
0
100
AcDbLine
 62
7
  6
CONTINUOUS
 10
4.7991218163
 20
3.5601791826
 11
4.6161218163
 21
3.5601791826
  0
LINE
  5
2CB
100
AcDbEntity
  8
0
100
AcDbLine
 62
7
  6
CONTINUOUS
 10
4.9491218163
 20
3.6216791826
 11
4.9991218163
 21
3.6216791826
  0
LINE
  5
2CC
100
AcDbEntity
  8
THREAD
100
AcDbLine
 62
7
  6
CONTINUOUS
 10
4.8461218163
 20
3.6221791826
 11
4.7991218163
 21
3.6221791826
  0
LINE
  5
2CD
100
AcDbEntity
  8
0
100
AcDbLine
 62
7
  6
CONTINUOUS
 10
4.5754186223
 20
3.6306791826
 11
3.8815059903
 21
3.6306791826
  0
LINE
  5
2CE
100
AcDbEntity
  8
0
100
AcDbLine
 62
7
  6
CONTINUOUS
 10
4.5754186223
 20
3.6310401837
 11
3.8815059903
 21
3.6310401837
  0
LINE
  5
2CF
100
AcDbEntity
  8
THREAD
100
AcDbLine
 62
7
  6
CONTINUOUS
 10
5.3581218163
 20
3.6381791826
 11
5.0468346292
 21
3.6381791826
  0
LINE
  5
2D0
100
AcDbEntity
  8
THREAD
100
AcDbLine
 62
7
  6
CONTINUOUS
 10
5.8171218163
 20
3.6881791826
 11
5.4081218163
 21
3.6881791826
  0
LINE
  5
2D1
100
AcDbEntity
  8
03__ASM_ALL_CURVES
100
AcDbLine
 62
40
  6
CONTINUOUS
 10
6.1994223861
 20
3.1468466826
 11
6.1914372298
 21
3.1521701203
  0
LINE
  5
2D2
100
AcDbEntity
  8
03__ASM_ALL_CURVES
100
AcDbLine
 62
40
  6
CONTINUOUS
 10
6.2633036361
 20
3.1468466826
 11
6.2553184798
 21
3.1521701203
  0
LINE
  5
2D3
100
AcDbEntity
  8
03__ASM_ALL_CURVES
100
AcDbLine
 62
40
  6
CONTINUOUS
 10
6.2074075423
 20
3.2107279326
 11
6.2153926986
 21
3.2054044964
  0
LINE
  5
2D4
100
AcDbEntity
  8
03__ASM_ALL_CURVES
100
AcDbLine
 62
40
  6
CONTINUOUS
 10
6.2932479553
 20
3.2447979326
 11
6.2852627991
 21
3.2501213703
  0
LINE
  5
2D5
100
AcDbEntity
  8
03__ASM_ALL_CURVES
100
AcDbLine
 62
40
  6
CONTINUOUS
 10
4.0697436913
 20
5.4203902676
 11
4.0750671288
 21
5.4132923476
  0
LINE
  5
2D6
100
AcDbEntity
  8
03__ASM_ALL_CURVES
100
AcDbLine
 62
40
  6
CONTINUOUS
 10
4.1336249413
 20
5.3494110995
 11
4.1283015038
 21
5.3565090164
  0
LINE
  5
2D7
100
AcDbEntity
  8
03__ASM_ALL_CURVES
100
AcDbLine
 62
40
  6
CONTINUOUS
 10
4.1549186913
 20
5.4203902676
 11
4.1602421288
 21
5.4132923476
  0
LINE
  5
2D8
100
AcDbEntity
  8
03__ASM_ALL_CURVES
100
AcDbLine
 62
40
  6
CONTINUOUS
 10
4.2241233788
 20
5.3565090164
 11
4.2347702538
 21
5.3423131826
  0
LINE
  5
2D9
100
AcDbEntity
  8
03__ASM_ALL_CURVES
100
AcDbLine
 62
40
  6
CONTINUOUS
 10
5.2973955663
 20
5.4274881826
 11
5.2973955663
 21
5.3423131826
  0
LINE
  5
2DA
100
AcDbEntity
  8
THREAD
100
AcDbLine
 62
7
  6
CONTINUOUS
 10
5.3581218163
 20
3.6381791826
 11
5.3581218163
 21
5.0411791826
  0
LINE
  5
2DB
100
AcDbEntity
  8
03__ASM_ALL_CURVES
100
AcDbLine
 62
40
  6
CONTINUOUS
 10
5.5209799413
 20
5.3849006826
 11
5.5263033788
 21
5.4061944326
  0
LINE
  5
2DC
100
AcDbEntity
  8
03__ASM_ALL_CURVES
100
AcDbLine
 62
40
  6
CONTINUOUS
 10
5.9202377538
 20
5.3636069326
 11
5.9095908788
 21
5.3494110995
  0
LINE
  5
2DD
100
AcDbEntity
  8
03__ASM_ALL_CURVES
100
AcDbLine
 62
40
  6
CONTINUOUS
 10
6.0000893163
 20
5.3565090164
 11
5.9947658788
 21
5.3494110995
  0
LINE
  5
2DE
100
AcDbEntity
  8
0
100
AcDbLine
 62
7
  6
CONTINUOUS
 10
6.9351218163
 20
3.7156791826
 11
6.9851218163
 21
3.7156791826
  0
LINE
  5
2DF
100
AcDbEntity
  8
0
100
AcDbLine
 62
7
  6
CONTINUOUS
 10
7.0881218163
 20
3.7156791826
 11
7.1381218163
 21
3.7156791826
  0
LINE
  5
2E0
100
AcDbEntity
  8
0
100
AcDbLine
 62
7
  6
CONTINUOUS
 10
6.8496218163
 20
3.7161791826
 11
6.9351218163
 21
3.7161791826
  0
LINE
  5
2E1
100
AcDbEntity
  8
0
100
AcDbLine
 62
7
  6
CONTINUOUS
 10
7.1591218163
 20
3.7161791826
 11
7.2061218163
 21
3.7161791826
  0
LINE
  5
2E2
100
AcDbEntity
  8
0
100
AcDbLine
 62
7
  6
CONTINUOUS
 10
7.1591218163
 20
3.8036791826
 11
7.1381218163
 21
3.8036791826
  0
LINE
  5
2E3
100
AcDbEntity
  8
0
100
AcDbLine
 62
7
  6
CONTINUOUS
 10
6.8421218163
 20
3.8101791826
 11
6.8156218163
 21
3.8101791826
  0
LINE
  5
2E4
100
AcDbEntity
  8
0
100
AcDbLine
 62
7
  6
CONTINUOUS
 10
6.5966218163
 20
3.8101791826
 11
6.3776218163
 21
3.8101791826
  0
LINE
  5
2E5
100
AcDbEntity
  8
0
100
AcDbLine
 62
7
  6
CONTINUOUS
 10
6.1586218163
 20
3.8101791826
 11
6.0676218163
 21
3.8101791826
  0
LINE
  5
2E6
100
AcDbEntity
  8
0
100
AcDbLine
 62
7
  6
CONTINUOUS
 10
6.0206218163
 20
3.8101791826
 11
5.8301218163
 21
3.8101791826
  0
LINE
  5
2E7
100
AcDbEntity
  8
03__ASM_ALL_CURVES
100
AcDbLine
 62
40
  6
CONTINUOUS
 10
6.2373518616
 20
3.3086791826
 11
6.2453370178
 21
3.3033557464
  0
LINE
  5
2E8
100
AcDbEntity
  8
03__ASM_ALL_CURVES
100
AcDbLine
 62
40
  6
CONTINUOUS
 10
6.3012331116
 20
3.3086791826
 11
6.3092182678
 21
3.3033557464
  0
LINE
  5
2E9
100
AcDbEntity
  8
03__ASM_ALL_CURVES
100
AcDbLine
 62
40
  6
CONTINUOUS
 10
6.3651143616
 20
3.3086791826
 11
6.3730995178
 21
3.3033557464
  0
LINE
  5
2EA
100
AcDbEntity
  8
03__ASM_ALL_CURVES
100
AcDbLine
 62
40
  6
CONTINUOUS
 10
4.3305921288
 20
5.4203902676
 11
4.3359155663
 21
5.4132923476
  0
LINE
  5
2EB
100
AcDbEntity
  8
03__ASM_ALL_CURVES
100
AcDbLine
 62
40
  6
CONTINUOUS
 10
5.0152533788
 20
5.3636069326
 11
5.0099299413
 21
5.3849006826
  0
LINE
  5
2EC
100
AcDbEntity
  8
03__ASM_ALL_CURVES
100
AcDbLine
 62
40
  6
CONTINUOUS
 10
5.0684877538
 20
5.4061944326
 11
5.0738111913
 21
5.3849006826
  0
LINE
  5
2ED
100
AcDbEntity
  8
03__ASM_ALL_CURVES
100
AcDbLine
 62
40
  6
CONTINUOUS
 10
5.3825705663
 20
5.4274881826
 11
5.3825705663
 21
5.3423131826
  0
LINE
  5
2EE
100
AcDbEntity
  8
THREAD
100
AcDbLine
 62
7
  6
CONTINUOUS
 10
5.4081218163
 20
3.6881791826
 11
5.4081218163
 21
4.9911791826
  0
LINE
  5
2EF
100
AcDbEntity
  8
03__ASM_ALL_CURVES
100
AcDbLine
 62
40
  6
CONTINUOUS
 10
5.4464518163
 20
5.3423131826
 11
5.4464518163
 21
5.4274881826
  0
LINE
  5
2F0
100
AcDbEntity
  8
03__ASM_ALL_CURVES
100
AcDbLine
 62
40
  6
CONTINUOUS
 10
5.4890393163
 20
5.3423131826
 11
5.4890393163
 21
5.4274881826
  0
LINE
  5
2F1
100
AcDbEntity
  8
03__ASM_ALL_CURVES
100
AcDbLine
 62
40
  6
CONTINUOUS
 10
6.1704393163
 20
5.3636069326
 11
6.1597924413
 21
5.3494110995
  0
LINE
  5
2F2
100
AcDbEntity
  8
0
100
AcDbLine
 62
7
  6
CONTINUOUS
 10
4.5754186223
 20
3.9657681815
 11
3.8815059903
 21
3.9657681815
  0
LINE
  5
2F3
100
AcDbEntity
  8
03__ASM_ALL_CURVES
100
AcDbLine
 62
40
  6
CONTINUOUS
 10
6.4928768616
 20
3.3086791826
 11
6.5008620178
 21
3.3033557464
  0
LINE
  5
2F4
100
AcDbEntity
  8
03__ASM_ALL_CURVES
100
AcDbLine
 62
40
  6
CONTINUOUS
 10
4.4796483788
 20
5.3494110995
 11
4.4849718163
 21
5.3423131826
  0
LINE
  5
2F5
100
AcDbEntity
  8
03__ASM_ALL_CURVES
100
AcDbLine
 62
40
  6
CONTINUOUS
 10
6.1914372298
 20
3.1521701203
 11
6.1834520736
 21
3.1628169951
  0
LINE
  5
2F6
100
AcDbEntity
  8
03__ASM_ALL_CURVES
100
AcDbLine
 62
40
  6
CONTINUOUS
 10
4.5541765038
 20
5.3494110995
 11
4.5488530663
 21
5.3565090164
  0
LINE
  5
2F7
100
AcDbEntity
  8
03__ASM_ALL_CURVES
100
AcDbLine
 62
40
  6
CONTINUOUS
 10
6.2553184798
 20
3.1521701203
 11
6.2513259017
 21
3.1574935579
  0
LINE
  5
2F8
100
AcDbEntity
  8
03__ASM_ALL_CURVES
100
AcDbLine
 62
40
  6
CONTINUOUS
 10
6.2153926986
 20
3.2054044964
 11
6.2233778548
 21
3.1947576201
  0
LINE
  5
2F9
100
AcDbEntity
  8
03__ASM_ALL_CURVES
100
AcDbLine
 62
40
  6
CONTINUOUS
 10
4.5861171288
 20
5.3849006826
 11
4.5967640038
 21
5.3707048501
  0
LINE
  5
2FA
100
AcDbEntity
  8
03__ASM_ALL_CURVES
100
AcDbLine
 62
40
  6
CONTINUOUS
 10
4.5861171288
 20
5.4203902676
 11
4.5914405663
 21
5.4132923476
  0
LINE
  5
2FB
100
AcDbEntity
  8
03__ASM_ALL_CURVES
100
AcDbLine
 62
40
  6
CONTINUOUS
 10
4.6393515038
 20
5.3494110995
 11
4.6287046288
 21
5.3636069326
  0
LINE
  5
2FC
100
AcDbEntity
  8
03__ASM_ALL_CURVES
100
AcDbLine
 62
40
  6
CONTINUOUS
 10
5.1004283788
 20
5.3636069326
 11
5.0951049413
 21
5.3849006826
  0
LINE
  5
2FD
100
AcDbEntity
  8
03__ASM_ALL_CURVES
100
AcDbLine
 62
40
  6
CONTINUOUS
 10
5.5742143163
 20
5.3849006826
 11
5.5742143163
 21
5.3565090164
  0
LINE
  5
2FE
100
AcDbEntity
  8
03__ASM_ALL_CURVES
100
AcDbLine
 62
40
  6
CONTINUOUS
 10
5.8616799413
 20
5.3849006826
 11
5.8670033788
 21
5.4061944326
  0
LINE
  5
2FF
100
AcDbEntity
  8
03__ASM_ALL_CURVES
100
AcDbLine
 62
40
  6
CONTINUOUS
 10
5.9255611913
 20
5.3849006826
 11
5.9202377538
 21
5.3636069326
  0
LINE
  5
300
100
AcDbEntity
  8
03__ASM_ALL_CURVES
100
AcDbLine
 62
40
  6
CONTINUOUS
 10
6.3407893163
 20
5.3990965176
 11
6.3354658788
 21
5.3919985976
  0
LINE
  5
301
100
AcDbEntity
  8
0
100
AcDbLine
 62
7
  6
CONTINUOUS
 10
4.5754186223
 20
4.0049511848
 11
3.8815059903
 21
4.0049511848
  0
LINE
  5
302
100
AcDbEntity
  8
03__ASM_ALL_CURVES
100
AcDbLine
 62
40
  6
CONTINUOUS
 10
3.8887468163
 20
5.3423131826
 11
3.8780999413
 21
5.3494110995
  0
LINE
  5
303
100
AcDbEntity
  8
03__ASM_ALL_CURVES
100
AcDbLine
 62
40
  6
CONTINUOUS
 10
4.6393515038
 20
5.3990965176
 11
4.6340280663
 21
5.4061944326
  0
LINE
  5
304
100
AcDbEntity
  8
03__ASM_ALL_CURVES
100
AcDbLine
 62
40
  6
CONTINUOUS
 10
4.6712921288
 20
5.3849006826
 11
4.6819390038
 21
5.3707048501
  0
LINE
  5
305
100
AcDbEntity
  8
03__ASM_ALL_CURVES
100
AcDbLine
 62
40
  6
CONTINUOUS
 10
6.2852627991
 20
3.2501213703
 11
6.2772776428
 21
3.2607682451
  0
LINE
  5
306
100
AcDbEntity
  8
03__ASM_ALL_CURVES
100
AcDbLine
 62
40
  6
CONTINUOUS
 10
6.2453370178
 20
3.3033557464
 11
6.249329596
 21
3.2980323063
  0
LINE
  5
307
100
AcDbEntity
  8
03__ASM_ALL_CURVES
100
AcDbLine
 62
40
  6
CONTINUOUS
 10
4.6712921288
 20
5.4203902676
 11
4.6766155663
 21
5.4132923476
  0
LINE
  5
308
100
AcDbEntity
  8
03__ASM_ALL_CURVES
100
AcDbLine
 62
40
  6
CONTINUOUS
 10
6.3092182678
 20
3.3033557464
 11
6.3172034241
 21
3.2927088701
  0
LINE
  5
309
100
AcDbEntity
  8
03__ASM_ALL_CURVES
100
AcDbLine
 62
40
  6
CONTINUOUS
 10
4.7351733788
 20
5.4274881826
 11
4.7458202538
 21
5.4132923476
  0
LINE
  5
30A
100
AcDbEntity
  8
03__ASM_ALL_CURVES
100
AcDbLine
 62
40
  6
CONTINUOUS
 10
6.3730995178
 20
3.3033557464
 11
6.377092096
 21
3.2980323063
  0
LINE
  5
30B
100
AcDbEntity
  8
03__ASM_ALL_CURVES
100
AcDbLine
 62
40
  6
CONTINUOUS
 10
5.2122205663
 20
5.4274881826
 11
5.2388377538
 21
5.3423131826
  0
LINE
  5
30C
100
AcDbEntity
  8
03__ASM_ALL_CURVES
100
AcDbLine
 62
40
  6
CONTINUOUS
 10
5.7019768163
 20
5.4132923476
 11
5.7019768163
 21
5.4061944326
  0
LINE
  5
30D
100
AcDbEntity
  8
03__ASM_ALL_CURVES
100
AcDbLine
 62
40
  6
CONTINUOUS
 10
5.7445643163
 20
5.3707048501
 11
5.7445643163
 21
5.3565090164
  0
LINE
  5
30E
100
AcDbEntity
  8
03__ASM_ALL_CURVES
100
AcDbLine
 62
40
  6
CONTINUOUS
 10
5.7871518163
 20
5.4274881826
 11
5.7871518163
 21
5.3423131826
  0
LINE
  5
30F
100
AcDbEntity
  8
0
100
AcDbLine
 62
7
  6
CONTINUOUS
 10
5.8171218163
 20
3.6881791826
 11
5.8171218163
 21
4.9911791826
  0
LINE
  5
310
100
AcDbEntity
  8
03__ASM_ALL_CURVES
100
AcDbLine
 62
40
  6
CONTINUOUS
 10
7.7047358797
 20
4.2587629326
 11
7.6727952547
 21
4.2587629326
  0
LINE
  5
311
100
AcDbEntity
  8
03__ASM_ALL_CURVES
100
AcDbLine
 62
40
  6
CONTINUOUS
 10
7.6089140047
 20
4.2587629326
 11
7.6408546297
 21
4.2587629326
  0
LINE
  5
312
100
AcDbEntity
  8
03__ASM_ALL_CURVES
100
AcDbLine
 62
40
  6
CONTINUOUS
 10
7.6727952547
 20
4.2907035576
 11
7.6927581453
 21
4.2907035576
  0
LINE
  5
313
100
AcDbEntity
  8
03__ASM_ALL_CURVES
100
AcDbLine
 62
40
  6
CONTINUOUS
 10
3.8887468163
 20
5.4274881826
 11
3.8993936913
 21
5.4203902676
  0
LINE
  5
314
100
AcDbEntity
  8
03__ASM_ALL_CURVES
100
AcDbLine
 62
40
  6
CONTINUOUS
 10
4.0590968163
 20
5.3423131826
 11
4.0484499413
 21
5.3494110995
  0
LINE
  5
315
100
AcDbEntity
  8
03__ASM_ALL_CURVES
100
AcDbLine
 62
40
  6
CONTINUOUS
 10
4.1442718163
 20
5.3423131826
 11
4.1336249413
 21
5.3494110995
  0
LINE
  5
316
100
AcDbEntity
  8
03__ASM_ALL_CURVES
100
AcDbLine
 62
40
  6
CONTINUOUS
 10
4.0590968163
 20
5.4274881826
 11
4.0697436913
 21
5.4203902676
  0
LINE
  5
317
100
AcDbEntity
  8
03__ASM_ALL_CURVES
100
AcDbLine
 62
40
  6
CONTINUOUS
 10
6.5008620178
 20
3.3033557464
 11
6.504854596
 21
3.2980323063
  0
LINE
  5
318
100
AcDbEntity
  8
03__ASM_ALL_CURVES
100
AcDbLine
 62
40
  6
CONTINUOUS
 10
5.0259002538
 20
5.3494110995
 11
5.0152533788
 21
5.3636069326
  0
LINE
  5
319
100
AcDbEntity
  8
03__ASM_ALL_CURVES
100
AcDbLine
 62
40
  6
CONTINUOUS
 10
5.5263033788
 20
5.3636069326
 11
5.5209799413
 21
5.3849006826
  0
LINE
  5
31A
100
AcDbEntity
  8
03__ASM_ALL_CURVES
100
AcDbLine
 62
40
  6
CONTINUOUS
 10
5.8297393163
 20
5.4274881826
 11
5.8297393163
 21
5.3423131826
  0
LINE
  5
31B
100
AcDbEntity
  8
0
100
AcDbLine
 62
7
  6
CONTINUOUS
 10
5.8301218163
 20
3.7011791826
 11
5.8301218163
 21
4.9781791826
  0
LINE
  5
31C
100
AcDbEntity
  8
03__ASM_ALL_CURVES
100
AcDbLine
 62
40
  6
CONTINUOUS
 10
5.9575018163
 20
5.3565090164
 11
5.9575018163
 21
5.4274881826
  0
LINE
  5
31D
100
AcDbEntity
  8
03__ASM_ALL_CURVES
100
AcDbLine
 62
40
  6
CONTINUOUS
 10
6.1757627538
 20
5.3849006826
 11
6.1704393163
 21
5.3636069326
  0
LINE
  5
31E
100
AcDbEntity
  8
THREAD
100
AcDbLine
 62
7
  6
CONTINUOUS
 10
5.4081218163
 20
3.6881791826
 11
5.3581218163
 21
3.6381791826
  0
LINE
  5
31F
100
AcDbEntity
  8
03__ASM_ALL_CURVES
100
AcDbLine
 62
40
  6
CONTINUOUS
 10
7.6727952547
 20
4.3226441826
 11
7.7047358797
 21
4.3226441826
  0
LINE
  5
320
100
AcDbEntity
  8
03__ASM_ALL_CURVES
100
AcDbLine
 62
40
  6
CONTINUOUS
 10
7.7326839266
 20
4.3226441826
 11
7.7726097078
 21
4.3226441826
  0
LINE
  5
321
100
AcDbEntity
  8
03__ASM_ALL_CURVES
100
AcDbLine
 62
40
  6
CONTINUOUS
 10
7.5809659574
 20
4.3567141826
 11
7.5729808011
 21
4.3567141826
  0
LINE
  5
322
100
AcDbEntity
  8
03__ASM_ALL_CURVES
100
AcDbLine
 62
40
  6
CONTINUOUS
 10
7.6448472074
 20
4.3886548076
 11
7.6248843168
 21
4.3886548076
  0
LINE
  5
323
100
AcDbEntity
  8
03__ASM_ALL_CURVES
100
AcDbLine
 62
40
  6
CONTINUOUS
 10
7.5170847074
 20
4.3886548076
 11
7.4971218168
 21
4.3886548076
  0
LINE
  5
324
100
AcDbEntity
  8
03__ASM_ALL_CURVES
100
AcDbLine
 62
40
  6
CONTINUOUS
 10
7.4971218168
 20
4.4205954326
 11
7.5170847074
 21
4.4205954326
  0
LINE
  5
325
100
AcDbEntity
  8
03__ASM_ALL_CURVES
100
AcDbLine
 62
40
  6
CONTINUOUS
 10
7.5729808011
 20
4.4205954326
 11
7.5809659574
 21
4.4205954326
  0
LINE
  5
326
100
AcDbEntity
  8
03__ASM_ALL_CURVES
100
AcDbLine
 62
40
  6
CONTINUOUS
 10
7.6248843168
 20
4.4205954326
 11
7.6448472074
 21
4.4205954326
  0
LINE
  5
327
100
AcDbEntity
  8
03__ASM_ALL_CURVES
100
AcDbLine
 62
40
  6
CONTINUOUS
 10
7.6847729886
 20
4.4205954326
 11
7.7246987699
 21
4.4205954326
  0
LINE
  5
328
100
AcDbEntity
  8
03__ASM_ALL_CURVES
100
AcDbLine
 62
40
  6
CONTINUOUS
 10
4.1442718163
 20
5.4274881826
 11
4.1549186913
 21
5.4203902676
  0
LINE
  5
329
100
AcDbEntity
  8
03__ASM_ALL_CURVES
100
AcDbLine
 62
40
  6
CONTINUOUS
 10
4.3199452538
 20
5.4274881826
 11
4.3305921288
 21
5.4203902676
  0
LINE
  5
32A
100
AcDbEntity
  8
03__ASM_ALL_CURVES
100
AcDbLine
 62
40
  6
CONTINUOUS
 10
5.1110752538
 20
5.3494110995
 11
5.1004283788
 21
5.3636069326
  0
LINE
  5
32B
100
AcDbEntity
  8
03__ASM_ALL_CURVES
100
AcDbLine
 62
40
  6
CONTINUOUS
 10
5.0578408788
 20
5.4203902676
 11
5.0684877538
 21
5.4061944326
  0
LINE
  5
32C
100
AcDbEntity
  8
03__ASM_ALL_CURVES
100
AcDbLine
 62
40
  6
CONTINUOUS
 10
5.1430158788
 20
5.4203902676
 11
5.1483393163
 21
5.4132923476
  0
LINE
  5
32D
100
AcDbEntity
  8
03__ASM_ALL_CURVES
100
AcDbLine
 62
40
  6
CONTINUOUS
 10
6.1834520736
 20
3.1628169951
 11
6.1794594954
 21
3.1787873076
  0
LINE
  5
32E
100
AcDbEntity
  8
03__ASM_ALL_CURVES
100
AcDbLine
 62
40
  6
CONTINUOUS
 10
6.2233778548
 20
3.1947576201
 11
6.2273704329
 21
3.1787873076
  0
LINE
  5
32F
100
AcDbEntity
  8
03__ASM_ALL_CURVES
100
AcDbLine
 62
40
  6
CONTINUOUS
 10
6.0000893163
 20
5.4274881826
 11
6.0000893163
 21
5.3565090164
  0
LINE
  5
330
100
AcDbEntity
  8
0
100
AcDbLine
 62
7
  6
CONTINUOUS
 10
6.022294368
 20
3.8102507762
 11
6.022294368
 21
4.8691791826
  0
LINE
  5
331
100
AcDbEntity
  8
03__ASM_ALL_CURVES
100
AcDbLine
 62
40
  6
CONTINUOUS
 10
6.0426768163
 20
5.4274881826
 11
6.0426768163
 21
5.3423131826
  0
LINE
  5
332
100
AcDbEntity
  8
0
100
AcDbLine
 62
7
  6
CONTINUOUS
 10
6.0659492646
 20
3.8102507762
 11
6.0659492646
 21
4.8691791826
  0
LINE
  5
333
100
AcDbEntity
  8
0
100
AcDbLine
 62
7
  6
CONTINUOUS
 10
6.8421218163
 20
4.9556791826
 11
6.8496218163
 21
4.9631791826
  0
LINE
  5
334
100
AcDbEntity
  8
03__ASM_ALL_CURVES
100
AcDbLine
 62
40
  6
CONTINUOUS
 10
4.0590968163
 20
5.3778027651
 11
4.0431265038
 21
5.3849006826
  0
LINE
  5
335
100
AcDbEntity
  8
03__ASM_ALL_CURVES
100
AcDbLine
 62
40
  6
CONTINUOUS
 10
4.5648233788
 20
5.3423131826
 11
4.5541765038
 21
5.3494110995
  0
LINE
  5
336
100
AcDbEntity
  8
03__ASM_ALL_CURVES
100
AcDbLine
 62
40
  6
CONTINUOUS
 10
4.6499983788
 20
5.3423131826
 11
4.6393515038
 21
5.3494110995
  0
LINE
  5
337
100
AcDbEntity
  8
03__ASM_ALL_CURVES
100
AcDbLine
 62
40
  6
CONTINUOUS
 10
4.5754702538
 20
5.3919985976
 11
4.5861171288
 21
5.3849006826
  0
LINE
  5
338
100
AcDbEntity
  8
03__ASM_ALL_CURVES
100
AcDbLine
 62
40
  6
CONTINUOUS
 10
4.5754702538
 20
5.4274881826
 11
4.5861171288
 21
5.4203902676
  0
LINE
  5
339
100
AcDbEntity
  8
03__ASM_ALL_CURVES
100
AcDbLine
 62
40
  6
CONTINUOUS
 10
4.6499983788
 20
5.3919985976
 11
4.6393515038
 21
5.3990965176
  0
LINE
  5
33A
100
AcDbEntity
  8
03__ASM_ALL_CURVES
100
AcDbLine
 62
40
  6
CONTINUOUS
 10
4.6606452538
 20
5.3919985976
 11
4.6712921288
 21
5.3849006826
  0
LINE
  5
33B
100
AcDbEntity
  8
03__ASM_ALL_CURVES
100
AcDbLine
 62
40
  6
CONTINUOUS
 10
4.6606452538
 20
5.4274881826
 11
4.6712921288
 21
5.4203902676
  0
LINE
  5
33C
100
AcDbEntity
  8
THREAD
100
AcDbLine
 62
7
  6
CONTINUOUS
 10
5.4081218163
 20
4.9911791826
 11
5.3581218163
 21
5.0411791826
  0
LINE
  5
33D
100
AcDbEntity
  8
03__ASM_ALL_CURVES
100
AcDbLine
 62
40
  6
CONTINUOUS
 10
5.4464518163
 20
5.4274881826
 11
5.4890393163
 21
5.3423131826
  0
LINE
  5
33E
100
AcDbEntity
  8
03__ASM_ALL_CURVES
100
AcDbLine
 62
40
  6
CONTINUOUS
 10
6.3651143616
 20
3.2767385576
 11
6.377092096
 21
3.2447979326
  0
LINE
  5
33F
100
AcDbEntity
  8
03__ASM_ALL_CURVES
100
AcDbLine
 62
40
  6
CONTINUOUS
 10
6.2772776428
 20
3.2607682451
 11
6.2732850647
 21
3.2767385576
  0
LINE
  5
340
100
AcDbEntity
  8
03__ASM_ALL_CURVES
100
AcDbLine
 62
40
  6
CONTINUOUS
 10
6.3172034241
 20
3.2927088701
 11
6.3211960022
 21
3.2767385576
  0
LINE
  5
341
100
AcDbEntity
  8
03__ASM_ALL_CURVES
100
AcDbLine
 62
40
  6
CONTINUOUS
 10
6.1278518163
 20
5.3423131826
 11
6.1278518163
 21
5.4274881826
  0
LINE
  5
342
100
AcDbEntity
  8
03__ASM_ALL_CURVES
100
AcDbLine
 62
40
  6
CONTINUOUS
 10
6.2130268163
 20
5.3423131826
 11
6.2130268163
 21
5.4274881826
  0
LINE
  5
343
100
AcDbEntity
  8
03__ASM_ALL_CURVES
100
AcDbLine
 62
40
  6
CONTINUOUS
 10
6.217388971
 20
3.2447979326
 11
6.217388971
 21
3.3086791826
  0
LINE
  5
344
100
AcDbEntity
  8
03__ASM_ALL_CURVES
100
AcDbLine
 62
40
  6
CONTINUOUS
 10
6.249329596
 20
3.2980323063
 11
6.249329596
 21
3.2873854339
  0
LINE
  5
345
100
AcDbEntity
  8
03__ASM_ALL_CURVES
100
AcDbLine
 62
40
  6
CONTINUOUS
 10
6.2513259017
 20
3.1574935579
 11
6.2513259017
 21
3.2107279326
  0
LINE
  5
346
100
AcDbEntity
  8
0
100
AcDbLine
 62
7
  6
CONTINUOUS
 10
5.8301218163
 20
3.7011791826
 11
5.8171218163
 21
3.6881791826
  0
LINE
  5
347
100
AcDbEntity
  8
0
100
AcDbLine
 62
7
  6
CONTINUOUS
 10
4.5754186223
 20
4.6744071804
 11
3.8815059903
 21
4.6744071804
  0
LINE
  5
348
100
AcDbEntity
  8
0
100
AcDbLine
 62
7
  6
CONTINUOUS
 10
4.5754186223
 20
4.7135901837
 11
3.8815059903
 21
4.7135901837
  0
LINE
  5
349
100
AcDbEntity
  8
03__ASM_ALL_CURVES
100
AcDbLine
 62
40
  6
CONTINUOUS
 10
4.1442718163
 20
5.3919985976
 11
4.1602421288
 21
5.3849006826
  0
LINE
  5
34A
100
AcDbEntity
  8
03__ASM_ALL_CURVES
100
AcDbLine
 62
40
  6
CONTINUOUS
 10
5.0365471288
 20
5.3423131826
 11
5.0259002538
 21
5.3494110995
  0
LINE
  5
34B
100
AcDbEntity
  8
0
100
AcDbLine
 62
7
  6
CONTINUOUS
 10
6.8421218163
 20
3.7236791826
 11
6.8496218163
 21
3.7161791826
  0
LINE
  5
34C
100
AcDbEntity
  8
03__ASM_ALL_CURVES
100
AcDbLine
 62
40
  6
CONTINUOUS
 10
5.5369502538
 20
5.3494110995
 11
5.5263033788
 21
5.3636069326
  0
LINE
  5
34D
100
AcDbEntity
  8
03__ASM_ALL_CURVES
100
AcDbLine
 62
40
  6
CONTINUOUS
 10
5.8670033788
 20
5.3636069326
 11
5.8616799413
 21
5.3849006826
  0
LINE
  5
34E
100
AcDbEntity
  8
03__ASM_ALL_CURVES
100
AcDbLine
 62
40
  6
CONTINUOUS
 10
5.9202377538
 20
5.4061944326
 11
5.9255611913
 21
5.3849006826
  0
LINE
  5
34F
100
AcDbEntity
  8
03__ASM_ALL_CURVES
100
AcDbLine
 62
40
  6
CONTINUOUS
 10
6.2832665267
 20
3.2107279326
 11
6.2832665267
 21
3.1574935579
  0
LINE
  5
350
100
AcDbEntity
  8
03__ASM_ALL_CURVES
100
AcDbLine
 62
40
  6
CONTINUOUS
 10
6.2982018163
 20
5.3423131826
 11
6.2982018163
 21
5.4274881826
  0
LINE
  5
351
100
AcDbEntity
  8
03__ASM_ALL_CURVES
100
AcDbLine
 62
40
  6
CONTINUOUS
 10
6.3311774642
 20
3.2107279326
 11
6.3311774642
 21
3.1468466826
  0
LINE
  5
352
100
AcDbEntity
  8
03__ASM_ALL_CURVES
100
AcDbLine
 62
40
  6
CONTINUOUS
 10
6.3407893163
 20
5.4132923476
 11
6.3407893163
 21
5.3990965176
  0
LINE
  5
353
100
AcDbEntity
  8
03__ASM_ALL_CURVES
100
AcDbLine
 62
40
  6
CONTINUOUS
 10
6.345151471
 20
3.2447979326
 11
6.345151471
 21
3.3086791826
  0
LINE
  5
354
100
AcDbEntity
  8
03__ASM_ALL_CURVES
100
AcDbLine
 62
40
  6
CONTINUOUS
 10
6.377092096
 20
3.2980323063
 11
6.377092096
 21
3.2873854339
  0
LINE
  5
355
100
AcDbEntity
  8
03__ASM_ALL_CURVES
100
AcDbLine
 62
40
  6
CONTINUOUS
 10
6.3790884017
 20
3.2107279326
 11
6.3790884017
 21
3.1468466826
  0
LINE
  5
356
100
AcDbEntity
  8
03__ASM_ALL_CURVES
100
AcDbLine
 62
40
  6
CONTINUOUS
 10
6.4250030335
 20
3.3086791826
 11
6.4250030335
 21
3.2447979326
  0
LINE
  5
357
100
AcDbEntity
  8
0
100
AcDbLine
 62
7
  6
CONTINUOUS
 10
6.8421218163
 20
4.8691791826
 11
6.8156218163
 21
4.8691791826
  0
LINE
  5
358
100
AcDbEntity
  8
0
100
AcDbLine
 62
7
  6
CONTINUOUS
 10
6.5966218163
 20
4.8691791826
 11
6.3776218163
 21
4.8691791826
  0
LINE
  5
359
100
AcDbEntity
  8
0
100
AcDbLine
 62
7
  6
CONTINUOUS
 10
6.1586218163
 20
4.8691791826
 11
6.0659492646
 21
4.8691791826
  0
LINE
  5
35A
100
AcDbEntity
  8
0
100
AcDbLine
 62
7
  6
CONTINUOUS
 10
6.022294368
 20
4.8691791826
 11
5.8301218163
 21
4.8691791826
  0
LINE
  5
35B
100
AcDbEntity
  8
0
100
AcDbLine
 62
7
  6
CONTINUOUS
 10
7.1591218163
 20
4.8756791826
 11
7.1381218163
 21
4.8756791826
  0
LINE
  5
35C
100
AcDbEntity
  8
03__ASM_ALL_CURVES
100
AcDbLine
 62
40
  6
CONTINUOUS
 10
5.1217221288
 20
5.3423131826
 11
5.1110752538
 21
5.3494110995
  0
LINE
  5
35D
100
AcDbEntity
  8
03__ASM_ALL_CURVES
100
AcDbLine
 62
40
  6
CONTINUOUS
 10
5.0471940038
 20
5.4274881826
 11
5.0578408788
 21
5.4203902676
  0
LINE
  5
35E
100
AcDbEntity
  8
03__ASM_ALL_CURVES
100
AcDbLine
 62
40
  6
CONTINUOUS
 10
5.1323690038
 20
5.4274881826
 11
5.1430158788
 21
5.4203902676
  0
LINE
  5
35F
100
AcDbEntity
  8
0
100
AcDbLine
 62
7
  6
CONTINUOUS
 10
5.8301218163
 20
4.9781791826
 11
5.8171218163
 21
4.9911791826
  0
LINE
  5
360
100
AcDbEntity
  8
03__ASM_ALL_CURVES
100
AcDbLine
 62
40
  6
CONTINUOUS
 10
5.5688908788
 20
5.4203902676
 11
5.5742143163
 21
5.4132923476
  0
LINE
  5
361
100
AcDbEntity
  8
03__ASM_ALL_CURVES
100
AcDbLine
 62
40
  6
CONTINUOUS
 10
5.7073002538
 20
5.3494110995
 11
5.6966533788
 21
5.3636069326
  0
LINE
  5
362
100
AcDbEntity
  8
03__ASM_ALL_CURVES
100
AcDbLine
 62
40
  6
CONTINUOUS
 10
5.7019768163
 20
5.4061944326
 11
5.7073002538
 21
5.3990965176
  0
LINE
  5
363
100
AcDbEntity
  8
03__ASM_ALL_CURVES
100
AcDbLine
 62
40
  6
CONTINUOUS
 10
5.7392408788
 20
5.3778027651
 11
5.7445643163
 21
5.3707048501
  0
LINE
  5
364
100
AcDbEntity
  8
03__ASM_ALL_CURVES
100
AcDbLine
 62
40
  6
CONTINUOUS
 10
6.4429696517
 20
3.1468466826
 11
6.4429696517
 21
3.2107279326
  0
LINE
  5
365
100
AcDbEntity
  8
03__ASM_ALL_CURVES
100
AcDbLine
 62
40
  6
CONTINUOUS
 10
6.504854596
 20
3.2980323063
 11
6.504854596
 21
3.2873854339
  0
LINE
  5
366
100
AcDbEntity
  8
03__ASM_ALL_CURVES
100
AcDbLine
 62
40
  6
CONTINUOUS
 10
6.5228212142
 20
3.2107279326
 11
6.5228212142
 21
3.1468466826
  0
LINE
  5
367
100
AcDbEntity
  8
03__ASM_ALL_CURVES
100
AcDbLine
 62
40
  6
CONTINUOUS
 10
6.1794594954
 20
3.1787873076
 11
6.1834520736
 21
3.1947576201
  0
LINE
  5
368
100
AcDbEntity
  8
03__ASM_ALL_CURVES
100
AcDbLine
 62
40
  6
CONTINUOUS
 10
6.2273704329
 20
3.1787873076
 11
6.2233778548
 21
3.1628169951
  0
LINE
  5
369
100
AcDbEntity
  8
03__ASM_ALL_CURVES
100
AcDbLine
 62
40
  6
CONTINUOUS
 10
6.2732850647
 20
3.2767385576
 11
6.2772776428
 21
3.2927088701
  0
LINE
  5
36A
100
AcDbEntity
  8
03__ASM_ALL_CURVES
100
AcDbLine
 62
40
  6
CONTINUOUS
 10
6.3211960022
 20
3.2767385576
 11
6.3172034241
 21
3.2607682451
  0
LINE
  5
36B
100
AcDbEntity
  8
0
100
AcDbLine
 62
7
  6
CONTINUOUS
 10
6.8496218163
 20
4.9631791826
 11
6.9351218163
 21
4.9631791826
  0
LINE
  5
36C
100
AcDbEntity
  8
0
100
AcDbLine
 62
7
  6
CONTINUOUS
 10
7.1591218163
 20
4.9631791826
 11
7.2061218163
 21
4.9631791826
  0
LINE
  5
36D
100
AcDbEntity
  8
0
100
AcDbLine
 62
7
  6
CONTINUOUS
 10
6.9351218163
 20
4.9636791826
 11
6.9851218163
 21
4.9636791826
  0
LINE
  5
36E
100
AcDbEntity
  8
0
100
AcDbLine
 62
7
  6
CONTINUOUS
 10
7.0881218163
 20
4.9636791826
 11
7.1381218163
 21
4.9636791826
  0
LINE
  5
36F
100
AcDbEntity
  8
THREAD
100
AcDbLine
 62
7
  6
CONTINUOUS
 10
5.8171218163
 20
4.9911791826
 11
5.4081218163
 21
4.9911791826
  0
LINE
  5
370
100
AcDbEntity
  8
THREAD
100
AcDbLine
 62
7
  6
CONTINUOUS
 10
5.3581218163
 20
5.0411791826
 11
5.0468346292
 21
5.0411791826
  0
LINE
  5
371
100
AcDbEntity
  8
0
100
AcDbLine
 62
7
  6
CONTINUOUS
 10
4.5754186223
 20
5.0483181815
 11
3.8815059903
 21
5.0483181815
  0
LINE
  5
372
100
AcDbEntity
  8
0
100
AcDbLine
 62
7
  6
CONTINUOUS
 10
4.5754186223
 20
5.0486791826
 11
3.8815059903
 21
5.0486791826
  0
LINE
  5
373
100
AcDbEntity
  8
THREAD
100
AcDbLine
 62
7
  6
CONTINUOUS
 10
4.8461218163
 20
5.0571791826
 11
4.7991218163
 21
5.0571791826
  0
LINE
  5
374
100
AcDbEntity
  8
0
100
AcDbLine
 62
7
  6
CONTINUOUS
 10
4.9491218163
 20
5.0576791826
 11
4.9991218163
 21
5.0576791826
  0
LINE
  5
375
100
AcDbEntity
  8
03__ASM_ALL_CURVES
100
AcDbLine
 62
40
  6
CONTINUOUS
 10
3.9323318163
 20
5.2940473493
 11
3.8301218163
 21
5.3082431826
  0
LINE
  5
376
100
AcDbEntity
  8
03__ASM_ALL_CURVES
100
AcDbLine
 62
40
  6
CONTINUOUS
 10
3.9323318163
 20
5.2912081826
 11
3.8301218163
 21
5.3082431826
  0
LINE
  5
377
100
AcDbEntity
  8
03__ASM_ALL_CURVES
100
AcDbLine
 62
40
  6
CONTINUOUS
 10
5.5475971288
 20
5.3423131826
 11
5.5369502538
 21
5.3494110995
  0
LINE
  5
378
100
AcDbEntity
  8
03__ASM_ALL_CURVES
100
AcDbLine
 62
40
  6
CONTINUOUS
 10
5.7445643163
 20
5.4132923476
 11
5.7392408788
 21
5.4203902676
  0
LINE
  5
379
100
AcDbEntity
  8
03__ASM_ALL_CURVES
100
AcDbLine
 62
40
  6
CONTINUOUS
 10
5.8776502538
 20
5.3494110995
 11
5.8670033788
 21
5.3636069326
  0
LINE
  5
37A
100
AcDbEntity
  8
03__ASM_ALL_CURVES
100
AcDbLine
 62
40
  6
CONTINUOUS
 10
5.9628252538
 20
5.3494110995
 11
5.9575018163
 21
5.3565090164
  0
LINE
  5
37B
100
AcDbEntity
  8
03__ASM_ALL_CURVES
100
AcDbLine
 62
40
  6
CONTINUOUS
 10
5.9095908788
 20
5.4203902676
 11
5.9202377538
 21
5.4061944326
  0
LINE
  5
37C
100
AcDbEntity
  8
03__ASM_ALL_CURVES
100
AcDbLine
 62
40
  6
CONTINUOUS
 10
6.1704393163
 20
5.4061944326
 11
6.1757627538
 21
5.3849006826
  0
LINE
  5
37D
100
AcDbEntity
  8
0
100
AcDbLine
 62
7
  6
CONTINUOUS
 10
6.6633684463
 20
3.9897967054
 11
6.6633684463
 21
4.0429077412
  0
LINE
  5
37E
100
AcDbEntity
  8
0
100
AcDbLine
 62
7
  6
CONTINUOUS
 10
6.6633684463
 20
4.2388763237
 11
6.6633684463
 21
4.4403599248
  0
LINE
  5
37F
100
AcDbEntity
  8
0
100
AcDbLine
 62
7
  6
CONTINUOUS
 10
6.6633684463
 20
4.6364624427
 11
6.6633684463
 21
4.6895584615
  0
LINE
  5
380
100
AcDbEntity
  8
0
100
AcDbLine
 62
7
  6
CONTINUOUS
 10
6.6813529072
 20
4.0477766332
 11
6.6813529072
 21
3.9868618701
  0
LINE
  5
381
100
AcDbEntity
  8
0
100
AcDbLine
 62
7
  6
CONTINUOUS
 10
6.6813529072
 20
4.2332543514
 11
6.6813529072
 21
4.4460134454
  0
LINE
  5
382
100
AcDbEntity
  8
0
100
AcDbLine
 62
7
  6
CONTINUOUS
 10
6.6813529072
 20
4.631585481
 11
6.6813529072
 21
4.6924951881
  0
LINE
  5
383
100
AcDbEntity
  8
03__ASM_ALL_CURVES
100
AcDbLine
 62
40
  6
CONTINUOUS
 10
6.4769065491
 20
3.2607682451
 11
6.472913971
 21
3.2447979326
  0
LINE
  5
384
100
AcDbEntity
  8
03__ASM_ALL_CURVES
100
AcDbLine
 62
40
  6
CONTINUOUS
 10
7.5250698636
 20
4.3939782438
 11
7.5170847074
 21
4.3886548076
  0
LINE
  5
385
100
AcDbEntity
  8
03__ASM_ALL_CURVES
100
AcDbLine
 62
40
  6
CONTINUOUS
 10
7.5649956449
 20
4.4152719964
 11
7.5729808011
 21
4.4205954326
  0
LINE
  5
386
100
AcDbEntity
  8
03__ASM_ALL_CURVES
100
AcDbLine
 62
40
  6
CONTINUOUS
 10
7.5889511136
 20
4.3620376203
 11
7.5809659574
 21
4.3567141826
  0
LINE
  5
387
100
AcDbEntity
  8
0
100
AcDbLine
 62
7
  6
CONTINUOUS
 10
4.7991218163
 20
5.1191791826
 11
4.6161218163
 21
5.1191791826
  0
LINE
  5
388
100
AcDbEntity
  8
03__ASM_ALL_CURVES
100
AcDbLine
 62
40
  6
CONTINUOUS
 10
3.9323318163
 20
5.3025648493
 11
3.8301218163
 21
5.3082431826
  0
LINE
  5
389
100
AcDbEntity
  8
03__ASM_ALL_CURVES
100
AcDbLine
 62
40
  6
CONTINUOUS
 10
3.9323318163
 20
5.2997256826
 11
3.8301218163
 21
5.3082431826
  0
LINE
  5
38A
100
AcDbEntity
  8
03__ASM_ALL_CURVES
100
AcDbLine
 62
40
  6
CONTINUOUS
 10
3.9323318163
 20
5.2968865159
 11
3.8301218163
 21
5.3082431826
  0
LINE
  5
38B
100
AcDbEntity
  8
03__ASM_ALL_CURVES
100
AcDbLine
 62
40
  6
CONTINUOUS
 10
4.6969118163
 20
5.3195998493
 11
4.9013318163
 21
5.2968865159
  0
LINE
  5
38C
100
AcDbEntity
  8
03__ASM_ALL_CURVES
100
AcDbLine
 62
40
  6
CONTINUOUS
 10
4.6969118163
 20
5.3224390159
 11
4.9013318163
 21
5.2940473493
  0
LINE
  5
38D
100
AcDbEntity
  8
03__ASM_ALL_CURVES
100
AcDbLine
 62
40
  6
CONTINUOUS
 10
4.9013318163
 20
5.2912081826
 11
4.6969118163
 21
5.3252781826
  0
LINE
  5
38E
100
AcDbEntity
  8
03__ASM_ALL_CURVES
100
AcDbLine
 62
40
  6
CONTINUOUS
 10
5.5582440038
 20
5.4274881826
 11
5.5688908788
 21
5.4203902676
  0
LINE
  5
38F
100
AcDbEntity
  8
03__ASM_ALL_CURVES
100
AcDbLine
 62
40
  6
CONTINUOUS
 10
5.7179471288
 20
5.3423131826
 11
5.7073002538
 21
5.3494110995
  0
LINE
  5
390
100
AcDbEntity
  8
03__ASM_ALL_CURVES
100
AcDbLine
 62
40
  6
CONTINUOUS
 10
5.7073002538
 20
5.3990965176
 11
5.7392408788
 21
5.3778027651
  0
LINE
  5
391
100
AcDbEntity
  8
03__ASM_ALL_CURVES
100
AcDbLine
 62
40
  6
CONTINUOUS
 10
5.7392408788
 20
5.4203902676
 11
5.7285940038
 21
5.4274881826
  0
LINE
  5
392
100
AcDbEntity
  8
03__ASM_ALL_CURVES
100
AcDbLine
 62
40
  6
CONTINUOUS
 10
5.8882971288
 20
5.3423131826
 11
5.8776502538
 21
5.3494110995
  0
LINE
  5
393
100
AcDbEntity
  8
03__ASM_ALL_CURVES
100
AcDbLine
 62
40
  6
CONTINUOUS
 10
6.3248190038
 20
5.3849006826
 11
6.3407893163
 21
5.3423131826
  0
LINE
  5
394
100
AcDbEntity
  8
0
100
AcDbLine
 62
7
  6
CONTINUOUS
 10
6.8421218163
 20
4.9556791826
 11
6.8421218163
 21
3.7236791826
  0
LINE
  5
395
100
AcDbEntity
  8
0
100
AcDbLine
 62
7
  6
CONTINUOUS
 10
6.8496218163
 20
4.9631791826
 11
6.8496218163
 21
3.7161791826
  0
LINE
  5
396
100
AcDbEntity
  8
03__ASM_ALL_CURVES
100
AcDbLine
 62
40
  6
CONTINUOUS
 10
6.249329596
 20
3.2873854339
 11
6.2453370178
 21
3.2820619938
  0
LINE
  5
397
100
AcDbEntity
  8
03__ASM_ALL_CURVES
100
AcDbLine
 62
40
  6
CONTINUOUS
 10
6.1834520736
 20
3.1947576201
 11
6.1914372298
 21
3.2054044964
  0
LINE
  5
398
100
AcDbEntity
  8
03__ASM_ALL_CURVES
100
AcDbLine
 62
40
  6
CONTINUOUS
 10
6.2772776428
 20
3.2927088701
 11
6.2852627991
 21
3.3033557464
  0
LINE
  5
399
100
AcDbEntity
  8
03__ASM_ALL_CURVES
100
AcDbLine
 62
40
  6
CONTINUOUS
 10
6.2233778548
 20
3.1628169951
 11
6.2153926986
 21
3.1521701203
  0
LINE
  5
39A
100
AcDbEntity
  8
03__ASM_ALL_CURVES
100
AcDbLine
 62
40
  6
CONTINUOUS
 10
6.3172034241
 20
3.2607682451
 11
6.3092182678
 21
3.2501213703
  0
LINE
  5
39B
100
AcDbEntity
  8
03__ASM_ALL_CURVES
100
AcDbLine
 62
40
  6
CONTINUOUS
 10
6.377092096
 20
3.2873854339
 11
6.3730995178
 21
3.2820619938
  0
LINE
  5
39C
100
AcDbEntity
  8
03__ASM_ALL_CURVES
100
AcDbLine
 62
40
  6
CONTINUOUS
 10
6.2832665267
 20
3.1574935579
 11
6.2792739486
 21
3.1521701203
  0
LINE
  5
39D
100
AcDbEntity
  8
03__ASM_ALL_CURVES
100
AcDbLine
 62
40
  6
CONTINUOUS
 10
7.6528323636
 20
4.3939782438
 11
7.6448472074
 21
4.3886548076
  0
LINE
  5
39E
100
AcDbEntity
  8
03__ASM_ALL_CURVES
100
AcDbLine
 62
40
  6
CONTINUOUS
 10
6.2453370178
 20
3.2820619938
 11
6.2373518616
 21
3.2767385576
  0
LINE
  5
39F
100
AcDbEntity
  8
03__ASM_ALL_CURVES
100
AcDbLine
 62
40
  6
CONTINUOUS
 10
4.6969118163
 20
5.3025648493
 11
4.9013318163
 21
5.3139215159
  0
LINE
  5
3A0
100
AcDbEntity
  8
03__ASM_ALL_CURVES
100
AcDbLine
 62
40
  6
CONTINUOUS
 10
4.6969118163
 20
5.3054040159
 11
4.9013318163
 21
5.3110823493
  0
LINE
  5
3A1
100
AcDbEntity
  8
03__ASM_ALL_CURVES
100
AcDbLine
 62
40
  6
CONTINUOUS
 10
3.9323318163
 20
5.3110823493
 11
3.8301218163
 21
5.3082431826
  0
LINE
  5
3A2
100
AcDbEntity
  8
03__ASM_ALL_CURVES
100
AcDbLine
 62
40
  6
CONTINUOUS
 10
3.8301218163
 20
5.3082431826
 11
6.4344818163
 21
5.3082431826
  0
LINE
  5
3A3
100
AcDbEntity
  8
03__ASM_ALL_CURVES
100
AcDbLine
 62
40
  6
CONTINUOUS
 10
6.2556143163
 20
5.3423131826
 11
6.2130268163
 21
5.3423131826
  0
LINE
  5
3A4
100
AcDbEntity
  8
03__ASM_ALL_CURVES
100
AcDbLine
 62
40
  6
CONTINUOUS
 10
6.1491455663
 20
5.3423131826
 11
6.1278518163
 21
5.3423131826
  0
LINE
  5
3A5
100
AcDbEntity
  8
03__ASM_ALL_CURVES
100
AcDbLine
 62
40
  6
CONTINUOUS
 10
5.9841190038
 20
5.3423131826
 11
5.9734721288
 21
5.3423131826
  0
LINE
  5
3A6
100
AcDbEntity
  8
03__ASM_ALL_CURVES
100
AcDbLine
 62
40
  6
CONTINUOUS
 10
5.8989440038
 20
5.3423131826
 11
5.8882971288
 21
5.3423131826
  0
LINE
  5
3A7
100
AcDbEntity
  8
03__ASM_ALL_CURVES
100
AcDbLine
 62
40
  6
CONTINUOUS
 10
5.7285940038
 20
5.3423131826
 11
5.7179471288
 21
5.3423131826
  0
LINE
  5
3A8
100
AcDbEntity
  8
03__ASM_ALL_CURVES
100
AcDbLine
 62
40
  6
CONTINUOUS
 10
5.5582440038
 20
5.3423131826
 11
5.5475971288
 21
5.3423131826
  0
LINE
  5
3A9
100
AcDbEntity
  8
03__ASM_ALL_CURVES
100
AcDbLine
 62
40
  6
CONTINUOUS
 10
5.1323690038
 20
5.3423131826
 11
5.1217221288
 21
5.3423131826
  0
LINE
  5
3AA
100
AcDbEntity
  8
03__ASM_ALL_CURVES
100
AcDbLine
 62
40
  6
CONTINUOUS
 10
5.0471940038
 20
5.3423131826
 11
5.0365471288
 21
5.3423131826
  0
LINE
  5
3AB
100
AcDbEntity
  8
03__ASM_ALL_CURVES
100
AcDbLine
 62
40
  6
CONTINUOUS
 10
4.6606452538
 20
5.3423131826
 11
4.6499983788
 21
5.3423131826
  0
LINE
  5
3AC
100
AcDbEntity
  8
03__ASM_ALL_CURVES
100
AcDbLine
 62
40
  6
CONTINUOUS
 10
4.5754702538
 20
5.3423131826
 11
4.5648233788
 21
5.3423131826
  0
LINE
  5
3AD
100
AcDbEntity
  8
03__ASM_ALL_CURVES
100
AcDbLine
 62
40
  6
CONTINUOUS
 10
4.4849718163
 20
5.3423131826
 11
4.4796483788
 21
5.3423131826
  0
LINE
  5
3AE
100
AcDbEntity
  8
03__ASM_ALL_CURVES
100
AcDbLine
 62
40
  6
CONTINUOUS
 10
3.9739218163
 20
5.3423131826
 11
3.9685983788
 21
5.3423131826
  0
LINE
  5
3AF
100
AcDbEntity
  8
03__ASM_ALL_CURVES
100
AcDbLine
 62
40
  6
CONTINUOUS
 10
4.2933280663
 20
5.3423131826
 11
4.3359155663
 21
5.3423131826
  0
LINE
  5
3B0
100
AcDbEntity
  8
03__ASM_ALL_CURVES
100
AcDbLine
 62
40
  6
CONTINUOUS
 10
4.9354018163
 20
5.3423131826
 11
4.9779893163
 21
5.3423131826
  0
LINE
  5
3B1
100
AcDbEntity
  8
03__ASM_ALL_CURVES
100
AcDbLine
 62
40
  6
CONTINUOUS
 10
6.0426768163
 20
5.3423131826
 11
6.0852643163
 21
5.3423131826
  0
LINE
  5
3B2
100
AcDbEntity
  8
03__ASM_ALL_CURVES
100
AcDbLine
 62
40
  6
CONTINUOUS
 10
4.3785030663
 20
5.3636069326
 11
4.4264140038
 21
5.3636069326
  0
LINE
  5
3B3
100
AcDbEntity
  8
03__ASM_ALL_CURVES
100
AcDbLine
 62
40
  6
CONTINUOUS
 10
3.9323318163
 20
5.3054040159
 11
3.8301218163
 21
5.3082431826
  0
LINE
  5
3B4
100
AcDbEntity
  8
03__ASM_ALL_CURVES
100
AcDbLine
 62
40
  6
CONTINUOUS
 10
4.6969118163
 20
5.3110823493
 11
4.9013318163
 21
5.3054040159
  0
LINE
  5
3B5
100
AcDbEntity
  8
03__ASM_ALL_CURVES
100
AcDbLine
 62
40
  6
CONTINUOUS
 10
4.6969118163
 20
5.3139215159
 11
4.9013318163
 21
5.3025648493
  0
LINE
  5
3B6
100
AcDbEntity
  8
03__ASM_ALL_CURVES
100
AcDbLine
 62
40
  6
CONTINUOUS
 10
4.6969118163
 20
5.3167606826
 11
4.9013318163
 21
5.2997256826
  0
LINE
  5
3B7
100
AcDbEntity
  8
03__ASM_ALL_CURVES
100
AcDbLine
 62
40
  6
CONTINUOUS
 10
5.9734721288
 20
5.3423131826
 11
5.9628252538
 21
5.3494110995
  0
LINE
  5
3B8
100
AcDbEntity
  8
03__ASM_ALL_CURVES
100
AcDbLine
 62
40
  6
CONTINUOUS
 10
5.8989440038
 20
5.4274881826
 11
5.9095908788
 21
5.4203902676
  0
LINE
  5
3B9
100
AcDbEntity
  8
03__ASM_ALL_CURVES
100
AcDbLine
 62
40
  6
CONTINUOUS
 10
7.5729808011
 20
4.3567141826
 11
7.5649956449
 21
4.3620376203
  0
LINE
  5
3BA
100
AcDbEntity
  8
03__ASM_ALL_CURVES
100
AcDbLine
 62
40
  6
CONTINUOUS
 10
7.5170847074
 20
4.4205954326
 11
7.5250698636
 21
4.4152719964
  0
LINE
  5
3BB
100
AcDbEntity
  8
03__ASM_ALL_CURVES
100
AcDbLine
 62
40
  6
CONTINUOUS
 10
6.1597924413
 20
5.4203902676
 11
6.1704393163
 21
5.4061944326
  0
LINE
  5
3BC
100
AcDbEntity
  8
0
100
AcDbLine
 62
7
  6
CONTINUOUS
 10
6.9351218163
 20
3.7156791826
 11
6.9351218163
 21
4.9636791826
  0
LINE
  5
3BD
100
AcDbEntity
  8
0
100
AcDbLine
 62
7
  6
CONTINUOUS
 10
6.9851218163
 20
3.7156791826
 11
6.9851218163
 21
4.9636791826
  0
LINE
  5
3BE
100
AcDbEntity
  8
03__ASM_ALL_CURVES
100
AcDbLine
 62
40
  6
CONTINUOUS
 10
6.472913971
 20
3.2980323063
 11
6.4769065491
 21
3.3033557464
  0
LINE
  5
3BF
100
AcDbEntity
  8
03__ASM_ALL_CURVES
100
AcDbLine
 62
40
  6
CONTINUOUS
 10
6.4848917053
 20
3.2714151195
 11
6.4769065491
 21
3.2607682451
  0
LINE
  5
3C0
100
AcDbEntity
  8
03__ASM_ALL_CURVES
100
AcDbLine
 62
40
  6
CONTINUOUS
 10
6.504854596
 20
3.2873854339
 11
6.5008620178
 21
3.2820619938
  0
LINE
  5
3C1
100
AcDbEntity
  8
03__ASM_ALL_CURVES
100
AcDbLine
 62
40
  6
CONTINUOUS
 10
6.2852627991
 20
3.3033557464
 11
6.2932479553
 21
3.3086791826
  0
LINE
  5
3C2
100
AcDbEntity
  8
03__ASM_ALL_CURVES
100
AcDbLine
 62
40
  6
CONTINUOUS
 10
6.1914372298
 20
3.2054044964
 11
6.1994223861
 21
3.2107279326
  0
LINE
  5
3C3
100
AcDbEntity
  8
03__ASM_ALL_CURVES
100
AcDbLine
 62
40
  6
CONTINUOUS
 10
6.3092182678
 20
3.2501213703
 11
6.3012331116
 21
3.2447979326
  0
LINE
  5
3C4
100
AcDbEntity
  8
03__ASM_ALL_CURVES
100
AcDbLine
 62
40
  6
CONTINUOUS
 10
6.3730995178
 20
3.2820619938
 11
6.3651143616
 21
3.2767385576
  0
LINE
  5
3C5
100
AcDbEntity
  8
03__ASM_ALL_CURVES
100
AcDbLine
 62
40
  6
CONTINUOUS
 10
6.2153926986
 20
3.1521701203
 11
6.2074075423
 21
3.1468466826
  0
LINE
  5
3C6
100
AcDbEntity
  8
03__ASM_ALL_CURVES
100
AcDbLine
 62
40
  6
CONTINUOUS
 10
6.4769065491
 20
3.3033557464
 11
6.4848917053
 21
3.3086791826
  0
LINE
  5
3C7
100
AcDbEntity
  8
03__ASM_ALL_CURVES
100
AcDbLine
 62
40
  6
CONTINUOUS
 10
6.2792739486
 20
3.1521701203
 11
6.2712887923
 21
3.1468466826
  0
LINE
  5
3C8
100
AcDbEntity
  8
03__ASM_ALL_CURVES
100
AcDbLine
 62
40
  6
CONTINUOUS
 10
6.5008620178
 20
3.2820619938
 11
6.4848917053
 21
3.2714151195
  0
LINE
  5
3C9
100
AcDbEntity
  8
03__ASM_ALL_CURVES
100
AcDbLine
 62
40
  6
CONTINUOUS
 10
4.6969118163
 20
5.2912081826
 11
4.9013318163
 21
5.3252781826
  0
LINE
  5
3CA
100
AcDbEntity
  8
03__ASM_ALL_CURVES
100
AcDbLine
 62
40
  6
CONTINUOUS
 10
4.6969118163
 20
5.2940473493
 11
4.9013318163
 21
5.3224390159
  0
LINE
  5
3CB
100
AcDbEntity
  8
03__ASM_ALL_CURVES
100
AcDbLine
 62
40
  6
CONTINUOUS
 10
4.6969118163
 20
5.2968865159
 11
4.9013318163
 21
5.3195998493
  0
LINE
  5
3CC
100
AcDbEntity
  8
03__ASM_ALL_CURVES
100
AcDbLine
 62
40
  6
CONTINUOUS
 10
3.9323318163
 20
5.3195998493
 11
3.8301218163
 21
5.3082431826
  0
LINE
  5
3CD
100
AcDbEntity
  8
03__ASM_ALL_CURVES
100
AcDbLine
 62
40
  6
CONTINUOUS
 10
4.6969118163
 20
5.2997256826
 11
4.9013318163
 21
5.3167606826
  0
LINE
  5
3CE
100
AcDbEntity
  8
03__ASM_ALL_CURVES
100
AcDbLine
 62
40
  6
CONTINUOUS
 10
3.9323318163
 20
5.3167606826
 11
3.8301218163
 21
5.3082431826
  0
LINE
  5
3CF
100
AcDbEntity
  8
03__ASM_ALL_CURVES
100
AcDbLine
 62
40
  6
CONTINUOUS
 10
3.9323318163
 20
5.3139215159
 11
3.8301218163
 21
5.3082431826
  0
LINE
  5
3D0
100
AcDbEntity
  8
03__ASM_ALL_CURVES
100
AcDbLine
 62
40
  6
CONTINUOUS
 10
5.1962502538
 20
5.3707048501
 11
5.2281908788
 21
5.3707048501
  0
LINE
  5
3D1
100
AcDbEntity
  8
03__ASM_ALL_CURVES
100
AcDbLine
 62
40
  6
CONTINUOUS
 10
6.3248190038
 20
5.3849006826
 11
6.2982018163
 21
5.3849006826
  0
LINE
  5
3D2
100
AcDbEntity
  8
03__ASM_ALL_CURVES
100
AcDbLine
 62
40
  6
CONTINUOUS
 10
5.5529205663
 20
5.3849006826
 11
5.5742143163
 21
5.3849006826
  0
LINE
  5
3D3
100
AcDbEntity
  8
03__ASM_ALL_CURVES
100
AcDbLine
 62
40
  6
CONTINUOUS
 10
5.7871518163
 20
5.3849006826
 11
5.8297393163
 21
5.3849006826
  0
LINE
  5
3D4
100
AcDbEntity
  8
03__ASM_ALL_CURVES
100
AcDbLine
 62
40
  6
CONTINUOUS
 10
6.2130268163
 20
5.3849006826
 11
6.2396440038
 21
5.3849006826
  0
LINE
  5
3D5
100
AcDbEntity
  8
03__ASM_ALL_CURVES
100
AcDbLine
 62
40
  6
CONTINUOUS
 10
4.5648233788
 20
5.3919985976
 11
4.5754702538
 21
5.3919985976
  0
LINE
  5
3D6
100
AcDbEntity
  8
03__ASM_ALL_CURVES
100
AcDbLine
 62
40
  6
CONTINUOUS
 10
4.6499983788
 20
5.3919985976
 11
4.6606452538
 21
5.3919985976
  0
LINE
  5
3D7
100
AcDbEntity
  8
03__ASM_ALL_CURVES
100
AcDbLine
 62
40
  6
CONTINUOUS
 10
5.7285940038
 20
5.4274881826
 11
5.7179471288
 21
5.4274881826
  0
LINE
  5
3D8
100
AcDbEntity
  8
03__ASM_ALL_CURVES
100
AcDbLine
 62
40
  6
CONTINUOUS
 10
4.3092983788
 20
5.4274881826
 11
4.3199452538
 21
5.4274881826
  0
LINE
  5
3D9
100
AcDbEntity
  8
03__ASM_ALL_CURVES
100
AcDbLine
 62
40
  6
CONTINUOUS
 10
4.5648233788
 20
5.4274881826
 11
4.5754702538
 21
5.4274881826
  0
LINE
  5
3DA
100
AcDbEntity
  8
03__ASM_ALL_CURVES
100
AcDbLine
 62
40
  6
CONTINUOUS
 10
4.6499983788
 20
5.4274881826
 11
4.6606452538
 21
5.4274881826
  0
LINE
  5
3DB
100
AcDbEntity
  8
03__ASM_ALL_CURVES
100
AcDbLine
 62
40
  6
CONTINUOUS
 10
5.0365471288
 20
5.4274881826
 11
5.0471940038
 21
5.4274881826
  0
LINE
  5
3DC
100
AcDbEntity
  8
03__ASM_ALL_CURVES
100
AcDbLine
 62
40
  6
CONTINUOUS
 10
5.1217221288
 20
5.4274881826
 11
5.1323690038
 21
5.4274881826
  0
LINE
  5
3DD
100
AcDbEntity
  8
03__ASM_ALL_CURVES
100
AcDbLine
 62
40
  6
CONTINUOUS
 10
5.2707783788
 20
5.4274881826
 11
5.3240127538
 21
5.4274881826
  0
LINE
  5
3DE
100
AcDbEntity
  8
03__ASM_ALL_CURVES
100
AcDbLine
 62
40
  6
CONTINUOUS
 10
5.5475971288
 20
5.4274881826
 11
5.5582440038
 21
5.4274881826
  0
LINE
  5
3DF
100
AcDbEntity
  8
03__ASM_ALL_CURVES
100
AcDbLine
 62
40
  6
CONTINUOUS
 10
5.8882971288
 20
5.4274881826
 11
5.8989440038
 21
5.4274881826
  0
LINE
  5
3E0
100
AcDbEntity
  8
03__ASM_ALL_CURVES
100
AcDbLine
 62
40
  6
CONTINUOUS
 10
6.1278518163
 20
5.4274881826
 11
6.1491455663
 21
5.4274881826
  0
LINE
  5
3E1
100
AcDbEntity
  8
03__ASM_ALL_CURVES
100
AcDbLine
 62
40
  6
CONTINUOUS
 10
6.2130268163
 20
5.4274881826
 11
6.2556143163
 21
5.4274881826
  0
LINE
  5
3E2
100
AcDbEntity
  8
03__ASM_ALL_CURVES
100
AcDbLine
 62
40
  6
CONTINUOUS
 10
6.2982018163
 20
5.4274881826
 11
6.3248190038
 21
5.4274881826
  0
LINE
  5
3E3
100
AcDbEntity
  8
03__ASM_ALL_CURVES
100
AcDbLine
 62
40
  6
CONTINUOUS
 10
7.5809659574
 20
4.4205954326
 11
7.5889511136
 21
4.4152719964
  0
LINE
  5
3E4
100
AcDbEntity
  8
03__ASM_ALL_CURVES
100
AcDbLine
 62
40
  6
CONTINUOUS
 10
7.6448472074
 20
4.4205954326
 11
7.6528323636
 21
4.4152719964
  0
LINE
  5
3E5
100
AcDbEntity
  8
03__ASM_ALL_CURVES
100
AcDbLine
 62
40
  6
CONTINUOUS
 10
6.1491455663
 20
5.4274881826
 11
6.1597924413
 21
5.4203902676
  0
LINE
  5
3E6
100
AcDbEntity
  8
03__ASM_ALL_CURVES
100
AcDbLine
 62
40
  6
CONTINUOUS
 10
6.3354658788
 20
5.4203902676
 11
6.3407893163
 21
5.4132923476
  0
LINE
  5
3E7
100
AcDbEntity
  8
0
100
AcDbLine
 62
7
  6
CONTINUOUS
 10
7.0881218163
 20
3.7156791826
 11
7.0881218163
 21
4.9636791826
  0
LINE
  5
3E8
100
AcDbEntity
  8
0
100
AcDbLine
 62
7
  6
CONTINUOUS
 10
7.1381218163
 20
3.7156791826
 11
7.1381218163
 21
4.9636791826
  0
LINE
  5
3E9
100
AcDbEntity
  8
0
100
AcDbLine
 62
7
  6
CONTINUOUS
 10
7.1591218163
 20
4.9631718769
 11
7.1591218163
 21
3.7161864883
  0
LINE
  5
3EA
100
AcDbEntity
  8
03__ASM_ALL_CURVES
100
AcDbLine
 62
40
  6
CONTINUOUS
 10
7.5290624418
 20
4.3993016839
 11
7.5250698636
 21
4.3939782438
  0
LINE
  5
3EB
100
AcDbEntity
  8
03__ASM_ALL_CURVES
100
AcDbLine
 62
40
  6
CONTINUOUS
 10
7.5570104886
 20
4.4046251201
 11
7.5649956449
 21
4.4152719964
  0
LINE
  5
3EC
100
AcDbEntity
  8
03__ASM_ALL_CURVES
100
AcDbLine
 62
40
  6
CONTINUOUS
 10
7.5969362699
 20
4.3726844951
 11
7.5889511136
 21
4.3620376203
  0
LINE
  5
3ED
100
AcDbEntity
  8
03__ASM_ALL_CURVES
100
AcDbLine
 62
40
  6
CONTINUOUS
 10
3.8301218163
 20
5.3082431826
 11
3.9323318163
 21
5.3252781826
  0
LINE
  5
3EE
100
AcDbEntity
  8
03__ASM_ALL_CURVES
100
AcDbLine
 62
40
  6
CONTINUOUS
 10
3.9323318163
 20
5.3224390159
 11
3.8301218163
 21
5.3082431826
  0
LINE
  5
3EF
100
AcDbEntity
  8
03__ASM_ALL_CURVES
100
AcDbLine
 62
40
  6
CONTINUOUS
 10
6.3248190038
 20
5.4274881826
 11
6.3354658788
 21
5.4203902676
  0
LINE
  5
3F0
100
AcDbEntity
  8
0
100
AcDbLine
 62
7
  6
CONTINUOUS
 10
7.2061218163
 20
3.7161791826
 11
7.2061218163
 21
4.9631791826
  0
LINE
  5
3F1
100
AcDbEntity
  8
0
100
AcDbLine
 62
7
  6
CONTINUOUS
 10
7.2371218163
 20
3.7471791826
 11
7.2371218163
 21
4.9321791826
  0
LINE
  5
3F2
100
AcDbEntity
  8
03__ASM_ALL_CURVES
100
AcDbLine
 62
40
  6
CONTINUOUS
 10
7.6568249418
 20
4.3993016839
 11
7.6528323636
 21
4.3939782438
  0
LINE
  5
3F3
100
AcDbEntity
  8
0
100
AcDbLine
 62
7
  6
CONTINUOUS
 10
7.2061218163
 20
3.7161791826
 11
7.2371218163
 21
3.7471791826
  0
LINE
  5
3F4
100
AcDbEntity
  8
0
100
AcDbLine
 62
7
  6
CONTINUOUS
 10
7.2061218163
 20
4.9631791826
 11
7.2371218163
 21
4.9321791826
  0
LINE
  5
3F5
100
AcDbEntity
  8
03__ASM_ALL_CURVES
100
AcDbLine
 62
40
  6
CONTINUOUS
 10
7.5649956449
 20
4.3620376203
 11
7.5570104886
 21
4.3726844951
  0
LINE
  5
3F6
100
AcDbEntity
  8
03__ASM_ALL_CURVES
100
AcDbLine
 62
40
  6
CONTINUOUS
 10
7.5250698636
 20
4.4152719964
 11
7.5290624418
 21
4.4099485563
  0
LINE
  5
3F7
100
AcDbEntity
  8
03__ASM_ALL_CURVES
100
AcDbLine
 62
40
  6
CONTINUOUS
 10
7.5889511136
 20
4.4152719964
 11
7.5969362699
 21
4.4046251201
  0
LINE
  5
3F8
100
AcDbEntity
  8
03__ASM_ALL_CURVES
100
AcDbLine
 62
40
  6
CONTINUOUS
 10
7.5530179105
 20
4.3886548076
 11
7.5570104886
 21
4.4046251201
  0
LINE
  5
3F9
100
AcDbEntity
  8
03__ASM_ALL_CURVES
100
AcDbLine
 62
40
  6
CONTINUOUS
 10
7.6528323636
 20
4.4152719964
 11
7.6568249418
 21
4.4099485563
  0
LINE
  5
3FA
100
AcDbEntity
  8
03__ASM_ALL_CURVES
100
AcDbLine
 62
40
  6
CONTINUOUS
 10
7.5450327547
 20
4.3226441826
 11
7.5769733797
 21
4.2587629326
  0
LINE
  5
3FB
100
AcDbEntity
  8
03__ASM_ALL_CURVES
100
AcDbLine
 62
40
  6
CONTINUOUS
 10
7.4971218172
 20
4.3226441826
 11
7.4971218172
 21
4.2587629326
  0
LINE
  5
3FC
100
AcDbEntity
  8
03__ASM_ALL_CURVES
100
AcDbLine
 62
40
  6
CONTINUOUS
 10
7.4971218168
 20
4.3567141826
 11
7.4971218168
 21
4.4205954326
  0
LINE
  5
3FD
100
AcDbEntity
  8
03__ASM_ALL_CURVES
100
AcDbLine
 62
40
  6
CONTINUOUS
 10
7.5290624418
 20
4.4099485563
 11
7.5290624418
 21
4.3993016839
  0
LINE
  5
3FE
100
AcDbEntity
  8
03__ASM_ALL_CURVES
100
AcDbLine
 62
40
  6
CONTINUOUS
 10
7.5450327547
 20
4.2587629326
 11
7.5450327547
 21
4.3226441826
  0
LINE
  5
3FF
100
AcDbEntity
  8
03__ASM_ALL_CURVES
100
AcDbLine
 62
40
  6
CONTINUOUS
 10
7.5769733797
 20
4.2587629326
 11
7.5769733797
 21
4.3226441826
  0
LINE
  5
400
100
AcDbEntity
  8
03__ASM_ALL_CURVES
100
AcDbLine
 62
40
  6
CONTINUOUS
 10
7.6089140047
 20
4.3226441826
 11
7.6089140047
 21
4.2587629326
  0
LINE
  5
401
100
AcDbEntity
  8
03__ASM_ALL_CURVES
100
AcDbLine
 62
40
  6
CONTINUOUS
 10
7.6248843168
 20
4.3567141826
 11
7.6248843168
 21
4.4205954326
  0
LINE
  5
402
100
AcDbEntity
  8
03__ASM_ALL_CURVES
100
AcDbLine
 62
40
  6
CONTINUOUS
 10
7.600928848
 20
4.3886548076
 11
7.5969362699
 21
4.3726844951
  0
LINE
  5
403
100
AcDbEntity
  8
03__ASM_ALL_CURVES
100
AcDbLine
 62
40
  6
CONTINUOUS
 10
7.6448472074
 20
4.3886548076
 11
7.6568249418
 21
4.3567141826
  0
LINE
  5
404
100
AcDbEntity
  8
03__ASM_ALL_CURVES
100
AcDbLine
 62
40
  6
CONTINUOUS
 10
7.5570104886
 20
4.3726844951
 11
7.5530179105
 21
4.3886548076
  0
LINE
  5
405
100
AcDbEntity
  8
03__ASM_ALL_CURVES
100
AcDbLine
 62
40
  6
CONTINUOUS
 10
7.5969362699
 20
4.4046251201
 11
7.600928848
 21
4.3886548076
  0
LINE
  5
406
100
AcDbEntity
  8
03__ASM_ALL_CURVES
100
AcDbLine
 62
40
  6
CONTINUOUS
 10
7.6568249418
 20
4.4099485563
 11
7.6568249418
 21
4.3993016839
  0
LINE
  5
407
100
AcDbEntity
  8
03__ASM_ALL_CURVES
100
AcDbLine
 62
40
  6
CONTINUOUS
 10
7.6727952547
 20
4.2587629326
 11
7.6727952547
 21
4.3226441826
  0
LINE
  5
408
100
AcDbEntity
  8
03__ASM_ALL_CURVES
100
AcDbLine
 62
40
  6
CONTINUOUS
 10
7.7047358793
 20
4.4205954326
 11
7.7047358793
 21
4.3567141826
  0
LINE
  5
409
100
AcDbEntity
  8
03__ASM_ALL_CURVES
100
AcDbLine
 62
40
  6
CONTINUOUS
 10
7.7526468172
 20
4.3226441826
 11
7.7526468172
 21
4.2587629326
  0
LINE
  5
40A
100
AcDbEntity
  8
03__ASM_ALL_CURVES
100
AcDbLine
 62
40
  6
CONTINUOUS
 10
7.7686171293
 20
4.4205954326
 11
7.7686171293
 21
4.3567141826
  0
CIRCLE
  5
40B
100
AcDbEntity
  8
0
100
AcDbCircle
 62
7
  6
CONTINUOUS
 10
6.7061218163
 20
4.3396791826
 40
0.1095
  0
CIRCLE
  5
40C
100
AcDbEntity
  8
0
100
AcDbCircle
 62
7
  6
CONTINUOUS
 10
6.2681218163
 20
4.3396791826
 40
0.1095
  0
ARC
  5
40D
100
AcDbEntity
  8
0
100
AcDbCircle
 62
7
  6
CONTINUOUS
 10
4.991485788
 20
3.6816791826
 40
0.028
100
AcDbArc
 50
9.2483579724
 51
74.1657121693
  0
ARC
  5
40E
100
AcDbEntity
  8
0
100
AcDbCircle
 62
7
  6
CONTINUOUS
 10
4.991485788
 20
4.9976791826
 40
0.028
100
AcDbArc
 50
285.8342878307
 51
350.7516420276
  0
ARC
  5
40F
100
AcDbEntity
  8
0
100
AcDbCircle
 62
7
  6
CONTINUOUS
 10
6.0441218163
 20
4.8719291826
 40
0.022
100
AcDbArc
 50
187.1807557815
 51
352.8192442185
  0
SPLINE
  5
410
100
AcDbEntity
  8
0
100
AcDbSpline
 62
7
  6
CONTINUOUS
 70
0
 71
3
 72
15
 73
11
 74
9
 42
0.0000001
 43
0.0000001
 44
0.0000000001
 12
0.0
 22
0.1617702498
 32
0.0
 13
0.0
 23
-0.1617702498
 33
0.0
 40
0.0
 40
0.0
 40
0.0
 40
0.0
 40
0.125
 40
0.25
 40
0.375
 40
0.5
 40
0.625
 40
0.75
 40
0.875
 40
1.0
 40
1.0
 40
1.0
 40
1.0
 10
7.0881218163
 20
4.9271791826
 30
0.0
 10
7.0881218163
 20
4.9339196097
 30
0.0
 10
7.0854403077
 20
4.9474004638
 30
0.0
 10
7.073985872
 20
4.9645432383
 30
0.0
 10
7.0568430975
 20
4.975997674
 30
0.0
 10
7.0366218163
 20
4.9800199369
 30
0.0
 10
7.0164005351
 20
4.975997674
 30
0.0
 10
6.9992577606
 20
4.9645432383
 30
0.0
 10
6.9878033249
 20
4.9474004638
 30
0.0
 10
6.9851218163
 20
4.9339196097
 30
0.0
 10
6.9851218163
 20
4.9271791826
 30
0.0
 11
7.0881218163
 21
4.9271791826
 31
0.0
 11
7.0842016122
 21
4.9468873794
 31
0.0
 11
7.0730378155
 21
4.9635951818
 31
0.0
 11
7.0563300131
 21
4.9747589785
 31
0.0
 11
7.0366218163
 21
4.9786791826
 31
0.0
 11
7.0169136195
 21
4.9747589785
 31
0.0
 11
7.0002058171
 21
4.9635951818
 31
0.0
 11
6.9890420204
 21
4.9468873794
 31
0.0
 11
6.9851218163
 21
4.9271791826
 31
0.0
  0
SPLINE
  5
411
100
AcDbEntity
  8
0
100
AcDbSpline
 62
7
  6
CONTINUOUS
 70
0
 71
3
 72
15
 73
11
 74
9
 42
0.0000001
 43
0.0000001
 44
0.0000000001
 12
0.0
 22
-0.1617702498
 32
0.0
 13
0.0
 23
0.1617702498
 33
0.0
 40
0.0
 40
0.0
 40
0.0
 40
0.0
 40
0.125
 40
0.25
 40
0.375
 40
0.5
 40
0.625
 40
0.75
 40
0.875
 40
1.0
 40
1.0
 40
1.0
 40
1.0
 10
7.0881218163
 20
3.7521791826
 30
0.0
 10
7.0881218163
 20
3.7454387555
 30
0.0
 10
7.0854403077
 20
3.7319579014
 30
0.0
 10
7.073985872
 20
3.7148151269
 30
0.0
 10
7.0568430975
 20
3.7033606912
 30
0.0
 10
7.0366218163
 20
3.6993384283
 30
0.0
 10
7.0164005351
 20
3.7033606912
 30
0.0
 10
6.9992577606
 20
3.7148151269
 30
0.0
 10
6.9878033249
 20
3.7319579014
 30
0.0
 10
6.9851218163
 20
3.7454387555
 30
0.0
 10
6.9851218163
 20
3.7521791826
 30
0.0
 11
7.0881218163
 21
3.7521791826
 31
0.0
 11
7.0842016122
 21
3.7324709858
 31
0.0
 11
7.0730378155
 21
3.7157631834
 31
0.0
 11
7.0563300131
 21
3.7045993867
 31
0.0
 11
7.0366218163
 21
3.7006791826
 31
0.0
 11
7.0169136195
 21
3.7045993867
 31
0.0
 11
7.0002058171
 21
3.7157631834
 31
0.0
 11
6.9890420204
 21
3.7324709858
 31
0.0
 11
6.9851218163
 21
3.7521791826
 31
0.0
  0
SPLINE
  5
412
100
AcDbEntity
  8
0
100
AcDbSpline
 62
7
  6
CONTINUOUS
 70
0
 71
3
 72
15
 73
11
 74
9
 42
0.0000001
 43
0.0000001
 44
0.0000000001
 12
0.0
 22
0.1617702498
 32
0.0
 13
0.0
 23
-0.1617702498
 33
0.0
 40
0.0
 40
0.0
 40
0.0
 40
0.0
 40
0.125
 40
0.25
 40
0.375
 40
0.5
 40
0.625
 40
0.75
 40
0.875
 40
1.0
 40
1.0
 40
1.0
 40
1.0
 10
4.9491218163
 20
5.0211791826
 30
0.0
 10
4.9491218163
 20
5.0279196097
 30
0.0
 10
4.9464403077
 20
5.0414004638
 30
0.0
 10
4.934985872
 20
5.0585432383
 30
0.0
 10
4.9178430975
 20
5.069997674
 30
0.0
 10
4.8976218163
 20
5.0740199369
 30
0.0
 10
4.8774005351
 20
5.069997674
 30
0.0
 10
4.8602577606
 20
5.0585432383
 30
0.0
 10
4.8488033249
 20
5.0414004638
 30
0.0
 10
4.8461218163
 20
5.0279196097
 30
0.0
 10
4.8461218163
 20
5.0211791826
 30
0.0
 11
4.9491218163
 21
5.0211791826
 31
0.0
 11
4.9452016122
 21
5.0408873794
 31
0.0
 11
4.9340378155
 21
5.0575951818
 31
0.0
 11
4.9173300131
 21
5.0687589785
 31
0.0
 11
4.8976218163
 21
5.0726791826
 31
0.0
 11
4.8779136195
 21
5.0687589785
 31
0.0
 11
4.8612058171
 21
5.0575951818
 31
0.0
 11
4.8500420204
 21
5.0408873794
 31
0.0
 11
4.8461218163
 21
5.0211791826
 31
0.0
  0
SPLINE
  5
413
100
AcDbEntity
  8
0
100
AcDbSpline
 62
7
  6
CONTINUOUS
 70
0
 71
3
 72
15
 73
11
 74
9
 42
0.0000001
 43
0.0000001
 44
0.0000000001
 12
0.0
 22
-0.1617702498
 32
0.0
 13
0.0
 23
0.1617702498
 33
0.0
 40
0.0
 40
0.0
 40
0.0
 40
0.0
 40
0.125
 40
0.25
 40
0.375
 40
0.5
 40
0.625
 40
0.75
 40
0.875
 40
1.0
 40
1.0
 40
1.0
 40
1.0
 10
4.9491218163
 20
3.6581791826
 30
0.0
 10
4.9491218163
 20
3.6514387555
 30
0.0
 10
4.9464403077
 20
3.6379579014
 30
0.0
 10
4.934985872
 20
3.6208151269
 30
0.0
 10
4.9178430975
 20
3.6093606912
 30
0.0
 10
4.8976218163
 20
3.6053384283
 30
0.0
 10
4.8774005351
 20
3.6093606912
 30
0.0
 10
4.8602577606
 20
3.6208151269
 30
0.0
 10
4.8488033249
 20
3.6379579014
 30
0.0
 10
4.8461218163
 20
3.6514387555
 30
0.0
 10
4.8461218163
 20
3.6581791826
 30
0.0
 11
4.9491218163
 21
3.6581791826
 31
0.0
 11
4.9452016122
 21
3.6384709858
 31
0.0
 11
4.9340378155
 21
3.6217631834
 31
0.0
 11
4.9173300131
 21
3.6105993867
 31
0.0
 11
4.8976218163
 21
3.6066791826
 31
0.0
 11
4.8779136195
 21
3.6105993867
 31
0.0
 11
4.8612058171
 21
3.6217631834
 31
0.0
 11
4.8500420204
 21
3.6384709858
 31
0.0
 11
4.8461218163
 21
3.6581791826
 31
0.0
  0
SPLINE
  5
414
100
AcDbEntity
  8
0
100
AcDbSpline
 62
7
  6
CONTINUOUS
 70
0
 71
3
 72
23
 73
19
 74
17
 42
0.0000001
 43
0.0000001
 44
0.0000000001
 12
-0.2159977014
 22
-0.0446681094
 32
0.0
 13
-0.2159977019
 23
0.0446681093
 33
0.0
 40
0.0
 40
0.0
 40
0.0
 40
0.0
 40
0.0097417035
 40
0.0385809658
 40
0.0851674431
 40
0.1475333364
 40
0.2232263867
 40
0.3093935722
 40
0.4028591555
 40
0.500064106
 40
0.5972852144
 40
0.6907787386
 40
0.7769613284
 40
0.8526343221
 40
0.9149510959
 40
0.9614793912
 40
0.990276363
 40
1.0
 40
1.0
 40
1.0
 40
1.0
 10
6.8156218163
 20
4.8691791826
 30
0.0
 10
6.8149204211
 20
4.8690341348
 30
0.0
 10
6.8121415697
 20
4.868464755
 30
0.0
 10
6.8059981897
 20
4.8672523818
 30
0.0
 10
6.796031353
 20
4.8654339786
 30
0.0
 10
6.7826261658
 20
4.863280874
 30
0.0
 10
6.7662807186
 20
4.8611152451
 30
0.0
 10
6.74759574
 20
4.8592663371
 30
0.0
 10
6.7272745946
 20
4.8580230822
 30
0.0
 10
6.7061064847
 20
4.8575851486
 30
0.0
 10
6.6849363436
 20
4.8580243533
 30
0.0
 10
6.6646109106
 20
4.859269233
 30
0.0
 10
6.6459243644
 20
4.8611197026
 30
0.0
 10
6.6295829941
 20
4.8632859848
 30
0.0
 10
6.6161871765
 20
4.865438358
 30
0.0
 10
6.606231224
 20
4.8672551289
 30
0.0
 10
6.6000964129
 20
4.8684659053
 30
0.0
 10
6.5973219107
 20
4.8690344038
 30
0.0
 10
6.5966218163
 20
4.8691791826
 30
0.0
 11
6.8156218163
 21
4.8691791826
 31
0.0
 11
6.8135168379
 21
4.8687478839
 31
0.0
 11
6.8072761468
 21
4.8675164668
 31
0.0
 11
6.7971674028
 21
4.8656728126
 31
0.0
 11
6.7835853299
 21
4.8634926951
 31
0.0
 11
6.7670342087
 21
4.8613019577
 31
0.0
 11
6.7481206006
 21
4.8594328722
 31
0.0
 11
6.7275434225
 21
4.8581759379
 31
0.0
 11
6.7061076767
 21
4.857733234
 31
0.0
 11
6.6846683933
 21
4.8581772533
 31
0.0
 11
6.6640851477
 21
4.8594359348
 31
0.0
 11
6.6451682974
 21
4.8613067619
 31
0.0
 11
6.6286217191
 21
4.8634981065
 31
0.0
 11
6.6150504665
 21
4.8656772727
 31
0.0
 11
6.6049544108
 21
4.8675189726
 31
0.0
 11
6.5987228895
 21
4.8687486766
 31
0.0
 11
6.5966218163
 21
4.8691791826
 31
0.0
  0
SPLINE
  5
415
100
AcDbEntity
  8
0
100
AcDbSpline
 62
7
  6
CONTINUOUS
 70
0
 71
3
 72
8
 73
4
 74
2
 42
0.0000001
 43
0.0000001
 44
0.0000000001
 12
0.0012564672
 22
-0.0000517238
 32
0.0
 13
0.0012563374
 23
-0.0000547921
 33
0.0
 40
0.0
 40
0.0
 40
0.0
 40
0.0
 40
1.0
 40
1.0
 40
1.0
 40
1.0
 10
6.0659492646
 20
3.8102507762
 30
0.0
 10
6.066368087
 20
3.8102335349
 30
0.0
 10
6.0667868874
 20
3.8102157528
 30
0.0
 10
6.0672056665
 20
3.8101974887
 30
0.0
 11
6.0659492646
 21
3.8102507762
 31
0.0
 11
6.0672056665
 21
3.8101974887
 31
0.0
  0
SPLINE
  5
416
100
AcDbEntity
  8
0
100
AcDbSpline
 62
7
  6
CONTINUOUS
 70
0
 71
3
 72
8
 73
4
 74
2
 42
0.0000001
 43
0.0000001
 44
0.0000000001
 12
0.0004161567
 22
-0.0000181497
 32
0.0
 13
0.0004161429
 23
-0.0000184604
 33
0.0
 40
0.0
 40
0.0
 40
0.0
 40
0.0
 40
1.0
 40
1.0
 40
1.0
 40
1.0
 10
6.0672056665
 20
3.8101974887
 30
0.0
 10
6.0673443854
 20
3.8101914388
 30
0.0
 10
6.067483102
 20
3.8101853361
 30
0.0
 10
6.0676218163
 20
3.8101791826
 30
0.0
 11
6.0672056665
 21
3.8101974887
 31
0.0
 11
6.0676218163
 21
3.8101791826
 31
0.0
  0
SPLINE
  5
417
100
AcDbEntity
  8
0
100
AcDbSpline
 62
7
  6
CONTINUOUS
 70
0
 71
3
 72
22
 73
18
 74
16
 42
0.0000001
 43
0.0000001
 44
0.0000000001
 12
0.0
 22
-0.3047757328
 32
0.0
 13
0.0
 23
0.3047757328
 33
0.0
 40
0.0
 40
0.0
 40
0.0
 40
0.0
 40
0.0530152765
 40
0.1112142208
 40
0.1735673951
 40
0.2378177878
 40
0.3052279361
 40
0.3803780547
 40
0.4597028504
 40
0.5392645578
 40
0.6188970823
 40
0.6945531253
 40
0.7623653303
 40
0.8266444361
 40
0.8887741271
 40
0.9468826395
 40
1.0
 40
1.0
 40
1.0
 40
1.0
 10
6.8156218163
 20
4.7140922232
 30
0.0
 10
6.8156218163
 20
4.7087063
 30
0.0
 10
6.8139246661
 20
4.697365008
 30
0.0
 10
6.8068264927
 20
4.681042159
 30
0.0
 10
6.7955881931
 20
4.6658255523
 30
0.0
 10
6.7809206986
 20
4.6524918553
 30
0.0
 10
6.7630079282
 20
4.6413071182
 30
0.0
 10
6.7419386285
 20
4.6329353092
 30
0.0
 10
6.7184528526
 20
4.6283939243
 30
0.0
 10
6.6940758593
 20
4.6283638185
 30
0.0
 10
6.6704977721
 20
4.6328713033
 30
0.0
 10
6.6493015443
 20
4.6412647199
 30
0.0
 10
6.6313057471
 20
4.6524996381
 30
0.0
 10
6.6166299768
 20
4.6658560994
 30
0.0
 10
6.60541534
 20
4.6810526609
 30
0.0
 10
6.5983225227
 20
4.6973532862
 30
0.0
 10
6.5966218163
 20
4.7086959291
 30
0.0
 10
6.5966218163
 20
4.7140922232
 30
0.0
 11
6.8156218163
 21
4.7140922232
 31
0.0
 11
6.8133559042
 21
4.6980941244
 31
0.0
 11
6.8064367894
 21
4.6817616652
 31
0.0
 11
6.7952494429
 21
4.6663998554
 31
0.0
 11
6.7808142401
 21
4.6531681474
 31
0.0
 11
6.763412432
 21
4.6422469218
 31
0.0
 11
6.7421378019
 21
4.633762805
 31
0.0
 11
6.718403337
 21
4.6291620078
 31
0.0
 11
6.6941548778
 21
4.6291320212
 31
0.0
 11
6.6703186059
 21
4.6337001723
 31
0.0
 11
6.648890809
 21
4.6422164326
 31
0.0
 11
6.6313847732
 21
4.653202099
 31
0.0
 11
6.6169507922
 21
4.666448086
 31
0.0
 11
6.6058086292
 21
4.6817585396
 31
0.0
 11
6.5988962136
 21
4.6980639035
 31
0.0
 11
6.5966218163
 21
4.7140922232
 31
0.0
  0
SPLINE
  5
418
100
AcDbEntity
  8
0
100
AcDbSpline
 62
7
  6
CONTINUOUS
 70
0
 71
3
 72
22
 73
18
 74
16
 42
0.0000001
 43
0.0000001
 44
0.0000000001
 12
0.0
 22
0.304775686
 32
0.0
 13
0.0
 23
-0.304775686
 33
0.0
 40
0.0
 40
0.0
 40
0.0
 40
0.0
 40
0.0530199421
 40
0.1112728785
 40
0.1736741551
 40
0.2379019716
 40
0.3053205183
 40
0.3804706437
 40
0.4597430572
 40
0.5392264513
 40
0.6188050589
 40
0.6944625179
 40
0.7622793997
 40
0.8265395735
 40
0.8887113908
 40
0.946872688
 40
1.0
 40
1.0
 40
1.0
 40
1.0
 10
6.5966218163
 20
3.965266142
 30
0.0
 10
6.5966218163
 20
3.9706525384
 30
0.0
 10
6.5983200112
 20
3.9819997997
 30
0.0
 10
6.6054250487
 20
3.9983319511
 30
0.0
 10
6.6166726616
 20
4.01355197
 30
0.0
 10
6.63134625
 20
4.0268838707
 30
0.0
 10
6.649260398
 20
4.0380637118
 30
0.0
 10
6.6703274228
 20
4.0464290415
 30
0.0
 10
6.6938006069
 20
4.0509641067
 30
0.0
 10
6.7181584338
 20
4.0509941274
 30
0.0
 10
6.7417238818
 20
4.0464928776
 30
0.0
 10
6.7629174537
 20
4.0381060386
 30
0.0
 10
6.7809147346
 20
4.0268759642
 30
0.0
 10
6.7955961646
 20
4.0135217066
 30
0.0
 10
6.8068199134
 20
3.9983220726
 30
0.0
 10
6.8139198263
 20
3.9820124818
 30
0.0
 10
6.8156218163
 20
3.9706634463
 30
0.0
 10
6.8156218163
 20
3.965266142
 30
0.0
 11
6.5966218163
 21
3.965266142
 31
0.0
 11
6.5988881153
 21
3.9812656196
 31
0.0
 11
6.6058157742
 21
3.9976123273
 31
0.0
 11
6.6170160895
 21
4.0129828239
 31
0.0
 11
6.6314499281
 21
4.0262058317
 31
0.0
 11
6.6488564458
 21
4.0371243612
 31
0.0
 11
6.670133024
 21
4.0456035876
 31
0.0
 11
6.6938525496
 21
4.0501975402
 31
0.0
 11
6.7180771372
 21
4.0502274364
 31
0.0
 11
6.741897984
 21
4.045666124
 31
0.0
 11
6.7633281082
 21
4.0371545621
 31
0.0
 11
6.7808379053
 21
4.026172215
 31
0.0
 11
6.7952713446
 21
4.012934177
 31
0.0
 11
6.80642545
 21
3.99761654
 31
0.0
 11
6.8133465918
 21
3.9812974051
 31
0.0
 11
6.8156218163
 21
3.965266142
 31
0.0
  0
SPLINE
  5
419
100
AcDbEntity
  8
0
100
AcDbSpline
 62
7
  6
CONTINUOUS
 70
0
 71
3
 72
23
 73
19
 74
17
 42
0.0000001
 43
0.0000001
 44
0.0000000001
 12
0.2159977014
 22
0.0446681094
 32
0.0
 13
0.2159977019
 23
-0.0446681093
 33
0.0
 40
0.0
 40
0.0
 40
0.0
 40
0.0
 40
0.0097417035
 40
0.0385809658
 40
0.0851674431
 40
0.1475333364
 40
0.2232263867
 40
0.3093935722
 40
0.4028591555
 40
0.500064106
 40
0.5972852144
 40
0.6907787386
 40
0.7769613284
 40
0.8526343221
 40
0.9149510959
 40
0.9614793912
 40
0.990276363
 40
1.0
 40
1.0
 40
1.0
 40
1.0
 10
6.5966218163
 20
3.8101791826
 30
0.0
 10
6.5973232115
 20
3.8103242304
 30
0.0
 10
6.6001020629
 20
3.8108936102
 30
0.0
 10
6.6062454429
 20
3.8121059834
 30
0.0
 10
6.6162122796
 20
3.8139243866
 30
0.0
 10
6.6296174668
 20
3.8160774912
 30
0.0
 10
6.645962914
 20
3.8182431201
 30
0.0
 10
6.6646478926
 20
3.8200920281
 30
0.0
 10
6.684969038
 20
3.821335283
 30
0.0
 10
6.706137148
 20
3.8217732166
 30
0.0
 10
6.727307289
 20
3.8213340119
 30
0.0
 10
6.7476327221
 20
3.8200891322
 30
0.0
 10
6.7663192683
 20
3.8182386626
 30
0.0
 10
6.7826606385
 20
3.8160723804
 30
0.0
 10
6.7960564561
 20
3.8139200072
 30
0.0
 10
6.8060124086
 20
3.8121032363
 30
0.0
 10
6.8121472197
 20
3.8108924598
 30
0.0
 10
6.8149217219
 20
3.8103239614
 30
0.0
 10
6.8156218163
 20
3.8101791826
 30
0.0
 11
6.5966218163
 21
3.8101791826
 31
0.0
 11
6.5987267948
 21
3.8106104813
 31
0.0
 11
6.6049674858
 21
3.8118418984
 31
0.0
 11
6.6150762299
 21
3.8136855526
 31
0.0
 11
6.6286583028
 21
3.81586567
 31
0.0
 11
6.6452094239
 21
3.8180564074
 31
0.0
 11
6.664123032
 21
3.819925493
 31
0.0
 11
6.6847002101
 21
3.8211824273
 31
0.0
 11
6.706135956
 21
3.8216251312
 31
0.0
 11
6.7275752393
 21
3.8211811119
 31
0.0
 11
6.748158485
 21
3.8199224303
 31
0.0
 11
6.7670753352
 21
3.8180516033
 31
0.0
 11
6.7836219135
 21
3.8158602587
 31
0.0
 11
6.7971931662
 21
3.8136810925
 31
0.0
 11
6.8072892218
 21
3.8118393926
 31
0.0
 11
6.8135207431
 21
3.8106096886
 31
0.0
 11
6.8156218163
 21
3.8101791826
 31
0.0
  0
SPLINE
  5
41A
100
AcDbEntity
  8
0
100
AcDbSpline
 62
7
  6
CONTINUOUS
 70
0
 71
3
 72
23
 73
19
 74
17
 42
0.0000001
 43
0.0000001
 44
0.0000000001
 12
0.2159977014
 22
0.0446681094
 32
0.0
 13
0.2159977019
 23
-0.0446681093
 33
0.0
 40
0.0
 40
0.0
 40
0.0
 40
0.0
 40
0.0097417035
 40
0.0385809658
 40
0.0851674431
 40
0.1475333364
 40
0.2232263867
 40
0.3093935722
 40
0.4028591555
 40
0.500064106
 40
0.5972852144
 40
0.6907787386
 40
0.7769613284
 40
0.8526343221
 40
0.9149510959
 40
0.9614793912
 40
0.990276363
 40
1.0
 40
1.0
 40
1.0
 40
1.0
 10
6.1586218163
 20
3.8101791826
 30
0.0
 10
6.1593232115
 20
3.8103242304
 30
0.0
 10
6.1621020629
 20
3.8108936102
 30
0.0
 10
6.1682454429
 20
3.8121059834
 30
0.0
 10
6.1782122796
 20
3.8139243866
 30
0.0
 10
6.1916174668
 20
3.8160774912
 30
0.0
 10
6.207962914
 20
3.8182431201
 30
0.0
 10
6.2266478926
 20
3.8200920281
 30
0.0
 10
6.246969038
 20
3.821335283
 30
0.0
 10
6.268137148
 20
3.8217732166
 30
0.0
 10
6.289307289
 20
3.8213340119
 30
0.0
 10
6.3096327221
 20
3.8200891322
 30
0.0
 10
6.3283192683
 20
3.8182386626
 30
0.0
 10
6.3446606385
 20
3.8160723804
 30
0.0
 10
6.3580564561
 20
3.8139200072
 30
0.0
 10
6.3680124086
 20
3.8121032363
 30
0.0
 10
6.3741472197
 20
3.8108924598
 30
0.0
 10
6.3769217219
 20
3.8103239614
 30
0.0
 10
6.3776218163
 20
3.8101791826
 30
0.0
 11
6.1586218163
 21
3.8101791826
 31
0.0
 11
6.1607267948
 21
3.8106104813
 31
0.0
 11
6.1669674858
 21
3.8118418984
 31
0.0
 11
6.1770762299
 21
3.8136855526
 31
0.0
 11
6.1906583028
 21
3.81586567
 31
0.0
 11
6.2072094239
 21
3.8180564074
 31
0.0
 11
6.226123032
 21
3.819925493
 31
0.0
 11
6.2467002101
 21
3.8211824273
 31
0.0
 11
6.268135956
 21
3.8216251312
 31
0.0
 11
6.2895752393
 21
3.8211811119
 31
0.0
 11
6.310158485
 21
3.8199224303
 31
0.0
 11
6.3290753352
 21
3.8180516033
 31
0.0
 11
6.3456219135
 21
3.8158602587
 31
0.0
 11
6.3591931662
 21
3.8136810925
 31
0.0
 11
6.3692892218
 21
3.8118393926
 31
0.0
 11
6.3755207431
 21
3.8106096886
 31
0.0
 11
6.3776218163
 21
3.8101791826
 31
0.0
  0
SPLINE
  5
41B
100
AcDbEntity
  8
0
100
AcDbSpline
 62
7
  6
CONTINUOUS
 70
0
 71
3
 72
23
 73
19
 74
17
 42
0.0000001
 43
0.0000001
 44
0.0000000001
 12
-0.2159977014
 22
-0.0446681094
 32
0.0
 13
-0.2159977019
 23
0.0446681093
 33
0.0
 40
0.0
 40
0.0
 40
0.0
 40
0.0
 40
0.0097417035
 40
0.0385809658
 40
0.0851674431
 40
0.1475333364
 40
0.2232263867
 40
0.3093935722
 40
0.4028591555
 40
0.500064106
 40
0.5972852144
 40
0.6907787386
 40
0.7769613284
 40
0.8526343221
 40
0.9149510959
 40
0.9614793912
 40
0.990276363
 40
1.0
 40
1.0
 40
1.0
 40
1.0
 10
6.3776218163
 20
4.8691791826
 30
0.0
 10
6.3769204211
 20
4.8690341348
 30
0.0
 10
6.3741415697
 20
4.868464755
 30
0.0
 10
6.3679981897
 20
4.8672523818
 30
0.0
 10
6.358031353
 20
4.8654339786
 30
0.0
 10
6.3446261658
 20
4.863280874
 30
0.0
 10
6.3282807186
 20
4.8611152451
 30
0.0
 10
6.30959574
 20
4.8592663371
 30
0.0
 10
6.2892745946
 20
4.8580230822
 30
0.0
 10
6.2681064847
 20
4.8575851486
 30
0.0
 10
6.2469363436
 20
4.8580243533
 30
0.0
 10
6.2266109106
 20
4.859269233
 30
0.0
 10
6.2079243644
 20
4.8611197026
 30
0.0
 10
6.1915829941
 20
4.8632859848
 30
0.0
 10
6.1781871765
 20
4.865438358
 30
0.0
 10
6.168231224
 20
4.8672551289
 30
0.0
 10
6.1620964129
 20
4.8684659053
 30
0.0
 10
6.1593219107
 20
4.8690344038
 30
0.0
 10
6.1586218163
 20
4.8691791826
 30
0.0
 11
6.3776218163
 21
4.8691791826
 31
0.0
 11
6.3755168379
 21
4.8687478839
 31
0.0
 11
6.3692761468
 21
4.8675164668
 31
0.0
 11
6.3591674028
 21
4.8656728126
 31
0.0
 11
6.3455853299
 21
4.8634926951
 31
0.0
 11
6.3290342087
 21
4.8613019577
 31
0.0
 11
6.3101206006
 21
4.8594328722
 31
0.0
 11
6.2895434225
 21
4.8581759379
 31
0.0
 11
6.2681076767
 21
4.857733234
 31
0.0
 11
6.2466683933
 21
4.8581772533
 31
0.0
 11
6.2260851477
 21
4.8594359348
 31
0.0
 11
6.2071682974
 21
4.8613067619
 31
0.0
 11
6.1906217191
 21
4.8634981065
 31
0.0
 11
6.1770504665
 21
4.8656772727
 31
0.0
 11
6.1669544108
 21
4.8675189726
 31
0.0
 11
6.1607228895
 21
4.8687486766
 31
0.0
 11
6.1586218163
 21
4.8691791826
 31
0.0
  0
SPLINE
  5
41C
100
AcDbEntity
  8
0
100
AcDbSpline
 62
7
  6
CONTINUOUS
 70
0
 71
3
 72
17
 73
13
 74
11
 42
0.0000001
 43
0.0000001
 44
0.0000000001
 12
-0.1448066017
 22
0.1258031696
 32
0.0
 13
-0.1447977756
 23
-0.1258176256
 33
0.0
 40
0.0
 40
0.0
 40
0.0
 40
0.0
 40
0.0807815991
 40
0.1757101587
 40
0.2784715256
 40
0.3874865796
 40
0.4999026845
 40
0.612282042
 40
0.7212267402
 40
0.8239329968
 40
0.9188660647
 40
1.0
 40
1.0
 40
1.0
 40
1.0
 10
6.7963083472
 20
4.6678360092
 30
0.0
 10
6.7924091109
 20
4.6712235363
 30
0.0
 10
6.7831110085
 20
4.6776205982
 30
0.0
 10
6.7668240174
 20
4.6849209579
 30
0.0
 10
6.7479298181
 20
4.6902279905
 30
0.0
 10
6.7274476941
 20
4.6934029794
 30
0.0
 10
6.7061399427
 20
4.6944604161
 30
0.0
 10
6.6848365417
 20
4.6934066675
 30
0.0
 10
6.6643640021
 20
4.6902381116
 30
0.0
 10
6.6454754047
 20
4.6849403383
 30
0.0
 10
6.6291668284
 20
4.6776413111
 30
0.0
 10
6.6198469805
 20
4.6712349384
 30
0.0
 10
6.615930976
 20
4.6678322453
 30
0.0
 11
6.7963083472
 21
4.6678360092
 31
0.0
 11
6.7836527704
 21
4.6767270668
 31
0.0
 11
6.7671400638
 21
4.6843093527
 31
0.0
 11
6.7482365309
 21
4.6897453137
 31
0.0
 11
6.7276275228
 21
4.6930140648
 31
0.0
 11
6.7061375734
 21
4.694104949
 31
0.0
 11
6.684654467
 21
4.6930180069
 31
0.0
 11
6.6640579547
 21
4.6897564441
 31
0.0
 11
6.6451624163
 21
4.6843308571
 31
0.0
 11
6.628644554
 21
4.6767577385
 31
0.0
 11
6.615930976
 21
4.6678322453
 31
0.0
  0
SPLINE
  5
41D
100
AcDbEntity
  8
0
100
AcDbSpline
 62
7
  6
CONTINUOUS
 70
0
 71
3
 72
17
 73
13
 74
11
 42
0.0000001
 43
0.0000001
 44
0.0000000001
 12
0.1448074895
 22
-0.1257931888
 32
0.0
 13
0.1447985527
 23
0.125807773
 33
0.0
 40
0.0
 40
0.0
 40
0.0
 40
0.0
 40
0.0807688841
 40
0.1757002869
 40
0.2784647317
 40
0.3874830507
 40
0.4999025226
 40
0.6122852461
 40
0.7212332073
 40
0.8239425401
 40
0.9188784514
 40
1.0
 40
1.0
 40
1.0
 40
1.0
 10
6.615937477
 20
4.0115204521
 30
0.0
 10
6.6198361234
 20
4.0081337269
 30
0.0
 10
6.6291335092
 20
4.0017373702
 30
0.0
 10
6.6454196152
 20
3.9944374073
 30
0.0
 10
6.6643138145
 20
3.9891303747
 30
0.0
 10
6.6847959386
 20
3.9859553858
 30
0.0
 10
6.7061036899
 20
3.9848979491
 30
0.0
 10
6.7274070909
 20
3.9859516977
 30
0.0
 10
6.7478796305
 20
3.9891202536
 30
0.0
 10
6.766768228
 20
3.9944180269
 30
0.0
 10
6.7830759375
 20
4.0017166661
 30
0.0
 10
6.7923950836
 20
4.0081223486
 30
0.0
 10
6.7963105112
 20
4.0115242557
 30
0.0
 11
6.615937477
 21
4.0115204521
 31
0.0
 11
6.6285908622
 21
4.0026312984
 31
0.0
 11
6.6451035688
 21
3.9950490125
 31
0.0
 11
6.6640071018
 21
3.9896130515
 31
0.0
 11
6.6846161099
 21
3.9863443004
 31
0.0
 11
6.7061060593
 21
3.9852534162
 31
0.0
 11
6.7275891656
 21
3.9863403582
 31
0.0
 11
6.748185678
 21
3.9896019211
 31
0.0
 11
6.7670812163
 21
3.9950275081
 31
0.0
 11
6.7835990786
 21
4.0026006267
 31
0.0
 11
6.7963105112
 21
4.0115242557
 31
0.0
  0
SPLINE
  5
41E
100
AcDbEntity
  8
0
100
AcDbSpline
 62
7
  6
CONTINUOUS
 70
0
 71
3
 72
21
 73
17
 74
15
 42
0.0000001
 43
0.0000001
 44
0.0000000001
 12
0.0079696116
 22
0.0635934599
 32
0.0
 13
0.0079696113
 23
-0.0635934599
 33
0.0
 40
0.0
 40
0.0
 40
0.0
 40
0.0
 40
0.0549145504
 40
0.1116789178
 40
0.1727925707
 40
0.2427050419
 40
0.3248103055
 40
0.4144535221
 40
0.5053330223
 40
0.5958596274
 40
0.6837690787
 40
0.7632642019
 40
0.8313205926
 40
0.8904410104
 40
0.9454780176
 40
1.0
 40
1.0
 40
1.0
 40
1.0
 10
6.0222989306
 20
3.8102509222
 30
0.0
 10
6.0224448131
 20
3.811414991
 30
0.0
 10
6.0229227546
 20
3.8137642063
 30
0.0
 10
6.0242352488
 20
3.8172308382
 30
0.0
 10
6.0262579526
 20
3.8207178319
 30
0.0
 10
6.0292414167
 20
3.8241959769
 30
0.0
 10
6.033401151
 20
3.827334651
 30
0.0
 10
6.0386412208
 20
3.8295214651
 30
0.0
 10
6.0444625247
 20
3.8302393595
 30
0.0
 10
6.0502199562
 20
3.8293408845
 30
0.0
 10
6.0553011303
 20
3.8270506966
 30
0.0
 10
6.0592868825
 20
3.8239107578
 30
0.0
 10
6.0621309704
 20
3.8204985432
 30
0.0
 10
6.0640634552
 20
3.8170991937
 30
0.0
 10
6.0653323647
 20
3.8137114546
 30
0.0
 10
6.0657998906
 20
3.8114066685
 30
0.0
 10
6.0659447303
 20
3.8102509214
 30
0.0
 11
6.0222989306
 21
3.8102509222
 31
0.0
 11
6.0230043831
 21
3.8136990198
 31
0.0
 11
6.024289009
 21
3.8171027466
 31
0.0
 11
6.02625517
 21
3.8204903354
 31
0.0
 11
6.029174105
 21
3.823889889
 31
0.0
 11
6.033378921
 21
3.8270537901
 31
0.0
 11
6.0386844154
 21
3.8292584129
 31
0.0
 11
6.0444656009
 21
3.8299678211
 31
0.0
 11
6.0501988268
 21
3.8290775824
 31
0.0
 11
6.0553389104
 21
3.8267702682
 31
0.0
 11
6.0593449112
 21
3.8236222367
 31
0.0
 11
6.0621390109
 21
3.8202728692
 31
0.0
 11
6.0640123688
 21
3.8169792904
 31
0.0
 11
6.0652462378
 21
3.8136747611
 31
0.0
 11
6.0659447303
 21
3.8102509214
 31
0.0
  0
SPLINE
  5
41F
100
AcDbEntity
  8
0
100
AcDbSpline
 62
7
  6
CONTINUOUS
 70
0
 71
3
 72
8
 73
4
 74
2
 42
0.0000001
 43
0.0000001
 44
0.0000000001
 12
0.0004161429
 22
0.0000184604
 32
0.0
 13
0.0004161567
 23
0.0000181497
 33
0.0
 40
0.0
 40
0.0
 40
0.0
 40
0.0
 40
1.0
 40
1.0
 40
1.0
 40
1.0
 10
6.0206218163
 20
3.8101791826
 30
0.0
 10
6.0207605306
 20
3.8101853361
 30
0.0
 10
6.0208992472
 20
3.8101914388
 30
0.0
 10
6.0210379661
 20
3.8101974887
 30
0.0
 11
6.0206218163
 21
3.8101791826
 31
0.0
 11
6.0210379661
 21
3.8101974887
 31
0.0
  0
SPLINE
  5
420
100
AcDbEntity
  8
0
100
AcDbSpline
 62
7
  6
CONTINUOUS
 70
0
 71
3
 72
8
 73
4
 74
2
 42
0.0000001
 43
0.0000001
 44
0.0000000001
 12
0.0012563374
 22
0.0000547922
 32
0.0
 13
0.0012564672
 23
0.0000517233
 33
0.0
 40
0.0
 40
0.0
 40
0.0
 40
0.0
 40
1.0
 40
1.0
 40
1.0
 40
1.0
 10
6.0210379661
 20
3.8101974887
 30
0.0
 10
6.0214567453
 20
3.8102157528
 30
0.0
 10
6.0218755456
 20
3.8102335351
 30
0.0
 10
6.022294368
 20
3.8102507762
 30
0.0
 11
6.0210379661
 21
3.8101974887
 31
0.0
 11
6.022294368
 21
3.8102507762
 31
0.0
  0
SPLINE
  5
421
100
AcDbEntity
  8
0
100
AcDbSpline
 62
7
  6
CONTINUOUS
 70
0
 71
3
 72
23
 73
19
 74
17
 42
0.0000001
 43
0.0000001
 44
0.0000000001
 12
0.0
 22
-0.2864522274
 32
0.0
 13
0.0
 23
0.2864522274
 33
0.0
 40
0.0
 40
0.0
 40
0.0
 40
0.0
 40
0.0522001791
 40
0.1046555624
 40
0.1596043506
 40
0.218830406
 40
0.2831099936
 40
0.3522153063
 40
0.4251032808
 40
0.5000490004
 40
0.5750077365
 40
0.6479197843
 40
0.7170432432
 40
0.7813177567
 40
0.8405178564
 40
0.895428623
 40
0.9478477952
 40
1.0
 40
1.0
 40
1.0
 40
1.0
 10
6.8156218163
 20
3.965266142
 30
0.0
 10
6.8156218163
 20
3.9602818561
 30
0.0
 10
6.8142227787
 20
3.9502213523
 30
0.0
 10
6.8077408286
 20
3.936204593
 30
0.0
 10
6.7972925089
 20
3.9239768673
 30
0.0
 10
6.7834486982
 20
3.9138345692
 30
0.0
 10
6.7667746047
 20
3.9058737098
 30
0.0
 10
6.7478646901
 20
3.9001479628
 30
0.0
 10
6.7273908734
 20
3.8966958697
 30
0.0
 10
6.706106407
 20
3.8955430881
 30
0.0
 10
6.6848197961
 20
3.8966992586
 30
0.0
 10
6.6643413997
 20
3.9001563246
 30
0.0
 10
6.6454296196
 20
3.9058885234
 30
0.0
 10
6.6287596721
 20
3.9138554504
 30
0.0
 10
6.614926043
 20
3.9240005308
 30
0.0
 10
6.6044900374
 20
3.936225935
 30
0.0
 10
6.5980183621
 20
3.9502341647
 30
0.0
 10
6.5966218163
 20
3.9602864369
 30
0.0
 10
6.5966218163
 20
3.965266142
 30
0.0
 11
6.8156218163
 21
3.965266142
 31
0.0
 11
6.8135168379
 21
3.9504621893
 31
0.0
 11
6.8072761468
 21
3.9367934918
 31
0.0
 11
6.7971674028
 21
3.9247283653
 31
0.0
 11
6.7835853299
 21
3.9145620829
 31
0.0
 11
6.7670342087
 21
3.9064936195
 31
0.0
 11
6.7481206006
 21
3.9006513485
 31
0.0
 11
6.7275434225
 21
3.8971145203
 31
0.0
 11
6.7061076767
 21
3.8959314579
 31
0.0
 11
6.6846683933
 21
3.8971180815
 31
0.0
 11
6.6640851477
 21
3.9006603143
 31
0.0
 11
6.6451682974
 21
3.906509699
 31
0.0
 11
6.6286217191
 21
3.9145841609
 31
0.0
 11
6.6150504665
 21
3.9247524881
 31
0.0
 11
6.6049544108
 21
3.9368140344
 31
0.0
 11
6.5987228895
 21
3.9504755147
 31
0.0
 11
6.5966218163
 21
3.965266142
 31
0.0
  0
SPLINE
  5
422
100
AcDbEntity
  8
0
100
AcDbSpline
 62
7
  6
CONTINUOUS
 70
0
 71
3
 72
23
 73
19
 74
17
 42
0.0000001
 43
0.0000001
 44
0.0000000001
 12
0.0
 22
0.2864522274
 32
0.0
 13
-0.0
 23
-0.2864522274
 33
0.0
 40
0.0
 40
0.0
 40
0.0
 40
0.0
 40
0.0522001791
 40
0.1046555624
 40
0.1596043506
 40
0.218830406
 40
0.2831099936
 40
0.3522153063
 40
0.4251032808
 40
0.5000490004
 40
0.5750077365
 40
0.6479197843
 40
0.7170432432
 40
0.7813177567
 40
0.8405178564
 40
0.895428623
 40
0.9478477952
 40
1.0
 40
1.0
 40
1.0
 40
1.0
 10
6.5966218163
 20
4.7140922232
 30
0.0
 10
6.5966218163
 20
4.7190765091
 30
0.0
 10
6.598020854
 20
4.7291370129
 30
0.0
 10
6.6045028041
 20
4.7431537722
 30
0.0
 10
6.6149511237
 20
4.7553814979
 30
0.0
 10
6.6287949345
 20
4.765523796
 30
0.0
 10
6.6454690279
 20
4.7734846554
 30
0.0
 10
6.6643789425
 20
4.7792104024
 30
0.0
 10
6.6848527592
 20
4.7826624955
 30
0.0
 10
6.7061372256
 20
4.7838152771
 30
0.0
 10
6.7274238366
 20
4.7826591065
 30
0.0
 10
6.747902233
 20
4.7792020406
 30
0.0
 10
6.766814013
 20
4.7734698418
 30
0.0
 10
6.7834839605
 20
4.7655029147
 30
0.0
 10
6.7973175896
 20
4.7553578344
 30
0.0
 10
6.8077535952
 20
4.7431324302
 30
0.0
 10
6.8142252705
 20
4.7291242005
 30
0.0
 10
6.8156218163
 20
4.7190719283
 30
0.0
 10
6.8156218163
 20
4.7140922232
 30
0.0
 11
6.5966218163
 21
4.7140922232
 31
0.0
 11
6.5987267948
 21
4.7288961759
 31
0.0
 11
6.6049674858
 21
4.7425648734
 31
0.0
 11
6.6150762299
 21
4.7546299999
 31
0.0
 11
6.6286583028
 21
4.7647962823
 31
0.0
 11
6.6452094239
 21
4.7728647457
 31
0.0
 11
6.664123032
 21
4.7787070167
 31
0.0
 11
6.6847002101
 21
4.7822438449
 31
0.0
 11
6.706135956
 21
4.7834269073
 31
0.0
 11
6.7275752393
 21
4.7822402837
 31
0.0
 11
6.748158485
 21
4.7786980509
 31
0.0
 11
6.7670753352
 21
4.7728486662
 31
0.0
 11
6.7836219135
 21
4.7647742043
 31
0.0
 11
6.7971931662
 21
4.7546058771
 31
0.0
 11
6.8072892218
 21
4.7425443308
 31
0.0
 11
6.8135207431
 21
4.7288828505
 31
0.0
 11
6.8156218163
 21
4.7140922232
 31
0.0
  0
SPLINE
  5
423
100
AcDbEntity
  8
0
100
AcDbSpline
 62
7
  6
CONTINUOUS
 70
0
 71
3
 72
15
 73
11
 74
9
 42
0.0000001
 43
0.0000001
 44
0.0000000001
 12
-0.1684866262
 22
0.3090653096
 32
0.0
 13
0.1684866262
 23
0.3090653096
 33
0.0
 40
0.0
 40
0.0
 40
0.0
 40
0.0
 40
0.1361861867
 40
0.2623602305
 40
0.3825822181
 40
0.50004626
 40
0.6175064396
 40
0.737718306
 40
0.8638418781
 40
1.0
 40
1.0
 40
1.0
 40
1.0
 10
3.8815059903
 20
3.6310401837
 30
0.0
 10
3.8738574732
 20
3.6450703257
 30
0.0
 10
3.860211881
 20
3.6727248847
 30
0.0
 10
3.8446910835
 20
3.7149520847
 30
0.0
 10
3.8351731285
 20
3.7567114608
 30
0.0
 10
3.8319467268
 20
3.7984201164
 30
0.0
 10
3.8351779552
 20
3.8401271735
 30
0.0
 10
3.8446982069
 20
3.8818781879
 30
0.0
 10
3.860217323
 20
3.9240947777
 30
0.0
 10
3.8738590494
 20
3.9517409308
 30
0.0
 10
3.8815059903
 20
3.9657681815
 30
0.0
 11
3.8815059903
 21
3.6310401837
 31
0.0
 11
3.8605000207
 21
3.6741313837
 31
0.0
 11
3.8453806773
 21
3.7158929061
 31
0.0
 11
3.8361392032
 21
3.7571905324
 31
0.0
 11
3.8330146499
 21
3.7984205022
 31
0.0
 11
3.8361438733
 21
3.8396487543
 31
0.0
 11
3.8453885087
 21
3.8809420222
 31
0.0
 11
3.8605039027
 21
3.9226860794
 31
0.0
 11
3.8815059903
 21
3.9657681815
 31
0.0
  0
SPLINE
  5
424
100
AcDbEntity
  8
0
100
AcDbSpline
 62
7
  6
CONTINUOUS
 70
0
 71
3
 72
15
 73
11
 74
9
 42
0.0000001
 43
0.0000001
 44
0.0000000001
 12
-0.1783968506
 22
0.654488479
 32
0.0
 13
0.1783968506
 23
0.654488479
 33
0.0
 40
0.0
 40
0.0
 40
0.0
 40
0.0
 40
0.1307633826
 40
0.2558882418
 40
0.378404165
 40
0.500048086
 40
0.6216872073
 40
0.7441908788
 40
0.8692640326
 40
1.0
 40
1.0
 40
1.0
 40
1.0
 10
3.8815059903
 20
4.0049511848
 30
0.0
 10
3.8737300651
 20
4.033478894
 30
0.0
 10
3.8599146713
 20
4.0897033654
 30
0.0
 10
3.844523287
 20
4.1739307163
 30
0.0
 10
3.8351307962
 20
4.2569763456
 30
0.0
 10
3.8319591549
 20
4.3397107692
 30
0.0
 10
3.8351355517
 20
4.4224422233
 30
0.0
 10
3.8445304135
 20
4.5054719015
 30
0.0
 10
3.8599202816
 20
4.5896784498
 30
0.0
 10
3.8737316953
 20
4.6458854522
 30
0.0
 10
3.8815059903
 20
4.6744071804
 30
0.0
 11
3.8815059903
 21
4.0049511848
 31
0.0
 11
3.8605000207
 21
4.0911335847
 31
0.0
 11
3.8453806773
 21
4.1746566296
 31
0.0
 11
3.8361392032
 21
4.2572518821
 31
0.0
 11
3.8330146499
 21
4.3397118218
 31
0.0
 11
3.8361438733
 21
4.4221683261
 31
0.0
 11
3.8453885087
 21
4.5047548617
 31
0.0
 11
3.8605039027
 21
4.5882429762
 31
0.0
 11
3.8815059903
 21
4.6744071804
 31
0.0
  0
SPLINE
  5
425
100
AcDbEntity
  8
0
100
AcDbSpline
 62
7
  6
CONTINUOUS
 70
0
 71
3
 72
15
 73
11
 74
9
 42
0.0000001
 43
0.0000001
 44
0.0000000001
 12
-0.1684866262
 22
0.3090653096
 32
0.0
 13
0.1684866262
 23
0.3090653096
 33
0.0
 40
0.0
 40
0.0
 40
0.0
 40
0.0
 40
0.1361861867
 40
0.2623602305
 40
0.3825822181
 40
0.50004626
 40
0.6175064396
 40
0.737718306
 40
0.8638418781
 40
1.0
 40
1.0
 40
1.0
 40
1.0
 10
3.8815059903
 20
4.7135901837
 30
0.0
 10
3.8738574732
 20
4.7276203257
 30
0.0
 10
3.860211881
 20
4.7552748847
 30
0.0
 10
3.8446910835
 20
4.7975020847
 30
0.0
 10
3.8351731285
 20
4.8392614608
 30
0.0
 10
3.8319467268
 20
4.8809701164
 30
0.0
 10
3.8351779552
 20
4.9226771735
 30
0.0
 10
3.8446982069
 20
4.9644281879
 30
0.0
 10
3.860217323
 20
5.0066447777
 30
0.0
 10
3.8738590494
 20
5.0342909308
 30
0.0
 10
3.8815059903
 20
5.0483181815
 30
0.0
 11
3.8815059903
 21
4.7135901837
 31
0.0
 11
3.8605000207
 21
4.7566813837
 31
0.0
 11
3.8453806773
 21
4.7984429061
 31
0.0
 11
3.8361392032
 21
4.8397405324
 31
0.0
 11
3.8330146499
 21
4.8809705022
 31
0.0
 11
3.8361438733
 21
4.9221987543
 31
0.0
 11
3.8453885087
 21
4.9634920222
 31
0.0
 11
3.8605039027
 21
5.0052360794
 31
0.0
 11
3.8815059903
 21
5.0483181815
 31
0.0
  0
ENDSEC
  0
SECTION
  2
OBJECTS
  0
DICTIONARY
  5
C
100
AcDbDictionary
280
0
281
1
  3
ACAD_GROUP
350
D
  3
ACAD_MLINESTYLE
350
17
  3
ACAD_LAYOUT
350
1A
  3
ACAD_PLOTSETTINGS
350
19
  3
ACAD_PLOTSTYLENAME
350
E
  0
DICTIONARY
  5
D
102
{ACAD_REACTORS
330
C
102
}
100
AcDbDictionary
280
0
281
1
  0
ACDBDICTIONARYWDFLT
  5
E
102
{ACAD_REACTORS
330
C
102
}
100
AcDbDictionary
281
1
  3
Normal
350
F
100
AcDbDictionaryWithDefault
340
F
  0
DICTIONARY
  5
17
102
{ACAD_REACTORS
330
C
102
}
100
AcDbDictionary
280
0
281
1
  3
Standard
350
18
  0
DICTIONARY
  5
19
102
{ACAD_REACTORS
330
C
102
}
100
AcDbDictionary
281
1
  0
DICTIONARY
  5
1A
102
{ACAD_REACTORS
330
C
102
}
100
AcDbDictionary
281
1
  3
Layout1
350
1E
  3
Model
350
22
  0
ACDBPLACEHOLDER
  5
F
102
{ACAD_REACTORS
330
E
102
}
  0
MLINESTYLE
  5
18
102
{ACAD_REACTORS
330
17
102
}
100
AcDbMlineStyle
  2
STANDARD
 70
0
  3

 62
256
 51
90.0
 52
90.0
 71
2
 49
0.5
 62
256
  6
BYLAYER
 49
-0.5
 62
256
  6
BYLAYER
  0
LAYOUT
  5
1E
102
{ACAD_REACTORS
330
1A
102
}
100
AcDbPlotSettings
  1

  2

  4

  6

 40
0.0
 41
0.0
 42
0.0
 43
0.0
 44
0.0
 45
0.0
 46
0.0
 47
0.0
 48
0.0
 49
0.0
140
0.0
141
0.0
142
1.0
143
1.0
 70
0
 72
0
 73
0
 74
0
  7

 75
0
147
1.0
148
0.0
149
0.0
100
AcDbLayout
  1
Layout1
 70
0
 71
0
 10
0.0
 20
0.0
 11
0.0
 21
0.0
 12
0.0
 22
0.0
 32
0.0
 14
0.0
 24
0.0
 34
0.0
 15
0.0
 25
0.0
 35
0.0
146
0.0
 13
0.0
 23
0.0
 33
0.0
 16
0.0
 26
0.0
 36
0.0
 17
0.0
 27
0.0
 37
0.0
 76
0
330
1B
331
0
345
0
346
0
  0
LAYOUT
  5
22
102
{ACAD_REACTORS
330
1A
102
}
100
AcDbPlotSettings
  1

  2

  4

  6

 40
0.0
 41
0.0
 42
0.0
 43
0.0
 44
0.0
 45
0.0
 46
0.0
 47
0.0
 48
0.0
 49
0.0
140
0.0
141
0.0
142
1.0
143
1.0
 70
0
 72
0
 73
0
 74
0
  7

 75
0
147
1.0
148
0.0
149
0.0
100
AcDbLayout
  1
Model
 70
0
 71
0
 10
0.0
 20
0.0
 11
0.0
 21
0.0
 12
0.0
 22
0.0
 32
0.0
 14
0.0
 24
0.0
 34
0.0
 15
0.0
 25
0.0
 35
0.0
146
0.0
 13
0.0
 23
0.0
 33
0.0
 16
0.0
 26
0.0
 36
0.0
 17
0.0
 27
0.0
 37
0.0
 76
0
330
1F
331
0
345
0
346
0
  0
ENDSEC
  0
EOF
