999
DXF file: CXFB-XAN.dxf
999
Pro/ENGINEER 2006240 by Parametric Technology Corporation
  0
SECTION
  2
HEADER
  9
$ACADVER
  1
AC1015
  9
$DWGCODEPAGE
  3
ANSI_1252
  9
$EXTMAX
 10
11.6929133858
 20
8.2677165354
 30
0.0
  9
$EXTMIN
 10
0.0
 20
0.0
 30
0.0
  9
$LIMMIN
 10
0.0
 20
0.0
  9
$LIMMAX
 10
11.6929133858
 20
8.2677165354
  9
$VIEWCTR
 10
5.8464566929
 20
4.1338582677
  9
$VIEWSIZE
 40
8.2677165354
  9
$CLAYER
  8
0
  9
$LTSCALE
 40
0.6431102362
  9
$CELTYPE
  6
BYLAYER
  9
$DIMSCALE
 40
1.0
  9
$DIMASZ
 40
0.1875
  9
$DIMEXO
 40
0.0730807087
  9
$DIMDLI
 40
0.4443307087
  9
$DIMEXE
 40
0.2104724409
  9
$DIMCEN
 40
0.1052362205
  9
$DIMLFAC
 40
1.0
  9
$DIMBLK
  1
_CLOSED
  9
$DIMTXT
 40
0.15625
  9
$DIMTOL
 70
0
  9
$DIMLIM
 70
0
  9
$DIMTFAC
 40
1.0
  9
$PDMODE
 70
3
  9
$PDSIZE
 40
0.3125
  9
$HANDSEED
  5
3FB
  9
$MEASUREMENT
 70
0
  9
$INSUNITS
 70
1
  0
ENDSEC
  0
SECTION
  2
CLASSES
  0
CLASS
  1
ACDBDICTIONARYWDFLT
  2
AcDbDictionaryWithDefault
  3
AutoCAD 2000
 90
0
280
0
281
0
  0
CLASS
  1
ACDBPLACEHOLDER
  2
AcDbPlaceHolder
  3
AutoCAD 2000
 90
0
280
0
281
0
  0
CLASS
  1
LAYOUT
  2
AcDbLayout
  3
AutoCAD 2000
 90
0
280
0
281
0
  0
ENDSEC
  0
SECTION
  2
TABLES
  0
TABLE
  2
VPORT
  5
8
100
AcDbSymbolTable
 70
2
  0
VPORT
  5
1F4
100
AcDbSymbolTableRecord
100
AcDbViewportTableRecord
  2
*ACTIVE
 70
0
 10
0.0
 20
0.0
 11
1.0
 21
1.0
 12
5.8464566929
 22
4.1338582677
 13
0.0
 23
0.0
 14
1.0
 24
1.0
 15
0.0
 25
0.0
 16
0.0
 26
0.0
 36
1.0
 17
0.0
 27
0.0
 37
0.0
 40
8.2677165354
 41
1.4142857143
 42
50.0
 43
0.0
 44
0.0
 50
0.0
 51
0.0
 71
0
 72
100
 73
1
 74
1
 75
0
 76
0
 77
0
 78
0
  0
ENDTAB
  0
TABLE
  2
LTYPE
  5
5
100
AcDbSymbolTable
 70
6
  0
LTYPE
  5
14
100
AcDbSymbolTableRecord
100
AcDbLinetypeTableRecord
  2
BYBLOCK
 70
0
  3

 72
65
 73
0
 40
0.0
  0
LTYPE
  5
15
100
AcDbSymbolTableRecord
100
AcDbLinetypeTableRecord
  2
BYLAYER
 70
0
  3

 72
65
 73
0
 40
0.0
  0
LTYPE
  5
16
100
AcDbSymbolTableRecord
100
AcDbLinetypeTableRecord
  2
CONTINUOUS
 70
64
  3
Solid line
 72
65
 73
0
 40
0.0
  0
LTYPE
  5
1F5
100
AcDbSymbolTableRecord
100
AcDbLinetypeTableRecord
  2
CENTER
 70
64
  3
____ _ ____ _ ____ _ ____ _ ____ _ ____ _ ____
 72
65
 73
4
 40
0.6
 49
0.375
 74
0
 49
-0.075
 74
0
 49
0.075
 74
0
 49
-0.075
 74
0
  0
LTYPE
  5
1F6
100
AcDbSymbolTableRecord
100
AcDbLinetypeTableRecord
  2
HIDDEN
 70
64
  3
- - - - - - - - - - - - - - - - - - - -
 72
65
 73
2
 40
0.2
 49
0.1
 74
0
 49
-0.1
 74
0
  0
LTYPE
  5
1F7
100
AcDbSymbolTableRecord
100
AcDbLinetypeTableRecord
  2
PHANTOM
 70
64
  3
_____ _ _ _____ _ _ _____ _ _ _____
 72
65
 73
6
 40
0.8
 49
0.45
 74
0
 49
-0.05
 74
0
 49
0.1
 74
0
 49
-0.05
 74
0
 49
0.1
 74
0
 49
-0.05
 74
0
  0
LTYPE
  5
1F8
100
AcDbSymbolTableRecord
100
AcDbLinetypeTableRecord
  2
DOT
 70
64
  3
. . . . . . . . . . . . . . . . . . . .
 72
65
 73
2
 40
0.2
 49
0.1
 74
0
 49
-0.1
 74
0
  0
LTYPE
  5
1F9
100
AcDbSymbolTableRecord
100
AcDbLinetypeTableRecord
  2
DASHED
 70
64
  3
- - - - - - - - - - - - - - - - - - - -
 72
65
 73
2
 40
0.2
 49
0.1
 74
0
 49
-0.1
 74
0
  0
ENDTAB
  0
TABLE
  2
LAYER
  5
2
100
AcDbSymbolTable
 70
36
  0
LAYER
  5
10
100
AcDbSymbolTableRecord
100
AcDbLayerTableRecord
  2
0
 70
0
 62
7
  6
CONTINUOUS
370
-3
390
F
  0
LAYER
  5
1FA
100
AcDbSymbolTableRecord
100
AcDbLayerTableRecord
  2
DEFAULT_1
 70
0
 62
7
  6
CENTER
370
-3
390
F
  0
LAYER
  5
1FB
100
AcDbSymbolTableRecord
100
AcDbLayerTableRecord
  2
DEFAULT_2
 70
0
 62
8
  6
HIDDEN
370
-3
390
F
  0
LAYER
  5
1FC
100
AcDbSymbolTableRecord
100
AcDbLayerTableRecord
  2
DEFAULT_3
 70
0
 62
7
  6
PHANTOM
370
-3
390
F
  0
LAYER
  5
1FD
100
AcDbSymbolTableRecord
100
AcDbLayerTableRecord
  2
_BLACK_HOLE
 70
0
 62
7
  6
CONTINUOUS
370
-3
390
F
  0
LAYER
  5
1FE
100
AcDbSymbolTableRecord
100
AcDbLayerTableRecord
  2
01_ALL_DTM_PLN
 70
0
 62
7
  6
CONTINUOUS
370
-3
390
F
  0
LAYER
  5
1FF
100
AcDbSymbolTableRecord
100
AcDbLayerTableRecord
  2
01__ASM_ALL_DTM_PLN
 70
0
 62
7
  6
CONTINUOUS
370
-3
390
F
  0
LAYER
  5
200
100
AcDbSymbolTableRecord
100
AcDbLayerTableRecord
  2
01__ASM_DEF_DTM_PLN
 70
0
 62
7
  6
CONTINUOUS
370
-3
390
F
  0
LAYER
  5
201
100
AcDbSymbolTableRecord
100
AcDbLayerTableRecord
  2
01___PRT_ALL_DTM_PLN
 70
0
 62
7
  6
CONTINUOUS
370
-3
390
F
  0
LAYER
  5
202
100
AcDbSymbolTableRecord
100
AcDbLayerTableRecord
  2
01___PRT_DEF_DTM_PLN
 70
0
 62
7
  6
CONTINUOUS
370
-3
390
F
  0
LAYER
  5
203
100
AcDbSymbolTableRecord
100
AcDbLayerTableRecord
  2
02_ALL_AXES
 70
0
 62
7
  6
CONTINUOUS
370
-3
390
F
  0
LAYER
  5
204
100
AcDbSymbolTableRecord
100
AcDbLayerTableRecord
  2
02__ASM_ALL_AXES
 70
0
 62
7
  6
CONTINUOUS
370
-3
390
F
  0
LAYER
  5
205
100
AcDbSymbolTableRecord
100
AcDbLayerTableRecord
  2
02___PRT_ALL_AXES
 70
0
 62
7
  6
CONTINUOUS
370
-3
390
F
  0
LAYER
  5
206
100
AcDbSymbolTableRecord
100
AcDbLayerTableRecord
  2
03_ALL_CURVES
 70
0
 62
7
  6
CONTINUOUS
370
-3
390
F
  0
LAYER
  5
207
100
AcDbSymbolTableRecord
100
AcDbLayerTableRecord
  2
03__ASM_ALL_CURVES
 70
0
 62
7
  6
CONTINUOUS
370
-3
390
F
  0
LAYER
  5
208
100
AcDbSymbolTableRecord
100
AcDbLayerTableRecord
  2
03___PRT_ALL_CURVES
 70
0
 62
7
  6
CONTINUOUS
370
-3
390
F
  0
LAYER
  5
209
100
AcDbSymbolTableRecord
100
AcDbLayerTableRecord
  2
04_ALL_DTM_PNT
 70
0
 62
7
  6
CONTINUOUS
370
-3
390
F
  0
LAYER
  5
20A
100
AcDbSymbolTableRecord
100
AcDbLayerTableRecord
  2
04__ASM_ALL_DTM_PNT
 70
0
 62
7
  6
CONTINUOUS
370
-3
390
F
  0
LAYER
  5
20B
100
AcDbSymbolTableRecord
100
AcDbLayerTableRecord
  2
04___PRT_ALL_DTM_PNT
 70
0
 62
7
  6
CONTINUOUS
370
-3
390
F
  0
LAYER
  5
20C
100
AcDbSymbolTableRecord
100
AcDbLayerTableRecord
  2
05_ALL_DTM_CSYS
 70
0
 62
7
  6
CONTINUOUS
370
-3
390
F
  0
LAYER
  5
20D
100
AcDbSymbolTableRecord
100
AcDbLayerTableRecord
  2
05__ASM_ALL_DTM_CSYS
 70
0
 62
7
  6
CONTINUOUS
370
-3
390
F
  0
LAYER
  5
20E
100
AcDbSymbolTableRecord
100
AcDbLayerTableRecord
  2
05__ASM_DEF_DTM_CSYS
 70
0
 62
7
  6
CONTINUOUS
370
-3
390
F
  0
LAYER
  5
20F
100
AcDbSymbolTableRecord
100
AcDbLayerTableRecord
  2
05___PRT_ALL_DTM_CSYS
 70
0
 62
7
  6
CONTINUOUS
370
-3
390
F
  0
LAYER
  5
210
100
AcDbSymbolTableRecord
100
AcDbLayerTableRecord
  2
05___PRT_DEF_DTM_CSYS
 70
0
 62
7
  6
CONTINUOUS
370
-3
390
F
  0
LAYER
  5
211
100
AcDbSymbolTableRecord
100
AcDbLayerTableRecord
  2
06_ALL_SURFS
 70
0
 62
7
  6
CONTINUOUS
370
-3
390
F
  0
LAYER
  5
212
100
AcDbSymbolTableRecord
100
AcDbLayerTableRecord
  2
06__ASM_ALL_SURFS
 70
0
 62
7
  6
CONTINUOUS
370
-3
390
F
  0
LAYER
  5
213
100
AcDbSymbolTableRecord
100
AcDbLayerTableRecord
  2
06___PRT_ALL_SURFS
 70
0
 62
7
  6
CONTINUOUS
370
-3
390
F
  0
LAYER
  5
214
100
AcDbSymbolTableRecord
100
AcDbLayerTableRecord
  2
07__ASM_ALL_SKELETONS
 70
0
 62
7
  6
CONTINUOUS
370
-3
390
F
  0
LAYER
  5
215
100
AcDbSymbolTableRecord
100
AcDbLayerTableRecord
  2
127-002_FEATURES
 70
0
 62
7
  6
CONTINUOUS
370
-3
390
F
  0
LAYER
  5
216
100
AcDbSymbolTableRecord
100
AcDbLayerTableRecord
  2
127-002_REF_GEOMETRY
 70
0
 62
7
  6
CONTINUOUS
370
-3
390
F
  0
LAYER
  5
217
100
AcDbSymbolTableRecord
100
AcDbLayerTableRecord
  2
127-110_FEATURES
 70
0
 62
7
  6
CONTINUOUS
370
-3
390
F
  0
LAYER
  5
218
100
AcDbSymbolTableRecord
100
AcDbLayerTableRecord
  2
127-110_REF_GEOMETRY
 70
0
 62
7
  6
CONTINUOUS
370
-3
390
F
  0
LAYER
  5
219
100
AcDbSymbolTableRecord
100
AcDbLayerTableRecord
  2
127-112_FEATURES
 70
0
 62
7
  6
CONTINUOUS
370
-3
390
F
  0
LAYER
  5
21A
100
AcDbSymbolTableRecord
100
AcDbLayerTableRecord
  2
127-112_REF_GEOMETRY
 70
0
 62
7
  6
CONTINUOUS
370
-3
390
F
  0
LAYER
  5
21B
100
AcDbSymbolTableRecord
100
AcDbLayerTableRecord
  2
127-113_FEATURES
 70
0
 62
7
  6
CONTINUOUS
370
-3
390
F
  0
LAYER
  5
21C
100
AcDbSymbolTableRecord
100
AcDbLayerTableRecord
  2
127-113_REF_GEOMETRY
 70
0
 62
7
  6
CONTINUOUS
370
-3
390
F
  0
LAYER
  5
21D
100
AcDbSymbolTableRecord
100
AcDbLayerTableRecord
  2
127-114_FEATURES
 70
0
 62
7
  6
CONTINUOUS
370
-3
390
F
  0
LAYER
  5
21E
100
AcDbSymbolTableRecord
100
AcDbLayerTableRecord
  2
127-114_REF_GEOMETRY
 70
0
 62
7
  6
CONTINUOUS
370
-3
390
F
  0
LAYER
  5
21F
100
AcDbSymbolTableRecord
100
AcDbLayerTableRecord
  2
250-18_NPTF_PORT
 70
0
 62
7
  6
CONTINUOUS
370
-3
390
F
  0
LAYER
  5
220
100
AcDbSymbolTableRecord
100
AcDbLayerTableRecord
  2
COPY_GEO_FET
 70
0
 62
7
  6
CONTINUOUS
370
-3
390
F
  0
LAYER
  5
221
100
AcDbSymbolTableRecord
100
AcDbLayerTableRecord
  2
COSMETIC
 70
0
 62
7
  6
CONTINUOUS
370
-3
390
F
  0
LAYER
  5
222
100
AcDbSymbolTableRecord
100
AcDbLayerTableRecord
  2
CURVES
 70
0
 62
7
  6
CONTINUOUS
370
-3
390
F
  0
LAYER
  5
223
100
AcDbSymbolTableRecord
100
AcDbLayerTableRecord
  2
CUT_REF_SURF
 70
0
 62
7
  6
CONTINUOUS
370
-3
390
F
  0
LAYER
  5
224
100
AcDbSymbolTableRecord
100
AcDbLayerTableRecord
  2
DATUM
 70
0
 62
7
  6
CONTINUOUS
370
-3
390
F
  0
LAYER
  5
225
100
AcDbSymbolTableRecord
100
AcDbLayerTableRecord
  2
DATUMCURVES
 70
0
 62
7
  6
CONTINUOUS
370
-3
390
F
  0
LAYER
  5
226
100
AcDbSymbolTableRecord
100
AcDbLayerTableRecord
  2
DIMENSIONS
 70
0
 62
7
  6
CONTINUOUS
370
-3
390
F
  0
LAYER
  5
227
100
AcDbSymbolTableRecord
100
AcDbLayerTableRecord
  2
DTM
 70
0
 62
7
  6
CONTINUOUS
370
-3
390
F
  0
LAYER
  5
228
100
AcDbSymbolTableRecord
100
AcDbLayerTableRecord
  2
DTM230
 70
0
 62
7
  6
CONTINUOUS
370
-3
390
F
  0
LAYER
  5
229
100
AcDbSymbolTableRecord
100
AcDbLayerTableRecord
  2
DTM_500001
 70
0
 62
7
  6
CONTINUOUS
370
-3
390
F
  0
LAYER
  5
22A
100
AcDbSymbolTableRecord
100
AcDbLayerTableRecord
  2
DTM_500002
 70
0
 62
7
  6
CONTINUOUS
370
-3
390
F
  0
LAYER
  5
22B
100
AcDbSymbolTableRecord
100
AcDbLayerTableRecord
  2
DTM_515002
 70
0
 62
7
  6
CONTINUOUS
370
-3
390
F
  0
LAYER
  5
22C
100
AcDbSymbolTableRecord
100
AcDbLayerTableRecord
  2
DTM_SPRING_RH
 70
0
 62
7
  6
CONTINUOUS
370
-3
390
F
  0
LAYER
  5
22D
100
AcDbSymbolTableRecord
100
AcDbLayerTableRecord
  2
DTM_SP_RH_CONSTR
 70
0
 62
7
  6
CONTINUOUS
370
-3
390
F
  0
LAYER
  5
22E
100
AcDbSymbolTableRecord
100
AcDbLayerTableRecord
  2
GEOMETRICTOLERANCES
 70
0
 62
7
  6
CONTINUOUS
370
-3
390
F
  0
LAYER
  5
22F
100
AcDbSymbolTableRecord
100
AcDbLayerTableRecord
  2
PARAMETERDIMENSIONS
 70
0
 62
7
  6
CONTINUOUS
370
-3
390
F
  0
LAYER
  5
230
100
AcDbSymbolTableRecord
100
AcDbLayerTableRecord
  2
PLANE
 70
0
 62
7
  6
CONTINUOUS
370
-3
390
F
  0
LAYER
  5
231
100
AcDbSymbolTableRecord
100
AcDbLayerTableRecord
  2
SAE-6_PORT
 70
0
 62
7
  6
CONTINUOUS
370
-3
390
F
  0
LAYER
  5
232
100
AcDbSymbolTableRecord
100
AcDbLayerTableRecord
  2
T-8A_CAVITY
 70
0
 62
7
  6
CONTINUOUS
370
-3
390
F
  0
LAYER
  5
233
100
AcDbSymbolTableRecord
100
AcDbLayerTableRecord
  2
T-8A_CAVITY_REF_GEOMETRY
 70
0
 62
7
  6
CONTINUOUS
370
-3
390
F
  0
LAYER
  5
234
100
AcDbSymbolTableRecord
100
AcDbLayerTableRecord
  2
TEXT
 70
0
 62
7
  6
CONTINUOUS
370
-3
390
F
  0
LAYER
  5
235
100
AcDbSymbolTableRecord
100
AcDbLayerTableRecord
  2
THREAD
 70
0
 62
7
  6
CONTINUOUS
370
-3
390
F
  0
LAYER
  5
236
100
AcDbSymbolTableRecord
100
AcDbLayerTableRecord
  2
XSEC_DATUMS
 70
0
 62
7
  6
CONTINUOUS
370
-3
390
F
  0
ENDTAB
  0
TABLE
  2
STYLE
  5
3
100
AcDbSymbolTable
 70
1
  0
STYLE
  5
11
100
AcDbSymbolTableRecord
100
AcDbTextStyleTableRecord
  2
STANDARD
 70
0
 40
0.0
 41
0.8
 50
0.0
 71
0
 42
0.2
  3
txt
  4

  0
ENDTAB
  0
TABLE
  2
VIEW
  5
6
100
AcDbSymbolTable
 70
0
  0
ENDTAB
  0
TABLE
  2
UCS
  5
7
100
AcDbSymbolTable
 70
0
  0
ENDTAB
  0
TABLE
  2
APPID
  5
9
100
AcDbSymbolTable
 70
1
  0
APPID
  5
237
100
AcDbSymbolTableRecord
100
AcDbRegAppTableRecord
  2
ACAD
 70
0
  0
ENDTAB
  0
TABLE
  2
BLOCK_RECORD
  5
1
100
AcDbSymbolTable
 70
0
  0
BLOCK_RECORD
  5
1F
100
AcDbSymbolTableRecord
100
AcDbBlockTableRecord
  2
*MODEL_SPACE
  0
BLOCK_RECORD
  5
1B
100
AcDbSymbolTableRecord
100
AcDbBlockTableRecord
  2
*PAPER_SPACE
  0
ENDTAB
  0
TABLE
  2
DIMSTYLE
  5
A
100
AcDbSymbolTable
 70
1
100
AcDbDimStyleTable
 71
0
  0
DIMSTYLE
105
238
100
AcDbSymbolTableRecord
100
AcDbDimStyleTableRecord
  2
STANDARD
 70
0
  3

  4

 40
1.0
 41
0.1875
 42
0.0625
 43
0.38
 44
0.18
 45
0.0
 46
0.0
 47
0.01
 48
0.01
140
0.15625
141
0.09
142
0.0
143
25.4
144
1.0
145
0.0
146
1.0
147
0.09
 71
0.0
 72
0.0
 73
1
 74
1
 75
0
 76
0
 77
0
 78
4
170
0
171
2
172
0
173
0
174
0
175
0
176
0
177
0
178
0
270
2
271
2
272
2
273
2
274
2
275
0
280
0
281
0
282
0
283
1
284
4
285
0
286
0
287
3
288
0
340
11
  0
ENDTAB
  0
ENDSEC
  0
SECTION
  2
BLOCKS
  0
BLOCK
  5
20
100
AcDbEntity
  8
0
100
AcDbBlockBegin
  2
*MODEL_SPACE
 70
0
 10
0.0
 20
0.0
 30
0.0
  3
*MODEL_SPACE
  1

  0
ENDBLK
  5
21
100
AcDbEntity
  8
0
100
AcDbBlockEnd
  0
BLOCK
  5
1C
100
AcDbEntity
  8
0
100
AcDbBlockBegin
  2
*PAPER_SPACE
 70
0
 10
0.0
 20
0.0
 30
0.0
  3
*PAPER_SPACE
  1

  0
ENDBLK
  5
1D
100
AcDbEntity
  8
0
100
AcDbBlockEnd
  0
ENDSEC
  0
SECTION
  2
ENTITIES
  0
LINE
  5
239
100
AcDbEntity
  8
03__ASM_ALL_CURVES
100
AcDbLine
 62
40
  6
CONTINUOUS
 10
4.2956946683
 20
5.1043426422
 11
4.2996962308
 21
5.115013473
  0
LINE
  5
23A
100
AcDbEntity
  8
03__ASM_ALL_CURVES
100
AcDbLine
 62
40
  6
CONTINUOUS
 10
4.3277071683
 20
5.0830009749
 11
4.3237056058
 21
5.0723301412
  0
LINE
  5
23B
100
AcDbEntity
  8
03__ASM_ALL_CURVES
100
AcDbLine
 62
40
  6
CONTINUOUS
 10
4.2996962308
 20
5.115013473
 11
4.3036977933
 21
5.1203488922
  0
LINE
  5
23C
100
AcDbEntity
  8
03__ASM_ALL_CURVES
100
AcDbLine
 62
40
  6
CONTINUOUS
 10
4.3237056058
 20
5.0723301412
 11
4.3197040433
 21
5.0669947244
  0
LINE
  5
23D
100
AcDbEntity
  8
0
100
AcDbLine
 62
7
  6
CONTINUOUS
 10
4.3336704207
 20
3.5821303255
 11
4.2883259183
 21
3.6606693076
  0
LINE
  5
23E
100
AcDbEntity
  8
0
100
AcDbLine
 62
7
  6
CONTINUOUS
 10
4.2883259183
 20
3.6606693076
 11
4.2883259183
 21
4.7706693076
  0
LINE
  5
23F
100
AcDbEntity
  8
03__ASM_ALL_CURVES
100
AcDbLine
 62
40
  6
CONTINUOUS
 10
4.2883259183
 20
4.7706693076
 11
4.2883259183
 21
5.0616593076
  0
LINE
  5
240
100
AcDbEntity
  8
03__ASM_ALL_CURVES
100
AcDbLine
 62
40
  6
CONTINUOUS
 10
4.2956946683
 20
5.0830009749
 11
4.2956946683
 21
5.1043426422
  0
LINE
  5
241
100
AcDbEntity
  8
03__ASM_ALL_CURVES
100
AcDbLine
 62
40
  6
CONTINUOUS
 10
4.4237446683
 20
5.1043426422
 11
4.4277462308
 21
5.115013473
  0
LINE
  5
242
100
AcDbEntity
  8
03__ASM_ALL_CURVES
100
AcDbLine
 62
40
  6
CONTINUOUS
 10
4.4237446683
 20
5.0830009749
 11
4.4277462308
 21
5.0936718076
  0
LINE
  5
243
100
AcDbEntity
  8
03__ASM_ALL_CURVES
100
AcDbLine
 62
40
  6
CONTINUOUS
 10
4.4557571683
 20
5.0830009749
 11
4.4517556058
 21
5.0723301412
  0
LINE
  5
244
100
AcDbEntity
  8
0
100
AcDbLine
 62
7
  6
CONTINUOUS
 10
4.3336704207
 20
4.8492082897
 11
4.2883259183
 21
4.7706693076
  0
LINE
  5
245
100
AcDbEntity
  8
03__ASM_ALL_CURVES
100
AcDbLine
 62
40
  6
CONTINUOUS
 10
4.4277462308
 20
5.115013473
 11
4.4317477933
 21
5.1203488922
  0
LINE
  5
246
100
AcDbEntity
  8
03__ASM_ALL_CURVES
100
AcDbLine
 62
40
  6
CONTINUOUS
 10
4.4517556058
 20
5.0723301412
 11
4.4477540433
 21
5.0669947244
  0
LINE
  5
247
100
AcDbEntity
  8
03__ASM_ALL_CURVES
100
AcDbLine
 62
40
  6
CONTINUOUS
 10
4.4877696683
 20
5.115013473
 11
4.4917712308
 21
5.1203488922
  0
LINE
  5
248
100
AcDbEntity
  8
03__ASM_ALL_CURVES
100
AcDbLine
 62
40
  6
CONTINUOUS
 10
4.4837681058
 20
5.0830009749
 11
4.4917712308
 21
5.0936718076
  0
LINE
  5
249
100
AcDbEntity
  8
03__ASM_ALL_CURVES
100
AcDbLine
 62
40
  6
CONTINUOUS
 10
4.5197821683
 20
5.1096780576
 11
4.5157806058
 21
5.1043426422
  0
LINE
  5
24A
100
AcDbEntity
  8
03__ASM_ALL_CURVES
100
AcDbLine
 62
40
  6
CONTINUOUS
 10
4.5237837308
 20
5.0776655576
 11
4.5157806058
 21
5.0669947244
  0
LINE
  5
24B
100
AcDbEntity
  8
03__ASM_ALL_CURVES
100
AcDbLine
 62
40
  6
CONTINUOUS
 10
4.5718024808
 20
5.1256843076
 11
4.5637993558
 21
5.115013473
  0
LINE
  5
24C
100
AcDbEntity
  8
03__ASM_ALL_CURVES
100
AcDbLine
 62
40
  6
CONTINUOUS
 10
4.3036977933
 20
5.1203488922
 11
4.3117009183
 21
5.1256843076
  0
LINE
  5
24D
100
AcDbEntity
  8
03__ASM_ALL_CURVES
100
AcDbLine
 62
40
  6
CONTINUOUS
 10
4.3277071683
 20
5.1043426422
 11
4.3277071683
 21
5.0830009749
  0
LINE
  5
24E
100
AcDbEntity
  8
0
100
AcDbLine
 62
7
  6
CONTINUOUS
 10
4.3339365896
 20
3.5816693076
 11
4.3339365896
 21
3.5822839981
  0
LINE
  5
24F
100
AcDbEntity
  8
0
100
AcDbLine
 62
7
  6
CONTINUOUS
 10
4.3339365896
 20
3.8748046171
 11
4.3339365896
 21
3.9231486887
  0
LINE
  5
250
100
AcDbEntity
  8
0
100
AcDbLine
 62
7
  6
CONTINUOUS
 10
4.3339365896
 20
4.5081899265
 11
4.3339365896
 21
4.5565339981
  0
LINE
  5
251
100
AcDbEntity
  8
0
100
AcDbLine
 62
7
  6
CONTINUOUS
 10
4.3339365896
 20
4.8490546171
 11
4.3339365896
 21
4.8496693076
  0
LINE
  5
252
100
AcDbEntity
  8
03__ASM_ALL_CURVES
100
AcDbLine
 62
40
  6
CONTINUOUS
 10
4.3651559183
 20
5.0488543076
 11
4.3651559183
 21
5.0232443076
  0
LINE
  5
253
100
AcDbEntity
  8
03__ASM_ALL_CURVES
100
AcDbLine
 62
40
  6
CONTINUOUS
 10
4.3717243558
 20
5.0616593076
 11
4.3717243558
 21
5.0669947244
  0
LINE
  5
254
100
AcDbEntity
  8
03__ASM_ALL_CURVES
100
AcDbLine
 62
40
  6
CONTINUOUS
 10
4.4237446683
 20
5.0830009749
 11
4.4237446683
 21
5.1043426422
  0
LINE
  5
255
100
AcDbEntity
  8
03__ASM_ALL_CURVES
100
AcDbLine
 62
40
  6
CONTINUOUS
 10
4.5637993558
 20
5.115013473
 11
4.5597977933
 21
5.099007223
  0
LINE
  5
256
100
AcDbEntity
  8
03__ASM_ALL_CURVES
100
AcDbLine
 62
40
  6
CONTINUOUS
 10
4.3197040433
 20
5.0669947244
 11
4.3117009183
 21
5.0616593076
  0
LINE
  5
257
100
AcDbEntity
  8
03__ASM_ALL_CURVES
100
AcDbLine
 62
40
  6
CONTINUOUS
 10
4.4317477933
 20
5.1203488922
 11
4.4397509183
 21
5.1256843076
  0
LINE
  5
258
100
AcDbEntity
  8
03__ASM_ALL_CURVES
100
AcDbLine
 62
40
  6
CONTINUOUS
 10
4.4917712308
 20
5.1203488922
 11
4.4997743558
 21
5.1256843076
  0
LINE
  5
259
100
AcDbEntity
  8
03__ASM_ALL_CURVES
100
AcDbLine
 62
40
  6
CONTINUOUS
 10
4.4477540433
 20
5.0669947244
 11
4.4397509183
 21
5.0616593076
  0
LINE
  5
25A
100
AcDbEntity
  8
03__ASM_ALL_CURVES
100
AcDbLine
 62
40
  6
CONTINUOUS
 10
4.4917712308
 20
5.0936718076
 11
4.4997743558
 21
5.099007223
  0
LINE
  5
25B
100
AcDbEntity
  8
03__ASM_ALL_CURVES
100
AcDbLine
 62
40
  6
CONTINUOUS
 10
4.5157806058
 20
5.1043426422
 11
4.5077774808
 21
5.099007223
  0
LINE
  5
25C
100
AcDbEntity
  8
03__ASM_ALL_CURVES
100
AcDbLine
 62
40
  6
CONTINUOUS
 10
4.4837681058
 20
5.0776655576
 11
4.4837681058
 21
5.0830009749
  0
LINE
  5
25D
100
AcDbEntity
  8
03__ASM_ALL_CURVES
100
AcDbLine
 62
40
  6
CONTINUOUS
 10
4.4877696683
 20
5.1096780576
 11
4.4877696683
 21
5.115013473
  0
LINE
  5
25E
100
AcDbEntity
  8
03__ASM_ALL_CURVES
100
AcDbLine
 62
40
  6
CONTINUOUS
 10
4.5197821683
 20
5.115013473
 11
4.5197821683
 21
5.1096780576
  0
LINE
  5
25F
100
AcDbEntity
  8
03__ASM_ALL_CURVES
100
AcDbLine
 62
40
  6
CONTINUOUS
 10
4.5237837308
 20
5.0830009749
 11
4.5237837308
 21
5.0776655576
  0
LINE
  5
260
100
AcDbEntity
  8
03__ASM_ALL_CURVES
100
AcDbLine
 62
40
  6
CONTINUOUS
 10
4.6998524808
 20
5.0883363903
 11
4.7038540433
 21
5.1043426422
  0
LINE
  5
261
100
AcDbEntity
  8
03__ASM_ALL_CURVES
100
AcDbLine
 62
40
  6
CONTINUOUS
 10
4.7038540433
 20
5.1043426422
 11
4.7118571683
 21
5.1256843076
  0
LINE
  5
262
100
AcDbEntity
  8
03__ASM_ALL_CURVES
100
AcDbLine
 62
40
  6
CONTINUOUS
 10
4.8078946683
 20
5.115013473
 11
4.8118962308
 21
5.1203488922
  0
LINE
  5
263
100
AcDbEntity
  8
03__ASM_ALL_CURVES
100
AcDbLine
 62
40
  6
CONTINUOUS
 10
4.8198993558
 20
5.0883363903
 11
4.8118962308
 21
5.0776655576
  0
LINE
  5
264
100
AcDbEntity
  8
03__ASM_ALL_CURVES
100
AcDbLine
 62
40
  6
CONTINUOUS
 10
4.8399071683
 20
5.1043426422
 11
4.8359056058
 21
5.099007223
  0
LINE
  5
265
100
AcDbEntity
  8
03__ASM_ALL_CURVES
100
AcDbLine
 62
40
  6
CONTINUOUS
 10
4.5157806058
 20
5.0669947244
 11
4.5077774808
 21
5.0616593076
  0
LINE
  5
266
100
AcDbEntity
  8
03__ASM_ALL_CURVES
100
AcDbLine
 62
40
  6
CONTINUOUS
 10
4.4277462308
 20
5.0936718076
 11
4.4397509183
 21
5.099007223
  0
LINE
  5
267
100
AcDbEntity
  8
03__ASM_ALL_CURVES
100
AcDbLine
 62
40
  6
CONTINUOUS
 10
4.5597977933
 20
5.099007223
 11
4.5597977933
 21
5.0883363903
  0
LINE
  5
268
100
AcDbEntity
  8
03__ASM_ALL_CURVES
100
AcDbLine
 62
40
  6
CONTINUOUS
 10
4.6318259183
 20
5.1256843076
 11
4.6318259183
 21
5.0616593076
  0
LINE
  5
269
100
AcDbEntity
  8
03__ASM_ALL_CURVES
100
AcDbLine
 62
40
  6
CONTINUOUS
 10
4.6958509183
 20
5.0616593076
 11
4.6998524808
 21
5.0883363903
  0
LINE
  5
26A
100
AcDbEntity
  8
03__ASM_ALL_CURVES
100
AcDbLine
 62
40
  6
CONTINUOUS
 10
4.8118962308
 20
5.0776655576
 11
4.8078946683
 21
5.0616593076
  0
LINE
  5
26B
100
AcDbEntity
  8
03__ASM_ALL_CURVES
100
AcDbLine
 62
40
  6
CONTINUOUS
 10
4.9559524808
 20
5.0723301412
 11
4.9479493558
 21
5.0616593076
  0
LINE
  5
26C
100
AcDbEntity
  8
03__ASM_ALL_CURVES
100
AcDbLine
 62
40
  6
CONTINUOUS
 10
4.8118962308
 20
5.1203488922
 11
4.8198993558
 21
5.1256843076
  0
LINE
  5
26D
100
AcDbEntity
  8
03__ASM_ALL_CURVES
100
AcDbLine
 62
40
  6
CONTINUOUS
 10
4.8359056058
 20
5.099007223
 11
4.8198993558
 21
5.0883363903
  0
LINE
  5
26E
100
AcDbEntity
  8
0
100
AcDbLine
 62
7
  6
CONTINUOUS
 10
4.7319002924
 20
3.5816693076
 11
4.7319002924
 21
3.5822839981
  0
LINE
  5
26F
100
AcDbEntity
  8
0
100
AcDbLine
 62
7
  6
CONTINUOUS
 10
4.7319002924
 20
3.8748046171
 11
4.7319002924
 21
3.9231486887
  0
LINE
  5
270
100
AcDbEntity
  8
0
100
AcDbLine
 62
7
  6
CONTINUOUS
 10
4.7319002924
 20
4.5081899265
 11
4.7319002924
 21
4.5565339981
  0
LINE
  5
271
100
AcDbEntity
  8
0
100
AcDbLine
 62
7
  6
CONTINUOUS
 10
4.7319002924
 20
4.8490546171
 11
4.7319002924
 21
4.8496693076
  0
LINE
  5
272
100
AcDbEntity
  8
03__ASM_ALL_CURVES
100
AcDbLine
 62
40
  6
CONTINUOUS
 10
4.7558743558
 20
5.0616593076
 11
4.7558743558
 21
5.0669947244
  0
LINE
  5
273
100
AcDbEntity
  8
03__ASM_ALL_CURVES
100
AcDbLine
 62
40
  6
CONTINUOUS
 10
4.8919274808
 20
5.0883363903
 11
4.8959290433
 21
5.1043426422
  0
LINE
  5
274
100
AcDbEntity
  8
03__ASM_ALL_CURVES
100
AcDbLine
 62
40
  6
CONTINUOUS
 10
4.8959290433
 20
5.1043426422
 11
4.9039321683
 21
5.1256843076
  0
LINE
  5
275
100
AcDbEntity
  8
03__ASM_ALL_CURVES
100
AcDbLine
 62
40
  6
CONTINUOUS
 10
5.1377893559
 20
5.1096780576
 11
5.1457924809
 21
5.1203488922
  0
LINE
  5
276
100
AcDbEntity
  8
03__ASM_ALL_CURVES
100
AcDbLine
 62
40
  6
CONTINUOUS
 10
5.1457924809
 20
5.1203488922
 11
5.1537956059
 21
5.1256843076
  0
LINE
  5
277
100
AcDbEntity
  8
03__ASM_ALL_CURVES
100
AcDbLine
 62
40
  6
CONTINUOUS
 10
4.2996962308
 20
5.0723301412
 11
4.2956946683
 21
5.0830009749
  0
LINE
  5
278
100
AcDbEntity
  8
03__ASM_ALL_CURVES
100
AcDbLine
 62
40
  6
CONTINUOUS
 10
4.3237056058
 20
5.115013473
 11
4.3277071683
 21
5.1043426422
  0
LINE
  5
279
100
AcDbEntity
  8
0
100
AcDbLine
 62
7
  6
CONTINUOUS
 10
4.7873259183
 20
3.6776693076
 11
4.7873259183
 21
4.7536693076
  0
LINE
  5
27A
100
AcDbEntity
  8
03__ASM_ALL_CURVES
100
AcDbLine
 62
40
  6
CONTINUOUS
 10
4.8399071683
 20
5.115013473
 11
4.8399071683
 21
5.1043426422
  0
LINE
  5
27B
100
AcDbEntity
  8
03__ASM_ALL_CURVES
100
AcDbLine
 62
40
  6
CONTINUOUS
 10
4.8879259183
 20
5.0616593076
 11
4.8919274808
 21
5.0883363903
  0
LINE
  5
27C
100
AcDbEntity
  8
03__ASM_ALL_CURVES
100
AcDbLine
 62
40
  6
CONTINUOUS
 10
4.9599540433
 20
5.0883363903
 11
4.9559524808
 21
5.0723301412
  0
LINE
  5
27D
100
AcDbEntity
  8
03__ASM_ALL_CURVES
100
AcDbLine
 62
40
  6
CONTINUOUS
 10
5.1778049809
 20
5.0776655576
 11
5.1698018559
 21
5.0669947244
  0
LINE
  5
27E
100
AcDbEntity
  8
03__ASM_ALL_CURVES
100
AcDbLine
 62
40
  6
CONTINUOUS
 10
5.2018143559
 20
5.1096780576
 11
5.2098174809
 21
5.1203488922
  0
LINE
  5
27F
100
AcDbEntity
  8
03__ASM_ALL_CURVES
100
AcDbLine
 62
40
  6
CONTINUOUS
 10
5.2378284184
 20
5.0723301412
 11
5.2338268559
 21
5.0669947244
  0
LINE
  5
280
100
AcDbEntity
  8
03__ASM_ALL_CURVES
100
AcDbLine
 62
40
  6
CONTINUOUS
 10
5.2098174809
 20
5.1203488922
 11
5.2178206059
 21
5.1256843076
  0
LINE
  5
281
100
AcDbEntity
  8
03__ASM_ALL_CURVES
100
AcDbLine
 62
40
  6
CONTINUOUS
 10
5.1698018559
 20
5.0669947244
 11
5.1617987309
 21
5.0616593076
  0
LINE
  5
282
100
AcDbEntity
  8
03__ASM_ALL_CURVES
100
AcDbLine
 62
40
  6
CONTINUOUS
 10
5.2338268559
 20
5.0669947244
 11
5.2258237309
 21
5.0616593076
  0
LINE
  5
283
100
AcDbEntity
  8
03__ASM_ALL_CURVES
100
AcDbLine
 62
40
  6
CONTINUOUS
 10
4.4277462308
 20
5.0723301412
 11
4.4237446683
 21
5.0830009749
  0
LINE
  5
284
100
AcDbEntity
  8
03__ASM_ALL_CURVES
100
AcDbLine
 62
40
  6
CONTINUOUS
 10
4.4517556058
 20
5.0936718076
 11
4.4557571683
 21
5.0830009749
  0
LINE
  5
285
100
AcDbEntity
  8
03__ASM_ALL_CURVES
100
AcDbLine
 62
40
  6
CONTINUOUS
 10
4.5597977933
 20
5.0883363903
 11
4.5637993558
 21
5.0723301412
  0
LINE
  5
286
100
AcDbEntity
  8
03__ASM_ALL_CURVES
100
AcDbLine
 62
40
  6
CONTINUOUS
 10
4.8984959183
 20
5.0488543076
 11
4.8984959183
 21
5.0232443076
  0
LINE
  5
287
100
AcDbEntity
  8
03__ASM_ALL_CURVES
100
AcDbLine
 62
40
  6
CONTINUOUS
 10
4.9599540433
 20
5.099007223
 11
4.9599540433
 21
5.0883363903
  0
LINE
  5
288
100
AcDbEntity
  8
0
100
AcDbLine
 62
7
  6
CONTINUOUS
 10
4.9723259183
 20
4.7536693076
 11
4.9723259183
 21
3.6776693076
  0
LINE
  5
289
100
AcDbEntity
  8
0
100
AcDbLine
 62
7
  6
CONTINUOUS
 10
4.9753259183
 20
4.7506693076
 11
4.9753259183
 21
3.6806693076
  0
LINE
  5
28A
100
AcDbEntity
  8
03__ASM_ALL_CURVES
100
AcDbLine
 62
40
  6
CONTINUOUS
 10
4.9753259183
 20
4.7664743076
 11
4.9753259183
 21
5.0616593076
  0
LINE
  5
28B
100
AcDbEntity
  8
0
100
AcDbLine
 62
7
  6
CONTINUOUS
 10
4.9778259183
 20
3.6896126833
 11
4.9778259183
 21
4.7417259319
  0
LINE
  5
28C
100
AcDbEntity
  8
0
100
AcDbLine
 62
7
  6
CONTINUOUS
 10
4.99668232
 20
4.7301693252
 11
4.9966823248
 21
4.7308391806
  0
LINE
  5
28D
100
AcDbEntity
  8
0
100
AcDbLine
 62
7
  6
CONTINUOUS
 10
4.9966823248
 20
3.7004994346
 11
4.99668232
 21
4.7301693252
  0
LINE
  5
28E
100
AcDbEntity
  8
0
100
AcDbLine
 62
7
  6
CONTINUOUS
 10
4.9991823248
 20
3.7011693076
 11
4.9991823248
 21
4.7301693076
  0
LINE
  5
28F
100
AcDbEntity
  8
03__ASM_ALL_CURVES
100
AcDbLine
 62
40
  6
CONTINUOUS
 10
5.1337877934
 20
5.0936718076
 11
5.1377893559
 21
5.1096780576
  0
LINE
  5
290
100
AcDbEntity
  8
03__ASM_ALL_CURVES
100
AcDbLine
 62
40
  6
CONTINUOUS
 10
5.1818065434
 20
5.0936718076
 11
5.1778049809
 21
5.0776655576
  0
LINE
  5
291
100
AcDbEntity
  8
03__ASM_ALL_CURVES
100
AcDbLine
 62
40
  6
CONTINUOUS
 10
5.5299424809
 20
5.1203488922
 11
5.5379456059
 21
5.1256843076
  0
LINE
  5
292
100
AcDbEntity
  8
03__ASM_ALL_CURVES
100
AcDbLine
 62
40
  6
CONTINUOUS
 10
6.1853083472
 20
3.4486505576
 11
6.1793060034
 21
3.4486505576
  0
LINE
  5
293
100
AcDbEntity
  8
03__ASM_ALL_CURVES
100
AcDbLine
 62
40
  6
CONTINUOUS
 10
6.3143587378
 20
3.4486505576
 11
6.3383681128
 21
3.4486505576
  0
LINE
  5
294
100
AcDbEntity
  8
03__ASM_ALL_CURVES
100
AcDbLine
 62
40
  6
CONTINUOUS
 10
6.2333270972
 20
3.4726599326
 11
6.2183212378
 21
3.4726599326
  0
LINE
  5
295
100
AcDbEntity
  8
03__ASM_ALL_CURVES
100
AcDbLine
 62
40
  6
CONTINUOUS
 10
6.1372895972
 20
3.4726599326
 11
6.1222837378
 21
3.4726599326
  0
LINE
  5
296
100
AcDbEntity
  8
THREAD
100
AcDbLine
 62
7
  6
CONTINUOUS
 10
5.1852652285
 20
3.7196693076
 11
5.1669343575
 21
3.7514193076
  0
LINE
  5
297
100
AcDbEntity
  8
THREAD
100
AcDbLine
 62
7
  6
CONTINUOUS
 10
5.0223259183
 20
3.7011693076
 11
5.0223259183
 21
4.7301693076
  0
LINE
  5
298
100
AcDbEntity
  8
03__ASM_ALL_CURVES
100
AcDbLine
 62
40
  6
CONTINUOUS
 10
5.0521559183
 20
5.0488543076
 11
5.0521559183
 21
5.0232443076
  0
LINE
  5
299
100
AcDbEntity
  8
03__ASM_ALL_CURVES
100
AcDbLine
 62
40
  6
CONTINUOUS
 10
5.0777659184
 20
5.1256843076
 11
5.0777659184
 21
5.0616593076
  0
LINE
  5
29A
100
AcDbEntity
  8
0
100
AcDbLine
 62
7
  6
CONTINUOUS
 10
5.0923259183
 20
3.7036693076
 11
5.0923259183
 21
4.7276693076
  0
LINE
  5
29B
100
AcDbEntity
  8
03__ASM_ALL_CURVES
100
AcDbLine
 62
40
  6
CONTINUOUS
 10
5.1978127934
 20
5.0936718076
 11
5.2018143559
 21
5.1096780576
  0
LINE
  5
29C
100
AcDbEntity
  8
03__ASM_ALL_CURVES
100
AcDbLine
 62
40
  6
CONTINUOUS
 10
5.2658393559
 20
5.0616593076
 11
5.2858471684
 21
5.1256843076
  0
LINE
  5
29D
100
AcDbEntity
  8
THREAD
100
AcDbLine
 62
7
  6
CONTINUOUS
 10
5.1852652285
 20
4.7116693076
 11
5.1669343575
 21
4.6799193076
  0
LINE
  5
29E
100
AcDbEntity
  8
03__ASM_ALL_CURVES
100
AcDbLine
 62
40
  6
CONTINUOUS
 10
5.5219393559
 20
5.1096780576
 11
5.5299424809
 21
5.1203488922
  0
LINE
  5
29F
100
AcDbEntity
  8
03__ASM_ALL_CURVES
100
AcDbLine
 62
40
  6
CONTINUOUS
 10
5.5539518559
 20
5.0669947244
 11
5.5459487309
 21
5.0616593076
  0
LINE
  5
2A0
100
AcDbEntity
  8
03__ASM_ALL_CURVES
100
AcDbLine
 62
40
  6
CONTINUOUS
 10
5.6659956059
 20
5.1256843076
 11
5.6579924809
 21
5.1203488922
  0
LINE
  5
2A1
100
AcDbEntity
  8
03__ASM_ALL_CURVES
100
AcDbLine
 62
40
  6
CONTINUOUS
 10
5.6820018559
 20
5.0669947244
 11
5.6739987309
 21
5.0616593076
  0
LINE
  5
2A2
100
AcDbEntity
  8
03__ASM_ALL_CURVES
100
AcDbLine
 62
40
  6
CONTINUOUS
 10
5.7860424809
 20
5.1203488922
 11
5.7940456059
 21
5.1256843076
  0
LINE
  5
2A3
100
AcDbEntity
  8
03__ASM_ALL_CURVES
100
AcDbLine
 62
40
  6
CONTINUOUS
 10
6.1222837378
 20
3.4966693076
 11
6.1372895972
 21
3.4966693076
  0
LINE
  5
2A4
100
AcDbEntity
  8
03__ASM_ALL_CURVES
100
AcDbLine
 62
40
  6
CONTINUOUS
 10
6.1793060034
 20
3.4966693076
 11
6.1853083472
 21
3.4966693076
  0
LINE
  5
2A5
100
AcDbEntity
  8
03__ASM_ALL_CURVES
100
AcDbLine
 62
40
  6
CONTINUOUS
 10
6.2183212378
 20
3.4966693076
 11
6.2333270972
 21
3.4966693076
  0
LINE
  5
2A6
100
AcDbEntity
  8
03__ASM_ALL_CURVES
100
AcDbLine
 62
40
  6
CONTINUOUS
 10
6.2633388159
 20
3.4966693076
 11
6.2933505347
 21
3.4966693076
  0
LINE
  5
2A7
100
AcDbEntity
  8
03__ASM_ALL_CURVES
100
AcDbLine
 62
40
  6
CONTINUOUS
 10
6.3233622534
 20
3.4966693076
 11
6.3293645972
 21
3.4966693076
  0
LINE
  5
2A8
100
AcDbEntity
  8
0
100
AcDbLine
 62
7
  6
CONTINUOUS
 10
4.7319002924
 20
3.5816693076
 11
4.3339365896
 21
3.5816693076
  0
LINE
  5
2A9
100
AcDbEntity
  8
0
100
AcDbLine
 62
7
  6
CONTINUOUS
 10
4.7319002924
 20
3.5822839981
 11
4.3339365896
 21
3.5822839981
  0
LINE
  5
2AA
100
AcDbEntity
  8
03__ASM_ALL_CURVES
100
AcDbLine
 62
40
  6
CONTINUOUS
 10
4.3036977933
 20
5.0669947244
 11
4.2996962308
 21
5.0723301412
  0
LINE
  5
2AB
100
AcDbEntity
  8
03__ASM_ALL_CURVES
100
AcDbLine
 62
40
  6
CONTINUOUS
 10
4.3197040433
 20
5.1203488922
 11
4.3237056058
 21
5.115013473
  0
LINE
  5
2AC
100
AcDbEntity
  8
0
100
AcDbLine
 62
7
  6
CONTINUOUS
 10
5.1423259183
 20
3.7036693076
 11
5.1423259183
 21
4.7276693076
  0
LINE
  5
2AD
100
AcDbEntity
  8
THREAD
100
AcDbLine
 62
7
  6
CONTINUOUS
 10
5.1561090399
 20
3.7576693076
 11
5.1561090399
 21
4.6736693076
  0
LINE
  5
2AE
100
AcDbEntity
  8
THREAD
100
AcDbLine
 62
7
  6
CONTINUOUS
 10
5.1669343575
 20
3.7514193076
 11
5.1669343575
 21
4.6799193076
  0
LINE
  5
2AF
100
AcDbEntity
  8
THREAD
100
AcDbLine
 62
7
  6
CONTINUOUS
 10
5.1852652285
 20
3.7196693076
 11
5.1852652285
 21
4.7116693076
  0
LINE
  5
2B0
100
AcDbEntity
  8
0
100
AcDbLine
 62
7
  6
CONTINUOUS
 10
4.7873259183
 20
3.6776693076
 11
4.7321664613
 21
3.5821303255
  0
LINE
  5
2B1
100
AcDbEntity
  8
03__ASM_ALL_CURVES
100
AcDbLine
 62
40
  6
CONTINUOUS
 10
5.5579534184
 20
5.0723301412
 11
5.5539518559
 21
5.0669947244
  0
LINE
  5
2B2
100
AcDbEntity
  8
03__ASM_ALL_CURVES
100
AcDbLine
 62
40
  6
CONTINUOUS
 10
5.6579924809
 20
5.1203488922
 11
5.6539909184
 21
5.115013473
  0
LINE
  5
2B3
100
AcDbEntity
  8
03__ASM_ALL_CURVES
100
AcDbLine
 62
40
  6
CONTINUOUS
 10
5.6860034184
 20
5.0723301412
 11
5.6820018559
 21
5.0669947244
  0
LINE
  5
2B4
100
AcDbEntity
  8
03__ASM_ALL_CURVES
100
AcDbLine
 62
40
  6
CONTINUOUS
 10
5.8100518559
 20
5.0669947244
 11
5.8020487309
 21
5.0616593076
  0
LINE
  5
2B5
100
AcDbEntity
  8
03__ASM_ALL_CURVES
100
AcDbLine
 62
40
  6
CONTINUOUS
 10
5.8740768559
 20
5.0669947244
 11
5.8660737309
 21
5.0616593076
  0
LINE
  5
2B6
100
AcDbEntity
  8
0
100
AcDbLine
 62
7
  6
CONTINUOUS
 10
4.9723259183
 20
3.6776693076
 11
4.7873259183
 21
3.6776693076
  0
LINE
  5
2B7
100
AcDbEntity
  8
THREAD
100
AcDbLine
 62
7
  6
CONTINUOUS
 10
5.0223259183
 20
3.7011693076
 11
4.9991823248
 21
3.7011693076
  0
LINE
  5
2B8
100
AcDbEntity
  8
0
100
AcDbLine
 62
7
  6
CONTINUOUS
 10
5.0923259183
 20
3.7036693076
 11
5.1423259183
 21
3.7036693076
  0
LINE
  5
2B9
100
AcDbEntity
  8
THREAD
100
AcDbLine
 62
7
  6
CONTINUOUS
 10
5.4943259183
 20
3.7196693076
 11
5.1852652285
 21
3.7196693076
  0
LINE
  5
2BA
100
AcDbEntity
  8
03__ASM_ALL_CURVES
100
AcDbLine
 62
40
  6
CONTINUOUS
 10
4.3717243558
 20
5.0669947244
 11
4.3757259183
 21
5.0616593076
  0
LINE
  5
2BB
100
AcDbEntity
  8
03__ASM_ALL_CURVES
100
AcDbLine
 62
40
  6
CONTINUOUS
 10
4.4317477933
 20
5.0669947244
 11
4.4277462308
 21
5.0723301412
  0
LINE
  5
2BC
100
AcDbEntity
  8
03__ASM_ALL_CURVES
100
AcDbLine
 62
40
  6
CONTINUOUS
 10
4.4477540433
 20
5.1203488922
 11
4.4517556058
 21
5.115013473
  0
LINE
  5
2BD
100
AcDbEntity
  8
03__ASM_ALL_CURVES
100
AcDbLine
 62
40
  6
CONTINUOUS
 10
4.4917712308
 20
5.0669947244
 11
4.4837681058
 21
5.0776655576
  0
LINE
  5
2BE
100
AcDbEntity
  8
0
100
AcDbLine
 62
7
  6
CONTINUOUS
 10
4.7873259183
 20
4.7536693076
 11
4.7321664613
 21
4.8492082897
  0
LINE
  5
2BF
100
AcDbEntity
  8
03__ASM_ALL_CURVES
100
AcDbLine
 62
40
  6
CONTINUOUS
 10
4.9559524808
 20
5.115013473
 11
4.9599540433
 21
5.099007223
  0
LINE
  5
2C0
100
AcDbEntity
  8
03__ASM_ALL_CURVES
100
AcDbLine
 62
40
  6
CONTINUOUS
 10
5.3498721684
 20
5.1256843076
 11
5.3498721684
 21
5.0616593076
  0
LINE
  5
2C1
100
AcDbEntity
  8
03__ASM_ALL_CURVES
100
AcDbLine
 62
40
  6
CONTINUOUS
 10
5.5179377934
 20
5.0936718076
 11
5.5219393559
 21
5.1096780576
  0
LINE
  5
2C2
100
AcDbEntity
  8
03__ASM_ALL_CURVES
100
AcDbLine
 62
40
  6
CONTINUOUS
 10
5.7780393559
 20
5.1096780576
 11
5.7860424809
 21
5.1203488922
  0
LINE
  5
2C3
100
AcDbEntity
  8
03__ASM_ALL_CURVES
100
AcDbLine
 62
40
  6
CONTINUOUS
 10
5.8180549809
 20
5.0776655576
 11
5.8100518559
 21
5.0669947244
  0
LINE
  5
2C4
100
AcDbEntity
  8
03__ASM_ALL_CURVES
100
AcDbLine
 62
40
  6
CONTINUOUS
 10
5.9981252934
 20
5.0669947244
 11
5.9901221684
 21
5.0616593076
  0
LINE
  5
2C5
100
AcDbEntity
  8
03__ASM_ALL_CURVES
100
AcDbLine
 62
40
  6
CONTINUOUS
 10
6.1301768559
 20
5.099007223
 11
6.1221737309
 21
5.0936718076
  0
LINE
  5
2C6
100
AcDbEntity
  8
THREAD
100
AcDbLine
 62
7
  6
CONTINUOUS
 10
5.1561090399
 20
3.7576693076
 11
5.1423259183
 21
3.7576693076
  0
LINE
  5
2C7
100
AcDbEntity
  8
THREAD
100
AcDbLine
 62
7
  6
CONTINUOUS
 10
5.8343259183
 20
3.7636693076
 11
5.571559937
 21
3.7636693076
  0
LINE
  5
2C8
100
AcDbEntity
  8
0
100
AcDbLine
 62
7
  6
CONTINUOUS
 10
6.5373259183
 20
3.7791693076
 11
6.5943259183
 21
3.7791693076
  0
LINE
  5
2C9
100
AcDbEntity
  8
0
100
AcDbLine
 62
7
  6
CONTINUOUS
 10
6.7923259183
 20
3.7791693076
 11
6.8333259183
 21
3.7791693076
  0
LINE
  5
2CA
100
AcDbEntity
  8
0
100
AcDbLine
 62
7
  6
CONTINUOUS
 10
6.5943259183
 20
3.7796693076
 11
6.6443259183
 21
3.7796693076
  0
LINE
  5
2CB
100
AcDbEntity
  8
0
100
AcDbLine
 62
7
  6
CONTINUOUS
 10
6.7143259183
 20
3.7796693076
 11
6.7643259183
 21
3.7796693076
  0
LINE
  5
2CC
100
AcDbEntity
  8
0
100
AcDbLine
 62
7
  6
CONTINUOUS
 10
6.7923259183
 20
3.8336693076
 11
6.7643259183
 21
3.8336693076
  0
LINE
  5
2CD
100
AcDbEntity
  8
03__ASM_ALL_CURVES
100
AcDbLine
 62
40
  6
CONTINUOUS
 10
6.1793060034
 20
3.4486505576
 11
6.1733036597
 21
3.4526521202
  0
LINE
  5
2CE
100
AcDbEntity
  8
03__ASM_ALL_CURVES
100
AcDbLine
 62
40
  6
CONTINUOUS
 10
6.1372895972
 20
3.4966693076
 11
6.1432919409
 21
3.492667746
  0
LINE
  5
2CF
100
AcDbEntity
  8
03__ASM_ALL_CURVES
100
AcDbLine
 62
40
  6
CONTINUOUS
 10
4.4917712308
 20
5.1043426422
 11
4.4877696683
 21
5.1096780576
  0
LINE
  5
2D0
100
AcDbEntity
  8
03__ASM_ALL_CURVES
100
AcDbLine
 62
40
  6
CONTINUOUS
 10
4.5157806058
 20
5.0936718076
 11
4.5237837308
 21
5.0830009749
  0
LINE
  5
2D1
100
AcDbEntity
  8
03__ASM_ALL_CURVES
100
AcDbLine
 62
40
  6
CONTINUOUS
 10
4.5157806058
 20
5.1203488922
 11
4.5197821683
 21
5.115013473
  0
LINE
  5
2D2
100
AcDbEntity
  8
03__ASM_ALL_CURVES
100
AcDbLine
 62
40
  6
CONTINUOUS
 10
4.5637993558
 20
5.0723301412
 11
4.5718024808
 21
5.0616593076
  0
LINE
  5
2D3
100
AcDbEntity
  8
03__ASM_ALL_CURVES
100
AcDbLine
 62
40
  6
CONTINUOUS
 10
5.1377893559
 20
5.0776655576
 11
5.1337877934
 21
5.0936718076
  0
LINE
  5
2D4
100
AcDbEntity
  8
03__ASM_ALL_CURVES
100
AcDbLine
 62
40
  6
CONTINUOUS
 10
5.4138971684
 20
5.1256843076
 11
5.4138971684
 21
5.0616593076
  0
LINE
  5
2D5
100
AcDbEntity
  8
03__ASM_ALL_CURVES
100
AcDbLine
 62
40
  6
CONTINUOUS
 10
5.4619159184
 20
5.0616593076
 11
5.4619159184
 21
5.1256843076
  0
LINE
  5
2D6
100
AcDbEntity
  8
03__ASM_ALL_CURVES
100
AcDbLine
 62
40
  6
CONTINUOUS
 10
5.8780784184
 20
5.0723301412
 11
5.8740768559
 21
5.0669947244
  0
LINE
  5
2D7
100
AcDbEntity
  8
0
100
AcDbLine
 62
7
  6
CONTINUOUS
 10
6.4948995114
 20
3.8416693076
 11
5.8503259183
 21
3.8416693076
  0
LINE
  5
2D8
100
AcDbEntity
  8
0
100
AcDbLine
 62
7
  6
CONTINUOUS
 10
4.7319002924
 20
3.8748046171
 11
4.3339365896
 21
3.8748046171
  0
LINE
  5
2D9
100
AcDbEntity
  8
0
100
AcDbLine
 62
7
  6
CONTINUOUS
 10
4.7319002924
 20
3.9231486887
 11
4.3339365896
 21
3.9231486887
  0
LINE
  5
2DA
100
AcDbEntity
  8
0
100
AcDbLine
 62
7
  6
CONTINUOUS
 10
6.4124656696
 20
3.9367693076
 11
6.3884262971
 21
3.9367693076
  0
LINE
  5
2DB
100
AcDbEntity
  8
0
100
AcDbLine
 62
7
  6
CONTINUOUS
 10
6.4339430996
 20
3.9491693076
 11
6.467697037
 21
3.9491693076
  0
LINE
  5
2DC
100
AcDbEntity
  8
03__ASM_ALL_CURVES
100
AcDbLine
 62
40
  6
CONTINUOUS
 10
6.1853083472
 20
3.4966693076
 11
6.1913106909
 21
3.492667746
  0
LINE
  5
2DD
100
AcDbEntity
  8
03__ASM_ALL_CURVES
100
AcDbLine
 62
40
  6
CONTINUOUS
 10
6.2333270972
 20
3.4966693076
 11
6.2393294409
 21
3.492667746
  0
LINE
  5
2DE
100
AcDbEntity
  8
03__ASM_ALL_CURVES
100
AcDbLine
 62
40
  6
CONTINUOUS
 10
6.3293645972
 20
3.4966693076
 11
6.3353669409
 21
3.492667746
  0
LINE
  5
2DF
100
AcDbEntity
  8
03__ASM_ALL_CURVES
100
AcDbLine
 62
40
  6
CONTINUOUS
 10
4.7558743558
 20
5.0669947244
 11
4.7598759183
 21
5.0616593076
  0
LINE
  5
2E0
100
AcDbEntity
  8
03__ASM_ALL_CURVES
100
AcDbLine
 62
40
  6
CONTINUOUS
 10
5.1778049809
 20
5.1096780576
 11
5.1818065434
 21
5.0936718076
  0
LINE
  5
2E1
100
AcDbEntity
  8
03__ASM_ALL_CURVES
100
AcDbLine
 62
40
  6
CONTINUOUS
 10
5.2018143559
 20
5.0776655576
 11
5.1978127934
 21
5.0936718076
  0
LINE
  5
2E2
100
AcDbEntity
  8
03__ASM_ALL_CURVES
100
AcDbLine
 62
40
  6
CONTINUOUS
 10
5.4939284184
 20
5.0616593076
 11
5.4939284184
 21
5.1256843076
  0
LINE
  5
2E3
100
AcDbEntity
  8
THREAD
100
AcDbLine
 62
7
  6
CONTINUOUS
 10
5.4943259183
 20
3.7196693076
 11
5.4943259183
 21
4.7116693076
  0
LINE
  5
2E4
100
AcDbEntity
  8
127-112_FEATURES
100
AcDbLine
 62
7
  6
CONTINUOUS
 10
5.5383259183
 20
3.7642804102
 11
5.5383259183
 21
3.9696267028
  0
LINE
  5
2E5
100
AcDbEntity
  8
127-112_FEATURES
100
AcDbLine
 62
7
  6
CONTINUOUS
 10
5.5383259183
 20
4.010323015
 11
5.5383259183
 21
4.4210156002
  0
LINE
  5
2E6
100
AcDbEntity
  8
0
100
AcDbLine
 62
7
  6
CONTINUOUS
 10
5.5383259183
 20
4.4617119124
 11
5.5383259183
 21
4.667058205
  0
LINE
  5
2E7
100
AcDbEntity
  8
03__ASM_ALL_CURVES
100
AcDbLine
 62
40
  6
CONTINUOUS
 10
5.5579534184
 20
5.0936718076
 11
5.5579534184
 21
5.0723301412
  0
LINE
  5
2E8
100
AcDbEntity
  8
03__ASM_ALL_CURVES
100
AcDbLine
 62
40
  6
CONTINUOUS
 10
5.7740377934
 20
5.0936718076
 11
5.7780393559
 21
5.1096780576
  0
LINE
  5
2E9
100
AcDbEntity
  8
03__ASM_ALL_CURVES
100
AcDbLine
 62
40
  6
CONTINUOUS
 10
6.0061284184
 20
5.0776655576
 11
5.9981252934
 21
5.0669947244
  0
LINE
  5
2EA
100
AcDbEntity
  8
03__ASM_ALL_CURVES
100
AcDbLine
 62
40
  6
CONTINUOUS
 10
6.1341784184
 20
5.1043426422
 11
6.1301768559
 21
5.099007223
  0
LINE
  5
2EB
100
AcDbEntity
  8
03__ASM_ALL_CURVES
100
AcDbLine
 62
40
  6
CONTINUOUS
 10
4.8359056058
 20
5.1203488922
 11
4.8399071683
 21
5.115013473
  0
LINE
  5
2EC
100
AcDbEntity
  8
03__ASM_ALL_CURVES
100
AcDbLine
 62
40
  6
CONTINUOUS
 10
5.2858471684
 20
5.1256843076
 11
5.3058549809
 21
5.0616593076
  0
LINE
  5
2ED
100
AcDbEntity
  8
03__ASM_ALL_CURVES
100
AcDbLine
 62
40
  6
CONTINUOUS
 10
5.6539909184
 20
5.115013473
 11
5.6539909184
 21
5.1096780576
  0
LINE
  5
2EE
100
AcDbEntity
  8
03__ASM_ALL_CURVES
100
AcDbLine
 62
40
  6
CONTINUOUS
 10
5.6860034184
 20
5.0830009749
 11
5.6860034184
 21
5.0723301412
  0
LINE
  5
2EF
100
AcDbEntity
  8
03__ASM_ALL_CURVES
100
AcDbLine
 62
40
  6
CONTINUOUS
 10
5.8220565434
 20
5.0936718076
 11
5.8180549809
 21
5.0776655576
  0
LINE
  5
2F0
100
AcDbEntity
  8
03__ASM_ALL_CURVES
100
AcDbLine
 62
40
  6
CONTINUOUS
 10
4.3117009183
 20
5.0616593076
 11
4.3036977933
 21
5.0669947244
  0
LINE
  5
2F1
100
AcDbEntity
  8
03__ASM_ALL_CURVES
100
AcDbLine
 62
40
  6
CONTINUOUS
 10
4.3117009183
 20
5.1256843076
 11
4.3197040433
 21
5.1203488922
  0
LINE
  5
2F2
100
AcDbEntity
  8
03__ASM_ALL_CURVES
100
AcDbLine
 62
40
  6
CONTINUOUS
 10
4.4397509183
 20
5.0616593076
 11
4.4317477933
 21
5.0669947244
  0
LINE
  5
2F3
100
AcDbEntity
  8
03__ASM_ALL_CURVES
100
AcDbLine
 62
40
  6
CONTINUOUS
 10
6.1733036597
 20
3.4526521202
 11
6.1673013159
 21
3.4606552451
  0
LINE
  5
2F4
100
AcDbEntity
  8
03__ASM_ALL_CURVES
100
AcDbLine
 62
40
  6
CONTINUOUS
 10
6.1432919409
 20
3.492667746
 11
6.1462931128
 21
3.4886661816
  0
LINE
  5
2F5
100
AcDbEntity
  8
03__ASM_ALL_CURVES
100
AcDbLine
 62
40
  6
CONTINUOUS
 10
4.9479493558
 20
5.1256843076
 11
4.9559524808
 21
5.115013473
  0
LINE
  5
2F6
100
AcDbEntity
  8
03__ASM_ALL_CURVES
100
AcDbLine
 62
40
  6
CONTINUOUS
 10
6.1913106909
 20
3.492667746
 11
6.1973130347
 21
3.4846646201
  0
LINE
  5
2F7
100
AcDbEntity
  8
03__ASM_ALL_CURVES
100
AcDbLine
 62
40
  6
CONTINUOUS
 10
6.2393294409
 20
3.492667746
 11
6.2423306128
 21
3.4886661816
  0
LINE
  5
2F8
100
AcDbEntity
  8
03__ASM_ALL_CURVES
100
AcDbLine
 62
40
  6
CONTINUOUS
 10
5.7180159184
 20
5.1256843076
 11
5.7180159184
 21
5.0616593076
  0
LINE
  5
2F9
100
AcDbEntity
  8
03__ASM_ALL_CURVES
100
AcDbLine
 62
40
  6
CONTINUOUS
 10
5.7500284184
 20
5.1256843076
 11
5.7500284184
 21
5.0616593076
  0
LINE
  5
2FA
100
AcDbEntity
  8
03__ASM_ALL_CURVES
100
AcDbLine
 62
40
  6
CONTINUOUS
 10
6.0101299809
 20
5.0936718076
 11
6.0061284184
 21
5.0776655576
  0
LINE
  5
2FB
100
AcDbEntity
  8
03__ASM_ALL_CURVES
100
AcDbLine
 62
40
  6
CONTINUOUS
 10
7.1733505277
 20
4.2284743076
 11
7.167348184
 21
4.2284743076
  0
LINE
  5
2FC
100
AcDbEntity
  8
03__ASM_ALL_CURVES
100
AcDbLine
 62
40
  6
CONTINUOUS
 10
7.2213692777
 20
4.2524836826
 11
7.2063634183
 21
4.2524836826
  0
LINE
  5
2FD
100
AcDbEntity
  8
03__ASM_ALL_CURVES
100
AcDbLine
 62
40
  6
CONTINUOUS
 10
7.1253317777
 20
4.2524836826
 11
7.1103259183
 21
4.2524836826
  0
LINE
  5
2FE
100
AcDbEntity
  8
03__ASM_ALL_CURVES
100
AcDbLine
 62
40
  6
CONTINUOUS
 10
7.1103259183
 20
4.2764930576
 11
7.1253317777
 21
4.2764930576
  0
LINE
  5
2FF
100
AcDbEntity
  8
03__ASM_ALL_CURVES
100
AcDbLine
 62
40
  6
CONTINUOUS
 10
7.167348184
 20
4.2764930576
 11
7.1733505277
 21
4.2764930576
  0
LINE
  5
300
100
AcDbEntity
  8
03__ASM_ALL_CURVES
100
AcDbLine
 62
40
  6
CONTINUOUS
 10
7.2063634183
 20
4.2764930576
 11
7.2213692777
 21
4.2764930576
  0
LINE
  5
301
100
AcDbEntity
  8
03__ASM_ALL_CURVES
100
AcDbLine
 62
40
  6
CONTINUOUS
 10
7.2513809965
 20
4.2764930576
 11
7.2813927152
 21
4.2764930576
  0
LINE
  5
302
100
AcDbEntity
  8
THREAD
100
AcDbLine
 62
7
  6
CONTINUOUS
 10
4.9966823248
 20
4.7308391806
 11
4.9778259183
 21
4.7417259319
  0
LINE
  5
303
100
AcDbEntity
  8
03__ASM_ALL_CURVES
100
AcDbLine
 62
40
  6
CONTINUOUS
 10
4.4997743558
 20
5.0616593076
 11
4.4917712308
 21
5.0669947244
  0
LINE
  5
304
100
AcDbEntity
  8
03__ASM_ALL_CURVES
100
AcDbLine
 62
40
  6
CONTINUOUS
 10
4.4397509183
 20
5.1256843076
 11
4.4477540433
 21
5.1203488922
  0
LINE
  5
305
100
AcDbEntity
  8
03__ASM_ALL_CURVES
100
AcDbLine
 62
40
  6
CONTINUOUS
 10
4.4997743558
 20
5.099007223
 11
4.4917712308
 21
5.1043426422
  0
LINE
  5
306
100
AcDbEntity
  8
03__ASM_ALL_CURVES
100
AcDbLine
 62
40
  6
CONTINUOUS
 10
4.5077774808
 20
5.099007223
 11
4.5157806058
 21
5.0936718076
  0
LINE
  5
307
100
AcDbEntity
  8
03__ASM_ALL_CURVES
100
AcDbLine
 62
40
  6
CONTINUOUS
 10
4.5077774808
 20
5.1256843076
 11
4.5157806058
 21
5.1203488922
  0
LINE
  5
308
100
AcDbEntity
  8
03__ASM_ALL_CURVES
100
AcDbLine
 62
40
  6
CONTINUOUS
 10
5.1457924809
 20
5.0669947244
 11
5.1377893559
 21
5.0776655576
  0
LINE
  5
309
100
AcDbEntity
  8
03__ASM_ALL_CURVES
100
AcDbLine
 62
40
  6
CONTINUOUS
 10
6.3353669409
 20
3.492667746
 11
6.3383681128
 21
3.4886661816
  0
LINE
  5
30A
100
AcDbEntity
  8
03__ASM_ALL_CURVES
100
AcDbLine
 62
40
  6
CONTINUOUS
 10
5.2098174809
 20
5.0669947244
 11
5.2018143559
 21
5.0776655576
  0
LINE
  5
30B
100
AcDbEntity
  8
03__ASM_ALL_CURVES
100
AcDbLine
 62
40
  6
CONTINUOUS
 10
5.1698018559
 20
5.1203488922
 11
5.1778049809
 21
5.1096780576
  0
LINE
  5
30C
100
AcDbEntity
  8
03__ASM_ALL_CURVES
100
AcDbLine
 62
40
  6
CONTINUOUS
 10
5.5219393559
 20
5.0776655576
 11
5.5179377934
 21
5.0936718076
  0
LINE
  5
30D
100
AcDbEntity
  8
0
100
AcDbLine
 62
7
  6
CONTINUOUS
 10
5.8343259183
 20
3.7636693076
 11
5.8343259183
 21
4.6676693076
  0
LINE
  5
30E
100
AcDbEntity
  8
03__ASM_ALL_CURVES
100
AcDbLine
 62
40
  6
CONTINUOUS
 10
5.8460659184
 20
5.0723301412
 11
5.8460659184
 21
5.1256843076
  0
LINE
  5
30F
100
AcDbEntity
  8
0
100
AcDbLine
 62
7
  6
CONTINUOUS
 10
5.8503259183
 20
3.7796693076
 11
5.8503259183
 21
4.6516693076
  0
LINE
  5
310
100
AcDbEntity
  8
03__ASM_ALL_CURVES
100
AcDbLine
 62
40
  6
CONTINUOUS
 10
5.8780784184
 20
5.1256843076
 11
5.8780784184
 21
5.0723301412
  0
LINE
  5
311
100
AcDbEntity
  8
03__ASM_ALL_CURVES
100
AcDbLine
 62
40
  6
CONTINUOUS
 10
5.9100909184
 20
5.1256843076
 11
5.9100909184
 21
5.0616593076
  0
LINE
  5
312
100
AcDbEntity
  8
THREAD
100
AcDbLine
 62
7
  6
CONTINUOUS
 10
4.9966823248
 20
3.7004994346
 11
4.9778259183
 21
3.6896126833
  0
LINE
  5
313
100
AcDbEntity
  8
THREAD
100
AcDbLine
 62
7
  6
CONTINUOUS
 10
5.5217089089
 20
4.684286317
 11
5.4943259183
 21
4.7116693076
  0
LINE
  5
314
100
AcDbEntity
  8
03__ASM_ALL_CURVES
100
AcDbLine
 62
40
  6
CONTINUOUS
 10
5.2338268559
 20
5.1203488922
 11
5.2378284184
 21
5.115013473
  0
LINE
  5
315
100
AcDbEntity
  8
03__ASM_ALL_CURVES
100
AcDbLine
 62
40
  6
CONTINUOUS
 10
5.4619159184
 20
5.1256843076
 11
5.4939284184
 21
5.0616593076
  0
LINE
  5
316
100
AcDbEntity
  8
03__ASM_ALL_CURVES
100
AcDbLine
 62
40
  6
CONTINUOUS
 10
6.2333270972
 20
3.4726599326
 11
6.2423306128
 21
3.4486505576
  0
LINE
  5
317
100
AcDbEntity
  8
03__ASM_ALL_CURVES
100
AcDbLine
 62
40
  6
CONTINUOUS
 10
5.9741159184
 20
5.0616593076
 11
5.9741159184
 21
5.1256843076
  0
LINE
  5
318
100
AcDbEntity
  8
03__ASM_ALL_CURVES
100
AcDbLine
 62
40
  6
CONTINUOUS
 10
6.0381409184
 20
5.0616593076
 11
6.0381409184
 21
5.1256843076
  0
LINE
  5
319
100
AcDbEntity
  8
THREAD
100
AcDbLine
 62
7
  6
CONTINUOUS
 10
5.5217089089
 20
3.7470522982
 11
5.4943259183
 21
3.7196693076
  0
LINE
  5
31A
100
AcDbEntity
  8
0
100
AcDbLine
 62
7
  6
CONTINUOUS
 10
6.4339430996
 20
4.4821693076
 11
6.4677025121
 21
4.4821693076
  0
LINE
  5
31B
100
AcDbEntity
  8
0
100
AcDbLine
 62
7
  6
CONTINUOUS
 10
6.4124656696
 20
4.4945693076
 11
6.3888684773
 21
4.4945693076
  0
LINE
  5
31C
100
AcDbEntity
  8
0
100
AcDbLine
 62
7
  6
CONTINUOUS
 10
4.7319002924
 20
4.5081899265
 11
4.3339365896
 21
4.5081899265
  0
LINE
  5
31D
100
AcDbEntity
  8
03__ASM_ALL_CURVES
100
AcDbLine
 62
40
  6
CONTINUOUS
 10
4.4397509183
 20
5.099007223
 11
4.4517556058
 21
5.0936718076
  0
LINE
  5
31E
100
AcDbEntity
  8
03__ASM_ALL_CURVES
100
AcDbLine
 62
40
  6
CONTINUOUS
 10
4.8279024808
 20
5.1256843076
 11
4.8359056058
 21
5.1203488922
  0
LINE
  5
31F
100
AcDbEntity
  8
03__ASM_ALL_CURVES
100
AcDbLine
 62
40
  6
CONTINUOUS
 10
6.1673013159
 20
3.4606552451
 11
6.1643001441
 21
3.4726599326
  0
LINE
  5
320
100
AcDbEntity
  8
03__ASM_ALL_CURVES
100
AcDbLine
 62
40
  6
CONTINUOUS
 10
5.7780393559
 20
5.0776655576
 11
5.7740377934
 21
5.0936718076
  0
LINE
  5
321
100
AcDbEntity
  8
03__ASM_ALL_CURVES
100
AcDbLine
 62
40
  6
CONTINUOUS
 10
6.1973130347
 20
3.4846646201
 11
6.2003142066
 21
3.4726599326
  0
LINE
  5
322
100
AcDbEntity
  8
03__ASM_ALL_CURVES
100
AcDbLine
 62
40
  6
CONTINUOUS
 10
5.8180549809
 20
5.1096780576
 11
5.8220565434
 21
5.0936718076
  0
LINE
  5
323
100
AcDbEntity
  8
03__ASM_ALL_CURVES
100
AcDbLine
 62
40
  6
CONTINUOUS
 10
6.1021659184
 20
5.0616593076
 11
6.1021659184
 21
5.1256843076
  0
LINE
  5
324
100
AcDbEntity
  8
03__ASM_ALL_CURVES
100
AcDbLine
 62
40
  6
CONTINUOUS
 10
6.1222837378
 20
3.4486505576
 11
6.1222837378
 21
3.4966693076
  0
LINE
  5
325
100
AcDbEntity
  8
03__ASM_ALL_CURVES
100
AcDbLine
 62
40
  6
CONTINUOUS
 10
6.1341784184
 20
5.115013473
 11
6.1341784184
 21
5.1043426422
  0
LINE
  5
326
100
AcDbEntity
  8
03__ASM_ALL_CURVES
100
AcDbLine
 62
40
  6
CONTINUOUS
 10
6.1462931128
 20
3.4886661816
 11
6.1462931128
 21
3.4806630585
  0
LINE
  5
327
100
AcDbEntity
  8
0
100
AcDbLine
 62
7
  6
CONTINUOUS
 10
4.7319002924
 20
4.5565339981
 11
4.3339365896
 21
4.5565339981
  0
LINE
  5
328
100
AcDbEntity
  8
0
100
AcDbLine
 62
7
  6
CONTINUOUS
 10
6.5373259183
 20
4.5896693076
 11
5.8503259183
 21
4.5896693076
  0
LINE
  5
329
100
AcDbEntity
  8
0
100
AcDbLine
 62
7
  6
CONTINUOUS
 10
6.7923259183
 20
4.5976693076
 11
6.7643259183
 21
4.5976693076
  0
LINE
  5
32A
100
AcDbEntity
  8
03__ASM_ALL_CURVES
100
AcDbLine
 62
40
  6
CONTINUOUS
 10
5.1537956059
 20
5.0616593076
 11
5.1457924809
 21
5.0669947244
  0
LINE
  5
32B
100
AcDbEntity
  8
03__ASM_ALL_CURVES
100
AcDbLine
 62
40
  6
CONTINUOUS
 10
5.2178206059
 20
5.0616593076
 11
5.2098174809
 21
5.0669947244
  0
LINE
  5
32C
100
AcDbEntity
  8
03__ASM_ALL_CURVES
100
AcDbLine
 62
40
  6
CONTINUOUS
 10
5.1617987309
 20
5.1256843076
 11
5.1698018559
 21
5.1203488922
  0
LINE
  5
32D
100
AcDbEntity
  8
0
100
AcDbLine
 62
7
  6
CONTINUOUS
 10
5.8503259183
 20
4.6516693076
 11
5.8343259183
 21
4.6676693076
  0
LINE
  5
32E
100
AcDbEntity
  8
03__ASM_ALL_CURVES
100
AcDbLine
 62
40
  6
CONTINUOUS
 10
5.5299424809
 20
5.0669947244
 11
5.5219393559
 21
5.0776655576
  0
LINE
  5
32F
100
AcDbEntity
  8
03__ASM_ALL_CURVES
100
AcDbLine
 62
40
  6
CONTINUOUS
 10
5.5539518559
 20
5.1203488922
 11
5.5579534184
 21
5.115013473
  0
LINE
  5
330
100
AcDbEntity
  8
03__ASM_ALL_CURVES
100
AcDbLine
 62
40
  6
CONTINUOUS
 10
5.6579924809
 20
5.0669947244
 11
5.6499893559
 21
5.0776655576
  0
LINE
  5
331
100
AcDbEntity
  8
03__ASM_ALL_CURVES
100
AcDbLine
 62
40
  6
CONTINUOUS
 10
6.2183212378
 20
3.4486505576
 11
6.2183212378
 21
3.4966693076
  0
LINE
  5
332
100
AcDbEntity
  8
03__ASM_ALL_CURVES
100
AcDbLine
 62
40
  6
CONTINUOUS
 10
6.2423306128
 20
3.4886661816
 11
6.2423306128
 21
3.4806630585
  0
LINE
  5
333
100
AcDbEntity
  8
0
100
AcDbLine
 62
7
  6
CONTINUOUS
 10
5.8503259183
 20
3.7796693076
 11
5.8343259183
 21
3.7636693076
  0
LINE
  5
334
100
AcDbEntity
  8
0
100
AcDbLine
 62
7
  6
CONTINUOUS
 10
6.5943259183
 20
4.6516693076
 11
6.6443259183
 21
4.6516693076
  0
LINE
  5
335
100
AcDbEntity
  8
0
100
AcDbLine
 62
7
  6
CONTINUOUS
 10
6.7143259183
 20
4.6516693076
 11
6.7643259183
 21
4.6516693076
  0
LINE
  5
336
100
AcDbEntity
  8
0
100
AcDbLine
 62
7
  6
CONTINUOUS
 10
6.5373259183
 20
4.6521693076
 11
6.5943259183
 21
4.6521693076
  0
LINE
  5
337
100
AcDbEntity
  8
0
100
AcDbLine
 62
7
  6
CONTINUOUS
 10
6.7923259183
 20
4.6521693076
 11
6.8333259183
 21
4.6521693076
  0
LINE
  5
338
100
AcDbEntity
  8
THREAD
100
AcDbLine
 62
7
  6
CONTINUOUS
 10
5.8343259183
 20
4.6676693076
 11
5.571559937
 21
4.6676693076
  0
LINE
  5
339
100
AcDbEntity
  8
THREAD
100
AcDbLine
 62
7
  6
CONTINUOUS
 10
5.1561090399
 20
4.6736693076
 11
5.1423259183
 21
4.6736693076
  0
LINE
  5
33A
100
AcDbEntity
  8
THREAD
100
AcDbLine
 62
7
  6
CONTINUOUS
 10
5.4943259183
 20
4.7116693076
 11
5.1852652285
 21
4.7116693076
  0
LINE
  5
33B
100
AcDbEntity
  8
0
100
AcDbLine
 62
7
  6
CONTINUOUS
 10
5.0923259183
 20
4.7276693076
 11
5.1423259183
 21
4.7276693076
  0
LINE
  5
33C
100
AcDbEntity
  8
THREAD
100
AcDbLine
 62
7
  6
CONTINUOUS
 10
5.0223259183
 20
4.7301693076
 11
4.9991823248
 21
4.7301693076
  0
LINE
  5
33D
100
AcDbEntity
  8
0
100
AcDbLine
 62
7
  6
CONTINUOUS
 10
4.9723259183
 20
4.7536693076
 11
4.7873259183
 21
4.7536693076
  0
LINE
  5
33E
100
AcDbEntity
  8
03__ASM_ALL_CURVES
100
AcDbLine
 62
40
  6
CONTINUOUS
 10
5.2258237309
 20
5.1256843076
 11
5.2338268559
 21
5.1203488922
  0
LINE
  5
33F
100
AcDbEntity
  8
03__ASM_ALL_CURVES
100
AcDbLine
 62
40
  6
CONTINUOUS
 10
5.6539909184
 20
5.1096780576
 11
5.6579924809
 21
5.1043426422
  0
LINE
  5
340
100
AcDbEntity
  8
03__ASM_ALL_CURVES
100
AcDbLine
 62
40
  6
CONTINUOUS
 10
5.6820018559
 20
5.0883363903
 11
5.6860034184
 21
5.0830009749
  0
LINE
  5
341
100
AcDbEntity
  8
03__ASM_ALL_CURVES
100
AcDbLine
 62
40
  6
CONTINUOUS
 10
5.6860034184
 20
5.115013473
 11
5.6820018559
 21
5.1203488922
  0
LINE
  5
342
100
AcDbEntity
  8
03__ASM_ALL_CURVES
100
AcDbLine
 62
40
  6
CONTINUOUS
 10
5.7860424809
 20
5.0669947244
 11
5.7780393559
 21
5.0776655576
  0
LINE
  5
343
100
AcDbEntity
  8
03__ASM_ALL_CURVES
100
AcDbLine
 62
40
  6
CONTINUOUS
 10
6.0061284184
 20
5.1096780576
 11
6.0101299809
 21
5.0936718076
  0
LINE
  5
344
100
AcDbEntity
  8
03__ASM_ALL_CURVES
100
AcDbLine
 62
40
  6
CONTINUOUS
 10
6.2783446753
 20
3.4966693076
 11
6.2783446753
 21
3.4486505576
  0
LINE
  5
345
100
AcDbEntity
  8
03__ASM_ALL_CURVES
100
AcDbLine
 62
40
  6
CONTINUOUS
 10
6.3383681128
 20
3.4886661816
 11
6.3383681128
 21
3.4806630585
  0
LINE
  5
346
100
AcDbEntity
  8
03__ASM_ALL_CURVES
100
AcDbLine
 62
40
  6
CONTINUOUS
 10
6.1643001441
 20
3.4726599326
 11
6.1673013159
 21
3.4846646201
  0
LINE
  5
347
100
AcDbEntity
  8
03__ASM_ALL_CURVES
100
AcDbLine
 62
40
  6
CONTINUOUS
 10
6.2003142066
 20
3.4726599326
 11
6.1973130347
 21
3.4606552451
  0
LINE
  5
348
100
AcDbEntity
  8
0
100
AcDbLine
 62
7
  6
CONTINUOUS
 10
4.7319002924
 20
4.8490546171
 11
4.3339365896
 21
4.8490546171
  0
LINE
  5
349
100
AcDbEntity
  8
0
100
AcDbLine
 62
7
  6
CONTINUOUS
 10
4.7319002924
 20
4.8496693076
 11
4.3339365896
 21
4.8496693076
  0
LINE
  5
34A
100
AcDbEntity
  8
03__ASM_ALL_CURVES
100
AcDbLine
 62
40
  6
CONTINUOUS
 10
4.3651559183
 20
5.0275126409
 11
4.2883259183
 21
5.0360493076
  0
LINE
  5
34B
100
AcDbEntity
  8
03__ASM_ALL_CURVES
100
AcDbLine
 62
40
  6
CONTINUOUS
 10
4.3651559183
 20
5.0253784743
 11
4.2883259183
 21
5.0360493076
  0
LINE
  5
34C
100
AcDbEntity
  8
03__ASM_ALL_CURVES
100
AcDbLine
 62
40
  6
CONTINUOUS
 10
4.3651559183
 20
5.0232443076
 11
4.2883259183
 21
5.0360493076
  0
LINE
  5
34D
100
AcDbEntity
  8
0
100
AcDbLine
 62
7
  6
CONTINUOUS
 10
6.4124656696
 20
4.4945693076
 11
6.4339430996
 21
4.4821693076
  0
LINE
  5
34E
100
AcDbEntity
  8
03__ASM_ALL_CURVES
100
AcDbLine
 62
40
  6
CONTINUOUS
 10
5.5379456059
 20
5.0616593076
 11
5.5299424809
 21
5.0669947244
  0
LINE
  5
34F
100
AcDbEntity
  8
03__ASM_ALL_CURVES
100
AcDbLine
 62
40
  6
CONTINUOUS
 10
5.5459487309
 20
5.1256843076
 11
5.5539518559
 21
5.1203488922
  0
LINE
  5
350
100
AcDbEntity
  8
03__ASM_ALL_CURVES
100
AcDbLine
 62
40
  6
CONTINUOUS
 10
5.6659956059
 20
5.0616593076
 11
5.6579924809
 21
5.0669947244
  0
LINE
  5
351
100
AcDbEntity
  8
03__ASM_ALL_CURVES
100
AcDbLine
 62
40
  6
CONTINUOUS
 10
5.8500674809
 20
5.0669947244
 11
5.8460659184
 21
5.0723301412
  0
LINE
  5
352
100
AcDbEntity
  8
03__ASM_ALL_CURVES
100
AcDbLine
 62
40
  6
CONTINUOUS
 10
5.8100518559
 20
5.1203488922
 11
5.8180549809
 21
5.1096780576
  0
LINE
  5
353
100
AcDbEntity
  8
03__ASM_ALL_CURVES
100
AcDbLine
 62
40
  6
CONTINUOUS
 10
6.1221737309
 20
5.0936718076
 11
6.1341784184
 21
5.0616593076
  0
LINE
  5
354
100
AcDbEntity
  8
0
100
AcDbLine
 62
7
  6
CONTINUOUS
 10
6.4124656696
 20
3.9367693076
 11
6.4124656696
 21
3.9607093518
  0
LINE
  5
355
100
AcDbEntity
  8
0
100
AcDbLine
 62
7
  6
CONTINUOUS
 10
6.4124656696
 20
4.1062276542
 11
6.4124656696
 21
4.3251459059
  0
LINE
  5
356
100
AcDbEntity
  8
0
100
AcDbLine
 62
7
  6
CONTINUOUS
 10
6.4124656696
 20
4.4706311942
 11
6.4124656696
 21
4.4945693076
  0
LINE
  5
357
100
AcDbEntity
  8
0
100
AcDbLine
 62
7
  6
CONTINUOUS
 10
6.4339430996
 20
3.9590684325
 11
6.4339430996
 21
3.9491693076
  0
LINE
  5
358
100
AcDbEntity
  8
0
100
AcDbLine
 62
7
  6
CONTINUOUS
 10
6.4339430996
 20
4.1083765644
 11
6.4339430996
 21
4.3229823511
  0
LINE
  5
359
100
AcDbEntity
  8
0
100
AcDbLine
 62
7
  6
CONTINUOUS
 10
6.4339430996
 20
4.47227264
 11
6.4339430996
 21
4.4821693076
  0
LINE
  5
35A
100
AcDbEntity
  8
03__ASM_ALL_CURVES
100
AcDbLine
 62
40
  6
CONTINUOUS
 10
6.3173599097
 20
3.4606552451
 11
6.3143587378
 21
3.4486505576
  0
LINE
  5
35B
100
AcDbEntity
  8
0
100
AcDbLine
 62
7
  6
CONTINUOUS
 10
6.4124656696
 20
3.9367693076
 11
6.4339430996
 21
3.9491693076
  0
LINE
  5
35C
100
AcDbEntity
  8
03__ASM_ALL_CURVES
100
AcDbLine
 62
40
  6
CONTINUOUS
 10
4.3651559183
 20
5.0339151409
 11
4.2883259183
 21
5.0360493076
  0
LINE
  5
35D
100
AcDbEntity
  8
03__ASM_ALL_CURVES
100
AcDbLine
 62
40
  6
CONTINUOUS
 10
4.3651559183
 20
5.0317809743
 11
4.2883259183
 21
5.0360493076
  0
LINE
  5
35E
100
AcDbEntity
  8
03__ASM_ALL_CURVES
100
AcDbLine
 62
40
  6
CONTINUOUS
 10
4.8984959183
 20
5.0403176409
 11
5.0521559183
 21
5.0317809743
  0
LINE
  5
35F
100
AcDbEntity
  8
03__ASM_ALL_CURVES
100
AcDbLine
 62
40
  6
CONTINUOUS
 10
4.3651559183
 20
5.0296468076
 11
4.2883259183
 21
5.0360493076
  0
LINE
  5
360
100
AcDbEntity
  8
03__ASM_ALL_CURVES
100
AcDbLine
 62
40
  6
CONTINUOUS
 10
4.8984959183
 20
5.0424518076
 11
5.0521559183
 21
5.0296468076
  0
LINE
  5
361
100
AcDbEntity
  8
03__ASM_ALL_CURVES
100
AcDbLine
 62
40
  6
CONTINUOUS
 10
4.8984959183
 20
5.0445859743
 11
5.0521559183
 21
5.0275126409
  0
LINE
  5
362
100
AcDbEntity
  8
03__ASM_ALL_CURVES
100
AcDbLine
 62
40
  6
CONTINUOUS
 10
4.8984959183
 20
5.0467201409
 11
5.0521559183
 21
5.0253784743
  0
LINE
  5
363
100
AcDbEntity
  8
03__ASM_ALL_CURVES
100
AcDbLine
 62
40
  6
CONTINUOUS
 10
5.0521559183
 20
5.0232443076
 11
4.8984959183
 21
5.0488543076
  0
LINE
  5
364
100
AcDbEntity
  8
03__ASM_ALL_CURVES
100
AcDbLine
 62
40
  6
CONTINUOUS
 10
5.6579924809
 20
5.1043426422
 11
5.6820018559
 21
5.0883363903
  0
LINE
  5
365
100
AcDbEntity
  8
03__ASM_ALL_CURVES
100
AcDbLine
 62
40
  6
CONTINUOUS
 10
5.6820018559
 20
5.1203488922
 11
5.6739987309
 21
5.1256843076
  0
LINE
  5
366
100
AcDbEntity
  8
03__ASM_ALL_CURVES
100
AcDbLine
 62
40
  6
CONTINUOUS
 10
5.7940456059
 20
5.0616593076
 11
5.7860424809
 21
5.0669947244
  0
LINE
  5
367
100
AcDbEntity
  8
03__ASM_ALL_CURVES
100
AcDbLine
 62
40
  6
CONTINUOUS
 10
5.8580706059
 20
5.0616593076
 11
5.8500674809
 21
5.0669947244
  0
LINE
  5
368
100
AcDbEntity
  8
03__ASM_ALL_CURVES
100
AcDbLine
 62
40
  6
CONTINUOUS
 10
5.8020487309
 20
5.1256843076
 11
5.8100518559
 21
5.1203488922
  0
LINE
  5
369
100
AcDbEntity
  8
03__ASM_ALL_CURVES
100
AcDbLine
 62
40
  6
CONTINUOUS
 10
5.9981252934
 20
5.1203488922
 11
6.0061284184
 21
5.1096780576
  0
LINE
  5
36A
100
AcDbEntity
  8
0
100
AcDbLine
 62
7
  6
CONTINUOUS
 10
6.5373259183
 20
4.652164193
 11
6.5373259183
 21
3.7791744222
  0
LINE
  5
36B
100
AcDbEntity
  8
0
100
AcDbLine
 62
7
  6
CONTINUOUS
 10
6.5943259183
 20
4.652164193
 11
6.5943259183
 21
3.7791744222
  0
LINE
  5
36C
100
AcDbEntity
  8
03__ASM_ALL_CURVES
100
AcDbLine
 62
40
  6
CONTINUOUS
 10
6.1462931128
 20
3.4806630585
 11
6.1432919409
 21
3.4766614941
  0
LINE
  5
36D
100
AcDbEntity
  8
03__ASM_ALL_CURVES
100
AcDbLine
 62
40
  6
CONTINUOUS
 10
6.1673013159
 20
3.4846646201
 11
6.1733036597
 21
3.492667746
  0
LINE
  5
36E
100
AcDbEntity
  8
03__ASM_ALL_CURVES
100
AcDbLine
 62
40
  6
CONTINUOUS
 10
6.1973130347
 20
3.4606552451
 11
6.1913106909
 21
3.4526521202
  0
LINE
  5
36F
100
AcDbEntity
  8
03__ASM_ALL_CURVES
100
AcDbLine
 62
40
  6
CONTINUOUS
 10
7.1313341215
 20
4.2564852441
 11
7.1253317777
 21
4.2524836826
  0
LINE
  5
370
100
AcDbEntity
  8
03__ASM_ALL_CURVES
100
AcDbLine
 62
40
  6
CONTINUOUS
 10
7.1613458402
 20
4.272491496
 11
7.167348184
 21
4.2764930576
  0
LINE
  5
371
100
AcDbEntity
  8
03__ASM_ALL_CURVES
100
AcDbLine
 62
40
  6
CONTINUOUS
 10
7.1793528715
 20
4.2324758702
 11
7.1733505277
 21
4.2284743076
  0
LINE
  5
372
100
AcDbEntity
  8
03__ASM_ALL_CURVES
100
AcDbLine
 62
40
  6
CONTINUOUS
 10
7.2273716215
 20
4.2564852441
 11
7.2213692777
 21
4.2524836826
  0
LINE
  5
373
100
AcDbEntity
  8
03__ASM_ALL_CURVES
100
AcDbLine
 62
40
  6
CONTINUOUS
 10
4.8984959183
 20
5.0296468076
 11
5.0521559183
 21
5.0424518076
  0
LINE
  5
374
100
AcDbEntity
  8
03__ASM_ALL_CURVES
100
AcDbLine
 62
40
  6
CONTINUOUS
 10
4.8984959183
 20
5.0317809743
 11
5.0521559183
 21
5.0403176409
  0
LINE
  5
375
100
AcDbEntity
  8
03__ASM_ALL_CURVES
100
AcDbLine
 62
40
  6
CONTINUOUS
 10
4.8984959183
 20
5.0339151409
 11
5.0521559183
 21
5.0381834743
  0
LINE
  5
376
100
AcDbEntity
  8
03__ASM_ALL_CURVES
100
AcDbLine
 62
40
  6
CONTINUOUS
 10
4.3651559183
 20
5.0381834743
 11
4.2883259183
 21
5.0360493076
  0
LINE
  5
377
100
AcDbEntity
  8
03__ASM_ALL_CURVES
100
AcDbLine
 62
40
  6
CONTINUOUS
 10
4.2883259183
 20
5.0360493076
 11
6.2046059183
 21
5.0360493076
  0
LINE
  5
378
100
AcDbEntity
  8
03__ASM_ALL_CURVES
100
AcDbLine
 62
40
  6
CONTINUOUS
 10
6.0701534184
 20
5.0616593076
 11
6.0381409184
 21
5.0616593076
  0
LINE
  5
379
100
AcDbEntity
  8
03__ASM_ALL_CURVES
100
AcDbLine
 62
40
  6
CONTINUOUS
 10
5.9901221684
 20
5.0616593076
 11
5.9741159184
 21
5.0616593076
  0
LINE
  5
37A
100
AcDbEntity
  8
03__ASM_ALL_CURVES
100
AcDbLine
 62
40
  6
CONTINUOUS
 10
5.8660737309
 20
5.0616593076
 11
5.8580706059
 21
5.0616593076
  0
LINE
  5
37B
100
AcDbEntity
  8
03__ASM_ALL_CURVES
100
AcDbLine
 62
40
  6
CONTINUOUS
 10
5.8020487309
 20
5.0616593076
 11
5.7940456059
 21
5.0616593076
  0
LINE
  5
37C
100
AcDbEntity
  8
03__ASM_ALL_CURVES
100
AcDbLine
 62
40
  6
CONTINUOUS
 10
5.6739987309
 20
5.0616593076
 11
5.6659956059
 21
5.0616593076
  0
LINE
  5
37D
100
AcDbEntity
  8
03__ASM_ALL_CURVES
100
AcDbLine
 62
40
  6
CONTINUOUS
 10
5.5459487309
 20
5.0616593076
 11
5.5379456059
 21
5.0616593076
  0
LINE
  5
37E
100
AcDbEntity
  8
03__ASM_ALL_CURVES
100
AcDbLine
 62
40
  6
CONTINUOUS
 10
5.2258237309
 20
5.0616593076
 11
5.2178206059
 21
5.0616593076
  0
LINE
  5
37F
100
AcDbEntity
  8
03__ASM_ALL_CURVES
100
AcDbLine
 62
40
  6
CONTINUOUS
 10
5.1617987309
 20
5.0616593076
 11
5.1537956059
 21
5.0616593076
  0
LINE
  5
380
100
AcDbEntity
  8
03__ASM_ALL_CURVES
100
AcDbLine
 62
40
  6
CONTINUOUS
 10
4.7598759183
 20
5.0616593076
 11
4.7558743558
 21
5.0616593076
  0
LINE
  5
381
100
AcDbEntity
  8
03__ASM_ALL_CURVES
100
AcDbLine
 62
40
  6
CONTINUOUS
 10
4.5077774808
 20
5.0616593076
 11
4.4997743558
 21
5.0616593076
  0
LINE
  5
382
100
AcDbEntity
  8
03__ASM_ALL_CURVES
100
AcDbLine
 62
40
  6
CONTINUOUS
 10
4.3757259183
 20
5.0616593076
 11
4.3717243558
 21
5.0616593076
  0
LINE
  5
383
100
AcDbEntity
  8
03__ASM_ALL_CURVES
100
AcDbLine
 62
40
  6
CONTINUOUS
 10
4.8078946683
 20
5.0616593076
 11
4.8399071683
 21
5.0616593076
  0
LINE
  5
384
100
AcDbEntity
  8
03__ASM_ALL_CURVES
100
AcDbLine
 62
40
  6
CONTINUOUS
 10
5.0777659184
 20
5.0616593076
 11
5.1097784184
 21
5.0616593076
  0
LINE
  5
385
100
AcDbEntity
  8
03__ASM_ALL_CURVES
100
AcDbLine
 62
40
  6
CONTINUOUS
 10
5.9100909184
 20
5.0616593076
 11
5.9421034184
 21
5.0616593076
  0
LINE
  5
386
100
AcDbEntity
  8
03__ASM_ALL_CURVES
100
AcDbLine
 62
40
  6
CONTINUOUS
 10
5.2738424809
 20
5.0830009749
 11
5.2978518559
 21
5.0830009749
  0
LINE
  5
387
100
AcDbEntity
  8
03__ASM_ALL_CURVES
100
AcDbLine
 62
40
  6
CONTINUOUS
 10
6.1221737309
 20
5.0936718076
 11
6.1021659184
 21
5.0936718076
  0
LINE
  5
388
100
AcDbEntity
  8
03__ASM_ALL_CURVES
100
AcDbLine
 62
40
  6
CONTINUOUS
 10
5.5419471684
 20
5.0936718076
 11
5.5579534184
 21
5.0936718076
  0
LINE
  5
389
100
AcDbEntity
  8
03__ASM_ALL_CURVES
100
AcDbLine
 62
40
  6
CONTINUOUS
 10
5.7180159184
 20
5.0936718076
 11
5.7500284184
 21
5.0936718076
  0
LINE
  5
38A
100
AcDbEntity
  8
03__ASM_ALL_CURVES
100
AcDbLine
 62
40
  6
CONTINUOUS
 10
6.0381409184
 20
5.0936718076
 11
6.0581487309
 21
5.0936718076
  0
LINE
  5
38B
100
AcDbEntity
  8
03__ASM_ALL_CURVES
100
AcDbLine
 62
40
  6
CONTINUOUS
 10
4.4997743558
 20
5.099007223
 11
4.5077774808
 21
5.099007223
  0
LINE
  5
38C
100
AcDbEntity
  8
03__ASM_ALL_CURVES
100
AcDbLine
 62
40
  6
CONTINUOUS
 10
4.8984959183
 20
5.0381834743
 11
5.0521559183
 21
5.0339151409
  0
LINE
  5
38D
100
AcDbEntity
  8
03__ASM_ALL_CURVES
100
AcDbLine
 62
40
  6
CONTINUOUS
 10
7.167348184
 20
4.2284743076
 11
7.1613458402
 21
4.2324758702
  0
LINE
  5
38E
100
AcDbEntity
  8
03__ASM_ALL_CURVES
100
AcDbLine
 62
40
  6
CONTINUOUS
 10
7.1253317777
 20
4.2764930576
 11
7.1313341215
 21
4.272491496
  0
LINE
  5
38F
100
AcDbEntity
  8
03__ASM_ALL_CURVES
100
AcDbLine
 62
40
  6
CONTINUOUS
 10
7.1733505277
 20
4.2764930576
 11
7.1793528715
 21
4.272491496
  0
LINE
  5
390
100
AcDbEntity
  8
03__ASM_ALL_CURVES
100
AcDbLine
 62
40
  6
CONTINUOUS
 10
7.2213692777
 20
4.2764930576
 11
7.2273716215
 21
4.272491496
  0
LINE
  5
391
100
AcDbEntity
  8
03__ASM_ALL_CURVES
100
AcDbLine
 62
40
  6
CONTINUOUS
 10
5.9901221684
 20
5.1256843076
 11
5.9981252934
 21
5.1203488922
  0
LINE
  5
392
100
AcDbEntity
  8
03__ASM_ALL_CURVES
100
AcDbLine
 62
40
  6
CONTINUOUS
 10
6.1301768559
 20
5.1203488922
 11
6.1341784184
 21
5.115013473
  0
LINE
  5
393
100
AcDbEntity
  8
0
100
AcDbLine
 62
7
  6
CONTINUOUS
 10
6.6443259183
 20
3.7796699705
 11
6.6443259183
 21
4.6516686447
  0
LINE
  5
394
100
AcDbEntity
  8
0
100
AcDbLine
 62
7
  6
CONTINUOUS
 10
6.7143259183
 20
3.7796699705
 11
6.7143259183
 21
4.6516686447
  0
LINE
  5
395
100
AcDbEntity
  8
03__ASM_ALL_CURVES
100
AcDbLine
 62
40
  6
CONTINUOUS
 10
6.2423306128
 20
3.4806630585
 11
6.2393294409
 21
3.4766614941
  0
LINE
  5
396
100
AcDbEntity
  8
03__ASM_ALL_CURVES
100
AcDbLine
 62
40
  6
CONTINUOUS
 10
6.3143587378
 20
3.4886661816
 11
6.3173599097
 21
3.492667746
  0
LINE
  5
397
100
AcDbEntity
  8
03__ASM_ALL_CURVES
100
AcDbLine
 62
40
  6
CONTINUOUS
 10
6.3233622534
 20
3.4686583696
 11
6.3173599097
 21
3.4606552451
  0
LINE
  5
398
100
AcDbEntity
  8
03__ASM_ALL_CURVES
100
AcDbLine
 62
40
  6
CONTINUOUS
 10
6.3383681128
 20
3.4806630585
 11
6.3353669409
 21
3.4766614941
  0
LINE
  5
399
100
AcDbEntity
  8
03__ASM_ALL_CURVES
100
AcDbLine
 62
40
  6
CONTINUOUS
 10
6.1432919409
 20
3.4766614941
 11
6.1372895972
 21
3.4726599326
  0
LINE
  5
39A
100
AcDbEntity
  8
03__ASM_ALL_CURVES
100
AcDbLine
 62
40
  6
CONTINUOUS
 10
6.1733036597
 20
3.492667746
 11
6.1793060034
 21
3.4966693076
  0
LINE
  5
39B
100
AcDbEntity
  8
03__ASM_ALL_CURVES
100
AcDbLine
 62
40
  6
CONTINUOUS
 10
6.1913106909
 20
3.4526521202
 11
6.1853083472
 21
3.4486505576
  0
LINE
  5
39C
100
AcDbEntity
  8
03__ASM_ALL_CURVES
100
AcDbLine
 62
40
  6
CONTINUOUS
 10
6.2393294409
 20
3.4766614941
 11
6.2333270972
 21
3.4726599326
  0
LINE
  5
39D
100
AcDbEntity
  8
03__ASM_ALL_CURVES
100
AcDbLine
 62
40
  6
CONTINUOUS
 10
4.8984959183
 20
5.0232443076
 11
5.0521559183
 21
5.0488543076
  0
LINE
  5
39E
100
AcDbEntity
  8
03__ASM_ALL_CURVES
100
AcDbLine
 62
40
  6
CONTINUOUS
 10
4.8984959183
 20
5.0253784743
 11
5.0521559183
 21
5.0467201409
  0
LINE
  5
39F
100
AcDbEntity
  8
03__ASM_ALL_CURVES
100
AcDbLine
 62
40
  6
CONTINUOUS
 10
4.8984959183
 20
5.0275126409
 11
5.0521559183
 21
5.0445859743
  0
LINE
  5
3A0
100
AcDbEntity
  8
03__ASM_ALL_CURVES
100
AcDbLine
 62
40
  6
CONTINUOUS
 10
4.3651559183
 20
5.0445859743
 11
4.2883259183
 21
5.0360493076
  0
LINE
  5
3A1
100
AcDbEntity
  8
03__ASM_ALL_CURVES
100
AcDbLine
 62
40
  6
CONTINUOUS
 10
4.3651559183
 20
5.0424518076
 11
4.2883259183
 21
5.0360493076
  0
LINE
  5
3A2
100
AcDbEntity
  8
03__ASM_ALL_CURVES
100
AcDbLine
 62
40
  6
CONTINUOUS
 10
4.3651559183
 20
5.0403176409
 11
4.2883259183
 21
5.0360493076
  0
LINE
  5
3A3
100
AcDbEntity
  8
03__ASM_ALL_CURVES
100
AcDbLine
 62
40
  6
CONTINUOUS
 10
5.6739987309
 20
5.1256843076
 11
5.6659956059
 21
5.1256843076
  0
LINE
  5
3A4
100
AcDbEntity
  8
03__ASM_ALL_CURVES
100
AcDbLine
 62
40
  6
CONTINUOUS
 10
4.9039321683
 20
5.1256843076
 11
4.8719196683
 21
5.1256843076
  0
LINE
  5
3A5
100
AcDbEntity
  8
03__ASM_ALL_CURVES
100
AcDbLine
 62
40
  6
CONTINUOUS
 10
4.7118571683
 20
5.1256843076
 11
4.6798446683
 21
5.1256843076
  0
LINE
  5
3A6
100
AcDbEntity
  8
03__ASM_ALL_CURVES
100
AcDbLine
 62
40
  6
CONTINUOUS
 10
4.4997743558
 20
5.1256843076
 11
4.5077774808
 21
5.1256843076
  0
LINE
  5
3A7
100
AcDbEntity
  8
03__ASM_ALL_CURVES
100
AcDbLine
 62
40
  6
CONTINUOUS
 10
4.8198993558
 20
5.1256843076
 11
4.8279024808
 21
5.1256843076
  0
LINE
  5
3A8
100
AcDbEntity
  8
03__ASM_ALL_CURVES
100
AcDbLine
 62
40
  6
CONTINUOUS
 10
5.1537956059
 20
5.1256843076
 11
5.1617987309
 21
5.1256843076
  0
LINE
  5
3A9
100
AcDbEntity
  8
03__ASM_ALL_CURVES
100
AcDbLine
 62
40
  6
CONTINUOUS
 10
5.2178206059
 20
5.1256843076
 11
5.2258237309
 21
5.1256843076
  0
LINE
  5
3AA
100
AcDbEntity
  8
03__ASM_ALL_CURVES
100
AcDbLine
 62
40
  6
CONTINUOUS
 10
5.3298643559
 20
5.1256843076
 11
5.3698799809
 21
5.1256843076
  0
LINE
  5
3AB
100
AcDbEntity
  8
03__ASM_ALL_CURVES
100
AcDbLine
 62
40
  6
CONTINUOUS
 10
5.5379456059
 20
5.1256843076
 11
5.5459487309
 21
5.1256843076
  0
LINE
  5
3AC
100
AcDbEntity
  8
03__ASM_ALL_CURVES
100
AcDbLine
 62
40
  6
CONTINUOUS
 10
5.7940456059
 20
5.1256843076
 11
5.8020487309
 21
5.1256843076
  0
LINE
  5
3AD
100
AcDbEntity
  8
03__ASM_ALL_CURVES
100
AcDbLine
 62
40
  6
CONTINUOUS
 10
5.9741159184
 20
5.1256843076
 11
5.9901221684
 21
5.1256843076
  0
LINE
  5
3AE
100
AcDbEntity
  8
03__ASM_ALL_CURVES
100
AcDbLine
 62
40
  6
CONTINUOUS
 10
6.0381409184
 20
5.1256843076
 11
6.0701534184
 21
5.1256843076
  0
LINE
  5
3AF
100
AcDbEntity
  8
03__ASM_ALL_CURVES
100
AcDbLine
 62
40
  6
CONTINUOUS
 10
6.1021659184
 20
5.1256843076
 11
6.1221737309
 21
5.1256843076
  0
LINE
  5
3B0
100
AcDbEntity
  8
03__ASM_ALL_CURVES
100
AcDbLine
 62
40
  6
CONTINUOUS
 10
6.1221737309
 20
5.1256843076
 11
6.1301768559
 21
5.1203488922
  0
LINE
  5
3B1
100
AcDbEntity
  8
0
100
AcDbLine
 62
7
  6
CONTINUOUS
 10
6.7643259183
 20
3.7796699705
 11
6.7643259183
 21
4.6516686447
  0
LINE
  5
3B2
100
AcDbEntity
  8
0
100
AcDbLine
 62
7
  6
CONTINUOUS
 10
6.7923259183
 20
4.652164193
 11
6.7923259183
 21
3.7791744222
  0
LINE
  5
3B3
100
AcDbEntity
  8
0
100
AcDbLine
 62
7
  6
CONTINUOUS
 10
6.8333259183
 20
3.7791693076
 11
6.8333259183
 21
4.6521693076
  0
LINE
  5
3B4
100
AcDbEntity
  8
0
100
AcDbLine
 62
7
  6
CONTINUOUS
 10
6.8493259183
 20
3.7951693076
 11
6.8493259183
 21
4.6361693076
  0
LINE
  5
3B5
100
AcDbEntity
  8
03__ASM_ALL_CURVES
100
AcDbLine
 62
40
  6
CONTINUOUS
 10
6.3173599097
 20
3.492667746
 11
6.3233622534
 21
3.4966693076
  0
LINE
  5
3B6
100
AcDbEntity
  8
03__ASM_ALL_CURVES
100
AcDbLine
 62
40
  6
CONTINUOUS
 10
6.3353669409
 20
3.4766614941
 11
6.3233622534
 21
3.4686583696
  0
LINE
  5
3B7
100
AcDbEntity
  8
03__ASM_ALL_CURVES
100
AcDbLine
 62
40
  6
CONTINUOUS
 10
4.2883259183
 20
5.0360493076
 11
4.3651559183
 21
5.0488543076
  0
LINE
  5
3B8
100
AcDbEntity
  8
03__ASM_ALL_CURVES
100
AcDbLine
 62
40
  6
CONTINUOUS
 10
4.3651559183
 20
5.0467201409
 11
4.2883259183
 21
5.0360493076
  0
LINE
  5
3B9
100
AcDbEntity
  8
0
100
AcDbLine
 62
7
  6
CONTINUOUS
 10
6.8333259183
 20
4.6521693076
 11
6.8493259183
 21
4.6361693076
  0
LINE
  5
3BA
100
AcDbEntity
  8
03__ASM_ALL_CURVES
100
AcDbLine
 62
40
  6
CONTINUOUS
 10
7.1343352933
 20
4.2604868085
 11
7.1313341215
 21
4.2564852441
  0
LINE
  5
3BB
100
AcDbEntity
  8
03__ASM_ALL_CURVES
100
AcDbLine
 62
40
  6
CONTINUOUS
 10
7.1553434965
 20
4.2644883701
 11
7.1613458402
 21
4.272491496
  0
LINE
  5
3BC
100
AcDbEntity
  8
03__ASM_ALL_CURVES
100
AcDbLine
 62
40
  6
CONTINUOUS
 10
7.1853552152
 20
4.2404789951
 11
7.1793528715
 21
4.2324758702
  0
LINE
  5
3BD
100
AcDbEntity
  8
03__ASM_ALL_CURVES
100
AcDbLine
 62
40
  6
CONTINUOUS
 10
7.2303727933
 20
4.2604868085
 11
7.2273716215
 21
4.2564852441
  0
LINE
  5
3BE
100
AcDbEntity
  8
0
100
AcDbLine
 62
7
  6
CONTINUOUS
 10
6.8333259183
 20
3.7791693076
 11
6.8493259183
 21
3.7951693076
  0
LINE
  5
3BF
100
AcDbEntity
  8
03__ASM_ALL_CURVES
100
AcDbLine
 62
40
  6
CONTINUOUS
 10
7.1613458402
 20
4.2324758702
 11
7.1553434965
 21
4.2404789951
  0
LINE
  5
3C0
100
AcDbEntity
  8
03__ASM_ALL_CURVES
100
AcDbLine
 62
40
  6
CONTINUOUS
 10
7.1313341215
 20
4.272491496
 11
7.1343352933
 21
4.2684899316
  0
LINE
  5
3C1
100
AcDbEntity
  8
03__ASM_ALL_CURVES
100
AcDbLine
 62
40
  6
CONTINUOUS
 10
7.1793528715
 20
4.272491496
 11
7.1853552152
 21
4.2644883701
  0
LINE
  5
3C2
100
AcDbEntity
  8
03__ASM_ALL_CURVES
100
AcDbLine
 62
40
  6
CONTINUOUS
 10
7.2273716215
 20
4.272491496
 11
7.2303727933
 21
4.2684899316
  0
LINE
  5
3C3
100
AcDbEntity
  8
03__ASM_ALL_CURVES
100
AcDbLine
 62
40
  6
CONTINUOUS
 10
7.1103259183
 20
4.2284743076
 11
7.1103259183
 21
4.2764930576
  0
LINE
  5
3C4
100
AcDbEntity
  8
03__ASM_ALL_CURVES
100
AcDbLine
 62
40
  6
CONTINUOUS
 10
7.1343352933
 20
4.2684899316
 11
7.1343352933
 21
4.2604868085
  0
LINE
  5
3C5
100
AcDbEntity
  8
03__ASM_ALL_CURVES
100
AcDbLine
 62
40
  6
CONTINUOUS
 10
7.1523423246
 20
4.2524836826
 11
7.1553434965
 21
4.2644883701
  0
LINE
  5
3C6
100
AcDbEntity
  8
03__ASM_ALL_CURVES
100
AcDbLine
 62
40
  6
CONTINUOUS
 10
7.1883563871
 20
4.2524836826
 11
7.1853552152
 21
4.2404789951
  0
LINE
  5
3C7
100
AcDbEntity
  8
03__ASM_ALL_CURVES
100
AcDbLine
 62
40
  6
CONTINUOUS
 10
7.2213692777
 20
4.2524836826
 11
7.2303727933
 21
4.2284743076
  0
LINE
  5
3C8
100
AcDbEntity
  8
03__ASM_ALL_CURVES
100
AcDbLine
 62
40
  6
CONTINUOUS
 10
7.1553434965
 20
4.2404789951
 11
7.1523423246
 21
4.2524836826
  0
LINE
  5
3C9
100
AcDbEntity
  8
03__ASM_ALL_CURVES
100
AcDbLine
 62
40
  6
CONTINUOUS
 10
7.1853552152
 20
4.2644883701
 11
7.1883563871
 21
4.2524836826
  0
LINE
  5
3CA
100
AcDbEntity
  8
03__ASM_ALL_CURVES
100
AcDbLine
 62
40
  6
CONTINUOUS
 10
7.2063634183
 20
4.2284743076
 11
7.2063634183
 21
4.2764930576
  0
LINE
  5
3CB
100
AcDbEntity
  8
03__ASM_ALL_CURVES
100
AcDbLine
 62
40
  6
CONTINUOUS
 10
7.2303727933
 20
4.2684899316
 11
7.2303727933
 21
4.2604868085
  0
LINE
  5
3CC
100
AcDbEntity
  8
03__ASM_ALL_CURVES
100
AcDbLine
 62
40
  6
CONTINUOUS
 10
7.2663868558
 20
4.2764930576
 11
7.2663868558
 21
4.2284743076
  0
LINE
  5
3CD
100
AcDbEntity
  8
03__ASM_ALL_CURVES
100
AcDbLine
 62
40
  6
CONTINUOUS
 10
7.3144056058
 20
4.2764930576
 11
7.3144056058
 21
4.2284743076
  0
CIRCLE
  5
3CE
100
AcDbEntity
  8
0
100
AcDbCircle
 62
7
  6
CONTINUOUS
 10
6.4123259183
 20
4.2156693076
 40
0.1095
  0
ARC
  5
3CF
100
AcDbEntity
  8
THREAD
100
AcDbCircle
 62
7
  6
CONTINUOUS
 10
5.1561090399
 20
3.7451693076
 40
0.0125
100
AcDbArc
 50
29.9999999999
 51
90.0
  0
ARC
  5
3D0
100
AcDbEntity
  8
THREAD
100
AcDbCircle
 62
7
  6
CONTINUOUS
 10
5.1561090399
 20
4.6861693076
 40
0.0125
100
AcDbArc
 50
270.0
 51
330.000000004
  0
ARC
  5
3D1
100
AcDbEntity
  8
0
100
AcDbCircle
 62
7
  6
CONTINUOUS
 10
4.9803259183
 20
3.6852825562
 40
0.005
100
AcDbArc
 50
120.0000000096
 51
179.9999999998
  0
ARC
  5
3D2
100
AcDbEntity
  8
0
100
AcDbCircle
 62
7
  6
CONTINUOUS
 10
4.9803259183
 20
4.7460560589
 40
0.005
100
AcDbArc
 50
180.0000000002
 51
239.9999999876
  0
ARC
  5
3D3
100
AcDbEntity
  8
0
100
AcDbCircle
 62
7
  6
CONTINUOUS
 10
4.9991823248
 20
3.6961693076
 40
0.005
100
AcDbArc
 50
90.0
 51
120.0000000145
  0
ARC
  5
3D4
100
AcDbEntity
  8
0
100
AcDbCircle
 62
7
  6
CONTINUOUS
 10
4.9991823248
 20
4.7351693076
 40
0.005
100
AcDbArc
 50
239.9999999845
 51
270.0
  0
ARC
  5
3D5
100
AcDbEntity
  8
0
100
AcDbCircle
 62
7
  6
CONTINUOUS
 10
4.9723259183
 20
3.6806693076
 40
0.003
100
AcDbArc
 50
270.0
 51
360.0
  0
ARC
  5
3D6
100
AcDbEntity
  8
0
100
AcDbCircle
 62
7
  6
CONTINUOUS
 10
4.9723259183
 20
4.7506693076
 40
0.003
100
AcDbArc
 50
0.0
 51
90.0
  0
SPLINE
  5
3D7
100
AcDbEntity
  8
0
100
AcDbSpline
 62
7
  6
CONTINUOUS
 70
0
 71
3
 72
15
 73
11
 74
9
 42
0.0000001
 43
0.0000001
 44
0.0000000001
 12
0.0
 22
0.1099409465
 32
0.0
 13
0.0
 23
-0.1099409465
 33
0.0
 40
0.0
 40
0.0
 40
0.0
 40
0.0
 40
0.125
 40
0.25
 40
0.375
 40
0.5
 40
0.625
 40
0.75
 40
0.875
 40
1.0
 40
1.0
 40
1.0
 40
1.0
 10
6.7143259183
 20
4.6326693076
 30
0.0
 10
6.7143259183
 20
4.6372501804
 30
0.0
 10
6.7125035338
 20
4.6464119259
 30
0.0
 10
6.7047189659
 20
4.6580623552
 30
0.0
 10
6.6930685366
 20
4.6658469231
 30
0.0
 10
6.6793259183
 20
4.6685804998
 30
0.0
 10
6.6655833
 20
4.6658469231
 30
0.0
 10
6.6539328707
 20
4.6580623552
 30
0.0
 10
6.6461483028
 20
4.6464119259
 30
0.0
 10
6.6443259183
 20
4.6372501804
 30
0.0
 10
6.6443259183
 20
4.6326693076
 30
0.0
 11
6.7143259183
 21
4.6326693076
 31
0.0
 11
6.7116617019
 21
4.6460632277
 31
0.0
 11
6.7040746556
 21
4.6574180449
 31
0.0
 11
6.6927198384
 21
4.6650050912
 31
0.0
 11
6.6793259183
 21
4.6676693076
 31
0.0
 11
6.6659319982
 21
4.6650050912
 31
0.0
 11
6.654577181
 21
4.6574180449
 31
0.0
 11
6.6469901347
 21
4.6460632277
 31
0.0
 11
6.6443259183
 21
4.6326693076
 31
0.0
  0
SPLINE
  5
3D8
100
AcDbEntity
  8
0
100
AcDbSpline
 62
7
  6
CONTINUOUS
 70
0
 71
3
 72
15
 73
11
 74
9
 42
0.0000001
 43
0.0000001
 44
0.0000000001
 12
0.0
 22
-0.1099409465
 32
0.0
 13
0.0
 23
0.1099409465
 33
0.0
 40
0.0
 40
0.0
 40
0.0
 40
0.0
 40
0.125
 40
0.25
 40
0.375
 40
0.5
 40
0.625
 40
0.75
 40
0.875
 40
1.0
 40
1.0
 40
1.0
 40
1.0
 10
6.7143259183
 20
3.7986693076
 30
0.0
 10
6.7143259183
 20
3.7940884348
 30
0.0
 10
6.7125035338
 20
3.7849266893
 30
0.0
 10
6.7047189659
 20
3.77327626
 30
0.0
 10
6.6930685366
 20
3.7654916921
 30
0.0
 10
6.6793259183
 20
3.7627581153
 30
0.0
 10
6.6655833
 20
3.7654916921
 30
0.0
 10
6.6539328707
 20
3.77327626
 30
0.0
 10
6.6461483028
 20
3.7849266893
 30
0.0
 10
6.6443259183
 20
3.7940884348
 30
0.0
 10
6.6443259183
 20
3.7986693076
 30
0.0
 11
6.7143259183
 21
3.7986693076
 31
0.0
 11
6.7116617019
 21
3.7852753875
 31
0.0
 11
6.7040746556
 21
3.7739205703
 31
0.0
 11
6.6927198384
 21
3.766333524
 31
0.0
 11
6.6793259183
 21
3.7636693076
 31
0.0
 11
6.6659319982
 21
3.766333524
 31
0.0
 11
6.654577181
 21
3.7739205703
 31
0.0
 11
6.6469901347
 21
3.7852753875
 31
0.0
 11
6.6443259183
 21
3.7986693076
 31
0.0
  0
SPLINE
  5
3D9
100
AcDbEntity
  8
0
100
AcDbSpline
 62
7
  6
CONTINUOUS
 70
0
 71
3
 72
15
 73
11
 74
9
 42
0.0000001
 43
0.0000001
 44
0.0000000001
 12
0.0
 22
0.1099409465
 32
0.0
 13
0.0
 23
-0.1099409465
 33
0.0
 40
0.0
 40
0.0
 40
0.0
 40
0.0
 40
0.125
 40
0.25
 40
0.375
 40
0.5
 40
0.625
 40
0.75
 40
0.875
 40
1.0
 40
1.0
 40
1.0
 40
1.0
 10
5.0923259183
 20
4.7086693076
 30
0.0
 10
5.0923259183
 20
4.7132501804
 30
0.0
 10
5.0905035338
 20
4.7224119259
 30
0.0
 10
5.0827189659
 20
4.7340623552
 30
0.0
 10
5.0710685366
 20
4.7418469231
 30
0.0
 10
5.0573259183
 20
4.7445804998
 30
0.0
 10
5.0435833
 20
4.7418469231
 30
0.0
 10
5.0319328707
 20
4.7340623552
 30
0.0
 10
5.0241483028
 20
4.7224119259
 30
0.0
 10
5.0223259183
 20
4.7132501804
 30
0.0
 10
5.0223259183
 20
4.7086693076
 30
0.0
 11
5.0923259183
 21
4.7086693076
 31
0.0
 11
5.0896617019
 21
4.7220632277
 31
0.0
 11
5.0820746556
 21
4.7334180449
 31
0.0
 11
5.0707198384
 21
4.7410050912
 31
0.0
 11
5.0573259183
 21
4.7436693076
 31
0.0
 11
5.0439319982
 21
4.7410050912
 31
0.0
 11
5.032577181
 21
4.7334180449
 31
0.0
 11
5.0249901347
 21
4.7220632277
 31
0.0
 11
5.0223259183
 21
4.7086693076
 31
0.0
  0
SPLINE
  5
3DA
100
AcDbEntity
  8
0
100
AcDbSpline
 62
7
  6
CONTINUOUS
 70
0
 71
3
 72
15
 73
11
 74
9
 42
0.0000001
 43
0.0000001
 44
0.0000000001
 12
0.0
 22
-0.1099409465
 32
0.0
 13
0.0
 23
0.1099409465
 33
0.0
 40
0.0
 40
0.0
 40
0.0
 40
0.0
 40
0.125
 40
0.25
 40
0.375
 40
0.5
 40
0.625
 40
0.75
 40
0.875
 40
1.0
 40
1.0
 40
1.0
 40
1.0
 10
5.0923259183
 20
3.7226693076
 30
0.0
 10
5.0923259183
 20
3.7180884348
 30
0.0
 10
5.0905035338
 20
3.7089266893
 30
0.0
 10
5.0827189659
 20
3.69727626
 30
0.0
 10
5.0710685366
 20
3.6894916921
 30
0.0
 10
5.0573259183
 20
3.6867581153
 30
0.0
 10
5.0435833
 20
3.6894916921
 30
0.0
 10
5.0319328707
 20
3.69727626
 30
0.0
 10
5.0241483028
 20
3.7089266893
 30
0.0
 10
5.0223259183
 20
3.7180884348
 30
0.0
 10
5.0223259183
 20
3.7226693076
 30
0.0
 11
5.0923259183
 21
3.7226693076
 31
0.0
 11
5.0896617019
 21
3.7092753875
 31
0.0
 11
5.0820746556
 21
3.6979205703
 31
0.0
 11
5.0707198384
 21
3.690333524
 31
0.0
 11
5.0573259183
 21
3.6876693076
 31
0.0
 11
5.0439319982
 21
3.690333524
 31
0.0
 11
5.032577181
 21
3.6979205703
 31
0.0
 11
5.0249901347
 21
3.7092753875
 31
0.0
 11
5.0223259183
 21
3.7226693076
 31
0.0
  0
SPLINE
  5
3DB
100
AcDbEntity
  8
0
100
AcDbSpline
 62
7
  6
CONTINUOUS
 70
0
 71
3
 72
23
 73
19
 74
17
 42
0.0000001
 43
0.0000001
 44
0.0000000001
 12
0.0
 22
-0.2793776376
 32
0.0
 13
0.0
 23
0.2793776376
 33
0.0
 40
0.0
 40
0.0
 40
0.0
 40
0.0
 40
0.0409659918
 40
0.0887944225
 40
0.1441473296
 40
0.2064837239
 40
0.2746409079
 40
0.3472337424
 40
0.4228787204
 40
0.5000460496
 40
0.5772374144
 40
0.652930618
 40
0.7255631869
 40
0.7937203167
 40
0.8560169002
 40
0.9113075499
 40
0.9590815983
 40
1.0
 40
1.0
 40
1.0
 40
1.0
 10
6.5218259183
 20
4.5395628086
 30
0.0
 10
6.5218259183
 20
4.5357478146
 30
0.0
 10
6.5200613964
 20
4.5274633408
 30
0.0
 10
6.5134642031
 20
4.5156300449
 30
0.0
 10
6.5031992735
 20
4.5040029342
 30
0.0
 10
6.4896093199
 20
4.4931658861
 30
0.0
 10
6.4731291315
 20
4.4837443911
 30
0.0
 10
6.4542887065
 20
4.4763911102
 30
0.0
 10
6.4337504885
 20
4.4716934358
 30
0.0
 10
6.4123106679
 20
4.4700762848
 30
0.0
 10
6.3908666291
 20
4.4716981653
 30
0.0
 10
6.3703194053
 20
4.4764038811
 30
0.0
 10
6.3514739763
 20
4.483767212
 30
0.0
 10
6.3349979722
 20
4.4931961029
 30
0.0
 10
6.3214206981
 20
4.5040337514
 30
0.0
 10
6.3111709971
 20
4.5156546772
 30
0.0
 10
6.3045863423
 20
4.5274772305
 30
0.0
 10
6.3028259183
 20
4.5357522465
 30
0.0
 10
6.3028259183
 20
4.5395628086
 30
0.0
 11
6.5218259183
 21
4.5395628086
 31
0.0
 11
6.5197083513
 21
4.5283154301
 31
0.0
 11
6.5134483071
 21
4.5165103433
 31
0.0
 11
6.5033431939
 21
4.5048042229
 31
0.0
 11
6.489796024
 21
4.4938602677
 31
0.0
 11
6.4732938125
 21
4.4843597793
 31
0.0
 11
6.454410399
 21
4.4769619325
 31
0.0
 11
6.433810631
 21
4.4722422899
 31
0.0
 11
6.4123129549
 21
4.4706196674
 31
0.0
 11
6.3908089158
 21
4.4722472013
 31
0.0
 11
6.3701973294
 21
4.4769755863
 31
0.0
 11
6.3513063774
 21
4.4843846192
 31
0.0
 11
6.3348085165
 21
4.4938926303
 31
0.0
 11
6.3212753594
 21
4.5048362291
 31
0.0
 11
6.3111871361
 21
4.5165339496
 31
0.0
 11
6.3049388899
 21
4.5283280943
 31
0.0
 11
6.3028259183
 21
4.5395628086
 31
0.0
  0
SPLINE
  5
3DC
100
AcDbEntity
  8
0
100
AcDbSpline
 62
7
  6
CONTINUOUS
 70
0
 71
3
 72
23
 73
19
 74
17
 42
0.0000001
 43
0.0000001
 44
0.0000000001
 12
0.0
 22
0.2793776376
 32
0.0
 13
0.0
 23
-0.2793776376
 33
0.0
 40
0.0
 40
0.0
 40
0.0
 40
0.0
 40
0.0409659918
 40
0.0887944225
 40
0.1441473296
 40
0.2064837239
 40
0.2746409079
 40
0.3472337424
 40
0.4228787204
 40
0.5000460496
 40
0.5772374144
 40
0.652930618
 40
0.7255631869
 40
0.7937203167
 40
0.8560169002
 40
0.9113075499
 40
0.9590815983
 40
1.0
 40
1.0
 40
1.0
 40
1.0
 10
6.3028259183
 20
3.8917758066
 30
0.0
 10
6.3028259183
 20
3.8955908006
 30
0.0
 10
6.3045904402
 20
3.9038752744
 30
0.0
 10
6.3111876335
 20
3.9157085703
 30
0.0
 10
6.3214525631
 20
3.927335681
 30
0.0
 10
6.3350425167
 20
3.9381727291
 30
0.0
 10
6.3515227051
 20
3.9475942241
 30
0.0
 10
6.3703631301
 20
3.954947505
 30
0.0
 10
6.3909013481
 20
3.9596451793
 30
0.0
 10
6.4123411687
 20
3.9612623304
 30
0.0
 10
6.4337852075
 20
3.9596404499
 30
0.0
 10
6.4543324313
 20
3.9549347341
 30
0.0
 10
6.4731778603
 20
3.9475714032
 30
0.0
 10
6.4896538643
 20
3.9381425123
 30
0.0
 10
6.5032311385
 20
3.9273048638
 30
0.0
 10
6.5134808395
 20
3.915683938
 30
0.0
 10
6.5200654943
 20
3.9038613847
 30
0.0
 10
6.5218259183
 20
3.8955863687
 30
0.0
 10
6.5218259183
 20
3.8917758066
 30
0.0
 11
6.3028259183
 21
3.8917758066
 31
0.0
 11
6.3049434853
 21
3.9030231851
 31
0.0
 11
6.3112035294
 21
3.9148282719
 31
0.0
 11
6.3213086427
 21
3.9265343922
 31
0.0
 11
6.3348558125
 21
3.9374783475
 31
0.0
 11
6.3513580241
 21
3.9469788359
 31
0.0
 11
6.3702414376
 21
3.9543766827
 31
0.0
 11
6.3908412056
 21
3.9590963252
 31
0.0
 11
6.4123388817
 21
3.9607189478
 31
0.0
 11
6.4338429208
 21
3.9590914139
 31
0.0
 11
6.4544545072
 21
3.9543630289
 31
0.0
 11
6.4733454592
 21
3.9469539959
 31
0.0
 11
6.4898433201
 21
3.9374459849
 31
0.0
 11
6.5033764772
 21
3.9265023861
 31
0.0
 11
6.5134647005
 21
3.9148046656
 31
0.0
 11
6.5197129467
 21
3.9030105209
 31
0.0
 11
6.5218259183
 21
3.8917758066
 31
0.0
  0
SPLINE
  5
3DD
100
AcDbEntity
  8
0
100
AcDbSpline
 62
7
  6
CONTINUOUS
 70
0
 71
3
 72
16
 73
12
 74
10
 42
0.0000001
 43
0.0000001
 44
0.0000000001
 12
-0.1397586156
 22
0.0274221968
 32
0.0
 13
-0.139759926
 23
-0.0274526181
 33
0.0
 40
0.0
 40
0.0
 40
0.0
 40
0.0
 40
0.0342800395
 40
0.1546331003
 40
0.2902207388
 40
0.4355381577
 40
0.5828696788
 40
0.7272345329
 40
0.8606893518
 40
0.9776451209
 40
1.0
 40
1.0
 40
1.0
 40
1.0
 10
6.4832307323
 20
4.4902219015
 30
0.0
 10
6.4816337554
 20
4.4905352462
 30
0.0
 10
6.4744052608
 20
4.4918255066
 30
0.0
 10
6.4607152371
 20
4.4934166805
 30
0.0
 10
6.441703282
 20
4.4945536453
 30
0.0
 10
6.421386241
 20
4.4950440193
 30
0.0
 10
6.4006476291
 20
4.4950120516
 30
0.0
 10
6.3804786716
 20
4.4944498467
 30
0.0
 10
6.3617798346
 20
4.4932254888
 30
0.0
 10
6.3489253355
 20
4.4916207159
 30
0.0
 10
6.3424211203
 20
4.4904177445
 30
0.0
 10
6.3413796816
 20
4.4902131779
 30
0.0
 11
6.4832307323
 21
4.4902219015
 31
0.0
 11
6.4784256094
 21
4.4910855675
 31
0.0
 11
6.4614219956
 21
4.4931832283
 31
0.0
 11
6.4421601881
 21
4.4944155776
 31
0.0
 11
6.4214809469
 21
4.4949538056
 31
0.0
 11
6.4005080198
 21
4.4949188743
 31
0.0
 11
6.3799666367
 21
4.4943019614
 31
0.0
 11
6.3610153569
 21
4.492976456
 31
0.0
 11
6.3445101262
 21
4.4907939495
 31
0.0
 11
6.3413796816
 21
4.4902131779
 31
0.0
  0
SPLINE
  5
3DE
100
AcDbEntity
  8
0
100
AcDbSpline
 62
7
  6
CONTINUOUS
 70
0
 71
3
 72
16
 73
12
 74
10
 42
0.0000001
 43
0.0000001
 44
0.0000000001
 12
0.1397644924
 22
-0.0274234382
 32
0.0
 13
0.1397649716
 23
0.0274565021
 33
0.0
 40
0.0
 40
0.0
 40
0.0
 40
0.0
 40
0.0335014723
 40
0.153921415
 40
0.2897431506
 40
0.4354152507
 40
0.5831379797
 40
0.7278373621
 40
0.8614892603
 40
0.9784649427
 40
1.0
 40
1.0
 40
1.0
 40
1.0
 10
6.3414194532
 20
3.9411170619
 30
0.0
 10
6.3429802253
 20
3.94081082
 30
0.0
 10
6.3501751737
 20
3.9395236151
 30
0.0
 10
6.3638425819
 20
3.9379292205
 30
0.0
 10
6.3828861166
 20
3.9367868945
 30
0.0
 10
6.4032503647
 20
3.9362943109
 30
0.0
 10
6.4240409935
 20
3.9363266193
 30
0.0
 10
6.4442544178
 20
3.9368918026
 30
0.0
 10
6.4629798058
 20
3.9381223654
 30
0.0
 10
6.4758056473
 20
3.9397301304
 30
0.0
 10
6.4822721994
 20
3.9409290373
 30
0.0
 10
6.4832754817
 20
3.9411261298
 30
0.0
 11
6.3414194532
 21
3.9411170619
 31
0.0
 11
6.3461153406
 21
3.9402713457
 31
0.0
 11
6.3631280289
 21
3.9381645375
 31
0.0
 11
6.3824235152
 21
3.9369259449
 31
0.0
 11
6.4031539274
 21
3.9363850031
 31
0.0
 11
6.4241832881
 21
3.9364203283
 31
0.0
 11
6.4447729358
 21
3.9370408232
 31
0.0
 11
6.4637525154
 21
3.9383734523
 31
0.0
 11
6.4802599446
 21
3.9405654374
 31
0.0
 11
6.4832754817
 21
3.9411261298
 31
0.0
  0
SPLINE
  5
3DF
100
AcDbEntity
  8
0
100
AcDbSpline
 62
7
  6
CONTINUOUS
 70
0
 71
3
 72
8
 73
4
 74
2
 42
0.0000001
 43
0.0000001
 44
0.0000000001
 12
0.0004722358
 22
0.0000253474
 32
0.0
 13
0.0004722492
 23
0.0000250969
 33
0.0
 40
0.0
 40
0.0
 40
0.0
 40
0.0
 40
1.0
 40
1.0
 40
1.0
 40
1.0
 10
6.4948995114
 20
3.8416693076
 30
0.0
 10
6.4950569234
 20
3.8416777567
 30
0.0
 10
6.4952143375
 20
3.8416861642
 30
0.0
 10
6.495371754
 20
3.8416945298
 30
0.0
 11
6.4948995114
 21
3.8416693076
 31
0.0
 11
6.495371754
 21
3.8416945298
 31
0.0
  0
SPLINE
  5
3E0
100
AcDbEntity
  8
0
100
AcDbSpline
 62
7
  6
CONTINUOUS
 70
0
 71
3
 72
18
 73
14
 74
12
 42
0.0000001
 43
0.0000001
 44
0.0000000001
 12
0.041916142
 22
0.0022275598
 32
0.0
 13
0.041975234
 23
0.0000676834
 33
0.0
 40
0.0
 40
0.0
 40
0.0
 40
0.0
 40
0.0005322147
 40
0.034788272
 40
0.0871499444
 40
0.1524550444
 40
0.2296155634
 40
0.3216586804
 40
0.431471131
 40
0.559517024
 40
0.7021975202
 40
0.8520727192
 40
1.0
 40
1.0
 40
1.0
 40
1.0
 10
6.495371754
 20
3.8416945298
 30
0.0
 10
6.4953791901
 20
3.841694925
 30
0.0
 10
6.4958652538
 20
3.8417207498
 30
0.0
 10
6.4970829709
 20
3.8417844466
 30
0.0
 10
6.4992059628
 20
3.8418911246
 30
0.0
 10
6.501928884
 20
3.8420202622
 30
0.0
 10
6.505206915
 20
3.8421643982
 30
0.0
 10
6.5091077652
 20
3.8423196973
 30
0.0
 10
6.5137209036
 20
3.842480106
 30
0.0
 10
6.5190431562
 20
3.842632971
 30
0.0
 10
6.524926787
 20
3.8427605517
 30
0.0
 10
6.5310893899
 20
3.8428461631
 30
0.0
 10
6.5352561576
 20
3.842870148
 30
0.0
 10
6.5373259183
 20
3.8428734854
 30
0.0
 11
6.495371754
 21
3.8416945298
 31
0.0
 11
6.4953940624
 21
3.841695715
 31
0.0
 11
6.4968300072
 21
3.8417708246
 31
0.0
 11
6.4990251344
 21
3.8418811189
 31
0.0
 11
6.501763258
 21
3.8420109611
 31
0.0
 11
6.5049989678
 21
3.8421532089
 31
0.0
 11
6.5088594479
 21
3.8423068538
 31
0.0
 11
6.5134660759
 21
3.8424669551
 31
0.0
 11
6.5188386274
 21
3.8426211342
 31
0.0
 11
6.5248262789
 21
3.8427507865
 31
0.0
 11
6.5311167296
 21
3.8428379567
 31
0.0
 11
6.5373259183
 21
3.8428734854
 31
0.0
  0
SPLINE
  5
3E1
100
AcDbEntity
  8
0
100
AcDbSpline
 62
7
  6
CONTINUOUS
 70
0
 71
3
 72
23
 73
19
 74
17
 42
0.0000001
 43
0.0000001
 44
0.0000000001
 12
0.0
 22
0.2528678869
 32
0.0
 13
-0.0
 23
-0.2528678869
 33
0.0
 40
0.0
 40
0.0
 40
0.0
 40
0.0
 40
0.0408397858
 40
0.0844034013
 40
0.1345079712
 40
0.1918575084
 40
0.2585075382
 40
0.3351495156
 40
0.4169556689
 40
0.5010413974
 40
0.5851702091
 40
0.666768871
 40
0.7428586382
 40
0.8086370291
 40
0.8655846324
 40
0.9155481252
 40
0.9591488856
 40
1.0
 40
1.0
 40
1.0
 40
1.0
 10
6.3028259183
 20
4.5395628086
 30
0.0
 10
6.3028259183
 20
4.5430051654
 30
0.0
 10
6.3042669058
 20
4.5502370254
 30
0.0
 10
6.3112776503
 20
4.5595370956
 30
0.0
 10
6.3220462197
 20
4.5666172309
 30
0.0
 10
6.3357976157
 20
4.5719200841
 30
0.0
 10
6.3523000566
 20
4.5757803654
 30
0.0
 10
6.3711154279
 20
4.5783626779
 30
0.0
 10
6.3915169442
 20
4.579819114
 30
0.0
 10
6.4125932761
 20
4.5802780067
 30
0.0
 10
6.4336516461
 20
4.5797954695
 30
0.0
 10
6.4539909473
 20
4.5783151647
 30
0.0
 10
6.4726657766
 20
4.5757195575
 30
0.0
 10
6.4890109439
 20
4.5718661022
 30
0.0
 10
6.5026446759
 20
4.5665923206
 30
0.0
 10
6.5133746004
 20
4.5595340723
 30
0.0
 10
6.5203836282
 20
4.5502421904
 30
0.0
 10
6.5218259183
 20
4.5430061203
 30
0.0
 10
6.5218259183
 20
4.5395628086
 30
0.0
 11
6.3028259183
 21
4.5395628086
 31
0.0
 11
6.3049129987
 21
4.5496767829
 31
0.0
 11
6.3113254344
 21
4.5586338688
 31
0.0
 11
6.3217089662
 21
4.5658938295
 31
0.0
 11
6.3351496193
 21
4.571339257
 31
0.0
 11
6.3515197468
 21
4.5753473137
 31
0.0
 11
6.3707034462
 21
4.5781007674
 31
0.0
 11
6.391332457
 21
4.5796372165
 31
0.0
 11
6.4125895651
 21
4.5801195923
 31
0.0
 11
6.4338569748
 21
4.5796116419
 31
0.0
 11
6.4544314357
 21
4.5780494763
 31
0.0
 11
6.473472144
 21
4.5752828227
 31
0.0
 11
6.4896218986
 21
4.571301593
 31
0.0
 11
6.5029637145
 21
4.5658828951
 31
0.0
 11
6.5133173961
 21
4.5586424982
 31
0.0
 11
6.5197376589
 21
4.5496794647
 31
0.0
 11
6.5218259183
 21
4.5395628086
 31
0.0
  0
SPLINE
  5
3E2
100
AcDbEntity
  8
0
100
AcDbSpline
 62
7
  6
CONTINUOUS
 70
0
 71
3
 72
23
 73
19
 74
17
 42
0.0000001
 43
0.0000001
 44
0.0000000001
 12
0.0
 22
-0.2528669991
 32
0.0
 13
0.0
 23
0.2528669991
 33
0.0
 40
0.0
 40
0.0
 40
0.0
 40
0.0
 40
0.040885262
 40
0.0845267684
 40
0.1347176072
 40
0.1920850924
 40
0.2586648037
 40
0.3352778791
 40
0.417034157
 40
0.5010568917
 40
0.5851226741
 40
0.6666695839
 40
0.7427226099
 40
0.8084224832
 40
0.8653807135
 40
0.9154242578
 40
0.9591011218
 40
1.0
 40
1.0
 40
1.0
 40
1.0
 10
6.5218259183
 20
3.8917758066
 30
0.0
 10
6.5218259183
 20
3.8883296287
 30
0.0
 10
6.5203809241
 20
3.8810869619
 30
0.0
 10
6.513350787
 20
3.8717778933
 30
0.0
 10
6.5025626027
 20
3.8646997587
 30
0.0
 10
6.4888055301
 20
3.8594047155
 30
0.0
 10
6.472308837
 20
3.8555510442
 30
0.0
 10
6.4535056627
 20
3.8529731017
 30
0.0
 10
6.4331160701
 20
3.8515188954
 30
0.0
 10
6.4120546391
 20
3.8510608444
 30
0.0
 10
6.3910113351
 20
3.8515428735
 30
0.0
 10
6.3706848025
 20
3.8530212838
 30
0.0
 10
6.3520237247
 20
3.8556127767
 30
0.0
 10
6.3356863282
 20
3.8594596555
 30
0.0
 10
6.3220487938
 20
3.8647254234
 30
0.0
 10
6.3113005354
 20
3.871781181
 30
0.0
 10
6.3042723255
 20
3.8810815496
 30
0.0
 10
6.3028259183
 20
3.888328481
 30
0.0
 10
6.3028259183
 20
3.8917758066
 30
0.0
 11
6.5218259183
 21
3.8917758066
 31
0.0
 11
6.5197341182
 21
3.8816511018
 31
0.0
 11
6.513303528
 21
3.8726828411
 31
0.0
 11
6.5028954789
 21
3.8654199632
 31
0.0
 11
6.489446956
 21
3.8599820183
 31
0.0
 11
6.473092767
 21
3.8559838861
 31
0.0
 11
6.4539159459
 21
3.8532344313
 31
0.0
 11
6.4332994698
 21
3.851700465
 31
0.0
 11
6.4120583483
 21
3.8512190251
 31
0.0
 11
6.3908069419
 21
3.8517263909
 31
0.0
 11
6.370245518
 21
3.8532864522
 31
0.0
 11
6.3512137149
 21
3.8560493108
 31
0.0
 11
6.3350820228
 21
3.8600206124
 31
0.0
 11
6.3217342145
 21
3.8654315547
 31
0.0
 11
6.3113574161
 21
3.8726741305
 31
0.0
 11
6.3049191371
 21
3.8816478791
 31
0.0
 11
6.3028259183
 21
3.8917758066
 31
0.0
  0
SPLINE
  5
3E3
100
AcDbEntity
  8
0
100
AcDbSpline
 62
7
  6
CONTINUOUS
 70
0
 71
3
 72
12
 73
8
 74
6
 42
0.0000001
 43
0.0000001
 44
0.0000000001
 12
-0.0169261457
 22
0.0169261457
 32
0.0
 13
-0.0163156942
 23
0.0175153305
 33
0.0
 40
0.0
 40
0.0
 40
0.0
 40
0.0
 40
0.307559904
 40
0.5868518362
 40
0.8084646316
 40
0.9511865135
 40
1.0
 40
1.0
 40
1.0
 40
1.0
 10
5.5383259183
 20
4.667058205
 30
0.0
 10
5.5365906504
 20
4.6687934729
 30
0.0
 10
5.5332986519
 20
4.6721236283
 30
0.0
 10
5.5288125231
 20
4.67675921
 30
0.0
 10
5.5252736513
 20
4.6804808566
 30
0.0
 10
5.5230169761
 20
4.682883905
 30
0.0
 10
5.5219743842
 20
4.6840013222
 30
0.0
 10
5.5217089089
 20
4.684286317
 30
0.0
 11
5.5383259183
 21
4.667058205
 31
0.0
 11
5.5331498548
 21
4.6722935801
 31
0.0
 11
5.5285003471
 21
4.6770974836
 31
0.0
 11
5.5248447608
 21
4.6809416282
 31
0.0
 11
5.5225060349
 21
4.683431985
 31
0.0
 11
5.5217089089
 21
4.684286317
 31
0.0
  0
SPLINE
  5
3E4
100
AcDbEntity
  8
127-112_FEATURES
100
AcDbSpline
 62
7
  6
CONTINUOUS
 70
0
 71
3
 72
10
 73
6
 74
4
 42
0.0000001
 43
0.0000001
 44
0.0000000001
 12
0.0
 22
0.0145741736
 32
0.0
 13
0.0131020449
 23
0.0066641156
 33
0.0
 40
0.0
 40
0.0
 40
0.0
 40
0.0
 40
0.4102853543
 40
0.7578746078
 40
1.0
 40
1.0
 40
1.0
 40
1.0
 10
5.5217089089
 20
4.4499778123
 30
0.0
 10
5.5217089089
 20
4.4519710023
 30
0.0
 10
5.5221223047
 20
4.4556805731
 30
0.0
 10
5.5242644445
 20
4.4601965086
 30
0.0
 10
5.526581921
 20
4.4620556454
 30
0.0
 10
5.5276393669
 20
4.462593496
 30
0.0
 11
5.5217089089
 21
4.4499778123
 31
0.0
 11
5.5225111457
 21
4.4559033226
 31
0.0
 11
5.5248566167
 21
4.4603934629
 31
0.0
 11
5.5276393669
 21
4.462593496
 31
0.0
  0
SPLINE
  5
3E5
100
AcDbEntity
  8
127-112_FEATURES
100
AcDbSpline
 62
7
  6
CONTINUOUS
 70
0
 71
3
 72
12
 73
8
 74
6
 42
0.0000001
 43
0.0000001
 44
0.0000000001
 12
-0.0314544975
 22
0.0150187598
 32
0.0
 13
0.0
 23
0.0348561123
 33
0.0
 40
0.0
 40
0.0
 40
0.0
 40
0.0
 40
0.1791927035
 40
0.3808066615
 40
0.5924275095
 40
0.8041628158
 40
1.0
 40
1.0
 40
1.0
 40
1.0
 10
5.5383259183
 20
4.4210156002
 30
0.0
 10
5.5364471128
 20
4.4219126842
 30
0.0
 10
5.5327766906
 20
4.4245077135
 30
0.0
 10
5.5282396285
 20
4.4297467891
 30
0.0
 10
5.5246460017
 20
4.4361100961
 30
0.0
 10
5.5223219829
 20
4.4429598273
 30
0.0
 10
5.5217089089
 20
4.447702438
 30
0.0
 10
5.5217089089
 20
4.4499778123
 30
0.0
 11
5.5383259183
 21
4.4210156002
 31
0.0
 11
5.5331597647
 21
4.4245259969
 31
0.0
 11
5.5285039818
 21
4.4297899444
 31
0.0
 11
5.5248578825
 21
4.4362020788
 31
0.0
 11
5.5225097064
 21
4.4431988244
 31
0.0
 11
5.5217089089
 21
4.4499778123
 31
0.0
  0
SPLINE
  5
3E6
100
AcDbEntity
  8
127-112_FEATURES
100
AcDbSpline
 62
7
  6
CONTINUOUS
 70
0
 71
3
 72
12
 73
8
 74
6
 42
0.0000001
 43
0.0000001
 44
0.0000000001
 12
0.0
 22
0.0348561096
 32
0.0
 13
0.0314544951
 23
0.0150187587
 33
0.0
 40
0.0
 40
0.0
 40
0.0
 40
0.0
 40
0.1960221927
 40
0.4074838509
 40
0.6197104237
 40
0.8206084029
 40
1.0
 40
1.0
 40
1.0
 40
1.0
 10
5.5217089089
 20
3.9813608029
 30
0.0
 10
5.5217089089
 20
3.9836383266
 30
0.0
 10
5.5223224095
 20
3.9883799437
 30
0.0
 10
5.5246485491
 20
3.9952350937
 30
0.0
 10
5.5282413279
 20
4.0015942368
 30
0.0
 10
5.5327798998
 20
4.0068326791
 30
0.0
 10
5.5364450276
 20
4.0094249353
 30
0.0
 10
5.5383259183
 20
4.010323015
 30
0.0
 11
5.5217089089
 21
3.9813608029
 31
0.0
 11
5.5225111457
 21
3.9881461137
 31
0.0
 11
5.5248566167
 21
3.9951337054
 31
0.0
 11
5.5285144625
 21
4.0015634474
 31
0.0
 11
5.5331545489
 21
4.00680796
 31
0.0
 11
5.5383259183
 21
4.010323015
 31
0.0
  0
SPLINE
  5
3E7
100
AcDbEntity
  8
127-112_FEATURES
100
AcDbSpline
 62
7
  6
CONTINUOUS
 70
0
 71
3
 72
14
 73
10
 74
8
 42
0.0000001
 43
0.0000001
 44
0.0000000001
 12
0.0322072549
 22
-0.0000217868
 32
0.0
 13
0.0321881881
 23
-0.0011083978
 33
0.0
 40
0.0
 40
0.0
 40
0.0
 40
0.0
 40
0.1736266927
 40
0.3452179563
 40
0.5102416065
 40
0.6648976786
 40
0.8047114382
 40
0.9206707355
 40
1.0
 40
1.0
 40
1.0
 40
1.0
 10
5.5383259183
 20
3.7642804102
 30
0.0
 10
5.5401899313
 20
3.7642791492
 30
0.0
 10
5.5438961077
 20
3.7642651871
 30
0.0
 10
5.5493737037
 20
3.7642115103
 30
0.0
 10
5.5546472568
 20
3.7641293813
 30
0.0
 10
5.5595792043
 20
3.7640260016
 30
0.0
 10
5.5639840156
 20
3.7639121728
 30
0.0
 10
5.5675799805
 20
3.7638042295
 30
0.0
 10
5.5696754006
 20
3.7637347312
 30
0.0
 10
5.5705265557
 20
3.7637054218
 30
0.0
 11
5.5383259183
 21
3.7642804102
 31
0.0
 11
5.5439179194
 21
3.7642594501
 31
0.0
 11
5.5494441399
 21
3.7642053982
 31
0.0
 11
5.5547584569
 21
3.7641227234
 31
0.0
 11
5.5597384132
 21
3.7640184097
 31
0.0
 11
5.5642399302
 21
3.7639021346
 31
0.0
 11
5.5679729811
 21
3.7637901061
 31
0.0
 11
5.5705265557
 21
3.7637054218
 31
0.0
  0
SPLINE
  5
3E8
100
AcDbEntity
  8
127-112_FEATURES
100
AcDbSpline
 62
7
  6
CONTINUOUS
 70
0
 71
3
 72
9
 73
5
 74
3
 42
0.0000001
 43
0.0000001
 44
0.0000000001
 12
0.0010333998
 22
-0.000035585
 32
0.0
 13
0.0010333626
 23
-0.0000366427
 33
0.0
 40
0.0
 40
0.0
 40
0.0
 40
0.0
 40
0.04858488
 40
1.0
 40
1.0
 40
1.0
 40
1.0
 10
5.5705265557
 20
3.7637054218
 30
0.0
 10
5.5705432916
 20
3.7637048455
 30
0.0
 10
5.5708877579
 20
3.7636929752
 30
0.0
 10
5.5712322181
 20
3.7636809284
 30
0.0
 10
5.571559937
 20
3.7636693076
 30
0.0
 11
5.5705265557
 21
3.7637054218
 31
0.0
 11
5.5705767633
 21
3.7637036916
 31
0.0
 11
5.571559937
 21
3.7636693076
 31
0.0
  0
SPLINE
  5
3E9
100
AcDbEntity
  8
127-112_FEATURES
100
AcDbSpline
 62
7
  6
CONTINUOUS
 70
0
 71
3
 72
11
 73
7
 74
5
 42
0.0000001
 43
0.0000001
 44
0.0000000001
 12
0.0213300142
 22
-0.0002472732
 32
0.0
 13
0.019098175
 23
-0.0095417928
 33
0.0
 40
0.0
 40
0.0
 40
0.0
 40
0.0
 40
0.2617306892
 40
0.5239312893
 40
0.7827895951
 40
1.0
 40
1.0
 40
1.0
 40
1.0
 10
5.5383259183
 20
4.010323015
 30
0.0
 10
5.5401868247
 20
4.010301442
 30
0.0
 10
5.5439126789
 20
4.0100616396
 30
0.0
 10
5.5494079281
 20
4.0091126614
 30
0.0
 10
5.5544588456
 20
4.0076379603
 30
0.0
 10
5.5575832239
 20
4.0063139294
 30
0.0
 10
5.558965998
 20
4.0056230705
 30
0.0
 11
5.5383259183
 21
4.010323015
 31
0.0
 11
5.5438974056
 21
4.0099631916
 31
0.0
 11
5.5494078372
 21
4.0090050082
 31
0.0
 11
5.5547045559
 21
4.0074444657
 31
0.0
 11
5.558965998
 21
4.0056230705
 31
0.0
  0
SPLINE
  5
3EA
100
AcDbEntity
  8
0
100
AcDbSpline
 62
7
  6
CONTINUOUS
 70
0
 71
3
 72
8
 73
4
 74
2
 42
0.0000001
 43
0.0000001
 44
0.0000000001
 12
-0.0010333626
 22
-0.0000366427
 32
0.0
 13
-0.0010333998
 23
-0.000035585
 33
0.0
 40
0.0
 40
0.0
 40
0.0
 40
0.0
 40
1.0
 40
1.0
 40
1.0
 40
1.0
 10
5.571559937
 20
4.6676693076
 30
0.0
 10
5.5712154828
 20
4.6676570934
 30
0.0
 10
5.5708710223
 20
4.6676450551
 30
0.0
 10
5.5705265557
 20
4.6676331934
 30
0.0
 11
5.571559937
 21
4.6676693076
 31
0.0
 11
5.5705265557
 21
4.6676331934
 31
0.0
  0
SPLINE
  5
3EB
100
AcDbEntity
  8
0
100
AcDbSpline
 62
7
  6
CONTINUOUS
 70
0
 71
3
 72
15
 73
11
 74
9
 42
0.0000001
 43
0.0000001
 44
0.0000000001
 12
-0.0321881913
 22
-0.0011083979
 32
0.0
 13
-0.0322072575
 23
-0.0000217868
 33
0.0
 40
0.0
 40
0.0
 40
0.0
 40
0.0
 40
0.0038692182
 40
0.0965825222
 40
0.222041752
 40
0.3668992196
 40
0.5199963872
 40
0.6767727935
 40
0.8370561426
 40
1.0
 40
1.0
 40
1.0
 40
1.0
 10
5.5705265557
 20
4.6676331934
 30
0.0
 10
5.5704850413
 20
4.6676317639
 30
0.0
 10
5.5694487669
 20
4.6675961439
 30
0.0
 10
5.5670662609
 20
4.66751793
 30
0.0
 10
5.5631705213
 20
4.6674037691
 30
0.0
 10
5.5586262423
 20
4.667290717
 30
0.0
 10
5.5537453085
 20
4.6671934766
 30
0.0
 10
5.5486983386
 20
4.6671193708
 30
0.0
 10
5.5435453319
 20
4.6670718012
 30
0.0
 10
5.5400752432
 20
4.6670593884
 30
0.0
 10
5.5383259183
 20
4.667058205
 30
0.0
 11
5.5705265557
 21
4.6676331934
 31
0.0
 11
5.5704020123
 21
4.6676289125
 31
0.0
 11
5.5674175776
 21
4.6675309533
 31
0.0
 11
5.5633786117
 21
4.667412633
 31
0.0
 11
5.5587145904
 21
4.6672966608
 31
0.0
 11
5.5537847263
 21
4.667198516
 31
0.0
 11
5.5487359301
 21
4.6671244598
 31
0.0
 11
5.543573861
 21
4.6670768894
 31
0.0
 11
5.5383259183
 21
4.667058205
 31
0.0
  0
SPLINE
  5
3EC
100
AcDbEntity
  8
127-112_FEATURES
100
AcDbSpline
 62
7
  6
CONTINUOUS
 70
0
 71
3
 72
12
 73
8
 74
6
 42
0.0000001
 43
0.0000001
 44
0.0000000001
 12
-0.0191043484
 22
-0.009539917
 32
0.0
 13
-0.0213309306
 23
-0.0002472838
 33
0.0
 40
0.0
 40
0.0
 40
0.0
 40
0.0
 40
0.013129639
 40
0.2628512854
 40
0.5083272739
 40
0.75352708
 40
1.0
 40
1.0
 40
1.0
 40
1.0
 10
5.5589658834
 20
4.42571546
 30
0.0
 10
5.5588822723
 20
4.4256737081
 30
0.0
 10
5.5572053009
 20
4.4248441843
 30
0.0
 10
5.5538462052
 20
4.4234830746
 30
0.0
 10
5.5487570516
 20
4.4220931035
 30
0.0
 10
5.5435748414
 20
4.4212502571
 30
0.0
 10
5.5400784172
 20
4.4210359164
 30
0.0
 10
5.5383259183
 20
4.4210156002
 30
0.0
 11
5.5589658834
 21
4.42571546
 31
0.0
 11
5.5587145904
 21
4.425591151
 31
0.0
 11
5.5537847263
 21
4.4235724884
 31
0.0
 11
5.5487359301
 21
4.4221827185
 31
0.0
 11
5.543573861
 21
4.4213382209
 31
0.0
 11
5.5383259183
 21
4.4210156002
 31
0.0
  0
SPLINE
  5
3ED
100
AcDbEntity
  8
127-112_FEATURES
100
AcDbSpline
 62
7
  6
CONTINUOUS
 70
0
 71
3
 72
10
 73
6
 74
4
 42
0.0000001
 43
0.0000001
 44
0.0000000001
 12
-0.0130991901
 22
0.0066644422
 32
0.0
 13
0.0
 23
0.0145728581
 33
0.0
 40
0.0
 40
0.0
 40
0.0
 40
0.0
 40
0.2419280014
 40
0.5900160947
 40
1.0
 40
1.0
 40
1.0
 40
1.0
 10
5.5276378931
 20
3.9687456846
 30
0.0
 10
5.5265815394
 20
3.969283123
 30
0.0
 10
5.5242635247
 20
3.9711430003
 30
0.0
 10
5.5221219375
 20
3.9756592229
 30
0.0
 10
5.5217089089
 20
3.9793692572
 30
0.0
 10
5.5217089089
 20
3.9813608029
 30
0.0
 11
5.5276378931
 21
3.9687456846
 31
0.0
 11
5.5248578825
 21
3.9709436626
 31
0.0
 11
5.5225097064
 21
3.9754400754
 31
0.0
 11
5.5217089089
 21
3.9813608029
 31
0.0
  0
SPLINE
  5
3EE
100
AcDbEntity
  8
127-112_FEATURES
100
AcDbSpline
 62
7
  6
CONTINUOUS
 70
0
 71
3
 72
12
 73
8
 74
6
 42
0.0000001
 43
0.0000001
 44
0.0000000001
 12
0.0163156943
 22
0.0175153307
 32
0.0
 13
0.0169261459
 23
0.0169261459
 33
0.0
 40
0.0
 40
0.0
 40
0.0
 40
0.0
 40
0.0491261793
 40
0.1922570078
 40
0.4140004121
 40
0.6927206144
 40
1.0
 40
1.0
 40
1.0
 40
1.0
 10
5.5217089089
 20
3.7470522982
 30
0.0
 10
5.5219760848
 20
3.7473391187
 30
0.0
 10
5.5230226107
 20
3.7484607404
 30
0.0
 10
5.5252839832
 20
3.7508687064
 30
0.0
 10
5.5288227796
 20
3.7545900706
 30
0.0
 10
5.533304998
 20
3.7592214231
 30
0.0
 10
5.5365922331
 20
3.7625467249
 30
0.0
 10
5.5383259183
 20
3.7642804102
 30
0.0
 11
5.5217089089
 21
3.7470522982
 31
0.0
 11
5.5225111457
 21
3.7479120987
 31
0.0
 11
5.5248566167
 21
3.7504095501
 31
0.0
 11
5.5285144625
 21
3.7542558605
 31
0.0
 11
5.5331545489
 21
3.7590498366
 31
0.0
 11
5.5383259183
 21
3.7642804102
 31
0.0
  0
SPLINE
  5
3EF
100
AcDbEntity
  8
0
100
AcDbSpline
 62
7
  6
CONTINUOUS
 70
0
 71
3
 72
15
 73
11
 74
9
 42
0.0000001
 43
0.0000001
 44
0.0000000001
 12
0.144303637
 22
0.2708573861
 32
0.0
 13
-0.144303637
 23
0.2708573861
 33
0.0
 40
0.0
 40
0.0
 40
0.0
 40
0.0
 40
0.1355060615
 40
0.2616268072
 40
0.3821382325
 40
0.5000411188
 40
0.6179405518
 40
0.7384429083
 40
0.8645194725
 40
1.0
 40
1.0
 40
1.0
 40
1.0
 10
4.7319002924
 20
3.5822839981
 30
0.0
 10
4.7384182983
 20
3.5945182707
 30
0.0
 10
4.7500515633
 20
3.6186732515
 30
0.0
 10
4.7632595456
 20
3.6555556803
 30
0.0
 10
4.7713560155
 20
3.6920748168
 30
0.0
 10
4.7740984107
 20
3.7285566493
 30
0.0
 10
4.771352381
 20
3.765037254
 30
0.0
 10
4.7632541515
 20
3.8015500001
 30
0.0
 10
4.7500474102
 20
3.8384242058
 30
0.0
 10
4.7384170701
 20
3.8625726499
 30
0.0
 10
4.7319002924
 20
3.8748046171
 30
0.0
 11
4.7319002924
 21
3.5822839981
 31
0.0
 11
4.7497739427
 21
3.619833819
 31
0.0
 11
4.7626567233
 21
3.6563333841
 31
0.0
 11
4.7705298427
 21
3.6924705666
 31
0.0
 11
4.7731903628
 21
3.7285569534
 31
0.0
 11
4.7705263204
 21
3.7646420176
 31
0.0
 11
4.7626508073
 21
3.8007758299
 31
0.0
 11
4.7497709271
 21
3.8372620396
 31
0.0
 11
4.7319002924
 21
3.8748046171
 31
0.0
  0
SPLINE
  5
3F0
100
AcDbEntity
  8
0
100
AcDbSpline
 62
7
  6
CONTINUOUS
 70
0
 71
3
 72
15
 73
11
 74
9
 42
0.0000001
 43
0.0000001
 44
0.0000000001
 12
-0.1524995809
 22
0.5724822844
 32
0.0
 13
0.1524995809
 23
0.5724822844
 33
0.0
 40
0.0
 40
0.0
 40
0.0
 40
0.0
 40
0.1303027146
 40
0.2554233163
 40
0.3781382012
 40
0.500042666
 40
0.6219428883
 40
0.7446469008
 40
0.8697222521
 40
1.0
 40
1.0
 40
1.0
 40
1.0
 10
4.3339365896
 20
3.9231486887
 30
0.0
 10
4.3273128864
 20
3.9480140206
 30
0.0
 10
4.3155410947
 20
3.9970931452
 30
0.0
 10
4.3024408566
 20
4.0706587652
 30
0.0
 10
4.2944467771
 20
4.143296855
 30
0.0
 10
4.2917484674
 20
4.2156937853
 30
0.0
 10
4.2944503605
 20
4.2880884228
 30
0.0
 10
4.302446251
 20
4.3607142938
 30
0.0
 10
4.3155453691
 20
4.4342637918
 30
0.0
 10
4.3273141556
 20
4.483329359
 30
0.0
 10
4.3339365896
 20
4.5081899265
 30
0.0
 11
4.3339365896
 21
3.9231486887
 31
0.0
 11
4.3160629393
 21
3.9982483304
 31
0.0
 11
4.3031801587
 21
4.0712474606
 31
0.0
 11
4.2953070393
 21
4.1435218255
 31
0.0
 11
4.2926465192
 21
4.2156945991
 31
0.0
 11
4.2953105616
 21
4.2878647276
 31
0.0
 11
4.3031860747
 21
4.3601323523
 31
0.0
 11
4.3160659549
 21
4.4331047716
 31
0.0
 11
4.3339365896
 21
4.5081899265
 31
0.0
  0
SPLINE
  5
3F1
100
AcDbEntity
  8
0
100
AcDbSpline
 62
7
  6
CONTINUOUS
 70
0
 71
3
 72
15
 73
11
 74
9
 42
0.0000001
 43
0.0000001
 44
0.0000000001
 12
0.1524995809
 22
0.5724822844
 32
0.0
 13
-0.1524995809
 23
0.5724822844
 33
0.0
 40
0.0
 40
0.0
 40
0.0
 40
0.0
 40
0.1303027146
 40
0.2554233163
 40
0.3781382012
 40
0.500042666
 40
0.6219428883
 40
0.7446469008
 40
0.8697222521
 40
1.0
 40
1.0
 40
1.0
 40
1.0
 10
4.7319002924
 20
3.9231486887
 30
0.0
 10
4.7385239956
 20
3.9480140206
 30
0.0
 10
4.7502957874
 20
3.9970931452
 30
0.0
 10
4.7633960254
 20
4.0706587652
 30
0.0
 10
4.771390105
 20
4.143296855
 30
0.0
 10
4.7740884147
 20
4.2156937853
 30
0.0
 10
4.7713865215
 20
4.2880884228
 30
0.0
 10
4.763390631
 20
4.3607142938
 30
0.0
 10
4.7502915129
 20
4.4342637918
 30
0.0
 10
4.7385227264
 20
4.483329359
 30
0.0
 10
4.7319002924
 20
4.5081899265
 30
0.0
 11
4.7319002924
 21
3.9231486887
 31
0.0
 11
4.7497739427
 21
3.9982483304
 31
0.0
 11
4.7626567233
 21
4.0712474606
 31
0.0
 11
4.7705298427
 21
4.1435218255
 31
0.0
 11
4.7731903628
 21
4.2156945991
 31
0.0
 11
4.7705263204
 21
4.2878647276
 31
0.0
 11
4.7626508073
 21
4.3601323523
 31
0.0
 11
4.7497709271
 21
4.4331047716
 31
0.0
 11
4.7319002924
 21
4.5081899265
 31
0.0
  0
SPLINE
  5
3F2
100
AcDbEntity
  8
0
100
AcDbSpline
 62
7
  6
CONTINUOUS
 70
0
 71
3
 72
15
 73
11
 74
9
 42
0.0000001
 43
0.0000001
 44
0.0000000001
 12
-0.144303637
 22
0.2708573861
 32
0.0
 13
0.144303637
 23
0.2708573861
 33
0.0
 40
0.0
 40
0.0
 40
0.0
 40
0.0
 40
0.1355060615
 40
0.2616268072
 40
0.3821382325
 40
0.5000411188
 40
0.6179405518
 40
0.7384429083
 40
0.8645194725
 40
1.0
 40
1.0
 40
1.0
 40
1.0
 10
4.3339365896
 20
4.5565339981
 30
0.0
 10
4.3274185837
 20
4.5687682707
 30
0.0
 10
4.3157853187
 20
4.5929232515
 30
0.0
 10
4.3025773364
 20
4.6298056803
 30
0.0
 10
4.2944808665
 20
4.6663248168
 30
0.0
 10
4.2917384713
 20
4.7028066493
 30
0.0
 10
4.294484501
 20
4.739287254
 30
0.0
 10
4.3025827305
 20
4.7758000001
 30
0.0
 10
4.3157894718
 20
4.8126742058
 30
0.0
 10
4.3274198119
 20
4.8368226499
 30
0.0
 10
4.3339365896
 20
4.8490546171
 30
0.0
 11
4.3339365896
 21
4.5565339981
 31
0.0
 11
4.3160629393
 21
4.594083819
 31
0.0
 11
4.3031801587
 21
4.6305833841
 31
0.0
 11
4.2953070393
 21
4.6667205666
 31
0.0
 11
4.2926465192
 21
4.7028069534
 31
0.0
 11
4.2953105616
 21
4.7388920176
 31
0.0
 11
4.3031860747
 21
4.7750258299
 31
0.0
 11
4.3160659549
 21
4.8115120396
 31
0.0
 11
4.3339365896
 21
4.8490546171
 31
0.0
  0
SPLINE
  5
3F3
100
AcDbEntity
  8
0
100
AcDbSpline
 62
7
  6
CONTINUOUS
 70
0
 71
3
 72
15
 73
11
 74
9
 42
0.0000001
 43
0.0000001
 44
0.0000000001
 12
0.144303637
 22
0.2708573861
 32
0.0
 13
-0.144303637
 23
0.2708573861
 33
0.0
 40
0.0
 40
0.0
 40
0.0
 40
0.0
 40
0.1355060615
 40
0.2616268072
 40
0.3821382325
 40
0.5000411188
 40
0.6179405518
 40
0.7384429083
 40
0.8645194725
 40
1.0
 40
1.0
 40
1.0
 40
1.0
 10
4.7319002924
 20
4.5565339981
 30
0.0
 10
4.7384182983
 20
4.5687682707
 30
0.0
 10
4.7500515633
 20
4.5929232515
 30
0.0
 10
4.7632595456
 20
4.6298056803
 30
0.0
 10
4.7713560155
 20
4.6663248168
 30
0.0
 10
4.7740984107
 20
4.7028066493
 30
0.0
 10
4.771352381
 20
4.739287254
 30
0.0
 10
4.7632541515
 20
4.7758000001
 30
0.0
 10
4.7500474102
 20
4.8126742058
 30
0.0
 10
4.7384170701
 20
4.8368226499
 30
0.0
 10
4.7319002924
 20
4.8490546171
 30
0.0
 11
4.7319002924
 21
4.5565339981
 31
0.0
 11
4.7497739427
 21
4.594083819
 31
0.0
 11
4.7626567233
 21
4.6305833841
 31
0.0
 11
4.7705298427
 21
4.6667205666
 31
0.0
 11
4.7731903628
 21
4.7028069534
 31
0.0
 11
4.7705263204
 21
4.7388920176
 31
0.0
 11
4.7626508073
 21
4.7750258299
 31
0.0
 11
4.7497709271
 21
4.8115120396
 31
0.0
 11
4.7319002924
 21
4.8490546171
 31
0.0
  0
SPLINE
  5
3F4
100
AcDbEntity
  8
127-112_FEATURES
100
AcDbSpline
 62
7
  6
CONTINUOUS
 70
0
 71
3
 72
11
 73
7
 74
5
 42
0.0000001
 43
0.0000001
 44
0.0000000001
 12
0.0
 22
-0.0213057645
 32
0.0
 13
-0.0190805271
 23
-0.0095280216
 33
0.0
 40
0.0
 40
0.0
 40
0.0
 40
0.0
 40
0.2524914269
 40
0.5059407808
 40
0.7587836828
 40
1.0
 40
1.0
 40
1.0
 40
1.0
 10
5.571559937
 20
4.4416693076
 30
0.0
 10
5.571559937
 20
4.4398761333
 30
0.0
 10
5.570705755
 20
4.4362523963
 30
0.0
 10
5.5675858887
 20
4.4317608643
 30
0.0
 10
5.5635354471
 20
4.4282689494
 30
0.0
 10
5.5605000616
 20
4.4264815648
 30
0.0
 10
5.5589658834
 20
4.42571546
 30
0.0
 11
5.571559937
 21
4.4416693076
 31
0.0
 11
5.5704020123
 21
4.4364158824
 31
0.0
 11
5.5674175776
 21
4.4319156137
 31
0.0
 11
5.5633786117
 21
4.4283509756
 31
0.0
 11
5.5589658834
 21
4.42571546
 31
0.0
  0
SPLINE
  5
3F5
100
AcDbEntity
  8
127-112_FEATURES
100
AcDbSpline
 62
7
  6
CONTINUOUS
 70
0
 71
3
 72
15
 73
11
 74
9
 42
0.0000001
 43
0.0000001
 44
0.0000000001
 12
0.0423229939
 22
-0.0004620096
 32
0.0
 13
-0.0
 23
-0.0423255155
 33
0.0
 40
0.0
 40
0.0
 40
0.0
 40
0.0
 40
0.1318776904
 40
0.2638114549
 40
0.393737115
 40
0.5208031442
 40
0.6449565338
 40
0.7650265912
 40
0.8811899937
 40
1.0
 40
1.0
 40
1.0
 40
1.0
 10
5.5383259183
 20
4.4617119124
 30
0.0
 10
5.5401864045
 20
4.4616916028
 30
0.0
 10
5.543908808
 20
4.4614662097
 30
0.0
 10
5.5494010986
 20
4.4605722905
 30
0.0
 10
5.5547018063
 20
4.459108443
 30
0.0
 10
5.559686279
 20
4.4570494213
 30
0.0
 10
5.5642021168
 20
4.4543483852
 30
0.0
 10
5.5680231956
 20
4.4509324057
 30
0.0
 10
5.570824035
 20
4.4466916355
 30
0.0
 10
5.571559937
 20
4.4433455392
 30
0.0
 10
5.571559937
 20
4.4416693076
 30
0.0
 11
5.5383259183
 21
4.4617119124
 31
0.0
 11
5.5438974056
 21
4.4613729098
 31
0.0
 11
5.5494078372
 21
4.4604684557
 31
0.0
 11
5.5547045559
 21
4.4589900621
 31
0.0
 11
5.5596655597
 21
4.4569133389
 31
0.0
 11
5.5641533304
 21
4.4541795817
 31
0.0
 11
5.5678989877
 21
4.4507448982
 31
0.0
 11
5.5705299815
 21
4.4465913969
 31
0.0
 11
5.571559937
 21
4.4416693076
 31
0.0
  0
SPLINE
  5
3F6
100
AcDbEntity
  8
127-112_FEATURES
100
AcDbSpline
 62
7
  6
CONTINUOUS
 70
0
 71
3
 72
10
 73
6
 74
4
 42
0.0000001
 43
0.0000001
 44
0.0000000001
 12
-0.0098034258
 22
-0.0051225277
 32
0.0
 13
-0.0099425359
 23
0.0050584391
 33
0.0
 40
0.0
 40
0.0
 40
0.0
 40
0.0
 40
0.4921155489
 40
0.9150252223
 40
1.0
 40
1.0
 40
1.0
 40
1.0
 10
5.5383259183
 20
3.9696267028
 30
0.0
 10
5.5367177789
 20
3.9687864109
 30
0.0
 10
5.5334846259
 20
3.9675893791
 30
0.0
 10
5.5296477141
 20
3.9678416939
 30
0.0
 10
5.5279195147
 20
3.9686024047
 30
0.0
 10
5.5276378931
 20
3.9687456846
 30
0.0
 11
5.5383259183
 21
3.9696267028
 31
0.0
 11
5.5331597647
 21
3.9679118611
 31
0.0
 11
5.5285039818
 21
3.9683655612
 31
0.0
 11
5.5276378931
 21
3.9687456846
 31
0.0
  0
SPLINE
  5
3F7
100
AcDbEntity
  8
127-112_FEATURES
100
AcDbSpline
 62
7
  6
CONTINUOUS
 70
0
 71
3
 72
10
 73
6
 74
4
 42
0.0000001
 43
0.0000001
 44
0.0000000001
 12
0.0099426441
 22
0.0050571442
 32
0.0
 13
0.0098022812
 23
-0.0051219296
 33
0.0
 40
0.0
 40
0.0
 40
0.0
 40
0.0
 40
0.0858413206
 40
0.5073601126
 40
1.0
 40
1.0
 40
1.0
 40
1.0
 10
5.5276393669
 20
4.462593496
 30
0.0
 10
5.5279238635
 20
4.4627382
 30
0.0
 10
5.5296506846
 20
4.4634970024
 30
0.0
 10
5.5334859361
 20
4.4637482672
 30
0.0
 10
5.5367162534
 20
4.4625530014
 30
0.0
 10
5.5383259183
 20
4.4617119124
 30
0.0
 11
5.5276393669
 21
4.462593496
 31
0.0
 11
5.5285144625
 21
4.4629768945
 31
0.0
 11
5.5331545489
 21
4.463427431
 31
0.0
 11
5.5383259183
 21
4.4617119124
 31
0.0
  0
SPLINE
  5
3F8
100
AcDbEntity
  8
127-112_FEATURES
100
AcDbSpline
 62
7
  6
CONTINUOUS
 70
0
 71
3
 72
15
 73
11
 74
9
 42
0.0000001
 43
0.0000001
 44
0.0000000001
 12
0.0
 22
-0.0423174824
 32
0.0
 13
-0.0423149613
 23
-0.0004619219
 33
0.0
 40
0.0
 40
0.0
 40
0.0
 40
0.0
 40
0.1261909119
 40
0.2518734656
 40
0.3773407307
 40
0.5040319747
 40
0.6290569423
 40
0.7523491886
 40
0.8757786064
 40
1.0
 40
1.0
 40
1.0
 40
1.0
 10
5.571559937
 20
3.9896693076
 30
0.0
 10
5.571559937
 20
3.9878892804
 30
0.0
 10
5.5707169387
 20
3.9843015578
 30
0.0
 10
5.5675845519
 20
3.9798933125
 30
0.0
 10
5.5634556539
 20
3.9764594658
 30
0.0
 10
5.558787659
 20
3.9738596873
 30
0.0
 10
5.5538381366
 20
3.9719547296
 30
0.0
 10
5.5487513028
 20
3.9706412595
 30
0.0
 10
5.5435716105
 20
3.9698473332
 30
0.0
 10
5.5400780594
 20
3.9696458296
 30
0.0
 10
5.5383259183
 20
3.9696267028
 30
0.0
 11
5.571559937
 21
3.9896693076
 31
0.0
 11
5.5704020123
 21
3.9844562775
 31
0.0
 11
5.5674175776
 21
3.980053968
 31
0.0
 11
5.5633786117
 21
3.9766076502
 31
0.0
 11
5.5587145904
 21
3.9739637977
 31
0.0
 11
5.5537847263
 21
3.9720432799
 31
0.0
 11
5.5487359301
 21
3.9707275663
 31
0.0
 11
5.543573861
 21
3.9699306391
 31
0.0
 11
5.5383259183
 21
3.9696267028
 31
0.0
  0
SPLINE
  5
3F9
100
AcDbEntity
  8
127-112_FEATURES
100
AcDbSpline
 62
7
  6
CONTINUOUS
 70
0
 71
3
 72
12
 73
8
 74
6
 42
0.0000001
 43
0.0000001
 44
0.0000000001
 12
0.0190828808
 22
-0.0095341515
 32
0.0
 13
0.0
 23
-0.0213143648
 33
0.0
 40
0.0
 40
0.0
 40
0.0
 40
0.0
 40
0.0368561768
 40
0.2862601716
 40
0.528277891
 40
0.7624168816
 40
1.0
 40
1.0
 40
1.0
 40
1.0
 10
5.558965998
 20
4.0056230705
 30
0.0
 10
5.5592004387
 20
4.0055059397
 30
0.0
 10
5.5610117838
 20
4.0045768205
 30
0.0
 10
5.5642095101
 20
4.002579609
 30
0.0
 10
5.568023092
 20
3.9990521317
 30
0.0
 10
5.5708141838
 20
3.9947363082
 30
0.0
 10
5.571559937
 20
3.9913572853
 30
0.0
 10
5.571559937
 20
3.9896693076
 30
0.0
 11
5.558965998
 21
4.0056230705
 31
0.0
 11
5.5596655597
 21
4.0052641521
 31
0.0
 11
5.5641533304
 21
4.0024148404
 31
0.0
 11
5.5678989877
 21
3.9988680534
 31
0.0
 11
5.5705299815
 21
3.9946273931
 31
0.0
 11
5.571559937
 21
3.9896693076
 31
0.0
  0
SPLINE
  5
3FA
100
AcDbEntity
  8
0
100
AcDbSpline
 62
7
  6
CONTINUOUS
 70
0
 71
3
 72
15
 73
11
 74
9
 42
0.0000001
 43
0.0000001
 44
0.0000000001
 12
-0.144303637
 22
0.2708573861
 32
0.0
 13
0.144303637
 23
0.2708573861
 33
0.0
 40
0.0
 40
0.0
 40
0.0
 40
0.0
 40
0.1355060615
 40
0.2616268072
 40
0.3821382325
 40
0.5000411188
 40
0.6179405518
 40
0.7384429083
 40
0.8645194725
 40
1.0
 40
1.0
 40
1.0
 40
1.0
 10
4.3339365896
 20
3.5822839981
 30
0.0
 10
4.3274185837
 20
3.5945182707
 30
0.0
 10
4.3157853187
 20
3.6186732515
 30
0.0
 10
4.3025773364
 20
3.6555556803
 30
0.0
 10
4.2944808665
 20
3.6920748168
 30
0.0
 10
4.2917384713
 20
3.7285566493
 30
0.0
 10
4.294484501
 20
3.765037254
 30
0.0
 10
4.3025827305
 20
3.8015500001
 30
0.0
 10
4.3157894718
 20
3.8384242058
 30
0.0
 10
4.3274198119
 20
3.8625726499
 30
0.0
 10
4.3339365896
 20
3.8748046171
 30
0.0
 11
4.3339365896
 21
3.5822839981
 31
0.0
 11
4.3160629393
 21
3.619833819
 31
0.0
 11
4.3031801587
 21
3.6563333841
 31
0.0
 11
4.2953070393
 21
3.6924705666
 31
0.0
 11
4.2926465192
 21
3.7285569534
 31
0.0
 11
4.2953105616
 21
3.7646420176
 31
0.0
 11
4.3031860747
 21
3.8007758299
 31
0.0
 11
4.3160659549
 21
3.8372620396
 31
0.0
 11
4.3339365896
 21
3.8748046171
 31
0.0
  0
ENDSEC
  0
SECTION
  2
OBJECTS
  0
DICTIONARY
  5
C
100
AcDbDictionary
280
0
281
1
  3
ACAD_GROUP
350
D
  3
ACAD_MLINESTYLE
350
17
  3
ACAD_LAYOUT
350
1A
  3
ACAD_PLOTSETTINGS
350
19
  3
ACAD_PLOTSTYLENAME
350
E
  0
DICTIONARY
  5
D
102
{ACAD_REACTORS
330
C
102
}
100
AcDbDictionary
280
0
281
1
  0
ACDBDICTIONARYWDFLT
  5
E
102
{ACAD_REACTORS
330
C
102
}
100
AcDbDictionary
281
1
  3
Normal
350
F
100
AcDbDictionaryWithDefault
340
F
  0
DICTIONARY
  5
17
102
{ACAD_REACTORS
330
C
102
}
100
AcDbDictionary
280
0
281
1
  3
Standard
350
18
  0
DICTIONARY
  5
19
102
{ACAD_REACTORS
330
C
102
}
100
AcDbDictionary
281
1
  0
DICTIONARY
  5
1A
102
{ACAD_REACTORS
330
C
102
}
100
AcDbDictionary
281
1
  3
Layout1
350
1E
  3
Model
350
22
  0
ACDBPLACEHOLDER
  5
F
102
{ACAD_REACTORS
330
E
102
}
  0
MLINESTYLE
  5
18
102
{ACAD_REACTORS
330
17
102
}
100
AcDbMlineStyle
  2
STANDARD
 70
0
  3

 62
256
 51
90.0
 52
90.0
 71
2
 49
0.5
 62
256
  6
BYLAYER
 49
-0.5
 62
256
  6
BYLAYER
  0
LAYOUT
  5
1E
102
{ACAD_REACTORS
330
1A
102
}
100
AcDbPlotSettings
  1

  2

  4

  6

 40
0.0
 41
0.0
 42
0.0
 43
0.0
 44
0.0
 45
0.0
 46
0.0
 47
0.0
 48
0.0
 49
0.0
140
0.0
141
0.0
142
1.0
143
1.0
 70
0
 72
0
 73
0
 74
0
  7

 75
0
147
1.0
148
0.0
149
0.0
100
AcDbLayout
  1
Layout1
 70
0
 71
0
 10
0.0
 20
0.0
 11
0.0
 21
0.0
 12
0.0
 22
0.0
 32
0.0
 14
0.0
 24
0.0
 34
0.0
 15
0.0
 25
0.0
 35
0.0
146
0.0
 13
0.0
 23
0.0
 33
0.0
 16
0.0
 26
0.0
 36
0.0
 17
0.0
 27
0.0
 37
0.0
 76
0
330
1B
331
0
345
0
346
0
  0
LAYOUT
  5
22
102
{ACAD_REACTORS
330
1A
102
}
100
AcDbPlotSettings
  1

  2

  4

  6

 40
0.0
 41
0.0
 42
0.0
 43
0.0
 44
0.0
 45
0.0
 46
0.0
 47
0.0
 48
0.0
 49
0.0
140
0.0
141
0.0
142
1.0
143
1.0
 70
0
 72
0
 73
0
 74
0
  7

 75
0
147
1.0
148
0.0
149
0.0
100
AcDbLayout
  1
Model
 70
0
 71
0
 10
0.0
 20
0.0
 11
0.0
 21
0.0
 12
0.0
 22
0.0
 32
0.0
 14
0.0
 24
0.0
 34
0.0
 15
0.0
 25
0.0
 35
0.0
146
0.0
 13
0.0
 23
0.0
 33
0.0
 16
0.0
 26
0.0
 36
0.0
 17
0.0
 27
0.0
 37
0.0
 76
0
330
1F
331
0
345
0
346
0
  0
ENDSEC
  0
EOF
