999
DXF file: CXFA-XCN.dxf
999
Pro/ENGINEER 2006240 by Parametric Technology Corporation
  0
SECTION
  2
HEADER
  9
$ACADVER
  1
AC1015
  9
$DWGCODEPAGE
  3
ANSI_1252
  9
$EXTMAX
 10
11.6929133858
 20
8.2677165354
 30
0.0
  9
$EXTMIN
 10
0.0
 20
0.0
 30
0.0
  9
$LIMMIN
 10
0.0
 20
0.0
  9
$LIMMAX
 10
11.6929133858
 20
8.2677165354
  9
$VIEWCTR
 10
5.8464566929
 20
4.1338582677
  9
$VIEWSIZE
 40
8.2677165354
  9
$CLAYER
  8
0
  9
$LTSCALE
 40
0.6431102362
  9
$CELTYPE
  6
BYLAYER
  9
$DIMSCALE
 40
1.0
  9
$DIMASZ
 40
0.1875
  9
$DIMEXO
 40
0.0730807087
  9
$DIMDLI
 40
0.4443307087
  9
$DIMEXE
 40
0.2104724409
  9
$DIMCEN
 40
0.1052362205
  9
$DIMLFAC
 40
1.0
  9
$DIMBLK
  1
_CLOSED
  9
$DIMTXT
 40
0.15625
  9
$DIMTOL
 70
0
  9
$DIMLIM
 70
0
  9
$DIMTFAC
 40
1.0
  9
$PDMODE
 70
3
  9
$PDSIZE
 40
0.3125
  9
$HANDSEED
  5
419
  9
$MEASUREMENT
 70
0
  9
$INSUNITS
 70
1
  0
ENDSEC
  0
SECTION
  2
CLASSES
  0
CLASS
  1
ACDBDICTIONARYWDFLT
  2
AcDbDictionaryWithDefault
  3
AutoCAD 2000
 90
0
280
0
281
0
  0
CLASS
  1
ACDBPLACEHOLDER
  2
AcDbPlaceHolder
  3
AutoCAD 2000
 90
0
280
0
281
0
  0
CLASS
  1
LAYOUT
  2
AcDbLayout
  3
AutoCAD 2000
 90
0
280
0
281
0
  0
ENDSEC
  0
SECTION
  2
TABLES
  0
TABLE
  2
VPORT
  5
8
100
AcDbSymbolTable
 70
2
  0
VPORT
  5
1F4
100
AcDbSymbolTableRecord
100
AcDbViewportTableRecord
  2
*ACTIVE
 70
0
 10
0.0
 20
0.0
 11
1.0
 21
1.0
 12
5.8464566929
 22
4.1338582677
 13
0.0
 23
0.0
 14
1.0
 24
1.0
 15
0.0
 25
0.0
 16
0.0
 26
0.0
 36
1.0
 17
0.0
 27
0.0
 37
0.0
 40
8.2677165354
 41
1.4142857143
 42
50.0
 43
0.0
 44
0.0
 50
0.0
 51
0.0
 71
0
 72
100
 73
1
 74
1
 75
0
 76
0
 77
0
 78
0
  0
ENDTAB
  0
TABLE
  2
LTYPE
  5
5
100
AcDbSymbolTable
 70
6
  0
LTYPE
  5
14
100
AcDbSymbolTableRecord
100
AcDbLinetypeTableRecord
  2
BYBLOCK
 70
0
  3

 72
65
 73
0
 40
0.0
  0
LTYPE
  5
15
100
AcDbSymbolTableRecord
100
AcDbLinetypeTableRecord
  2
BYLAYER
 70
0
  3

 72
65
 73
0
 40
0.0
  0
LTYPE
  5
16
100
AcDbSymbolTableRecord
100
AcDbLinetypeTableRecord
  2
CONTINUOUS
 70
64
  3
Solid line
 72
65
 73
0
 40
0.0
  0
LTYPE
  5
1F5
100
AcDbSymbolTableRecord
100
AcDbLinetypeTableRecord
  2
CENTER
 70
64
  3
____ _ ____ _ ____ _ ____ _ ____ _ ____ _ ____
 72
65
 73
4
 40
0.6
 49
0.375
 74
0
 49
-0.075
 74
0
 49
0.075
 74
0
 49
-0.075
 74
0
  0
LTYPE
  5
1F6
100
AcDbSymbolTableRecord
100
AcDbLinetypeTableRecord
  2
HIDDEN
 70
64
  3
- - - - - - - - - - - - - - - - - - - -
 72
65
 73
2
 40
0.2
 49
0.1
 74
0
 49
-0.1
 74
0
  0
LTYPE
  5
1F7
100
AcDbSymbolTableRecord
100
AcDbLinetypeTableRecord
  2
PHANTOM
 70
64
  3
_____ _ _ _____ _ _ _____ _ _ _____
 72
65
 73
6
 40
0.8
 49
0.45
 74
0
 49
-0.05
 74
0
 49
0.1
 74
0
 49
-0.05
 74
0
 49
0.1
 74
0
 49
-0.05
 74
0
  0
LTYPE
  5
1F8
100
AcDbSymbolTableRecord
100
AcDbLinetypeTableRecord
  2
DOT
 70
64
  3
. . . . . . . . . . . . . . . . . . . .
 72
65
 73
2
 40
0.2
 49
0.1
 74
0
 49
-0.1
 74
0
  0
LTYPE
  5
1F9
100
AcDbSymbolTableRecord
100
AcDbLinetypeTableRecord
  2
DASHED
 70
64
  3
- - - - - - - - - - - - - - - - - - - -
 72
65
 73
2
 40
0.2
 49
0.1
 74
0
 49
-0.1
 74
0
  0
ENDTAB
  0
TABLE
  2
LAYER
  5
2
100
AcDbSymbolTable
 70
36
  0
LAYER
  5
10
100
AcDbSymbolTableRecord
100
AcDbLayerTableRecord
  2
0
 70
0
 62
7
  6
CONTINUOUS
370
-3
390
F
  0
LAYER
  5
1FA
100
AcDbSymbolTableRecord
100
AcDbLayerTableRecord
  2
DEFAULT_1
 70
0
 62
7
  6
CENTER
370
-3
390
F
  0
LAYER
  5
1FB
100
AcDbSymbolTableRecord
100
AcDbLayerTableRecord
  2
DEFAULT_2
 70
0
 62
8
  6
HIDDEN
370
-3
390
F
  0
LAYER
  5
1FC
100
AcDbSymbolTableRecord
100
AcDbLayerTableRecord
  2
DEFAULT_3
 70
0
 62
7
  6
PHANTOM
370
-3
390
F
  0
LAYER
  5
1FD
100
AcDbSymbolTableRecord
100
AcDbLayerTableRecord
  2
_BLACK_HOLE
 70
0
 62
7
  6
CONTINUOUS
370
-3
390
F
  0
LAYER
  5
1FE
100
AcDbSymbolTableRecord
100
AcDbLayerTableRecord
  2
01_ALL_DTM_PLN
 70
0
 62
7
  6
CONTINUOUS
370
-3
390
F
  0
LAYER
  5
1FF
100
AcDbSymbolTableRecord
100
AcDbLayerTableRecord
  2
01__ASM_ALL_DTM_PLN
 70
0
 62
7
  6
CONTINUOUS
370
-3
390
F
  0
LAYER
  5
200
100
AcDbSymbolTableRecord
100
AcDbLayerTableRecord
  2
01__ASM_DEF_DTM_PLN
 70
0
 62
7
  6
CONTINUOUS
370
-3
390
F
  0
LAYER
  5
201
100
AcDbSymbolTableRecord
100
AcDbLayerTableRecord
  2
01___PRT_ALL_DTM_PLN
 70
0
 62
7
  6
CONTINUOUS
370
-3
390
F
  0
LAYER
  5
202
100
AcDbSymbolTableRecord
100
AcDbLayerTableRecord
  2
01___PRT_DEF_DTM_PLN
 70
0
 62
7
  6
CONTINUOUS
370
-3
390
F
  0
LAYER
  5
203
100
AcDbSymbolTableRecord
100
AcDbLayerTableRecord
  2
02_ALL_AXES
 70
0
 62
7
  6
CONTINUOUS
370
-3
390
F
  0
LAYER
  5
204
100
AcDbSymbolTableRecord
100
AcDbLayerTableRecord
  2
02__ASM_ALL_AXES
 70
0
 62
7
  6
CONTINUOUS
370
-3
390
F
  0
LAYER
  5
205
100
AcDbSymbolTableRecord
100
AcDbLayerTableRecord
  2
02___PRT_ALL_AXES
 70
0
 62
7
  6
CONTINUOUS
370
-3
390
F
  0
LAYER
  5
206
100
AcDbSymbolTableRecord
100
AcDbLayerTableRecord
  2
03_ALL_CURVES
 70
0
 62
7
  6
CONTINUOUS
370
-3
390
F
  0
LAYER
  5
207
100
AcDbSymbolTableRecord
100
AcDbLayerTableRecord
  2
03__ASM_ALL_CURVES
 70
0
 62
7
  6
CONTINUOUS
370
-3
390
F
  0
LAYER
  5
208
100
AcDbSymbolTableRecord
100
AcDbLayerTableRecord
  2
03___PRT_ALL_CURVES
 70
0
 62
7
  6
CONTINUOUS
370
-3
390
F
  0
LAYER
  5
209
100
AcDbSymbolTableRecord
100
AcDbLayerTableRecord
  2
04_ALL_DTM_PNT
 70
0
 62
7
  6
CONTINUOUS
370
-3
390
F
  0
LAYER
  5
20A
100
AcDbSymbolTableRecord
100
AcDbLayerTableRecord
  2
04__ASM_ALL_DTM_PNT
 70
0
 62
7
  6
CONTINUOUS
370
-3
390
F
  0
LAYER
  5
20B
100
AcDbSymbolTableRecord
100
AcDbLayerTableRecord
  2
04___PRT_ALL_DTM_PNT
 70
0
 62
7
  6
CONTINUOUS
370
-3
390
F
  0
LAYER
  5
20C
100
AcDbSymbolTableRecord
100
AcDbLayerTableRecord
  2
05_ALL_DTM_CSYS
 70
0
 62
7
  6
CONTINUOUS
370
-3
390
F
  0
LAYER
  5
20D
100
AcDbSymbolTableRecord
100
AcDbLayerTableRecord
  2
05__ASM_ALL_DTM_CSYS
 70
0
 62
7
  6
CONTINUOUS
370
-3
390
F
  0
LAYER
  5
20E
100
AcDbSymbolTableRecord
100
AcDbLayerTableRecord
  2
05__ASM_DEF_DTM_CSYS
 70
0
 62
7
  6
CONTINUOUS
370
-3
390
F
  0
LAYER
  5
20F
100
AcDbSymbolTableRecord
100
AcDbLayerTableRecord
  2
05___PRT_ALL_DTM_CSYS
 70
0
 62
7
  6
CONTINUOUS
370
-3
390
F
  0
LAYER
  5
210
100
AcDbSymbolTableRecord
100
AcDbLayerTableRecord
  2
05___PRT_DEF_DTM_CSYS
 70
0
 62
7
  6
CONTINUOUS
370
-3
390
F
  0
LAYER
  5
211
100
AcDbSymbolTableRecord
100
AcDbLayerTableRecord
  2
06_ALL_SURFS
 70
0
 62
7
  6
CONTINUOUS
370
-3
390
F
  0
LAYER
  5
212
100
AcDbSymbolTableRecord
100
AcDbLayerTableRecord
  2
06__ASM_ALL_SURFS
 70
0
 62
7
  6
CONTINUOUS
370
-3
390
F
  0
LAYER
  5
213
100
AcDbSymbolTableRecord
100
AcDbLayerTableRecord
  2
06___PRT_ALL_SURFS
 70
0
 62
7
  6
CONTINUOUS
370
-3
390
F
  0
LAYER
  5
214
100
AcDbSymbolTableRecord
100
AcDbLayerTableRecord
  2
07__ASM_ALL_SKELETONS
 70
0
 62
7
  6
CONTINUOUS
370
-3
390
F
  0
LAYER
  5
215
100
AcDbSymbolTableRecord
100
AcDbLayerTableRecord
  2
127-002_FEATURES
 70
0
 62
7
  6
CONTINUOUS
370
-3
390
F
  0
LAYER
  5
216
100
AcDbSymbolTableRecord
100
AcDbLayerTableRecord
  2
127-002_REF_GEOMETRY
 70
0
 62
7
  6
CONTINUOUS
370
-3
390
F
  0
LAYER
  5
217
100
AcDbSymbolTableRecord
100
AcDbLayerTableRecord
  2
127-110_FEATURES
 70
0
 62
7
  6
CONTINUOUS
370
-3
390
F
  0
LAYER
  5
218
100
AcDbSymbolTableRecord
100
AcDbLayerTableRecord
  2
127-110_REF_GEOMETRY
 70
0
 62
7
  6
CONTINUOUS
370
-3
390
F
  0
LAYER
  5
219
100
AcDbSymbolTableRecord
100
AcDbLayerTableRecord
  2
127-112_FEATURES
 70
0
 62
7
  6
CONTINUOUS
370
-3
390
F
  0
LAYER
  5
21A
100
AcDbSymbolTableRecord
100
AcDbLayerTableRecord
  2
127-112_REF_GEOMETRY
 70
0
 62
7
  6
CONTINUOUS
370
-3
390
F
  0
LAYER
  5
21B
100
AcDbSymbolTableRecord
100
AcDbLayerTableRecord
  2
127-113_FEATURES
 70
0
 62
7
  6
CONTINUOUS
370
-3
390
F
  0
LAYER
  5
21C
100
AcDbSymbolTableRecord
100
AcDbLayerTableRecord
  2
127-113_REF_GEOMETRY
 70
0
 62
7
  6
CONTINUOUS
370
-3
390
F
  0
LAYER
  5
21D
100
AcDbSymbolTableRecord
100
AcDbLayerTableRecord
  2
127-114_FEATURES
 70
0
 62
7
  6
CONTINUOUS
370
-3
390
F
  0
LAYER
  5
21E
100
AcDbSymbolTableRecord
100
AcDbLayerTableRecord
  2
127-114_REF_GEOMETRY
 70
0
 62
7
  6
CONTINUOUS
370
-3
390
F
  0
LAYER
  5
21F
100
AcDbSymbolTableRecord
100
AcDbLayerTableRecord
  2
250-18_NPTF_PORT
 70
0
 62
7
  6
CONTINUOUS
370
-3
390
F
  0
LAYER
  5
220
100
AcDbSymbolTableRecord
100
AcDbLayerTableRecord
  2
COPY_GEO_FET
 70
0
 62
7
  6
CONTINUOUS
370
-3
390
F
  0
LAYER
  5
221
100
AcDbSymbolTableRecord
100
AcDbLayerTableRecord
  2
COSMETIC
 70
0
 62
7
  6
CONTINUOUS
370
-3
390
F
  0
LAYER
  5
222
100
AcDbSymbolTableRecord
100
AcDbLayerTableRecord
  2
CURVES
 70
0
 62
7
  6
CONTINUOUS
370
-3
390
F
  0
LAYER
  5
223
100
AcDbSymbolTableRecord
100
AcDbLayerTableRecord
  2
CUT_REF_SURF
 70
0
 62
7
  6
CONTINUOUS
370
-3
390
F
  0
LAYER
  5
224
100
AcDbSymbolTableRecord
100
AcDbLayerTableRecord
  2
DATUM
 70
0
 62
7
  6
CONTINUOUS
370
-3
390
F
  0
LAYER
  5
225
100
AcDbSymbolTableRecord
100
AcDbLayerTableRecord
  2
DATUMCURVES
 70
0
 62
7
  6
CONTINUOUS
370
-3
390
F
  0
LAYER
  5
226
100
AcDbSymbolTableRecord
100
AcDbLayerTableRecord
  2
DIMENSIONS
 70
0
 62
7
  6
CONTINUOUS
370
-3
390
F
  0
LAYER
  5
227
100
AcDbSymbolTableRecord
100
AcDbLayerTableRecord
  2
DRAWINGNOTES
 70
0
 62
7
  6
CONTINUOUS
370
-3
390
F
  0
LAYER
  5
228
100
AcDbSymbolTableRecord
100
AcDbLayerTableRecord
  2
DTM
 70
0
 62
7
  6
CONTINUOUS
370
-3
390
F
  0
LAYER
  5
229
100
AcDbSymbolTableRecord
100
AcDbLayerTableRecord
  2
DTM230
 70
0
 62
7
  6
CONTINUOUS
370
-3
390
F
  0
LAYER
  5
22A
100
AcDbSymbolTableRecord
100
AcDbLayerTableRecord
  2
DTM_500001
 70
0
 62
7
  6
CONTINUOUS
370
-3
390
F
  0
LAYER
  5
22B
100
AcDbSymbolTableRecord
100
AcDbLayerTableRecord
  2
DTM_500002
 70
0
 62
7
  6
CONTINUOUS
370
-3
390
F
  0
LAYER
  5
22C
100
AcDbSymbolTableRecord
100
AcDbLayerTableRecord
  2
DTM_515002
 70
0
 62
7
  6
CONTINUOUS
370
-3
390
F
  0
LAYER
  5
22D
100
AcDbSymbolTableRecord
100
AcDbLayerTableRecord
  2
DTM_SPRING_RH
 70
0
 62
7
  6
CONTINUOUS
370
-3
390
F
  0
LAYER
  5
22E
100
AcDbSymbolTableRecord
100
AcDbLayerTableRecord
  2
DTM_SP_RH_CONSTR
 70
0
 62
7
  6
CONTINUOUS
370
-3
390
F
  0
LAYER
  5
22F
100
AcDbSymbolTableRecord
100
AcDbLayerTableRecord
  2
GEOMETRICTOLERANCES
 70
0
 62
7
  6
CONTINUOUS
370
-3
390
F
  0
LAYER
  5
230
100
AcDbSymbolTableRecord
100
AcDbLayerTableRecord
  2
PARAMETERDIMENSIONS
 70
0
 62
7
  6
CONTINUOUS
370
-3
390
F
  0
LAYER
  5
231
100
AcDbSymbolTableRecord
100
AcDbLayerTableRecord
  2
PLANE
 70
0
 62
7
  6
CONTINUOUS
370
-3
390
F
  0
LAYER
  5
232
100
AcDbSymbolTableRecord
100
AcDbLayerTableRecord
  2
SAE-6_PORT
 70
0
 62
7
  6
CONTINUOUS
370
-3
390
F
  0
LAYER
  5
233
100
AcDbSymbolTableRecord
100
AcDbLayerTableRecord
  2
T-8A_CAVITY
 70
0
 62
7
  6
CONTINUOUS
370
-3
390
F
  0
LAYER
  5
234
100
AcDbSymbolTableRecord
100
AcDbLayerTableRecord
  2
T-8A_CAVITY_REF_GEOMETRY
 70
0
 62
7
  6
CONTINUOUS
370
-3
390
F
  0
LAYER
  5
235
100
AcDbSymbolTableRecord
100
AcDbLayerTableRecord
  2
TEXT
 70
0
 62
7
  6
CONTINUOUS
370
-3
390
F
  0
LAYER
  5
236
100
AcDbSymbolTableRecord
100
AcDbLayerTableRecord
  2
THREAD
 70
0
 62
7
  6
CONTINUOUS
370
-3
390
F
  0
LAYER
  5
237
100
AcDbSymbolTableRecord
100
AcDbLayerTableRecord
  2
XSEC_DATUMS
 70
0
 62
7
  6
CONTINUOUS
370
-3
390
F
  0
ENDTAB
  0
TABLE
  2
STYLE
  5
3
100
AcDbSymbolTable
 70
1
  0
STYLE
  5
11
100
AcDbSymbolTableRecord
100
AcDbTextStyleTableRecord
  2
STANDARD
 70
0
 40
0.0
 41
0.8
 50
0.0
 71
0
 42
0.2
  3
txt
  4

  0
ENDTAB
  0
TABLE
  2
VIEW
  5
6
100
AcDbSymbolTable
 70
0
  0
ENDTAB
  0
TABLE
  2
UCS
  5
7
100
AcDbSymbolTable
 70
0
  0
ENDTAB
  0
TABLE
  2
APPID
  5
9
100
AcDbSymbolTable
 70
1
  0
APPID
  5
238
100
AcDbSymbolTableRecord
100
AcDbRegAppTableRecord
  2
ACAD
 70
0
  0
ENDTAB
  0
TABLE
  2
BLOCK_RECORD
  5
1
100
AcDbSymbolTable
 70
0
  0
BLOCK_RECORD
  5
1F
100
AcDbSymbolTableRecord
100
AcDbBlockTableRecord
  2
*MODEL_SPACE
  0
BLOCK_RECORD
  5
1B
100
AcDbSymbolTableRecord
100
AcDbBlockTableRecord
  2
*PAPER_SPACE
  0
ENDTAB
  0
TABLE
  2
DIMSTYLE
  5
A
100
AcDbSymbolTable
 70
1
100
AcDbDimStyleTable
 71
0
  0
DIMSTYLE
105
239
100
AcDbSymbolTableRecord
100
AcDbDimStyleTableRecord
  2
STANDARD
 70
0
  3

  4

 40
1.0
 41
0.1875
 42
0.0625
 43
0.38
 44
0.18
 45
0.0
 46
0.0
 47
0.01
 48
0.01
140
0.15625
141
0.09
142
0.0
143
25.4
144
1.0
145
0.0
146
1.0
147
0.09
 71
0.0
 72
0.0
 73
1
 74
1
 75
0
 76
0
 77
0
 78
4
170
0
171
2
172
0
173
0
174
0
175
0
176
0
177
0
178
0
270
2
271
2
272
2
273
2
274
2
275
0
280
0
281
0
282
0
283
1
284
4
285
0
286
0
287
3
288
0
340
11
  0
ENDTAB
  0
ENDSEC
  0
SECTION
  2
BLOCKS
  0
BLOCK
  5
20
100
AcDbEntity
  8
0
100
AcDbBlockBegin
  2
*MODEL_SPACE
 70
0
 10
0.0
 20
0.0
 30
0.0
  3
*MODEL_SPACE
  1

  0
ENDBLK
  5
21
100
AcDbEntity
  8
0
100
AcDbBlockEnd
  0
BLOCK
  5
1C
100
AcDbEntity
  8
0
100
AcDbBlockBegin
  2
*PAPER_SPACE
 70
0
 10
0.0
 20
0.0
 30
0.0
  3
*PAPER_SPACE
  1

  0
ENDBLK
  5
1D
100
AcDbEntity
  8
0
100
AcDbBlockEnd
  0
ENDSEC
  0
SECTION
  2
ENTITIES
  0
LINE
  5
23A
100
AcDbEntity
  8
03__ASM_ALL_CURVES
100
AcDbLine
 62
40
  6
CONTINUOUS
 10
4.3928776367
 20
5.140107434
 11
4.3972126367
 21
5.1516674312
  0
LINE
  5
23B
100
AcDbEntity
  8
03__ASM_ALL_CURVES
100
AcDbLine
 62
40
  6
CONTINUOUS
 10
4.4275576367
 20
5.1169874333
 11
4.4232226367
 21
5.1054274329
  0
LINE
  5
23C
100
AcDbEntity
  8
03__ASM_ALL_CURVES
100
AcDbLine
 62
40
  6
CONTINUOUS
 10
4.3972126367
 20
5.1516674312
 11
4.4015476367
 21
5.157447434
  0
LINE
  5
23D
100
AcDbEntity
  8
03__ASM_ALL_CURVES
100
AcDbLine
 62
40
  6
CONTINUOUS
 10
4.4232226367
 20
5.1054274329
 11
4.4188876367
 21
5.0996474328
  0
LINE
  5
23E
100
AcDbEntity
  8
03__ASM_ALL_CURVES
100
AcDbLine
 62
40
  6
CONTINUOUS
 10
4.5315976367
 20
5.140107434
 11
4.5359326367
 21
5.1516674312
  0
LINE
  5
23F
100
AcDbEntity
  8
03__ASM_ALL_CURVES
100
AcDbLine
 62
40
  6
CONTINUOUS
 10
4.5315976367
 20
5.1169874333
 11
4.5359326367
 21
5.1285474326
  0
LINE
  5
240
100
AcDbEntity
  8
03__ASM_ALL_CURVES
100
AcDbLine
 62
40
  6
CONTINUOUS
 10
4.5662776367
 20
5.1169874333
 11
4.5619426367
 21
5.1054274329
  0
LINE
  5
241
100
AcDbEntity
  8
0
100
AcDbLine
 62
7
  6
CONTINUOUS
 10
4.4588621391
 20
4.8908064147
 11
4.4135176367
 21
4.8122674326
  0
LINE
  5
242
100
AcDbEntity
  8
03__ASM_ALL_CURVES
100
AcDbLine
 62
40
  6
CONTINUOUS
 10
4.5359326367
 20
5.1516674312
 11
4.5402676367
 21
5.157447434
  0
LINE
  5
243
100
AcDbEntity
  8
03__ASM_ALL_CURVES
100
AcDbLine
 62
40
  6
CONTINUOUS
 10
4.5619426367
 20
5.1054274329
 11
4.5576076367
 21
5.0996474328
  0
LINE
  5
244
100
AcDbEntity
  8
03__ASM_ALL_CURVES
100
AcDbLine
 62
40
  6
CONTINUOUS
 10
4.6009576367
 20
5.1516674312
 11
4.6052926367
 21
5.157447434
  0
LINE
  5
245
100
AcDbEntity
  8
03__ASM_ALL_CURVES
100
AcDbLine
 62
40
  6
CONTINUOUS
 10
4.5966226367
 20
5.1169874333
 11
4.6052926367
 21
5.1285474326
  0
LINE
  5
246
100
AcDbEntity
  8
03__ASM_ALL_CURVES
100
AcDbLine
 62
40
  6
CONTINUOUS
 10
4.6356376367
 20
5.1458874326
 11
4.6313026367
 21
5.140107434
  0
LINE
  5
247
100
AcDbEntity
  8
03__ASM_ALL_CURVES
100
AcDbLine
 62
40
  6
CONTINUOUS
 10
4.6399726367
 20
5.1112074326
 11
4.6313026367
 21
5.0996474328
  0
LINE
  5
248
100
AcDbEntity
  8
03__ASM_ALL_CURVES
100
AcDbLine
 62
40
  6
CONTINUOUS
 10
4.4015476367
 20
5.157447434
 11
4.4102176367
 21
5.1632274326
  0
LINE
  5
249
100
AcDbEntity
  8
03__ASM_ALL_CURVES
100
AcDbLine
 62
40
  6
CONTINUOUS
 10
4.4188876367
 20
5.0996474328
 11
4.4102176367
 21
5.0938674326
  0
LINE
  5
24A
100
AcDbEntity
  8
03__ASM_ALL_CURVES
100
AcDbLine
 62
40
  6
CONTINUOUS
 10
4.5402676367
 20
5.157447434
 11
4.5489376367
 21
5.1632274326
  0
LINE
  5
24B
100
AcDbEntity
  8
0
100
AcDbLine
 62
7
  6
CONTINUOUS
 10
4.4588621391
 20
3.6237284505
 11
4.4135176367
 21
3.7022674326
  0
LINE
  5
24C
100
AcDbEntity
  8
03__ASM_ALL_CURVES
100
AcDbLine
 62
40
  6
CONTINUOUS
 10
4.3928776367
 20
5.1169874333
 11
4.3928776367
 21
5.140107434
  0
LINE
  5
24D
100
AcDbEntity
  8
0
100
AcDbLine
 62
7
  6
CONTINUOUS
 10
4.4135176367
 20
3.7022674326
 11
4.4135176367
 21
4.8122674326
  0
LINE
  5
24E
100
AcDbEntity
  8
03__ASM_ALL_CURVES
100
AcDbLine
 62
40
  6
CONTINUOUS
 10
4.4135176367
 20
4.8122674326
 11
4.4135176367
 21
5.0938674326
  0
LINE
  5
24F
100
AcDbEntity
  8
03__ASM_ALL_CURVES
100
AcDbLine
 62
40
  6
CONTINUOUS
 10
4.4275576367
 20
5.140107434
 11
4.4275576367
 21
5.1169874333
  0
LINE
  5
250
100
AcDbEntity
  8
0
100
AcDbLine
 62
7
  6
CONTINUOUS
 10
4.4591283079
 20
3.6232674326
 11
4.4591283079
 21
3.6238821231
  0
LINE
  5
251
100
AcDbEntity
  8
0
100
AcDbLine
 62
7
  6
CONTINUOUS
 10
4.4591283079
 20
3.9164027421
 11
4.4591283079
 21
3.9647468137
  0
LINE
  5
252
100
AcDbEntity
  8
0
100
AcDbLine
 62
7
  6
CONTINUOUS
 10
4.4591283079
 20
4.5497880515
 11
4.4591283079
 21
4.5981321231
  0
LINE
  5
253
100
AcDbEntity
  8
0
100
AcDbLine
 62
7
  6
CONTINUOUS
 10
4.4591283079
 20
4.8906527421
 11
4.4591283079
 21
4.8912674326
  0
LINE
  5
254
100
AcDbEntity
  8
03__ASM_ALL_CURVES
100
AcDbLine
 62
40
  6
CONTINUOUS
 10
4.4752426367
 20
5.0938674326
 11
4.4752426367
 21
5.0996474328
  0
LINE
  5
255
100
AcDbEntity
  8
03__ASM_ALL_CURVES
100
AcDbLine
 62
40
  6
CONTINUOUS
 10
4.4828776367
 20
5.0823074326
 11
4.4828776367
 21
5.0591874326
  0
LINE
  5
256
100
AcDbEntity
  8
03__ASM_ALL_CURVES
100
AcDbLine
 62
40
  6
CONTINUOUS
 10
4.6919926367
 20
5.1632274326
 11
4.6833226367
 21
5.1516674312
  0
LINE
  5
257
100
AcDbEntity
  8
03__ASM_ALL_CURVES
100
AcDbLine
 62
40
  6
CONTINUOUS
 10
4.6052926367
 20
5.157447434
 11
4.6139626367
 21
5.1632274326
  0
LINE
  5
258
100
AcDbEntity
  8
03__ASM_ALL_CURVES
100
AcDbLine
 62
40
  6
CONTINUOUS
 10
4.5576076367
 20
5.0996474328
 11
4.5489376367
 21
5.0938674326
  0
LINE
  5
259
100
AcDbEntity
  8
03__ASM_ALL_CURVES
100
AcDbLine
 62
40
  6
CONTINUOUS
 10
4.6052926367
 20
5.1285474326
 11
4.6139626367
 21
5.1343274312
  0
LINE
  5
25A
100
AcDbEntity
  8
03__ASM_ALL_CURVES
100
AcDbLine
 62
40
  6
CONTINUOUS
 10
4.6313026367
 20
5.140107434
 11
4.6226326367
 21
5.1343274312
  0
LINE
  5
25B
100
AcDbEntity
  8
03__ASM_ALL_CURVES
100
AcDbLine
 62
40
  6
CONTINUOUS
 10
4.6313026367
 20
5.0996474328
 11
4.6226326367
 21
5.0938674326
  0
LINE
  5
25C
100
AcDbEntity
  8
03__ASM_ALL_CURVES
100
AcDbLine
 62
40
  6
CONTINUOUS
 10
4.5315976367
 20
5.1169874333
 11
4.5315976367
 21
5.140107434
  0
LINE
  5
25D
100
AcDbEntity
  8
03__ASM_ALL_CURVES
100
AcDbLine
 62
40
  6
CONTINUOUS
 10
4.5966226367
 20
5.1112074326
 11
4.5966226367
 21
5.1169874333
  0
LINE
  5
25E
100
AcDbEntity
  8
03__ASM_ALL_CURVES
100
AcDbLine
 62
40
  6
CONTINUOUS
 10
4.6833226367
 20
5.1516674312
 11
4.6789876367
 21
5.1343274312
  0
LINE
  5
25F
100
AcDbEntity
  8
03__ASM_ALL_CURVES
100
AcDbLine
 62
40
  6
CONTINUOUS
 10
4.8350476367
 20
5.140107434
 11
4.8437176367
 21
5.1632274326
  0
LINE
  5
260
100
AcDbEntity
  8
03__ASM_ALL_CURVES
100
AcDbLine
 62
40
  6
CONTINUOUS
 10
4.9477576367
 20
5.1516674312
 11
4.9520926367
 21
5.157447434
  0
LINE
  5
261
100
AcDbEntity
  8
03__ASM_ALL_CURVES
100
AcDbLine
 62
40
  6
CONTINUOUS
 10
4.5359326367
 20
5.1285474326
 11
4.5489376367
 21
5.1343274312
  0
LINE
  5
262
100
AcDbEntity
  8
03__ASM_ALL_CURVES
100
AcDbLine
 62
40
  6
CONTINUOUS
 10
4.6009576367
 20
5.1458874326
 11
4.6009576367
 21
5.1516674312
  0
LINE
  5
263
100
AcDbEntity
  8
03__ASM_ALL_CURVES
100
AcDbLine
 62
40
  6
CONTINUOUS
 10
4.6356376367
 20
5.1516674312
 11
4.6356376367
 21
5.1458874326
  0
LINE
  5
264
100
AcDbEntity
  8
03__ASM_ALL_CURVES
100
AcDbLine
 62
40
  6
CONTINUOUS
 10
4.6399726367
 20
5.1169874333
 11
4.6399726367
 21
5.1112074326
  0
LINE
  5
265
100
AcDbEntity
  8
03__ASM_ALL_CURVES
100
AcDbLine
 62
40
  6
CONTINUOUS
 10
4.6789876367
 20
5.1343274312
 11
4.6789876367
 21
5.1227674319
  0
LINE
  5
266
100
AcDbEntity
  8
03__ASM_ALL_CURVES
100
AcDbLine
 62
40
  6
CONTINUOUS
 10
4.8307126367
 20
5.1227674319
 11
4.8350476367
 21
5.140107434
  0
LINE
  5
267
100
AcDbEntity
  8
03__ASM_ALL_CURVES
100
AcDbLine
 62
40
  6
CONTINUOUS
 10
4.9607626367
 20
5.1227674319
 11
4.9520926367
 21
5.1112074326
  0
LINE
  5
268
100
AcDbEntity
  8
03__ASM_ALL_CURVES
100
AcDbLine
 62
40
  6
CONTINUOUS
 10
4.9824376367
 20
5.140107434
 11
4.9781026367
 21
5.1343274312
  0
LINE
  5
269
100
AcDbEntity
  8
03__ASM_ALL_CURVES
100
AcDbLine
 62
40
  6
CONTINUOUS
 10
4.9520926367
 20
5.157447434
 11
4.9607626367
 21
5.1632274326
  0
LINE
  5
26A
100
AcDbEntity
  8
03__ASM_ALL_CURVES
100
AcDbLine
 62
40
  6
CONTINUOUS
 10
4.9781026367
 20
5.1343274312
 11
4.9607626367
 21
5.1227674319
  0
LINE
  5
26B
100
AcDbEntity
  8
03__ASM_ALL_CURVES
100
AcDbLine
 62
40
  6
CONTINUOUS
 10
4.7570176367
 20
5.1632274326
 11
4.7570176367
 21
5.0938674326
  0
LINE
  5
26C
100
AcDbEntity
  8
03__ASM_ALL_CURVES
100
AcDbLine
 62
40
  6
CONTINUOUS
 10
4.8263776367
 20
5.0938674326
 11
4.8307126367
 21
5.1227674319
  0
LINE
  5
26D
100
AcDbEntity
  8
03__ASM_ALL_CURVES
100
AcDbLine
 62
40
  6
CONTINUOUS
 10
4.9520926367
 20
5.1112074326
 11
4.9477576367
 21
5.0938674326
  0
LINE
  5
26E
100
AcDbEntity
  8
03__ASM_ALL_CURVES
100
AcDbLine
 62
40
  6
CONTINUOUS
 10
5.0431276367
 20
5.140107434
 11
5.0517976367
 21
5.1632274326
  0
LINE
  5
26F
100
AcDbEntity
  8
03__ASM_ALL_CURVES
100
AcDbLine
 62
40
  6
CONTINUOUS
 10
5.1081526367
 20
5.1054274329
 11
5.0994826367
 21
5.0938674326
  0
LINE
  5
270
100
AcDbEntity
  8
03__ASM_ALL_CURVES
100
AcDbLine
 62
40
  6
CONTINUOUS
 10
5.266692636
 20
5.157447434
 11
5.275362636
 21
5.1632274326
  0
LINE
  5
271
100
AcDbEntity
  8
03__ASM_ALL_CURVES
100
AcDbLine
 62
40
  6
CONTINUOUS
 10
5.336052636
 20
5.157447434
 11
5.344722636
 21
5.1632274326
  0
LINE
  5
272
100
AcDbEntity
  8
03__ASM_ALL_CURVES
100
AcDbLine
 62
40
  6
CONTINUOUS
 10
4.3972126367
 20
5.1054274329
 11
4.3928776367
 21
5.1169874333
  0
LINE
  5
273
100
AcDbEntity
  8
03__ASM_ALL_CURVES
100
AcDbLine
 62
40
  6
CONTINUOUS
 10
4.4232226367
 20
5.1516674312
 11
4.4275576367
 21
5.140107434
  0
LINE
  5
274
100
AcDbEntity
  8
0
100
AcDbLine
 62
7
  6
CONTINUOUS
 10
4.8570920108
 20
3.6232674326
 11
4.8570920108
 21
3.6238821231
  0
LINE
  5
275
100
AcDbEntity
  8
0
100
AcDbLine
 62
7
  6
CONTINUOUS
 10
4.8570920108
 20
3.9164027421
 11
4.8570920108
 21
3.9647468137
  0
LINE
  5
276
100
AcDbEntity
  8
0
100
AcDbLine
 62
7
  6
CONTINUOUS
 10
4.8570920108
 20
4.5497880515
 11
4.8570920108
 21
4.5981321231
  0
LINE
  5
277
100
AcDbEntity
  8
0
100
AcDbLine
 62
7
  6
CONTINUOUS
 10
4.8570920108
 20
4.8906527421
 11
4.8570920108
 21
4.8912674326
  0
LINE
  5
278
100
AcDbEntity
  8
03__ASM_ALL_CURVES
100
AcDbLine
 62
40
  6
CONTINUOUS
 10
4.8914026367
 20
5.0938674326
 11
4.8914026367
 21
5.0996474328
  0
LINE
  5
279
100
AcDbEntity
  8
0
100
AcDbLine
 62
7
  6
CONTINUOUS
 10
4.9125176367
 20
3.7192674326
 11
4.9125176367
 21
4.7952674326
  0
LINE
  5
27A
100
AcDbEntity
  8
03__ASM_ALL_CURVES
100
AcDbLine
 62
40
  6
CONTINUOUS
 10
5.0344576367
 20
5.0938674326
 11
5.0387926367
 21
5.1227674319
  0
LINE
  5
27B
100
AcDbEntity
  8
03__ASM_ALL_CURVES
100
AcDbLine
 62
40
  6
CONTINUOUS
 10
5.0387926367
 20
5.1227674319
 11
5.0431276367
 21
5.140107434
  0
LINE
  5
27C
100
AcDbEntity
  8
03__ASM_ALL_CURVES
100
AcDbLine
 62
40
  6
CONTINUOUS
 10
5.1124876367
 20
5.1227674319
 11
5.1081526367
 21
5.1054274329
  0
LINE
  5
27D
100
AcDbEntity
  8
03__ASM_ALL_CURVES
100
AcDbLine
 62
40
  6
CONTINUOUS
 10
5.258022636
 20
5.1458874326
 11
5.266692636
 21
5.157447434
  0
LINE
  5
27E
100
AcDbEntity
  8
03__ASM_ALL_CURVES
100
AcDbLine
 62
40
  6
CONTINUOUS
 10
5.301372636
 20
5.1112074326
 11
5.292702636
 21
5.0996474328
  0
LINE
  5
27F
100
AcDbEntity
  8
03__ASM_ALL_CURVES
100
AcDbLine
 62
40
  6
CONTINUOUS
 10
5.327382636
 20
5.1458874326
 11
5.336052636
 21
5.157447434
  0
LINE
  5
280
100
AcDbEntity
  8
03__ASM_ALL_CURVES
100
AcDbLine
 62
40
  6
CONTINUOUS
 10
5.292702636
 20
5.0996474328
 11
5.284032636
 21
5.0938674326
  0
LINE
  5
281
100
AcDbEntity
  8
03__ASM_ALL_CURVES
100
AcDbLine
 62
40
  6
CONTINUOUS
 10
5.362062636
 20
5.0996474328
 11
5.353392636
 21
5.0938674326
  0
LINE
  5
282
100
AcDbEntity
  8
03__ASM_ALL_CURVES
100
AcDbLine
 62
40
  6
CONTINUOUS
 10
6.2871782631
 20
3.4111074326
 11
6.2611682631
 21
3.4111074326
  0
LINE
  5
283
100
AcDbEntity
  8
03__ASM_ALL_CURVES
100
AcDbLine
 62
40
  6
CONTINUOUS
 10
6.1213645131
 20
3.4111074326
 11
6.1148620131
 21
3.4111074326
  0
LINE
  5
284
100
AcDbEntity
  8
03__ASM_ALL_CURVES
100
AcDbLine
 62
40
  6
CONTINUOUS
 10
6.0693445131
 20
3.4111074326
 11
6.0628420131
 21
3.4111074326
  0
LINE
  5
285
100
AcDbEntity
  8
03__ASM_ALL_CURVES
100
AcDbLine
 62
40
  6
CONTINUOUS
 10
6.2091482631
 20
3.4111074326
 11
6.2351582631
 21
3.4111074326
  0
LINE
  5
286
100
AcDbEntity
  8
03__ASM_ALL_CURVES
100
AcDbLine
 62
40
  6
CONTINUOUS
 10
4.5359326367
 20
5.1054274329
 11
4.5315976367
 21
5.1169874333
  0
LINE
  5
287
100
AcDbEntity
  8
03__ASM_ALL_CURVES
100
AcDbLine
 62
40
  6
CONTINUOUS
 10
4.6789876367
 20
5.1227674319
 11
4.6833226367
 21
5.1054274329
  0
LINE
  5
288
100
AcDbEntity
  8
03__ASM_ALL_CURVES
100
AcDbLine
 62
40
  6
CONTINUOUS
 10
4.9824376367
 20
5.1516674312
 11
4.9824376367
 21
5.140107434
  0
LINE
  5
289
100
AcDbEntity
  8
03__ASM_ALL_CURVES
100
AcDbLine
 62
40
  6
CONTINUOUS
 10
5.0311576367
 20
5.0823074326
 11
5.0311576367
 21
5.0591874326
  0
LINE
  5
28A
100
AcDbEntity
  8
03__ASM_ALL_CURVES
100
AcDbLine
 62
40
  6
CONTINUOUS
 10
5.366397636
 20
5.1054274329
 11
5.362062636
 21
5.0996474328
  0
LINE
  5
28B
100
AcDbEntity
  8
03__ASM_ALL_CURVES
100
AcDbLine
 62
40
  6
CONTINUOUS
 10
5.682852636
 20
5.157447434
 11
5.691522636
 21
5.1632274326
  0
LINE
  5
28C
100
AcDbEntity
  8
03__ASM_ALL_CURVES
100
AcDbLine
 62
40
  6
CONTINUOUS
 10
6.2611682631
 20
3.4371174326
 11
6.2774245131
 21
3.4371174326
  0
LINE
  5
28D
100
AcDbEntity
  8
03__ASM_ALL_CURVES
100
AcDbLine
 62
40
  6
CONTINUOUS
 10
6.0628420131
 20
3.4631274326
 11
6.0693445131
 21
3.4631274326
  0
LINE
  5
28E
100
AcDbEntity
  8
03__ASM_ALL_CURVES
100
AcDbLine
 62
40
  6
CONTINUOUS
 10
6.1538770131
 20
3.4631274326
 11
6.1863895131
 21
3.4631274326
  0
LINE
  5
28F
100
AcDbEntity
  8
03__ASM_ALL_CURVES
100
AcDbLine
 62
40
  6
CONTINUOUS
 10
6.2611682631
 20
3.4631274326
 11
6.2871782631
 21
3.4631274326
  0
LINE
  5
290
100
AcDbEntity
  8
03__ASM_ALL_CURVES
100
AcDbLine
 62
40
  6
CONTINUOUS
 10
6.3099370131
 20
3.4631274326
 11
6.3424495131
 21
3.4631274326
  0
LINE
  5
291
100
AcDbEntity
  8
03__ASM_ALL_CURVES
100
AcDbLine
 62
40
  6
CONTINUOUS
 10
6.1457489018
 20
3.4862474326
 11
6.1392464018
 21
3.4862474326
  0
LINE
  5
292
100
AcDbEntity
  8
03__ASM_ALL_CURVES
100
AcDbLine
 62
40
  6
CONTINUOUS
 10
6.2855526518
 20
3.4862474326
 11
6.3115626518
 21
3.4862474326
  0
LINE
  5
293
100
AcDbEntity
  8
03__ASM_ALL_CURVES
100
AcDbLine
 62
40
  6
CONTINUOUS
 10
6.1977689018
 20
3.5122574326
 11
6.1815126518
 21
3.5122574326
  0
LINE
  5
294
100
AcDbEntity
  8
03__ASM_ALL_CURVES
100
AcDbLine
 62
40
  6
CONTINUOUS
 10
6.0937289018
 20
3.5122574326
 11
6.0774726518
 21
3.5122574326
  0
LINE
  5
295
100
AcDbEntity
  8
03__ASM_ALL_CURVES
100
AcDbLine
 62
40
  6
CONTINUOUS
 10
4.5619426367
 20
5.1285474326
 11
4.5662776367
 21
5.1169874333
  0
LINE
  5
296
100
AcDbEntity
  8
0
100
AcDbLine
 62
7
  6
CONTINUOUS
 10
5.0975176367
 20
4.7952674326
 11
5.0975176367
 21
3.7192674326
  0
LINE
  5
297
100
AcDbEntity
  8
0
100
AcDbLine
 62
7
  6
CONTINUOUS
 10
5.1005176367
 20
4.7922674326
 11
5.1005176367
 21
3.7222674326
  0
LINE
  5
298
100
AcDbEntity
  8
03__ASM_ALL_CURVES
100
AcDbLine
 62
40
  6
CONTINUOUS
 10
5.1005176367
 20
4.8068274326
 11
5.1005176367
 21
5.0938674326
  0
LINE
  5
299
100
AcDbEntity
  8
0
100
AcDbLine
 62
7
  6
CONTINUOUS
 10
5.1030176367
 20
3.7312108083
 11
5.1030176367
 21
4.7833240569
  0
LINE
  5
29A
100
AcDbEntity
  8
03__ASM_ALL_CURVES
100
AcDbLine
 62
40
  6
CONTINUOUS
 10
5.1124876367
 20
5.1343274312
 11
5.1124876367
 21
5.1227674319
  0
LINE
  5
29B
100
AcDbEntity
  8
0
100
AcDbLine
 62
7
  6
CONTINUOUS
 10
5.1218740384
 20
4.7717674502
 11
5.1218740431
 21
4.7724373056
  0
LINE
  5
29C
100
AcDbEntity
  8
0
100
AcDbLine
 62
7
  6
CONTINUOUS
 10
5.1218740431
 20
3.7420975596
 11
5.1218740384
 21
4.7717674502
  0
LINE
  5
29D
100
AcDbEntity
  8
0
100
AcDbLine
 62
7
  6
CONTINUOUS
 10
5.1243740431
 20
3.7427674326
 11
5.1243740431
 21
4.7717674326
  0
LINE
  5
29E
100
AcDbEntity
  8
THREAD
100
AcDbLine
 62
7
  6
CONTINUOUS
 10
5.1475176367
 20
3.7427674326
 11
5.1475176367
 21
4.7717674326
  0
LINE
  5
29F
100
AcDbEntity
  8
03__ASM_ALL_CURVES
100
AcDbLine
 62
40
  6
CONTINUOUS
 10
5.253687636
 20
5.1285474326
 11
5.258022636
 21
5.1458874326
  0
LINE
  5
2A0
100
AcDbEntity
  8
03__ASM_ALL_CURVES
100
AcDbLine
 62
40
  6
CONTINUOUS
 10
5.305707636
 20
5.1285474326
 11
5.301372636
 21
5.1112074326
  0
LINE
  5
2A1
100
AcDbEntity
  8
03__ASM_ALL_CURVES
100
AcDbLine
 62
40
  6
CONTINUOUS
 10
5.323047636
 20
5.1285474326
 11
5.327382636
 21
5.1458874326
  0
LINE
  5
2A2
100
AcDbEntity
  8
THREAD
100
AcDbLine
 62
7
  6
CONTINUOUS
 10
5.3104569469
 20
4.7532674326
 11
5.2921260759
 21
4.7215174326
  0
LINE
  5
2A3
100
AcDbEntity
  8
03__ASM_ALL_CURVES
100
AcDbLine
 62
40
  6
CONTINUOUS
 10
5.708862636
 20
5.0996474328
 11
5.700192636
 21
5.0938674326
  0
LINE
  5
2A4
100
AcDbEntity
  8
03__ASM_ALL_CURVES
100
AcDbLine
 62
40
  6
CONTINUOUS
 10
5.830242636
 20
5.1632274326
 11
5.821572636
 21
5.157447434
  0
LINE
  5
2A5
100
AcDbEntity
  8
03__ASM_ALL_CURVES
100
AcDbLine
 62
40
  6
CONTINUOUS
 10
5.847582636
 20
5.0996474328
 11
5.838912636
 21
5.0938674326
  0
LINE
  5
2A6
100
AcDbEntity
  8
03__ASM_ALL_CURVES
100
AcDbLine
 62
40
  6
CONTINUOUS
 10
6.0774726518
 20
3.5382674326
 11
6.0937289018
 21
3.5382674326
  0
LINE
  5
2A7
100
AcDbEntity
  8
03__ASM_ALL_CURVES
100
AcDbLine
 62
40
  6
CONTINUOUS
 10
6.1392464018
 20
3.5382674326
 11
6.1457489018
 21
3.5382674326
  0
LINE
  5
2A8
100
AcDbEntity
  8
03__ASM_ALL_CURVES
100
AcDbLine
 62
40
  6
CONTINUOUS
 10
6.1815126518
 20
3.5382674326
 11
6.1977689018
 21
3.5382674326
  0
LINE
  5
2A9
100
AcDbEntity
  8
03__ASM_ALL_CURVES
100
AcDbLine
 62
40
  6
CONTINUOUS
 10
6.2302814018
 20
3.5382674326
 11
6.2627939018
 21
3.5382674326
  0
LINE
  5
2AA
100
AcDbEntity
  8
03__ASM_ALL_CURVES
100
AcDbLine
 62
40
  6
CONTINUOUS
 10
6.2953064018
 20
3.5382674326
 11
6.3018089018
 21
3.5382674326
  0
LINE
  5
2AB
100
AcDbEntity
  8
0
100
AcDbLine
 62
7
  6
CONTINUOUS
 10
4.8570920108
 20
3.6232674326
 11
4.4591283079
 21
3.6232674326
  0
LINE
  5
2AC
100
AcDbEntity
  8
0
100
AcDbLine
 62
7
  6
CONTINUOUS
 10
4.8570920108
 20
3.6238821231
 11
4.4591283079
 21
3.6238821231
  0
LINE
  5
2AD
100
AcDbEntity
  8
THREAD
100
AcDbLine
 62
7
  6
CONTINUOUS
 10
5.3104569469
 20
3.7612674326
 11
5.2921260759
 21
3.7930174326
  0
LINE
  5
2AE
100
AcDbEntity
  8
03__ASM_ALL_CURVES
100
AcDbLine
 62
40
  6
CONTINUOUS
 10
5.1698776367
 20
5.0823074326
 11
5.1698776367
 21
5.0591874326
  0
LINE
  5
2AF
100
AcDbEntity
  8
03__ASM_ALL_CURVES
100
AcDbLine
 62
40
  6
CONTINUOUS
 10
5.192997636
 20
5.1632274326
 11
5.192997636
 21
5.0938674326
  0
LINE
  5
2B0
100
AcDbEntity
  8
0
100
AcDbLine
 62
7
  6
CONTINUOUS
 10
5.2175176367
 20
3.7452674326
 11
5.2175176367
 21
4.7692674326
  0
LINE
  5
2B1
100
AcDbEntity
  8
03__ASM_ALL_CURVES
100
AcDbLine
 62
40
  6
CONTINUOUS
 10
5.396742636
 20
5.0938674326
 11
5.418417636
 21
5.1632274326
  0
LINE
  5
2B2
100
AcDbEntity
  8
03__ASM_ALL_CURVES
100
AcDbLine
 62
40
  6
CONTINUOUS
 10
5.674182636
 20
5.1458874326
 11
5.682852636
 21
5.157447434
  0
LINE
  5
2B3
100
AcDbEntity
  8
03__ASM_ALL_CURVES
100
AcDbLine
 62
40
  6
CONTINUOUS
 10
5.713197636
 20
5.1054274329
 11
5.708862636
 21
5.0996474328
  0
LINE
  5
2B4
100
AcDbEntity
  8
03__ASM_ALL_CURVES
100
AcDbLine
 62
40
  6
CONTINUOUS
 10
5.960292636
 20
5.157447434
 11
5.968962636
 21
5.1632274326
  0
LINE
  5
2B5
100
AcDbEntity
  8
03__ASM_ALL_CURVES
100
AcDbLine
 62
40
  6
CONTINUOUS
 10
5.986302636
 20
5.0996474328
 11
5.977632636
 21
5.0938674326
  0
LINE
  5
2B6
100
AcDbEntity
  8
0
100
AcDbLine
 62
7
  6
CONTINUOUS
 10
5.0975176367
 20
3.7192674326
 11
4.9125176367
 21
3.7192674326
  0
LINE
  5
2B7
100
AcDbEntity
  8
THREAD
100
AcDbLine
 62
7
  6
CONTINUOUS
 10
5.1475176367
 20
3.7427674326
 11
5.1243740431
 21
3.7427674326
  0
LINE
  5
2B8
100
AcDbEntity
  8
0
100
AcDbLine
 62
7
  6
CONTINUOUS
 10
5.2175176367
 20
3.7452674326
 11
5.2675176367
 21
3.7452674326
  0
LINE
  5
2B9
100
AcDbEntity
  8
03__ASM_ALL_CURVES
100
AcDbLine
 62
40
  6
CONTINUOUS
 10
6.0628420131
 20
3.4111074326
 11
6.0563395131
 21
3.4154424327
  0
LINE
  5
2BA
100
AcDbEntity
  8
03__ASM_ALL_CURVES
100
AcDbLine
 62
40
  6
CONTINUOUS
 10
6.1148620131
 20
3.4111074326
 11
6.1083595131
 21
3.4154424327
  0
LINE
  5
2BB
100
AcDbEntity
  8
03__ASM_ALL_CURVES
100
AcDbLine
 62
40
  6
CONTINUOUS
 10
4.4015476367
 20
5.0996474328
 11
4.3972126367
 21
5.1054274329
  0
LINE
  5
2BC
100
AcDbEntity
  8
03__ASM_ALL_CURVES
100
AcDbLine
 62
40
  6
CONTINUOUS
 10
4.4188876367
 20
5.157447434
 11
4.4232226367
 21
5.1516674312
  0
LINE
  5
2BD
100
AcDbEntity
  8
03__ASM_ALL_CURVES
100
AcDbLine
 62
40
  6
CONTINUOUS
 10
4.4752426367
 20
5.0996474328
 11
4.4795776367
 21
5.0938674326
  0
LINE
  5
2BE
100
AcDbEntity
  8
0
100
AcDbLine
 62
7
  6
CONTINUOUS
 10
5.2675176367
 20
3.7452674326
 11
5.2675176367
 21
4.7692674326
  0
LINE
  5
2BF
100
AcDbEntity
  8
THREAD
100
AcDbLine
 62
7
  6
CONTINUOUS
 10
5.2813007583
 20
3.7992674326
 11
5.2813007583
 21
4.7152674326
  0
LINE
  5
2C0
100
AcDbEntity
  8
THREAD
100
AcDbLine
 62
7
  6
CONTINUOUS
 10
5.2921260759
 20
3.7930174326
 11
5.2921260759
 21
4.7215174326
  0
LINE
  5
2C1
100
AcDbEntity
  8
THREAD
100
AcDbLine
 62
7
  6
CONTINUOUS
 10
5.3104569469
 20
3.7612674326
 11
5.3104569469
 21
4.7532674326
  0
LINE
  5
2C2
100
AcDbEntity
  8
0
100
AcDbLine
 62
7
  6
CONTINUOUS
 10
4.9125176367
 20
3.7192674326
 11
4.8573581796
 21
3.6237284505
  0
LINE
  5
2C3
100
AcDbEntity
  8
03__ASM_ALL_CURVES
100
AcDbLine
 62
40
  6
CONTINUOUS
 10
5.821572636
 20
5.157447434
 11
5.817237636
 21
5.1516674312
  0
LINE
  5
2C4
100
AcDbEntity
  8
03__ASM_ALL_CURVES
100
AcDbLine
 62
40
  6
CONTINUOUS
 10
5.851917636
 20
5.1054274329
 11
5.847582636
 21
5.0996474328
  0
LINE
  5
2C5
100
AcDbEntity
  8
03__ASM_ALL_CURVES
100
AcDbLine
 62
40
  6
CONTINUOUS
 10
6.055662636
 20
5.0996474328
 11
6.046992636
 21
5.0938674326
  0
LINE
  5
2C6
100
AcDbEntity
  8
03__ASM_ALL_CURVES
100
AcDbLine
 62
40
  6
CONTINUOUS
 10
6.190047636
 20
5.0996474328
 11
6.181377636
 21
5.0938674326
  0
LINE
  5
2C7
100
AcDbEntity
  8
THREAD
100
AcDbLine
 62
7
  6
CONTINUOUS
 10
5.6195176367
 20
3.7612674326
 11
5.3104569469
 21
3.7612674326
  0
LINE
  5
2C8
100
AcDbEntity
  8
THREAD
100
AcDbLine
 62
7
  6
CONTINUOUS
 10
5.2813007583
 20
3.7992674326
 11
5.2675176367
 21
3.7992674326
  0
LINE
  5
2C9
100
AcDbEntity
  8
THREAD
100
AcDbLine
 62
7
  6
CONTINUOUS
 10
5.9595176367
 20
3.8052674326
 11
5.6635176367
 21
3.8052674326
  0
LINE
  5
2CA
100
AcDbEntity
  8
0
100
AcDbLine
 62
7
  6
CONTINUOUS
 10
6.4125176367
 20
3.8207674326
 11
6.4695176367
 21
3.8207674326
  0
LINE
  5
2CB
100
AcDbEntity
  8
0
100
AcDbLine
 62
7
  6
CONTINUOUS
 10
6.6675176367
 20
3.8207674326
 11
6.7095176367
 21
3.8207674326
  0
LINE
  5
2CC
100
AcDbEntity
  8
0
100
AcDbLine
 62
7
  6
CONTINUOUS
 10
6.4695176367
 20
3.8212674326
 11
6.5195176367
 21
3.8212674326
  0
LINE
  5
2CD
100
AcDbEntity
  8
0
100
AcDbLine
 62
7
  6
CONTINUOUS
 10
6.5895176367
 20
3.8212674326
 11
6.6395176367
 21
3.8212674326
  0
LINE
  5
2CE
100
AcDbEntity
  8
03__ASM_ALL_CURVES
100
AcDbLine
 62
40
  6
CONTINUOUS
 10
6.0693445131
 20
3.4631274326
 11
6.0758470131
 21
3.4587924336
  0
LINE
  5
2CF
100
AcDbEntity
  8
03__ASM_ALL_CURVES
100
AcDbLine
 62
40
  6
CONTINUOUS
 10
6.1392464018
 20
3.4862474326
 11
6.1327439018
 21
3.4905824327
  0
LINE
  5
2D0
100
AcDbEntity
  8
03__ASM_ALL_CURVES
100
AcDbLine
 62
40
  6
CONTINUOUS
 10
6.0937289018
 20
3.5382674326
 11
6.1002314018
 21
3.5339324336
  0
LINE
  5
2D1
100
AcDbEntity
  8
03__ASM_ALL_CURVES
100
AcDbLine
 62
40
  6
CONTINUOUS
 10
6.1457489018
 20
3.5382674326
 11
6.1522514018
 21
3.5339324336
  0
LINE
  5
2D2
100
AcDbEntity
  8
03__ASM_ALL_CURVES
100
AcDbLine
 62
40
  6
CONTINUOUS
 10
4.5402676367
 20
5.0996474328
 11
4.5359326367
 21
5.1054274329
  0
LINE
  5
2D3
100
AcDbEntity
  8
03__ASM_ALL_CURVES
100
AcDbLine
 62
40
  6
CONTINUOUS
 10
4.5576076367
 20
5.157447434
 11
4.5619426367
 21
5.1516674312
  0
LINE
  5
2D4
100
AcDbEntity
  8
03__ASM_ALL_CURVES
100
AcDbLine
 62
40
  6
CONTINUOUS
 10
4.6052926367
 20
5.0996474328
 11
4.5966226367
 21
5.1112074326
  0
LINE
  5
2D5
100
AcDbEntity
  8
03__ASM_ALL_CURVES
100
AcDbLine
 62
40
  6
CONTINUOUS
 10
4.6052926367
 20
5.140107434
 11
4.6009576367
 21
5.1458874326
  0
LINE
  5
2D6
100
AcDbEntity
  8
03__ASM_ALL_CURVES
100
AcDbLine
 62
40
  6
CONTINUOUS
 10
4.6313026367
 20
5.1285474326
 11
4.6399726367
 21
5.1169874333
  0
LINE
  5
2D7
100
AcDbEntity
  8
0
100
AcDbLine
 62
7
  6
CONTINUOUS
 10
4.9125176367
 20
4.7952674326
 11
4.8573581796
 21
4.8908064147
  0
LINE
  5
2D8
100
AcDbEntity
  8
03__ASM_ALL_CURVES
100
AcDbLine
 62
40
  6
CONTINUOUS
 10
5.1081526367
 20
5.1516674312
 11
5.1124876367
 21
5.1343274312
  0
LINE
  5
2D9
100
AcDbEntity
  8
03__ASM_ALL_CURVES
100
AcDbLine
 62
40
  6
CONTINUOUS
 10
5.669847636
 20
5.1285474326
 11
5.674182636
 21
5.1458874326
  0
LINE
  5
2DA
100
AcDbEntity
  8
03__ASM_ALL_CURVES
100
AcDbLine
 62
40
  6
CONTINUOUS
 10
5.951622636
 20
5.1458874326
 11
5.960292636
 21
5.157447434
  0
LINE
  5
2DB
100
AcDbEntity
  8
03__ASM_ALL_CURVES
100
AcDbLine
 62
40
  6
CONTINUOUS
 10
5.994972636
 20
5.1112074326
 11
5.986302636
 21
5.0996474328
  0
LINE
  5
2DC
100
AcDbEntity
  8
03__ASM_ALL_CURVES
100
AcDbLine
 62
40
  6
CONTINUOUS
 10
6.333102636
 20
5.1343274312
 11
6.324432636
 21
5.1285474326
  0
LINE
  5
2DD
100
AcDbEntity
  8
0
100
AcDbLine
 62
7
  6
CONTINUOUS
 10
6.6675176367
 20
3.8752674326
 11
6.6395176367
 21
3.8752674326
  0
LINE
  5
2DE
100
AcDbEntity
  8
0
100
AcDbLine
 62
7
  6
CONTINUOUS
 10
6.4125176367
 20
3.8832674326
 11
5.9755176367
 21
3.8832674326
  0
LINE
  5
2DF
100
AcDbEntity
  8
0
100
AcDbLine
 62
7
  6
CONTINUOUS
 10
4.8570920108
 20
3.9164027421
 11
4.4591283079
 21
3.9164027421
  0
LINE
  5
2E0
100
AcDbEntity
  8
0
100
AcDbLine
 62
7
  6
CONTINUOUS
 10
4.8570920108
 20
3.9647468137
 11
4.4591283079
 21
3.9647468137
  0
LINE
  5
2E1
100
AcDbEntity
  8
03__ASM_ALL_CURVES
100
AcDbLine
 62
40
  6
CONTINUOUS
 10
6.1977689018
 20
3.5382674326
 11
6.2042714018
 21
3.5339324336
  0
LINE
  5
2E2
100
AcDbEntity
  8
03__ASM_ALL_CURVES
100
AcDbLine
 62
40
  6
CONTINUOUS
 10
6.3018089018
 20
3.5382674326
 11
6.3083114018
 21
3.5339324336
  0
LINE
  5
2E3
100
AcDbEntity
  8
03__ASM_ALL_CURVES
100
AcDbLine
 62
40
  6
CONTINUOUS
 10
4.6313026367
 20
5.157447434
 11
4.6356376367
 21
5.1516674312
  0
LINE
  5
2E4
100
AcDbEntity
  8
03__ASM_ALL_CURVES
100
AcDbLine
 62
40
  6
CONTINUOUS
 10
4.6833226367
 20
5.1054274329
 11
4.6919926367
 21
5.0938674326
  0
LINE
  5
2E5
100
AcDbEntity
  8
03__ASM_ALL_CURVES
100
AcDbLine
 62
40
  6
CONTINUOUS
 10
6.0563395131
 20
3.4154424327
 11
6.0498370131
 21
3.4241124326
  0
LINE
  5
2E6
100
AcDbEntity
  8
03__ASM_ALL_CURVES
100
AcDbLine
 62
40
  6
CONTINUOUS
 10
5.258022636
 20
5.1112074326
 11
5.253687636
 21
5.1285474326
  0
LINE
  5
2E7
100
AcDbEntity
  8
03__ASM_ALL_CURVES
100
AcDbLine
 62
40
  6
CONTINUOUS
 10
5.487777636
 20
5.1632274326
 11
5.487777636
 21
5.0938674326
  0
LINE
  5
2E8
100
AcDbEntity
  8
03__ASM_ALL_CURVES
100
AcDbLine
 62
40
  6
CONTINUOUS
 10
5.557137636
 20
5.1632274326
 11
5.557137636
 21
5.0938674326
  0
LINE
  5
2E9
100
AcDbEntity
  8
03__ASM_ALL_CURVES
100
AcDbLine
 62
40
  6
CONTINUOUS
 10
6.059997636
 20
5.1054274329
 11
6.055662636
 21
5.0996474328
  0
LINE
  5
2EA
100
AcDbEntity
  8
0
100
AcDbLine
 62
7
  6
CONTINUOUS
 10
6.2805495989
 20
3.9783674326
 11
6.2635947987
 21
3.9783674326
  0
LINE
  5
2EB
100
AcDbEntity
  8
0
100
AcDbLine
 62
7
  6
CONTINUOUS
 10
6.3020270289
 20
3.9907674326
 11
6.3428895412
 21
3.9907674326
  0
LINE
  5
2EC
100
AcDbEntity
  8
03__ASM_ALL_CURVES
100
AcDbLine
 62
40
  6
CONTINUOUS
 10
6.1083595131
 20
3.4154424327
 11
6.1051082631
 21
3.4197774329
  0
LINE
  5
2ED
100
AcDbEntity
  8
03__ASM_ALL_CURVES
100
AcDbLine
 62
40
  6
CONTINUOUS
 10
6.0758470131
 20
3.4587924336
 11
6.0823495131
 21
3.4501224326
  0
LINE
  5
2EE
100
AcDbEntity
  8
03__ASM_ALL_CURVES
100
AcDbLine
 62
40
  6
CONTINUOUS
 10
4.8914026367
 20
5.0996474328
 11
4.8957376367
 21
5.0938674326
  0
LINE
  5
2EF
100
AcDbEntity
  8
03__ASM_ALL_CURVES
100
AcDbLine
 62
40
  6
CONTINUOUS
 10
6.1327439018
 20
3.4905824327
 11
6.1262414018
 21
3.4992524326
  0
LINE
  5
2F0
100
AcDbEntity
  8
03__ASM_ALL_CURVES
100
AcDbLine
 62
40
  6
CONTINUOUS
 10
6.1002314018
 20
3.5339324336
 11
6.1034826518
 21
3.5295974316
  0
LINE
  5
2F1
100
AcDbEntity
  8
03__ASM_ALL_CURVES
100
AcDbLine
 62
40
  6
CONTINUOUS
 10
5.301372636
 20
5.1458874326
 11
5.305707636
 21
5.1285474326
  0
LINE
  5
2F2
100
AcDbEntity
  8
03__ASM_ALL_CURVES
100
AcDbLine
 62
40
  6
CONTINUOUS
 10
5.327382636
 20
5.1112074326
 11
5.323047636
 21
5.1285474326
  0
LINE
  5
2F3
100
AcDbEntity
  8
03__ASM_ALL_CURVES
100
AcDbLine
 62
40
  6
CONTINUOUS
 10
5.609157636
 20
5.0938674326
 11
5.609157636
 21
5.1632274326
  0
LINE
  5
2F4
100
AcDbEntity
  8
THREAD
100
AcDbLine
 62
7
  6
CONTINUOUS
 10
5.6195176367
 20
3.7612674326
 11
5.6195176367
 21
4.7532674326
  0
LINE
  5
2F5
100
AcDbEntity
  8
03__ASM_ALL_CURVES
100
AcDbLine
 62
40
  6
CONTINUOUS
 10
5.643837636
 20
5.0938674326
 11
5.643837636
 21
5.1632274326
  0
LINE
  5
2F6
100
AcDbEntity
  8
THREAD
100
AcDbLine
 62
7
  6
CONTINUOUS
 10
5.6635176367
 20
3.8052674326
 11
5.6635176367
 21
4.7092674326
  0
LINE
  5
2F7
100
AcDbEntity
  8
03__ASM_ALL_CURVES
100
AcDbLine
 62
40
  6
CONTINUOUS
 10
6.198717636
 20
5.1112074326
 11
6.190047636
 21
5.0996474328
  0
LINE
  5
2F8
100
AcDbEntity
  8
03__ASM_ALL_CURVES
100
AcDbLine
 62
40
  6
CONTINUOUS
 10
4.4102176367
 20
5.0938674326
 11
4.4015476367
 21
5.0996474328
  0
LINE
  5
2F9
100
AcDbEntity
  8
03__ASM_ALL_CURVES
100
AcDbLine
 62
40
  6
CONTINUOUS
 10
6.1522514018
 20
3.5339324336
 11
6.1587539018
 21
3.5252624326
  0
LINE
  5
2FA
100
AcDbEntity
  8
03__ASM_ALL_CURVES
100
AcDbLine
 62
40
  6
CONTINUOUS
 10
4.9781026367
 20
5.157447434
 11
4.9824376367
 21
5.1516674312
  0
LINE
  5
2FB
100
AcDbEntity
  8
03__ASM_ALL_CURVES
100
AcDbLine
 62
40
  6
CONTINUOUS
 10
6.2042714018
 20
3.5339324336
 11
6.2075226518
 21
3.5295974316
  0
LINE
  5
2FC
100
AcDbEntity
  8
03__ASM_ALL_CURVES
100
AcDbLine
 62
40
  6
CONTINUOUS
 10
5.418417636
 20
5.1632274326
 11
5.440092636
 21
5.0938674326
  0
LINE
  5
2FD
100
AcDbEntity
  8
03__ASM_ALL_CURVES
100
AcDbLine
 62
40
  6
CONTINUOUS
 10
5.713197636
 20
5.1285474326
 11
5.713197636
 21
5.1054274329
  0
LINE
  5
2FE
100
AcDbEntity
  8
03__ASM_ALL_CURVES
100
AcDbLine
 62
40
  6
CONTINUOUS
 10
5.947287636
 20
5.1285474326
 11
5.951622636
 21
5.1458874326
  0
LINE
  5
2FF
100
AcDbEntity
  8
03__ASM_ALL_CURVES
100
AcDbLine
 62
40
  6
CONTINUOUS
 10
5.999307636
 20
5.1285474326
 11
5.994972636
 21
5.1112074326
  0
LINE
  5
300
100
AcDbEntity
  8
03__ASM_ALL_CURVES
100
AcDbLine
 62
40
  6
CONTINUOUS
 10
6.337437636
 20
5.140107434
 11
6.333102636
 21
5.1343274312
  0
LINE
  5
301
100
AcDbEntity
  8
03__ASM_ALL_CURVES
100
AcDbLine
 62
40
  6
CONTINUOUS
 10
7.1545826375
 20
4.1936874326
 11
7.1285726375
 21
4.1936874326
  0
LINE
  5
302
100
AcDbEntity
  8
03__ASM_ALL_CURVES
100
AcDbLine
 62
40
  6
CONTINUOUS
 10
7.0765526375
 20
4.1936874326
 11
7.1025626375
 21
4.1936874326
  0
LINE
  5
303
100
AcDbEntity
  8
03__ASM_ALL_CURVES
100
AcDbLine
 62
40
  6
CONTINUOUS
 10
7.1285726375
 20
4.2196974326
 11
7.1448288875
 21
4.2196974326
  0
LINE
  5
304
100
AcDbEntity
  8
03__ASM_ALL_CURVES
100
AcDbLine
 62
40
  6
CONTINUOUS
 10
7.1285726375
 20
4.2457074326
 11
7.1545826375
 21
4.2457074326
  0
LINE
  5
305
100
AcDbEntity
  8
03__ASM_ALL_CURVES
100
AcDbLine
 62
40
  6
CONTINUOUS
 10
7.1773413875
 20
4.2457074326
 11
7.2098538875
 21
4.2457074326
  0
LINE
  5
306
100
AcDbEntity
  8
03__ASM_ALL_CURVES
100
AcDbLine
 62
40
  6
CONTINUOUS
 10
7.0537938871
 20
4.2688274326
 11
7.0472913871
 21
4.2688274326
  0
LINE
  5
307
100
AcDbEntity
  8
03__ASM_ALL_CURVES
100
AcDbLine
 62
40
  6
CONTINUOUS
 10
7.1058138871
 20
4.2948374326
 11
7.0895576371
 21
4.2948374326
  0
LINE
  5
308
100
AcDbEntity
  8
03__ASM_ALL_CURVES
100
AcDbLine
 62
40
  6
CONTINUOUS
 10
7.0017738871
 20
4.2948374326
 11
6.9855176371
 21
4.2948374326
  0
LINE
  5
309
100
AcDbEntity
  8
03__ASM_ALL_CURVES
100
AcDbLine
 62
40
  6
CONTINUOUS
 10
4.4102176367
 20
5.1632274326
 11
4.4188876367
 21
5.157447434
  0
LINE
  5
30A
100
AcDbEntity
  8
03__ASM_ALL_CURVES
100
AcDbLine
 62
40
  6
CONTINUOUS
 10
4.5489376367
 20
5.0938674326
 11
4.5402676367
 21
5.0996474328
  0
LINE
  5
30B
100
AcDbEntity
  8
03__ASM_ALL_CURVES
100
AcDbLine
 62
40
  6
CONTINUOUS
 10
4.6139626367
 20
5.0938674326
 11
4.6052926367
 21
5.0996474328
  0
LINE
  5
30C
100
AcDbEntity
  8
03__ASM_ALL_CURVES
100
AcDbLine
 62
40
  6
CONTINUOUS
 10
6.3083114018
 20
3.5339324336
 11
6.3115626518
 21
3.5295974316
  0
LINE
  5
30D
100
AcDbEntity
  8
03__ASM_ALL_CURVES
100
AcDbLine
 62
40
  6
CONTINUOUS
 10
5.0994826367
 20
5.1632274326
 11
5.1081526367
 21
5.1516674312
  0
LINE
  5
30E
100
AcDbEntity
  8
03__ASM_ALL_CURVES
100
AcDbLine
 62
40
  6
CONTINUOUS
 10
5.817237636
 20
5.1516674312
 11
5.817237636
 21
5.1458874326
  0
LINE
  5
30F
100
AcDbEntity
  8
03__ASM_ALL_CURVES
100
AcDbLine
 62
40
  6
CONTINUOUS
 10
5.851917636
 20
5.1169874333
 11
5.851917636
 21
5.1054274329
  0
LINE
  5
310
100
AcDbEntity
  8
03__ASM_ALL_CURVES
100
AcDbLine
 62
40
  6
CONTINUOUS
 10
5.886597636
 20
5.1632274326
 11
5.886597636
 21
5.0938674326
  0
LINE
  5
311
100
AcDbEntity
  8
03__ASM_ALL_CURVES
100
AcDbLine
 62
40
  6
CONTINUOUS
 10
5.921277636
 20
5.1632274326
 11
5.921277636
 21
5.0938674326
  0
LINE
  5
312
100
AcDbEntity
  8
03__ASM_ALL_CURVES
100
AcDbLine
 62
40
  6
CONTINUOUS
 10
6.9855176371
 20
4.3208474326
 11
7.0017738871
 21
4.3208474326
  0
LINE
  5
313
100
AcDbEntity
  8
03__ASM_ALL_CURVES
100
AcDbLine
 62
40
  6
CONTINUOUS
 10
7.0472913871
 20
4.3208474326
 11
7.0537938871
 21
4.3208474326
  0
LINE
  5
314
100
AcDbEntity
  8
03__ASM_ALL_CURVES
100
AcDbLine
 62
40
  6
CONTINUOUS
 10
7.0895576371
 20
4.3208474326
 11
7.1058138871
 21
4.3208474326
  0
LINE
  5
315
100
AcDbEntity
  8
03__ASM_ALL_CURVES
100
AcDbLine
 62
40
  6
CONTINUOUS
 10
7.1383263871
 20
4.3208474326
 11
7.1708388871
 21
4.3208474326
  0
LINE
  5
316
100
AcDbEntity
  8
THREAD
100
AcDbLine
 62
7
  6
CONTINUOUS
 10
5.1218740431
 20
4.7724373056
 11
5.1030176367
 21
4.7833240569
  0
LINE
  5
317
100
AcDbEntity
  8
03__ASM_ALL_CURVES
100
AcDbLine
 62
40
  6
CONTINUOUS
 10
4.5489376367
 20
5.1632274326
 11
4.5576076367
 21
5.157447434
  0
LINE
  5
318
100
AcDbEntity
  8
03__ASM_ALL_CURVES
100
AcDbLine
 62
40
  6
CONTINUOUS
 10
4.6139626367
 20
5.1343274312
 11
4.6052926367
 21
5.140107434
  0
LINE
  5
319
100
AcDbEntity
  8
03__ASM_ALL_CURVES
100
AcDbLine
 62
40
  6
CONTINUOUS
 10
4.6226326367
 20
5.1343274312
 11
4.6313026367
 21
5.1285474326
  0
LINE
  5
31A
100
AcDbEntity
  8
03__ASM_ALL_CURVES
100
AcDbLine
 62
40
  6
CONTINUOUS
 10
4.6226326367
 20
5.1632274326
 11
4.6313026367
 21
5.157447434
  0
LINE
  5
31B
100
AcDbEntity
  8
03__ASM_ALL_CURVES
100
AcDbLine
 62
40
  6
CONTINUOUS
 10
5.266692636
 20
5.0996474328
 11
5.258022636
 21
5.1112074326
  0
LINE
  5
31C
100
AcDbEntity
  8
03__ASM_ALL_CURVES
100
AcDbLine
 62
40
  6
CONTINUOUS
 10
5.336052636
 20
5.0996474328
 11
5.327382636
 21
5.1112074326
  0
LINE
  5
31D
100
AcDbEntity
  8
03__ASM_ALL_CURVES
100
AcDbLine
 62
40
  6
CONTINUOUS
 10
5.292702636
 20
5.157447434
 11
5.301372636
 21
5.1458874326
  0
LINE
  5
31E
100
AcDbEntity
  8
03__ASM_ALL_CURVES
100
AcDbLine
 62
40
  6
CONTINUOUS
 10
6.1977689018
 20
3.5122574326
 11
6.2075226518
 21
3.4862474326
  0
LINE
  5
31F
100
AcDbEntity
  8
03__ASM_ALL_CURVES
100
AcDbLine
 62
40
  6
CONTINUOUS
 10
6.0498370131
 20
3.4241124326
 11
6.0465857631
 21
3.4371174326
  0
LINE
  5
320
100
AcDbEntity
  8
03__ASM_ALL_CURVES
100
AcDbLine
 62
40
  6
CONTINUOUS
 10
6.0823495131
 20
3.4501224326
 11
6.0856007631
 21
3.4371174326
  0
LINE
  5
321
100
AcDbEntity
  8
03__ASM_ALL_CURVES
100
AcDbLine
 62
40
  6
CONTINUOUS
 10
5.674182636
 20
5.1112074326
 11
5.669847636
 21
5.1285474326
  0
LINE
  5
322
100
AcDbEntity
  8
03__ASM_ALL_CURVES
100
AcDbLine
 62
40
  6
CONTINUOUS
 10
6.1262414018
 20
3.4992524326
 11
6.1229901518
 21
3.5122574326
  0
LINE
  5
323
100
AcDbEntity
  8
0
100
AcDbLine
 62
7
  6
CONTINUOUS
 10
5.9595176367
 20
3.8052674326
 11
5.9595176367
 21
4.7092674326
  0
LINE
  5
324
100
AcDbEntity
  8
0
100
AcDbLine
 62
7
  6
CONTINUOUS
 10
5.9755176367
 20
3.8212674326
 11
5.9755176367
 21
4.6932674326
  0
LINE
  5
325
100
AcDbEntity
  8
0
100
AcDbLine
 62
7
  6
CONTINUOUS
 10
5.9820270289
 20
4.1246471278
 11
5.9820270289
 21
4.0678169251
  0
LINE
  5
326
100
AcDbEntity
  8
03__ASM_ALL_CURVES
100
AcDbLine
 62
40
  6
CONTINUOUS
 10
6.025317636
 20
5.1054274329
 11
6.025317636
 21
5.1632274326
  0
LINE
  5
327
100
AcDbEntity
  8
03__ASM_ALL_CURVES
100
AcDbLine
 62
40
  6
CONTINUOUS
 10
6.203052636
 20
5.1285474326
 11
6.198717636
 21
5.1112074326
  0
LINE
  5
328
100
AcDbEntity
  8
THREAD
100
AcDbLine
 62
7
  6
CONTINUOUS
 10
5.1218740431
 20
3.7420975596
 11
5.1030176367
 21
3.7312108083
  0
LINE
  5
329
100
AcDbEntity
  8
THREAD
100
AcDbLine
 62
7
  6
CONTINUOUS
 10
5.6635176367
 20
4.7092674326
 11
5.6195176367
 21
4.7532674326
  0
LINE
  5
32A
100
AcDbEntity
  8
03__ASM_ALL_CURVES
100
AcDbLine
 62
40
  6
CONTINUOUS
 10
5.362062636
 20
5.157447434
 11
5.366397636
 21
5.1516674312
  0
LINE
  5
32B
100
AcDbEntity
  8
03__ASM_ALL_CURVES
100
AcDbLine
 62
40
  6
CONTINUOUS
 10
5.609157636
 20
5.1632274326
 11
5.643837636
 21
5.0938674326
  0
LINE
  5
32C
100
AcDbEntity
  8
03__ASM_ALL_CURVES
100
AcDbLine
 62
40
  6
CONTINUOUS
 10
6.1587539018
 20
3.5252624326
 11
6.1620051518
 21
3.5122574326
  0
LINE
  5
32D
100
AcDbEntity
  8
03__ASM_ALL_CURVES
100
AcDbLine
 62
40
  6
CONTINUOUS
 10
6.059997636
 20
5.1632274326
 11
6.059997636
 21
5.1054274329
  0
LINE
  5
32E
100
AcDbEntity
  8
03__ASM_ALL_CURVES
100
AcDbLine
 62
40
  6
CONTINUOUS
 10
6.0774726518
 20
3.4862474326
 11
6.0774726518
 21
3.5382674326
  0
LINE
  5
32F
100
AcDbEntity
  8
03__ASM_ALL_CURVES
100
AcDbLine
 62
40
  6
CONTINUOUS
 10
6.094677636
 20
5.1632274326
 11
6.094677636
 21
5.0938674326
  0
LINE
  5
330
100
AcDbEntity
  8
03__ASM_ALL_CURVES
100
AcDbLine
 62
40
  6
CONTINUOUS
 10
6.1034826518
 20
3.5295974316
 11
6.1034826518
 21
3.5209274336
  0
LINE
  5
331
100
AcDbEntity
  8
03__ASM_ALL_CURVES
100
AcDbLine
 62
40
  6
CONTINUOUS
 10
6.1051082631
 20
3.4197774329
 11
6.1051082631
 21
3.4631274326
  0
LINE
  5
332
100
AcDbEntity
  8
03__ASM_ALL_CURVES
100
AcDbLine
 62
40
  6
CONTINUOUS
 10
6.1311182631
 20
3.4631274326
 11
6.1311182631
 21
3.4197774329
  0
LINE
  5
333
100
AcDbEntity
  8
THREAD
100
AcDbLine
 62
7
  6
CONTINUOUS
 10
5.6635176367
 20
3.8052674326
 11
5.6195176367
 21
3.7612674326
  0
LINE
  5
334
100
AcDbEntity
  8
0
100
AcDbLine
 62
7
  6
CONTINUOUS
 10
6.3020270289
 20
4.5237674326
 11
6.342894596
 21
4.5237674326
  0
LINE
  5
335
100
AcDbEntity
  8
0
100
AcDbLine
 62
7
  6
CONTINUOUS
 10
6.2805495989
 20
4.5361674326
 11
6.2640080358
 21
4.5361674326
  0
LINE
  5
336
100
AcDbEntity
  8
0
100
AcDbLine
 62
7
  6
CONTINUOUS
 10
4.8570920108
 20
4.5497880515
 11
4.4591283079
 21
4.5497880515
  0
LINE
  5
337
100
AcDbEntity
  8
0
100
AcDbLine
 62
7
  6
CONTINUOUS
 10
4.8570920108
 20
4.5981321231
 11
4.4591283079
 21
4.5981321231
  0
LINE
  5
338
100
AcDbEntity
  8
0
100
AcDbLine
 62
7
  6
CONTINUOUS
 10
6.4125176367
 20
4.6312674326
 11
6.0610176367
 21
4.6312674326
  0
LINE
  5
339
100
AcDbEntity
  8
03__ASM_ALL_CURVES
100
AcDbLine
 62
40
  6
CONTINUOUS
 10
4.5489376367
 20
5.1343274312
 11
4.5619426367
 21
5.1285474326
  0
LINE
  5
33A
100
AcDbEntity
  8
03__ASM_ALL_CURVES
100
AcDbLine
 62
40
  6
CONTINUOUS
 10
4.9694326367
 20
5.1632274326
 11
4.9781026367
 21
5.157447434
  0
LINE
  5
33B
100
AcDbEntity
  8
03__ASM_ALL_CURVES
100
AcDbLine
 62
40
  6
CONTINUOUS
 10
5.951622636
 20
5.1112074326
 11
5.947287636
 21
5.1285474326
  0
LINE
  5
33C
100
AcDbEntity
  8
03__ASM_ALL_CURVES
100
AcDbLine
 62
40
  6
CONTINUOUS
 10
6.164037636
 20
5.0938674326
 11
6.164037636
 21
5.1632274326
  0
LINE
  5
33D
100
AcDbEntity
  8
03__ASM_ALL_CURVES
100
AcDbLine
 62
40
  6
CONTINUOUS
 10
6.1701332631
 20
3.4631274326
 11
6.1701332631
 21
3.4111074326
  0
LINE
  5
33E
100
AcDbEntity
  8
03__ASM_ALL_CURVES
100
AcDbLine
 62
40
  6
CONTINUOUS
 10
6.1815126518
 20
3.4862474326
 11
6.1815126518
 21
3.5382674326
  0
LINE
  5
33F
100
AcDbEntity
  8
03__ASM_ALL_CURVES
100
AcDbLine
 62
40
  6
CONTINUOUS
 10
6.2075226518
 20
3.5295974316
 11
6.2075226518
 21
3.5209274336
  0
LINE
  5
340
100
AcDbEntity
  8
03__ASM_ALL_CURVES
100
AcDbLine
 62
40
  6
CONTINUOUS
 10
6.2091482631
 20
3.4631274326
 11
6.2091482631
 21
3.4111074326
  0
LINE
  5
341
100
AcDbEntity
  8
03__ASM_ALL_CURVES
100
AcDbLine
 62
40
  6
CONTINUOUS
 10
6.233397636
 20
5.0938674326
 11
6.233397636
 21
5.1632274326
  0
LINE
  5
342
100
AcDbEntity
  8
03__ASM_ALL_CURVES
100
AcDbLine
 62
40
  6
CONTINUOUS
 10
6.2465376518
 20
3.5382674326
 11
6.2465376518
 21
3.4862474326
  0
LINE
  5
343
100
AcDbEntity
  8
03__ASM_ALL_CURVES
100
AcDbLine
 62
40
  6
CONTINUOUS
 10
6.0465857631
 20
3.4371174326
 11
6.0498370131
 21
3.4501224326
  0
LINE
  5
344
100
AcDbEntity
  8
0
100
AcDbLine
 62
7
  6
CONTINUOUS
 10
5.9755176367
 20
3.8212674326
 11
5.9595176367
 21
3.8052674326
  0
LINE
  5
345
100
AcDbEntity
  8
0
100
AcDbLine
 62
7
  6
CONTINUOUS
 10
6.6675176367
 20
4.6392674326
 11
6.6395176367
 21
4.6392674326
  0
LINE
  5
346
100
AcDbEntity
  8
0
100
AcDbLine
 62
7
  6
CONTINUOUS
 10
6.4695176367
 20
4.6932674326
 11
6.5195176367
 21
4.6932674326
  0
LINE
  5
347
100
AcDbEntity
  8
0
100
AcDbLine
 62
7
  6
CONTINUOUS
 10
6.5895176367
 20
4.6932674326
 11
6.6395176367
 21
4.6932674326
  0
LINE
  5
348
100
AcDbEntity
  8
0
100
AcDbLine
 62
7
  6
CONTINUOUS
 10
6.4125176367
 20
4.6937674326
 11
6.4695176367
 21
4.6937674326
  0
LINE
  5
349
100
AcDbEntity
  8
0
100
AcDbLine
 62
7
  6
CONTINUOUS
 10
6.6675176367
 20
4.6937674326
 11
6.7095176367
 21
4.6937674326
  0
LINE
  5
34A
100
AcDbEntity
  8
THREAD
100
AcDbLine
 62
7
  6
CONTINUOUS
 10
5.9595176367
 20
4.7092674326
 11
5.6635176367
 21
4.7092674326
  0
LINE
  5
34B
100
AcDbEntity
  8
THREAD
100
AcDbLine
 62
7
  6
CONTINUOUS
 10
5.2813007583
 20
4.7152674326
 11
5.2675176367
 21
4.7152674326
  0
LINE
  5
34C
100
AcDbEntity
  8
0
100
AcDbLine
 62
7
  6
CONTINUOUS
 10
6.2805495989
 20
4.5361674326
 11
6.3020270289
 21
4.5237674326
  0
LINE
  5
34D
100
AcDbEntity
  8
03__ASM_ALL_CURVES
100
AcDbLine
 62
40
  6
CONTINUOUS
 10
5.275362636
 20
5.0938674326
 11
5.266692636
 21
5.0996474328
  0
LINE
  5
34E
100
AcDbEntity
  8
03__ASM_ALL_CURVES
100
AcDbLine
 62
40
  6
CONTINUOUS
 10
5.344722636
 20
5.0938674326
 11
5.336052636
 21
5.0996474328
  0
LINE
  5
34F
100
AcDbEntity
  8
03__ASM_ALL_CURVES
100
AcDbLine
 62
40
  6
CONTINUOUS
 10
5.284032636
 20
5.1632274326
 11
5.292702636
 21
5.157447434
  0
LINE
  5
350
100
AcDbEntity
  8
0
100
AcDbLine
 62
7
  6
CONTINUOUS
 10
5.9755176367
 20
4.6932674326
 11
5.9595176367
 21
4.7092674326
  0
LINE
  5
351
100
AcDbEntity
  8
03__ASM_ALL_CURVES
100
AcDbLine
 62
40
  6
CONTINUOUS
 10
5.682852636
 20
5.0996474328
 11
5.674182636
 21
5.1112074326
  0
LINE
  5
352
100
AcDbEntity
  8
03__ASM_ALL_CURVES
100
AcDbLine
 62
40
  6
CONTINUOUS
 10
5.708862636
 20
5.157447434
 11
5.713197636
 21
5.1516674312
  0
LINE
  5
353
100
AcDbEntity
  8
03__ASM_ALL_CURVES
100
AcDbLine
 62
40
  6
CONTINUOUS
 10
5.994972636
 20
5.1458874326
 11
5.999307636
 21
5.1285474326
  0
LINE
  5
354
100
AcDbEntity
  8
03__ASM_ALL_CURVES
100
AcDbLine
 62
40
  6
CONTINUOUS
 10
6.2611682631
 20
3.4111074326
 11
6.2611682631
 21
3.4631274326
  0
LINE
  5
355
100
AcDbEntity
  8
0
100
AcDbLine
 62
7
  6
CONTINUOUS
 10
6.2805495989
 20
3.9783674326
 11
6.2805495989
 21
4.001790224
  0
LINE
  5
356
100
AcDbEntity
  8
0
100
AcDbLine
 62
7
  6
CONTINUOUS
 10
6.2805495989
 20
4.1484451757
 11
6.2805495989
 21
4.3660639327
  0
LINE
  5
357
100
AcDbEntity
  8
0
100
AcDbLine
 62
7
  6
CONTINUOUS
 10
6.2805495989
 20
4.5127441557
 11
6.2805495989
 21
4.5361674326
  0
LINE
  5
358
100
AcDbEntity
  8
0
100
AcDbLine
 62
7
  6
CONTINUOUS
 10
6.3020270289
 20
4.0012200552
 11
6.3020270289
 21
3.9907674326
  0
LINE
  5
359
100
AcDbEntity
  8
0
100
AcDbLine
 62
7
  6
CONTINUOUS
 10
6.3020270289
 20
4.1491944221
 11
6.3020270289
 21
4.3653139245
  0
LINE
  5
35A
100
AcDbEntity
  8
0
100
AcDbLine
 62
7
  6
CONTINUOUS
 10
6.3020270289
 20
4.513313858
 11
6.3020270289
 21
4.5237674326
  0
LINE
  5
35B
100
AcDbEntity
  8
03__ASM_ALL_CURVES
100
AcDbLine
 62
40
  6
CONTINUOUS
 10
6.302757636
 20
5.0938674326
 11
6.302757636
 21
5.1632274326
  0
LINE
  5
35C
100
AcDbEntity
  8
03__ASM_ALL_CURVES
100
AcDbLine
 62
40
  6
CONTINUOUS
 10
6.3115626518
 20
3.5295974316
 11
6.3115626518
 21
3.5209274336
  0
LINE
  5
35D
100
AcDbEntity
  8
03__ASM_ALL_CURVES
100
AcDbLine
 62
40
  6
CONTINUOUS
 10
6.3261932631
 20
3.4631274326
 11
6.3261932631
 21
3.4111074326
  0
LINE
  5
35E
100
AcDbEntity
  8
03__ASM_ALL_CURVES
100
AcDbLine
 62
40
  6
CONTINUOUS
 10
6.337437636
 20
5.1516674312
 11
6.337437636
 21
5.140107434
  0
LINE
  5
35F
100
AcDbEntity
  8
03__ASM_ALL_CURVES
100
AcDbLine
 62
40
  6
CONTINUOUS
 10
6.0856007631
 20
3.4371174326
 11
6.0823495131
 21
3.4241124326
  0
LINE
  5
360
100
AcDbEntity
  8
03__ASM_ALL_CURVES
100
AcDbLine
 62
40
  6
CONTINUOUS
 10
6.1229901518
 20
3.5122574326
 11
6.1262414018
 21
3.5252624326
  0
LINE
  5
361
100
AcDbEntity
  8
03__ASM_ALL_CURVES
100
AcDbLine
 62
40
  6
CONTINUOUS
 10
6.1620051518
 20
3.5122574326
 11
6.1587539018
 21
3.4992524326
  0
LINE
  5
362
100
AcDbEntity
  8
0
100
AcDbLine
 62
7
  6
CONTINUOUS
 10
6.2805495989
 20
3.9783674326
 11
6.3020270289
 21
3.9907674326
  0
LINE
  5
363
100
AcDbEntity
  8
THREAD
100
AcDbLine
 62
7
  6
CONTINUOUS
 10
5.6195176367
 20
4.7532674326
 11
5.3104569469
 21
4.7532674326
  0
LINE
  5
364
100
AcDbEntity
  8
0
100
AcDbLine
 62
7
  6
CONTINUOUS
 10
5.2175176367
 20
4.7692674326
 11
5.2675176367
 21
4.7692674326
  0
LINE
  5
365
100
AcDbEntity
  8
THREAD
100
AcDbLine
 62
7
  6
CONTINUOUS
 10
5.1475176367
 20
4.7717674326
 11
5.1243740431
 21
4.7717674326
  0
LINE
  5
366
100
AcDbEntity
  8
0
100
AcDbLine
 62
7
  6
CONTINUOUS
 10
5.0975176367
 20
4.7952674326
 11
4.9125176367
 21
4.7952674326
  0
LINE
  5
367
100
AcDbEntity
  8
03__ASM_ALL_CURVES
100
AcDbLine
 62
40
  6
CONTINUOUS
 10
4.4828776367
 20
5.0591874326
 11
4.4135176367
 21
5.0707474326
  0
LINE
  5
368
100
AcDbEntity
  8
03__ASM_ALL_CURVES
100
AcDbLine
 62
40
  6
CONTINUOUS
 10
5.353392636
 20
5.1632274326
 11
5.362062636
 21
5.157447434
  0
LINE
  5
369
100
AcDbEntity
  8
03__ASM_ALL_CURVES
100
AcDbLine
 62
40
  6
CONTINUOUS
 10
5.821572636
 20
5.0996474328
 11
5.812902636
 21
5.1112074326
  0
LINE
  5
36A
100
AcDbEntity
  8
03__ASM_ALL_CURVES
100
AcDbLine
 62
40
  6
CONTINUOUS
 10
5.817237636
 20
5.1458874326
 11
5.821572636
 21
5.140107434
  0
LINE
  5
36B
100
AcDbEntity
  8
03__ASM_ALL_CURVES
100
AcDbLine
 62
40
  6
CONTINUOUS
 10
5.847582636
 20
5.1227674319
 11
5.851917636
 21
5.1169874333
  0
LINE
  5
36C
100
AcDbEntity
  8
03__ASM_ALL_CURVES
100
AcDbLine
 62
40
  6
CONTINUOUS
 10
5.851917636
 20
5.1516674312
 11
5.847582636
 21
5.157447434
  0
LINE
  5
36D
100
AcDbEntity
  8
0
100
AcDbLine
 62
7
  6
CONTINUOUS
 10
6.4125176367
 20
4.6937674326
 11
6.4125176367
 21
3.8207674326
  0
LINE
  5
36E
100
AcDbEntity
  8
0
100
AcDbLine
 62
7
  6
CONTINUOUS
 10
6.4695176367
 20
4.6937674326
 11
6.4695176367
 21
3.8207674326
  0
LINE
  5
36F
100
AcDbEntity
  8
03__ASM_ALL_CURVES
100
AcDbLine
 62
40
  6
CONTINUOUS
 10
6.2888039018
 20
3.4992524326
 11
6.2855526518
 21
3.4862474326
  0
LINE
  5
370
100
AcDbEntity
  8
03__ASM_ALL_CURVES
100
AcDbLine
 62
40
  6
CONTINUOUS
 10
7.0082763871
 20
4.2991724316
 11
7.0017738871
 21
4.2948374326
  0
LINE
  5
371
100
AcDbEntity
  8
03__ASM_ALL_CURVES
100
AcDbLine
 62
40
  6
CONTINUOUS
 10
7.0407888871
 20
4.3165124336
 11
7.0472913871
 21
4.3208474326
  0
LINE
  5
372
100
AcDbEntity
  8
0
100
AcDbLine
 62
7
  6
CONTINUOUS
 10
4.8570920108
 20
4.8906527421
 11
4.4591283079
 21
4.8906527421
  0
LINE
  5
373
100
AcDbEntity
  8
0
100
AcDbLine
 62
7
  6
CONTINUOUS
 10
4.8570920108
 20
4.8912674326
 11
4.4591283079
 21
4.8912674326
  0
LINE
  5
374
100
AcDbEntity
  8
03__ASM_ALL_CURVES
100
AcDbLine
 62
40
  6
CONTINUOUS
 10
4.4828776367
 20
5.0649674326
 11
4.4135176367
 21
5.0707474326
  0
LINE
  5
375
100
AcDbEntity
  8
03__ASM_ALL_CURVES
100
AcDbLine
 62
40
  6
CONTINUOUS
 10
4.4828776367
 20
5.0630407659
 11
4.4135176367
 21
5.0707474326
  0
LINE
  5
376
100
AcDbEntity
  8
03__ASM_ALL_CURVES
100
AcDbLine
 62
40
  6
CONTINUOUS
 10
4.4828776367
 20
5.0611140993
 11
4.4135176367
 21
5.0707474326
  0
LINE
  5
377
100
AcDbEntity
  8
03__ASM_ALL_CURVES
100
AcDbLine
 62
40
  6
CONTINUOUS
 10
5.1698776367
 20
5.0591874326
 11
5.0311576367
 21
5.0823074326
  0
LINE
  5
378
100
AcDbEntity
  8
03__ASM_ALL_CURVES
100
AcDbLine
 62
40
  6
CONTINUOUS
 10
5.691522636
 20
5.0938674326
 11
5.682852636
 21
5.0996474328
  0
LINE
  5
379
100
AcDbEntity
  8
03__ASM_ALL_CURVES
100
AcDbLine
 62
40
  6
CONTINUOUS
 10
5.700192636
 20
5.1632274326
 11
5.708862636
 21
5.157447434
  0
LINE
  5
37A
100
AcDbEntity
  8
03__ASM_ALL_CURVES
100
AcDbLine
 62
40
  6
CONTINUOUS
 10
7.0472913871
 20
4.2688274326
 11
7.0407888871
 21
4.2731624327
  0
LINE
  5
37B
100
AcDbEntity
  8
03__ASM_ALL_CURVES
100
AcDbLine
 62
40
  6
CONTINUOUS
 10
5.960292636
 20
5.0996474328
 11
5.951622636
 21
5.1112074326
  0
LINE
  5
37C
100
AcDbEntity
  8
03__ASM_ALL_CURVES
100
AcDbLine
 62
40
  6
CONTINUOUS
 10
6.029652636
 20
5.0996474328
 11
6.025317636
 21
5.1054274329
  0
LINE
  5
37D
100
AcDbEntity
  8
03__ASM_ALL_CURVES
100
AcDbLine
 62
40
  6
CONTINUOUS
 10
5.986302636
 20
5.157447434
 11
5.994972636
 21
5.1458874326
  0
LINE
  5
37E
100
AcDbEntity
  8
03__ASM_ALL_CURVES
100
AcDbLine
 62
40
  6
CONTINUOUS
 10
6.198717636
 20
5.1458874326
 11
6.203052636
 21
5.1285474326
  0
LINE
  5
37F
100
AcDbEntity
  8
0
100
AcDbLine
 62
7
  6
CONTINUOUS
 10
6.5195176367
 20
3.8212680955
 11
6.5195176367
 21
4.6932667697
  0
LINE
  5
380
100
AcDbEntity
  8
0
100
AcDbLine
 62
7
  6
CONTINUOUS
 10
6.5895176367
 20
3.8212680955
 11
6.5895176367
 21
4.6932667697
  0
LINE
  5
381
100
AcDbEntity
  8
03__ASM_ALL_CURVES
100
AcDbLine
 62
40
  6
CONTINUOUS
 10
6.0498370131
 20
3.4501224326
 11
6.0563395131
 21
3.4587924336
  0
LINE
  5
382
100
AcDbEntity
  8
03__ASM_ALL_CURVES
100
AcDbLine
 62
40
  6
CONTINUOUS
 10
6.1034826518
 20
3.5209274336
 11
6.1002314018
 21
3.5165924316
  0
LINE
  5
383
100
AcDbEntity
  8
03__ASM_ALL_CURVES
100
AcDbLine
 62
40
  6
CONTINUOUS
 10
6.1262414018
 20
3.5252624326
 11
6.1327439018
 21
3.5339324336
  0
LINE
  5
384
100
AcDbEntity
  8
03__ASM_ALL_CURVES
100
AcDbLine
 62
40
  6
CONTINUOUS
 10
6.0823495131
 20
3.4241124326
 11
6.0758470131
 21
3.4154424327
  0
LINE
  5
385
100
AcDbEntity
  8
03__ASM_ALL_CURVES
100
AcDbLine
 62
40
  6
CONTINUOUS
 10
6.1587539018
 20
3.4992524326
 11
6.1522514018
 21
3.4905824327
  0
LINE
  5
386
100
AcDbEntity
  8
03__ASM_ALL_CURVES
100
AcDbLine
 62
40
  6
CONTINUOUS
 10
6.1311182631
 20
3.4197774329
 11
6.1278670131
 21
3.4154424327
  0
LINE
  5
387
100
AcDbEntity
  8
03__ASM_ALL_CURVES
100
AcDbLine
 62
40
  6
CONTINUOUS
 10
6.2075226518
 20
3.5209274336
 11
6.2042714018
 21
3.5165924316
  0
LINE
  5
388
100
AcDbEntity
  8
03__ASM_ALL_CURVES
100
AcDbLine
 62
40
  6
CONTINUOUS
 10
7.0602963871
 20
4.2731624327
 11
7.0537938871
 21
4.2688274326
  0
LINE
  5
389
100
AcDbEntity
  8
03__ASM_ALL_CURVES
100
AcDbLine
 62
40
  6
CONTINUOUS
 10
7.1123163871
 20
4.2991724316
 11
7.1058138871
 21
4.2948374326
  0
LINE
  5
38A
100
AcDbEntity
  8
03__ASM_ALL_CURVES
100
AcDbLine
 62
40
  6
CONTINUOUS
 10
4.4135176367
 20
5.0707474326
 11
6.4183576367
 21
5.0707474326
  0
LINE
  5
38B
100
AcDbEntity
  8
03__ASM_ALL_CURVES
100
AcDbLine
 62
40
  6
CONTINUOUS
 10
4.4828776367
 20
5.0688207659
 11
4.4135176367
 21
5.0707474326
  0
LINE
  5
38C
100
AcDbEntity
  8
03__ASM_ALL_CURVES
100
AcDbLine
 62
40
  6
CONTINUOUS
 10
5.0311576367
 20
5.0726740993
 11
5.1698776367
 21
5.0688207659
  0
LINE
  5
38D
100
AcDbEntity
  8
03__ASM_ALL_CURVES
100
AcDbLine
 62
40
  6
CONTINUOUS
 10
4.4828776367
 20
5.0668940993
 11
4.4135176367
 21
5.0707474326
  0
LINE
  5
38E
100
AcDbEntity
  8
03__ASM_ALL_CURVES
100
AcDbLine
 62
40
  6
CONTINUOUS
 10
5.0311576367
 20
5.0746007659
 11
5.1698776367
 21
5.0668940993
  0
LINE
  5
38F
100
AcDbEntity
  8
03__ASM_ALL_CURVES
100
AcDbLine
 62
40
  6
CONTINUOUS
 10
5.0311576367
 20
5.0765274326
 11
5.1698776367
 21
5.0649674326
  0
LINE
  5
390
100
AcDbEntity
  8
03__ASM_ALL_CURVES
100
AcDbLine
 62
40
  6
CONTINUOUS
 10
5.0311576367
 20
5.0784540993
 11
5.1698776367
 21
5.0630407659
  0
LINE
  5
391
100
AcDbEntity
  8
03__ASM_ALL_CURVES
100
AcDbLine
 62
40
  6
CONTINUOUS
 10
5.0311576367
 20
5.0803807659
 11
5.1698776367
 21
5.0611140993
  0
LINE
  5
392
100
AcDbEntity
  8
03__ASM_ALL_CURVES
100
AcDbLine
 62
40
  6
CONTINUOUS
 10
5.830242636
 20
5.0938674326
 11
5.821572636
 21
5.0996474328
  0
LINE
  5
393
100
AcDbEntity
  8
03__ASM_ALL_CURVES
100
AcDbLine
 62
40
  6
CONTINUOUS
 10
7.0017738871
 20
4.3208474326
 11
7.0082763871
 21
4.3165124336
  0
LINE
  5
394
100
AcDbEntity
  8
03__ASM_ALL_CURVES
100
AcDbLine
 62
40
  6
CONTINUOUS
 10
5.821572636
 20
5.140107434
 11
5.847582636
 21
5.1227674319
  0
LINE
  5
395
100
AcDbEntity
  8
03__ASM_ALL_CURVES
100
AcDbLine
 62
40
  6
CONTINUOUS
 10
7.0537938871
 20
4.3208474326
 11
7.0602963871
 21
4.3165124336
  0
LINE
  5
396
100
AcDbEntity
  8
03__ASM_ALL_CURVES
100
AcDbLine
 62
40
  6
CONTINUOUS
 10
5.847582636
 20
5.157447434
 11
5.838912636
 21
5.1632274326
  0
LINE
  5
397
100
AcDbEntity
  8
03__ASM_ALL_CURVES
100
AcDbLine
 62
40
  6
CONTINUOUS
 10
7.1058138871
 20
4.3208474326
 11
7.1123163871
 21
4.3165124336
  0
LINE
  5
398
100
AcDbEntity
  8
03__ASM_ALL_CURVES
100
AcDbLine
 62
40
  6
CONTINUOUS
 10
5.968962636
 20
5.0938674326
 11
5.960292636
 21
5.0996474328
  0
LINE
  5
399
100
AcDbEntity
  8
03__ASM_ALL_CURVES
100
AcDbLine
 62
40
  6
CONTINUOUS
 10
6.324432636
 20
5.1285474326
 11
6.337437636
 21
5.0938674326
  0
LINE
  5
39A
100
AcDbEntity
  8
0
100
AcDbLine
 62
7
  6
CONTINUOUS
 10
6.6395176367
 20
3.8212680955
 11
6.6395176367
 21
4.6932667697
  0
LINE
  5
39B
100
AcDbEntity
  8
0
100
AcDbLine
 62
7
  6
CONTINUOUS
 10
6.6675176367
 20
4.6937674326
 11
6.6675176367
 21
3.8207674326
  0
LINE
  5
39C
100
AcDbEntity
  8
03__ASM_ALL_CURVES
100
AcDbLine
 62
40
  6
CONTINUOUS
 10
6.2855526518
 20
3.5295974316
 11
6.2888039018
 21
3.5339324336
  0
LINE
  5
39D
100
AcDbEntity
  8
03__ASM_ALL_CURVES
100
AcDbLine
 62
40
  6
CONTINUOUS
 10
6.2953064018
 20
3.5079224321
 11
6.2888039018
 21
3.4992524326
  0
LINE
  5
39E
100
AcDbEntity
  8
03__ASM_ALL_CURVES
100
AcDbLine
 62
40
  6
CONTINUOUS
 10
6.3115626518
 20
3.5209274336
 11
6.3083114018
 21
3.5165924316
  0
LINE
  5
39F
100
AcDbEntity
  8
03__ASM_ALL_CURVES
100
AcDbLine
 62
40
  6
CONTINUOUS
 10
6.1002314018
 20
3.5165924316
 11
6.0937289018
 21
3.5122574326
  0
LINE
  5
3A0
100
AcDbEntity
  8
03__ASM_ALL_CURVES
100
AcDbLine
 62
40
  6
CONTINUOUS
 10
6.1327439018
 20
3.5339324336
 11
6.1392464018
 21
3.5382674326
  0
LINE
  5
3A1
100
AcDbEntity
  8
03__ASM_ALL_CURVES
100
AcDbLine
 62
40
  6
CONTINUOUS
 10
6.0563395131
 20
3.4587924336
 11
6.0628420131
 21
3.4631274326
  0
LINE
  5
3A2
100
AcDbEntity
  8
03__ASM_ALL_CURVES
100
AcDbLine
 62
40
  6
CONTINUOUS
 10
6.1522514018
 20
3.4905824327
 11
6.1457489018
 21
3.4862474326
  0
LINE
  5
3A3
100
AcDbEntity
  8
03__ASM_ALL_CURVES
100
AcDbLine
 62
40
  6
CONTINUOUS
 10
6.2042714018
 20
3.5165924316
 11
6.1977689018
 21
3.5122574326
  0
LINE
  5
3A4
100
AcDbEntity
  8
03__ASM_ALL_CURVES
100
AcDbLine
 62
40
  6
CONTINUOUS
 10
6.0758470131
 20
3.4154424327
 11
6.0693445131
 21
3.4111074326
  0
LINE
  5
3A5
100
AcDbEntity
  8
03__ASM_ALL_CURVES
100
AcDbLine
 62
40
  6
CONTINUOUS
 10
6.2888039018
 20
3.5339324336
 11
6.2953064018
 21
3.5382674326
  0
LINE
  5
3A6
100
AcDbEntity
  8
03__ASM_ALL_CURVES
100
AcDbLine
 62
40
  6
CONTINUOUS
 10
5.0311576367
 20
5.0591874326
 11
5.1698776367
 21
5.0823074326
  0
LINE
  5
3A7
100
AcDbEntity
  8
03__ASM_ALL_CURVES
100
AcDbLine
 62
40
  6
CONTINUOUS
 10
5.0311576367
 20
5.0611140993
 11
5.1698776367
 21
5.0803807659
  0
LINE
  5
3A8
100
AcDbEntity
  8
03__ASM_ALL_CURVES
100
AcDbLine
 62
40
  6
CONTINUOUS
 10
5.0311576367
 20
5.0630407659
 11
5.1698776367
 21
5.0784540993
  0
LINE
  5
3A9
100
AcDbEntity
  8
03__ASM_ALL_CURVES
100
AcDbLine
 62
40
  6
CONTINUOUS
 10
5.0311576367
 20
5.0649674326
 11
5.1698776367
 21
5.0765274326
  0
LINE
  5
3AA
100
AcDbEntity
  8
03__ASM_ALL_CURVES
100
AcDbLine
 62
40
  6
CONTINUOUS
 10
4.4828776367
 20
5.0765274326
 11
4.4135176367
 21
5.0707474326
  0
LINE
  5
3AB
100
AcDbEntity
  8
03__ASM_ALL_CURVES
100
AcDbLine
 62
40
  6
CONTINUOUS
 10
5.0311576367
 20
5.0668940993
 11
5.1698776367
 21
5.0746007659
  0
LINE
  5
3AC
100
AcDbEntity
  8
03__ASM_ALL_CURVES
100
AcDbLine
 62
40
  6
CONTINUOUS
 10
4.4828776367
 20
5.0746007659
 11
4.4135176367
 21
5.0707474326
  0
LINE
  5
3AD
100
AcDbEntity
  8
03__ASM_ALL_CURVES
100
AcDbLine
 62
40
  6
CONTINUOUS
 10
5.0311576367
 20
5.0688207659
 11
5.1698776367
 21
5.0726740993
  0
LINE
  5
3AE
100
AcDbEntity
  8
03__ASM_ALL_CURVES
100
AcDbLine
 62
40
  6
CONTINUOUS
 10
4.4828776367
 20
5.0726740993
 11
4.4135176367
 21
5.0707474326
  0
LINE
  5
3AF
100
AcDbEntity
  8
03__ASM_ALL_CURVES
100
AcDbLine
 62
40
  6
CONTINUOUS
 10
6.268077636
 20
5.0938674326
 11
6.233397636
 21
5.0938674326
  0
LINE
  5
3B0
100
AcDbEntity
  8
03__ASM_ALL_CURVES
100
AcDbLine
 62
40
  6
CONTINUOUS
 10
6.181377636
 20
5.0938674326
 11
6.164037636
 21
5.0938674326
  0
LINE
  5
3B1
100
AcDbEntity
  8
03__ASM_ALL_CURVES
100
AcDbLine
 62
40
  6
CONTINUOUS
 10
6.046992636
 20
5.0938674326
 11
6.038322636
 21
5.0938674326
  0
LINE
  5
3B2
100
AcDbEntity
  8
03__ASM_ALL_CURVES
100
AcDbLine
 62
40
  6
CONTINUOUS
 10
5.977632636
 20
5.0938674326
 11
5.968962636
 21
5.0938674326
  0
LINE
  5
3B3
100
AcDbEntity
  8
03__ASM_ALL_CURVES
100
AcDbLine
 62
40
  6
CONTINUOUS
 10
5.838912636
 20
5.0938674326
 11
5.830242636
 21
5.0938674326
  0
LINE
  5
3B4
100
AcDbEntity
  8
03__ASM_ALL_CURVES
100
AcDbLine
 62
40
  6
CONTINUOUS
 10
5.700192636
 20
5.0938674326
 11
5.691522636
 21
5.0938674326
  0
LINE
  5
3B5
100
AcDbEntity
  8
03__ASM_ALL_CURVES
100
AcDbLine
 62
40
  6
CONTINUOUS
 10
5.353392636
 20
5.0938674326
 11
5.344722636
 21
5.0938674326
  0
LINE
  5
3B6
100
AcDbEntity
  8
03__ASM_ALL_CURVES
100
AcDbLine
 62
40
  6
CONTINUOUS
 10
5.284032636
 20
5.0938674326
 11
5.275362636
 21
5.0938674326
  0
LINE
  5
3B7
100
AcDbEntity
  8
03__ASM_ALL_CURVES
100
AcDbLine
 62
40
  6
CONTINUOUS
 10
4.8957376367
 20
5.0938674326
 11
4.8914026367
 21
5.0938674326
  0
LINE
  5
3B8
100
AcDbEntity
  8
03__ASM_ALL_CURVES
100
AcDbLine
 62
40
  6
CONTINUOUS
 10
4.6226326367
 20
5.0938674326
 11
4.6139626367
 21
5.0938674326
  0
LINE
  5
3B9
100
AcDbEntity
  8
03__ASM_ALL_CURVES
100
AcDbLine
 62
40
  6
CONTINUOUS
 10
4.4795776367
 20
5.0938674326
 11
4.4752426367
 21
5.0938674326
  0
LINE
  5
3BA
100
AcDbEntity
  8
03__ASM_ALL_CURVES
100
AcDbLine
 62
40
  6
CONTINUOUS
 10
4.9477576367
 20
5.0938674326
 11
4.9824376367
 21
5.0938674326
  0
LINE
  5
3BB
100
AcDbEntity
  8
03__ASM_ALL_CURVES
100
AcDbLine
 62
40
  6
CONTINUOUS
 10
5.192997636
 20
5.0938674326
 11
5.227677636
 21
5.0938674326
  0
LINE
  5
3BC
100
AcDbEntity
  8
03__ASM_ALL_CURVES
100
AcDbLine
 62
40
  6
CONTINUOUS
 10
6.094677636
 20
5.0938674326
 11
6.129357636
 21
5.0938674326
  0
LINE
  5
3BD
100
AcDbEntity
  8
03__ASM_ALL_CURVES
100
AcDbLine
 62
40
  6
CONTINUOUS
 10
5.405412636
 20
5.1169874333
 11
5.431422636
 21
5.1169874333
  0
LINE
  5
3BE
100
AcDbEntity
  8
03__ASM_ALL_CURVES
100
AcDbLine
 62
40
  6
CONTINUOUS
 10
6.324432636
 20
5.1285474326
 11
6.302757636
 21
5.1285474326
  0
LINE
  5
3BF
100
AcDbEntity
  8
03__ASM_ALL_CURVES
100
AcDbLine
 62
40
  6
CONTINUOUS
 10
5.695857636
 20
5.1285474326
 11
5.713197636
 21
5.1285474326
  0
LINE
  5
3C0
100
AcDbEntity
  8
03__ASM_ALL_CURVES
100
AcDbLine
 62
40
  6
CONTINUOUS
 10
5.886597636
 20
5.1285474326
 11
5.921277636
 21
5.1285474326
  0
LINE
  5
3C1
100
AcDbEntity
  8
03__ASM_ALL_CURVES
100
AcDbLine
 62
40
  6
CONTINUOUS
 10
6.233397636
 20
5.1285474326
 11
6.255072636
 21
5.1285474326
  0
LINE
  5
3C2
100
AcDbEntity
  8
03__ASM_ALL_CURVES
100
AcDbLine
 62
40
  6
CONTINUOUS
 10
4.6139626367
 20
5.1343274312
 11
4.6226326367
 21
5.1343274312
  0
LINE
  5
3C3
100
AcDbEntity
  8
03__ASM_ALL_CURVES
100
AcDbLine
 62
40
  6
CONTINUOUS
 10
5.838912636
 20
5.1632274326
 11
5.830242636
 21
5.1632274326
  0
LINE
  5
3C4
100
AcDbEntity
  8
03__ASM_ALL_CURVES
100
AcDbLine
 62
40
  6
CONTINUOUS
 10
5.0517976367
 20
5.1632274326
 11
5.0171176367
 21
5.1632274326
  0
LINE
  5
3C5
100
AcDbEntity
  8
03__ASM_ALL_CURVES
100
AcDbLine
 62
40
  6
CONTINUOUS
 10
4.8437176367
 20
5.1632274326
 11
4.8090376367
 21
5.1632274326
  0
LINE
  5
3C6
100
AcDbEntity
  8
03__ASM_ALL_CURVES
100
AcDbLine
 62
40
  6
CONTINUOUS
 10
4.6139626367
 20
5.1632274326
 11
4.6226326367
 21
5.1632274326
  0
LINE
  5
3C7
100
AcDbEntity
  8
03__ASM_ALL_CURVES
100
AcDbLine
 62
40
  6
CONTINUOUS
 10
4.9607626367
 20
5.1632274326
 11
4.9694326367
 21
5.1632274326
  0
LINE
  5
3C8
100
AcDbEntity
  8
03__ASM_ALL_CURVES
100
AcDbLine
 62
40
  6
CONTINUOUS
 10
5.275362636
 20
5.1632274326
 11
5.284032636
 21
5.1632274326
  0
LINE
  5
3C9
100
AcDbEntity
  8
03__ASM_ALL_CURVES
100
AcDbLine
 62
40
  6
CONTINUOUS
 10
5.344722636
 20
5.1632274326
 11
5.353392636
 21
5.1632274326
  0
LINE
  5
3CA
100
AcDbEntity
  8
03__ASM_ALL_CURVES
100
AcDbLine
 62
40
  6
CONTINUOUS
 10
5.466102636
 20
5.1632274326
 11
5.509452636
 21
5.1632274326
  0
LINE
  5
3CB
100
AcDbEntity
  8
03__ASM_ALL_CURVES
100
AcDbLine
 62
40
  6
CONTINUOUS
 10
5.691522636
 20
5.1632274326
 11
5.700192636
 21
5.1632274326
  0
LINE
  5
3CC
100
AcDbEntity
  8
03__ASM_ALL_CURVES
100
AcDbLine
 62
40
  6
CONTINUOUS
 10
5.968962636
 20
5.1632274326
 11
5.977632636
 21
5.1632274326
  0
LINE
  5
3CD
100
AcDbEntity
  8
03__ASM_ALL_CURVES
100
AcDbLine
 62
40
  6
CONTINUOUS
 10
6.164037636
 20
5.1632274326
 11
6.181377636
 21
5.1632274326
  0
LINE
  5
3CE
100
AcDbEntity
  8
03__ASM_ALL_CURVES
100
AcDbLine
 62
40
  6
CONTINUOUS
 10
6.233397636
 20
5.1632274326
 11
6.268077636
 21
5.1632274326
  0
LINE
  5
3CF
100
AcDbEntity
  8
03__ASM_ALL_CURVES
100
AcDbLine
 62
40
  6
CONTINUOUS
 10
6.302757636
 20
5.1632274326
 11
6.324432636
 21
5.1632274326
  0
LINE
  5
3D0
100
AcDbEntity
  8
03__ASM_ALL_CURVES
100
AcDbLine
 62
40
  6
CONTINUOUS
 10
6.038322636
 20
5.0938674326
 11
6.029652636
 21
5.0996474328
  0
LINE
  5
3D1
100
AcDbEntity
  8
03__ASM_ALL_CURVES
100
AcDbLine
 62
40
  6
CONTINUOUS
 10
5.977632636
 20
5.1632274326
 11
5.986302636
 21
5.157447434
  0
LINE
  5
3D2
100
AcDbEntity
  8
03__ASM_ALL_CURVES
100
AcDbLine
 62
40
  6
CONTINUOUS
 10
6.190047636
 20
5.157447434
 11
6.198717636
 21
5.1458874326
  0
LINE
  5
3D3
100
AcDbEntity
  8
0
100
AcDbLine
 62
7
  6
CONTINUOUS
 10
6.7095176367
 20
3.8207674326
 11
6.7095176367
 21
4.6937674326
  0
LINE
  5
3D4
100
AcDbEntity
  8
0
100
AcDbLine
 62
7
  6
CONTINUOUS
 10
6.7255176367
 20
3.8367674326
 11
6.7255176367
 21
4.6777674326
  0
LINE
  5
3D5
100
AcDbEntity
  8
03__ASM_ALL_CURVES
100
AcDbLine
 62
40
  6
CONTINUOUS
 10
7.0115276371
 20
4.3035074336
 11
7.0082763871
 21
4.2991724316
  0
LINE
  5
3D6
100
AcDbEntity
  8
03__ASM_ALL_CURVES
100
AcDbLine
 62
40
  6
CONTINUOUS
 10
7.0342863871
 20
4.3078424326
 11
7.0407888871
 21
4.3165124336
  0
LINE
  5
3D7
100
AcDbEntity
  8
0
100
AcDbLine
 62
7
  6
CONTINUOUS
 10
6.7095176367
 20
3.8207674326
 11
6.7255176367
 21
3.8367674326
  0
LINE
  5
3D8
100
AcDbEntity
  8
03__ASM_ALL_CURVES
100
AcDbLine
 62
40
  6
CONTINUOUS
 10
6.1278670131
 20
3.4154424327
 11
6.1213645131
 21
3.4111074326
  0
LINE
  5
3D9
100
AcDbEntity
  8
03__ASM_ALL_CURVES
100
AcDbLine
 62
40
  6
CONTINUOUS
 10
6.3083114018
 20
3.5165924316
 11
6.2953064018
 21
3.5079224321
  0
LINE
  5
3DA
100
AcDbEntity
  8
03__ASM_ALL_CURVES
100
AcDbLine
 62
40
  6
CONTINUOUS
 10
4.4135176367
 20
5.0707474326
 11
4.4828776367
 21
5.0823074326
  0
LINE
  5
3DB
100
AcDbEntity
  8
03__ASM_ALL_CURVES
100
AcDbLine
 62
40
  6
CONTINUOUS
 10
4.4828776367
 20
5.0803807659
 11
4.4135176367
 21
5.0707474326
  0
LINE
  5
3DC
100
AcDbEntity
  8
03__ASM_ALL_CURVES
100
AcDbLine
 62
40
  6
CONTINUOUS
 10
4.4828776367
 20
5.0784540993
 11
4.4135176367
 21
5.0707474326
  0
LINE
  5
3DD
100
AcDbEntity
  8
03__ASM_ALL_CURVES
100
AcDbLine
 62
40
  6
CONTINUOUS
 10
6.181377636
 20
5.1632274326
 11
6.190047636
 21
5.157447434
  0
LINE
  5
3DE
100
AcDbEntity
  8
0
100
AcDbLine
 62
7
  6
CONTINUOUS
 10
6.7095176367
 20
4.6937674326
 11
6.7255176367
 21
4.6777674326
  0
LINE
  5
3DF
100
AcDbEntity
  8
03__ASM_ALL_CURVES
100
AcDbLine
 62
40
  6
CONTINUOUS
 10
6.333102636
 20
5.157447434
 11
6.337437636
 21
5.1516674312
  0
LINE
  5
3E0
100
AcDbEntity
  8
03__ASM_ALL_CURVES
100
AcDbLine
 62
40
  6
CONTINUOUS
 10
7.0407888871
 20
4.2731624327
 11
7.0342863871
 21
4.2818324326
  0
LINE
  5
3E1
100
AcDbEntity
  8
03__ASM_ALL_CURVES
100
AcDbLine
 62
40
  6
CONTINUOUS
 10
7.0082763871
 20
4.3165124336
 11
7.0115276371
 21
4.3121774316
  0
LINE
  5
3E2
100
AcDbEntity
  8
03__ASM_ALL_CURVES
100
AcDbLine
 62
40
  6
CONTINUOUS
 10
7.0667988871
 20
4.2818324326
 11
7.0602963871
 21
4.2731624327
  0
LINE
  5
3E3
100
AcDbEntity
  8
03__ASM_ALL_CURVES
100
AcDbLine
 62
40
  6
CONTINUOUS
 10
7.1155676371
 20
4.3035074336
 11
7.1123163871
 21
4.2991724316
  0
LINE
  5
3E4
100
AcDbEntity
  8
03__ASM_ALL_CURVES
100
AcDbLine
 62
40
  6
CONTINUOUS
 10
6.324432636
 20
5.1632274326
 11
6.333102636
 21
5.157447434
  0
LINE
  5
3E5
100
AcDbEntity
  8
03__ASM_ALL_CURVES
100
AcDbLine
 62
40
  6
CONTINUOUS
 10
7.0602963871
 20
4.3165124336
 11
7.0667988871
 21
4.3078424326
  0
LINE
  5
3E6
100
AcDbEntity
  8
03__ASM_ALL_CURVES
100
AcDbLine
 62
40
  6
CONTINUOUS
 10
7.1123163871
 20
4.3165124336
 11
7.1155676371
 21
4.3121774316
  0
LINE
  5
3E7
100
AcDbEntity
  8
03__ASM_ALL_CURVES
100
AcDbLine
 62
40
  6
CONTINUOUS
 10
7.0245326375
 20
4.2457074326
 11
7.0505426375
 21
4.1936874326
  0
LINE
  5
3E8
100
AcDbEntity
  8
03__ASM_ALL_CURVES
100
AcDbLine
 62
40
  6
CONTINUOUS
 10
6.9855176375
 20
4.2457074326
 11
6.9855176375
 21
4.1936874326
  0
LINE
  5
3E9
100
AcDbEntity
  8
03__ASM_ALL_CURVES
100
AcDbLine
 62
40
  6
CONTINUOUS
 10
6.9855176371
 20
4.2688274326
 11
6.9855176371
 21
4.3208474326
  0
LINE
  5
3EA
100
AcDbEntity
  8
03__ASM_ALL_CURVES
100
AcDbLine
 62
40
  6
CONTINUOUS
 10
7.0115276371
 20
4.3121774316
 11
7.0115276371
 21
4.3035074336
  0
LINE
  5
3EB
100
AcDbEntity
  8
03__ASM_ALL_CURVES
100
AcDbLine
 62
40
  6
CONTINUOUS
 10
7.0245326375
 20
4.1936874326
 11
7.0245326375
 21
4.2457074326
  0
LINE
  5
3EC
100
AcDbEntity
  8
03__ASM_ALL_CURVES
100
AcDbLine
 62
40
  6
CONTINUOUS
 10
7.0310351371
 20
4.2948374326
 11
7.0342863871
 21
4.3078424326
  0
LINE
  5
3ED
100
AcDbEntity
  8
03__ASM_ALL_CURVES
100
AcDbLine
 62
40
  6
CONTINUOUS
 10
7.0700501371
 20
4.2948374326
 11
7.0667988871
 21
4.2818324326
  0
LINE
  5
3EE
100
AcDbEntity
  8
03__ASM_ALL_CURVES
100
AcDbLine
 62
40
  6
CONTINUOUS
 10
7.1058138871
 20
4.2948374326
 11
7.1155676371
 21
4.2688274326
  0
LINE
  5
3EF
100
AcDbEntity
  8
03__ASM_ALL_CURVES
100
AcDbLine
 62
40
  6
CONTINUOUS
 10
7.0342863871
 20
4.2818324326
 11
7.0310351371
 21
4.2948374326
  0
LINE
  5
3F0
100
AcDbEntity
  8
03__ASM_ALL_CURVES
100
AcDbLine
 62
40
  6
CONTINUOUS
 10
7.0505426375
 20
4.1936874326
 11
7.0505426375
 21
4.2457074326
  0
LINE
  5
3F1
100
AcDbEntity
  8
03__ASM_ALL_CURVES
100
AcDbLine
 62
40
  6
CONTINUOUS
 10
7.0765526375
 20
4.2457074326
 11
7.0765526375
 21
4.1936874326
  0
LINE
  5
3F2
100
AcDbEntity
  8
03__ASM_ALL_CURVES
100
AcDbLine
 62
40
  6
CONTINUOUS
 10
7.0895576371
 20
4.2688274326
 11
7.0895576371
 21
4.3208474326
  0
LINE
  5
3F3
100
AcDbEntity
  8
03__ASM_ALL_CURVES
100
AcDbLine
 62
40
  6
CONTINUOUS
 10
7.1155676371
 20
4.3121774316
 11
7.1155676371
 21
4.3035074336
  0
LINE
  5
3F4
100
AcDbEntity
  8
03__ASM_ALL_CURVES
100
AcDbLine
 62
40
  6
CONTINUOUS
 10
7.1285726375
 20
4.1936874326
 11
7.1285726375
 21
4.2457074326
  0
LINE
  5
3F5
100
AcDbEntity
  8
03__ASM_ALL_CURVES
100
AcDbLine
 62
40
  6
CONTINUOUS
 10
7.0667988871
 20
4.3078424326
 11
7.0700501371
 21
4.2948374326
  0
LINE
  5
3F6
100
AcDbEntity
  8
03__ASM_ALL_CURVES
100
AcDbLine
 62
40
  6
CONTINUOUS
 10
7.1545826371
 20
4.3208474326
 11
7.1545826371
 21
4.2688274326
  0
LINE
  5
3F7
100
AcDbEntity
  8
03__ASM_ALL_CURVES
100
AcDbLine
 62
40
  6
CONTINUOUS
 10
7.1935976375
 20
4.2457074326
 11
7.1935976375
 21
4.1936874326
  0
LINE
  5
3F8
100
AcDbEntity
  8
03__ASM_ALL_CURVES
100
AcDbLine
 62
40
  6
CONTINUOUS
 10
7.2066026371
 20
4.3208474326
 11
7.2066026371
 21
4.2688274326
  0
CIRCLE
  5
3F9
100
AcDbEntity
  8
0
100
AcDbCircle
 62
7
  6
CONTINUOUS
 10
6.2875176367
 20
4.2572674326
 40
0.1095
  0
ARC
  5
3FA
100
AcDbEntity
  8
THREAD
100
AcDbCircle
 62
7
  6
CONTINUOUS
 10
5.2813007583
 20
3.7867674326
 40
0.0125
100
AcDbArc
 50
29.9999999999
 51
90.0
  0
ARC
  5
3FB
100
AcDbEntity
  8
THREAD
100
AcDbCircle
 62
7
  6
CONTINUOUS
 10
5.2813007583
 20
4.7277674326
 40
0.0125
100
AcDbArc
 50
270.0
 51
330.000000004
  0
ARC
  5
3FC
100
AcDbEntity
  8
0
100
AcDbCircle
 62
7
  6
CONTINUOUS
 10
5.1055176367
 20
3.7268806812
 40
0.005
100
AcDbArc
 50
120.0000000096
 51
179.9999999998
  0
ARC
  5
3FD
100
AcDbEntity
  8
0
100
AcDbCircle
 62
7
  6
CONTINUOUS
 10
5.1055176367
 20
4.7876541839
 40
0.005
100
AcDbArc
 50
180.0000000002
 51
239.9999999876
  0
ARC
  5
3FE
100
AcDbEntity
  8
0
100
AcDbCircle
 62
7
  6
CONTINUOUS
 10
5.1243740431
 20
3.7377674326
 40
0.005
100
AcDbArc
 50
90.0
 51
120.0000000145
  0
ARC
  5
3FF
100
AcDbEntity
  8
0
100
AcDbCircle
 62
7
  6
CONTINUOUS
 10
5.1243740431
 20
4.7767674326
 40
0.005
100
AcDbArc
 50
239.9999999845
 51
270.0
  0
ARC
  5
400
100
AcDbEntity
  8
0
100
AcDbCircle
 62
7
  6
CONTINUOUS
 10
5.0975176367
 20
3.7222674326
 40
0.003
100
AcDbArc
 50
270.0
 51
360.0
  0
ARC
  5
401
100
AcDbEntity
  8
0
100
AcDbCircle
 62
7
  6
CONTINUOUS
 10
5.0975176367
 20
4.7922674326
 40
0.003
100
AcDbArc
 50
0.0
 51
90.0
  0
SPLINE
  5
402
100
AcDbEntity
  8
0
100
AcDbSpline
 62
7
  6
CONTINUOUS
 70
0
 71
3
 72
15
 73
11
 74
9
 42
0.0000001
 43
0.0000001
 44
0.0000000001
 12
0.0
 22
0.1099409465
 32
0.0
 13
0.0
 23
-0.1099409465
 33
0.0
 40
0.0
 40
0.0
 40
0.0
 40
0.0
 40
0.125
 40
0.25
 40
0.375
 40
0.5
 40
0.625
 40
0.75
 40
0.875
 40
1.0
 40
1.0
 40
1.0
 40
1.0
 10
6.5895176367
 20
4.6742674326
 30
0.0
 10
6.5895176367
 20
4.6788483054
 30
0.0
 10
6.5876952522
 20
4.6880100509
 30
0.0
 10
6.5799106842
 20
4.6996604802
 30
0.0
 10
6.568260255
 20
4.7074450481
 30
0.0
 10
6.5545176367
 20
4.7101786248
 30
0.0
 10
6.5407750184
 20
4.7074450481
 30
0.0
 10
6.5291245891
 20
4.6996604802
 30
0.0
 10
6.5213400212
 20
4.6880100509
 30
0.0
 10
6.5195176367
 20
4.6788483054
 30
0.0
 10
6.5195176367
 20
4.6742674326
 30
0.0
 11
6.5895176367
 21
4.6742674326
 31
0.0
 11
6.5868534203
 21
4.6876613527
 31
0.0
 11
6.579266374
 21
4.6990161699
 31
0.0
 11
6.5679115568
 21
4.7066032162
 31
0.0
 11
6.5545176367
 21
4.7092674326
 31
0.0
 11
6.5411237165
 21
4.7066032162
 31
0.0
 11
6.5297688993
 21
4.6990161699
 31
0.0
 11
6.522181853
 21
4.6876613527
 31
0.0
 11
6.5195176367
 21
4.6742674326
 31
0.0
  0
SPLINE
  5
403
100
AcDbEntity
  8
0
100
AcDbSpline
 62
7
  6
CONTINUOUS
 70
0
 71
3
 72
15
 73
11
 74
9
 42
0.0000001
 43
0.0000001
 44
0.0000000001
 12
0.0
 22
-0.1099409465
 32
0.0
 13
0.0
 23
0.1099409465
 33
0.0
 40
0.0
 40
0.0
 40
0.0
 40
0.0
 40
0.125
 40
0.25
 40
0.375
 40
0.5
 40
0.625
 40
0.75
 40
0.875
 40
1.0
 40
1.0
 40
1.0
 40
1.0
 10
6.5895176367
 20
3.8402674326
 30
0.0
 10
6.5895176367
 20
3.8356865598
 30
0.0
 10
6.5876952522
 20
3.8265248143
 30
0.0
 10
6.5799106842
 20
3.814874385
 30
0.0
 10
6.568260255
 20
3.8070898171
 30
0.0
 10
6.5545176367
 20
3.8043562403
 30
0.0
 10
6.5407750184
 20
3.8070898171
 30
0.0
 10
6.5291245891
 20
3.814874385
 30
0.0
 10
6.5213400212
 20
3.8265248143
 30
0.0
 10
6.5195176367
 20
3.8356865598
 30
0.0
 10
6.5195176367
 20
3.8402674326
 30
0.0
 11
6.5895176367
 21
3.8402674326
 31
0.0
 11
6.5868534203
 21
3.8268735125
 31
0.0
 11
6.579266374
 21
3.8155186953
 31
0.0
 11
6.5679115568
 21
3.807931649
 31
0.0
 11
6.5545176367
 21
3.8052674326
 31
0.0
 11
6.5411237165
 21
3.807931649
 31
0.0
 11
6.5297688993
 21
3.8155186953
 31
0.0
 11
6.522181853
 21
3.8268735125
 31
0.0
 11
6.5195176367
 21
3.8402674326
 31
0.0
  0
SPLINE
  5
404
100
AcDbEntity
  8
0
100
AcDbSpline
 62
7
  6
CONTINUOUS
 70
0
 71
3
 72
15
 73
11
 74
9
 42
0.0000001
 43
0.0000001
 44
0.0000000001
 12
0.0
 22
0.1099409465
 32
0.0
 13
0.0
 23
-0.1099409465
 33
0.0
 40
0.0
 40
0.0
 40
0.0
 40
0.0
 40
0.125
 40
0.25
 40
0.375
 40
0.5
 40
0.625
 40
0.75
 40
0.875
 40
1.0
 40
1.0
 40
1.0
 40
1.0
 10
5.2175176367
 20
4.7502674326
 30
0.0
 10
5.2175176367
 20
4.7548483054
 30
0.0
 10
5.2156952522
 20
4.7640100509
 30
0.0
 10
5.2079106842
 20
4.7756604802
 30
0.0
 10
5.196260255
 20
4.7834450481
 30
0.0
 10
5.1825176367
 20
4.7861786248
 30
0.0
 10
5.1687750184
 20
4.7834450481
 30
0.0
 10
5.1571245891
 20
4.7756604802
 30
0.0
 10
5.1493400212
 20
4.7640100509
 30
0.0
 10
5.1475176367
 20
4.7548483054
 30
0.0
 10
5.1475176367
 20
4.7502674326
 30
0.0
 11
5.2175176367
 21
4.7502674326
 31
0.0
 11
5.2148534203
 21
4.7636613527
 31
0.0
 11
5.207266374
 21
4.7750161699
 31
0.0
 11
5.1959115568
 21
4.7826032162
 31
0.0
 11
5.1825176367
 21
4.7852674326
 31
0.0
 11
5.1691237165
 21
4.7826032162
 31
0.0
 11
5.1577688993
 21
4.7750161699
 31
0.0
 11
5.150181853
 21
4.7636613527
 31
0.0
 11
5.1475176367
 21
4.7502674326
 31
0.0
  0
SPLINE
  5
405
100
AcDbEntity
  8
0
100
AcDbSpline
 62
7
  6
CONTINUOUS
 70
0
 71
3
 72
15
 73
11
 74
9
 42
0.0000001
 43
0.0000001
 44
0.0000000001
 12
0.0
 22
-0.1099409465
 32
0.0
 13
0.0
 23
0.1099409465
 33
0.0
 40
0.0
 40
0.0
 40
0.0
 40
0.0
 40
0.125
 40
0.25
 40
0.375
 40
0.5
 40
0.625
 40
0.75
 40
0.875
 40
1.0
 40
1.0
 40
1.0
 40
1.0
 10
5.2175176367
 20
3.7642674326
 30
0.0
 10
5.2175176367
 20
3.7596865598
 30
0.0
 10
5.2156952522
 20
3.7505248143
 30
0.0
 10
5.2079106842
 20
3.738874385
 30
0.0
 10
5.196260255
 20
3.7310898171
 30
0.0
 10
5.1825176367
 20
3.7283562403
 30
0.0
 10
5.1687750184
 20
3.7310898171
 30
0.0
 10
5.1571245891
 20
3.738874385
 30
0.0
 10
5.1493400212
 20
3.7505248143
 30
0.0
 10
5.1475176367
 20
3.7596865598
 30
0.0
 10
5.1475176367
 20
3.7642674326
 30
0.0
 11
5.2175176367
 21
3.7642674326
 31
0.0
 11
5.2148534203
 21
3.7508735125
 31
0.0
 11
5.207266374
 21
3.7395186953
 31
0.0
 11
5.1959115568
 21
3.731931649
 31
0.0
 11
5.1825176367
 21
3.7292674326
 31
0.0
 11
5.1691237165
 21
3.731931649
 31
0.0
 11
5.1577688993
 21
3.7395186953
 31
0.0
 11
5.150181853
 21
3.7508735125
 31
0.0
 11
5.1475176367
 21
3.7642674326
 31
0.0
  0
SPLINE
  5
406
100
AcDbEntity
  8
0
100
AcDbSpline
 62
7
  6
CONTINUOUS
 70
0
 71
3
 72
15
 73
11
 74
9
 42
0.0000001
 43
0.0000001
 44
0.0000000001
 12
0.093245702
 22
0.0
 32
0.0
 13
-0.0000143465
 23
-0.0934353017
 33
0.0
 40
0.0
 40
0.0
 40
0.0
 40
0.0
 40
0.1323077677
 40
0.2644363417
 40
0.3952163923
 40
0.5238304161
 40
0.6498049036
 40
0.7728481263
 40
0.8928404325
 40
1.0
 40
1.0
 40
1.0
 40
1.0
 10
5.9985176367
 20
4.127023639
 30
0.0
 10
6.0026300136
 20
4.127023639
 30
0.0
 10
6.0108700652
 20
4.126247835
 30
0.0
 10
6.0227356192
 20
4.1228111167
 30
0.0
 10
6.0336538612
 20
4.1172751197
 30
0.0
 10
6.043195346
 20
4.10991743
 30
0.0
 10
6.0510156924
 20
4.1010668749
 30
0.0
 10
6.0568210048
 20
4.0910846919
 30
0.0
 10
6.0602599344
 20
4.0806690702
 30
0.0
 10
6.0610181515
 20
4.0735957689
 30
0.0
 10
6.061017639
 20
4.0702582734
 30
0.0
 11
5.9985176367
 21
4.127023639
 31
0.0
 11
6.0108003225
 21
4.1258658732
 31
0.0
 11
6.0226342479
 21
4.1224379001
 31
0.0
 11
6.0335080664
 21
4.1169179152
 31
0.0
 11
6.0429975262
 21
4.1095847628
 31
0.0
 11
6.050759231
 21
4.1007678433
 31
0.0
 11
6.0565007151
 21
4.0908345224
 31
0.0
 11
6.0599750802
 21
4.0801988611
 31
0.0
 11
6.061017639
 21
4.0702582734
 31
0.0
  0
SPLINE
  5
407
100
AcDbEntity
  8
0
100
AcDbSpline
 62
7
  6
CONTINUOUS
 70
0
 71
3
 72
9
 73
5
 74
3
 42
0.0000001
 43
0.0000001
 44
0.0000000001
 12
0.022036427
 22
0.0082531942
 32
0.0
 13
0.0234996239
 23
0.0
 33
0.0
 40
0.0
 40
0.0
 40
0.0
 40
0.0
 40
0.4751620158
 40
1.0
 40
1.0
 40
1.0
 40
1.0
 10
5.975483241
 20
4.1228541943
 30
0.0
 10
5.978973532
 20
4.1241613958
 30
0.0
 10
5.9865533834
 20
4.1262844859
 30
0.0
 10
5.9944064716
 20
4.127023639
 30
0.0
 10
5.9985176367
 20
4.127023639
 30
0.0
 11
5.975483241
 21
4.1228541943
 31
0.0
 11
5.9862385381
 21
4.1258665555
 31
0.0
 11
5.9985176367
 21
4.127023639
 31
0.0
  0
SPLINE
  5
408
100
AcDbEntity
  8
0
100
AcDbSpline
 62
7
  6
CONTINUOUS
 70
0
 71
3
 72
9
 73
5
 74
3
 42
0.0000001
 43
0.0000001
 44
0.0000000001
 12
0.0224070245
 22
-0.0067755881
 32
0.0
 13
0.023376706
 23
0.0
 33
0.0
 40
0.0
 40
0.0
 40
0.0
 40
0.0
 40
0.4293622899
 40
1.0
 40
1.0
 40
1.0
 40
1.0
 10
5.9754350916
 20
4.0692454684
 30
0.0
 10
5.978642002
 20
4.0682757411
 30
0.0
 10
5.9862646483
 20
4.0665276449
 30
0.0
 10
5.9940710934
 20
4.0659038236
 30
0.0
 10
5.9985176367
 20
4.0659038236
 30
0.0
 11
5.9754350916
 21
4.0692454684
 31
0.0
 11
5.9852216394
 21
4.0669818702
 31
0.0
 11
5.9985176367
 21
4.0659038236
 31
0.0
  0
SPLINE
  5
409
100
AcDbEntity
  8
0
100
AcDbSpline
 62
7
  6
CONTINUOUS
 70
0
 71
3
 72
23
 73
19
 74
17
 42
0.0000001
 43
0.0000001
 44
0.0000000001
 12
0.0
 22
-0.2793776015
 32
0.0
 13
0.0
 23
0.2793776015
 33
0.0
 40
0.0
 40
0.0
 40
0.0
 40
0.0
 40
0.0409727877
 40
0.0888042388
 40
0.1441603431
 40
0.2064979565
 40
0.2746533497
 40
0.3472419676
 40
0.4228817517
 40
0.5000426233
 40
0.5772256265
 40
0.6529098844
 40
0.7255349853
 40
0.7936902195
 40
0.8559910597
 40
0.911289984
 40
0.9590718864
 40
1.0
 40
1.0
 40
1.0
 40
1.0
 10
6.3970176367
 20
4.5811609336
 30
0.0
 10
6.3970176367
 20
4.5773453072
 30
0.0
 10
6.3952526252
 20
4.5690599248
 30
0.0
 10
6.3886543132
 20
4.5572258773
 30
0.0
 10
6.3783884609
 20
4.5455986528
 30
0.0
 10
6.3647979379
 20
4.5347619383
 30
0.0
 10
6.348317872
 20
4.5253411495
 30
0.0
 10
6.3294782806
 20
4.5179886461
 30
0.0
 10
6.3089414696
 20
4.5132915323
 30
0.0
 10
6.2875035315
 20
4.5116745145
 30
0.0
 10
6.2660617044
 20
4.513295906
 30
0.0
 10
6.2455166082
 20
4.5180004423
 30
0.0
 10
6.2266724283
 20
4.5253622116
 30
0.0
 10
6.2101962491
 20
4.5347898077
 30
0.0
 10
6.1966174137
 20
4.5456270799
 30
0.0
 10
6.1863655595
 20
4.5572486571
 30
0.0
 10
6.1797788309
 20
4.5690728238
 30
0.0
 10
6.1780176367
 20
4.5773494675
 30
0.0
 10
6.1780176367
 20
4.5811609336
 30
0.0
 11
6.3970176367
 21
4.5811609336
 31
0.0
 11
6.3948994136
 21
4.5699117481
 31
0.0
 11
6.3886384475
 21
4.5581061971
 31
0.0
 11
6.3785322753
 21
4.5463998135
 31
0.0
 11
6.3649844449
 21
4.5354561375
 31
0.0
 11
6.3484823855
 21
4.5259563925
 31
0.0
 11
6.3295999147
 21
4.5185593761
 31
0.0
 11
6.3090015113
 21
4.5138402876
 31
0.0
 11
6.2875056376
 21
4.5122177923
 31
0.0
 11
6.2660039063
 21
4.5138448282
 31
0.0
 11
6.2453946062
 21
4.5185719898
 31
0.0
 11
6.2265052274
 21
4.5259793126
 31
0.0
 11
6.2100072075
 21
4.5354859821
 31
0.0
 11
6.1964723119
 21
4.5464293186
 31
0.0
 11
6.1863816766
 21
4.5581280091
 31
0.0
 11
6.1801315452
 21
4.5699236362
 31
0.0
 11
6.1780176367
 21
4.5811609336
 31
0.0
  0
SPLINE
  5
40A
100
AcDbEntity
  8
0
100
AcDbSpline
 62
7
  6
CONTINUOUS
 70
0
 71
3
 72
17
 73
13
 74
11
 42
0.0000001
 43
0.0000001
 44
0.0000000001
 12
-0.0846334178
 22
-0.014143296
 32
0.0
 13
-0.0856450226
 23
0.0053324185
 33
0.0
 40
0.0
 40
0.0
 40
0.0
 40
0.0
 40
0.0160681121
 40
0.0636223484
 40
0.1404641406
 40
0.2427415821
 40
0.3665865549
 40
0.505775601
 40
0.65549895
 40
0.8078101682
 40
0.9575240821
 40
1.0
 40
1.0
 40
1.0
 40
1.0
 10
6.0610176367
 20
4.6312674326
 30
0.0
 10
6.0605643369
 20
4.6311916806
 30
0.0
 10
6.0587689603
 20
4.6308948232
 30
0.0
 10
6.0548007176
 20
4.6302665113
 30
0.0
 10
6.0483836943
 20
4.6293390394
 30
0.0
 10
6.039783803
 20
4.6282687406
 30
0.0
 10
6.0293843017
 20
4.6272412057
 30
0.0
 10
6.0176041609
 20
4.6264327894
 30
0.0
 10
6.0049893701
 20
4.6259890806
 30
0.0
 10
5.9920655813
 20
4.6259887402
 30
0.0
 10
5.9822161157
 20
4.6263346539
 30
0.0
 10
5.9767277398
 20
4.6266494662
 30
0.0
 10
5.9755151228
 20
4.626724966
 30
0.0
 11
6.0610176367
 21
4.6312674326
 31
0.0
 11
6.0596573475
 21
4.6310425177
 31
0.0
 11
6.0556270527
 21
4.6304044522
 31
0.0
 11
6.0491012512
 21
4.629461538
 31
0.0
 11
6.0403922377
 21
4.6283782411
 31
0.0
 11
6.0298168746
 21
4.6273341729
 31
0.0
 11
6.0179014341
 21
4.6265173231
 31
0.0
 11
6.0050620298
 21
4.6260662654
 31
0.0
 11
5.9919926476
 21
4.6260659216
 31
0.0
 11
5.9791540284
 21
4.6265162638
 31
0.0
 11
5.9755151228
 21
4.626724966
 31
0.0
  0
SPLINE
  5
40B
100
AcDbEntity
  8
0
100
AcDbSpline
 62
7
  6
CONTINUOUS
 70
0
 71
3
 72
16
 73
12
 74
10
 42
0.0000001
 43
0.0000001
 44
0.0000000001
 12
-0.1397436414
 22
0.0274208005
 32
0.0
 13
-0.1397467478
 23
-0.0274421059
 33
0.0
 40
0.0
 40
0.0
 40
0.0
 40
0.0
 40
0.0357993697
 40
0.1555248171
 40
0.2903237285
 40
0.4349258598
 40
0.5815939144
 40
0.7253293376
 40
0.8582149889
 40
0.9749548687
 40
1.0
 40
1.0
 40
1.0
 40
1.0
 10
6.3584202426
 20
4.5318204876
 30
0.0
 10
6.3567526645
 20
4.5321477034
 30
0.0
 10
6.3494821335
 20
4.533439781
 30
0.0
 10
6.3357876781
 20
4.5350227069
 30
0.0
 10
6.3168782993
 20
4.5361511872
 30
0.0
 10
6.2966658991
 20
4.5366404017
 30
0.0
 10
6.2760243887
 20
4.5366118806
 30
0.0
 10
6.2559453788
 20
4.5360587528
 30
0.0
 10
6.2373144154
 20
4.5348527282
 30
0.0
 10
6.2243690763
 20
4.5332573773
 30
0.0
 10
6.2177481118
 20
4.5320424991
 30
0.0
 10
6.2165814532
 20
4.5318134021
 30
0.0
 11
6.3584202426
 21
4.5318204876
 31
0.0
 11
6.3534020693
 21
4.5327190041
 31
0.0
 11
6.3364870126
 21
4.5347926941
 31
0.0
 11
6.3173386909
 21
4.5360142656
 31
0.0
 11
6.2967630519
 21
4.5365508952
 31
0.0
 11
6.2758863765
 21
4.536519749
 31
0.0
 11
6.2554361014
 21
4.5359131856
 31
0.0
 11
6.2365661861
 21
4.534609236
 31
0.0
 11
6.2200891038
 21
4.5324594839
 31
0.0
 11
6.2165814532
 21
4.5318134021
 31
0.0
  0
SPLINE
  5
40C
100
AcDbEntity
  8
0
100
AcDbSpline
 62
7
  6
CONTINUOUS
 70
0
 71
3
 72
16
 73
12
 74
10
 42
0.0000001
 43
0.0000001
 44
0.0000000001
 12
0.1397484772
 22
-0.0274215531
 32
0.0
 13
0.139750996
 23
0.0274448869
 33
0.0
 40
0.0
 40
0.0
 40
0.0
 40
0.0
 40
0.0350885389
 40
0.1548775423
 40
0.2898880392
 40
0.4348092454
 40
0.5818294376
 40
0.7258677723
 40
0.8589353548
 40
0.9757007572
 40
1.0
 40
1.0
 40
1.0
 40
1.0
 10
6.2166137222
 20
3.9827146534
 30
0.0
 10
6.2182482455
 20
3.982393926
 30
0.0
 10
6.2254882377
 20
3.981104599
 30
0.0
 10
6.239162012
 20
3.9795187695
 30
0.0
 10
6.2580999316
 20
3.9783854458
 30
0.0
 10
6.2783547741
 20
3.9778942199
 30
0.0
 10
6.2990430991
 20
3.9779230177
 30
0.0
 10
6.3191623558
 20
3.9784787804
 30
0.0
 10
6.3378178123
 20
3.9796903348
 30
0.0
 10
6.3507375177
 20
3.9812884131
 30
0.0
 10
6.3573245324
 20
3.9824997219
 30
0.0
 10
6.3584564802
 20
3.9827220185
 30
0.0
 11
6.2166137222
 21
3.9827146534
 31
0.0
 11
6.2215321419
 21
3.9818324053
 31
0.0
 11
6.2384557816
 21
3.9797504437
 31
0.0
 11
6.2576344655
 21
3.9785232484
 31
0.0
 11
6.2782560545
 21
3.9779841563
 31
0.0
 11
6.2991834428
 21
3.9780156217
 31
0.0
 11
6.3196773376
 21
3.9786253508
 31
0.0
 11
6.3385733073
 21
3.9799356408
 31
0.0
 11
6.3550534073
 21
3.9820939526
 31
0.0
 11
6.3584564802
 21
3.9827220185
 31
0.0
  0
SPLINE
  5
40D
100
AcDbEntity
  8
0
100
AcDbSpline
 62
7
  6
CONTINUOUS
 70
0
 71
3
 72
12
 73
8
 74
6
 42
0.0000001
 43
0.0000001
 44
0.0000000001
 12
0.0655626994
 22
0.0
 32
0.0
 13
0.0332851356
 23
0.0566683084
 33
0.0
 40
0.0
 40
0.0
 40
0.0
 40
0.0
 40
0.2015284342
 40
0.4186534109
 40
0.63141892
 40
0.8275296576
 40
1.0
 40
1.0
 40
1.0
 40
1.0
 10
5.9985176367
 20
4.0659038236
 30
0.0
 10
6.0029218861
 20
4.0659038236
 30
0.0
 10
6.0120875255
 20
4.0666293659
 30
0.0
 10
6.0255333026
 20
4.0700602076
 30
0.0
 10
6.0379586434
 20
4.0760331571
 30
0.0
 10
6.0479815566
 20
4.0840332951
 30
0.0
 10
6.0529443901
 20
4.0904801661
 30
0.0
 10
6.0548579564
 20
4.0937380336
 30
0.0
 11
5.9985176367
 21
4.0659038236
 31
0.0
 11
6.0116879976
 21
4.0669613237
 31
0.0
 11
6.0254675847
 21
4.0705343803
 31
0.0
 11
6.0380004843
 21
4.0766592845
 31
0.0
 11
6.0479951159
 21
4.0847477896
 31
0.0
 11
6.0548579564
 21
4.0937380336
 31
0.0
  0
SPLINE
  5
40E
100
AcDbEntity
  8
0
100
AcDbSpline
 62
7
  6
CONTINUOUS
 70
0
 71
3
 72
23
 73
19
 74
17
 42
0.0000001
 43
0.0000001
 44
0.0000000001
 12
0.0
 22
0.2793776015
 32
0.0
 13
-0.0
 23
-0.2793776015
 33
0.0
 40
0.0
 40
0.0
 40
0.0
 40
0.0
 40
0.0409727877
 40
0.0888042388
 40
0.1441603431
 40
0.2064979565
 40
0.2746533497
 40
0.3472419676
 40
0.4228817517
 40
0.5000426233
 40
0.5772256265
 40
0.6529098844
 40
0.7255349853
 40
0.7936902195
 40
0.8559910597
 40
0.911289984
 40
0.9590718864
 40
1.0
 40
1.0
 40
1.0
 40
1.0
 10
6.1780176367
 20
3.9333739316
 30
0.0
 10
6.1780176367
 20
3.937189558
 30
0.0
 10
6.1797826482
 20
3.9454749404
 30
0.0
 10
6.1863809602
 20
3.9573089879
 30
0.0
 10
6.1966468124
 20
3.9689362124
 30
0.0
 10
6.2102373354
 20
3.9797729269
 30
0.0
 10
6.2267174013
 20
3.9891937157
 30
0.0
 10
6.2455569928
 20
3.9965462191
 30
0.0
 10
6.2660938037
 20
4.0012433329
 30
0.0
 10
6.2875317418
 20
4.0028603507
 30
0.0
 10
6.308973569
 20
4.0012389592
 30
0.0
 10
6.3295186651
 20
3.9965344229
 30
0.0
 10
6.3483628451
 20
3.9891726535
 30
0.0
 10
6.3648390243
 20
3.9797450575
 30
0.0
 10
6.3784178596
 20
3.9689077853
 30
0.0
 10
6.3886697138
 20
3.9572862081
 30
0.0
 10
6.3952564424
 20
3.9454620413
 30
0.0
 10
6.3970176367
 20
3.9371853977
 30
0.0
 10
6.3970176367
 20
3.9333739316
 30
0.0
 11
6.1780176367
 21
3.9333739316
 31
0.0
 11
6.1801358597
 21
3.944623117
 31
0.0
 11
6.1863968259
 21
3.9564286681
 31
0.0
 11
6.1965029981
 21
3.9681350517
 31
0.0
 11
6.2100508285
 21
3.9790787276
 31
0.0
 11
6.2265528878
 21
3.9885784727
 31
0.0
 11
6.2454353586
 21
3.9959754891
 31
0.0
 11
6.2660337621
 21
4.0006945776
 31
0.0
 11
6.2875296358
 21
4.0023170729
 31
0.0
 11
6.3090313671
 21
4.000690037
 31
0.0
 11
6.3296406672
 21
3.9959628754
 31
0.0
 11
6.3485300459
 21
3.9885555526
 31
0.0
 11
6.3650280658
 21
3.9790488831
 31
0.0
 11
6.3785629615
 21
3.9681055466
 31
0.0
 11
6.3886535967
 21
3.9564068561
 31
0.0
 11
6.3949037282
 21
3.944611229
 31
0.0
 11
6.3970176367
 21
3.9333739316
 31
0.0
  0
SPLINE
  5
40F
100
AcDbEntity
  8
0
100
AcDbSpline
 62
7
  6
CONTINUOUS
 70
0
 71
3
 72
23
 73
19
 74
17
 42
0.0000001
 43
0.0000001
 44
0.0000000001
 12
0.0
 22
0.2528686944
 32
0.0
 13
-0.0
 23
-0.2528686944
 33
0.0
 40
0.0
 40
0.0
 40
0.0
 40
0.0
 40
0.0409481264
 40
0.0843077682
 40
0.134190676
 40
0.1917576166
 40
0.2586045597
 40
0.3349590068
 40
0.4166870244
 40
0.5009185586
 40
0.5851884209
 40
0.6667319042
 40
0.7426025542
 40
0.8086918078
 40
0.8659003426
 40
0.9156775793
 40
0.9590679872
 40
1.0
 40
1.0
 40
1.0
 40
1.0
 10
6.1780176367
 20
4.5811609336
 30
0.0
 10
6.1780176367
 20
4.5846124334
 30
0.0
 10
6.1794617624
 20
4.591836648
 30
0.0
 10
6.1864534349
 20
4.6011125527
 30
0.0
 10
6.1971973971
 20
4.6081968628
 30
0.0
 10
6.2109626766
 20
4.613512724
 30
0.0
 10
6.2274756852
 20
4.6173749499
 30
0.0
 10
6.2462766639
 20
4.6199568913
 30
0.0
 10
6.2666595421
 20
4.6214152148
 30
0.0
 10
6.2877535172
 20
4.6218766783
 30
0.0
 10
6.3088315191
 20
4.6213943398
 30
0.0
 10
6.3291596978
 20
4.6199149613
 30
0.0
 10
6.34783778
 20
4.6173211474
 30
0.0
 10
6.3642129272
 20
4.6134645212
 30
0.0
 10
6.3778762205
 20
4.6081730391
 30
0.0
 10
6.388586659
 20
4.60110644
 30
0.0
 10
6.3955739618
 20
4.5918364575
 30
0.0
 10
6.3970176367
 20
4.5846110752
 30
0.0
 10
6.3970176367
 20
4.5811609336
 30
0.0
 11
6.1780176367
 21
4.5811609336
 31
0.0
 11
6.1801160192
 21
4.5913005808
 31
0.0
 11
6.1864994665
 21
4.6002150291
 31
0.0
 11
6.1968290775
 21
4.6074543479
 31
0.0
 11
6.210316959
 21
4.6129297222
 31
0.0
 11
6.226735424
 21
4.6169499578
 31
0.0
 11
6.2458471092
 21
4.6196938254
 31
0.0
 11
6.2664562338
 21
4.621232148
 31
0.0
 11
6.2877502159
 21
4.6217177338
 31
0.0
 11
6.3090533653
 21
4.6212095416
 31
0.0
 11
6.3296139907
 21
4.6196485818
 31
0.0
 11
6.348600385
 21
4.6168930357
 31
0.0
 11
6.3648271247
 21
4.6128954576
 31
0.0
 11
6.3782267147
 21
4.6074435493
 31
0.0
 11
6.3885330907
 21
4.600217636
 31
0.0
 11
6.3949209351
 21
4.5912967677
 31
0.0
 11
6.3970176367
 21
4.5811609336
 31
0.0
  0
SPLINE
  5
410
100
AcDbEntity
  8
0
100
AcDbSpline
 62
7
  6
CONTINUOUS
 70
0
 71
3
 72
9
 73
5
 74
3
 42
0.0000001
 43
0.0000001
 44
0.0000000001
 12
-0.023347418
 22
0.0
 32
0.0
 13
-0.0223110255
 23
0.0069638603
 33
0.0
 40
0.0
 40
0.0
 40
0.0
 40
0.0
 40
0.5250659672
 40
1.0
 40
1.0
 40
1.0
 40
1.0
 10
5.9985176367
 20
4.0187704636
 30
0.0
 10
5.9944313251
 20
4.0187704636
 30
0.0
 10
5.9866353754
 20
4.0193661597
 30
0.0
 10
5.9790227481
 20
4.0211163312
 30
0.0
 10
5.9754906596
 20
4.0222187893
 30
0.0
 11
5.9985176367
 21
4.0187704636
 31
0.0
 11
5.9862950903
 21
4.0197143053
 31
0.0
 11
5.9754906596
 21
4.0222187893
 31
0.0
  0
SPLINE
  5
411
100
AcDbEntity
  8
0
100
AcDbSpline
 62
7
  6
CONTINUOUS
 70
0
 71
3
 72
23
 73
19
 74
17
 42
0.0000001
 43
0.0000001
 44
0.0000000001
 12
0.0
 22
-0.2528679129
 32
0.0
 13
-0.0
 23
0.2528679129
 33
0.0
 40
0.0
 40
0.0
 40
0.0
 40
0.0
 40
0.0409865746
 40
0.084415749
 40
0.1343763931
 40
0.1919594072
 40
0.2587480903
 40
0.3350775351
 40
0.4167586195
 40
0.5009309789
 40
0.5851416157
 40
0.6666365428
 40
0.7424759734
 40
0.8085000163
 40
0.86571891
 40
0.9155688751
 40
0.9590274964
 40
1.0
 40
1.0
 40
1.0
 40
1.0
 10
6.3970176367
 20
3.9333739316
 30
0.0
 10
6.3970176367
 20
3.9299192017
 30
0.0
 10
6.3955700576
 20
3.9226855353
 30
0.0
 10
6.38856136
 20
3.913401528
 30
0.0
 10
6.3777998703
 20
3.9063188486
 30
0.0
 10
6.3640291194
 20
3.9010097661
 30
0.0
 10
6.3475207839
 20
3.8971533781
 30
0.0
 10
6.3287304421
 20
3.8945753729
 30
0.0
 10
6.3083585879
 20
3.8931191037
 30
0.0
 10
6.2872786151
 20
3.8926584084
 30
0.0
 10
6.2662147576
 20
3.8931402456
 30
0.0
 10
6.2458982863
 20
3.8946178366
 30
0.0
 10
6.2272321226
 20
3.8972079125
 30
0.0
 10
6.2108632829
 20
3.9010587197
 30
0.0
 10
6.1971960337
 20
3.9063432351
 30
0.0
 10
6.186469064
 20
3.9134077995
 30
0.0
 10
6.1794648653
 20
3.9226854814
 30
0.0
 10
6.1780176367
 20
3.9299203878
 30
0.0
 10
6.1780176367
 20
3.9333739316
 30
0.0
 11
6.3970176367
 21
3.9333739316
 31
0.0
 11
6.394915254
 21
3.9232252168
 31
0.0
 11
6.3885158013
 21
3.9143006485
 31
0.0
 11
6.3781642434
 21
3.90705847
 31
0.0
 11
6.3646693228
 21
3.9015897562
 31
0.0
 11
6.348263968
 21
3.8975781453
 31
0.0
 11
6.329158213
 21
3.8948378808
 31
0.0
 11
6.3085608815
 21
3.8933018626
 31
0.0
 11
6.2872819129
 21
3.892817133
 31
0.0
 11
6.2659937962
 21
3.8933247503
 31
0.0
 11
6.2454453962
 21
3.8948837048
 31
0.0
 11
6.2264665397
 21
3.8976358106
 31
0.0
 11
6.210254704
 21
3.9016247319
 31
0.0
 11
6.1968495375
 21
3.9070697598
 31
0.0
 11
6.1865223251
 21
3.9142979146
 31
0.0
 11
6.1801185501
 21
3.9232285461
 31
0.0
 11
6.1780176367
 21
3.9333739316
 31
0.0
  0
SPLINE
  5
412
100
AcDbEntity
  8
0
100
AcDbSpline
 62
7
  6
CONTINUOUS
 70
0
 71
3
 72
16
 73
12
 74
10
 42
0.0000001
 43
0.0000001
 44
0.0000000001
 12
-0.0000138384
 22
-0.0901264413
 32
0.0
 13
-0.089943556
 23
0.0
 33
0.0
 40
0.0
 40
0.0
 40
0.0
 40
0.0
 40
0.0084290113
 40
0.1240495893
 40
0.2386637736
 40
0.3530254391
 40
0.4692095166
 40
0.594044752
 40
0.7267835137
 40
0.8638643298
 40
1.0
 40
1.0
 40
1.0
 40
1.0
 10
6.061017639
 20
4.0702582734
 30
0.0
 10
6.0610176002
 20
4.0700050478
 30
0.0
 10
6.0609866805
 20
4.0662782772
 30
0.0
 10
6.0600623637
 20
4.0591193874
 30
0.0
 10
6.0564032506
 20
4.0493608728
 30
0.0
 10
6.0506647981
 20
4.0406519672
 30
0.0
 10
6.0430367593
 20
4.0331125945
 30
0.0
 10
6.0336382655
 20
4.0268883864
 30
0.0
 10
6.0226954367
 20
4.0222275233
 30
0.0
 10
6.0108046114
 20
4.0193967174
 30
0.0
 10
6.0025991454
 20
4.0187704636
 30
0.0
 10
5.9985176367
 20
4.0187704636
 30
0.0
 11
6.061017639
 21
4.0702582734
 31
0.0
 11
6.0610113229
 21
4.069498616
 31
0.0
 11
6.0596667927
 21
4.0591865736
 31
0.0
 11
6.0560559492
 21
4.0495308335
 31
0.0
 11
6.0504205909
 21
4.0409258068
 31
0.0
 11
6.0430162602
 21
4.0335516237
 31
0.0
 11
6.0336808101
 21
4.0273130211
 31
0.0
 11
6.0227137406
 21
4.0225946508
 31
0.0
 11
6.0107259038
 21
4.0197120773
 31
0.0
 11
5.9985176367
 21
4.0187704636
 31
0.0
  0
SPLINE
  5
413
100
AcDbEntity
  8
0
100
AcDbSpline
 62
7
  6
CONTINUOUS
 70
0
 71
3
 72
15
 73
11
 74
9
 42
0.0000001
 43
0.0000001
 44
0.0000000001
 12
0.144303637
 22
0.2708573861
 32
0.0
 13
-0.144303637
 23
0.2708573861
 33
0.0
 40
0.0
 40
0.0
 40
0.0
 40
0.0
 40
0.1355060615
 40
0.2616268072
 40
0.3821382325
 40
0.5000411188
 40
0.6179405518
 40
0.7384429083
 40
0.8645194725
 40
1.0
 40
1.0
 40
1.0
 40
1.0
 10
4.8570920108
 20
3.6238821231
 30
0.0
 10
4.8636100167
 20
3.6361163957
 30
0.0
 10
4.8752432817
 20
3.6602713765
 30
0.0
 10
4.888451264
 20
3.6971538053
 30
0.0
 10
4.8965477339
 20
3.7336729418
 30
0.0
 10
4.8992901291
 20
3.7701547743
 30
0.0
 10
4.8965440994
 20
3.806635379
 30
0.0
 10
4.8884458699
 20
3.8431481251
 30
0.0
 10
4.8752391286
 20
3.8800223308
 30
0.0
 10
4.8636087885
 20
3.9041707749
 30
0.0
 10
4.8570920108
 20
3.9164027421
 30
0.0
 11
4.8570920108
 21
3.6238821231
 31
0.0
 11
4.8749656611
 21
3.661431944
 31
0.0
 11
4.8878484417
 21
3.6979315091
 31
0.0
 11
4.8957215611
 21
3.7340686916
 31
0.0
 11
4.8983820812
 21
3.7701550784
 31
0.0
 11
4.8957180387
 21
3.8062401426
 31
0.0
 11
4.8878425256
 21
3.8423739549
 31
0.0
 11
4.8749626455
 21
3.8788601646
 31
0.0
 11
4.8570920108
 21
3.9164027421
 31
0.0
  0
SPLINE
  5
414
100
AcDbEntity
  8
0
100
AcDbSpline
 62
7
  6
CONTINUOUS
 70
0
 71
3
 72
15
 73
11
 74
9
 42
0.0000001
 43
0.0000001
 44
0.0000000001
 12
-0.1524995809
 22
0.5724822844
 32
0.0
 13
0.1524995809
 23
0.5724822844
 33
0.0
 40
0.0
 40
0.0
 40
0.0
 40
0.0
 40
0.1303027146
 40
0.2554233163
 40
0.3781382012
 40
0.500042666
 40
0.6219428883
 40
0.7446469008
 40
0.8697222521
 40
1.0
 40
1.0
 40
1.0
 40
1.0
 10
4.4591283079
 20
3.9647468137
 30
0.0
 10
4.4525046048
 20
3.9896121456
 30
0.0
 10
4.440732813
 20
4.0386912702
 30
0.0
 10
4.427632575
 20
4.1122568902
 30
0.0
 10
4.4196384954
 20
4.18489498
 30
0.0
 10
4.4169401857
 20
4.2572919103
 30
0.0
 10
4.4196420789
 20
4.3296865478
 30
0.0
 10
4.4276379694
 20
4.4023124188
 30
0.0
 10
4.4407370875
 20
4.4758619168
 30
0.0
 10
4.452505874
 20
4.524927484
 30
0.0
 10
4.4591283079
 20
4.5497880515
 30
0.0
 11
4.4591283079
 21
3.9647468137
 31
0.0
 11
4.4412546577
 21
4.0398464554
 31
0.0
 11
4.4283718771
 21
4.1128455856
 31
0.0
 11
4.4204987577
 21
4.1851199505
 31
0.0
 11
4.4178382376
 21
4.2572927241
 31
0.0
 11
4.42050228
 21
4.3294628526
 31
0.0
 11
4.4283777931
 21
4.4017304773
 31
0.0
 11
4.4412576733
 21
4.4747028966
 31
0.0
 11
4.4591283079
 21
4.5497880515
 31
0.0
  0
SPLINE
  5
415
100
AcDbEntity
  8
0
100
AcDbSpline
 62
7
  6
CONTINUOUS
 70
0
 71
3
 72
15
 73
11
 74
9
 42
0.0000001
 43
0.0000001
 44
0.0000000001
 12
0.1524995809
 22
0.5724822844
 32
0.0
 13
-0.1524995809
 23
0.5724822844
 33
0.0
 40
0.0
 40
0.0
 40
0.0
 40
0.0
 40
0.1303027146
 40
0.2554233163
 40
0.3781382012
 40
0.500042666
 40
0.6219428883
 40
0.7446469008
 40
0.8697222521
 40
1.0
 40
1.0
 40
1.0
 40
1.0
 10
4.8570920108
 20
3.9647468137
 30
0.0
 10
4.863715714
 20
3.9896121456
 30
0.0
 10
4.8754875057
 20
4.0386912702
 30
0.0
 10
4.8885877438
 20
4.1122568902
 30
0.0
 10
4.8965818233
 20
4.18489498
 30
0.0
 10
4.899280133
 20
4.2572919103
 30
0.0
 10
4.8965782399
 20
4.3296865478
 30
0.0
 10
4.8885823494
 20
4.4023124188
 30
0.0
 10
4.8754832313
 20
4.4758619168
 30
0.0
 10
4.8637144448
 20
4.524927484
 30
0.0
 10
4.8570920108
 20
4.5497880515
 30
0.0
 11
4.8570920108
 21
3.9647468137
 31
0.0
 11
4.8749656611
 21
4.0398464554
 31
0.0
 11
4.8878484417
 21
4.1128455856
 31
0.0
 11
4.8957215611
 21
4.1851199505
 31
0.0
 11
4.8983820812
 21
4.2572927241
 31
0.0
 11
4.8957180387
 21
4.3294628526
 31
0.0
 11
4.8878425256
 21
4.4017304773
 31
0.0
 11
4.8749626455
 21
4.4747028966
 31
0.0
 11
4.8570920108
 21
4.5497880515
 31
0.0
  0
SPLINE
  5
416
100
AcDbEntity
  8
0
100
AcDbSpline
 62
7
  6
CONTINUOUS
 70
0
 71
3
 72
15
 73
11
 74
9
 42
0.0000001
 43
0.0000001
 44
0.0000000001
 12
-0.144303637
 22
0.2708573861
 32
0.0
 13
0.144303637
 23
0.2708573861
 33
0.0
 40
0.0
 40
0.0
 40
0.0
 40
0.0
 40
0.1355060615
 40
0.2616268072
 40
0.3821382325
 40
0.5000411188
 40
0.6179405518
 40
0.7384429083
 40
0.8645194725
 40
1.0
 40
1.0
 40
1.0
 40
1.0
 10
4.4591283079
 20
4.5981321231
 30
0.0
 10
4.4526103021
 20
4.6103663957
 30
0.0
 10
4.4409770371
 20
4.6345213765
 30
0.0
 10
4.4277690548
 20
4.6714038053
 30
0.0
 10
4.4196725849
 20
4.7079229418
 30
0.0
 10
4.4169301897
 20
4.7444047743
 30
0.0
 10
4.4196762194
 20
4.780885379
 30
0.0
 10
4.4277744489
 20
4.8173981251
 30
0.0
 10
4.4409811902
 20
4.8542723308
 30
0.0
 10
4.4526115303
 20
4.8784207749
 30
0.0
 10
4.4591283079
 20
4.8906527421
 30
0.0
 11
4.4591283079
 21
4.5981321231
 31
0.0
 11
4.4412546577
 21
4.635681944
 31
0.0
 11
4.4283718771
 21
4.6721815091
 31
0.0
 11
4.4204987577
 21
4.7083186916
 31
0.0
 11
4.4178382376
 21
4.7444050784
 31
0.0
 11
4.42050228
 21
4.7804901426
 31
0.0
 11
4.4283777931
 21
4.8166239549
 31
0.0
 11
4.4412576733
 21
4.8531101646
 31
0.0
 11
4.4591283079
 21
4.8906527421
 31
0.0
  0
SPLINE
  5
417
100
AcDbEntity
  8
0
100
AcDbSpline
 62
7
  6
CONTINUOUS
 70
0
 71
3
 72
15
 73
11
 74
9
 42
0.0000001
 43
0.0000001
 44
0.0000000001
 12
0.144303637
 22
0.2708573861
 32
0.0
 13
-0.144303637
 23
0.2708573861
 33
0.0
 40
0.0
 40
0.0
 40
0.0
 40
0.0
 40
0.1355060615
 40
0.2616268072
 40
0.3821382325
 40
0.5000411188
 40
0.6179405518
 40
0.7384429083
 40
0.8645194725
 40
1.0
 40
1.0
 40
1.0
 40
1.0
 10
4.8570920108
 20
4.5981321231
 30
0.0
 10
4.8636100167
 20
4.6103663957
 30
0.0
 10
4.8752432817
 20
4.6345213765
 30
0.0
 10
4.888451264
 20
4.6714038053
 30
0.0
 10
4.8965477339
 20
4.7079229418
 30
0.0
 10
4.8992901291
 20
4.7444047743
 30
0.0
 10
4.8965440994
 20
4.780885379
 30
0.0
 10
4.8884458699
 20
4.8173981251
 30
0.0
 10
4.8752391286
 20
4.8542723308
 30
0.0
 10
4.8636087885
 20
4.8784207749
 30
0.0
 10
4.8570920108
 20
4.8906527421
 30
0.0
 11
4.8570920108
 21
4.5981321231
 31
0.0
 11
4.8749656611
 21
4.635681944
 31
0.0
 11
4.8878484417
 21
4.6721815091
 31
0.0
 11
4.8957215611
 21
4.7083186916
 31
0.0
 11
4.8983820812
 21
4.7444050784
 31
0.0
 11
4.8957180387
 21
4.7804901426
 31
0.0
 11
4.8878425256
 21
4.8166239549
 31
0.0
 11
4.8749626455
 21
4.8531101646
 31
0.0
 11
4.8570920108
 21
4.8906527421
 31
0.0
  0
SPLINE
  5
418
100
AcDbEntity
  8
0
100
AcDbSpline
 62
7
  6
CONTINUOUS
 70
0
 71
3
 72
15
 73
11
 74
9
 42
0.0000001
 43
0.0000001
 44
0.0000000001
 12
-0.144303637
 22
0.2708573861
 32
0.0
 13
0.144303637
 23
0.2708573861
 33
0.0
 40
0.0
 40
0.0
 40
0.0
 40
0.0
 40
0.1355060615
 40
0.2616268072
 40
0.3821382325
 40
0.5000411188
 40
0.6179405518
 40
0.7384429083
 40
0.8645194725
 40
1.0
 40
1.0
 40
1.0
 40
1.0
 10
4.4591283079
 20
3.6238821231
 30
0.0
 10
4.4526103021
 20
3.6361163957
 30
0.0
 10
4.4409770371
 20
3.6602713765
 30
0.0
 10
4.4277690548
 20
3.6971538053
 30
0.0
 10
4.4196725849
 20
3.7336729418
 30
0.0
 10
4.4169301897
 20
3.7701547743
 30
0.0
 10
4.4196762194
 20
3.806635379
 30
0.0
 10
4.4277744489
 20
3.8431481251
 30
0.0
 10
4.4409811902
 20
3.8800223308
 30
0.0
 10
4.4526115303
 20
3.9041707749
 30
0.0
 10
4.4591283079
 20
3.9164027421
 30
0.0
 11
4.4591283079
 21
3.6238821231
 31
0.0
 11
4.4412546577
 21
3.661431944
 31
0.0
 11
4.4283718771
 21
3.6979315091
 31
0.0
 11
4.4204987577
 21
3.7340686916
 31
0.0
 11
4.4178382376
 21
3.7701550784
 31
0.0
 11
4.42050228
 21
3.8062401426
 31
0.0
 11
4.4283777931
 21
3.8423739549
 31
0.0
 11
4.4412576733
 21
3.8788601646
 31
0.0
 11
4.4591283079
 21
3.9164027421
 31
0.0
  0
ENDSEC
  0
SECTION
  2
OBJECTS
  0
DICTIONARY
  5
C
100
AcDbDictionary
280
0
281
1
  3
ACAD_GROUP
350
D
  3
ACAD_MLINESTYLE
350
17
  3
ACAD_LAYOUT
350
1A
  3
ACAD_PLOTSETTINGS
350
19
  3
ACAD_PLOTSTYLENAME
350
E
  0
DICTIONARY
  5
D
102
{ACAD_REACTORS
330
C
102
}
100
AcDbDictionary
280
0
281
1
  0
ACDBDICTIONARYWDFLT
  5
E
102
{ACAD_REACTORS
330
C
102
}
100
AcDbDictionary
281
1
  3
Normal
350
F
100
AcDbDictionaryWithDefault
340
F
  0
DICTIONARY
  5
17
102
{ACAD_REACTORS
330
C
102
}
100
AcDbDictionary
280
0
281
1
  3
Standard
350
18
  0
DICTIONARY
  5
19
102
{ACAD_REACTORS
330
C
102
}
100
AcDbDictionary
281
1
  0
DICTIONARY
  5
1A
102
{ACAD_REACTORS
330
C
102
}
100
AcDbDictionary
281
1
  3
Layout1
350
1E
  3
Model
350
22
  0
ACDBPLACEHOLDER
  5
F
102
{ACAD_REACTORS
330
E
102
}
  0
MLINESTYLE
  5
18
102
{ACAD_REACTORS
330
17
102
}
100
AcDbMlineStyle
  2
STANDARD
 70
0
  3

 62
256
 51
90.0
 52
90.0
 71
2
 49
0.5
 62
256
  6
BYLAYER
 49
-0.5
 62
256
  6
BYLAYER
  0
LAYOUT
  5
1E
102
{ACAD_REACTORS
330
1A
102
}
100
AcDbPlotSettings
  1

  2

  4

  6

 40
0.0
 41
0.0
 42
0.0
 43
0.0
 44
0.0
 45
0.0
 46
0.0
 47
0.0
 48
0.0
 49
0.0
140
0.0
141
0.0
142
1.0
143
1.0
 70
0
 72
0
 73
0
 74
0
  7

 75
0
147
1.0
148
0.0
149
0.0
100
AcDbLayout
  1
Layout1
 70
0
 71
0
 10
0.0
 20
0.0
 11
0.0
 21
0.0
 12
0.0
 22
0.0
 32
0.0
 14
0.0
 24
0.0
 34
0.0
 15
0.0
 25
0.0
 35
0.0
146
0.0
 13
0.0
 23
0.0
 33
0.0
 16
0.0
 26
0.0
 36
0.0
 17
0.0
 27
0.0
 37
0.0
 76
0
330
1B
331
0
345
0
346
0
  0
LAYOUT
  5
22
102
{ACAD_REACTORS
330
1A
102
}
100
AcDbPlotSettings
  1

  2

  4

  6

 40
0.0
 41
0.0
 42
0.0
 43
0.0
 44
0.0
 45
0.0
 46
0.0
 47
0.0
 48
0.0
 49
0.0
140
0.0
141
0.0
142
1.0
143
1.0
 70
0
 72
0
 73
0
 74
0
  7

 75
0
147
1.0
148
0.0
149
0.0
100
AcDbLayout
  1
Model
 70
0
 71
0
 10
0.0
 20
0.0
 11
0.0
 21
0.0
 12
0.0
 22
0.0
 32
0.0
 14
0.0
 24
0.0
 34
0.0
 15
0.0
 25
0.0
 35
0.0
146
0.0
 13
0.0
 23
0.0
 33
0.0
 16
0.0
 26
0.0
 36
0.0
 17
0.0
 27
0.0
 37
0.0
 76
0
330
1F
331
0
345
0
346
0
  0
ENDSEC
  0
EOF
