999
DXF file: CXEE-XCN.dxf
999
Pro/ENGINEER 2006240 by Parametric Technology Corporation
  0
SECTION
  2
HEADER
  9
$ACADVER
  1
AC1015
  9
$DWGCODEPAGE
  3
ANSI_1252
  9
$EXTMAX
 10
11.6929133858
 20
8.2677165354
 30
0.0
  9
$EXTMIN
 10
0.0
 20
0.0
 30
0.0
  9
$LIMMIN
 10
0.0
 20
0.0
  9
$LIMMAX
 10
11.6929133858
 20
8.2677165354
  9
$VIEWCTR
 10
5.8464566929
 20
4.1338582677
  9
$VIEWSIZE
 40
8.2677165354
  9
$CLAYER
  8
0
  9
$LTSCALE
 40
0.6431102362
  9
$CELTYPE
  6
BYLAYER
  9
$DIMSCALE
 40
1.0
  9
$DIMASZ
 40
0.1875
  9
$DIMEXO
 40
0.0730807087
  9
$DIMDLI
 40
0.4443307087
  9
$DIMEXE
 40
0.2104724409
  9
$DIMCEN
 40
0.1052362205
  9
$DIMLFAC
 40
1.0
  9
$DIMBLK
  1
_CLOSED
  9
$DIMTXT
 40
0.15625
  9
$DIMTOL
 70
0
  9
$DIMLIM
 70
0
  9
$DIMTFAC
 40
1.0
  9
$PDMODE
 70
3
  9
$PDSIZE
 40
0.3125
  9
$HANDSEED
  5
425
  9
$MEASUREMENT
 70
0
  9
$INSUNITS
 70
1
  0
ENDSEC
  0
SECTION
  2
CLASSES
  0
CLASS
  1
ACDBDICTIONARYWDFLT
  2
AcDbDictionaryWithDefault
  3
AutoCAD 2000
 90
0
280
0
281
0
  0
CLASS
  1
ACDBPLACEHOLDER
  2
AcDbPlaceHolder
  3
AutoCAD 2000
 90
0
280
0
281
0
  0
CLASS
  1
LAYOUT
  2
AcDbLayout
  3
AutoCAD 2000
 90
0
280
0
281
0
  0
ENDSEC
  0
SECTION
  2
TABLES
  0
TABLE
  2
VPORT
  5
8
100
AcDbSymbolTable
 70
2
  0
VPORT
  5
1F4
100
AcDbSymbolTableRecord
100
AcDbViewportTableRecord
  2
*ACTIVE
 70
0
 10
0.0
 20
0.0
 11
1.0
 21
1.0
 12
5.8464566929
 22
4.1338582677
 13
0.0
 23
0.0
 14
1.0
 24
1.0
 15
0.0
 25
0.0
 16
0.0
 26
0.0
 36
1.0
 17
0.0
 27
0.0
 37
0.0
 40
8.2677165354
 41
1.4142857143
 42
50.0
 43
0.0
 44
0.0
 50
0.0
 51
0.0
 71
0
 72
100
 73
1
 74
1
 75
0
 76
0
 77
0
 78
0
  0
ENDTAB
  0
TABLE
  2
LTYPE
  5
5
100
AcDbSymbolTable
 70
6
  0
LTYPE
  5
14
100
AcDbSymbolTableRecord
100
AcDbLinetypeTableRecord
  2
BYBLOCK
 70
0
  3

 72
65
 73
0
 40
0.0
  0
LTYPE
  5
15
100
AcDbSymbolTableRecord
100
AcDbLinetypeTableRecord
  2
BYLAYER
 70
0
  3

 72
65
 73
0
 40
0.0
  0
LTYPE
  5
16
100
AcDbSymbolTableRecord
100
AcDbLinetypeTableRecord
  2
CONTINUOUS
 70
64
  3
Solid line
 72
65
 73
0
 40
0.0
  0
LTYPE
  5
1F5
100
AcDbSymbolTableRecord
100
AcDbLinetypeTableRecord
  2
CENTER
 70
64
  3
____ _ ____ _ ____ _ ____ _ ____ _ ____ _ ____
 72
65
 73
4
 40
0.6
 49
0.375
 74
0
 49
-0.075
 74
0
 49
0.075
 74
0
 49
-0.075
 74
0
  0
LTYPE
  5
1F6
100
AcDbSymbolTableRecord
100
AcDbLinetypeTableRecord
  2
HIDDEN
 70
64
  3
- - - - - - - - - - - - - - - - - - - -
 72
65
 73
2
 40
0.2
 49
0.1
 74
0
 49
-0.1
 74
0
  0
LTYPE
  5
1F7
100
AcDbSymbolTableRecord
100
AcDbLinetypeTableRecord
  2
PHANTOM
 70
64
  3
_____ _ _ _____ _ _ _____ _ _ _____
 72
65
 73
6
 40
0.8
 49
0.45
 74
0
 49
-0.05
 74
0
 49
0.1
 74
0
 49
-0.05
 74
0
 49
0.1
 74
0
 49
-0.05
 74
0
  0
LTYPE
  5
1F8
100
AcDbSymbolTableRecord
100
AcDbLinetypeTableRecord
  2
DOT
 70
64
  3
. . . . . . . . . . . . . . . . . . . .
 72
65
 73
2
 40
0.2
 49
0.1
 74
0
 49
-0.1
 74
0
  0
LTYPE
  5
1F9
100
AcDbSymbolTableRecord
100
AcDbLinetypeTableRecord
  2
DASHED
 70
64
  3
- - - - - - - - - - - - - - - - - - - -
 72
65
 73
2
 40
0.2
 49
0.1
 74
0
 49
-0.1
 74
0
  0
ENDTAB
  0
TABLE
  2
LAYER
  5
2
100
AcDbSymbolTable
 70
36
  0
LAYER
  5
10
100
AcDbSymbolTableRecord
100
AcDbLayerTableRecord
  2
0
 70
0
 62
7
  6
CONTINUOUS
370
-3
390
F
  0
LAYER
  5
1FA
100
AcDbSymbolTableRecord
100
AcDbLayerTableRecord
  2
DEFAULT_1
 70
0
 62
7
  6
CENTER
370
-3
390
F
  0
LAYER
  5
1FB
100
AcDbSymbolTableRecord
100
AcDbLayerTableRecord
  2
DEFAULT_2
 70
0
 62
8
  6
HIDDEN
370
-3
390
F
  0
LAYER
  5
1FC
100
AcDbSymbolTableRecord
100
AcDbLayerTableRecord
  2
DEFAULT_3
 70
0
 62
7
  6
PHANTOM
370
-3
390
F
  0
LAYER
  5
1FD
100
AcDbSymbolTableRecord
100
AcDbLayerTableRecord
  2
_BLACK_HOLE
 70
0
 62
7
  6
CONTINUOUS
370
-3
390
F
  0
LAYER
  5
1FE
100
AcDbSymbolTableRecord
100
AcDbLayerTableRecord
  2
01_ALL_DTM_PLN
 70
0
 62
7
  6
CONTINUOUS
370
-3
390
F
  0
LAYER
  5
1FF
100
AcDbSymbolTableRecord
100
AcDbLayerTableRecord
  2
01__ASM_ALL_DTM_PLN
 70
0
 62
7
  6
CONTINUOUS
370
-3
390
F
  0
LAYER
  5
200
100
AcDbSymbolTableRecord
100
AcDbLayerTableRecord
  2
01__ASM_DEF_DTM_PLN
 70
0
 62
7
  6
CONTINUOUS
370
-3
390
F
  0
LAYER
  5
201
100
AcDbSymbolTableRecord
100
AcDbLayerTableRecord
  2
01___PRT_ALL_DTM_PLN
 70
0
 62
7
  6
CONTINUOUS
370
-3
390
F
  0
LAYER
  5
202
100
AcDbSymbolTableRecord
100
AcDbLayerTableRecord
  2
01___PRT_DEF_DTM_PLN
 70
0
 62
7
  6
CONTINUOUS
370
-3
390
F
  0
LAYER
  5
203
100
AcDbSymbolTableRecord
100
AcDbLayerTableRecord
  2
02_ALL_AXES
 70
0
 62
7
  6
CONTINUOUS
370
-3
390
F
  0
LAYER
  5
204
100
AcDbSymbolTableRecord
100
AcDbLayerTableRecord
  2
02__ASM_ALL_AXES
 70
0
 62
7
  6
CONTINUOUS
370
-3
390
F
  0
LAYER
  5
205
100
AcDbSymbolTableRecord
100
AcDbLayerTableRecord
  2
02___PRT_ALL_AXES
 70
0
 62
7
  6
CONTINUOUS
370
-3
390
F
  0
LAYER
  5
206
100
AcDbSymbolTableRecord
100
AcDbLayerTableRecord
  2
03_ALL_CURVES
 70
0
 62
7
  6
CONTINUOUS
370
-3
390
F
  0
LAYER
  5
207
100
AcDbSymbolTableRecord
100
AcDbLayerTableRecord
  2
03__ASM_ALL_CURVES
 70
0
 62
7
  6
CONTINUOUS
370
-3
390
F
  0
LAYER
  5
208
100
AcDbSymbolTableRecord
100
AcDbLayerTableRecord
  2
03___PRT_ALL_CURVES
 70
0
 62
7
  6
CONTINUOUS
370
-3
390
F
  0
LAYER
  5
209
100
AcDbSymbolTableRecord
100
AcDbLayerTableRecord
  2
04_ALL_DTM_PNT
 70
0
 62
7
  6
CONTINUOUS
370
-3
390
F
  0
LAYER
  5
20A
100
AcDbSymbolTableRecord
100
AcDbLayerTableRecord
  2
04__ASM_ALL_DTM_PNT
 70
0
 62
7
  6
CONTINUOUS
370
-3
390
F
  0
LAYER
  5
20B
100
AcDbSymbolTableRecord
100
AcDbLayerTableRecord
  2
04___PRT_ALL_DTM_PNT
 70
0
 62
7
  6
CONTINUOUS
370
-3
390
F
  0
LAYER
  5
20C
100
AcDbSymbolTableRecord
100
AcDbLayerTableRecord
  2
05_ALL_DTM_CSYS
 70
0
 62
7
  6
CONTINUOUS
370
-3
390
F
  0
LAYER
  5
20D
100
AcDbSymbolTableRecord
100
AcDbLayerTableRecord
  2
05__ASM_ALL_DTM_CSYS
 70
0
 62
7
  6
CONTINUOUS
370
-3
390
F
  0
LAYER
  5
20E
100
AcDbSymbolTableRecord
100
AcDbLayerTableRecord
  2
05__ASM_DEF_DTM_CSYS
 70
0
 62
7
  6
CONTINUOUS
370
-3
390
F
  0
LAYER
  5
20F
100
AcDbSymbolTableRecord
100
AcDbLayerTableRecord
  2
05___PRT_ALL_DTM_CSYS
 70
0
 62
7
  6
CONTINUOUS
370
-3
390
F
  0
LAYER
  5
210
100
AcDbSymbolTableRecord
100
AcDbLayerTableRecord
  2
05___PRT_DEF_DTM_CSYS
 70
0
 62
7
  6
CONTINUOUS
370
-3
390
F
  0
LAYER
  5
211
100
AcDbSymbolTableRecord
100
AcDbLayerTableRecord
  2
06_ALL_SURFS
 70
0
 62
7
  6
CONTINUOUS
370
-3
390
F
  0
LAYER
  5
212
100
AcDbSymbolTableRecord
100
AcDbLayerTableRecord
  2
06__ASM_ALL_SURFS
 70
0
 62
7
  6
CONTINUOUS
370
-3
390
F
  0
LAYER
  5
213
100
AcDbSymbolTableRecord
100
AcDbLayerTableRecord
  2
06___PRT_ALL_SURFS
 70
0
 62
7
  6
CONTINUOUS
370
-3
390
F
  0
LAYER
  5
214
100
AcDbSymbolTableRecord
100
AcDbLayerTableRecord
  2
07__ASM_ALL_SKELETONS
 70
0
 62
7
  6
CONTINUOUS
370
-3
390
F
  0
LAYER
  5
215
100
AcDbSymbolTableRecord
100
AcDbLayerTableRecord
  2
125-021_FEATURES
 70
0
 62
7
  6
CONTINUOUS
370
-3
390
F
  0
LAYER
  5
216
100
AcDbSymbolTableRecord
100
AcDbLayerTableRecord
  2
125-021_REF_GEOMETRY
 70
0
 62
7
  6
CONTINUOUS
370
-3
390
F
  0
LAYER
  5
217
100
AcDbSymbolTableRecord
100
AcDbLayerTableRecord
  2
125-089_FEATURES
 70
0
 62
7
  6
CONTINUOUS
370
-3
390
F
  0
LAYER
  5
218
100
AcDbSymbolTableRecord
100
AcDbLayerTableRecord
  2
125-089_REF_GEOMETRY
 70
0
 62
7
  6
CONTINUOUS
370
-3
390
F
  0
LAYER
  5
219
100
AcDbSymbolTableRecord
100
AcDbLayerTableRecord
  2
125-094_FEATURES
 70
0
 62
7
  6
CONTINUOUS
370
-3
390
F
  0
LAYER
  5
21A
100
AcDbSymbolTableRecord
100
AcDbLayerTableRecord
  2
125-094_REF_GEOMETRY
 70
0
 62
7
  6
CONTINUOUS
370
-3
390
F
  0
LAYER
  5
21B
100
AcDbSymbolTableRecord
100
AcDbLayerTableRecord
  2
127-310_FEATURES
 70
0
 62
7
  6
CONTINUOUS
370
-3
390
F
  0
LAYER
  5
21C
100
AcDbSymbolTableRecord
100
AcDbLayerTableRecord
  2
127-310_REF_GEOMETRY
 70
0
 62
7
  6
CONTINUOUS
370
-3
390
F
  0
LAYER
  5
21D
100
AcDbSymbolTableRecord
100
AcDbLayerTableRecord
  2
127-311_FEATURES
 70
0
 62
7
  6
CONTINUOUS
370
-3
390
F
  0
LAYER
  5
21E
100
AcDbSymbolTableRecord
100
AcDbLayerTableRecord
  2
127-311_REF_GEOMETRY
 70
0
 62
7
  6
CONTINUOUS
370
-3
390
F
  0
LAYER
  5
21F
100
AcDbSymbolTableRecord
100
AcDbLayerTableRecord
  2
127-312_FEATURES
 70
0
 62
7
  6
CONTINUOUS
370
-3
390
F
  0
LAYER
  5
220
100
AcDbSymbolTableRecord
100
AcDbLayerTableRecord
  2
127-312_REF_GEOMETRY
 70
0
 62
7
  6
CONTINUOUS
370
-3
390
F
  0
LAYER
  5
221
100
AcDbSymbolTableRecord
100
AcDbLayerTableRecord
  2
COPY_GEO_FET
 70
0
 62
7
  6
CONTINUOUS
370
-3
390
F
  0
LAYER
  5
222
100
AcDbSymbolTableRecord
100
AcDbLayerTableRecord
  2
COSMETIC
 70
0
 62
7
  6
CONTINUOUS
370
-3
390
F
  0
LAYER
  5
223
100
AcDbSymbolTableRecord
100
AcDbLayerTableRecord
  2
CROSS_HOLE_DATUMS
 70
0
 62
7
  6
CONTINUOUS
370
-3
390
F
  0
LAYER
  5
224
100
AcDbSymbolTableRecord
100
AcDbLayerTableRecord
  2
CURVES
 70
0
 62
7
  6
CONTINUOUS
370
-3
390
F
  0
LAYER
  5
225
100
AcDbSymbolTableRecord
100
AcDbLayerTableRecord
  2
CUT_REF_SURF
 70
0
 62
7
  6
CONTINUOUS
370
-3
390
F
  0
LAYER
  5
226
100
AcDbSymbolTableRecord
100
AcDbLayerTableRecord
  2
DATUM
 70
0
 62
7
  6
CONTINUOUS
370
-3
390
F
  0
LAYER
  5
227
100
AcDbSymbolTableRecord
100
AcDbLayerTableRecord
  2
DATUMCURVES
 70
0
 62
7
  6
CONTINUOUS
370
-3
390
F
  0
LAYER
  5
228
100
AcDbSymbolTableRecord
100
AcDbLayerTableRecord
  2
DIMENSIONS
 70
0
 62
7
  6
CONTINUOUS
370
-3
390
F
  0
LAYER
  5
229
100
AcDbSymbolTableRecord
100
AcDbLayerTableRecord
  2
DRAWINGNOTES
 70
0
 62
7
  6
CONTINUOUS
370
-3
390
F
  0
LAYER
  5
22A
100
AcDbSymbolTableRecord
100
AcDbLayerTableRecord
  2
DTM
 70
0
 62
7
  6
CONTINUOUS
370
-3
390
F
  0
LAYER
  5
22B
100
AcDbSymbolTableRecord
100
AcDbLayerTableRecord
  2
DTM230
 70
0
 62
7
  6
CONTINUOUS
370
-3
390
F
  0
LAYER
  5
22C
100
AcDbSymbolTableRecord
100
AcDbLayerTableRecord
  2
DTM_500001
 70
0
 62
7
  6
CONTINUOUS
370
-3
390
F
  0
LAYER
  5
22D
100
AcDbSymbolTableRecord
100
AcDbLayerTableRecord
  2
DTM_500002
 70
0
 62
7
  6
CONTINUOUS
370
-3
390
F
  0
LAYER
  5
22E
100
AcDbSymbolTableRecord
100
AcDbLayerTableRecord
  2
DTM_515002
 70
0
 62
7
  6
CONTINUOUS
370
-3
390
F
  0
LAYER
  5
22F
100
AcDbSymbolTableRecord
100
AcDbLayerTableRecord
  2
DTM_SPRING_RH
 70
0
 62
7
  6
CONTINUOUS
370
-3
390
F
  0
LAYER
  5
230
100
AcDbSymbolTableRecord
100
AcDbLayerTableRecord
  2
DTM_SP_RH_CONSTR
 70
0
 62
7
  6
CONTINUOUS
370
-3
390
F
  0
LAYER
  5
231
100
AcDbSymbolTableRecord
100
AcDbLayerTableRecord
  2
FLUTE_DATUMS
 70
0
 62
7
  6
CONTINUOUS
370
-3
390
F
  0
LAYER
  5
232
100
AcDbSymbolTableRecord
100
AcDbLayerTableRecord
  2
GEOMETRICTOLERANCES
 70
0
 62
7
  6
CONTINUOUS
370
-3
390
F
  0
LAYER
  5
233
100
AcDbSymbolTableRecord
100
AcDbLayerTableRecord
  2
PARAMETERDIMENSIONS
 70
0
 62
7
  6
CONTINUOUS
370
-3
390
F
  0
LAYER
  5
234
100
AcDbSymbolTableRecord
100
AcDbLayerTableRecord
  2
PLANE
 70
0
 62
7
  6
CONTINUOUS
370
-3
390
F
  0
LAYER
  5
235
100
AcDbSymbolTableRecord
100
AcDbLayerTableRecord
  2
S-151_METRIC_ORING_BOSS_PORT
 70
0
 62
7
  6
CONTINUOUS
370
-3
390
F
  0
LAYER
  5
236
100
AcDbSymbolTableRecord
100
AcDbLayerTableRecord
  2
S-164_NPTF_PORT
 70
0
 62
7
  6
CONTINUOUS
370
-3
390
F
  0
LAYER
  5
237
100
AcDbSymbolTableRecord
100
AcDbLayerTableRecord
  2
S-186_BSPP_PORT
 70
0
 62
7
  6
CONTINUOUS
370
-3
390
F
  0
LAYER
  5
238
100
AcDbSymbolTableRecord
100
AcDbLayerTableRecord
  2
SUN_STD_SAE-4_PORT
 70
0
 62
7
  6
CONTINUOUS
370
-3
390
F
  0
LAYER
  5
239
100
AcDbSymbolTableRecord
100
AcDbLayerTableRecord
  2
T-8A_CAVITY
 70
0
 62
7
  6
CONTINUOUS
370
-3
390
F
  0
LAYER
  5
23A
100
AcDbSymbolTableRecord
100
AcDbLayerTableRecord
  2
T-8A_CAVITY-INCOMPLETE
 70
0
 62
7
  6
CONTINUOUS
370
-3
390
F
  0
LAYER
  5
23B
100
AcDbSymbolTableRecord
100
AcDbLayerTableRecord
  2
T-8A_CAVITY-INCOMPLETE_REF_GEOM
 70
0
 62
7
  6
CONTINUOUS
370
-3
390
F
  0
LAYER
  5
23C
100
AcDbSymbolTableRecord
100
AcDbLayerTableRecord
  2
T-8A_CAVITY_REF_GEOMETRY
 70
0
 62
7
  6
CONTINUOUS
370
-3
390
F
  0
LAYER
  5
23D
100
AcDbSymbolTableRecord
100
AcDbLayerTableRecord
  2
TEXT
 70
0
 62
7
  6
CONTINUOUS
370
-3
390
F
  0
LAYER
  5
23E
100
AcDbSymbolTableRecord
100
AcDbLayerTableRecord
  2
THREAD
 70
0
 62
7
  6
CONTINUOUS
370
-3
390
F
  0
ENDTAB
  0
TABLE
  2
STYLE
  5
3
100
AcDbSymbolTable
 70
1
  0
STYLE
  5
11
100
AcDbSymbolTableRecord
100
AcDbTextStyleTableRecord
  2
STANDARD
 70
0
 40
0.0
 41
0.8
 50
0.0
 71
0
 42
0.2
  3
txt
  4

  0
ENDTAB
  0
TABLE
  2
VIEW
  5
6
100
AcDbSymbolTable
 70
0
  0
ENDTAB
  0
TABLE
  2
UCS
  5
7
100
AcDbSymbolTable
 70
0
  0
ENDTAB
  0
TABLE
  2
APPID
  5
9
100
AcDbSymbolTable
 70
1
  0
APPID
  5
23F
100
AcDbSymbolTableRecord
100
AcDbRegAppTableRecord
  2
ACAD
 70
0
  0
ENDTAB
  0
TABLE
  2
BLOCK_RECORD
  5
1
100
AcDbSymbolTable
 70
0
  0
BLOCK_RECORD
  5
1F
100
AcDbSymbolTableRecord
100
AcDbBlockTableRecord
  2
*MODEL_SPACE
  0
BLOCK_RECORD
  5
1B
100
AcDbSymbolTableRecord
100
AcDbBlockTableRecord
  2
*PAPER_SPACE
  0
ENDTAB
  0
TABLE
  2
DIMSTYLE
  5
A
100
AcDbSymbolTable
 70
1
100
AcDbDimStyleTable
 71
0
  0
DIMSTYLE
105
240
100
AcDbSymbolTableRecord
100
AcDbDimStyleTableRecord
  2
STANDARD
 70
0
  3

  4

 40
1.0
 41
0.1875
 42
0.0625
 43
0.38
 44
0.18
 45
0.0
 46
0.0
 47
0.01
 48
0.01
140
0.15625
141
0.09
142
0.0
143
25.4
144
1.0
145
0.0
146
1.0
147
0.09
 71
0.0
 72
0.0
 73
1
 74
1
 75
0
 76
0
 77
0
 78
4
170
0
171
2
172
0
173
0
174
0
175
0
176
0
177
0
178
0
270
2
271
2
272
2
273
2
274
2
275
0
280
0
281
0
282
0
283
1
284
4
285
0
286
0
287
3
288
0
340
11
  0
ENDTAB
  0
ENDSEC
  0
SECTION
  2
BLOCKS
  0
BLOCK
  5
20
100
AcDbEntity
  8
0
100
AcDbBlockBegin
  2
*MODEL_SPACE
 70
0
 10
0.0
 20
0.0
 30
0.0
  3
*MODEL_SPACE
  1

  0
ENDBLK
  5
21
100
AcDbEntity
  8
0
100
AcDbBlockEnd
  0
BLOCK
  5
1C
100
AcDbEntity
  8
0
100
AcDbBlockBegin
  2
*PAPER_SPACE
 70
0
 10
0.0
 20
0.0
 30
0.0
  3
*PAPER_SPACE
  1

  0
ENDBLK
  5
1D
100
AcDbEntity
  8
0
100
AcDbBlockEnd
  0
ENDSEC
  0
SECTION
  2
ENTITIES
  0
LINE
  5
241
100
AcDbEntity
  8
0
100
AcDbLine
 62
7
  6
CONTINUOUS
 10
4.1746399519
 20
3.5934727005
 11
4.1292954495
 21
3.6720116826
  0
LINE
  5
242
100
AcDbEntity
  8
0
100
AcDbLine
 62
7
  6
CONTINUOUS
 10
4.1292954495
 20
3.6720116826
 11
4.1292954495
 21
4.7820116826
  0
LINE
  5
243
100
AcDbEntity
  8
03__ASM_ALL_CURVES
100
AcDbLine
 62
40
  6
CONTINUOUS
 10
4.1292954495
 20
4.7820116826
 11
4.1292954495
 21
5.0801356826
  0
LINE
  5
244
100
AcDbEntity
  8
0
100
AcDbLine
 62
7
  6
CONTINUOUS
 10
4.1749061207
 20
3.5930116826
 11
4.1749061207
 21
3.5936263731
  0
LINE
  5
245
100
AcDbEntity
  8
0
100
AcDbLine
 62
7
  6
CONTINUOUS
 10
4.1749061207
 20
3.8861469921
 11
4.1749061207
 21
3.9344910637
  0
LINE
  5
246
100
AcDbEntity
  8
0
100
AcDbLine
 62
7
  6
CONTINUOUS
 10
4.1749061207
 20
4.5195323015
 11
4.1749061207
 21
4.5678763731
  0
LINE
  5
247
100
AcDbEntity
  8
0
100
AcDbLine
 62
7
  6
CONTINUOUS
 10
4.1749061207
 20
4.8603969921
 11
4.1749061207
 21
4.8610116826
  0
LINE
  5
248
100
AcDbEntity
  8
0
100
AcDbLine
 62
7
  6
CONTINUOUS
 10
4.1746399519
 20
4.8605506647
 11
4.1292954495
 21
4.7820116826
  0
LINE
  5
249
100
AcDbEntity
  8
03__ASM_ALL_CURVES
100
AcDbLine
 62
40
  6
CONTINUOUS
 10
4.2117954495
 20
5.0663856826
 11
4.2117954495
 21
5.0388856826
  0
LINE
  5
24A
100
AcDbEntity
  8
03__ASM_ALL_CURVES
100
AcDbLine
 62
40
  6
CONTINUOUS
 10
4.6277329495
 20
5.1316981826
 11
4.6234360745
 21
5.1259690173
  0
LINE
  5
24B
100
AcDbEntity
  8
03__ASM_ALL_CURVES
100
AcDbLine
 62
40
  6
CONTINUOUS
 10
4.6320298245
 20
5.0973231826
 11
4.6234360745
 21
5.0858648494
  0
LINE
  5
24C
100
AcDbEntity
  8
03__ASM_ALL_CURVES
100
AcDbLine
 62
40
  6
CONTINUOUS
 10
4.5976548245
 20
5.1431565173
 11
4.6062485745
 21
5.1488856826
  0
LINE
  5
24D
100
AcDbEntity
  8
03__ASM_ALL_CURVES
100
AcDbLine
 62
40
  6
CONTINUOUS
 10
4.4730454495
 20
5.1488856826
 11
4.4730454495
 21
5.0801356826
  0
LINE
  5
24E
100
AcDbEntity
  8
03__ASM_ALL_CURVES
100
AcDbLine
 62
40
  6
CONTINUOUS
 10
4.5374985745
 20
5.0801356826
 11
4.5374985745
 21
5.0858648494
  0
LINE
  5
24F
100
AcDbEntity
  8
03__ASM_ALL_CURVES
100
AcDbLine
 62
40
  6
CONTINUOUS
 10
4.6835923245
 20
5.1087815152
 11
4.6878891995
 21
5.1259690173
  0
LINE
  5
250
100
AcDbEntity
  8
03__ASM_ALL_CURVES
100
AcDbLine
 62
40
  6
CONTINUOUS
 10
4.6878891995
 20
5.1259690173
 11
4.6964829495
 21
5.1488856826
  0
LINE
  5
251
100
AcDbEntity
  8
03__ASM_ALL_CURVES
100
AcDbLine
 62
40
  6
CONTINUOUS
 10
4.7523423245
 20
5.1488856826
 11
4.7437485745
 21
5.1374273479
  0
LINE
  5
252
100
AcDbEntity
  8
03__ASM_ALL_CURVES
100
AcDbLine
 62
40
  6
CONTINUOUS
 10
4.8339829495
 20
5.1316981826
 11
4.8296860745
 21
5.1259690173
  0
LINE
  5
253
100
AcDbEntity
  8
03__ASM_ALL_CURVES
100
AcDbLine
 62
40
  6
CONTINUOUS
 10
4.8382798245
 20
5.0973231826
 11
4.8296860745
 21
5.0858648494
  0
LINE
  5
254
100
AcDbEntity
  8
03__ASM_ALL_CURVES
100
AcDbLine
 62
40
  6
CONTINUOUS
 10
4.6234360745
 20
5.1259690173
 11
4.6148423245
 21
5.1202398479
  0
LINE
  5
255
100
AcDbEntity
  8
03__ASM_ALL_CURVES
100
AcDbLine
 62
40
  6
CONTINUOUS
 10
4.6234360745
 20
5.0858648494
 11
4.6148423245
 21
5.0801356826
  0
LINE
  5
256
100
AcDbEntity
  8
03__ASM_ALL_CURVES
100
AcDbLine
 62
40
  6
CONTINUOUS
 10
4.8039048245
 20
5.1431565173
 11
4.8124985745
 21
5.1488856826
  0
LINE
  5
257
100
AcDbEntity
  8
03__ASM_ALL_CURVES
100
AcDbLine
 62
40
  6
CONTINUOUS
 10
4.6277329495
 20
5.1374273479
 11
4.6277329495
 21
5.1316981826
  0
LINE
  5
258
100
AcDbEntity
  8
03__ASM_ALL_CURVES
100
AcDbLine
 62
40
  6
CONTINUOUS
 10
4.6320298245
 20
5.1030523499
 11
4.6320298245
 21
5.0973231826
  0
LINE
  5
259
100
AcDbEntity
  8
0
100
AcDbLine
 62
7
  6
CONTINUOUS
 10
4.6368698236
 20
3.5930116826
 11
4.6368698236
 21
3.5936263731
  0
LINE
  5
25A
100
AcDbEntity
  8
0
100
AcDbLine
 62
7
  6
CONTINUOUS
 10
4.6368698236
 20
3.8861469921
 11
4.6368698236
 21
3.9344910637
  0
LINE
  5
25B
100
AcDbEntity
  8
0
100
AcDbLine
 62
7
  6
CONTINUOUS
 10
4.6368698236
 20
4.5195323015
 11
4.6368698236
 21
4.5678763731
  0
LINE
  5
25C
100
AcDbEntity
  8
0
100
AcDbLine
 62
7
  6
CONTINUOUS
 10
4.6368698236
 20
4.8603969921
 11
4.6368698236
 21
4.8610116826
  0
LINE
  5
25D
100
AcDbEntity
  8
03__ASM_ALL_CURVES
100
AcDbLine
 62
40
  6
CONTINUOUS
 10
4.6792954495
 20
5.0801356826
 11
4.6835923245
 21
5.1087815152
  0
LINE
  5
25E
100
AcDbEntity
  8
03__ASM_ALL_CURVES
100
AcDbLine
 62
40
  6
CONTINUOUS
 10
4.7437485745
 20
5.1374273479
 11
4.7394516995
 21
5.1202398479
  0
LINE
  5
25F
100
AcDbEntity
  8
03__ASM_ALL_CURVES
100
AcDbLine
 62
40
  6
CONTINUOUS
 10
4.8984360745
 20
5.1488856826
 11
4.8683579495
 21
5.0973231826
  0
LINE
  5
260
100
AcDbEntity
  8
03__ASM_ALL_CURVES
100
AcDbLine
 62
40
  6
CONTINUOUS
 10
4.8296860745
 20
5.1259690173
 11
4.8210923245
 21
5.1202398479
  0
LINE
  5
261
100
AcDbEntity
  8
03__ASM_ALL_CURVES
100
AcDbLine
 62
40
  6
CONTINUOUS
 10
4.8296860745
 20
5.0858648494
 11
4.8210923245
 21
5.0801356826
  0
LINE
  5
262
100
AcDbEntity
  8
0
100
AcDbLine
 62
7
  6
CONTINUOUS
 10
4.6922954495
 20
3.6890116826
 11
4.6922954495
 21
4.7650116826
  0
LINE
  5
263
100
AcDbEntity
  8
03__ASM_ALL_CURVES
100
AcDbLine
 62
40
  6
CONTINUOUS
 10
4.7394516995
 20
5.1202398479
 11
4.7394516995
 21
5.1087815152
  0
LINE
  5
264
100
AcDbEntity
  8
03__ASM_ALL_CURVES
100
AcDbLine
 62
40
  6
CONTINUOUS
 10
5.0316391995
 20
5.1259690173
 11
5.0402329495
 21
5.1488856826
  0
LINE
  5
265
100
AcDbEntity
  8
03__ASM_ALL_CURVES
100
AcDbLine
 62
40
  6
CONTINUOUS
 10
5.0789048245
 20
5.1374273479
 11
5.0832016995
 21
5.1431565173
  0
LINE
  5
266
100
AcDbEntity
  8
03__ASM_ALL_CURVES
100
AcDbLine
 62
40
  6
CONTINUOUS
 10
5.1046860745
 20
5.0915940163
 11
5.1003891995
 21
5.0858648494
  0
LINE
  5
267
100
AcDbEntity
  8
03__ASM_ALL_CURVES
100
AcDbLine
 62
40
  6
CONTINUOUS
 10
5.1648423245
 20
5.0915940163
 11
5.1562485745
 21
5.0801356826
  0
LINE
  5
268
100
AcDbEntity
  8
03__ASM_ALL_CURVES
100
AcDbLine
 62
40
  6
CONTINUOUS
 10
5.0832016995
 20
5.1431565173
 11
5.0917954495
 21
5.1488856826
  0
LINE
  5
269
100
AcDbEntity
  8
03__ASM_ALL_CURVES
100
AcDbLine
 62
40
  6
CONTINUOUS
 10
5.1003891995
 20
5.0858648494
 11
5.0917954495
 21
5.0801356826
  0
LINE
  5
26A
100
AcDbEntity
  8
03__ASM_ALL_CURVES
100
AcDbLine
 62
40
  6
CONTINUOUS
 10
5.1046860745
 20
5.1145106826
 11
5.0917954495
 21
5.1087815152
  0
LINE
  5
26B
100
AcDbEntity
  8
03__ASM_ALL_CURVES
100
AcDbLine
 62
40
  6
CONTINUOUS
 10
5.1778989655
 20
3.4254491826
 11
5.171453653
 21
3.4297460577
  0
LINE
  5
26C
100
AcDbEntity
  8
03__ASM_ALL_CURVES
100
AcDbLine
 62
40
  6
CONTINUOUS
 10
5.132781778
 20
3.4770116826
 11
5.1392270905
 21
3.4727148086
  0
LINE
  5
26D
100
AcDbEntity
  8
03__ASM_ALL_CURVES
100
AcDbLine
 62
40
  6
CONTINUOUS
 10
5.184344278
 20
3.4770116826
 11
5.1907895905
 21
3.4727148086
  0
LINE
  5
26E
100
AcDbEntity
  8
03__ASM_ALL_CURVES
100
AcDbLine
 62
40
  6
CONTINUOUS
 10
5.235906778
 20
3.4770116826
 11
5.2423520905
 21
3.4727148086
  0
LINE
  5
26F
100
AcDbEntity
  8
03__ASM_ALL_CURVES
100
AcDbLine
 62
40
  6
CONTINUOUS
 10
5.171453653
 20
3.4297460577
 11
5.1650083405
 21
3.4383398076
  0
LINE
  5
270
100
AcDbEntity
  8
03__ASM_ALL_CURVES
100
AcDbLine
 62
40
  6
CONTINUOUS
 10
5.1392270905
 20
3.4727148086
 11
5.1424497467
 21
3.4684179316
  0
LINE
  5
271
100
AcDbEntity
  8
03__ASM_ALL_CURVES
100
AcDbLine
 62
40
  6
CONTINUOUS
 10
4.8339829495
 20
5.1374273479
 11
4.8339829495
 21
5.1316981826
  0
LINE
  5
272
100
AcDbEntity
  8
03__ASM_ALL_CURVES
100
AcDbLine
 62
40
  6
CONTINUOUS
 10
4.8382798245
 20
5.1030523499
 11
4.8382798245
 21
5.0973231826
  0
LINE
  5
273
100
AcDbEntity
  8
0
100
AcDbLine
 62
7
  6
CONTINUOUS
 10
4.8792954495
 20
3.6890116826
 11
4.8792954495
 21
4.7650116826
  0
LINE
  5
274
100
AcDbEntity
  8
03__ASM_ALL_CURVES
100
AcDbLine
 62
40
  6
CONTINUOUS
 10
4.8984360745
 20
5.0801356826
 11
4.8984360745
 21
5.1488856826
  0
LINE
  5
275
100
AcDbEntity
  8
0
100
AcDbLine
 62
7
  6
CONTINUOUS
 10
4.9292954495
 20
3.6905116826
 11
4.9292954495
 21
4.7635116826
  0
LINE
  5
276
100
AcDbEntity
  8
03__ASM_ALL_CURVES
100
AcDbLine
 62
40
  6
CONTINUOUS
 10
5.0230454495
 20
5.0801356826
 11
5.0273423245
 21
5.1087815152
  0
LINE
  5
277
100
AcDbEntity
  8
03__ASM_ALL_CURVES
100
AcDbLine
 62
40
  6
CONTINUOUS
 10
5.0273423245
 20
5.1087815152
 11
5.0316391995
 21
5.1259690173
  0
LINE
  5
278
100
AcDbEntity
  8
03__ASM_ALL_CURVES
100
AcDbLine
 62
40
  6
CONTINUOUS
 10
5.0746079495
 20
5.1259690173
 11
5.0789048245
 21
5.1374273479
  0
LINE
  5
279
100
AcDbEntity
  8
03__ASM_ALL_CURVES
100
AcDbLine
 62
40
  6
CONTINUOUS
 10
5.1089829495
 20
5.1259690173
 11
5.1046860745
 21
5.1145106826
  0
LINE
  5
27A
100
AcDbEntity
  8
03__ASM_ALL_CURVES
100
AcDbLine
 62
40
  6
CONTINUOUS
 10
5.1089829495
 20
5.1030523499
 11
5.1046860745
 21
5.0915940163
  0
LINE
  5
27B
100
AcDbEntity
  8
03__ASM_ALL_CURVES
100
AcDbLine
 62
40
  6
CONTINUOUS
 10
6.2559556178
 20
3.4254491826
 11
6.2495103053
 21
3.4254491826
  0
LINE
  5
27C
100
AcDbEntity
  8
03__ASM_ALL_CURVES
100
AcDbLine
 62
40
  6
CONTINUOUS
 10
5.339031778
 20
3.4254491826
 11
5.3325864655
 21
3.4254491826
  0
LINE
  5
27D
100
AcDbEntity
  8
03__ASM_ALL_CURVES
100
AcDbLine
 62
40
  6
CONTINUOUS
 10
5.184344278
 20
3.4254491826
 11
5.1778989655
 21
3.4254491826
  0
LINE
  5
27E
100
AcDbEntity
  8
03__ASM_ALL_CURVES
100
AcDbLine
 62
40
  6
CONTINUOUS
 10
6.3945298366
 20
3.4254491826
 11
6.4203110866
 21
3.4254491826
  0
LINE
  5
27F
100
AcDbEntity
  8
03__ASM_ALL_CURVES
100
AcDbLine
 62
40
  6
CONTINUOUS
 10
5.3325864655
 20
3.4254491826
 11
5.326141153
 21
3.4297460577
  0
LINE
  5
280
100
AcDbEntity
  8
03__ASM_ALL_CURVES
100
AcDbLine
 62
40
  6
CONTINUOUS
 10
5.339031778
 20
3.4555273066
 11
5.3454770905
 21
3.4512304326
  0
LINE
  5
281
100
AcDbEntity
  8
03__ASM_ALL_CURVES
100
AcDbLine
 62
40
  6
CONTINUOUS
 10
5.339031778
 20
3.4770116826
 11
5.3454770905
 21
3.4727148086
  0
LINE
  5
282
100
AcDbEntity
  8
03__ASM_ALL_CURVES
100
AcDbLine
 62
40
  6
CONTINUOUS
 10
5.1907895905
 20
3.4727148086
 11
5.197234903
 21
3.4641210576
  0
LINE
  5
283
100
AcDbEntity
  8
03__ASM_ALL_CURVES
100
AcDbLine
 62
40
  6
CONTINUOUS
 10
5.2423520905
 20
3.4727148086
 11
5.2455747467
 21
3.4684179316
  0
LINE
  5
284
100
AcDbEntity
  8
03__ASM_ALL_CURVES
100
AcDbLine
 62
40
  6
CONTINUOUS
 10
5.326141153
 20
3.4297460577
 11
5.3229184967
 21
3.4340429329
  0
LINE
  5
285
100
AcDbEntity
  8
03__ASM_ALL_CURVES
100
AcDbLine
 62
40
  6
CONTINUOUS
 10
5.3454770905
 20
3.4512304326
 11
5.351922403
 21
3.4426366831
  0
LINE
  5
286
100
AcDbEntity
  8
03__ASM_ALL_CURVES
100
AcDbLine
 62
40
  6
CONTINUOUS
 10
4.9499985745
 20
5.0801356826
 11
4.9499985745
 21
5.0858648494
  0
LINE
  5
287
100
AcDbEntity
  8
0
100
AcDbLine
 62
7
  6
CONTINUOUS
 10
4.9992954495
 20
4.7445116826
 11
4.9992954495
 21
3.7095116826
  0
LINE
  5
288
100
AcDbEntity
  8
0
100
AcDbLine
 62
7
  6
CONTINUOUS
 10
5.0202954495
 20
3.6892616826
 11
5.0202954495
 21
4.7647616826
  0
LINE
  5
289
100
AcDbEntity
  8
0
100
AcDbLine
 62
7
  6
CONTINUOUS
 10
5.0652954495
 20
3.6892616826
 11
5.0652954495
 21
4.7647616826
  0
LINE
  5
28A
100
AcDbEntity
  8
03__ASM_ALL_CURVES
100
AcDbLine
 62
40
  6
CONTINUOUS
 10
5.1691391995
 20
5.1087815152
 11
5.1648423245
 21
5.0915940163
  0
LINE
  5
28B
100
AcDbEntity
  8
03__ASM_ALL_CURVES
100
AcDbLine
 62
40
  6
CONTINUOUS
 10
5.6873423241
 20
5.1431565173
 11
5.6959360741
 21
5.1488856826
  0
LINE
  5
28C
100
AcDbEntity
  8
03__ASM_ALL_CURVES
100
AcDbLine
 62
40
  6
CONTINUOUS
 10
5.7560923241
 20
5.1431565173
 11
5.7646860741
 21
5.1488856826
  0
LINE
  5
28D
100
AcDbEntity
  8
03__ASM_ALL_CURVES
100
AcDbLine
 62
40
  6
CONTINUOUS
 10
6.3075181178
 20
3.4512304326
 11
6.2914048366
 21
3.4512304326
  0
LINE
  5
28E
100
AcDbEntity
  8
03__ASM_ALL_CURVES
100
AcDbLine
 62
40
  6
CONTINUOUS
 10
6.2043931178
 20
3.4512304326
 11
6.1882798366
 21
3.4512304326
  0
LINE
  5
28F
100
AcDbEntity
  8
03__ASM_ALL_CURVES
100
AcDbLine
 62
40
  6
CONTINUOUS
 10
5.235906778
 20
3.4512304326
 11
5.2197934967
 21
3.4512304326
  0
LINE
  5
290
100
AcDbEntity
  8
03__ASM_ALL_CURVES
100
AcDbLine
 62
40
  6
CONTINUOUS
 10
5.132781778
 20
3.4512304326
 11
5.1166684967
 21
3.4512304326
  0
LINE
  5
291
100
AcDbEntity
  8
03__ASM_ALL_CURVES
100
AcDbLine
 62
40
  6
CONTINUOUS
 10
5.3325864655
 20
3.4555273066
 11
5.339031778
 21
3.4555273066
  0
LINE
  5
292
100
AcDbEntity
  8
03__ASM_ALL_CURVES
100
AcDbLine
 62
40
  6
CONTINUOUS
 10
5.1166684967
 20
3.4770116826
 11
5.132781778
 21
3.4770116826
  0
LINE
  5
293
100
AcDbEntity
  8
03__ASM_ALL_CURVES
100
AcDbLine
 62
40
  6
CONTINUOUS
 10
5.1778989655
 20
3.4770116826
 11
5.184344278
 21
3.4770116826
  0
LINE
  5
294
100
AcDbEntity
  8
03__ASM_ALL_CURVES
100
AcDbLine
 62
40
  6
CONTINUOUS
 10
5.2197934967
 20
3.4770116826
 11
5.235906778
 21
3.4770116826
  0
LINE
  5
295
100
AcDbEntity
  8
03__ASM_ALL_CURVES
100
AcDbLine
 62
40
  6
CONTINUOUS
 10
5.2681333405
 20
3.4770116826
 11
5.300359903
 21
3.4770116826
  0
LINE
  5
296
100
AcDbEntity
  8
03__ASM_ALL_CURVES
100
AcDbLine
 62
40
  6
CONTINUOUS
 10
5.3325864655
 20
3.4770116826
 11
5.339031778
 21
3.4770116826
  0
LINE
  5
297
100
AcDbEntity
  8
03__ASM_ALL_CURVES
100
AcDbLine
 62
40
  6
CONTINUOUS
 10
6.1882798366
 20
3.4770116826
 11
6.2043931178
 21
3.4770116826
  0
LINE
  5
298
100
AcDbEntity
  8
03__ASM_ALL_CURVES
100
AcDbLine
 62
40
  6
CONTINUOUS
 10
6.2495103053
 20
3.4770116826
 11
6.2559556178
 21
3.4770116826
  0
LINE
  5
299
100
AcDbEntity
  8
03__ASM_ALL_CURVES
100
AcDbLine
 62
40
  6
CONTINUOUS
 10
6.2914048366
 20
3.4770116826
 11
6.3075181178
 21
3.4770116826
  0
LINE
  5
29A
100
AcDbEntity
  8
03__ASM_ALL_CURVES
100
AcDbLine
 62
40
  6
CONTINUOUS
 10
6.3397446803
 20
3.4770116826
 11
6.3719712428
 21
3.4770116826
  0
LINE
  5
29B
100
AcDbEntity
  8
03__ASM_ALL_CURVES
100
AcDbLine
 62
40
  6
CONTINUOUS
 10
6.4041978053
 20
3.4770116826
 11
6.4106431178
 21
3.4770116826
  0
LINE
  5
29C
100
AcDbEntity
  8
03__ASM_ALL_CURVES
100
AcDbLine
 62
40
  6
CONTINUOUS
 10
5.3454770905
 20
3.4727148086
 11
5.3486997467
 21
3.4684179316
  0
LINE
  5
29D
100
AcDbEntity
  8
03__ASM_ALL_CURVES
100
AcDbLine
 62
40
  6
CONTINUOUS
 10
5.235906778
 20
3.4512304326
 11
5.2455747467
 21
3.4254491826
  0
LINE
  5
29E
100
AcDbEntity
  8
03__ASM_ALL_CURVES
100
AcDbLine
 62
40
  6
CONTINUOUS
 10
4.7394516995
 20
5.1087815152
 11
4.7437485745
 21
5.0915940163
  0
LINE
  5
29F
100
AcDbEntity
  8
03__ASM_ALL_CURVES
100
AcDbLine
 62
40
  6
CONTINUOUS
 10
5.1650083405
 20
3.4383398076
 11
5.1617856842
 21
3.4512304326
  0
LINE
  5
2A0
100
AcDbEntity
  8
03__ASM_ALL_CURVES
100
AcDbLine
 62
40
  6
CONTINUOUS
 10
5.197234903
 20
3.4641210576
 11
5.2004575592
 21
3.4512304326
  0
LINE
  5
2A1
100
AcDbEntity
  8
0
100
AcDbLine
 62
7
  6
CONTINUOUS
 10
5.0866643976
 20
3.7690116826
 11
5.0866643976
 21
4.6850116826
  0
LINE
  5
2A2
100
AcDbEntity
  8
03__ASM_ALL_CURVES
100
AcDbLine
 62
40
  6
CONTINUOUS
 10
5.1089829495
 20
5.1259690173
 11
5.1089829495
 21
5.1030523499
  0
LINE
  5
2A3
100
AcDbEntity
  8
03__ASM_ALL_CURVES
100
AcDbLine
 62
40
  6
CONTINUOUS
 10
5.1166684967
 20
3.4254491826
 11
5.1166684967
 21
3.4770116826
  0
LINE
  5
2A4
100
AcDbEntity
  8
03__ASM_ALL_CURVES
100
AcDbLine
 62
40
  6
CONTINUOUS
 10
5.1424497467
 20
3.4684179316
 11
5.1424497467
 21
3.4598241836
  0
LINE
  5
2A5
100
AcDbEntity
  8
03__ASM_ALL_CURVES
100
AcDbLine
 62
40
  6
CONTINUOUS
 10
5.1691391995
 20
5.1202398479
 11
5.1691391995
 21
5.1087815152
  0
LINE
  5
2A6
100
AcDbEntity
  8
0
100
AcDbLine
 62
7
  6
CONTINUOUS
 10
4.6922954495
 20
3.6890116826
 11
4.6371359924
 21
3.5934727005
  0
LINE
  5
2A7
100
AcDbEntity
  8
03__ASM_ALL_CURVES
100
AcDbLine
 62
40
  6
CONTINUOUS
 10
5.7131235741
 20
5.0858648494
 11
5.7045298241
 21
5.0801356826
  0
LINE
  5
2A8
100
AcDbEntity
  8
03__ASM_ALL_CURVES
100
AcDbLine
 62
40
  6
CONTINUOUS
 10
5.7818735741
 20
5.0858648494
 11
5.7732798241
 21
5.0801356826
  0
LINE
  5
2A9
100
AcDbEntity
  8
0
100
AcDbLine
 62
7
  6
CONTINUOUS
 10
4.6368698236
 20
3.5930116826
 11
4.1749061207
 21
3.5930116826
  0
LINE
  5
2AA
100
AcDbEntity
  8
0
100
AcDbLine
 62
7
  6
CONTINUOUS
 10
4.6368698236
 20
3.5936263731
 11
4.1749061207
 21
3.5936263731
  0
LINE
  5
2AB
100
AcDbEntity
  8
0
100
AcDbLine
 62
7
  6
CONTINUOUS
 10
4.6922954495
 20
4.7650116826
 11
4.6371359924
 21
4.8605506647
  0
LINE
  5
2AC
100
AcDbEntity
  8
03__ASM_ALL_CURVES
100
AcDbLine
 62
40
  6
CONTINUOUS
 10
5.2197934967
 20
3.4254491826
 11
5.2197934967
 21
3.4770116826
  0
LINE
  5
2AD
100
AcDbEntity
  8
03__ASM_ALL_CURVES
100
AcDbLine
 62
40
  6
CONTINUOUS
 10
5.2455747467
 20
3.4684179316
 11
5.2455747467
 21
3.4598241836
  0
LINE
  5
2AE
100
AcDbEntity
  8
03__ASM_ALL_CURVES
100
AcDbLine
 62
40
  6
CONTINUOUS
 10
5.2842466217
 20
3.4770116826
 11
5.2842466217
 21
3.4254491826
  0
LINE
  5
2AF
100
AcDbEntity
  8
0
100
AcDbLine
 62
7
  6
CONTINUOUS
 10
5.0866643976
 20
3.7690116826
 11
5.0652954495
 21
3.6892616826
  0
LINE
  5
2B0
100
AcDbEntity
  8
03__ASM_ALL_CURVES
100
AcDbLine
 62
40
  6
CONTINUOUS
 10
5.6787485741
 20
5.1316981826
 11
5.6873423241
 21
5.1431565173
  0
LINE
  5
2B1
100
AcDbEntity
  8
03__ASM_ALL_CURVES
100
AcDbLine
 62
40
  6
CONTINUOUS
 10
5.7217173241
 20
5.0973231826
 11
5.7131235741
 21
5.0858648494
  0
LINE
  5
2B2
100
AcDbEntity
  8
03__ASM_ALL_CURVES
100
AcDbLine
 62
40
  6
CONTINUOUS
 10
5.7474985741
 20
5.1316981826
 11
5.7560923241
 21
5.1431565173
  0
LINE
  5
2B3
100
AcDbEntity
  8
03__ASM_ALL_CURVES
100
AcDbLine
 62
40
  6
CONTINUOUS
 10
5.7861704491
 20
5.0915940163
 11
5.7818735741
 21
5.0858648494
  0
LINE
  5
2B4
100
AcDbEntity
  8
03__ASM_ALL_CURVES
100
AcDbLine
 62
40
  6
CONTINUOUS
 10
6.0998423241
 20
5.1431565173
 11
6.1084360741
 21
5.1488856826
  0
LINE
  5
2B5
100
AcDbEntity
  8
0
100
AcDbLine
 62
7
  6
CONTINUOUS
 10
5.5042954495
 20
3.6890116826
 11
5.4392954495
 21
3.6890116826
  0
LINE
  5
2B6
100
AcDbEntity
  8
0
100
AcDbLine
 62
7
  6
CONTINUOUS
 10
4.8792954495
 20
3.6890116826
 11
4.6922954495
 21
3.6890116826
  0
LINE
  5
2B7
100
AcDbEntity
  8
0
100
AcDbLine
 62
7
  6
CONTINUOUS
 10
5.0652954495
 20
3.6892616826
 11
5.0202954495
 21
3.6892616826
  0
LINE
  5
2B8
100
AcDbEntity
  8
0
100
AcDbLine
 62
7
  6
CONTINUOUS
 10
4.8792954495
 20
3.6905116826
 11
4.9292954495
 21
3.6905116826
  0
LINE
  5
2B9
100
AcDbEntity
  8
THREAD
100
AcDbLine
 62
7
  6
CONTINUOUS
 10
5.5512954495
 20
3.7125116826
 11
5.5198839067
 21
3.7125116826
  0
LINE
  5
2BA
100
AcDbEntity
  8
0
100
AcDbLine
 62
7
  6
CONTINUOUS
 10
5.6212954495
 20
3.7150116826
 11
5.6712954495
 21
3.7150116826
  0
LINE
  5
2BB
100
AcDbEntity
  8
THREAD
100
AcDbLine
 62
7
  6
CONTINUOUS
 10
5.9852954495
 20
3.7310116826
 11
5.7142347597
 21
3.7310116826
  0
LINE
  5
2BC
100
AcDbEntity
  8
0
100
AcDbLine
 62
7
  6
CONTINUOUS
 10
5.0202954495
 20
3.7445116826
 11
4.9992954495
 21
3.7445116826
  0
LINE
  5
2BD
100
AcDbEntity
  8
THREAD
100
AcDbLine
 62
7
  6
CONTINUOUS
 10
5.6850785711
 20
3.7690116826
 11
5.6712954495
 21
3.7690116826
  0
LINE
  5
2BE
100
AcDbEntity
  8
0
100
AcDbLine
 62
7
  6
CONTINUOUS
 10
5.4178595141
 20
3.7690116826
 11
5.0866643976
 21
3.7690116826
  0
LINE
  5
2BF
100
AcDbEntity
  8
THREAD
100
AcDbLine
 62
7
  6
CONTINUOUS
 10
6.1132954495
 20
3.7750116826
 11
6.0292954495
 21
3.7750116826
  0
LINE
  5
2C0
100
AcDbEntity
  8
0
100
AcDbLine
 62
7
  6
CONTINUOUS
 10
6.5672954495
 20
3.7907616826
 11
6.6247954495
 21
3.7907616826
  0
LINE
  5
2C1
100
AcDbEntity
  8
0
100
AcDbLine
 62
7
  6
CONTINUOUS
 10
6.8222954495
 20
3.7907616826
 11
6.8642954495
 21
3.7907616826
  0
LINE
  5
2C2
100
AcDbEntity
  8
0
100
AcDbLine
 62
7
  6
CONTINUOUS
 10
6.6247954495
 20
3.7910116826
 11
6.6747954495
 21
3.7910116826
  0
LINE
  5
2C3
100
AcDbEntity
  8
0
100
AcDbLine
 62
7
  6
CONTINUOUS
 10
6.7447954495
 20
3.7910116826
 11
6.7947954495
 21
3.7910116826
  0
LINE
  5
2C4
100
AcDbEntity
  8
03__ASM_ALL_CURVES
100
AcDbLine
 62
40
  6
CONTINUOUS
 10
4.5374985745
 20
5.0858648494
 11
4.5417954495
 21
5.0801356826
  0
LINE
  5
2C5
100
AcDbEntity
  8
0
100
AcDbLine
 62
7
  6
CONTINUOUS
 10
5.0866643976
 20
4.6850116826
 11
5.0652954495
 21
4.7647616826
  0
LINE
  5
2C6
100
AcDbEntity
  8
0
100
AcDbLine
 62
7
  6
CONTINUOUS
 10
5.4392954495
 20
3.6890116826
 11
5.4178595141
 21
3.7690116826
  0
LINE
  5
2C7
100
AcDbEntity
  8
03__ASM_ALL_CURVES
100
AcDbLine
 62
40
  6
CONTINUOUS
 10
5.3486997467
 20
3.4684179316
 11
5.3486997467
 21
3.4641210576
  0
LINE
  5
2C8
100
AcDbEntity
  8
03__ASM_ALL_CURVES
100
AcDbLine
 62
40
  6
CONTINUOUS
 10
5.351922403
 20
3.4426366831
 11
5.351922403
 21
3.4383398076
  0
LINE
  5
2C9
100
AcDbEntity
  8
0
100
AcDbLine
 62
7
  6
CONTINUOUS
 10
5.4178595141
 20
3.7690116826
 11
5.4178595141
 21
4.6850116826
  0
LINE
  5
2CA
100
AcDbEntity
  8
03__ASM_ALL_CURVES
100
AcDbLine
 62
40
  6
CONTINUOUS
 10
5.4217954495
 20
5.0663856826
 11
5.4217954495
 21
5.0388856826
  0
LINE
  5
2CB
100
AcDbEntity
  8
0
100
AcDbLine
 62
7
  6
CONTINUOUS
 10
5.4392954495
 20
3.6890116826
 11
5.4392954495
 21
4.7650116826
  0
LINE
  5
2CC
100
AcDbEntity
  8
03__ASM_ALL_CURVES
100
AcDbLine
 62
40
  6
CONTINUOUS
 10
5.1617856842
 20
3.4512304326
 11
5.1650083405
 21
3.4641210576
  0
LINE
  5
2CD
100
AcDbEntity
  8
03__ASM_ALL_CURVES
100
AcDbLine
 62
40
  6
CONTINUOUS
 10
5.2004575592
 20
3.4512304326
 11
5.197234903
 21
3.4383398076
  0
LINE
  5
2CE
100
AcDbEntity
  8
0
100
AcDbLine
 62
7
  6
CONTINUOUS
 10
5.4392954495
 20
4.7650116826
 11
5.4178595141
 21
4.6850116826
  0
LINE
  5
2CF
100
AcDbEntity
  8
03__ASM_ALL_CURVES
100
AcDbLine
 62
40
  6
CONTINUOUS
 10
6.1256235741
 20
5.0858648494
 11
6.1170298241
 21
5.0801356826
  0
LINE
  5
2D0
100
AcDbEntity
  8
03__ASM_ALL_CURVES
100
AcDbLine
 62
40
  6
CONTINUOUS
 10
6.2459360741
 20
5.1488856826
 11
6.2373423241
 21
5.1431565173
  0
LINE
  5
2D1
100
AcDbEntity
  8
03__ASM_ALL_CURVES
100
AcDbLine
 62
40
  6
CONTINUOUS
 10
6.2631235741
 20
5.0858648494
 11
6.2545298241
 21
5.0801356826
  0
LINE
  5
2D2
100
AcDbEntity
  8
03__ASM_ALL_CURVES
100
AcDbLine
 62
40
  6
CONTINUOUS
 10
6.3748423241
 20
5.1431565173
 11
6.3834360741
 21
5.1488856826
  0
LINE
  5
2D3
100
AcDbEntity
  8
0
100
AcDbLine
 62
7
  6
CONTINUOUS
 10
6.1302954495
 20
3.8210116826
 11
6.2222954495
 21
3.8210116826
  0
LINE
  5
2D4
100
AcDbEntity
  8
0
100
AcDbLine
 62
7
  6
CONTINUOUS
 10
6.8222954495
 20
3.8450116826
 11
6.7947954495
 21
3.8450116826
  0
LINE
  5
2D5
100
AcDbEntity
  8
0
100
AcDbLine
 62
7
  6
CONTINUOUS
 10
6.5672954495
 20
3.8530116826
 11
6.4600469915
 21
3.8530116826
  0
LINE
  5
2D6
100
AcDbEntity
  8
0
100
AcDbLine
 62
7
  6
CONTINUOUS
 10
6.2985439074
 20
3.8530116826
 11
6.2542954495
 21
3.8530116826
  0
LINE
  5
2D7
100
AcDbEntity
  8
0
100
AcDbLine
 62
7
  6
CONTINUOUS
 10
6.1302954495
 20
3.8530116826
 11
6.1292954495
 21
3.8530116826
  0
LINE
  5
2D8
100
AcDbEntity
  8
0
100
AcDbLine
 62
7
  6
CONTINUOUS
 10
4.6368698236
 20
3.8861469921
 11
4.1749061207
 21
3.8861469921
  0
LINE
  5
2D9
100
AcDbEntity
  8
03__ASM_ALL_CURVES
100
AcDbLine
 62
40
  6
CONTINUOUS
 10
6.2495103053
 20
3.4254491826
 11
6.2430649928
 21
3.4297460577
  0
LINE
  5
2DA
100
AcDbEntity
  8
03__ASM_ALL_CURVES
100
AcDbLine
 62
40
  6
CONTINUOUS
 10
6.2043931178
 20
3.4770116826
 11
6.2108384303
 21
3.4727148086
  0
LINE
  5
2DB
100
AcDbEntity
  8
03__ASM_ALL_CURVES
100
AcDbLine
 62
40
  6
CONTINUOUS
 10
6.2559556178
 20
3.4770116826
 11
6.2624009303
 21
3.4727148086
  0
LINE
  5
2DC
100
AcDbEntity
  8
03__ASM_ALL_CURVES
100
AcDbLine
 62
40
  6
CONTINUOUS
 10
6.3075181178
 20
3.4770116826
 11
6.3139634303
 21
3.4727148086
  0
LINE
  5
2DD
100
AcDbEntity
  8
03__ASM_ALL_CURVES
100
AcDbLine
 62
40
  6
CONTINUOUS
 10
4.5976548245
 20
5.0858648494
 11
4.5933579495
 21
5.0915940163
  0
LINE
  5
2DE
100
AcDbEntity
  8
03__ASM_ALL_CURVES
100
AcDbLine
 62
40
  6
CONTINUOUS
 10
4.6234360745
 20
5.1145106826
 11
4.6320298245
 21
5.1030523499
  0
LINE
  5
2DF
100
AcDbEntity
  8
03__ASM_ALL_CURVES
100
AcDbLine
 62
40
  6
CONTINUOUS
 10
4.6234360745
 20
5.1431565173
 11
4.6277329495
 21
5.1374273479
  0
LINE
  5
2E0
100
AcDbEntity
  8
03__ASM_ALL_CURVES
100
AcDbLine
 62
40
  6
CONTINUOUS
 10
4.7437485745
 20
5.0915940163
 11
4.7523423245
 21
5.0801356826
  0
LINE
  5
2E1
100
AcDbEntity
  8
03__ASM_ALL_CURVES
100
AcDbLine
 62
40
  6
CONTINUOUS
 10
5.0789048245
 20
5.1145106826
 11
5.0746079495
 21
5.1259690173
  0
LINE
  5
2E2
100
AcDbEntity
  8
03__ASM_ALL_CURVES
100
AcDbLine
 62
40
  6
CONTINUOUS
 10
5.1648423245
 20
5.1374273479
 11
5.1691391995
 21
5.1202398479
  0
LINE
  5
2E3
100
AcDbEntity
  8
0
100
AcDbLine
 62
7
  6
CONTINUOUS
 10
5.5042954495
 20
3.6890116826
 11
5.5042954495
 21
4.7650116826
  0
LINE
  5
2E4
100
AcDbEntity
  8
03__ASM_ALL_CURVES
100
AcDbLine
 62
40
  6
CONTINUOUS
 10
5.5042954495
 20
4.7787616826
 11
5.5042954495
 21
5.0801356826
  0
LINE
  5
2E5
100
AcDbEntity
  8
THREAD
100
AcDbLine
 62
7
  6
CONTINUOUS
 10
5.5198839067
 20
3.7125116826
 11
5.5198839067
 21
4.7415116826
  0
LINE
  5
2E6
100
AcDbEntity
  8
THREAD
100
AcDbLine
 62
7
  6
CONTINUOUS
 10
5.5512954495
 20
3.7125116826
 11
5.5512954495
 21
4.7415116826
  0
LINE
  5
2E7
100
AcDbEntity
  8
03__ASM_ALL_CURVES
100
AcDbLine
 62
40
  6
CONTINUOUS
 10
5.6744516991
 20
5.1145106826
 11
5.6787485741
 21
5.1316981826
  0
LINE
  5
2E8
100
AcDbEntity
  8
03__ASM_ALL_CURVES
100
AcDbLine
 62
40
  6
CONTINUOUS
 10
5.7260141991
 20
5.1145106826
 11
5.7217173241
 21
5.0973231826
  0
LINE
  5
2E9
100
AcDbEntity
  8
03__ASM_ALL_CURVES
100
AcDbLine
 62
40
  6
CONTINUOUS
 10
5.7432016991
 20
5.1145106826
 11
5.7474985741
 21
5.1316981826
  0
LINE
  5
2EA
100
AcDbEntity
  8
THREAD
100
AcDbLine
 62
7
  6
CONTINUOUS
 10
5.7142347597
 20
4.7230116826
 11
5.6959038887
 21
4.6912616826
  0
LINE
  5
2EB
100
AcDbEntity
  8
03__ASM_ALL_CURVES
100
AcDbLine
 62
40
  6
CONTINUOUS
 10
6.0912485741
 20
5.1316981826
 11
6.0998423241
 21
5.1431565173
  0
LINE
  5
2EC
100
AcDbEntity
  8
03__ASM_ALL_CURVES
100
AcDbLine
 62
40
  6
CONTINUOUS
 10
6.4006235741
 20
5.0858648494
 11
6.3920298241
 21
5.0801356826
  0
LINE
  5
2ED
100
AcDbEntity
  8
03__ASM_ALL_CURVES
100
AcDbLine
 62
40
  6
CONTINUOUS
 10
6.4693735741
 20
5.0858648494
 11
6.4607798241
 21
5.0801356826
  0
LINE
  5
2EE
100
AcDbEntity
  8
0
100
AcDbLine
 62
7
  6
CONTINUOUS
 10
4.6368698236
 20
3.9344910637
 11
4.1749061207
 21
3.9344910637
  0
LINE
  5
2EF
100
AcDbEntity
  8
03__ASM_ALL_CURVES
100
AcDbLine
 62
40
  6
CONTINUOUS
 10
6.4106431178
 20
3.4770116826
 11
6.4170884303
 21
3.4727148086
  0
LINE
  5
2F0
100
AcDbEntity
  8
03__ASM_ALL_CURVES
100
AcDbLine
 62
40
  6
CONTINUOUS
 10
4.8039048245
 20
5.0858648494
 11
4.7996079495
 21
5.0915940163
  0
LINE
  5
2F1
100
AcDbEntity
  8
03__ASM_ALL_CURVES
100
AcDbLine
 62
40
  6
CONTINUOUS
 10
4.8296860745
 20
5.1145106826
 11
4.8382798245
 21
5.1030523499
  0
LINE
  5
2F2
100
AcDbEntity
  8
03__ASM_ALL_CURVES
100
AcDbLine
 62
40
  6
CONTINUOUS
 10
4.8296860745
 20
5.1431565173
 11
4.8339829495
 21
5.1374273479
  0
LINE
  5
2F3
100
AcDbEntity
  8
THREAD
100
AcDbLine
 62
7
  6
CONTINUOUS
 10
5.7142347597
 20
3.7310116826
 11
5.6959038887
 21
3.7627616826
  0
LINE
  5
2F4
100
AcDbEntity
  8
03__ASM_ALL_CURVES
100
AcDbLine
 62
40
  6
CONTINUOUS
 10
5.1046860745
 20
5.1374273479
 11
5.1089829495
 21
5.1259690173
  0
LINE
  5
2F5
100
AcDbEntity
  8
03__ASM_ALL_CURVES
100
AcDbLine
 62
40
  6
CONTINUOUS
 10
5.5867954495
 20
5.0663856826
 11
5.5867954495
 21
5.0388856826
  0
LINE
  5
2F6
100
AcDbEntity
  8
03__ASM_ALL_CURVES
100
AcDbLine
 62
40
  6
CONTINUOUS
 10
5.6142954491
 20
5.1488856826
 11
5.6142954491
 21
5.0801356826
  0
LINE
  5
2F7
100
AcDbEntity
  8
0
100
AcDbLine
 62
7
  6
CONTINUOUS
 10
5.6212954495
 20
3.7150116826
 11
5.6212954495
 21
4.7390116826
  0
LINE
  5
2F8
100
AcDbEntity
  8
0
100
AcDbLine
 62
7
  6
CONTINUOUS
 10
5.6712954495
 20
3.7150116826
 11
5.6712954495
 21
4.7390116826
  0
LINE
  5
2F9
100
AcDbEntity
  8
THREAD
100
AcDbLine
 62
7
  6
CONTINUOUS
 10
5.6850785711
 20
3.7690116826
 11
5.6850785711
 21
4.6850116826
  0
LINE
  5
2FA
100
AcDbEntity
  8
03__ASM_ALL_CURVES
100
AcDbLine
 62
40
  6
CONTINUOUS
 10
5.8162485741
 20
5.0801356826
 11
5.8377329491
 21
5.1488856826
  0
LINE
  5
2FB
100
AcDbEntity
  8
03__ASM_ALL_CURVES
100
AcDbLine
 62
40
  6
CONTINUOUS
 10
6.1299204491
 20
5.0915940163
 11
6.1256235741
 21
5.0858648494
  0
LINE
  5
2FC
100
AcDbEntity
  8
03__ASM_ALL_CURVES
100
AcDbLine
 62
40
  6
CONTINUOUS
 10
6.2373423241
 20
5.1431565173
 11
6.2330454491
 21
5.1374273479
  0
LINE
  5
2FD
100
AcDbEntity
  8
03__ASM_ALL_CURVES
100
AcDbLine
 62
40
  6
CONTINUOUS
 10
6.2674204491
 20
5.0915940163
 11
6.2631235741
 21
5.0858648494
  0
LINE
  5
2FE
100
AcDbEntity
  8
03__ASM_ALL_CURVES
100
AcDbLine
 62
40
  6
CONTINUOUS
 10
6.6025766991
 20
5.0858648494
 11
6.5939829491
 21
5.0801356826
  0
LINE
  5
2FF
100
AcDbEntity
  8
03__ASM_ALL_CURVES
100
AcDbLine
 62
40
  6
CONTINUOUS
 10
6.7443735741
 20
5.1202398479
 11
6.7357798241
 21
5.1145106826
  0
LINE
  5
300
100
AcDbEntity
  8
03__ASM_ALL_CURVES
100
AcDbLine
 62
40
  6
CONTINUOUS
 10
4.9499985745
 20
5.0858648494
 11
4.9542954495
 21
5.0801356826
  0
LINE
  5
301
100
AcDbEntity
  8
03__ASM_ALL_CURVES
100
AcDbLine
 62
40
  6
CONTINUOUS
 10
6.2430649928
 20
3.4297460577
 11
6.2366196803
 21
3.4383398076
  0
LINE
  5
302
100
AcDbEntity
  8
03__ASM_ALL_CURVES
100
AcDbLine
 62
40
  6
CONTINUOUS
 10
6.2108384303
 20
3.4727148086
 11
6.2140610866
 21
3.4684179316
  0
LINE
  5
303
100
AcDbEntity
  8
03__ASM_ALL_CURVES
100
AcDbLine
 62
40
  6
CONTINUOUS
 10
6.2624009303
 20
3.4727148086
 11
6.2688462428
 21
3.4641210576
  0
LINE
  5
304
100
AcDbEntity
  8
THREAD
100
AcDbLine
 62
7
  6
CONTINUOUS
 10
5.6959038887
 20
3.7627616826
 11
5.6959038887
 21
4.6912616826
  0
LINE
  5
305
100
AcDbEntity
  8
THREAD
100
AcDbLine
 62
7
  6
CONTINUOUS
 10
5.7142347597
 20
3.7310116826
 11
5.7142347597
 21
4.7230116826
  0
LINE
  5
306
100
AcDbEntity
  8
03__ASM_ALL_CURVES
100
AcDbLine
 62
40
  6
CONTINUOUS
 10
6.3662485741
 20
5.1316981826
 11
6.3748423241
 21
5.1431565173
  0
LINE
  5
307
100
AcDbEntity
  8
03__ASM_ALL_CURVES
100
AcDbLine
 62
40
  6
CONTINUOUS
 10
5.1424497467
 20
3.4598241836
 11
5.1392270905
 21
3.4555273066
  0
LINE
  5
308
100
AcDbEntity
  8
03__ASM_ALL_CURVES
100
AcDbLine
 62
40
  6
CONTINUOUS
 10
5.1650083405
 20
3.4641210576
 11
5.171453653
 21
3.4727148086
  0
LINE
  5
309
100
AcDbEntity
  8
03__ASM_ALL_CURVES
100
AcDbLine
 62
40
  6
CONTINUOUS
 10
6.4092173241
 20
5.0973231826
 11
6.4006235741
 21
5.0858648494
  0
LINE
  5
30A
100
AcDbEntity
  8
03__ASM_ALL_CURVES
100
AcDbLine
 62
40
  6
CONTINUOUS
 10
7.3219712309
 20
4.2407616826
 11
7.3155259184
 21
4.2407616826
  0
LINE
  5
30B
100
AcDbEntity
  8
03__ASM_ALL_CURVES
100
AcDbLine
 62
40
  6
CONTINUOUS
 10
7.3735337309
 20
4.2665429326
 11
7.3574204497
 21
4.2665429326
  0
LINE
  5
30C
100
AcDbEntity
  8
03__ASM_ALL_CURVES
100
AcDbLine
 62
40
  6
CONTINUOUS
 10
7.2704087309
 20
4.2665429326
 11
7.2542954497
 21
4.2665429326
  0
LINE
  5
30D
100
AcDbEntity
  8
03__ASM_ALL_CURVES
100
AcDbLine
 62
40
  6
CONTINUOUS
 10
7.2542954497
 20
4.2923241826
 11
7.2704087309
 21
4.2923241826
  0
LINE
  5
30E
100
AcDbEntity
  8
03__ASM_ALL_CURVES
100
AcDbLine
 62
40
  6
CONTINUOUS
 10
7.3155259184
 20
4.2923241826
 11
7.3219712309
 21
4.2923241826
  0
LINE
  5
30F
100
AcDbEntity
  8
03__ASM_ALL_CURVES
100
AcDbLine
 62
40
  6
CONTINUOUS
 10
7.3574204497
 20
4.2923241826
 11
7.3735337309
 21
4.2923241826
  0
LINE
  5
310
100
AcDbEntity
  8
03__ASM_ALL_CURVES
100
AcDbLine
 62
40
  6
CONTINUOUS
 10
7.4057602934
 20
4.2923241826
 11
7.4379868559
 21
4.2923241826
  0
LINE
  5
311
100
AcDbEntity
  8
03__ASM_ALL_CURVES
100
AcDbLine
 62
40
  6
CONTINUOUS
 10
4.6062485745
 20
5.0801356826
 11
4.5976548245
 21
5.0858648494
  0
LINE
  5
312
100
AcDbEntity
  8
03__ASM_ALL_CURVES
100
AcDbLine
 62
40
  6
CONTINUOUS
 10
5.0832016995
 20
5.0858648494
 11
5.0789048245
 21
5.0915940163
  0
LINE
  5
313
100
AcDbEntity
  8
03__ASM_ALL_CURVES
100
AcDbLine
 62
40
  6
CONTINUOUS
 10
6.3139634303
 20
3.4727148086
 11
6.3171860866
 21
3.4684179316
  0
LINE
  5
314
100
AcDbEntity
  8
03__ASM_ALL_CURVES
100
AcDbLine
 62
40
  6
CONTINUOUS
 10
5.1003891995
 20
5.1431565173
 11
5.1046860745
 21
5.1374273479
  0
LINE
  5
315
100
AcDbEntity
  8
03__ASM_ALL_CURVES
100
AcDbLine
 62
40
  6
CONTINUOUS
 10
5.1562485745
 20
5.1488856826
 11
5.1648423245
 21
5.1374273479
  0
LINE
  5
316
100
AcDbEntity
  8
03__ASM_ALL_CURVES
100
AcDbLine
 62
40
  6
CONTINUOUS
 10
6.4170884303
 20
3.4727148086
 11
6.4203110866
 21
3.4684179316
  0
LINE
  5
317
100
AcDbEntity
  8
03__ASM_ALL_CURVES
100
AcDbLine
 62
40
  6
CONTINUOUS
 10
5.9064829491
 20
5.1488856826
 11
5.9064829491
 21
5.0801356826
  0
LINE
  5
318
100
AcDbEntity
  8
03__ASM_ALL_CURVES
100
AcDbLine
 62
40
  6
CONTINUOUS
 10
6.0869516991
 20
5.1145106826
 11
6.0912485741
 21
5.1316981826
  0
LINE
  5
319
100
AcDbEntity
  8
03__ASM_ALL_CURVES
100
AcDbLine
 62
40
  6
CONTINUOUS
 10
5.197234903
 20
3.4383398076
 11
5.1907895905
 21
3.4297460577
  0
LINE
  5
31A
100
AcDbEntity
  8
03__ASM_ALL_CURVES
100
AcDbLine
 62
40
  6
CONTINUOUS
 10
5.2455747467
 20
3.4598241836
 11
5.2423520905
 21
3.4555273066
  0
LINE
  5
31B
100
AcDbEntity
  8
03__ASM_ALL_CURVES
100
AcDbLine
 62
40
  6
CONTINUOUS
 10
6.4736704491
 20
5.0915940163
 11
6.4693735741
 21
5.0858648494
  0
LINE
  5
31C
100
AcDbEntity
  8
03__ASM_ALL_CURVES
100
AcDbLine
 62
40
  6
CONTINUOUS
 10
5.3486997467
 20
3.4641210576
 11
5.3454770905
 21
3.4598241836
  0
LINE
  5
31D
100
AcDbEntity
  8
03__ASM_ALL_CURVES
100
AcDbLine
 62
40
  6
CONTINUOUS
 10
4.6148423245
 20
5.1202398479
 11
4.6234360745
 21
5.1145106826
  0
LINE
  5
31E
100
AcDbEntity
  8
03__ASM_ALL_CURVES
100
AcDbLine
 62
40
  6
CONTINUOUS
 10
4.6148423245
 20
5.1488856826
 11
4.6234360745
 21
5.1431565173
  0
LINE
  5
31F
100
AcDbEntity
  8
03__ASM_ALL_CURVES
100
AcDbLine
 62
40
  6
CONTINUOUS
 10
4.8124985745
 20
5.0801356826
 11
4.8039048245
 21
5.0858648494
  0
LINE
  5
320
100
AcDbEntity
  8
03__ASM_ALL_CURVES
100
AcDbLine
 62
40
  6
CONTINUOUS
 10
5.6787485741
 20
5.0973231826
 11
5.6744516991
 21
5.1145106826
  0
LINE
  5
321
100
AcDbEntity
  8
03__ASM_ALL_CURVES
100
AcDbLine
 62
40
  6
CONTINUOUS
 10
5.7217173241
 20
5.1316981826
 11
5.7260141991
 21
5.1145106826
  0
LINE
  5
322
100
AcDbEntity
  8
03__ASM_ALL_CURVES
100
AcDbLine
 62
40
  6
CONTINUOUS
 10
5.9752329491
 20
5.1488856826
 11
5.9752329491
 21
5.0801356826
  0
LINE
  5
323
100
AcDbEntity
  8
THREAD
100
AcDbLine
 62
7
  6
CONTINUOUS
 10
5.9852954495
 20
3.7310116826
 11
5.9852954495
 21
4.7230116826
  0
LINE
  5
324
100
AcDbEntity
  8
03__ASM_ALL_CURVES
100
AcDbLine
 62
40
  6
CONTINUOUS
 10
6.0267954491
 20
5.0801356826
 11
6.0267954491
 21
5.1488856826
  0
LINE
  5
325
100
AcDbEntity
  8
THREAD
100
AcDbLine
 62
7
  6
CONTINUOUS
 10
6.0292954495
 20
3.7750116826
 11
6.0292954495
 21
4.6790116826
  0
LINE
  5
326
100
AcDbEntity
  8
03__ASM_ALL_CURVES
100
AcDbLine
 62
40
  6
CONTINUOUS
 10
6.0611704491
 20
5.0801356826
 11
6.0611704491
 21
5.1488856826
  0
LINE
  5
327
100
AcDbEntity
  8
03__ASM_ALL_CURVES
100
AcDbLine
 62
40
  6
CONTINUOUS
 10
5.351922403
 20
3.4383398076
 11
5.3454770905
 21
3.4297460577
  0
LINE
  5
328
100
AcDbEntity
  8
03__ASM_ALL_CURVES
100
AcDbLine
 62
40
  6
CONTINUOUS
 10
6.6111704491
 20
5.0973231826
 11
6.6025766991
 21
5.0858648494
  0
LINE
  5
329
100
AcDbEntity
  8
03__ASM_ALL_CURVES
100
AcDbLine
 62
40
  6
CONTINUOUS
 10
6.7486704491
 20
5.1259690173
 11
6.7443735741
 21
5.1202398479
  0
LINE
  5
32A
100
AcDbEntity
  8
0
100
AcDbLine
 62
7
  6
CONTINUOUS
 10
4.6368698236
 20
4.5195323015
 11
4.1749061207
 21
4.5195323015
  0
LINE
  5
32B
100
AcDbEntity
  8
THREAD
100
AcDbLine
 62
7
  6
CONTINUOUS
 10
5.5198839067
 20
4.7415116826
 11
5.5042954495
 21
4.7505116826
  0
LINE
  5
32C
100
AcDbEntity
  8
03__ASM_ALL_CURVES
100
AcDbLine
 62
40
  6
CONTINUOUS
 10
4.8210923245
 20
5.1202398479
 11
4.8296860745
 21
5.1145106826
  0
LINE
  5
32D
100
AcDbEntity
  8
03__ASM_ALL_CURVES
100
AcDbLine
 62
40
  6
CONTINUOUS
 10
4.8210923245
 20
5.1488856826
 11
4.8296860745
 21
5.1431565173
  0
LINE
  5
32E
100
AcDbEntity
  8
03__ASM_ALL_CURVES
100
AcDbLine
 62
40
  6
CONTINUOUS
 10
5.0917954495
 20
5.0801356826
 11
5.0832016995
 21
5.0858648494
  0
LINE
  5
32F
100
AcDbEntity
  8
03__ASM_ALL_CURVES
100
AcDbLine
 62
40
  6
CONTINUOUS
 10
6.3075181178
 20
3.4512304326
 11
6.3171860866
 21
3.4254491826
  0
LINE
  5
330
100
AcDbEntity
  8
03__ASM_ALL_CURVES
100
AcDbLine
 62
40
  6
CONTINUOUS
 10
5.7474985741
 20
5.0973231826
 11
5.7432016991
 21
5.1145106826
  0
LINE
  5
331
100
AcDbEntity
  8
03__ASM_ALL_CURVES
100
AcDbLine
 62
40
  6
CONTINUOUS
 10
6.2366196803
 20
3.4383398076
 11
6.2333970241
 21
3.4512304326
  0
LINE
  5
332
100
AcDbEntity
  8
03__ASM_ALL_CURVES
100
AcDbLine
 62
40
  6
CONTINUOUS
 10
6.2688462428
 20
3.4641210576
 11
6.2720688991
 21
3.4512304326
  0
LINE
  5
333
100
AcDbEntity
  8
0
100
AcDbLine
 62
7
  6
CONTINUOUS
 10
6.1132954495
 20
3.7750116826
 11
6.1132954495
 21
4.6790116826
  0
LINE
  5
334
100
AcDbEntity
  8
0
100
AcDbLine
 62
7
  6
CONTINUOUS
 10
6.1292954495
 20
3.7910116826
 11
6.1292954495
 21
4.6630116826
  0
LINE
  5
335
100
AcDbEntity
  8
03__ASM_ALL_CURVES
100
AcDbLine
 62
40
  6
CONTINUOUS
 10
6.1299204491
 20
5.1145106826
 11
6.1299204491
 21
5.0915940163
  0
LINE
  5
336
100
AcDbEntity
  8
0
100
AcDbLine
 62
7
  6
CONTINUOUS
 10
6.1302954495
 20
3.8210116826
 11
6.1302954495
 21
4.6330116826
  0
LINE
  5
337
100
AcDbEntity
  8
03__ASM_ALL_CURVES
100
AcDbLine
 62
40
  6
CONTINUOUS
 10
6.1882798366
 20
3.4254491826
 11
6.1882798366
 21
3.4770116826
  0
LINE
  5
338
100
AcDbEntity
  8
03__ASM_ALL_CURVES
100
AcDbLine
 62
40
  6
CONTINUOUS
 10
6.3619516991
 20
5.1145106826
 11
6.3662485741
 21
5.1316981826
  0
LINE
  5
339
100
AcDbEntity
  8
03__ASM_ALL_CURVES
100
AcDbLine
 62
40
  6
CONTINUOUS
 10
5.1392270905
 20
3.4555273066
 11
5.132781778
 21
3.4512304326
  0
LINE
  5
33A
100
AcDbEntity
  8
03__ASM_ALL_CURVES
100
AcDbLine
 62
40
  6
CONTINUOUS
 10
5.171453653
 20
3.4727148086
 11
5.1778989655
 21
3.4770116826
  0
LINE
  5
33B
100
AcDbEntity
  8
03__ASM_ALL_CURVES
100
AcDbLine
 62
40
  6
CONTINUOUS
 10
5.1907895905
 20
3.4297460577
 11
5.184344278
 21
3.4254491826
  0
LINE
  5
33C
100
AcDbEntity
  8
03__ASM_ALL_CURVES
100
AcDbLine
 62
40
  6
CONTINUOUS
 10
5.2423520905
 20
3.4555273066
 11
5.235906778
 21
3.4512304326
  0
LINE
  5
33D
100
AcDbEntity
  8
THREAD
100
AcDbLine
 62
7
  6
CONTINUOUS
 10
5.5198839067
 20
3.7125116826
 11
5.5042954495
 21
3.7035116826
  0
LINE
  5
33E
100
AcDbEntity
  8
0
100
AcDbLine
 62
7
  6
CONTINUOUS
 10
4.6368698236
 20
4.5678763731
 11
4.1749061207
 21
4.5678763731
  0
LINE
  5
33F
100
AcDbEntity
  8
0
100
AcDbLine
 62
7
  6
CONTINUOUS
 10
6.5672954495
 20
4.6010116826
 11
6.4600469915
 21
4.6010116826
  0
LINE
  5
340
100
AcDbEntity
  8
0
100
AcDbLine
 62
7
  6
CONTINUOUS
 10
6.2985439074
 20
4.6010116826
 11
6.2542954495
 21
4.6010116826
  0
LINE
  5
341
100
AcDbEntity
  8
0
100
AcDbLine
 62
7
  6
CONTINUOUS
 10
6.1302954495
 20
4.6010116826
 11
6.1292954495
 21
4.6010116826
  0
LINE
  5
342
100
AcDbEntity
  8
0
100
AcDbLine
 62
7
  6
CONTINUOUS
 10
6.8222954495
 20
4.6090116826
 11
6.7947954495
 21
4.6090116826
  0
LINE
  5
343
100
AcDbEntity
  8
0
100
AcDbLine
 62
7
  6
CONTINUOUS
 10
6.1302954495
 20
4.6330116826
 11
6.2222954495
 21
4.6330116826
  0
LINE
  5
344
100
AcDbEntity
  8
0
100
AcDbLine
 62
7
  6
CONTINUOUS
 10
6.6247954495
 20
4.6630116826
 11
6.6747954495
 21
4.6630116826
  0
LINE
  5
345
100
AcDbEntity
  8
0
100
AcDbLine
 62
7
  6
CONTINUOUS
 10
6.7447954495
 20
4.6630116826
 11
6.7947954495
 21
4.6630116826
  0
LINE
  5
346
100
AcDbEntity
  8
0
100
AcDbLine
 62
7
  6
CONTINUOUS
 10
6.5672954495
 20
4.6632616826
 11
6.6247954495
 21
4.6632616826
  0
LINE
  5
347
100
AcDbEntity
  8
0
100
AcDbLine
 62
7
  6
CONTINUOUS
 10
6.8222954495
 20
4.6632616826
 11
6.8642954495
 21
4.6632616826
  0
LINE
  5
348
100
AcDbEntity
  8
THREAD
100
AcDbLine
 62
7
  6
CONTINUOUS
 10
6.1132954495
 20
4.6790116826
 11
6.0292954495
 21
4.6790116826
  0
LINE
  5
349
100
AcDbEntity
  8
03__ASM_ALL_CURVES
100
AcDbLine
 62
40
  6
CONTINUOUS
 10
5.0917954495
 20
5.1488856826
 11
5.1003891995
 21
5.1431565173
  0
LINE
  5
34A
100
AcDbEntity
  8
03__ASM_ALL_CURVES
100
AcDbLine
 62
40
  6
CONTINUOUS
 10
5.6873423241
 20
5.0858648494
 11
5.6787485741
 21
5.0973231826
  0
LINE
  5
34B
100
AcDbEntity
  8
03__ASM_ALL_CURVES
100
AcDbLine
 62
40
  6
CONTINUOUS
 10
5.8377329491
 20
5.1488856826
 11
5.8592173241
 21
5.0801356826
  0
LINE
  5
34C
100
AcDbEntity
  8
03__ASM_ALL_CURVES
100
AcDbLine
 62
40
  6
CONTINUOUS
 10
6.2140610866
 20
3.4684179316
 11
6.2140610866
 21
3.4598241836
  0
LINE
  5
34D
100
AcDbEntity
  8
0
100
AcDbLine
 62
7
  6
CONTINUOUS
 10
6.2222954495
 20
3.8210116826
 11
6.2222954495
 21
4.6330116826
  0
LINE
  5
34E
100
AcDbEntity
  8
03__ASM_ALL_CURVES
100
AcDbLine
 62
40
  6
CONTINUOUS
 10
6.2330454491
 20
5.1374273479
 11
6.2330454491
 21
5.1316981826
  0
LINE
  5
34F
100
AcDbEntity
  8
0
100
AcDbLine
 62
7
  6
CONTINUOUS
 10
6.2542954495
 20
3.8530116826
 11
6.2542954495
 21
4.6010116826
  0
LINE
  5
350
100
AcDbEntity
  8
03__ASM_ALL_CURVES
100
AcDbLine
 62
40
  6
CONTINUOUS
 10
6.2674204491
 20
5.1030523499
 11
6.2674204491
 21
5.0915940163
  0
LINE
  5
351
100
AcDbEntity
  8
03__ASM_ALL_CURVES
100
AcDbLine
 62
40
  6
CONTINUOUS
 10
6.2914048366
 20
3.4254491826
 11
6.2914048366
 21
3.4770116826
  0
LINE
  5
352
100
AcDbEntity
  8
03__ASM_ALL_CURVES
100
AcDbLine
 62
40
  6
CONTINUOUS
 10
6.3017954491
 20
5.1488856826
 11
6.3017954491
 21
5.0801356826
  0
LINE
  5
353
100
AcDbEntity
  8
03__ASM_ALL_CURVES
100
AcDbLine
 62
40
  6
CONTINUOUS
 10
6.3171860866
 20
3.4684179316
 11
6.3171860866
 21
3.4598241836
  0
LINE
  5
354
100
AcDbEntity
  8
03__ASM_ALL_CURVES
100
AcDbLine
 62
40
  6
CONTINUOUS
 10
6.4135141991
 20
5.1145106826
 11
6.4092173241
 21
5.0973231826
  0
LINE
  5
355
100
AcDbEntity
  8
03__ASM_ALL_CURVES
100
AcDbLine
 62
40
  6
CONTINUOUS
 10
5.326141153
 20
3.4727148086
 11
5.3325864655
 21
3.4770116826
  0
LINE
  5
356
100
AcDbEntity
  8
03__ASM_ALL_CURVES
100
AcDbLine
 62
40
  6
CONTINUOUS
 10
5.3454770905
 20
3.4598241836
 11
5.339031778
 21
3.4555273066
  0
LINE
  5
357
100
AcDbEntity
  8
03__ASM_ALL_CURVES
100
AcDbLine
 62
40
  6
CONTINUOUS
 10
5.3454770905
 20
3.4297460577
 11
5.339031778
 21
3.4254491826
  0
LINE
  5
358
100
AcDbEntity
  8
THREAD
100
AcDbLine
 62
7
  6
CONTINUOUS
 10
5.6850785711
 20
4.6850116826
 11
5.6712954495
 21
4.6850116826
  0
LINE
  5
359
100
AcDbEntity
  8
0
100
AcDbLine
 62
7
  6
CONTINUOUS
 10
5.4178595141
 20
4.6850116826
 11
5.0866643976
 21
4.6850116826
  0
LINE
  5
35A
100
AcDbEntity
  8
0
100
AcDbLine
 62
7
  6
CONTINUOUS
 10
5.0202954495
 20
4.7095116826
 11
4.9992954495
 21
4.7095116826
  0
LINE
  5
35B
100
AcDbEntity
  8
THREAD
100
AcDbLine
 62
7
  6
CONTINUOUS
 10
5.9852954495
 20
4.7230116826
 11
5.7142347597
 21
4.7230116826
  0
LINE
  5
35C
100
AcDbEntity
  8
0
100
AcDbLine
 62
7
  6
CONTINUOUS
 10
5.6212954495
 20
4.7390116826
 11
5.6712954495
 21
4.7390116826
  0
LINE
  5
35D
100
AcDbEntity
  8
THREAD
100
AcDbLine
 62
7
  6
CONTINUOUS
 10
5.5512954495
 20
4.7415116826
 11
5.5198839067
 21
4.7415116826
  0
LINE
  5
35E
100
AcDbEntity
  8
0
100
AcDbLine
 62
7
  6
CONTINUOUS
 10
4.8792954495
 20
4.7635116826
 11
4.9292954495
 21
4.7635116826
  0
LINE
  5
35F
100
AcDbEntity
  8
0
100
AcDbLine
 62
7
  6
CONTINUOUS
 10
5.0652954495
 20
4.7647616826
 11
5.0202954495
 21
4.7647616826
  0
LINE
  5
360
100
AcDbEntity
  8
0
100
AcDbLine
 62
7
  6
CONTINUOUS
 10
5.5042954495
 20
4.7650116826
 11
5.4392954495
 21
4.7650116826
  0
LINE
  5
361
100
AcDbEntity
  8
0
100
AcDbLine
 62
7
  6
CONTINUOUS
 10
4.8792954495
 20
4.7650116826
 11
4.6922954495
 21
4.7650116826
  0
LINE
  5
362
100
AcDbEntity
  8
03__ASM_ALL_CURVES
100
AcDbLine
 62
40
  6
CONTINUOUS
 10
4.2117954495
 20
5.0388856826
 11
4.1292954495
 21
5.0526356826
  0
LINE
  5
363
100
AcDbEntity
  8
03__ASM_ALL_CURVES
100
AcDbLine
 62
40
  6
CONTINUOUS
 10
5.0917954495
 20
5.1087815152
 11
5.0789048245
 21
5.1145106826
  0
LINE
  5
364
100
AcDbEntity
  8
THREAD
100
AcDbLine
 62
7
  6
CONTINUOUS
 10
6.0292954495
 20
4.6790116826
 11
5.9852954495
 21
4.7230116826
  0
LINE
  5
365
100
AcDbEntity
  8
0
100
AcDbLine
 62
7
  6
CONTINUOUS
 10
6.1292954495
 20
4.6630116826
 11
6.1132954495
 21
4.6790116826
  0
LINE
  5
366
100
AcDbEntity
  8
03__ASM_ALL_CURVES
100
AcDbLine
 62
40
  6
CONTINUOUS
 10
5.7560923241
 20
5.0858648494
 11
5.7474985741
 21
5.0973231826
  0
LINE
  5
367
100
AcDbEntity
  8
03__ASM_ALL_CURVES
100
AcDbLine
 62
40
  6
CONTINUOUS
 10
5.7131235741
 20
5.1431565173
 11
5.7217173241
 21
5.1316981826
  0
LINE
  5
368
100
AcDbEntity
  8
03__ASM_ALL_CURVES
100
AcDbLine
 62
40
  6
CONTINUOUS
 10
5.7818735741
 20
5.1431565173
 11
5.7861704491
 21
5.1374273479
  0
LINE
  5
369
100
AcDbEntity
  8
03__ASM_ALL_CURVES
100
AcDbLine
 62
40
  6
CONTINUOUS
 10
6.0912485741
 20
5.0973231826
 11
6.0869516991
 21
5.1145106826
  0
LINE
  5
36A
100
AcDbEntity
  8
03__ASM_ALL_CURVES
100
AcDbLine
 62
40
  6
CONTINUOUS
 10
6.3361704491
 20
5.1488856826
 11
6.3361704491
 21
5.0801356826
  0
LINE
  5
36B
100
AcDbEntity
  8
03__ASM_ALL_CURVES
100
AcDbLine
 62
40
  6
CONTINUOUS
 10
6.3558579616
 20
3.4770116826
 11
6.3558579616
 21
3.4254491826
  0
LINE
  5
36C
100
AcDbEntity
  8
03__ASM_ALL_CURVES
100
AcDbLine
 62
40
  6
CONTINUOUS
 10
6.4203110866
 20
3.4684179316
 11
6.4203110866
 21
3.4598241836
  0
LINE
  5
36D
100
AcDbEntity
  8
03__ASM_ALL_CURVES
100
AcDbLine
 62
40
  6
CONTINUOUS
 10
6.4392954491
 20
5.0915940163
 11
6.4392954491
 21
5.1488856826
  0
LINE
  5
36E
100
AcDbEntity
  8
03__ASM_ALL_CURVES
100
AcDbLine
 62
40
  6
CONTINUOUS
 10
6.6154673241
 20
5.1145106826
 11
6.6111704491
 21
5.0973231826
  0
LINE
  5
36F
100
AcDbEntity
  8
03__ASM_ALL_CURVES
100
AcDbLine
 62
40
  6
CONTINUOUS
 10
6.2333970241
 20
3.4512304326
 11
6.2366196803
 21
3.4641210576
  0
LINE
  5
370
100
AcDbEntity
  8
THREAD
100
AcDbLine
 62
7
  6
CONTINUOUS
 10
6.0292954495
 20
3.7750116826
 11
5.9852954495
 21
3.7310116826
  0
LINE
  5
371
100
AcDbEntity
  8
0
100
AcDbLine
 62
7
  6
CONTINUOUS
 10
6.1292954495
 20
3.7910116826
 11
6.1132954495
 21
3.7750116826
  0
LINE
  5
372
100
AcDbEntity
  8
0
100
AcDbLine
 62
7
  6
CONTINUOUS
 10
6.2222954495
 20
3.8210116826
 11
6.2542954495
 21
3.8530116826
  0
LINE
  5
373
100
AcDbEntity
  8
0
100
AcDbLine
 62
7
  6
CONTINUOUS
 10
4.6368698236
 20
4.8603969921
 11
4.1749061207
 21
4.8603969921
  0
LINE
  5
374
100
AcDbEntity
  8
0
100
AcDbLine
 62
7
  6
CONTINUOUS
 10
4.6368698236
 20
4.8610116826
 11
4.1749061207
 21
4.8610116826
  0
LINE
  5
375
100
AcDbEntity
  8
03__ASM_ALL_CURVES
100
AcDbLine
 62
40
  6
CONTINUOUS
 10
4.2117954495
 20
5.0457606826
 11
4.1292954495
 21
5.0526356826
  0
LINE
  5
376
100
AcDbEntity
  8
03__ASM_ALL_CURVES
100
AcDbLine
 62
40
  6
CONTINUOUS
 10
4.2117954495
 20
5.0434690159
 11
4.1292954495
 21
5.0526356826
  0
LINE
  5
377
100
AcDbEntity
  8
03__ASM_ALL_CURVES
100
AcDbLine
 62
40
  6
CONTINUOUS
 10
4.2117954495
 20
5.0411773493
 11
4.1292954495
 21
5.0526356826
  0
LINE
  5
378
100
AcDbEntity
  8
03__ASM_ALL_CURVES
100
AcDbLine
 62
40
  6
CONTINUOUS
 10
5.6959360741
 20
5.0801356826
 11
5.6873423241
 21
5.0858648494
  0
LINE
  5
379
100
AcDbEntity
  8
03__ASM_ALL_CURVES
100
AcDbLine
 62
40
  6
CONTINUOUS
 10
5.7646860741
 20
5.0801356826
 11
5.7560923241
 21
5.0858648494
  0
LINE
  5
37A
100
AcDbEntity
  8
0
100
AcDbLine
 62
7
  6
CONTINUOUS
 10
6.2222954495
 20
4.6330116826
 11
6.2542954495
 21
4.6010116826
  0
LINE
  5
37B
100
AcDbEntity
  8
03__ASM_ALL_CURVES
100
AcDbLine
 62
40
  6
CONTINUOUS
 10
6.0267954491
 20
5.1488856826
 11
6.0611704491
 21
5.0801356826
  0
LINE
  5
37C
100
AcDbEntity
  8
03__ASM_ALL_CURVES
100
AcDbLine
 62
40
  6
CONTINUOUS
 10
6.4736704491
 20
5.1488856826
 11
6.4736704491
 21
5.0915940163
  0
LINE
  5
37D
100
AcDbEntity
  8
03__ASM_ALL_CURVES
100
AcDbLine
 62
40
  6
CONTINUOUS
 10
6.5080454491
 20
5.1488856826
 11
6.5080454491
 21
5.0801356826
  0
LINE
  5
37E
100
AcDbEntity
  8
0
100
AcDbLine
 62
7
  6
CONTINUOUS
 10
6.5672954495
 20
4.6632616826
 11
6.5672954495
 21
3.7907616826
  0
LINE
  5
37F
100
AcDbEntity
  8
03__ASM_ALL_CURVES
100
AcDbLine
 62
40
  6
CONTINUOUS
 10
6.2720688991
 20
3.4512304326
 11
6.2688462428
 21
3.4383398076
  0
LINE
  5
380
100
AcDbEntity
  8
03__ASM_ALL_CURVES
100
AcDbLine
 62
40
  6
CONTINUOUS
 10
4.1292954495
 20
5.0526356826
 11
6.8242954495
 21
5.0526356826
  0
LINE
  5
381
100
AcDbEntity
  8
03__ASM_ALL_CURVES
100
AcDbLine
 62
40
  6
CONTINUOUS
 10
4.2117954495
 20
5.0503440159
 11
4.1292954495
 21
5.0526356826
  0
LINE
  5
382
100
AcDbEntity
  8
03__ASM_ALL_CURVES
100
AcDbLine
 62
40
  6
CONTINUOUS
 10
5.4217954495
 20
5.0549273493
 11
5.5867954495
 21
5.0503440159
  0
LINE
  5
383
100
AcDbEntity
  8
03__ASM_ALL_CURVES
100
AcDbLine
 62
40
  6
CONTINUOUS
 10
4.2117954495
 20
5.0480523493
 11
4.1292954495
 21
5.0526356826
  0
LINE
  5
384
100
AcDbEntity
  8
03__ASM_ALL_CURVES
100
AcDbLine
 62
40
  6
CONTINUOUS
 10
5.4217954495
 20
5.0572190159
 11
5.5867954495
 21
5.0480523493
  0
LINE
  5
385
100
AcDbEntity
  8
03__ASM_ALL_CURVES
100
AcDbLine
 62
40
  6
CONTINUOUS
 10
5.4217954495
 20
5.0595106826
 11
5.5867954495
 21
5.0457606826
  0
LINE
  5
386
100
AcDbEntity
  8
03__ASM_ALL_CURVES
100
AcDbLine
 62
40
  6
CONTINUOUS
 10
5.4217954495
 20
5.0618023493
 11
5.5867954495
 21
5.0434690159
  0
LINE
  5
387
100
AcDbEntity
  8
03__ASM_ALL_CURVES
100
AcDbLine
 62
40
  6
CONTINUOUS
 10
5.4217954495
 20
5.0640940159
 11
5.5867954495
 21
5.0411773493
  0
LINE
  5
388
100
AcDbEntity
  8
03__ASM_ALL_CURVES
100
AcDbLine
 62
40
  6
CONTINUOUS
 10
5.5867954495
 20
5.0388856826
 11
5.4217954495
 21
5.0663856826
  0
LINE
  5
389
100
AcDbEntity
  8
03__ASM_ALL_CURVES
100
AcDbLine
 62
40
  6
CONTINUOUS
 10
5.7045298241
 20
5.1488856826
 11
5.7131235741
 21
5.1431565173
  0
LINE
  5
38A
100
AcDbEntity
  8
03__ASM_ALL_CURVES
100
AcDbLine
 62
40
  6
CONTINUOUS
 10
5.7732798241
 20
5.1488856826
 11
5.7818735741
 21
5.1431565173
  0
LINE
  5
38B
100
AcDbEntity
  8
03__ASM_ALL_CURVES
100
AcDbLine
 62
40
  6
CONTINUOUS
 10
6.0998423241
 20
5.0858648494
 11
6.0912485741
 21
5.0973231826
  0
LINE
  5
38C
100
AcDbEntity
  8
03__ASM_ALL_CURVES
100
AcDbLine
 62
40
  6
CONTINUOUS
 10
6.3662485741
 20
5.0973231826
 11
6.3619516991
 21
5.1145106826
  0
LINE
  5
38D
100
AcDbEntity
  8
03__ASM_ALL_CURVES
100
AcDbLine
 62
40
  6
CONTINUOUS
 10
6.5767954491
 20
5.0801356826
 11
6.5767954491
 21
5.1488856826
  0
LINE
  5
38E
100
AcDbEntity
  8
0
100
AcDbLine
 62
7
  6
CONTINUOUS
 10
6.6247954495
 20
4.6632616826
 11
6.6247954495
 21
3.7907616826
  0
LINE
  5
38F
100
AcDbEntity
  8
03__ASM_ALL_CURVES
100
AcDbLine
 62
40
  6
CONTINUOUS
 10
6.6455454491
 20
5.0801356826
 11
6.6455454491
 21
5.1488856826
  0
LINE
  5
390
100
AcDbEntity
  8
0
100
AcDbLine
 62
7
  6
CONTINUOUS
 10
6.6747954495
 20
3.7910123455
 11
6.6747954495
 21
4.6630110197
  0
LINE
  5
391
100
AcDbEntity
  8
03__ASM_ALL_CURVES
100
AcDbLine
 62
40
  6
CONTINUOUS
 10
6.3977524928
 20
3.4383398076
 11
6.3945298366
 21
3.4254491826
  0
LINE
  5
392
100
AcDbEntity
  8
03__ASM_ALL_CURVES
100
AcDbLine
 62
40
  6
CONTINUOUS
 10
6.2140610866
 20
3.4598241836
 11
6.2108384303
 21
3.4555273066
  0
LINE
  5
393
100
AcDbEntity
  8
03__ASM_ALL_CURVES
100
AcDbLine
 62
40
  6
CONTINUOUS
 10
6.2366196803
 20
3.4641210576
 11
6.2430649928
 21
3.4727148086
  0
LINE
  5
394
100
AcDbEntity
  8
03__ASM_ALL_CURVES
100
AcDbLine
 62
40
  6
CONTINUOUS
 10
6.2688462428
 20
3.4383398076
 11
6.2624009303
 21
3.4297460577
  0
LINE
  5
395
100
AcDbEntity
  8
03__ASM_ALL_CURVES
100
AcDbLine
 62
40
  6
CONTINUOUS
 10
7.2768540434
 20
4.2708398066
 11
7.2704087309
 21
4.2665429326
  0
LINE
  5
396
100
AcDbEntity
  8
03__ASM_ALL_CURVES
100
AcDbLine
 62
40
  6
CONTINUOUS
 10
7.3090806059
 20
4.2880273086
 11
7.3155259184
 21
4.2923241826
  0
LINE
  5
397
100
AcDbEntity
  8
03__ASM_ALL_CURVES
100
AcDbLine
 62
40
  6
CONTINUOUS
 10
7.3284165434
 20
4.2450585577
 11
7.3219712309
 21
4.2407616826
  0
LINE
  5
398
100
AcDbEntity
  8
03__ASM_ALL_CURVES
100
AcDbLine
 62
40
  6
CONTINUOUS
 10
7.3799790434
 20
4.2708398066
 11
7.3735337309
 21
4.2665429326
  0
LINE
  5
399
100
AcDbEntity
  8
03__ASM_ALL_CURVES
100
AcDbLine
 62
40
  6
CONTINUOUS
 10
5.4217954495
 20
5.0388856826
 11
5.5867954495
 21
5.0663856826
  0
LINE
  5
39A
100
AcDbEntity
  8
03__ASM_ALL_CURVES
100
AcDbLine
 62
40
  6
CONTINUOUS
 10
5.4217954495
 20
5.0411773493
 11
5.5867954495
 21
5.0640940159
  0
LINE
  5
39B
100
AcDbEntity
  8
03__ASM_ALL_CURVES
100
AcDbLine
 62
40
  6
CONTINUOUS
 10
5.4217954495
 20
5.0434690159
 11
5.5867954495
 21
5.0618023493
  0
LINE
  5
39C
100
AcDbEntity
  8
03__ASM_ALL_CURVES
100
AcDbLine
 62
40
  6
CONTINUOUS
 10
5.4217954495
 20
5.0457606826
 11
5.5867954495
 21
5.0595106826
  0
LINE
  5
39D
100
AcDbEntity
  8
03__ASM_ALL_CURVES
100
AcDbLine
 62
40
  6
CONTINUOUS
 10
5.4217954495
 20
5.0480523493
 11
5.5867954495
 21
5.0572190159
  0
LINE
  5
39E
100
AcDbEntity
  8
03__ASM_ALL_CURVES
100
AcDbLine
 62
40
  6
CONTINUOUS
 10
4.2117954495
 20
5.0572190159
 11
4.1292954495
 21
5.0526356826
  0
LINE
  5
39F
100
AcDbEntity
  8
03__ASM_ALL_CURVES
100
AcDbLine
 62
40
  6
CONTINUOUS
 10
5.4217954495
 20
5.0503440159
 11
5.5867954495
 21
5.0549273493
  0
LINE
  5
3A0
100
AcDbEntity
  8
03__ASM_ALL_CURVES
100
AcDbLine
 62
40
  6
CONTINUOUS
 10
4.2117954495
 20
5.0549273493
 11
4.1292954495
 21
5.0526356826
  0
LINE
  5
3A1
100
AcDbEntity
  8
03__ASM_ALL_CURVES
100
AcDbLine
 62
40
  6
CONTINUOUS
 10
6.6799204491
 20
5.0801356826
 11
6.6455454491
 21
5.0801356826
  0
LINE
  5
3A2
100
AcDbEntity
  8
03__ASM_ALL_CURVES
100
AcDbLine
 62
40
  6
CONTINUOUS
 10
6.5939829491
 20
5.0801356826
 11
6.5767954491
 21
5.0801356826
  0
LINE
  5
3A3
100
AcDbEntity
  8
03__ASM_ALL_CURVES
100
AcDbLine
 62
40
  6
CONTINUOUS
 10
6.4607798241
 20
5.0801356826
 11
6.4521860741
 21
5.0801356826
  0
LINE
  5
3A4
100
AcDbEntity
  8
03__ASM_ALL_CURVES
100
AcDbLine
 62
40
  6
CONTINUOUS
 10
6.3920298241
 20
5.0801356826
 11
6.3834360741
 21
5.0801356826
  0
LINE
  5
3A5
100
AcDbEntity
  8
03__ASM_ALL_CURVES
100
AcDbLine
 62
40
  6
CONTINUOUS
 10
6.2545298241
 20
5.0801356826
 11
6.2459360741
 21
5.0801356826
  0
LINE
  5
3A6
100
AcDbEntity
  8
03__ASM_ALL_CURVES
100
AcDbLine
 62
40
  6
CONTINUOUS
 10
6.1170298241
 20
5.0801356826
 11
6.1084360741
 21
5.0801356826
  0
LINE
  5
3A7
100
AcDbEntity
  8
03__ASM_ALL_CURVES
100
AcDbLine
 62
40
  6
CONTINUOUS
 10
5.7732798241
 20
5.0801356826
 11
5.7646860741
 21
5.0801356826
  0
LINE
  5
3A8
100
AcDbEntity
  8
03__ASM_ALL_CURVES
100
AcDbLine
 62
40
  6
CONTINUOUS
 10
5.7045298241
 20
5.0801356826
 11
5.6959360741
 21
5.0801356826
  0
LINE
  5
3A9
100
AcDbEntity
  8
03__ASM_ALL_CURVES
100
AcDbLine
 62
40
  6
CONTINUOUS
 10
4.9542954495
 20
5.0801356826
 11
4.9499985745
 21
5.0801356826
  0
LINE
  5
3AA
100
AcDbEntity
  8
03__ASM_ALL_CURVES
100
AcDbLine
 62
40
  6
CONTINUOUS
 10
4.8210923245
 20
5.0801356826
 11
4.8124985745
 21
5.0801356826
  0
LINE
  5
3AB
100
AcDbEntity
  8
03__ASM_ALL_CURVES
100
AcDbLine
 62
40
  6
CONTINUOUS
 10
4.6148423245
 20
5.0801356826
 11
4.6062485745
 21
5.0801356826
  0
LINE
  5
3AC
100
AcDbEntity
  8
03__ASM_ALL_CURVES
100
AcDbLine
 62
40
  6
CONTINUOUS
 10
4.5417954495
 20
5.0801356826
 11
4.5374985745
 21
5.0801356826
  0
LINE
  5
3AD
100
AcDbEntity
  8
03__ASM_ALL_CURVES
100
AcDbLine
 62
40
  6
CONTINUOUS
 10
5.6142954491
 20
5.0801356826
 11
5.6486704491
 21
5.0801356826
  0
LINE
  5
3AE
100
AcDbEntity
  8
03__ASM_ALL_CURVES
100
AcDbLine
 62
40
  6
CONTINUOUS
 10
6.5080454491
 20
5.0801356826
 11
6.5424204491
 21
5.0801356826
  0
LINE
  5
3AF
100
AcDbEntity
  8
03__ASM_ALL_CURVES
100
AcDbLine
 62
40
  6
CONTINUOUS
 10
4.8683579495
 20
5.0973231826
 11
4.9070298245
 21
5.0973231826
  0
LINE
  5
3B0
100
AcDbEntity
  8
03__ASM_ALL_CURVES
100
AcDbLine
 62
40
  6
CONTINUOUS
 10
5.8248423241
 20
5.1030523499
 11
5.8506235741
 21
5.1030523499
  0
LINE
  5
3B1
100
AcDbEntity
  8
03__ASM_ALL_CURVES
100
AcDbLine
 62
40
  6
CONTINUOUS
 10
6.7357798241
 20
5.1145106826
 11
6.7142954491
 21
5.1145106826
  0
LINE
  5
3B2
100
AcDbEntity
  8
03__ASM_ALL_CURVES
100
AcDbLine
 62
40
  6
CONTINUOUS
 10
6.1127329491
 20
5.1145106826
 11
6.1299204491
 21
5.1145106826
  0
LINE
  5
3B3
100
AcDbEntity
  8
03__ASM_ALL_CURVES
100
AcDbLine
 62
40
  6
CONTINUOUS
 10
6.3017954491
 20
5.1145106826
 11
6.3361704491
 21
5.1145106826
  0
LINE
  5
3B4
100
AcDbEntity
  8
03__ASM_ALL_CURVES
100
AcDbLine
 62
40
  6
CONTINUOUS
 10
6.6455454491
 20
5.1145106826
 11
6.6670298241
 21
5.1145106826
  0
LINE
  5
3B5
100
AcDbEntity
  8
03__ASM_ALL_CURVES
100
AcDbLine
 62
40
  6
CONTINUOUS
 10
4.6062485745
 20
5.1202398479
 11
4.6148423245
 21
5.1202398479
  0
LINE
  5
3B6
100
AcDbEntity
  8
03__ASM_ALL_CURVES
100
AcDbLine
 62
40
  6
CONTINUOUS
 10
4.8124985745
 20
5.1202398479
 11
4.8210923245
 21
5.1202398479
  0
LINE
  5
3B7
100
AcDbEntity
  8
03__ASM_ALL_CURVES
100
AcDbLine
 62
40
  6
CONTINUOUS
 10
6.2545298241
 20
5.1488856826
 11
6.2459360741
 21
5.1488856826
  0
LINE
  5
3B8
100
AcDbEntity
  8
03__ASM_ALL_CURVES
100
AcDbLine
 62
40
  6
CONTINUOUS
 10
5.0402329495
 20
5.1488856826
 11
5.0058579495
 21
5.1488856826
  0
LINE
  5
3B9
100
AcDbEntity
  8
03__ASM_ALL_CURVES
100
AcDbLine
 62
40
  6
CONTINUOUS
 10
4.6964829495
 20
5.1488856826
 11
4.6621079495
 21
5.1488856826
  0
LINE
  5
3BA
100
AcDbEntity
  8
03__ASM_ALL_CURVES
100
AcDbLine
 62
40
  6
CONTINUOUS
 10
4.6062485745
 20
5.1488856826
 11
4.6148423245
 21
5.1488856826
  0
LINE
  5
3BB
100
AcDbEntity
  8
03__ASM_ALL_CURVES
100
AcDbLine
 62
40
  6
CONTINUOUS
 10
4.8124985745
 20
5.1488856826
 11
4.8210923245
 21
5.1488856826
  0
LINE
  5
3BC
100
AcDbEntity
  8
03__ASM_ALL_CURVES
100
AcDbLine
 62
40
  6
CONTINUOUS
 10
5.6959360741
 20
5.1488856826
 11
5.7045298241
 21
5.1488856826
  0
LINE
  5
3BD
100
AcDbEntity
  8
03__ASM_ALL_CURVES
100
AcDbLine
 62
40
  6
CONTINUOUS
 10
5.7646860741
 20
5.1488856826
 11
5.7732798241
 21
5.1488856826
  0
LINE
  5
3BE
100
AcDbEntity
  8
03__ASM_ALL_CURVES
100
AcDbLine
 62
40
  6
CONTINUOUS
 10
5.8849985741
 20
5.1488856826
 11
5.9279673241
 21
5.1488856826
  0
LINE
  5
3BF
100
AcDbEntity
  8
03__ASM_ALL_CURVES
100
AcDbLine
 62
40
  6
CONTINUOUS
 10
6.1084360741
 20
5.1488856826
 11
6.1170298241
 21
5.1488856826
  0
LINE
  5
3C0
100
AcDbEntity
  8
03__ASM_ALL_CURVES
100
AcDbLine
 62
40
  6
CONTINUOUS
 10
6.3834360741
 20
5.1488856826
 11
6.3920298241
 21
5.1488856826
  0
LINE
  5
3C1
100
AcDbEntity
  8
03__ASM_ALL_CURVES
100
AcDbLine
 62
40
  6
CONTINUOUS
 10
6.5767954491
 20
5.1488856826
 11
6.5939829491
 21
5.1488856826
  0
LINE
  5
3C2
100
AcDbEntity
  8
03__ASM_ALL_CURVES
100
AcDbLine
 62
40
  6
CONTINUOUS
 10
6.6455454491
 20
5.1488856826
 11
6.6799204491
 21
5.1488856826
  0
LINE
  5
3C3
100
AcDbEntity
  8
03__ASM_ALL_CURVES
100
AcDbLine
 62
40
  6
CONTINUOUS
 10
6.7142954491
 20
5.1488856826
 11
6.7357798241
 21
5.1488856826
  0
LINE
  5
3C4
100
AcDbEntity
  8
03__ASM_ALL_CURVES
100
AcDbLine
 62
40
  6
CONTINUOUS
 10
7.3155259184
 20
4.2407616826
 11
7.3090806059
 21
4.2450585577
  0
LINE
  5
3C5
100
AcDbEntity
  8
03__ASM_ALL_CURVES
100
AcDbLine
 62
40
  6
CONTINUOUS
 10
7.2704087309
 20
4.2923241826
 11
7.2768540434
 21
4.2880273086
  0
LINE
  5
3C6
100
AcDbEntity
  8
03__ASM_ALL_CURVES
100
AcDbLine
 62
40
  6
CONTINUOUS
 10
6.1084360741
 20
5.0801356826
 11
6.0998423241
 21
5.0858648494
  0
LINE
  5
3C7
100
AcDbEntity
  8
03__ASM_ALL_CURVES
100
AcDbLine
 62
40
  6
CONTINUOUS
 10
7.3219712309
 20
4.2923241826
 11
7.3284165434
 21
4.2880273086
  0
LINE
  5
3C8
100
AcDbEntity
  8
03__ASM_ALL_CURVES
100
AcDbLine
 62
40
  6
CONTINUOUS
 10
7.3735337309
 20
4.2923241826
 11
7.3799790434
 21
4.2880273086
  0
LINE
  5
3C9
100
AcDbEntity
  8
03__ASM_ALL_CURVES
100
AcDbLine
 62
40
  6
CONTINUOUS
 10
6.1170298241
 20
5.1488856826
 11
6.1256235741
 21
5.1431565173
  0
LINE
  5
3CA
100
AcDbEntity
  8
03__ASM_ALL_CURVES
100
AcDbLine
 62
40
  6
CONTINUOUS
 10
6.1256235741
 20
5.1431565173
 11
6.1299204491
 21
5.1374273479
  0
LINE
  5
3CB
100
AcDbEntity
  8
03__ASM_ALL_CURVES
100
AcDbLine
 62
40
  6
CONTINUOUS
 10
6.2373423241
 20
5.0858648494
 11
6.2287485741
 21
5.0973231826
  0
LINE
  5
3CC
100
AcDbEntity
  8
03__ASM_ALL_CURVES
100
AcDbLine
 62
40
  6
CONTINUOUS
 10
6.2330454491
 20
5.1316981826
 11
6.2373423241
 21
5.1259690173
  0
LINE
  5
3CD
100
AcDbEntity
  8
03__ASM_ALL_CURVES
100
AcDbLine
 62
40
  6
CONTINUOUS
 10
6.2631235741
 20
5.1087815152
 11
6.2674204491
 21
5.1030523499
  0
LINE
  5
3CE
100
AcDbEntity
  8
03__ASM_ALL_CURVES
100
AcDbLine
 62
40
  6
CONTINUOUS
 10
6.2674204491
 20
5.1374273479
 11
6.2631235741
 21
5.1431565173
  0
LINE
  5
3CF
100
AcDbEntity
  8
03__ASM_ALL_CURVES
100
AcDbLine
 62
40
  6
CONTINUOUS
 10
6.4092173241
 20
5.1316981826
 11
6.4135141991
 21
5.1145106826
  0
LINE
  5
3D0
100
AcDbEntity
  8
03__ASM_ALL_CURVES
100
AcDbLine
 62
40
  6
CONTINUOUS
 10
6.7142954491
 20
5.0801356826
 11
6.7142954491
 21
5.1488856826
  0
LINE
  5
3D1
100
AcDbEntity
  8
0
100
AcDbLine
 62
7
  6
CONTINUOUS
 10
6.7447954495
 20
3.7910123455
 11
6.7447954495
 21
4.6630110197
  0
LINE
  5
3D2
100
AcDbEntity
  8
03__ASM_ALL_CURVES
100
AcDbLine
 62
40
  6
CONTINUOUS
 10
6.7486704491
 20
5.1374273479
 11
6.7486704491
 21
5.1259690173
  0
LINE
  5
3D3
100
AcDbEntity
  8
0
100
AcDbLine
 62
7
  6
CONTINUOUS
 10
6.7947954495
 20
3.7910123455
 11
6.7947954495
 21
4.6630110197
  0
LINE
  5
3D4
100
AcDbEntity
  8
03__ASM_ALL_CURVES
100
AcDbLine
 62
40
  6
CONTINUOUS
 10
6.3171860866
 20
3.4598241836
 11
6.3139634303
 21
3.4555273066
  0
LINE
  5
3D5
100
AcDbEntity
  8
03__ASM_ALL_CURVES
100
AcDbLine
 62
40
  6
CONTINUOUS
 10
6.3945298366
 20
3.4684179316
 11
6.3977524928
 21
3.4727148086
  0
LINE
  5
3D6
100
AcDbEntity
  8
03__ASM_ALL_CURVES
100
AcDbLine
 62
40
  6
CONTINUOUS
 10
6.4041978053
 20
3.4469335571
 11
6.3977524928
 21
3.4383398076
  0
LINE
  5
3D7
100
AcDbEntity
  8
03__ASM_ALL_CURVES
100
AcDbLine
 62
40
  6
CONTINUOUS
 10
6.4203110866
 20
3.4598241836
 11
6.4170884303
 21
3.4555273066
  0
LINE
  5
3D8
100
AcDbEntity
  8
03__ASM_ALL_CURVES
100
AcDbLine
 62
40
  6
CONTINUOUS
 10
6.2108384303
 20
3.4555273066
 11
6.2043931178
 21
3.4512304326
  0
LINE
  5
3D9
100
AcDbEntity
  8
03__ASM_ALL_CURVES
100
AcDbLine
 62
40
  6
CONTINUOUS
 10
6.2430649928
 20
3.4727148086
 11
6.2495103053
 21
3.4770116826
  0
LINE
  5
3DA
100
AcDbEntity
  8
03__ASM_ALL_CURVES
100
AcDbLine
 62
40
  6
CONTINUOUS
 10
6.2624009303
 20
3.4297460577
 11
6.2559556178
 21
3.4254491826
  0
LINE
  5
3DB
100
AcDbEntity
  8
03__ASM_ALL_CURVES
100
AcDbLine
 62
40
  6
CONTINUOUS
 10
6.3139634303
 20
3.4555273066
 11
6.3075181178
 21
3.4512304326
  0
LINE
  5
3DC
100
AcDbEntity
  8
03__ASM_ALL_CURVES
100
AcDbLine
 62
40
  6
CONTINUOUS
 10
6.3977524928
 20
3.4727148086
 11
6.4041978053
 21
3.4770116826
  0
LINE
  5
3DD
100
AcDbEntity
  8
03__ASM_ALL_CURVES
100
AcDbLine
 62
40
  6
CONTINUOUS
 10
4.2117954495
 20
5.0640940159
 11
4.1292954495
 21
5.0526356826
  0
LINE
  5
3DE
100
AcDbEntity
  8
03__ASM_ALL_CURVES
100
AcDbLine
 62
40
  6
CONTINUOUS
 10
4.2117954495
 20
5.0618023493
 11
4.1292954495
 21
5.0526356826
  0
LINE
  5
3DF
100
AcDbEntity
  8
03__ASM_ALL_CURVES
100
AcDbLine
 62
40
  6
CONTINUOUS
 10
4.2117954495
 20
5.0595106826
 11
4.1292954495
 21
5.0526356826
  0
LINE
  5
3E0
100
AcDbEntity
  8
03__ASM_ALL_CURVES
100
AcDbLine
 62
40
  6
CONTINUOUS
 10
6.2459360741
 20
5.0801356826
 11
6.2373423241
 21
5.0858648494
  0
LINE
  5
3E1
100
AcDbEntity
  8
03__ASM_ALL_CURVES
100
AcDbLine
 62
40
  6
CONTINUOUS
 10
6.2373423241
 20
5.1259690173
 11
6.2631235741
 21
5.1087815152
  0
LINE
  5
3E2
100
AcDbEntity
  8
03__ASM_ALL_CURVES
100
AcDbLine
 62
40
  6
CONTINUOUS
 10
6.2631235741
 20
5.1431565173
 11
6.2545298241
 21
5.1488856826
  0
LINE
  5
3E3
100
AcDbEntity
  8
03__ASM_ALL_CURVES
100
AcDbLine
 62
40
  6
CONTINUOUS
 10
6.3834360741
 20
5.0801356826
 11
6.3748423241
 21
5.0858648494
  0
LINE
  5
3E4
100
AcDbEntity
  8
0
100
AcDbLine
 62
7
  6
CONTINUOUS
 10
6.8642954495
 20
4.6632616826
 11
6.8792954495
 21
4.6482616826
  0
LINE
  5
3E5
100
AcDbEntity
  8
03__ASM_ALL_CURVES
100
AcDbLine
 62
40
  6
CONTINUOUS
 10
6.3748423241
 20
5.0858648494
 11
6.3662485741
 21
5.0973231826
  0
LINE
  5
3E6
100
AcDbEntity
  8
03__ASM_ALL_CURVES
100
AcDbLine
 62
40
  6
CONTINUOUS
 10
6.4006235741
 20
5.1431565173
 11
6.4092173241
 21
5.1316981826
  0
LINE
  5
3E7
100
AcDbEntity
  8
03__ASM_ALL_CURVES
100
AcDbLine
 62
40
  6
CONTINUOUS
 10
6.4435923241
 20
5.0858648494
 11
6.4392954491
 21
5.0915940163
  0
LINE
  5
3E8
100
AcDbEntity
  8
03__ASM_ALL_CURVES
100
AcDbLine
 62
40
  6
CONTINUOUS
 10
6.6111704491
 20
5.1316981826
 11
6.6154673241
 21
5.1145106826
  0
LINE
  5
3E9
100
AcDbEntity
  8
0
100
AcDbLine
 62
7
  6
CONTINUOUS
 10
6.8222954495
 20
4.6632616826
 11
6.8222954495
 21
3.7907616826
  0
LINE
  5
3EA
100
AcDbEntity
  8
0
100
AcDbLine
 62
7
  6
CONTINUOUS
 10
6.8642954495
 20
3.7907616826
 11
6.8642954495
 21
4.6632616826
  0
LINE
  5
3EB
100
AcDbEntity
  8
0
100
AcDbLine
 62
7
  6
CONTINUOUS
 10
6.8792954495
 20
3.8057616826
 11
6.8792954495
 21
4.6482616826
  0
LINE
  5
3EC
100
AcDbEntity
  8
0
100
AcDbLine
 62
7
  6
CONTINUOUS
 10
6.8642954495
 20
3.7907616826
 11
6.8792954495
 21
3.8057616826
  0
LINE
  5
3ED
100
AcDbEntity
  8
03__ASM_ALL_CURVES
100
AcDbLine
 62
40
  6
CONTINUOUS
 10
6.4170884303
 20
3.4555273066
 11
6.4041978053
 21
3.4469335571
  0
LINE
  5
3EE
100
AcDbEntity
  8
03__ASM_ALL_CURVES
100
AcDbLine
 62
40
  6
CONTINUOUS
 10
4.1292954495
 20
5.0526356826
 11
4.2117954495
 21
5.0663856826
  0
LINE
  5
3EF
100
AcDbEntity
  8
03__ASM_ALL_CURVES
100
AcDbLine
 62
40
  6
CONTINUOUS
 10
6.4521860741
 20
5.0801356826
 11
6.4435923241
 21
5.0858648494
  0
LINE
  5
3F0
100
AcDbEntity
  8
03__ASM_ALL_CURVES
100
AcDbLine
 62
40
  6
CONTINUOUS
 10
6.3920298241
 20
5.1488856826
 11
6.4006235741
 21
5.1431565173
  0
LINE
  5
3F1
100
AcDbEntity
  8
03__ASM_ALL_CURVES
100
AcDbLine
 62
40
  6
CONTINUOUS
 10
7.2800766997
 20
4.2751366836
 11
7.2768540434
 21
4.2708398066
  0
LINE
  5
3F2
100
AcDbEntity
  8
03__ASM_ALL_CURVES
100
AcDbLine
 62
40
  6
CONTINUOUS
 10
7.3026352934
 20
4.2794335576
 11
7.3090806059
 21
4.2880273086
  0
LINE
  5
3F3
100
AcDbEntity
  8
03__ASM_ALL_CURVES
100
AcDbLine
 62
40
  6
CONTINUOUS
 10
7.3348618559
 20
4.2536523076
 11
7.3284165434
 21
4.2450585577
  0
LINE
  5
3F4
100
AcDbEntity
  8
03__ASM_ALL_CURVES
100
AcDbLine
 62
40
  6
CONTINUOUS
 10
6.5939829491
 20
5.1488856826
 11
6.6025766991
 21
5.1431565173
  0
LINE
  5
3F5
100
AcDbEntity
  8
03__ASM_ALL_CURVES
100
AcDbLine
 62
40
  6
CONTINUOUS
 10
6.7357798241
 20
5.1488856826
 11
6.7443735741
 21
5.1431565173
  0
LINE
  5
3F6
100
AcDbEntity
  8
03__ASM_ALL_CURVES
100
AcDbLine
 62
40
  6
CONTINUOUS
 10
6.6025766991
 20
5.1431565173
 11
6.6111704491
 21
5.1316981826
  0
LINE
  5
3F7
100
AcDbEntity
  8
03__ASM_ALL_CURVES
100
AcDbLine
 62
40
  6
CONTINUOUS
 10
7.3090806059
 20
4.2450585577
 11
7.3026352934
 21
4.2536523076
  0
LINE
  5
3F8
100
AcDbEntity
  8
03__ASM_ALL_CURVES
100
AcDbLine
 62
40
  6
CONTINUOUS
 10
7.2768540434
 20
4.2880273086
 11
7.2800766997
 21
4.2837304316
  0
LINE
  5
3F9
100
AcDbEntity
  8
03__ASM_ALL_CURVES
100
AcDbLine
 62
40
  6
CONTINUOUS
 10
7.3284165434
 20
4.2880273086
 11
7.3348618559
 21
4.2794335576
  0
LINE
  5
3FA
100
AcDbEntity
  8
03__ASM_ALL_CURVES
100
AcDbLine
 62
40
  6
CONTINUOUS
 10
7.3799790434
 20
4.2880273086
 11
7.3832016997
 21
4.2837304316
  0
LINE
  5
3FB
100
AcDbEntity
  8
03__ASM_ALL_CURVES
100
AcDbLine
 62
40
  6
CONTINUOUS
 10
6.7443735741
 20
5.1431565173
 11
6.7486704491
 21
5.1374273479
  0
LINE
  5
3FC
100
AcDbEntity
  8
03__ASM_ALL_CURVES
100
AcDbLine
 62
40
  6
CONTINUOUS
 10
6.7357798241
 20
5.1145106826
 11
6.7486704491
 21
5.0801356826
  0
LINE
  5
3FD
100
AcDbEntity
  8
03__ASM_ALL_CURVES
100
AcDbLine
 62
40
  6
CONTINUOUS
 10
7.3832016997
 20
4.2751366836
 11
7.3799790434
 21
4.2708398066
  0
LINE
  5
3FE
100
AcDbEntity
  8
03__ASM_ALL_CURVES
100
AcDbLine
 62
40
  6
CONTINUOUS
 10
7.2542954497
 20
4.2407616826
 11
7.2542954497
 21
4.2923241826
  0
LINE
  5
3FF
100
AcDbEntity
  8
03__ASM_ALL_CURVES
100
AcDbLine
 62
40
  6
CONTINUOUS
 10
7.2800766997
 20
4.2837304316
 11
7.2800766997
 21
4.2751366836
  0
LINE
  5
400
100
AcDbEntity
  8
03__ASM_ALL_CURVES
100
AcDbLine
 62
40
  6
CONTINUOUS
 10
7.2994126372
 20
4.2665429326
 11
7.3026352934
 21
4.2794335576
  0
LINE
  5
401
100
AcDbEntity
  8
03__ASM_ALL_CURVES
100
AcDbLine
 62
40
  6
CONTINUOUS
 10
7.3380845122
 20
4.2665429326
 11
7.3348618559
 21
4.2536523076
  0
LINE
  5
402
100
AcDbEntity
  8
03__ASM_ALL_CURVES
100
AcDbLine
 62
40
  6
CONTINUOUS
 10
7.3735337309
 20
4.2665429326
 11
7.3832016997
 21
4.2407616826
  0
LINE
  5
403
100
AcDbEntity
  8
03__ASM_ALL_CURVES
100
AcDbLine
 62
40
  6
CONTINUOUS
 10
7.3026352934
 20
4.2536523076
 11
7.2994126372
 21
4.2665429326
  0
LINE
  5
404
100
AcDbEntity
  8
03__ASM_ALL_CURVES
100
AcDbLine
 62
40
  6
CONTINUOUS
 10
7.3348618559
 20
4.2794335576
 11
7.3380845122
 21
4.2665429326
  0
LINE
  5
405
100
AcDbEntity
  8
03__ASM_ALL_CURVES
100
AcDbLine
 62
40
  6
CONTINUOUS
 10
7.3574204497
 20
4.2407616826
 11
7.3574204497
 21
4.2923241826
  0
LINE
  5
406
100
AcDbEntity
  8
03__ASM_ALL_CURVES
100
AcDbLine
 62
40
  6
CONTINUOUS
 10
7.3832016997
 20
4.2837304316
 11
7.3832016997
 21
4.2751366836
  0
LINE
  5
407
100
AcDbEntity
  8
03__ASM_ALL_CURVES
100
AcDbLine
 62
40
  6
CONTINUOUS
 10
7.4218735747
 20
4.2923241826
 11
7.4218735747
 21
4.2407616826
  0
LINE
  5
408
100
AcDbEntity
  8
03__ASM_ALL_CURVES
100
AcDbLine
 62
40
  6
CONTINUOUS
 10
7.4734360747
 20
4.2923241826
 11
7.4734360747
 21
4.2407616826
  0
ARC
  5
409
100
AcDbEntity
  8
THREAD
100
AcDbCircle
 62
7
  6
CONTINUOUS
 10
5.6850785711
 20
3.7565116826
 40
0.0125
100
AcDbArc
 50
29.9999999998
 51
90.0
  0
ARC
  5
40A
100
AcDbEntity
  8
THREAD
100
AcDbCircle
 62
7
  6
CONTINUOUS
 10
5.6850785711
 20
4.6975116826
 40
0.0125
100
AcDbArc
 50
270.0
 51
330.0000000054
  0
SPLINE
  5
40B
100
AcDbEntity
  8
0
100
AcDbSpline
 62
7
  6
CONTINUOUS
 70
0
 71
3
 72
15
 73
11
 74
9
 42
0.0000001
 43
0.0000001
 44
0.0000000001
 12
0.0
 22
0.1099409465
 32
0.0
 13
0.0
 23
-0.1099409465
 33
0.0
 40
0.0
 40
0.0
 40
0.0
 40
0.0
 40
0.125
 40
0.25
 40
0.375
 40
0.5
 40
0.625
 40
0.75
 40
0.875
 40
1.0
 40
1.0
 40
1.0
 40
1.0
 10
6.7447954495
 20
4.6440116826
 30
0.0
 10
6.7447954495
 20
4.6485925554
 30
0.0
 10
6.742973065
 20
4.6577543009
 30
0.0
 10
6.735188497
 20
4.6694047302
 30
0.0
 10
6.7235380678
 20
4.6771892981
 30
0.0
 10
6.7097954495
 20
4.6799228748
 30
0.0
 10
6.6960528312
 20
4.6771892981
 30
0.0
 10
6.6844024019
 20
4.6694047302
 30
0.0
 10
6.676617834
 20
4.6577543009
 30
0.0
 10
6.6747954495
 20
4.6485925554
 30
0.0
 10
6.6747954495
 20
4.6440116826
 30
0.0
 11
6.7447954495
 21
4.6440116826
 31
0.0
 11
6.7421312331
 21
4.6574056027
 31
0.0
 11
6.7345441868
 21
4.6687604199
 31
0.0
 11
6.7231893696
 21
4.6763474662
 31
0.0
 11
6.7097954495
 21
4.6790116826
 31
0.0
 11
6.6964015293
 21
4.6763474662
 31
0.0
 11
6.6850467121
 21
4.6687604199
 31
0.0
 11
6.6774596658
 21
4.6574056027
 31
0.0
 11
6.6747954495
 21
4.6440116826
 31
0.0
  0
SPLINE
  5
40C
100
AcDbEntity
  8
0
100
AcDbSpline
 62
7
  6
CONTINUOUS
 70
0
 71
3
 72
15
 73
11
 74
9
 42
0.0000001
 43
0.0000001
 44
0.0000000001
 12
0.0
 22
-0.1099409465
 32
0.0
 13
0.0
 23
0.1099409465
 33
0.0
 40
0.0
 40
0.0
 40
0.0
 40
0.0
 40
0.125
 40
0.25
 40
0.375
 40
0.5
 40
0.625
 40
0.75
 40
0.875
 40
1.0
 40
1.0
 40
1.0
 40
1.0
 10
6.7447954495
 20
3.8100116826
 30
0.0
 10
6.7447954495
 20
3.8054308098
 30
0.0
 10
6.742973065
 20
3.7962690643
 30
0.0
 10
6.735188497
 20
3.784618635
 30
0.0
 10
6.7235380678
 20
3.7768340671
 30
0.0
 10
6.7097954495
 20
3.7741004903
 30
0.0
 10
6.6960528312
 20
3.7768340671
 30
0.0
 10
6.6844024019
 20
3.784618635
 30
0.0
 10
6.676617834
 20
3.7962690643
 30
0.0
 10
6.6747954495
 20
3.8054308098
 30
0.0
 10
6.6747954495
 20
3.8100116826
 30
0.0
 11
6.7447954495
 21
3.8100116826
 31
0.0
 11
6.7421312331
 21
3.7966177625
 31
0.0
 11
6.7345441868
 21
3.7852629453
 31
0.0
 11
6.7231893696
 21
3.777675899
 31
0.0
 11
6.7097954495
 21
3.7750116826
 31
0.0
 11
6.6964015293
 21
3.777675899
 31
0.0
 11
6.6850467121
 21
3.7852629453
 31
0.0
 11
6.6774596658
 21
3.7966177625
 31
0.0
 11
6.6747954495
 21
3.8100116826
 31
0.0
  0
SPLINE
  5
40D
100
AcDbEntity
  8
0
100
AcDbSpline
 62
7
  6
CONTINUOUS
 70
0
 71
3
 72
14
 73
10
 74
8
 42
0.0000001
 43
0.0000001
 44
0.0000000001
 12
0.0
 22
0.0916172274
 32
0.0
 13
-0.045846371
 23
-0.079336773
 33
0.0
 40
0.0
 40
0.0
 40
0.0
 40
0.0
 40
0.1500003733
 40
0.3000007465
 40
0.4500011198
 40
0.6000014931
 40
0.7500018663
 40
0.9000022396
 40
1.0
 40
1.0
 40
1.0
 40
1.0
 10
5.6212954495
 20
4.7200116826
 30
0.0
 10
5.6212954495
 20
4.7245925554
 30
0.0
 10
5.619473065
 20
4.7337543009
 30
0.0
 10
5.611688497
 20
4.7454047302
 30
0.0
 10
5.6000380678
 20
4.7531892981
 30
0.0
 10
5.5862954495
 20
4.7559228748
 30
0.0
 10
5.5725528312
 20
4.7531892981
 30
0.0
 10
5.5621969585
 20
4.7462697252
 30
0.0
 10
5.5575142772
 20
4.7401552933
 30
0.0
 10
5.555986099
 20
4.7375107934
 30
0.0
 11
5.6212954495
 21
4.7200116826
 31
0.0
 11
5.6186312331
 21
4.7334056027
 31
0.0
 11
5.6110441868
 21
4.7447604199
 31
0.0
 11
5.5996893696
 21
4.7523474662
 31
0.0
 11
5.5862954495
 21
4.7550116826
 31
0.0
 11
5.5729015293
 21
4.7523474662
 31
0.0
 11
5.5615467121
 21
4.7447604199
 31
0.0
 11
5.555986099
 21
4.7375107934
 31
0.0
  0
SPLINE
  5
40E
100
AcDbEntity
  8
0
100
AcDbSpline
 62
7
  6
CONTINUOUS
 70
0
 71
3
 72
9
 73
5
 74
3
 42
0.0000001
 43
0.0000001
 44
0.0000000001
 12
-0.0091694111
 22
-0.0158675915
 32
0.0
 13
0.0
 23
-0.0183237191
 33
0.0
 40
0.0
 40
0.0
 40
0.0
 40
0.0
 40
0.2500093315
 40
1.0
 40
1.0
 40
1.0
 40
1.0
 10
5.555986099
 20
4.7375107934
 30
0.0
 10
5.5552219529
 20
4.7361884448
 30
0.0
 10
5.5525103876
 20
4.7307004617
 30
0.0
 10
5.5512954495
 20
4.7245925554
 30
0.0
 10
5.5512954495
 20
4.7200116826
 30
0.0
 11
5.555986099
 21
4.7375107934
 31
0.0
 11
5.5539596658
 21
4.7334056027
 31
0.0
 11
5.5512954495
 21
4.7200116826
 31
0.0
  0
SPLINE
  5
40F
100
AcDbEntity
  8
0
100
AcDbSpline
 62
7
  6
CONTINUOUS
 70
0
 71
3
 72
14
 73
10
 74
8
 42
0.0000001
 43
0.0000001
 44
0.0000000001
 12
0.0
 22
-0.0916172274
 32
0.0
 13
-0.045846371
 23
0.079336773
 33
0.0
 40
0.0
 40
0.0
 40
0.0
 40
0.0
 40
0.1500003733
 40
0.3000007465
 40
0.4500011198
 40
0.6000014931
 40
0.7500018663
 40
0.9000022396
 40
1.0
 40
1.0
 40
1.0
 40
1.0
 10
5.6212954495
 20
3.7340116826
 30
0.0
 10
5.6212954495
 20
3.7294308098
 30
0.0
 10
5.619473065
 20
3.7202690643
 30
0.0
 10
5.611688497
 20
3.708618635
 30
0.0
 10
5.6000380678
 20
3.7008340671
 30
0.0
 10
5.5862954495
 20
3.6981004903
 30
0.0
 10
5.5725528312
 20
3.7008340671
 30
0.0
 10
5.5621969585
 20
3.70775364
 30
0.0
 10
5.5575142772
 20
3.7138680719
 30
0.0
 10
5.555986099
 20
3.7165125718
 30
0.0
 11
5.6212954495
 21
3.7340116826
 31
0.0
 11
5.6186312331
 21
3.7206177625
 31
0.0
 11
5.6110441868
 21
3.7092629453
 31
0.0
 11
5.5996893696
 21
3.701675899
 31
0.0
 11
5.5862954495
 21
3.6990116826
 31
0.0
 11
5.5729015293
 21
3.701675899
 31
0.0
 11
5.5615467121
 21
3.7092629453
 31
0.0
 11
5.555986099
 21
3.7165125718
 31
0.0
  0
SPLINE
  5
410
100
AcDbEntity
  8
0
100
AcDbSpline
 62
7
  6
CONTINUOUS
 70
0
 71
3
 72
9
 73
5
 74
3
 42
0.0000001
 43
0.0000001
 44
0.0000000001
 12
-0.0091694111
 22
0.0158675915
 32
0.0
 13
0.0
 23
0.0183237191
 33
0.0
 40
0.0
 40
0.0
 40
0.0
 40
0.0
 40
0.2500093315
 40
1.0
 40
1.0
 40
1.0
 40
1.0
 10
5.555986099
 20
3.7165125718
 30
0.0
 10
5.5552219529
 20
3.7178349204
 30
0.0
 10
5.5525103876
 20
3.7233229035
 30
0.0
 10
5.5512954495
 20
3.7294308098
 30
0.0
 10
5.5512954495
 20
3.7340116826
 30
0.0
 11
5.555986099
 21
3.7165125718
 31
0.0
 11
5.5539596658
 21
3.7206177625
 31
0.0
 11
5.5512954495
 21
3.7340116826
 31
0.0
  0
SPLINE
  5
411
100
AcDbEntity
  8
0
100
AcDbSpline
 62
7
  6
CONTINUOUS
 70
0
 71
3
 72
15
 73
11
 74
9
 42
0.0000001
 43
0.0000001
 44
0.0000000001
 12
0.0
 22
0.1099409465
 32
0.0
 13
-0.0
 23
-0.1099409465
 33
0.0
 40
0.0
 40
0.0
 40
0.0
 40
0.0
 40
0.125
 40
0.25
 40
0.375
 40
0.5
 40
0.625
 40
0.75
 40
0.875
 40
1.0
 40
1.0
 40
1.0
 40
1.0
 10
4.9992954495
 20
4.7445116826
 30
0.0
 10
4.9992954495
 20
4.7490925554
 30
0.0
 10
4.997473065
 20
4.7582543009
 30
0.0
 10
4.989688497
 20
4.7699047302
 30
0.0
 10
4.9780380678
 20
4.7776892981
 30
0.0
 10
4.9642954495
 20
4.7804228748
 30
0.0
 10
4.9505528312
 20
4.7776892981
 30
0.0
 10
4.9389024019
 20
4.7699047302
 30
0.0
 10
4.931117834
 20
4.7582543009
 30
0.0
 10
4.9292954495
 20
4.7490925554
 30
0.0
 10
4.9292954495
 20
4.7445116826
 30
0.0
 11
4.9992954495
 21
4.7445116826
 31
0.0
 11
4.9966312331
 21
4.7579056027
 31
0.0
 11
4.9890441868
 21
4.7692604199
 31
0.0
 11
4.9776893696
 21
4.7768474662
 31
0.0
 11
4.9642954495
 21
4.7795116826
 31
0.0
 11
4.9509015293
 21
4.7768474662
 31
0.0
 11
4.9395467121
 21
4.7692604199
 31
0.0
 11
4.9319596658
 21
4.7579056027
 31
0.0
 11
4.9292954495
 21
4.7445116826
 31
0.0
  0
SPLINE
  5
412
100
AcDbEntity
  8
0
100
AcDbSpline
 62
7
  6
CONTINUOUS
 70
0
 71
3
 72
15
 73
11
 74
9
 42
0.0000001
 43
0.0000001
 44
0.0000000001
 12
0.0
 22
-0.1099409465
 32
0.0
 13
-0.0
 23
0.1099409465
 33
0.0
 40
0.0
 40
0.0
 40
0.0
 40
0.0
 40
0.125
 40
0.25
 40
0.375
 40
0.5
 40
0.625
 40
0.75
 40
0.875
 40
1.0
 40
1.0
 40
1.0
 40
1.0
 10
4.9992954495
 20
3.7095116826
 30
0.0
 10
4.9992954495
 20
3.7049308098
 30
0.0
 10
4.997473065
 20
3.6957690643
 30
0.0
 10
4.989688497
 20
3.684118635
 30
0.0
 10
4.9780380678
 20
3.6763340671
 30
0.0
 10
4.9642954495
 20
3.6736004903
 30
0.0
 10
4.9505528312
 20
3.6763340671
 30
0.0
 10
4.9389024019
 20
3.684118635
 30
0.0
 10
4.931117834
 20
3.6957690643
 30
0.0
 10
4.9292954495
 20
3.7049308098
 30
0.0
 10
4.9292954495
 20
3.7095116826
 30
0.0
 11
4.9992954495
 21
3.7095116826
 31
0.0
 11
4.9966312331
 21
3.6961177625
 31
0.0
 11
4.9890441868
 21
3.6847629453
 31
0.0
 11
4.9776893696
 21
3.677175899
 31
0.0
 11
4.9642954495
 21
3.6745116826
 31
0.0
 11
4.9509015293
 21
3.677175899
 31
0.0
 11
4.9395467121
 21
3.6847629453
 31
0.0
 11
4.9319596658
 21
3.6961177625
 31
0.0
 11
4.9292954495
 21
3.7095116826
 31
0.0
  0
SPLINE
  5
413
100
AcDbEntity
  8
0
100
AcDbSpline
 62
7
  6
CONTINUOUS
 70
0
 71
3
 72
9
 73
5
 74
3
 42
0.0000001
 43
0.0000001
 44
0.0000000001
 12
0.0
 22
-0.0280203434
 32
0.0
 13
-0.0132814075
 23
-0.0247474284
 33
0.0
 40
0.0
 40
0.0
 40
0.0
 40
0.0
 40
0.5480794744
 40
1.0
 40
1.0
 40
1.0
 40
1.0
 10
6.4600469915
 20
4.0400116826
 30
0.0
 10
6.4600469915
 20
4.0348925576
 30
0.0
 10
6.4588268138
 20
4.0254976691
 30
0.0
 10
6.4553254689
 20
4.0167480532
 30
0.0
 10
6.4533247554
 20
4.0130200962
 30
0.0
 11
6.4600469915
 21
4.0400116826
 31
0.0
 11
6.4580242405
 21
4.0247881007
 31
0.0
 11
6.4533247554
 21
4.0130200962
 31
0.0
  0
SPLINE
  5
414
100
AcDbEntity
  8
0
100
AcDbSpline
 62
7
  6
CONTINUOUS
 70
0
 71
3
 72
9
 73
5
 74
3
 42
0.0000001
 43
0.0000001
 44
0.0000000001
 12
0.013281658
 22
-0.0247475827
 32
0.0
 13
0.0
 23
-0.0280205383
 33
0.0
 40
0.0
 40
0.0
 40
0.0
 40
0.0
 40
0.4513097657
 40
1.0
 40
1.0
 40
1.0
 40
1.0
 10
6.4533245937
 20
4.4410035631
 30
0.0
 10
6.455322641
 20
4.4372806212
 30
0.0
 10
6.4588253698
 20
4.4285316551
 30
0.0
 10
6.4600469915
 20
4.4191365478
 30
0.0
 10
6.4600469915
 20
4.4140116826
 30
0.0
 11
6.4533245937
 21
4.4410035631
 31
0.0
 11
6.4580196554
 21
4.4292520271
 31
0.0
 11
6.4600469915
 21
4.4140116826
 31
0.0
  0
SPLINE
  5
415
100
AcDbEntity
  8
0
100
AcDbSpline
 62
7
  6
CONTINUOUS
 70
0
 71
3
 72
13
 73
9
 74
7
 42
0.0000001
 43
0.0000001
 44
0.0000000001
 12
-0.0682699855
 22
-0.0024137474
 32
0.0
 13
-0.0519149343
 23
-0.0444514205
 33
0.0
 40
0.0
 40
0.0
 40
0.0
 40
0.0
 40
0.0466280455
 40
0.2770461223
 40
0.498674906
 40
0.7035503481
 40
0.8786240593
 40
1.0
 40
1.0
 40
1.0
 40
1.0
 10
6.4371486461
 20
4.3640355526
 30
0.0
 10
6.4360875474
 20
4.3639980365
 30
0.0
 10
6.429785269
 20
4.3637061386
 30
0.0
 10
6.4184826677
 20
4.36245508
 30
0.0
 10
6.4038648573
 20
4.3591528223
 30
0.0
 10
6.3909595447
 20
4.3544509594
 30
0.0
 10
6.3808769267
 20
4.349015998
 30
0.0
 10
6.3754415428
 20
4.3449820656
 30
0.0
 10
6.3733411348
 20
4.3431836213
 30
0.0
 11
6.4371486461
 21
4.3640355526
 31
0.0
 11
6.4339667969
 21
4.3638883615
 31
0.0
 11
6.4183319986
 21
4.3621372817
 31
0.0
 11
6.4035841417
 21
4.3587474017
 31
0.0
 11
6.3904683135
 21
4.3538838191
 31
0.0
 11
6.3799806903
 21
4.3481478356
 31
0.0
 11
6.3733411348
 21
4.3431836213
 31
0.0
  0
SPLINE
  5
416
100
AcDbEntity
  8
0
100
AcDbSpline
 62
7
  6
CONTINUOUS
 70
0
 71
3
 72
21
 73
17
 74
15
 42
0.0000001
 43
0.0000001
 44
0.0000000001
 12
0.0
 22
-0.2087126244
 32
0.0
 13
-0.0987438048
 23
0.184238508
 33
0.0
 40
0.0
 40
0.0
 40
0.0
 40
0.0
 40
0.0647924618
 40
0.1317219532
 40
0.2007075374
 40
0.2714562969
 40
0.3436814032
 40
0.4168110143
 40
0.49070683
 40
0.565862211
 40
0.6426610315
 40
0.7201537855
 40
0.7971154624
 40
0.8716833634
 40
0.9427629199
 40
1.0
 40
1.0
 40
1.0
 40
1.0
 10
6.4600469915
 20
4.4140116826
 30
0.0
 10
6.4600469915
 20
4.4095040143
 30
0.0
 10
6.4590005899
 20
4.4003126927
 30
0.0
 10
6.4544910594
 20
4.3869970192
 30
0.0
 10
6.4471842876
 20
4.3745022962
 30
0.0
 10
6.437339478
 20
4.3633995688
 30
0.0
 10
6.4253195849
 20
4.3542146567
 30
0.0
 10
6.411577629
 20
4.3473843199
 30
0.0
 10
6.3966009248
 20
4.3432064065
 30
0.0
 10
6.3808552132
 20
4.3418622684
 30
0.0
 10
6.3648816747
 20
4.3434546916
 30
0.0
 10
6.3493400231
 20
4.3479398168
 30
0.0
 10
6.3349848736
 20
4.3550467129
 30
0.0
 10
6.3224725549
 20
4.3643126782
 30
0.0
 10
6.3127649051
 20
4.3746676164
 30
0.0
 10
6.3078593062
 20
4.3821811799
 30
0.0
 10
6.3059753705
 20
4.3856962713
 30
0.0
 11
6.4600469915
 21
4.4140116826
 31
0.0
 11
6.4585546726
 21
4.4005712718
 31
0.0
 11
6.454112498
 21
4.3873273722
 31
0.0
 11
6.4468688994
 21
4.3748840061
 31
0.0
 11
6.4370868639
 21
4.3638227566
 31
0.0
 11
6.4251166717
 21
4.3546604009
 31
0.0
 11
6.4114535739
 21
4.3478573752
 31
0.0
 11
6.3966012072
 21
4.3437009571
 31
0.0
 11
6.3809735066
 21
4.3423512513
 31
0.0
 11
6.3650221634
 21
4.3439259737
 31
0.0
 11
6.3494803032
 21
4.348402543
 31
0.0
 11
6.3350878356
 21
4.355535059
 31
0.0
 11
6.3225956205
 21
4.3648172837
 31
0.0
 11
6.312481254
 21
4.3756700609
 31
0.0
 11
6.3059753705
 21
4.3856962713
 31
0.0
  0
SPLINE
  5
417
100
AcDbEntity
  8
0
100
AcDbSpline
 62
7
  6
CONTINUOUS
 70
0
 71
3
 72
21
 73
17
 74
15
 42
0.0000001
 43
0.0000001
 44
0.0000000001
 12
0.0987399367
 22
0.1842408331
 32
0.0
 13
0.0
 23
-0.2087137825
 33
0.0
 40
0.0
 40
0.0
 40
0.0
 40
0.0
 40
0.0567510487
 40
0.1278715138
 40
0.2025314353
 40
0.2795629599
 40
0.3570699655
 40
0.4338512899
 40
0.5089926641
 40
0.5829249543
 40
0.6561217648
 40
0.7284042178
 40
0.7991841395
 40
0.8681964531
 40
0.9351449044
 40
1.0
 40
1.0
 40
1.0
 40
1.0
 10
6.3059746747
 20
4.0683257932
 30
0.0
 10
6.3078425396
 20
4.07181108
 30
0.0
 10
6.3127252838
 20
4.0793019096
 30
0.0
 10
6.3224036768
 20
4.0896507954
 30
0.0
 10
6.3349187113
 20
4.0989374926
 30
0.0
 10
6.3492798039
 20
4.1060607126
 30
0.0
 10
6.3648231038
 20
4.110557307
 30
0.0
 10
6.3807943917
 20
4.1121603596
 30
0.0
 10
6.3965414555
 20
4.1108277499
 30
0.0
 10
6.4115273966
 20
4.1066590089
 30
0.0
 10
6.4252838233
 20
4.0998319109
 30
0.0
 10
6.4373167297
 20
4.0906457069
 30
0.0
 10
6.4471708274
 20
4.079540238
 30
0.0
 10
6.4544838695
 20
4.067042776
 30
0.0
 10
6.4589988979
 20
4.0537208563
 30
0.0
 10
6.4600469915
 20
4.0445237334
 30
0.0
 10
6.4600469915
 20
4.0400116826
 30
0.0
 11
6.3059746747
 21
4.0683257932
 31
0.0
 11
6.3124184439
 21
4.078271657
 31
0.0
 11
6.3225253477
 21
4.0891431576
 31
0.0
 11
6.3350239592
 21
4.0984491083
 31
0.0
 11
6.3494241842
 21
4.1055989923
 31
0.0
 11
6.3649660516
 21
4.1100865952
 31
0.0
 11
6.3809127841
 21
4.1116717213
 31
0.0
 11
6.3965386451
 21
4.1103337286
 31
0.0
 11
6.4114014392
 21
4.1061860207
 31
0.0
 11
6.4250812975
 21
4.0993850059
 31
0.0
 11
6.4370652206
 21
4.0902207618
 31
0.0
 11
6.4468554434
 21
4.0791579621
 31
0.0
 11
6.4541053527
 21
4.0667117227
 31
0.0
 11
6.4585518077
 21
4.0534650036
 31
0.0
 11
6.4600469915
 21
4.0400116826
 31
0.0
  0
SPLINE
  5
418
100
AcDbEntity
  8
0
100
AcDbSpline
 62
7
  6
CONTINUOUS
 70
0
 71
3
 72
23
 73
19
 74
17
 42
0.0000001
 43
0.0000001
 44
0.0000000001
 12
-0.1590370706
 22
-0.0338660515
 32
0.0
 13
-0.1597118091
 23
0.030526159
 33
0.0
 40
0.0
 40
0.0
 40
0.0
 40
0.0
 40
0.009379459
 40
0.0372530388
 40
0.0825654767
 40
0.1435115543
 40
0.2177675608
 40
0.3021898556
 40
0.3936886824
 40
0.489815167
 40
0.5879376258
 40
0.6836921536
 40
0.7726089882
 40
0.8500458751
 40
0.9129556832
 40
0.9598984246
 40
0.9896184354
 40
1.0
 40
1.0
 40
1.0
 40
1.0
 10
6.4600469915
 20
4.6010116826
 30
0.0
 10
6.4595497643
 20
4.6009058008
 30
0.0
 10
6.4575740443
 20
4.6004892344
 30
0.0
 10
6.4531878321
 20
4.5996010297
 30
0.0
 10
6.446039995
 20
4.598270805
 30
0.0
 10
6.4363811767
 20
4.5967030706
 30
0.0
 10
6.4245778256
 20
4.5951433211
 30
0.0
 10
6.4110782958
 20
4.5938335226
 30
0.0
 10
6.3963545148
 20
4.592970024
 30
0.0
 10
6.3808651351
 20
4.5926820585
 30
0.0
 10
6.3651461466
 20
4.593022934
 30
0.0
 10
6.3498427985
 20
4.5939481576
 30
0.0
 10
6.3356985753
 20
4.5953047673
 30
0.0
 10
6.3233689997
 20
4.5968647825
 30
0.0
 10
6.3133312638
 20
4.5983839476
 30
0.0
 10
6.305873147
 20
4.5996527251
 30
0.0
 10
6.3012321594
 20
4.6005014767
 30
0.0
 10
6.2990965936
 20
4.6009060462
 30
0.0
 10
6.2985439074
 20
4.6010116826
 30
0.0
 11
6.4600469915
 21
4.6010116826
 31
0.0
 11
6.4585546726
 21
4.6006970396
 31
0.0
 11
6.454112498
 21
4.5997975502
 31
0.0
 11
6.4468688994
 21
4.5984496628
 31
0.0
 11
6.4370868639
 21
4.5968621524
 31
0.0
 11
6.4251166717
 21
4.5952803774
 31
0.0
 11
6.4114535739
 21
4.5939540861
 31
0.0
 11
6.3966012072
 21
4.5930813756
 31
0.0
 11
6.3809735066
 21
4.5927879225
 31
0.0
 11
6.3650221634
 21
4.5931298208
 31
0.0
 11
6.3494803032
 21
4.594065064
 31
0.0
 11
6.3350878356
 21
4.5954415912
 31
0.0
 11
6.3225956205
 21
4.5970194685
 31
0.0
 11
6.312481254
 21
4.5985487366
 31
0.0
 11
6.3049562318
 21
4.5998282688
 31
0.0
 11
6.3002024824
 21
4.6006974828
 31
0.0
 11
6.2985439074
 21
4.6010116826
 31
0.0
  0
SPLINE
  5
419
100
AcDbEntity
  8
0
100
AcDbSpline
 62
7
  6
CONTINUOUS
 70
0
 71
3
 72
13
 73
9
 74
7
 42
0.0000001
 43
0.0000001
 44
0.0000000001
 12
0.051869248
 22
-0.0443607939
 32
0.0
 13
0.0681764207
 23
-0.0024347736
 33
0.0
 40
0.0
 40
0.0
 40
0.0
 40
0.0
 40
0.1035712623
 40
0.2707817535
 40
0.4692764007
 40
0.686927768
 40
0.9157176106
 40
1.0
 40
1.0
 40
1.0
 40
1.0
 10
6.3733661961
 20
4.1108183136
 30
0.0
 10
6.3751569173
 20
4.1092868125
 30
0.0
 10
6.380076227
 20
4.1055607817
 30
0.0
 10
6.3894014177
 20
4.1003012273
 30
0.0
 10
6.4018066277
 20
4.0955000502
 30
0.0
 10
6.4160763572
 20
4.0919944318
 30
0.0
 10
6.4280643597
 20
4.0904533505
 30
0.0
 10
6.4351741556
 20
4.0900580436
 30
0.0
 10
6.4370895128
 20
4.0899896408
 30
0.0
 11
6.3733661961
 21
4.1108183136
 31
0.0
 11
6.3789876071
 21
4.1065375911
 31
0.0
 11
6.3888863179
 21
4.1008794959
 31
0.0
 11
6.4014807344
 21
4.095922309
 31
0.0
 11
6.415878956
 21
4.0923236345
 31
0.0
 11
6.4313488516
 21
4.0903081206
 31
0.0
 11
6.4370895128
 21
4.0899896408
 31
0.0
  0
SPLINE
  5
41A
100
AcDbEntity
  8
0
100
AcDbSpline
 62
7
  6
CONTINUOUS
 70
0
 71
3
 72
23
 73
19
 74
17
 42
0.0000001
 43
0.0000001
 44
0.0000000001
 12
0.1597118055
 22
0.0305261583
 32
0.0
 13
0.1590370654
 23
-0.0338660506
 33
0.0
 40
0.0
 40
0.0
 40
0.0
 40
0.0
 40
0.0103078188
 40
0.0398605896
 40
0.0866530018
 40
0.1495177343
 40
0.2269957195
 40
0.3159616576
 40
0.4117170113
 40
0.5098114194
 40
0.6059263052
 40
0.6974885575
 40
0.7820134517
 40
0.8563538803
 40
0.9173504987
 40
0.9627021796
 40
0.9906025425
 40
1.0
 40
1.0
 40
1.0
 40
1.0
 10
6.2985439074
 20
3.8530116826
 30
0.0
 10
6.2990926675
 20
3.8531165686
 30
0.0
 10
6.3012153951
 20
3.8535187315
 30
0.0
 10
6.3058354756
 20
3.8543638983
 30
0.0
 10
6.3132740813
 20
3.8556301473
 30
0.0
 10
6.3233033318
 20
3.8571494705
 30
0.0
 10
6.3356351038
 20
3.858711617
 30
0.0
 10
6.3497840528
 20
3.8600706563
 30
0.0
 10
6.3650884581
 20
3.8609980192
 30
0.0
 10
6.380805288
 20
3.8613411487
 30
0.0
 10
6.3962959995
 20
3.8610556322
 30
0.0
 10
6.4110282742
 20
3.8601938863
 30
0.0
 10
6.4245414796
 20
3.8588843689
 30
0.0
 10
6.4363577231
 20
3.857323845
 30
0.0
 10
6.446025939
 20
3.8557550578
 30
0.0
 10
6.4531800256
 20
3.8544238764
 30
0.0
 10
6.4575707136
 20
3.853534827
 30
0.0
 10
6.4595488102
 20
3.8531177675
 30
0.0
 10
6.4600469915
 20
3.8530116826
 30
0.0
 11
6.2985439074
 21
3.8530116826
 31
0.0
 11
6.300190697
 21
3.8533236696
 31
0.0
 11
6.3049176525
 21
3.8541882305
 31
0.0
 11
6.3124184439
 21
3.8554644439
 31
0.0
 11
6.3225253477
 21
3.856994039
 31
0.0
 11
6.3350239592
 21
3.8585745992
 31
0.0
 11
6.3494241842
 21
3.8599538743
 31
0.0
 11
6.3649660516
 21
3.8608912234
 31
0.0
 11
6.3809127841
 21
3.8612353567
 31
0.0
 11
6.3965386451
 21
3.8609444305
 31
0.0
 11
6.4114014392
 21
3.8600733722
 31
0.0
 11
6.4250812975
 21
3.858747078
 31
0.0
 11
6.4370652206
 21
3.8571644301
 31
0.0
 11
6.4468554434
 21
3.8555760695
 31
0.0
 11
6.4541053527
 21
3.8542272171
 31
0.0
 11
6.4585518077
 21
3.8533269236
 31
0.0
 11
6.4600469915
 21
3.8530116826
 31
0.0
  0
SPLINE
  5
41B
100
AcDbEntity
  8
0
100
AcDbSpline
 62
7
  6
CONTINUOUS
 70
0
 71
3
 72
21
 73
17
 74
15
 42
0.0000001
 43
0.0000001
 44
0.0000000001
 12
0.0
 22
0.2000196149
 32
0.0
 13
0.0948087467
 23
-0.1766562055
 33
0.0
 40
0.0
 40
0.0
 40
0.0
 40
0.0
 40
0.0728361158
 40
0.1434954434
 40
0.2140008092
 40
0.2884046989
 40
0.3682558746
 40
0.450670021
 40
0.5339500518
 40
0.6157981788
 40
0.6960823884
 40
0.7739576737
 40
0.8495445936
 40
0.9212542083
 40
0.9911310943
 40
1.0
 40
1.0
 40
1.0
 40
1.0
 10
6.2985439074
 20
4.4140116826
 30
0.0
 10
6.2985439074
 20
4.4188678999
 30
0.0
 10
6.2998734971
 20
4.4284943134
 30
0.0
 10
6.3057122147
 20
4.4416920127
 30
0.0
 10
6.3147139527
 20
4.4530686263
 30
0.0
 10
6.3264588231
 20
4.4625482409
 30
0.0
 10
6.3405118137
 20
4.4699212244
 30
0.0
 10
6.3561692872
 20
4.4749453168
 30
0.0
 10
6.3725392534
 20
4.477496092
 30
0.0
 10
6.3889604636
 20
4.477602228
 30
0.0
 10
6.4048613175
 20
4.4753046456
 30
0.0
 10
6.419797812
 20
4.4706004027
 30
0.0
 10
6.4331494355
 20
4.4635292542
 30
0.0
 10
6.4443717317
 20
4.4542001168
 30
0.0
 10
6.4504828155
 20
4.4461233816
 30
0.0
 10
6.4530443104
 20
4.4415258122
 30
0.0
 10
6.4533245937
 20
4.4410035631
 30
0.0
 11
6.2985439074
 21
4.4140116826
 31
0.0
 11
6.3005597975
 21
4.4284401892
 31
0.0
 11
6.306228352
 21
4.4413868601
 31
0.0
 11
6.3149112478
 21
4.4524993121
 31
0.0
 11
6.3264298113
 21
4.4619228827
 31
0.0
 11
6.3405320523
 21
4.4694212317
 31
0.0
 11
6.3562109717
 21
4.4745112652
 31
0.0
 11
6.3726668215
 21
4.4770962154
 31
0.0
 11
6.3890377866
 21
4.4771894916
 31
0.0
 11
6.4049250994
 21
4.4748515355
 31
0.0
 11
6.4197620519
 21
4.470108664
 31
0.0
 11
6.433083739
 21
4.4629593439
 31
0.0
 11
6.4440648544
 21
4.4537318737
 31
0.0
 11
6.4524592437
 21
4.4425567357
 31
0.0
 11
6.4533245937
 21
4.4410035631
 31
0.0
  0
SPLINE
  5
41C
100
AcDbEntity
  8
0
100
AcDbSpline
 62
7
  6
CONTINUOUS
 70
0
 71
3
 72
10
 73
6
 74
4
 42
0.0000001
 43
0.0000001
 44
0.0000000001
 12
0.0
 22
0.0295077086
 32
0.0
 13
0.0139597359
 23
0.0260477519
 33
0.0
 40
0.0
 40
0.0
 40
0.0
 40
0.0
 40
0.4569607317
 40
0.9218110346
 40
1.0
 40
1.0
 40
1.0
 40
1.0
 10
6.2985439074
 20
4.0400116826
 30
0.0
 10
6.2985439074
 20
4.044506304
 30
0.0
 10
6.2997005453
 20
4.0536053853
 30
0.0
 10
6.3031627792
 20
4.0628895653
 30
0.0
 10
6.3056108422
 20
4.0676469109
 30
0.0
 10
6.3059746747
 20
4.0683257932
 30
0.0
 11
6.2985439074
 21
4.0400116826
 31
0.0
 11
6.300190697
 21
4.0533946074
 31
0.0
 11
6.3049176525
 21
4.0662710531
 31
0.0
 11
6.3059746747
 21
4.0683257932
 31
0.0
  0
SPLINE
  5
41D
100
AcDbEntity
  8
0
100
AcDbSpline
 62
7
  6
CONTINUOUS
 70
0
 71
3
 72
10
 73
6
 74
4
 42
0.0000001
 43
0.0000001
 44
0.0000000001
 12
-0.0139608631
 22
0.026048506
 32
0.0
 13
0.0
 23
0.0295087716
 33
0.0
 40
0.0
 40
0.0
 40
0.0
 40
0.0
 40
0.0752880388
 40
0.5413954749
 40
1.0
 40
1.0
 40
1.0
 40
1.0
 10
6.3059753705
 20
4.3856962713
 30
0.0
 10
6.3056250085
 20
4.386349985
 30
0.0
 10
6.3031812316
 20
4.3910915169
 30
0.0
 10
6.2997085582
 20
4.4003724821
 30
0.0
 10
6.2985439074
 20
4.4095007305
 30
0.0
 10
6.2985439074
 20
4.4140116826
 30
0.0
 11
6.3059753705
 21
4.3856962713
 31
0.0
 11
6.3049562318
 21
4.3876742031
 31
0.0
 11
6.3002024824
 21
4.4005808477
 31
0.0
 11
6.2985439074
 21
4.4140116826
 31
0.0
  0
SPLINE
  5
41E
100
AcDbEntity
  8
0
100
AcDbSpline
 62
7
  6
CONTINUOUS
 70
0
 71
3
 72
21
 73
17
 74
15
 42
0.0000001
 43
0.0000001
 44
0.0000000001
 12
-0.094807709
 22
-0.1766565021
 32
0.0
 13
0.0
 23
0.2000198072
 33
0.0
 40
0.0
 40
0.0
 40
0.0
 40
0.0
 40
0.0087617283
 40
0.0785935384
 40
0.1503045605
 40
0.2258318263
 40
0.3036419995
 40
0.3839313016
 40
0.4658598131
 40
0.5492386975
 40
0.6316786518
 40
0.7114638826
 40
0.7857823718
 40
0.8563153359
 40
0.9270665918
 40
1.0
 40
1.0
 40
1.0
 40
1.0
 10
6.4533247554
 20
4.0130200962
 30
0.0
 10
6.4530478622
 20
4.0125041575
 30
0.0
 10
6.4504922214
 20
4.0079149968
 30
0.0
 10
6.4443909868
 20
3.9998436727
 30
0.0
 10
6.4331782746
 20
3.990513679
 30
0.0
 10
6.4198373976
 20
3.9834401017
 30
0.0
 10
6.4049111321
 20
3.9787302065
 30
0.0
 10
6.3890100723
 20
3.9764240174
 30
0.0
 10
6.3725763403
 20
3.9765233968
 30
0.0
 10
6.3561919918
 20
3.9790720531
 30
0.0
 10
6.340529924
 20
3.9840948726
 30
0.0
 10
6.3264828937
 20
3.991460751
 30
0.0
 10
6.314740256
 20
4.0009293031
 30
0.0
 10
6.3057292724
 20
4.0123015091
 30
0.0
 10
6.2998771192
 20
4.0255096943
 30
0.0
 10
6.2985439074
 20
4.0351489738
 30
0.0
 10
6.2985439074
 20
4.0400116826
 30
0.0
 11
6.4533247554
 21
4.0130200962
 31
0.0
 11
6.452470161
 21
4.0114855264
 31
0.0
 11
6.4440861458
 21
4.0003138571
 31
0.0
 11
6.4331090821
 21
3.9910811086
 31
0.0
 11
6.419801254
 21
3.9839311698
 31
0.0
 11
6.4049792485
 21
3.9791842713
 31
0.0
 11
6.3890921666
 21
3.9768376594
 31
0.0
 11
6.3727050695
 21
3.9769240944
 31
0.0
 11
6.3562289973
 21
3.9795078245
 31
0.0
 11
6.3405443437
 21
3.9845969633
 31
0.0
 11
6.3264519771
 21
3.9920858192
 31
0.0
 11
6.3149419597
 21
4.0014928791
 31
0.0
 11
6.3062481126
 21
4.0126037927
 31
0.0
 11
6.3005652169
 21
4.0255642698
 31
0.0
 11
6.2985439074
 21
4.0400116826
 31
0.0
  0
SPLINE
  5
41F
100
AcDbEntity
  8
0
100
AcDbSpline
 62
7
  6
CONTINUOUS
 70
0
 71
3
 72
15
 73
11
 74
9
 42
0.0000001
 43
0.0000001
 44
0.0000000001
 12
-0.144303637
 22
0.2708573861
 32
0.0
 13
0.144303637
 23
0.2708573861
 33
0.0
 40
0.0
 40
0.0
 40
0.0
 40
0.0
 40
0.1355060615
 40
0.2616268072
 40
0.3821382325
 40
0.5000411188
 40
0.6179405518
 40
0.7384429083
 40
0.8645194725
 40
1.0
 40
1.0
 40
1.0
 40
1.0
 10
4.1749061207
 20
3.5936263731
 30
0.0
 10
4.1683881149
 20
3.6058606457
 30
0.0
 10
4.1567548499
 20
3.6300156265
 30
0.0
 10
4.1435468676
 20
3.6668980553
 30
0.0
 10
4.1354503977
 20
3.7034171918
 30
0.0
 10
4.1327080025
 20
3.7398990243
 30
0.0
 10
4.1354540322
 20
3.776379629
 30
0.0
 10
4.1435522617
 20
3.8128923751
 30
0.0
 10
4.156759003
 20
3.8497665808
 30
0.0
 10
4.1683893431
 20
3.8739150249
 30
0.0
 10
4.1749061207
 20
3.8861469921
 30
0.0
 11
4.1749061207
 21
3.5936263731
 31
0.0
 11
4.1570324705
 21
3.631176194
 31
0.0
 11
4.1441496899
 21
3.6676757591
 31
0.0
 11
4.1362765705
 21
3.7038129416
 31
0.0
 11
4.1336160504
 21
3.7398993284
 31
0.0
 11
4.1362800928
 21
3.7759843926
 31
0.0
 11
4.1441556059
 21
3.8121182049
 31
0.0
 11
4.1570354861
 21
3.8486044146
 31
0.0
 11
4.1749061207
 21
3.8861469921
 31
0.0
  0
SPLINE
  5
420
100
AcDbEntity
  8
0
100
AcDbSpline
 62
7
  6
CONTINUOUS
 70
0
 71
3
 72
15
 73
11
 74
9
 42
0.0000001
 43
0.0000001
 44
0.0000000001
 12
0.144303637
 22
0.2708573861
 32
0.0
 13
-0.144303637
 23
0.2708573861
 33
0.0
 40
0.0
 40
0.0
 40
0.0
 40
0.0
 40
0.1355060615
 40
0.2616268072
 40
0.3821382325
 40
0.5000411188
 40
0.6179405518
 40
0.7384429083
 40
0.8645194725
 40
1.0
 40
1.0
 40
1.0
 40
1.0
 10
4.6368698236
 20
3.5936263731
 30
0.0
 10
4.6433878295
 20
3.6058606457
 30
0.0
 10
4.6550210944
 20
3.6300156265
 30
0.0
 10
4.6682290768
 20
3.6668980553
 30
0.0
 10
4.6763255467
 20
3.7034171918
 30
0.0
 10
4.6790679419
 20
3.7398990243
 30
0.0
 10
4.6763219122
 20
3.776379629
 30
0.0
 10
4.6682236827
 20
3.8128923751
 30
0.0
 10
4.6550169414
 20
3.8497665808
 30
0.0
 10
4.6433866012
 20
3.8739150249
 30
0.0
 10
4.6368698236
 20
3.8861469921
 30
0.0
 11
4.6368698236
 21
3.5936263731
 31
0.0
 11
4.6547434739
 21
3.631176194
 31
0.0
 11
4.6676262545
 21
3.6676757591
 31
0.0
 11
4.6754993739
 21
3.7038129416
 31
0.0
 11
4.678159894
 21
3.7398993284
 31
0.0
 11
4.6754958515
 21
3.7759843926
 31
0.0
 11
4.6676203384
 21
3.8121182049
 31
0.0
 11
4.6547404583
 21
3.8486044146
 31
0.0
 11
4.6368698236
 21
3.8861469921
 31
0.0
  0
SPLINE
  5
421
100
AcDbEntity
  8
0
100
AcDbSpline
 62
7
  6
CONTINUOUS
 70
0
 71
3
 72
15
 73
11
 74
9
 42
0.0000001
 43
0.0000001
 44
0.0000000001
 12
-0.1524995809
 22
0.5724822844
 32
0.0
 13
0.1524995809
 23
0.5724822844
 33
0.0
 40
0.0
 40
0.0
 40
0.0
 40
0.0
 40
0.1303027146
 40
0.2554233163
 40
0.3781382012
 40
0.500042666
 40
0.6219428883
 40
0.7446469008
 40
0.8697222521
 40
1.0
 40
1.0
 40
1.0
 40
1.0
 10
4.1749061207
 20
3.9344910637
 30
0.0
 10
4.1682824176
 20
3.9593563956
 30
0.0
 10
4.1565106258
 20
4.0084355202
 30
0.0
 10
4.1434103878
 20
4.0820011402
 30
0.0
 10
4.1354163082
 20
4.15463923
 30
0.0
 10
4.1327179985
 20
4.2270361603
 30
0.0
 10
4.1354198917
 20
4.2994307978
 30
0.0
 10
4.1434157822
 20
4.3720566688
 30
0.0
 10
4.1565149003
 20
4.4456061668
 30
0.0
 10
4.1682836868
 20
4.494671734
 30
0.0
 10
4.1749061207
 20
4.5195323015
 30
0.0
 11
4.1749061207
 21
3.9344910637
 31
0.0
 11
4.1570324705
 21
4.0095907054
 31
0.0
 11
4.1441496899
 21
4.0825898356
 31
0.0
 11
4.1362765705
 21
4.1548642005
 31
0.0
 11
4.1336160504
 21
4.2270369741
 31
0.0
 11
4.1362800928
 21
4.2992071026
 31
0.0
 11
4.1441556059
 21
4.3714747273
 31
0.0
 11
4.1570354861
 21
4.4444471466
 31
0.0
 11
4.1749061207
 21
4.5195323015
 31
0.0
  0
SPLINE
  5
422
100
AcDbEntity
  8
0
100
AcDbSpline
 62
7
  6
CONTINUOUS
 70
0
 71
3
 72
15
 73
11
 74
9
 42
0.0000001
 43
0.0000001
 44
0.0000000001
 12
0.1524995809
 22
0.5724822844
 32
0.0
 13
-0.1524995809
 23
0.5724822844
 33
0.0
 40
0.0
 40
0.0
 40
0.0
 40
0.0
 40
0.1303027146
 40
0.2554233163
 40
0.3781382012
 40
0.500042666
 40
0.6219428883
 40
0.7446469008
 40
0.8697222521
 40
1.0
 40
1.0
 40
1.0
 40
1.0
 10
4.6368698236
 20
3.9344910637
 30
0.0
 10
4.6434935268
 20
3.9593563956
 30
0.0
 10
4.6552653185
 20
4.0084355202
 30
0.0
 10
4.6683655566
 20
4.0820011402
 30
0.0
 10
4.6763596361
 20
4.15463923
 30
0.0
 10
4.6790579458
 20
4.2270361603
 30
0.0
 10
4.6763560527
 20
4.2994307978
 30
0.0
 10
4.6683601622
 20
4.3720566688
 30
0.0
 10
4.6552610441
 20
4.4456061668
 30
0.0
 10
4.6434922576
 20
4.494671734
 30
0.0
 10
4.6368698236
 20
4.5195323015
 30
0.0
 11
4.6368698236
 21
3.9344910637
 31
0.0
 11
4.6547434739
 21
4.0095907054
 31
0.0
 11
4.6676262545
 21
4.0825898356
 31
0.0
 11
4.6754993739
 21
4.1548642005
 31
0.0
 11
4.678159894
 21
4.2270369741
 31
0.0
 11
4.6754958515
 21
4.2992071026
 31
0.0
 11
4.6676203384
 21
4.3714747273
 31
0.0
 11
4.6547404583
 21
4.4444471466
 31
0.0
 11
4.6368698236
 21
4.5195323015
 31
0.0
  0
SPLINE
  5
423
100
AcDbEntity
  8
0
100
AcDbSpline
 62
7
  6
CONTINUOUS
 70
0
 71
3
 72
15
 73
11
 74
9
 42
0.0000001
 43
0.0000001
 44
0.0000000001
 12
-0.144303637
 22
0.2708573861
 32
0.0
 13
0.144303637
 23
0.2708573861
 33
0.0
 40
0.0
 40
0.0
 40
0.0
 40
0.0
 40
0.1355060615
 40
0.2616268072
 40
0.3821382325
 40
0.5000411188
 40
0.6179405518
 40
0.7384429083
 40
0.8645194725
 40
1.0
 40
1.0
 40
1.0
 40
1.0
 10
4.1749061207
 20
4.5678763731
 30
0.0
 10
4.1683881149
 20
4.5801106457
 30
0.0
 10
4.1567548499
 20
4.6042656265
 30
0.0
 10
4.1435468676
 20
4.6411480553
 30
0.0
 10
4.1354503977
 20
4.6776671918
 30
0.0
 10
4.1327080025
 20
4.7141490243
 30
0.0
 10
4.1354540322
 20
4.750629629
 30
0.0
 10
4.1435522617
 20
4.7871423751
 30
0.0
 10
4.156759003
 20
4.8240165808
 30
0.0
 10
4.1683893431
 20
4.8481650249
 30
0.0
 10
4.1749061207
 20
4.8603969921
 30
0.0
 11
4.1749061207
 21
4.5678763731
 31
0.0
 11
4.1570324705
 21
4.605426194
 31
0.0
 11
4.1441496899
 21
4.6419257591
 31
0.0
 11
4.1362765705
 21
4.6780629416
 31
0.0
 11
4.1336160504
 21
4.7141493284
 31
0.0
 11
4.1362800928
 21
4.7502343926
 31
0.0
 11
4.1441556059
 21
4.7863682049
 31
0.0
 11
4.1570354861
 21
4.8228544146
 31
0.0
 11
4.1749061207
 21
4.8603969921
 31
0.0
  0
SPLINE
  5
424
100
AcDbEntity
  8
0
100
AcDbSpline
 62
7
  6
CONTINUOUS
 70
0
 71
3
 72
15
 73
11
 74
9
 42
0.0000001
 43
0.0000001
 44
0.0000000001
 12
0.144303637
 22
0.2708573861
 32
0.0
 13
-0.144303637
 23
0.2708573861
 33
0.0
 40
0.0
 40
0.0
 40
0.0
 40
0.0
 40
0.1355060615
 40
0.2616268072
 40
0.3821382325
 40
0.5000411188
 40
0.6179405518
 40
0.7384429083
 40
0.8645194725
 40
1.0
 40
1.0
 40
1.0
 40
1.0
 10
4.6368698236
 20
4.5678763731
 30
0.0
 10
4.6433878295
 20
4.5801106457
 30
0.0
 10
4.6550210944
 20
4.6042656265
 30
0.0
 10
4.6682290768
 20
4.6411480553
 30
0.0
 10
4.6763255467
 20
4.6776671918
 30
0.0
 10
4.6790679419
 20
4.7141490243
 30
0.0
 10
4.6763219122
 20
4.750629629
 30
0.0
 10
4.6682236827
 20
4.7871423751
 30
0.0
 10
4.6550169414
 20
4.8240165808
 30
0.0
 10
4.6433866012
 20
4.8481650249
 30
0.0
 10
4.6368698236
 20
4.8603969921
 30
0.0
 11
4.6368698236
 21
4.5678763731
 31
0.0
 11
4.6547434739
 21
4.605426194
 31
0.0
 11
4.6676262545
 21
4.6419257591
 31
0.0
 11
4.6754993739
 21
4.6780629416
 31
0.0
 11
4.678159894
 21
4.7141493284
 31
0.0
 11
4.6754958515
 21
4.7502343926
 31
0.0
 11
4.6676203384
 21
4.7863682049
 31
0.0
 11
4.6547404583
 21
4.8228544146
 31
0.0
 11
4.6368698236
 21
4.8603969921
 31
0.0
  0
ENDSEC
  0
SECTION
  2
OBJECTS
  0
DICTIONARY
  5
C
100
AcDbDictionary
280
0
281
1
  3
ACAD_GROUP
350
D
  3
ACAD_MLINESTYLE
350
17
  3
ACAD_LAYOUT
350
1A
  3
ACAD_PLOTSETTINGS
350
19
  3
ACAD_PLOTSTYLENAME
350
E
  0
DICTIONARY
  5
D
102
{ACAD_REACTORS
330
C
102
}
100
AcDbDictionary
280
0
281
1
  0
ACDBDICTIONARYWDFLT
  5
E
102
{ACAD_REACTORS
330
C
102
}
100
AcDbDictionary
281
1
  3
Normal
350
F
100
AcDbDictionaryWithDefault
340
F
  0
DICTIONARY
  5
17
102
{ACAD_REACTORS
330
C
102
}
100
AcDbDictionary
280
0
281
1
  3
Standard
350
18
  0
DICTIONARY
  5
19
102
{ACAD_REACTORS
330
C
102
}
100
AcDbDictionary
281
1
  0
DICTIONARY
  5
1A
102
{ACAD_REACTORS
330
C
102
}
100
AcDbDictionary
281
1
  3
Layout1
350
1E
  3
Model
350
22
  0
ACDBPLACEHOLDER
  5
F
102
{ACAD_REACTORS
330
E
102
}
  0
MLINESTYLE
  5
18
102
{ACAD_REACTORS
330
17
102
}
100
AcDbMlineStyle
  2
STANDARD
 70
0
  3

 62
256
 51
90.0
 52
90.0
 71
2
 49
0.5
 62
256
  6
BYLAYER
 49
-0.5
 62
256
  6
BYLAYER
  0
LAYOUT
  5
1E
102
{ACAD_REACTORS
330
1A
102
}
100
AcDbPlotSettings
  1

  2

  4

  6

 40
0.0
 41
0.0
 42
0.0
 43
0.0
 44
0.0
 45
0.0
 46
0.0
 47
0.0
 48
0.0
 49
0.0
140
0.0
141
0.0
142
1.0
143
1.0
 70
0
 72
0
 73
0
 74
0
  7

 75
0
147
1.0
148
0.0
149
0.0
100
AcDbLayout
  1
Layout1
 70
0
 71
0
 10
0.0
 20
0.0
 11
0.0
 21
0.0
 12
0.0
 22
0.0
 32
0.0
 14
0.0
 24
0.0
 34
0.0
 15
0.0
 25
0.0
 35
0.0
146
0.0
 13
0.0
 23
0.0
 33
0.0
 16
0.0
 26
0.0
 36
0.0
 17
0.0
 27
0.0
 37
0.0
 76
0
330
1B
331
0
345
0
346
0
  0
LAYOUT
  5
22
102
{ACAD_REACTORS
330
1A
102
}
100
AcDbPlotSettings
  1

  2

  4

  6

 40
0.0
 41
0.0
 42
0.0
 43
0.0
 44
0.0
 45
0.0
 46
0.0
 47
0.0
 48
0.0
 49
0.0
140
0.0
141
0.0
142
1.0
143
1.0
 70
0
 72
0
 73
0
 74
0
  7

 75
0
147
1.0
148
0.0
149
0.0
100
AcDbLayout
  1
Model
 70
0
 71
0
 10
0.0
 20
0.0
 11
0.0
 21
0.0
 12
0.0
 22
0.0
 32
0.0
 14
0.0
 24
0.0
 34
0.0
 15
0.0
 25
0.0
 35
0.0
146
0.0
 13
0.0
 23
0.0
 33
0.0
 16
0.0
 26
0.0
 36
0.0
 17
0.0
 27
0.0
 37
0.0
 76
0
330
1F
331
0
345
0
346
0
  0
ENDSEC
  0
EOF
